  0
SECTION
  2
HEADER
  9
$ACADVER
  1
AC1032
  9
$ACADMAINTVER
 90
      228
  9
$DWGCODEPAGE
  3
ANSI_1252
  9
$REQUIREDVERSIONS
160
                 0
  9
$INSBASE
 10
0.0
 20
0.0
 30
0.0
  9
$EXTMIN
 10
1.000000000000000E+20
 20
1.000000000000000E+20
 30
1.000000000000000E+20
  9
$EXTMAX
 10
-1.000000000000000E+20
 20
-1.000000000000000E+20
 30
-1.000000000000000E+20
  9
$LIMMIN
 10
0.0
 20
0.0
  9
$LIMMAX
 10
12.0
 20
9.0
  9
$ORTHOMODE
 70
     0
  9
$REGENMODE
 70
     1
  9
$FILLMODE
 70
     1
  9
$QTEXTMODE
 70
     0
  9
$MIRRTEXT
 70
     0
  9
$LTSCALE
 40
1.0
  9
$ATTMODE
 70
     1
  9
$TEXTSIZE
 40
0.2
  9
$TRACEWID
 40
0.05
  9
$TEXTSTYLE
  7
Standard
  9
$CLAYER
  8
0
  9
$CELTYPE
  6
ByLayer
  9
$CECOLOR
 62
   256
  9
$CELTSCALE
 40
1.0
  9
$DISPSILH
 70
     0
  9
$DIMSCALE
 40
1.0
  9
$DIMASZ
 40
0.18
  9
$DIMEXO
 40
0.0625
  9
$DIMDLI
 40
0.38
  9
$DIMRND
 40
0.0
  9
$DIMDLE
 40
0.0
  9
$DIMEXE
 40
0.18
  9
$DIMTP
 40
0.0
  9
$DIMTM
 40
0.0
  9
$DIMTXT
 40
0.18
  9
$DIMCEN
 40
0.09
  9
$DIMTSZ
 40
0.0
  9
$DIMTOL
 70
     0
  9
$DIMLIM
 70
     0
  9
$DIMTIH
 70
     1
  9
$DIMTOH
 70
     1
  9
$DIMSE1
 70
     0
  9
$DIMSE2
 70
     0
  9
$DIMTAD
 70
     0
  9
$DIMZIN
 70
     0
  9
$DIMBLK
  1

  9
$DIMASO
 70
     1
  9
$DIMSHO
 70
     1
  9
$DIMPOST
  1

  9
$DIMAPOST
  1

  9
$DIMALT
 70
     0
  9
$DIMALTD
 70
     2
  9
$DIMALTF
 40
25.4
  9
$DIMLFAC
 40
1.0
  9
$DIMTOFL
 70
     0
  9
$DIMTVP
 40
0.0
  9
$DIMTIX
 70
     0
  9
$DIMSOXD
 70
     0
  9
$DIMSAH
 70
     0
  9
$DIMBLK1
  1

  9
$DIMBLK2
  1

  9
$DIMSTYLE
  2
Standard
  9
$DIMCLRD
 70
     0
  9
$DIMCLRE
 70
     0
  9
$DIMCLRT
 70
     0
  9
$DIMTFAC
 40
1.0
  9
$DIMGAP
 40
0.09
  9
$DIMJUST
 70
     0
  9
$DIMSD1
 70
     0
  9
$DIMSD2
 70
     0
  9
$DIMTOLJ
 70
     1
  9
$DIMTZIN
 70
     0
  9
$DIMALTZ
 70
     0
  9
$DIMALTTZ
 70
     0
  9
$DIMUPT
 70
     0
  9
$DIMDEC
 70
     4
  9
$DIMTDEC
 70
     4
  9
$DIMALTU
 70
     2
  9
$DIMALTTD
 70
     2
  9
$DIMTXSTY
  7
Standard
  9
$DIMAUNIT
 70
     0
  9
$DIMADEC
 70
     0
  9
$DIMALTRND
 40
0.0
  9
$DIMAZIN
 70
     0
  9
$DIMDSEP
 70
    46
  9
$DIMATFIT
 70
     3
  9
$DIMFRAC
 70
     0
  9
$DIMLDRBLK
  1

  9
$DIMLUNIT
 70
     2
  9
$DIMLWD
 70
    -2
  9
$DIMLWE
 70
    -2
  9
$DIMTMOVE
 70
     0
  9
$DIMFXL
 40
1.0
  9
$DIMFXLON
 70
     0
  9
$DIMJOGANG
 40
0.7853981633974483
  9
$DIMTFILL
 70
     0
  9
$DIMTFILLCLR
 70
     0
  9
$DIMARCSYM
 70
     0
  9
$DIMLTYPE
  6

  9
$DIMLTEX1
  6

  9
$DIMLTEX2
  6

  9
$DIMTXTDIRECTION
 70
     0
  9
$LUNITS
 70
     2
  9
$LUPREC
 70
     4
  9
$SKETCHINC
 40
0.1
  9
$FILLETRAD
 40
0.0
  9
$AUNITS
 70
     0
  9
$AUPREC
 70
     0
  9
$MENU
  1
.
  9
$ELEVATION
 40
0.0
  9
$PELEVATION
 40
0.0
  9
$THICKNESS
 40
0.0
  9
$LIMCHECK
 70
     0
  9
$CHAMFERA
 40
0.0
  9
$CHAMFERB
 40
0.0
  9
$CHAMFERC
 40
0.0
  9
$CHAMFERD
 40
0.0
  9
$SKPOLY
 70
     0
  9
$TDCREATE
 40
2460331.745972222
  9
$TDUCREATE
 40
2460332.079305556
  9
$TDUPDATE
 40
2460331.745972222
  9
$TDUUPDATE
 40
2460332.079305556
  9
$TDINDWG
 40
0.0000000000
  9
$TDUSRTIMER
 40
0.0000000000
  9
$USRTIMER
 70
     1
  9
$ANGBASE
 50
0.0
  9
$ANGDIR
 70
     0
  9
$PDMODE
 70
     0
  9
$PDSIZE
 40
0.0
  9
$PLINEWID
 40
0.0
  9
$SPLFRAME
 70
     0
  9
$SPLINETYPE
 70
     6
  9
$SPLINESEGS
 70
     8
  9
$HANDSEED
  5
A0
  9
$SURFTAB1
 70
     6
  9
$SURFTAB2
 70
     6
  9
$SURFTYPE
 70
     6
  9
$SURFU
 70
     6
  9
$SURFV
 70
     6
  9
$UCSBASE
  2

  9
$UCSNAME
  2

  9
$UCSORG
 10
0.0
 20
0.0
 30
0.0
  9
$UCSXDIR
 10
1.0
 20
0.0
 30
0.0
  9
$UCSYDIR
 10
0.0
 20
1.0
 30
0.0
  9
$UCSORTHOREF
  2

  9
$UCSORTHOVIEW
 70
     0
  9
$UCSORGTOP
 10
0.0
 20
0.0
 30
0.0
  9
$UCSORGBOTTOM
 10
0.0
 20
0.0
 30
0.0
  9
$UCSORGLEFT
 10
0.0
 20
0.0
 30
0.0
  9
$UCSORGRIGHT
 10
0.0
 20
0.0
 30
0.0
  9
$UCSORGFRONT
 10
0.0
 20
0.0
 30
0.0
  9
$UCSORGBACK
 10
0.0
 20
0.0
 30
0.0
  9
$PUCSBASE
  2

  9
$PUCSNAME
  2

  9
$PUCSORG
 10
0.0
 20
0.0
 30
0.0
  9
$PUCSXDIR
 10
1.0
 20
0.0
 30
0.0
  9
$PUCSYDIR
 10
0.0
 20
1.0
 30
0.0
  9
$PUCSORTHOREF
  2

  9
$PUCSORTHOVIEW
 70
     0
  9
$PUCSORGTOP
 10
0.0
 20
0.0
 30
0.0
  9
$PUCSORGBOTTOM
 10
0.0
 20
0.0
 30
0.0
  9
$PUCSORGLEFT
 10
0.0
 20
0.0
 30
0.0
  9
$PUCSORGRIGHT
 10
0.0
 20
0.0
 30
0.0
  9
$PUCSORGFRONT
 10
0.0
 20
0.0
 30
0.0
  9
$PUCSORGBACK
 10
0.0
 20
0.0
 30
0.0
  9
$USERI1
 70
     0
  9
$USERI2
 70
     0
  9
$USERI3
 70
     0
  9
$USERI4
 70
     0
  9
$USERI5
 70
     0
  9
$USERR1
 40
0.0
  9
$USERR2
 40
0.0
  9
$USERR3
 40
0.0
  9
$USERR4
 40
0.0
  9
$USERR5
 40
0.0
  9
$WORLDVIEW
 70
     1
  9
$SHADEDGE
 70
     3
  9
$SHADEDIF
 70
    70
  9
$TILEMODE
 70
     1
  9
$MAXACTVP
 70
    64
  9
$PINSBASE
 10
0.0
 20
0.0
 30
0.0
  9
$PLIMCHECK
 70
     0
  9
$PEXTMIN
 10
1.000000000000000E+20
 20
1.000000000000000E+20
 30
1.000000000000000E+20
  9
$PEXTMAX
 10
-1.000000000000000E+20
 20
-1.000000000000000E+20
 30
-1.000000000000000E+20
  9
$PLIMMIN
 10
0.0
 20
0.0
  9
$PLIMMAX
 10
12.0
 20
9.0
  9
$UNITMODE
 70
     0
  9
$VISRETAIN
 70
     1
  9
$PLINEGEN
 70
     0
  9
$PSLTSCALE
 70
     1
  9
$TREEDEPTH
 70
  3020
  9
$CMLSTYLE
  2
Standard
  9
$CMLJUST
 70
     0
  9
$CMLSCALE
 40
1.0
  9
$PROXYGRAPHICS
 70
     1
  9
$MEASUREMENT
 70
     0
  9
$CELWEIGHT
370
    -1
  9
$ENDCAPS
280
     0
  9
$JOINSTYLE
280
     0
  9
$LWDISPLAY
290
     1
  9
$INSUNITS
 70
     1
  9
$HYPERLINKBASE
  1

  9
$STYLESHEET
  1

  9
$XEDIT
290
     1
  9
$CEPSNTYPE
380
     0
  9
$PSTYLEMODE
290
     1
  9
$FINGERPRINTGUID
  2
{0CDEF892-C024-294C-9184-D64A214EFBAE}
  9
$VERSIONGUID
  2
{BE57FA2A-EB82-5449-91D1-E55A952D387D}
  9
$EXTNAMES
290
     1
  9
$PSVPSCALE
 40
0.0
  9
$OLESTARTUP
290
     0
  9
$SORTENTS
280
   127
  9
$INDEXCTL
280
     0
  9
$HIDETEXT
280
     1
  9
$XCLIPFRAME
280
     2
  9
$HALOGAP
280
     0
  9
$OBSCOLOR
 70
   257
  9
$OBSLTYPE
280
     0
  9
$INTERSECTIONDISPLAY
280
     0
  9
$INTERSECTIONCOLOR
 70
   257
  9
$DIMASSOC
280
     2
  9
$PROJECTNAME
  1

  9
$CAMERADISPLAY
290
     0
  9
$LENSLENGTH
 40
50.0
  9
$CAMERAHEIGHT
 40
0.0
  9
$STEPSPERSEC
 40
2.0
  9
$STEPSIZE
 40
6.0
  9
$3DDWFPREC
 40
2.0
  9
$PSOLWIDTH
 40
0.25
  9
$PSOLHEIGHT
 40
4.0
  9
$LOFTANG1
 40
1.570796326794896
  9
$LOFTANG2
 40
1.570796326794896
  9
$LOFTMAG1
 40
0.0
  9
$LOFTMAG2
 40
0.0
  9
$LOFTPARAM
 70
     7
  9
$LOFTNORMALS
280
     1
  9
$LATITUDE
 40
37.795
  9
$LONGITUDE
 40
-122.394
  9
$NORTHDIRECTION
 40
0.0
  9
$TIMEZONE
 70
 -8000
  9
$LIGHTGLYPHDISPLAY
280
     1
  9
$TILEMODELIGHTSYNCH
280
     1
  9
$CMATERIAL
347
11
  9
$SOLIDHIST
280
     0
  9
$SHOWHIST
280
     1
  9
$DWFFRAME
280
     2
  9
$DGNFRAME
280
     0
  9
$REALWORLDSCALE
290
     1
  9
$INTERFERECOLOR
 62
     1
  9
$INTERFEREOBJVS
345
33
  9
$INTERFEREVPVS
346
30
  9
$CSHADOW
280
     0
  9
$SHADOWPLANELOCATION
 40
0.0
  0
ENDSEC
  0
SECTION
  2
CLASSES
  0
CLASS
  1
ACDBDICTIONARYWDFLT
  2
AcDbDictionaryWithDefault
  3
ObjectDBX Classes
 90
        0
 91
        1
280
     0
281
     0
  0
CLASS
  1
MATERIAL
  2
AcDbMaterial
  3
ObjectDBX Classes
 90
     1153
 91
        3
280
     0
281
     0
  0
CLASS
  1
VISUALSTYLE
  2
AcDbVisualStyle
  3
ObjectDBX Classes
 90
     4095
 91
       24
280
     0
281
     0
  0
CLASS
  1
SCALE
  2
AcDbScale
  3
ObjectDBX Classes
 90
     1153
 91
       17
280
     0
281
     0
  0
CLASS
  1
TABLESTYLE
  2
AcDbTableStyle
  3
ObjectDBX Classes
 90
     4095
 91
        1
280
     0
281
     0
  0
CLASS
  1
MLEADERSTYLE
  2
AcDbMLeaderStyle
  3
ACDB_MLEADERSTYLE_CLASS
 90
     4095
 91
        1
280
     0
281
     0
  0
CLASS
  1
ACDBSECTIONVIEWSTYLE
  2
AcDbSectionViewStyle
  3
ObjectDBX Classes
 90
     1025
 91
        1
280
     0
281
     0
  0
CLASS
  1
ACDBDETAILVIEWSTYLE
  2
AcDbDetailViewStyle
  3
ObjectDBX Classes
 90
     1025
 91
        1
280
     0
281
     0
  0
CLASS
  1
DICTIONARYVAR
  2
AcDbDictionaryVar
  3
ObjectDBX Classes
 90
        0
 91
        5
280
     0
281
     0
  0
CLASS
  1
CELLSTYLEMAP
  2
AcDbCellStyleMap
  3
ObjectDBX Classes
 90
     1152
 91
        1
280
     0
281
     0
  0
ENDSEC
  0
SECTION
  2
TABLES
  0
TABLE
  2
VPORT
  5
8
330
0
100
AcDbSymbolTable
 70
     1
  0
VPORT
  5
57
330
8
100
AcDbSymbolTableRecord
100
AcDbViewportTableRecord
  2
*Active
 70
     0
 10
0.0
 20
0.0
 11
1.0
 21
1.0
 12
0.0
 22
0.0
 13
0.0
 23
0.0
 14
1.0
 24
1.0
 15
0.0
 25
0.0
 16
0.0
 26
0.0
 36
1.0
 17
4.298865264077865
 27
-4.91618177625868
 37
0.0
 40
12.41098917643229
 41
0.7079344395329138
 42
50.0
 43
0.0
 44
0.0
 50
0.0
 51
0.0
 71
     0
 72
   100
 73
     1
 74
     1
 75
     0
 76
     0
 77
     0
 78
     0
281
     0
 65
     1
110
0.0
120
0.0
130
0.0
111
1.0
121
0.0
131
0.0
112
0.0
122
1.0
132
0.0
 79
     0
146
0.0
 60
     3
 61
     5
292
     1
282
     1
141
0.0
142
0.0
 63
   250
421
  3355443
  0
ENDTAB
  0
TABLE
  2
LTYPE
  5
5
330
0
100
AcDbSymbolTable
 70
     1
  0
LTYPE
  5
5B
330
5
100
AcDbSymbolTableRecord
100
AcDbLinetypeTableRecord
  2
ByBlock
 70
     0
  3

 72
    65
 73
     0
 40
0.0
  0
LTYPE
  5
5C
330
5
100
AcDbSymbolTableRecord
100
AcDbLinetypeTableRecord
  2
ByLayer
 70
     0
  3

 72
    65
 73
     0
 40
0.0
  0
LTYPE
  5
5D
330
5
100
AcDbSymbolTableRecord
100
AcDbLinetypeTableRecord
  2
Continuous
 70
     0
  3
Solid line
 72
    65
 73
     0
 40
0.0
  0
ENDTAB
  0
TABLE
  2
LAYER
  5
2
330
0
100
AcDbSymbolTable
 70
     3
  0
LAYER
  5
54
330
2
100
AcDbSymbolTableRecord
100
AcDbLayerTableRecord
  2
0
 70
     0
 62
     7
  6
Continuous
370
    -3
390
F
347
21
348
0
  0
LAYER
  5
78
330
2
100
AcDbSymbolTableRecord
100
AcDbLayerTableRecord
  2
Layer 2
 70
     0
 62
     7
  6
Continuous
370
     0
390
F
347
21
348
0
  0
LAYER
  5
79
330
2
100
AcDbSymbolTableRecord
100
AcDbLayerTableRecord
  2
Layer 1
 70
     0
 62
     7
  6
Continuous
370
     0
390
F
347
21
348
0
  0
ENDTAB
  0
TABLE
  2
STYLE
  5
3
330
0
100
AcDbSymbolTable
 70
     2
  0
STYLE
  5
55
330
3
100
AcDbSymbolTableRecord
100
AcDbTextStyleTableRecord
  2
Standard
 70
     0
 40
0.0
 41
1.0
 50
0.0
 71
     0
 42
0.2
  3
txt
  4

  0
STYLE
  5
5A
330
3
100
AcDbSymbolTableRecord
100
AcDbTextStyleTableRecord
  2
Annotative
 70
     0
 40
0.0
 41
1.0
 50
0.0
 71
     0
 42
0.2
  3
txt
  4

1001
AcadAnnotative
1000
AnnotativeData
1002
{
1070
     1
1070
     1
1002
}
  0
ENDTAB
  0
TABLE
  2
VIEW
  5
6
330
0
100
AcDbSymbolTable
 70
     0
  0
ENDTAB
  0
TABLE
  2
UCS
  5
7
330
0
100
AcDbSymbolTable
 70
     0
  0
ENDTAB
  0
TABLE
  2
APPID
  5
9
330
0
100
AcDbSymbolTable
 70
     2
  0
APPID
  5
56
330
9
100
AcDbSymbolTableRecord
100
AcDbRegAppTableRecord
  2
ACAD
 70
     0
  0
APPID
  5
5E
330
9
100
AcDbSymbolTableRecord
100
AcDbRegAppTableRecord
  2
AcadAnnotative
 70
     0
  0
ENDTAB
  0
TABLE
  2
DIMSTYLE
  5
A
330
0
100
AcDbSymbolTable
 70
     2
100
AcDbDimStyleTable
 71
     0
  0
DIMSTYLE
105
58
330
A
100
AcDbSymbolTableRecord
100
AcDbDimStyleTableRecord
  2
Standard
 70
     0
340
55
  0
DIMSTYLE
105
59
330
A
100
AcDbSymbolTableRecord
100
AcDbDimStyleTableRecord
  2
Annotative
 70
     0
340
55
1001
AcadAnnotative
1000
AnnotativeData
1002
{
1070
     1
1070
     1
1002
}
  0
ENDTAB
  0
TABLE
  2
BLOCK_RECORD
  5
1
330
0
100
AcDbSymbolTable
 70
     2
  0
BLOCK_RECORD
  5
70
330
1
100
AcDbSymbolTableRecord
100
AcDbBlockTableRecord
  2
*Model_Space
340
73
 70
     0
280
     1
281
     0
  0
BLOCK_RECORD
  5
6C
330
1
100
AcDbSymbolTableRecord
100
AcDbBlockTableRecord
  2
*Paper_Space
340
6F
 70
     0
280
     1
281
     0
  0
BLOCK_RECORD
  5
74
330
1
100
AcDbSymbolTableRecord
100
AcDbBlockTableRecord
  2
*Paper_Space0
340
77
 70
     0
280
     1
281
     0
  0
BLOCK_RECORD
  5
7B
330
1
100
AcDbSymbolTableRecord
100
AcDbBlockTableRecord
  2
Block_0
340
0
102
{BLKREFS
331
7C
102
}
 70
     0
280
     1
281
     0
  0
ENDTAB
  0
ENDSEC
  0
SECTION
  2
BLOCKS
  0
BLOCK
  5
71
330
70
100
AcDbEntity
  8
0
100
AcDbBlockBegin
  2
*Model_Space
 70
     0
 10
0.0
 20
0.0
 30
0.0
  3
*Model_Space
  1

  0
ENDBLK
  5
72
330
70
100
AcDbEntity
  8
0
100
AcDbBlockEnd
  0
BLOCK
  5
6D
330
6C
100
AcDbEntity
 67
     1
  8
0
100
AcDbBlockBegin
  2
*Paper_Space
 70
     0
 10
0.0
 20
0.0
 30
0.0
  3
*Paper_Space
  1

  0
ENDBLK
  5
6E
330
6C
100
AcDbEntity
 67
     1
  8
0
100
AcDbBlockEnd
  0
BLOCK
  5
75
330
74
100
AcDbEntity
 67
     1
  8
0
100
AcDbBlockBegin
  2
*Paper_Space0
 70
     0
 10
0.0
 20
0.0
 30
0.0
  3
*Paper_Space0
  1

  0
ENDBLK
  5
76
330
74
100
AcDbEntity
 67
     1
  8
0
100
AcDbBlockEnd
  0
BLOCK
  5
7D
330
7B
100
AcDbEntity
  8
0
100
AcDbBlockBegin
  2
Block_0
 70
     0
 10
0.0
 20
0.0
 30
0.0
  3
Block_0
  1

  0
SPLINE
  5
7F
330
7B
100
AcDbEntity
  8
Layer 1
100
AcDbSpline
210
0.0
220
0.0
230
1.0
 70
     9
 71
     3
 72
    71
 73
    67
 74
     0
 42
0.0000000001
 43
0.0000000001
 40
0.0
 40
0.0
 40
0.0
 40
0.0
 40
1.0
 40
1.0
 40
1.0
 40
2.0
 40
2.0
 40
2.0
 40
3.0
 40
3.0
 40
3.0
 40
4.0
 40
4.0
 40
4.0
 40
5.0
 40
5.0
 40
5.0
 40
6.0
 40
6.0
 40
6.0
 40
7.0
 40
7.0
 40
7.0
 40
8.0
 40
8.0
 40
8.0
 40
9.0
 40
9.0
 40
9.0
 40
10.0
 40
10.0
 40
10.0
 40
11.0
 40
11.0
 40
11.0
 40
12.0
 40
12.0
 40
12.0
 40
13.0
 40
13.0
 40
13.0
 40
14.0
 40
14.0
 40
14.0
 40
15.0
 40
15.0
 40
15.0
 40
16.0
 40
16.0
 40
16.0
 40
17.0
 40
17.0
 40
17.0
 40
18.0
 40
18.0
 40
18.0
 40
19.0
 40
19.0
 40
19.0
 40
20.0
 40
20.0
 40
20.0
 40
21.0
 40
21.0
 40
21.0
 40
22.0
 40
22.0
 40
22.0
 40
22.0
 10
3.399950575022886
 20
-9.700989096008267
 30
0.0
 10
3.388981862197523
 20
-9.700028447792393
 30
0.0
 10
3.380761233202797
 20
-9.698091403029264
 30
0.0
 10
3.375280813872955
 20
-9.695193710050286
 30
0.0
 10
3.370446076130848
 20
-9.692296017071283
 30
0.0
 10
3.366973569055466
 20
-9.68607542616529
 30
0.0
 10
3.364879040978267
 20
-9.676563433995143
 30
0.0
 10
3.362776638735365
 20
-9.667051441824973
 30
0.0
 10
3.361894732176526
 20
-9.657618191311838
 30
0.0
 10
3.362217572970394
 20
-9.648263682455763
 30
0.0
 10
3.363186095351945
 20
-9.632783072682133
 30
0.0
 10
3.363831776939655
 20
-9.610373197089176
 30
0.0
 10
3.364154617733523
 20
-9.581018307345477
 30
0.0
 10
3.364469584361661
 20
-9.551679165933187
 30
0.0
 10
3.365123140115075
 20
-9.530387421870171
 30
0.0
 10
3.366091662496652
 20
-9.517158823487836
 30
0.0
 10
3.366091662496652
 20
-9.517158823487836
 30
0.0
 10
3.352059899212513
 20
-9.517158823487836
 30
0.0
 10
3.352059899212513
 20
-9.517158823487836
 30
0.0
 10
3.34044550479944
 20
-9.516843856859672
 30
0.0
 10
3.333028040706469
 20
-9.515395010370184
 30
0.0
 10
3.329807506933623
 20
-9.512796535687938
 30
0.0
 10
3.326579098995074
 20
-9.510229557668505
 30
0.0
 10
3.32415385595833
 20
-9.503457775163242
 30
0.0
 10
3.322547526154746
 20
-9.492481188172178
 30
0.0
 10
3.319641959010065
 20
-9.476354896810839
 30
0.0
 10
3.319964799803907
 20
-9.462496365172201
 30
0.0
 10
3.323516048536323
 20
-9.450874096593425
 30
0.0
 10
3.325122378339882
 20
-9.445724392223155
 30
0.0
 10
3.327941329661825
 20
-9.44128336276622
 30
0.0
 10
3.331980776667882
 20
-9.437566756554032
 30
0.0
 10
3.33601234950821
 20
-9.433865898673248
 30
0.0
 10
3.346736963196765
 20
-9.426212209609174
 30
0.0
 10
3.364154617733523
 20
-9.414589941030397
 30
0.0
 10
3.381887238898419
 20
-9.402668454154889
 30
0.0
 10
3.394950479801006
 20
-9.394274593514662
 30
0.0
 10
3.403336466275529
 20
-9.389439855772529
 30
0.0
 10
3.431399992843782
 20
-9.383313754855002
 30
0.0
 10
3.452518505261322
 20
-9.383628721483141
 30
0.0
 10
3.466715626025234
 20
-9.390400503988404
 30
0.0
 10
3.474770897540211
 20
-9.393959626886498
 30
0.0
 10
3.480582031829599
 20
-9.399282562902245
 30
0.0
 10
3.484133280561991
 20
-9.406369312035646
 30
0.0
 10
3.485739610365574
 20
-9.423471999944265
 30
0.0
 10
3.486952231883959
 20
-9.440322714550347
 30
0.0
 10
3.487763270951442
 20
-9.456921455853917
 30
0.0
 10
3.488566435853221
 20
-9.473535945488896
 30
0.0
 10
3.488889276647089
 20
-9.490953600025653
 30
0.0
 10
3.488731793333019
 20
-9.509174419464189
 30
0.0
 10
3.488566435853221
 20
-9.527395238902752
 30
0.0
 10
3.488322336716414
 20
-9.542560882048215
 30
0.0
 10
3.487999495922546
 20
-9.554655600569224
 30
0.0
 10
3.487676655128704
 20
-9.566750319090234
 30
0.0
 10
3.487038847706697
 20
-9.58383725866742
 30
0.0
 10
3.48607032532512
 20
-9.605932167632241
 30
0.0
 10
3.485101802943568
 20
-9.628027076597037
 30
0.0
 10
3.484448247190155
 20
-9.644074626301339
 30
0.0
 10
3.484133280561991
 20
-9.654074816745151
 30
0.0
 10
3.483164758180439
 20
-9.672783834457327
 30
0.0
 10
3.479125311174407
 20
-9.685839201194186
 30
0.0
 10
3.472038562041007
 20
-9.693256665287156
 30
0.0
 10
3.460101326834066
 20
-9.698406369657428
 30
0.0
 10
3.448573548243732
 20
-9.701398552624848
 30
0.0
 10
3.4374473521043
 20
-9.702201717526651
 30
0.0
 10
3.426321155964867
 20
-9.703004882428432
 30
0.0
 10
3.413816980827252
 20
-9.702611174143232
 30
0.0
 10
3.399950575022886
 20
-9.700989096008267
 30
0.0
  0
HATCH
  5
80
330
7B
100
AcDbEntity
  8
Layer 1
 62
   250
420
  2301728
440
 33554687
100
AcDbHatch
 10
0.0
 20
0.0
 30
0.0
210
0.0
220
0.0
230
1.0
  2
SOLID
 70
     1
 71
     1
 91
        1
 92
        1
 93
        1
 72
     4
 94
        3
 73
     0
 74
     0
 95
       71
 96
       67
 40
0.0
 40
0.0
 40
0.0
 40
0.0
 40
1.0
 40
1.0
 40
1.0
 40
2.0
 40
2.0
 40
2.0
 40
3.0
 40
3.0
 40
3.0
 40
4.0
 40
4.0
 40
4.0
 40
5.0
 40
5.0
 40
5.0
 40
6.0
 40
6.0
 40
6.0
 40
7.0
 40
7.0
 40
7.0
 40
8.0
 40
8.0
 40
8.0
 40
9.0
 40
9.0
 40
9.0
 40
10.0
 40
10.0
 40
10.0
 40
11.0
 40
11.0
 40
11.0
 40
12.0
 40
12.0
 40
12.0
 40
13.0
 40
13.0
 40
13.0
 40
14.0
 40
14.0
 40
14.0
 40
15.0
 40
15.0
 40
15.0
 40
16.0
 40
16.0
 40
16.0
 40
17.0
 40
17.0
 40
17.0
 40
18.0
 40
18.0
 40
18.0
 40
19.0
 40
19.0
 40
19.0
 40
20.0
 40
20.0
 40
20.0
 40
21.0
 40
21.0
 40
21.0
 40
22.0
 40
22.0
 40
22.0
 40
22.0
 10
3.399950575022886
 20
-9.700989096008267
 10
3.388981862197523
 20
-9.700028447792393
 10
3.380761233202797
 20
-9.698091403029264
 10
3.375280813872955
 20
-9.695193710050286
 10
3.370446076130848
 20
-9.692296017071283
 10
3.366973569055466
 20
-9.68607542616529
 10
3.364879040978267
 20
-9.676563433995143
 10
3.362776638735365
 20
-9.667051441824973
 10
3.361894732176526
 20
-9.657618191311838
 10
3.362217572970394
 20
-9.648263682455763
 10
3.363186095351945
 20
-9.632783072682133
 10
3.363831776939655
 20
-9.610373197089176
 10
3.364154617733523
 20
-9.581018307345477
 10
3.364469584361661
 20
-9.551679165933187
 10
3.365123140115075
 20
-9.530387421870171
 10
3.366091662496652
 20
-9.517158823487836
 10
3.366091662496652
 20
-9.517158823487836
 10
3.352059899212513
 20
-9.517158823487836
 10
3.352059899212513
 20
-9.517158823487836
 10
3.34044550479944
 20
-9.516843856859672
 10
3.333028040706469
 20
-9.515395010370184
 10
3.329807506933623
 20
-9.512796535687938
 10
3.326579098995074
 20
-9.510229557668505
 10
3.32415385595833
 20
-9.503457775163242
 10
3.322547526154746
 20
-9.492481188172178
 10
3.319641959010065
 20
-9.476354896810839
 10
3.319964799803907
 20
-9.462496365172201
 10
3.323516048536323
 20
-9.450874096593425
 10
3.325122378339882
 20
-9.445724392223155
 10
3.327941329661825
 20
-9.44128336276622
 10
3.331980776667882
 20
-9.437566756554032
 10
3.33601234950821
 20
-9.433865898673248
 10
3.346736963196765
 20
-9.426212209609174
 10
3.364154617733523
 20
-9.414589941030397
 10
3.381887238898419
 20
-9.402668454154889
 10
3.394950479801006
 20
-9.394274593514662
 10
3.403336466275529
 20
-9.389439855772529
 10
3.431399992843782
 20
-9.383313754855002
 10
3.452518505261322
 20
-9.383628721483141
 10
3.466715626025234
 20
-9.390400503988404
 10
3.474770897540211
 20
-9.393959626886498
 10
3.480582031829599
 20
-9.399282562902245
 10
3.484133280561991
 20
-9.406369312035646
 10
3.485739610365574
 20
-9.423471999944265
 10
3.486952231883959
 20
-9.440322714550347
 10
3.487763270951442
 20
-9.456921455853917
 10
3.488566435853221
 20
-9.473535945488896
 10
3.488889276647089
 20
-9.490953600025653
 10
3.488731793333019
 20
-9.509174419464189
 10
3.488566435853221
 20
-9.527395238902752
 10
3.488322336716414
 20
-9.542560882048215
 10
3.487999495922546
 20
-9.554655600569224
 10
3.487676655128704
 20
-9.566750319090234
 10
3.487038847706697
 20
-9.58383725866742
 10
3.48607032532512
 20
-9.605932167632241
 10
3.485101802943568
 20
-9.628027076597037
 10
3.484448247190155
 20
-9.644074626301339
 10
3.484133280561991
 20
-9.654074816745151
 10
3.483164758180439
 20
-9.672783834457327
 10
3.479125311174407
 20
-9.685839201194186
 10
3.472038562041007
 20
-9.693256665287156
 10
3.460101326834066
 20
-9.698406369657428
 10
3.448573548243732
 20
-9.701398552624848
 10
3.4374473521043
 20
-9.702201717526651
 10
3.426321155964867
 20
-9.703004882428432
 10
3.413816980827252
 20
-9.702611174143232
 10
3.399950575022886
 20
-9.700989096008267
 97
        0
 97
        1
330
7F
 75
     2
 76
     1
 98
        1
 10
0.0
 20
0.0
450
        0
451
        0
460
0.0
461
0.0
452
        0
462
0.0
453
        0
470

  0
SPLINE
  5
81
330
7B
100
AcDbEntity
  8
Layer 1
100
AcDbSpline
210
0.0
220
0.0
230
1.0
 70
     9
 71
     3
 72
    89
 73
    85
 74
     0
 42
0.0000000001
 43
0.0000000001
 40
0.0
 40
0.0
 40
0.0
 40
0.0
 40
1.0
 40
1.0
 40
1.0
 40
2.0
 40
2.0
 40
2.0
 40
3.0
 40
3.0
 40
3.0
 40
4.0
 40
4.0
 40
4.0
 40
5.0
 40
5.0
 40
5.0
 40
6.0
 40
6.0
 40
6.0
 40
7.0
 40
7.0
 40
7.0
 40
8.0
 40
8.0
 40
8.0
 40
9.0
 40
9.0
 40
9.0
 40
10.0
 40
10.0
 40
10.0
 40
11.0
 40
11.0
 40
11.0
 40
12.0
 40
12.0
 40
12.0
 40
13.0
 40
13.0
 40
13.0
 40
14.0
 40
14.0
 40
14.0
 40
15.0
 40
15.0
 40
15.0
 40
16.0
 40
16.0
 40
16.0
 40
17.0
 40
17.0
 40
17.0
 40
18.0
 40
18.0
 40
18.0
 40
19.0
 40
19.0
 40
19.0
 40
20.0
 40
20.0
 40
20.0
 40
21.0
 40
21.0
 40
21.0
 40
22.0
 40
22.0
 40
22.0
 40
23.0
 40
23.0
 40
23.0
 40
24.0
 40
24.0
 40
24.0
 40
25.0
 40
25.0
 40
25.0
 40
26.0
 40
26.0
 40
26.0
 40
27.0
 40
27.0
 40
27.0
 40
28.0
 40
28.0
 40
28.0
 40
28.0
 10
3.50881091587765
 20
-9.570860633587598
 30
0.0
 10
3.515582698382887
 20
-9.553128012422702
 30
0.0
 10
3.527023861150483
 20
-9.542970338664821
 30
0.0
 10
3.543158026677524
 20
-9.540371863982574
 30
0.0
 10
3.554118865337184
 20
-9.538765534178992
 30
0.0
 10
3.563796214987127
 20
-9.541190777215762
 30
0.0
 10
3.572182201461651
 20
-9.547631844761452
 30
0.0
 10
3.57411924622478
 20
-9.549253922896442
 30
0.0
 10
3.576371257616074
 20
-9.55199413256135
 30
0.0
 10
3.578953983966913
 20
-9.555852473756203
 30
0.0
 10
3.581536710317752
 20
-9.559726563282461
 30
0.0
 10
3.583954079188818
 20
-9.562876229563975
 30
0.0
 10
3.58621396474579
 20
-9.565301472600745
 30
0.0
 10
3.588465976137083
 20
-9.567710967306084
 30
0.0
 10
3.590883345008124
 20
-9.568608622196329
 30
0.0
 10
3.593473945524667
 20
-9.567947192277213
 30
0.0
 10
3.598308683266799
 20
-9.566340862473628
 30
0.0
 10
3.599111848168579
 20
-9.56246677294737
 30
0.0
 10
3.595891314395733
 20
-9.556340672029843
 30
0.0
 10
3.592017224869474
 20
-9.547962559721023
 30
0.0
 10
3.58363123839495
 20
-9.538923017493086
 30
0.0
 10
3.570733354972162
 20
-9.529253542008847
 30
0.0
 10
3.551701496466143
 20
-9.516024943626486
 30
0.0
 10
3.538315414769714
 20
-9.500638823841301
 30
0.0
 10
3.530575109882899
 20
-9.483047937659067
 30
0.0
 10
3.522834804996086
 20
-9.465472799808214
 30
0.0
 10
3.522189123408376
 20
-9.447000007067167
 30
0.0
 10
3.528645939285474
 20
-9.427661056098687
 30
0.0
 10
3.534764166037297
 20
-9.409928434933766
 30
0.0
 10
3.5462210771363
 20
-9.395802181661185
 30
0.0
 10
3.562993050085348
 20
-9.385329541275167
 30
0.0
 10
3.579757148868692
 20
-9.374841152557715
 30
0.0
 10
3.600080370550156
 20
-9.369439474884933
 30
0.0
 10
3.623946966798307
 20
-9.369124508256794
 30
0.0
 10
3.642648110344781
 20
-9.369124508256794
 30
0.0
 10
3.657246813559595
 20
-9.370163898129677
 30
0.0
 10
3.667735202277021
 20
-9.372258426206876
 30
0.0
 10
3.67820784266304
 20
-9.374368702615507
 30
0.0
 10
3.688129291449816
 20
-9.378636500426939
 30
0.0
 10
3.697483800305892
 20
-9.385077567972631
 30
0.0
 10
3.721673237347911
 20
-9.404117300644378
 30
0.0
 10
3.729901740508365
 20
-9.426857891196883
 30
0.0
 10
3.722161435621551
 20
-9.45329933963017
 30
0.0
 10
3.716995982919873
 20
-9.472008357342373
 30
0.0
 10
3.704743781084794
 20
-9.482323514414321
 30
0.0
 10
3.685389081784882
 20
-9.484260559177451
 30
0.0
 10
3.679262980867355
 20
-9.485221207393299
 30
0.0
 10
3.672814039155961
 20
-9.484591274136997
 30
0.0
 10
3.666042256650699
 20
-9.482323514414321
 30
0.0
 10
3.659262599979759
 20
-9.480071503023028
 30
0.0
 10
3.654585345551721
 20
-9.476354896810839
 30
0.0
 10
3.652010493366585
 20
-9.47118944410916
 30
0.0
 10
3.650719130191166
 20
-9.469268147677439
 30
0.0
 10
3.649026184564844
 20
-9.467976784502019
 30
0.0
 10
3.646931656487645
 20
-9.467331102914309
 30
0.0
 10
3.644829254244718
 20
-9.4666854213266
 30
0.0
 10
3.643136308618421
 20
-9.46701613628617
 30
0.0
 10
3.641852819608705
 20
-9.468291751130182
 30
0.0
 10
3.639585059886005
 20
-9.470874477481022
 30
0.0
 10
3.639750417365778
 20
-9.474024143762536
 30
0.0
 10
3.642333143716617
 20
-9.477725001643294
 30
0.0
 10
3.644907995901752
 20
-9.481441607855483
 30
0.0
 10
3.652010493366585
 20
-9.488607098645918
 30
0.0
 10
3.663617013613954
 20
-9.499252970677439
 30
0.0
 10
3.687160769068238
 20
-9.519899033152745
 30
0.0
 10
3.702806736321665
 20
-9.536671006101792
 30
0.0
 10
3.710547041208478
 20
-9.54956888952458
 30
0.0
 10
3.721507879868138
 20
-9.567947192277213
 30
0.0
 10
3.726673332569816
 20
-9.586026276733086
 30
0.0
 10
3.726027650982107
 20
-9.603758897897982
 30
0.0
 10
3.725381969394397
 20
-9.625696323548734
 30
0.0
 10
3.717153466233942
 20
-9.644562824574979
 30
0.0
 10
3.70135788983215
 20
-9.660358400976747
 30
0.0
 10
3.685546565098977
 20
-9.676169725709945
 30
0.0
 10
3.666199739964794
 20
-9.685351002920544
 30
0.0
 10
3.643301666098194
 20
-9.687933729271383
 30
0.0
 10
3.617175184293046
 20
-9.691492852169504
 30
0.0
 10
3.593788912152831
 20
-9.689303834103863
 30
0.0
 10
3.573150723843228
 20
-9.681398171737251
 30
0.0
 10
3.552504661367922
 20
-9.673508257702071
 30
0.0
 10
3.536386244172287
 20
-9.661649764152166
 30
0.0
 10
3.524771849759215
 20
-9.645838439418993
 30
0.0
 10
3.5076770360163
 20
-9.622940365552393
 30
0.0
 10
3.502354100000552
 20
-9.597947763608594
 30
0.0
 10
3.50881091587765
 20
-9.570860633587598
 30
0.0
  0
HATCH
  5
82
330
7B
100
AcDbEntity
  8
Layer 1
 62
   250
420
  2301728
440
 33554687
100
AcDbHatch
 10
0.0
 20
0.0
 30
0.0
210
0.0
220
0.0
230
1.0
  2
SOLID
 70
     1
 71
     1
 91
        1
 92
        1
 93
        1
 72
     4
 94
        3
 73
     0
 74
     0
 95
       89
 96
       85
 40
0.0
 40
0.0
 40
0.0
 40
0.0
 40
1.0
 40
1.0
 40
1.0
 40
2.0
 40
2.0
 40
2.0
 40
3.0
 40
3.0
 40
3.0
 40
4.0
 40
4.0
 40
4.0
 40
5.0
 40
5.0
 40
5.0
 40
6.0
 40
6.0
 40
6.0
 40
7.0
 40
7.0
 40
7.0
 40
8.0
 40
8.0
 40
8.0
 40
9.0
 40
9.0
 40
9.0
 40
10.0
 40
10.0
 40
10.0
 40
11.0
 40
11.0
 40
11.0
 40
12.0
 40
12.0
 40
12.0
 40
13.0
 40
13.0
 40
13.0
 40
14.0
 40
14.0
 40
14.0
 40
15.0
 40
15.0
 40
15.0
 40
16.0
 40
16.0
 40
16.0
 40
17.0
 40
17.0
 40
17.0
 40
18.0
 40
18.0
 40
18.0
 40
19.0
 40
19.0
 40
19.0
 40
20.0
 40
20.0
 40
20.0
 40
21.0
 40
21.0
 40
21.0
 40
22.0
 40
22.0
 40
22.0
 40
23.0
 40
23.0
 40
23.0
 40
24.0
 40
24.0
 40
24.0
 40
25.0
 40
25.0
 40
25.0
 40
26.0
 40
26.0
 40
26.0
 40
27.0
 40
27.0
 40
27.0
 40
28.0
 40
28.0
 40
28.0
 40
28.0
 10
3.50881091587765
 20
-9.570860633587598
 10
3.515582698382887
 20
-9.553128012422702
 10
3.527023861150483
 20
-9.542970338664821
 10
3.543158026677524
 20
-9.540371863982574
 10
3.554118865337184
 20
-9.538765534178992
 10
3.563796214987127
 20
-9.541190777215762
 10
3.572182201461651
 20
-9.547631844761452
 10
3.57411924622478
 20
-9.549253922896442
 10
3.576371257616074
 20
-9.55199413256135
 10
3.578953983966913
 20
-9.555852473756203
 10
3.581536710317752
 20
-9.559726563282461
 10
3.583954079188818
 20
-9.562876229563975
 10
3.58621396474579
 20
-9.565301472600745
 10
3.588465976137083
 20
-9.567710967306084
 10
3.590883345008124
 20
-9.568608622196329
 10
3.593473945524667
 20
-9.567947192277213
 10
3.598308683266799
 20
-9.566340862473628
 10
3.599111848168579
 20
-9.56246677294737
 10
3.595891314395733
 20
-9.556340672029843
 10
3.592017224869474
 20
-9.547962559721023
 10
3.58363123839495
 20
-9.538923017493086
 10
3.570733354972162
 20
-9.529253542008847
 10
3.551701496466143
 20
-9.516024943626486
 10
3.538315414769714
 20
-9.500638823841301
 10
3.530575109882899
 20
-9.483047937659067
 10
3.522834804996086
 20
-9.465472799808214
 10
3.522189123408376
 20
-9.447000007067167
 10
3.528645939285474
 20
-9.427661056098687
 10
3.534764166037297
 20
-9.409928434933766
 10
3.5462210771363
 20
-9.395802181661185
 10
3.562993050085348
 20
-9.385329541275167
 10
3.579757148868692
 20
-9.374841152557715
 10
3.600080370550156
 20
-9.369439474884933
 10
3.623946966798307
 20
-9.369124508256794
 10
3.642648110344781
 20
-9.369124508256794
 10
3.657246813559595
 20
-9.370163898129677
 10
3.667735202277021
 20
-9.372258426206876
 10
3.67820784266304
 20
-9.374368702615507
 10
3.688129291449816
 20
-9.378636500426939
 10
3.697483800305892
 20
-9.385077567972631
 10
3.721673237347911
 20
-9.404117300644378
 10
3.729901740508365
 20
-9.426857891196883
 10
3.722161435621551
 20
-9.45329933963017
 10
3.716995982919873
 20
-9.472008357342373
 10
3.704743781084794
 20
-9.482323514414321
 10
3.685389081784882
 20
-9.484260559177451
 10
3.679262980867355
 20
-9.485221207393299
 10
3.672814039155961
 20
-9.484591274136997
 10
3.666042256650699
 20
-9.482323514414321
 10
3.659262599979759
 20
-9.480071503023028
 10
3.654585345551721
 20
-9.476354896810839
 10
3.652010493366585
 20
-9.47118944410916
 10
3.650719130191166
 20
-9.469268147677439
 10
3.649026184564844
 20
-9.467976784502019
 10
3.646931656487645
 20
-9.467331102914309
 10
3.644829254244718
 20
-9.4666854213266
 10
3.643136308618421
 20
-9.46701613628617
 10
3.641852819608705
 20
-9.468291751130182
 10
3.639585059886005
 20
-9.470874477481022
 10
3.639750417365778
 20
-9.474024143762536
 10
3.642333143716617
 20
-9.477725001643294
 10
3.644907995901752
 20
-9.481441607855483
 10
3.652010493366585
 20
-9.488607098645918
 10
3.663617013613954
 20
-9.499252970677439
 10
3.687160769068238
 20
-9.519899033152745
 10
3.702806736321665
 20
-9.536671006101792
 10
3.710547041208478
 20
-9.54956888952458
 10
3.721507879868138
 20
-9.567947192277213
 10
3.726673332569816
 20
-9.586026276733086
 10
3.726027650982107
 20
-9.603758897897982
 10
3.725381969394397
 20
-9.625696323548734
 10
3.717153466233942
 20
-9.644562824574979
 10
3.70135788983215
 20
-9.660358400976747
 10
3.685546565098977
 20
-9.676169725709945
 10
3.666199739964794
 20
-9.685351002920544
 10
3.643301666098194
 20
-9.687933729271383
 10
3.617175184293046
 20
-9.691492852169504
 10
3.593788912152831
 20
-9.689303834103863
 10
3.573150723843228
 20
-9.681398171737251
 10
3.552504661367922
 20
-9.673508257702071
 10
3.536386244172287
 20
-9.661649764152166
 10
3.524771849759215
 20
-9.645838439418993
 10
3.5076770360163
 20
-9.622940365552393
 10
3.502354100000552
 20
-9.597947763608594
 10
3.50881091587765
 20
-9.570860633587598
 97
        0
 97
        1
330
81
 75
     2
 76
     1
 98
        1
 10
0.0
 20
0.0
450
        0
451
        0
460
0.0
461
0.0
452
        0
462
0.0
453
        0
470

  0
SPLINE
  5
83
330
7B
100
AcDbEntity
  8
Layer 1
100
AcDbSpline
210
0.0
220
0.0
230
1.0
 70
     9
 71
     3
 72
    80
 73
    76
 74
     0
 42
0.0000000001
 43
0.0000000001
 40
0.0
 40
0.0
 40
0.0
 40
0.0
 40
1.0
 40
1.0
 40
1.0
 40
2.0
 40
2.0
 40
2.0
 40
3.0
 40
3.0
 40
3.0
 40
4.0
 40
4.0
 40
4.0
 40
5.0
 40
5.0
 40
5.0
 40
6.0
 40
6.0
 40
6.0
 40
7.0
 40
7.0
 40
7.0
 40
8.0
 40
8.0
 40
8.0
 40
9.0
 40
9.0
 40
9.0
 40
10.0
 40
10.0
 40
10.0
 40
11.0
 40
11.0
 40
11.0
 40
12.0
 40
12.0
 40
12.0
 40
13.0
 40
13.0
 40
13.0
 40
14.0
 40
14.0
 40
14.0
 40
15.0
 40
15.0
 40
15.0
 40
16.0
 40
16.0
 40
16.0
 40
17.0
 40
17.0
 40
17.0
 40
18.0
 40
18.0
 40
18.0
 40
19.0
 40
19.0
 40
19.0
 40
20.0
 40
20.0
 40
20.0
 40
21.0
 40
21.0
 40
21.0
 40
22.0
 40
22.0
 40
22.0
 40
23.0
 40
23.0
 40
23.0
 40
24.0
 40
24.0
 40
24.0
 40
25.0
 40
25.0
 40
25.0
 40
25.0
 10
3.793273026092366
 20
-9.684547838018765
 30
0.0
 10
3.777469575524896
 20
-9.676799658966247
 30
0.0
 10
3.77182379871528
 20
-9.645680956104923
 30
0.0
 10
3.776343569829249
 20
-9.591175981103358
 30
0.0
 10
3.78149327419952
 20
-9.541190777215762
 30
0.0
 10
3.784083874716063
 20
-9.508292512905375
 30
0.0
 10
3.784083874716063
 20
-9.492481188172178
 30
0.0
 10
3.784083874716063
 20
-9.492481188172178
 30
0.0
 10
3.77246948030299
 20
-9.492481188172178
 30
0.0
 10
3.77246948030299
 20
-9.492481188172178
 30
0.0
 10
3.763114971446889
 20
-9.492481188172178
 30
0.0
 10
3.756823513049589
 20
-9.491929996572908
 30
0.0
 10
3.753602979276744
 20
-9.490796116711583
 30
0.0
 10
3.750374571338195
 20
-9.489662236850234
 30
0.0
 10
3.746988680085551
 20
-9.486843285528291
 30
0.0
 10
3.743445305518864
 20
-9.482323514414321
 30
0.0
 10
3.73441363745663
 20
-9.463630245033527
 30
0.0
 10
3.729893866342662
 20
-9.445724392223155
 30
0.0
 10
3.729893866342662
 20
-9.428621704314537
 30
0.0
 10
3.729256058920655
 20
-9.413471809500453
 30
0.0
 10
3.732799433487343
 20
-9.401692057607608
 30
0.0
 10
3.740539738374157
 20
-9.393313945298787
 30
0.0
 10
3.746988680085551
 20
-9.385565766246271
 30
0.0
 10
3.758437717018851
 20
-9.380416061875999
 30
0.0
 10
3.774886849174056
 20
-9.37783333552516
 30
0.0
 10
3.806170909515154
 20
-9.372022201235772
 30
0.0
 10
3.84020305368689
 20
-9.370085156472642
 30
0.0
 10
3.87696753335783
 20
-9.372022201235772
 30
0.0
 10
3.900834129606007
 20
-9.372982849451647
 30
0.0
 10
3.916716321830512
 20
-9.374274212627065
 30
0.0
 10
3.924621984197124
 20
-9.37589629076203
 30
0.0
 10
3.932519772398007
 20
-9.377502620565589
 30
0.0
 10
3.939212813246209
 20
-9.380573545190069
 30
0.0
 10
3.944701106741755
 20
-9.385077567972631
 30
0.0
 10
3.955339104607547
 20
-9.394762791788277
 30
0.0
 10
3.96066204062332
 20
-9.411849731365489
 30
0.0
 10
3.96066204062332
 20
-9.436369883367053
 30
0.0
 10
3.96066204062332
 20
-9.45378753790381
 30
0.0
 10
3.956472984468897
 20
-9.467803552856542
 30
0.0
 10
3.948086997994373
 20
-9.478449424888063
 30
0.0
 10
3.941630182117275
 20
-9.484260559177451
 30
0.0
 10
3.935102498748847
 20
-9.487819682075546
 30
0.0
 10
3.928496073723383
 20
-9.489095296919559
 30
0.0
 10
3.92188177453219
 20
-9.490386660094978
 30
0.0
 10
3.912440649853376
 20
-9.491032341682688
 30
0.0
 10
3.900188448018298
 20
-9.491032341682688
 30
0.0
 10
3.90051128881214
 20
-9.506843666415887
 30
0.0
 10
3.902046751124366
 20
-9.528607860421136
 30
0.0
 10
3.904786960789301
 20
-9.556340672029843
 30
0.0
 10
3.907527170454209
 20
-9.584089231969956
 30
0.0
 10
3.909054758600733
 20
-9.603601414583913
 30
0.0
 10
3.909385473560304
 20
-9.614877219871736
 30
0.0
 10
3.909700440188442
 20
-9.621649002376972
 30
0.0
 10
3.909865797668241
 20
-9.626011290176872
 30
0.0
 10
3.909865797668241
 20
-9.627948334940002
 30
0.0
 10
3.909865797668241
 20
-9.62988537970313
 30
0.0
 10
3.909865797668241
 20
-9.6344051508171
 30
0.0
 10
3.909865797668241
 20
-9.6414918999505
 30
0.0
 10
3.909865797668241
 20
-9.648594397415308
 30
0.0
 10
3.909542956874373
 20
-9.653822843442613
 30
0.0
 10
3.908897275286663
 20
-9.657208734695258
 30
0.0
 10
3.908251593698953
 20
-9.660594625947876
 30
0.0
 10
3.907283071317401
 20
-9.66479943043368
 30
0.0
 10
3.905999582307686
 20
-9.669791651489882
 30
0.0
 10
3.904700344966562
 20
-9.674799620877491
 30
0.0
 10
3.902771174369136
 20
-9.678673710403749
 30
0.0
 10
3.900188448018298
 20
-9.681398171737251
 30
0.0
 10
3.897605721667458
 20
-9.684154129733592
 30
0.0
 10
3.894542671208682
 20
-9.685996684508255
 30
0.0
 10
3.890999296641969
 20
-9.686973081055535
 30
0.0
 10
3.877770698259634
 20
-9.691162137209932
 30
0.0
 10
3.861644406898297
 20
-9.693099181973062
 30
0.0
 10
3.842620422557956
 20
-9.692768467013516
 30
0.0
 10
3.823588564051912
 20
-9.692453500385353
 30
0.0
 10
3.807139431896732
 20
-9.689713290720444
 30
0.0
 10
3.793273026092366
 20
-9.684547838018765
 30
0.0
  0
HATCH
  5
84
330
7B
100
AcDbEntity
  8
Layer 1
 62
   250
420
  2301728
440
 33554687
100
AcDbHatch
 10
0.0
 20
0.0
 30
0.0
210
0.0
220
0.0
230
1.0
  2
SOLID
 70
     1
 71
     1
 91
        1
 92
        1
 93
        1
 72
     4
 94
        3
 73
     0
 74
     0
 95
       80
 96
       76
 40
0.0
 40
0.0
 40
0.0
 40
0.0
 40
1.0
 40
1.0
 40
1.0
 40
2.0
 40
2.0
 40
2.0
 40
3.0
 40
3.0
 40
3.0
 40
4.0
 40
4.0
 40
4.0
 40
5.0
 40
5.0
 40
5.0
 40
6.0
 40
6.0
 40
6.0
 40
7.0
 40
7.0
 40
7.0
 40
8.0
 40
8.0
 40
8.0
 40
9.0
 40
9.0
 40
9.0
 40
10.0
 40
10.0
 40
10.0
 40
11.0
 40
11.0
 40
11.0
 40
12.0
 40
12.0
 40
12.0
 40
13.0
 40
13.0
 40
13.0
 40
14.0
 40
14.0
 40
14.0
 40
15.0
 40
15.0
 40
15.0
 40
16.0
 40
16.0
 40
16.0
 40
17.0
 40
17.0
 40
17.0
 40
18.0
 40
18.0
 40
18.0
 40
19.0
 40
19.0
 40
19.0
 40
20.0
 40
20.0
 40
20.0
 40
21.0
 40
21.0
 40
21.0
 40
22.0
 40
22.0
 40
22.0
 40
23.0
 40
23.0
 40
23.0
 40
24.0
 40
24.0
 40
24.0
 40
25.0
 40
25.0
 40
25.0
 40
25.0
 10
3.793273026092366
 20
-9.684547838018765
 10
3.777469575524896
 20
-9.676799658966247
 10
3.77182379871528
 20
-9.645680956104923
 10
3.776343569829249
 20
-9.591175981103358
 10
3.78149327419952
 20
-9.541190777215762
 10
3.784083874716063
 20
-9.508292512905375
 10
3.784083874716063
 20
-9.492481188172178
 10
3.784083874716063
 20
-9.492481188172178
 10
3.77246948030299
 20
-9.492481188172178
 10
3.77246948030299
 20
-9.492481188172178
 10
3.763114971446889
 20
-9.492481188172178
 10
3.756823513049589
 20
-9.491929996572908
 10
3.753602979276744
 20
-9.490796116711583
 10
3.750374571338195
 20
-9.489662236850234
 10
3.746988680085551
 20
-9.486843285528291
 10
3.743445305518864
 20
-9.482323514414321
 10
3.73441363745663
 20
-9.463630245033527
 10
3.729893866342662
 20
-9.445724392223155
 10
3.729893866342662
 20
-9.428621704314537
 10
3.729256058920655
 20
-9.413471809500453
 10
3.732799433487343
 20
-9.401692057607608
 10
3.740539738374157
 20
-9.393313945298787
 10
3.746988680085551
 20
-9.385565766246271
 10
3.758437717018851
 20
-9.380416061875999
 10
3.774886849174056
 20
-9.37783333552516
 10
3.806170909515154
 20
-9.372022201235772
 10
3.84020305368689
 20
-9.370085156472642
 10
3.87696753335783
 20
-9.372022201235772
 10
3.900834129606007
 20
-9.372982849451647
 10
3.916716321830512
 20
-9.374274212627065
 10
3.924621984197124
 20
-9.37589629076203
 10
3.932519772398007
 20
-9.377502620565589
 10
3.939212813246209
 20
-9.380573545190069
 10
3.944701106741755
 20
-9.385077567972631
 10
3.955339104607547
 20
-9.394762791788277
 10
3.96066204062332
 20
-9.411849731365489
 10
3.96066204062332
 20
-9.436369883367053
 10
3.96066204062332
 20
-9.45378753790381
 10
3.956472984468897
 20
-9.467803552856542
 10
3.948086997994373
 20
-9.478449424888063
 10
3.941630182117275
 20
-9.484260559177451
 10
3.935102498748847
 20
-9.487819682075546
 10
3.928496073723383
 20
-9.489095296919559
 10
3.92188177453219
 20
-9.490386660094978
 10
3.912440649853376
 20
-9.491032341682688
 10
3.900188448018298
 20
-9.491032341682688
 10
3.90051128881214
 20
-9.506843666415887
 10
3.902046751124366
 20
-9.528607860421136
 10
3.904786960789301
 20
-9.556340672029843
 10
3.907527170454209
 20
-9.584089231969956
 10
3.909054758600733
 20
-9.603601414583913
 10
3.909385473560304
 20
-9.614877219871736
 10
3.909700440188442
 20
-9.621649002376972
 10
3.909865797668241
 20
-9.626011290176872
 10
3.909865797668241
 20
-9.627948334940002
 10
3.909865797668241
 20
-9.62988537970313
 10
3.909865797668241
 20
-9.6344051508171
 10
3.909865797668241
 20
-9.6414918999505
 10
3.909865797668241
 20
-9.648594397415308
 10
3.909542956874373
 20
-9.653822843442613
 10
3.908897275286663
 20
-9.657208734695258
 10
3.908251593698953
 20
-9.660594625947876
 10
3.907283071317401
 20
-9.66479943043368
 10
3.905999582307686
 20
-9.669791651489882
 10
3.904700344966562
 20
-9.674799620877491
 10
3.902771174369136
 20
-9.678673710403749
 10
3.900188448018298
 20
-9.681398171737251
 10
3.897605721667458
 20
-9.684154129733592
 10
3.894542671208682
 20
-9.685996684508255
 10
3.890999296641969
 20
-9.686973081055535
 10
3.877770698259634
 20
-9.691162137209932
 10
3.861644406898297
 20
-9.693099181973062
 10
3.842620422557956
 20
-9.692768467013516
 10
3.823588564051912
 20
-9.692453500385353
 10
3.807139431896732
 20
-9.689713290720444
 10
3.793273026092366
 20
-9.684547838018765
 97
        0
 97
        1
330
83
 75
     2
 76
     1
 98
        1
 10
0.0
 20
0.0
450
        0
451
        0
460
0.0
461
0.0
452
        0
462
0.0
453
        0
470

  0
SPLINE
  5
85
330
7B
100
AcDbEntity
  8
Layer 1
100
AcDbSpline
210
0.0
220
0.0
230
1.0
 70
     9
 71
     3
 72
    89
 73
    85
 74
     0
 42
0.0000000001
 43
0.0000000001
 40
0.0
 40
0.0
 40
0.0
 40
0.0
 40
1.0
 40
1.0
 40
1.0
 40
2.0
 40
2.0
 40
2.0
 40
3.0
 40
3.0
 40
3.0
 40
4.0
 40
4.0
 40
4.0
 40
5.0
 40
5.0
 40
5.0
 40
6.0
 40
6.0
 40
6.0
 40
7.0
 40
7.0
 40
7.0
 40
8.0
 40
8.0
 40
8.0
 40
9.0
 40
9.0
 40
9.0
 40
10.0
 40
10.0
 40
10.0
 40
11.0
 40
11.0
 40
11.0
 40
12.0
 40
12.0
 40
12.0
 40
13.0
 40
13.0
 40
13.0
 40
14.0
 40
14.0
 40
14.0
 40
15.0
 40
15.0
 40
15.0
 40
16.0
 40
16.0
 40
16.0
 40
17.0
 40
17.0
 40
17.0
 40
18.0
 40
18.0
 40
18.0
 40
19.0
 40
19.0
 40
19.0
 40
20.0
 40
20.0
 40
20.0
 40
21.0
 40
21.0
 40
21.0
 40
22.0
 40
22.0
 40
22.0
 40
23.0
 40
23.0
 40
23.0
 40
24.0
 40
24.0
 40
24.0
 40
25.0
 40
25.0
 40
25.0
 40
26.0
 40
26.0
 40
26.0
 40
27.0
 40
27.0
 40
27.0
 40
28.0
 40
28.0
 40
28.0
 40
28.0
 10
4.108216031746425
 20
-9.667618381755648
 30
0.0
 10
4.099830045271902
 20
-9.648909364043472
 30
0.0
 10
4.095798472431574
 20
-9.612940175108606
 30
0.0
 10
4.096121313225416
 20
-9.559726563282461
 30
0.0
 10
4.096444154019283
 20
-9.506512951456317
 30
0.0
 10
4.100475726859611
 20
-9.459913638821364
 30
0.0
 10
4.108216031746425
 20
-9.419912877046145
 30
0.0
 10
4.112405087900848
 20
-9.401849540921677
 30
0.0
 10
4.118696546298147
 20
-9.390085537360238
 30
0.0
 10
4.127082532772671
 20
-9.384605118030423
 30
0.0
 10
4.135468519247195
 20
-9.37912469870058
 30
0.0
 10
4.149169567571789
 20
-9.376053774076099
 30
0.0
 10
4.168209300243511
 20
-9.37540809248839
 30
0.0
 10
4.201107564553922
 20
-9.373801762684832
 30
0.0
 10
4.231580585827537
 20
-9.375565575802484
 30
0.0
 10
4.259644112395815
 20
-9.380731028504163
 30
0.0
 10
4.272541995818603
 20
-9.382353106639129
 30
0.0
 10
4.281731147194906
 20
-9.390400503988404
 30
0.0
 10
4.287219440690452
 20
-9.404920465546156
 30
0.0
 10
4.291731337638717
 20
-9.419109712144365
 30
0.0
 10
4.290282491149203
 20
-9.433787157016213
 30
0.0
 10
4.282865027056256
 20
-9.448937051830297
 30
0.0
 10
4.278345255942288
 20
-9.457015945842359
 30
0.0
 10
4.271250632643184
 20
-9.4623231335267
 30
0.0
 10
4.261581157158945
 20
-9.464905859877539
 30
0.0
 10
4.256738545251108
 20
-9.46652793801253
 30
0.0
 10
4.250769927647651
 20
-9.467409844571344
 30
0.0
 10
4.243675304348546
 20
-9.467567327885438
 30
0.0
 10
4.236580681049442
 20
-9.467740559530914
 30
0.0
 10
4.230619937611663
 20
-9.467331102914309
 30
0.0
 10
4.225777325703853
 20
-9.466354706367054
 30
0.0
 10
4.225777325703853
 20
-9.466354706367054
 30
0.0
 10
4.219005543198591
 20
-9.465394058151179
 30
0.0
 10
4.219005543198591
 20
-9.465394058151179
 30
0.0
 10
4.219005543198591
 20
-9.465394058151179
 30
0.0
 10
4.217068498435461
 20
-9.481362866198448
 30
0.0
 10
4.217068498435461
 20
-9.481362866198448
 30
0.0
 10
4.226423007291562
 20
-9.481677832826612
 30
0.0
 10
4.235698774490603
 20
-9.483536135932682
 30
0.0
 10
4.244887925866931
 20
-9.486922027185325
 30
0.0
 10
4.254077077243234
 20
-9.490307918437943
 30
0.0
 10
4.259959079023953
 20
-9.494748947894878
 30
0.0
 10
4.262549679540496
 20
-9.500229367224694
 30
0.0
 10
4.264478850137922
 20
-9.505709786554536
 30
0.0
 10
4.265282015039701
 20
-9.513694190578158
 30
0.0
 10
4.264967048411563
 20
-9.524166830964203
 30
0.0
 10
4.264636333451991
 20
-9.534655219681628
 30
0.0
 10
4.263030003648433
 20
-9.542151425431635
 30
0.0
 10
4.260124436503726
 20
-9.546671196545604
 30
0.0
 10
4.256258221143172
 20
-9.55344297905084
 30
0.0
 10
4.247226553080937
 20
-9.557632035205262
 30
0.0
 10
4.23303730648273
 20
-9.559254113340228
 30
0.0
 10
4.229486057750338
 20
-9.559569079968392
 30
0.0
 10
4.225934809017922
 20
-9.559821053270903
 30
0.0
 10
4.222391434451234
 20
-9.559978536584972
 30
0.0
 10
4.218840185718818
 20
-9.560136019899067
 30
0.0
 10
4.216099976053909
 20
-9.560214761556101
 30
0.0
 10
4.214170805456483
 20
-9.560214761556101
 30
0.0
 10
4.214170805456483
 20
-9.560214761556101
 30
0.0
 10
4.211265238311776
 20
-9.560214761556101
 30
0.0
 10
4.211265238311776
 20
-9.560214761556101
 30
0.0
 10
4.210611682558363
 20
-9.562797487906941
 30
0.0
 10
4.210296715930224
 20
-9.566340862473628
 30
0.0
 10
4.210296715930224
 20
-9.570860633587598
 30
0.0
 10
4.210296715930224
 20
-9.576986734505149
 30
0.0
 10
4.210942397517934
 20
-9.580530109071837
 30
0.0
 10
4.212233760693353
 20
-9.581506505619119
 30
0.0
 10
4.21351724970307
 20
-9.582467153834967
 30
0.0
 10
4.217391339229329
 20
-9.582640385480468
 30
0.0
 10
4.223840280940723
 20
-9.581978955561352
 30
0.0
 10
4.251903807509001
 20
-9.581018307345477
 30
0.0
 10
4.270770308535247
 20
-9.585459336802411
 30
0.0
 10
4.28044765818519
 20
-9.59528629560072
 30
0.0
 10
4.290125007835134
 20
-9.605129002730462
 30
0.0
 10
4.2925423767062
 20
-9.623586047140102
 30
0.0
 10
4.287699764798364
 20
-9.650688925492506
 30
0.0
 10
4.284802071819386
 20
-9.665523853678424
 30
0.0
 10
4.280605141499259
 20
-9.675839010750399
 30
0.0
 10
4.275124722169443
 20
-9.681650145039787
 30
0.0
 10
4.267061576488761
 20
-9.689713290720444
 30
0.0
 10
4.253998335586199
 20
-9.695351193364356
 30
0.0
 10
4.235934999461733
 20
-9.698579601302904
 30
0.0
 10
4.16272100674799
 20
-9.70599706539585
 30
0.0
 10
4.120145392787662
 20
-9.695681908323901
 30
0.0
 10
4.108216031746425
 20
-9.667618381755648
 30
0.0
  0
HATCH
  5
86
330
7B
100
AcDbEntity
  8
Layer 1
 62
   250
420
  2301728
440
 33554687
100
AcDbHatch
 10
0.0
 20
0.0
 30
0.0
210
0.0
220
0.0
230
1.0
  2
SOLID
 70
     1
 71
     1
 91
        1
 92
        1
 93
        1
 72
     4
 94
        3
 73
     0
 74
     0
 95
       89
 96
       85
 40
0.0
 40
0.0
 40
0.0
 40
0.0
 40
1.0
 40
1.0
 40
1.0
 40
2.0
 40
2.0
 40
2.0
 40
3.0
 40
3.0
 40
3.0
 40
4.0
 40
4.0
 40
4.0
 40
5.0
 40
5.0
 40
5.0
 40
6.0
 40
6.0
 40
6.0
 40
7.0
 40
7.0
 40
7.0
 40
8.0
 40
8.0
 40
8.0
 40
9.0
 40
9.0
 40
9.0
 40
10.0
 40
10.0
 40
10.0
 40
11.0
 40
11.0
 40
11.0
 40
12.0
 40
12.0
 40
12.0
 40
13.0
 40
13.0
 40
13.0
 40
14.0
 40
14.0
 40
14.0
 40
15.0
 40
15.0
 40
15.0
 40
16.0
 40
16.0
 40
16.0
 40
17.0
 40
17.0
 40
17.0
 40
18.0
 40
18.0
 40
18.0
 40
19.0
 40
19.0
 40
19.0
 40
20.0
 40
20.0
 40
20.0
 40
21.0
 40
21.0
 40
21.0
 40
22.0
 40
22.0
 40
22.0
 40
23.0
 40
23.0
 40
23.0
 40
24.0
 40
24.0
 40
24.0
 40
25.0
 40
25.0
 40
25.0
 40
26.0
 40
26.0
 40
26.0
 40
27.0
 40
27.0
 40
27.0
 40
28.0
 40
28.0
 40
28.0
 40
28.0
 10
4.108216031746425
 20
-9.667618381755648
 10
4.099830045271902
 20
-9.648909364043472
 10
4.095798472431574
 20
-9.612940175108606
 10
4.096121313225416
 20
-9.559726563282461
 10
4.096444154019283
 20
-9.506512951456317
 10
4.100475726859611
 20
-9.459913638821364
 10
4.108216031746425
 20
-9.419912877046145
 10
4.112405087900848
 20
-9.401849540921677
 10
4.118696546298147
 20
-9.390085537360238
 10
4.127082532772671
 20
-9.384605118030423
 10
4.135468519247195
 20
-9.37912469870058
 10
4.149169567571789
 20
-9.376053774076099
 10
4.168209300243511
 20
-9.37540809248839
 10
4.201107564553922
 20
-9.373801762684832
 10
4.231580585827537
 20
-9.375565575802484
 10
4.259644112395815
 20
-9.380731028504163
 10
4.272541995818603
 20
-9.382353106639129
 10
4.281731147194906
 20
-9.390400503988404
 10
4.287219440690452
 20
-9.404920465546156
 10
4.291731337638717
 20
-9.419109712144365
 10
4.290282491149203
 20
-9.433787157016213
 10
4.282865027056256
 20
-9.448937051830297
 10
4.278345255942288
 20
-9.457015945842359
 10
4.271250632643184
 20
-9.4623231335267
 10
4.261581157158945
 20
-9.464905859877539
 10
4.256738545251108
 20
-9.46652793801253
 10
4.250769927647651
 20
-9.467409844571344
 10
4.243675304348546
 20
-9.467567327885438
 10
4.236580681049442
 20
-9.467740559530914
 10
4.230619937611663
 20
-9.467331102914309
 10
4.225777325703853
 20
-9.466354706367054
 10
4.225777325703853
 20
-9.466354706367054
 10
4.219005543198591
 20
-9.465394058151179
 10
4.219005543198591
 20
-9.465394058151179
 10
4.219005543198591
 20
-9.465394058151179
 10
4.217068498435461
 20
-9.481362866198448
 10
4.217068498435461
 20
-9.481362866198448
 10
4.226423007291562
 20
-9.481677832826612
 10
4.235698774490603
 20
-9.483536135932682
 10
4.244887925866931
 20
-9.486922027185325
 10
4.254077077243234
 20
-9.490307918437943
 10
4.259959079023953
 20
-9.494748947894878
 10
4.262549679540496
 20
-9.500229367224694
 10
4.264478850137922
 20
-9.505709786554536
 10
4.265282015039701
 20
-9.513694190578158
 10
4.264967048411563
 20
-9.524166830964203
 10
4.264636333451991
 20
-9.534655219681628
 10
4.263030003648433
 20
-9.542151425431635
 10
4.260124436503726
 20
-9.546671196545604
 10
4.256258221143172
 20
-9.55344297905084
 10
4.247226553080937
 20
-9.557632035205262
 10
4.23303730648273
 20
-9.559254113340228
 10
4.229486057750338
 20
-9.559569079968392
 10
4.225934809017922
 20
-9.559821053270903
 10
4.222391434451234
 20
-9.559978536584972
 10
4.218840185718818
 20
-9.560136019899067
 10
4.216099976053909
 20
-9.560214761556101
 10
4.214170805456483
 20
-9.560214761556101
 10
4.214170805456483
 20
-9.560214761556101
 10
4.211265238311776
 20
-9.560214761556101
 10
4.211265238311776
 20
-9.560214761556101
 10
4.210611682558363
 20
-9.562797487906941
 10
4.210296715930224
 20
-9.566340862473628
 10
4.210296715930224
 20
-9.570860633587598
 10
4.210296715930224
 20
-9.576986734505149
 10
4.210942397517934
 20
-9.580530109071837
 10
4.212233760693353
 20
-9.581506505619119
 10
4.21351724970307
 20
-9.582467153834967
 10
4.217391339229329
 20
-9.582640385480468
 10
4.223840280940723
 20
-9.581978955561352
 10
4.251903807509001
 20
-9.581018307345477
 10
4.270770308535247
 20
-9.585459336802411
 10
4.28044765818519
 20
-9.59528629560072
 10
4.290125007835134
 20
-9.605129002730462
 10
4.2925423767062
 20
-9.623586047140102
 10
4.287699764798364
 20
-9.650688925492506
 10
4.284802071819386
 20
-9.665523853678424
 10
4.280605141499259
 20
-9.675839010750399
 10
4.275124722169443
 20
-9.681650145039787
 10
4.267061576488761
 20
-9.689713290720444
 10
4.253998335586199
 20
-9.695351193364356
 10
4.235934999461733
 20
-9.698579601302904
 10
4.16272100674799
 20
-9.70599706539585
 10
4.120145392787662
 20
-9.695681908323901
 10
4.108216031746425
 20
-9.667618381755648
 97
        0
 97
        1
330
85
 75
     2
 76
     1
 98
        1
 10
0.0
 20
0.0
450
        0
451
        0
460
0.0
461
0.0
452
        0
462
0.0
453
        0
470

  0
SPLINE
  5
87
330
7B
100
AcDbEntity
  8
Layer 1
100
AcDbSpline
210
0.0
220
0.0
230
1.0
 70
     9
 71
     3
 72
    23
 73
    19
 74
     0
 42
0.0000000001
 43
0.0000000001
 40
0.0
 40
0.0
 40
0.0
 40
0.0
 40
1.0
 40
1.0
 40
1.0
 40
2.0
 40
2.0
 40
2.0
 40
3.0
 40
3.0
 40
3.0
 40
4.0
 40
4.0
 40
4.0
 40
5.0
 40
5.0
 40
5.0
 40
6.0
 40
6.0
 40
6.0
 40
6.0
 10
4.428970171689873
 20
-9.504087708419547
 30
0.0
 10
4.429285138318012
 20
-9.498292322461566
 30
0.0
 10
4.428560715073268
 20
-9.492969386445818
 30
0.0
 10
4.426789027789911
 20
-9.488134648703709
 30
0.0
 10
4.425017340506554
 20
-9.483284162630171
 30
0.0
 10
4.422836196606618
 20
-9.480150244680062
 30
0.0
 10
4.420261344421482
 20
-9.478701398190574
 30
0.0
 10
4.417670743904939
 20
-9.477236803369679
 30
0.0
 10
4.414938408405734
 20
-9.477331293358121
 30
0.0
 10
4.412032841261053
 20
-9.478937623161678
 30
0.0
 10
4.412355682054895
 20
-9.484103075863357
 30
0.0
 10
4.412521039534668
 20
-9.492811903131748
 30
0.0
 10
4.412521039534668
 20
-9.505064104966827
 30
0.0
 10
4.412521039534668
 20
-9.517316306801905
 30
0.0
 10
4.412836006162807
 20
-9.527159013931623
 30
0.0
 10
4.41348956191622
 20
-9.534576478024593
 30
0.0
 10
4.422198389184611
 20
-9.531033103457881
 30
0.0
 10
4.427348093554883
 20
-9.520875429700026
 30
0.0
 10
4.428970171689873
 20
-9.504087708419547
 30
0.0
  0
SPLINE
  5
88
330
7B
100
AcDbEntity
  8
Layer 1
100
AcDbSpline
210
0.0
220
0.0
230
1.0
 70
     9
 71
     3
 72
    41
 73
    37
 74
     0
 42
0.0000000001
 43
0.0000000001
 40
0.0
 40
0.0
 40
0.0
 40
0.0
 40
1.0
 40
1.0
 40
1.0
 40
2.0
 40
2.0
 40
2.0
 40
3.0
 40
3.0
 40
3.0
 40
4.0
 40
4.0
 40
4.0
 40
5.0
 40
5.0
 40
5.0
 40
6.0
 40
6.0
 40
6.0
 40
7.0
 40
7.0
 40
7.0
 40
8.0
 40
8.0
 40
8.0
 40
9.0
 40
9.0
 40
9.0
 40
10.0
 40
10.0
 40
10.0
 40
11.0
 40
11.0
 40
11.0
 40
12.0
 40
12.0
 40
12.0
 40
12.0
 10
4.319629506727197
 20
-9.400558177746258
 30
0.0
 10
4.320912995736913
 20
-9.391849350477892
 30
0.0
 10
4.325440641016585
 20
-9.385172057961073
 30
0.0
 10
4.333180945903399
 20
-9.380479055201627
 30
0.0
 10
4.340921250790213
 20
-9.375817549104995
 30
0.0
 10
4.352685254351651
 20
-9.372667882823481
 30
0.0
 10
4.368496579084825
 20
-9.371045804688492
 30
0.0
 10
4.396552231487425
 20
-9.370730838060353
 30
0.0
 10
4.421300734294391
 20
-9.37499863587181
 30
0.0
 10
4.442757835837179
 20
-9.383880694785652
 30
0.0
 10
4.464199189048586
 20
-9.392747005368113
 30
0.0
 10
4.482105041858984
 20
-9.408148873484707
 30
0.0
 10
4.49645964593694
 20
-9.430070550804025
 30
0.0
 10
4.510806375849242
 20
-9.452007976454751
 30
0.0
 10
4.518625422393092
 20
-9.479898271377551
 30
0.0
 10
4.519916785568511
 20
-9.513772932235193
 30
0.0
 10
4.520562467156221
 20
-9.531836268359684
 30
0.0
 10
4.519436461460574
 20
-9.550860252700001
 30
0.0
 10
4.516530894315892
 20
-9.570860633587598
 30
0.0
 10
4.511042600820372
 20
-9.613759088341794
 30
0.0
 10
4.490727253304612
 20
-9.648436914101239
 30
0.0
 10
4.455576977602933
 20
-9.674878362534526
 30
0.0
 10
4.432025347982945
 20
-9.692610983699447
 30
0.0
 10
4.399292441152334
 20
-9.700185931106462
 30
0.0
 10
4.357370382945393
 20
-9.697603204755624
 30
0.0
 10
4.32930685637714
 20
-9.694390545148481
 30
0.0
 10
4.312692366742163
 20
-9.683098991529277
 30
0.0
 10
4.307534788206187
 20
-9.66374429222939
 30
0.0
 10
4.307534788206187
 20
-9.66374429222939
 30
0.0
 10
4.307534788206187
 20
-9.633271270955749
 30
0.0
 10
4.307534788206187
 20
-9.633271270955749
 30
0.0
 10
4.306889106618478
 20
-9.569411787098108
 30
0.0
 10
4.308818277215904
 20
-9.511835887472063
 30
0.0
 10
4.313345922495575
 20
-9.460559320409073
 30
0.0
 10
4.315597933886869
 20
-9.436684849995218
 30
0.0
 10
4.317692461964067
 20
-9.416700217439029
 30
0.0
 10
4.319629506727197
 20
-9.400558177746258
 30
0.0
  0
HATCH
  5
89
330
7B
100
AcDbEntity
  8
Layer 1
 62
   250
420
  2301728
440
 33554687
100
AcDbHatch
 10
0.0
 20
0.0
 30
0.0
210
0.0
220
0.0
230
1.0
  2
SOLID
 70
     1
 71
     1
 91
        2
 92
        1
 93
        1
 72
     4
 94
        3
 73
     0
 74
     0
 95
       23
 96
       19
 40
0.0
 40
0.0
 40
0.0
 40
0.0
 40
1.0
 40
1.0
 40
1.0
 40
2.0
 40
2.0
 40
2.0
 40
3.0
 40
3.0
 40
3.0
 40
4.0
 40
4.0
 40
4.0
 40
5.0
 40
5.0
 40
5.0
 40
6.0
 40
6.0
 40
6.0
 40
6.0
 10
4.428970171689873
 20
-9.504087708419547
 10
4.429285138318012
 20
-9.498292322461566
 10
4.428560715073268
 20
-9.492969386445818
 10
4.426789027789911
 20
-9.488134648703709
 10
4.425017340506554
 20
-9.483284162630171
 10
4.422836196606618
 20
-9.480150244680062
 10
4.420261344421482
 20
-9.478701398190574
 10
4.417670743904939
 20
-9.477236803369679
 10
4.414938408405734
 20
-9.477331293358121
 10
4.412032841261053
 20
-9.478937623161678
 10
4.412355682054895
 20
-9.484103075863357
 10
4.412521039534668
 20
-9.492811903131748
 10
4.412521039534668
 20
-9.505064104966827
 10
4.412521039534668
 20
-9.517316306801905
 10
4.412836006162807
 20
-9.527159013931623
 10
4.41348956191622
 20
-9.534576478024593
 10
4.422198389184611
 20
-9.531033103457881
 10
4.427348093554883
 20
-9.520875429700026
 10
4.428970171689873
 20
-9.504087708419547
 97
        0
 97
        1
330
87
 92
        1
 93
        1
 72
     4
 94
        3
 73
     0
 74
     0
 95
       41
 96
       37
 40
0.0
 40
0.0
 40
0.0
 40
0.0
 40
1.0
 40
1.0
 40
1.0
 40
2.0
 40
2.0
 40
2.0
 40
3.0
 40
3.0
 40
3.0
 40
4.0
 40
4.0
 40
4.0
 40
5.0
 40
5.0
 40
5.0
 40
6.0
 40
6.0
 40
6.0
 40
7.0
 40
7.0
 40
7.0
 40
8.0
 40
8.0
 40
8.0
 40
9.0
 40
9.0
 40
9.0
 40
10.0
 40
10.0
 40
10.0
 40
11.0
 40
11.0
 40
11.0
 40
12.0
 40
12.0
 40
12.0
 40
12.0
 10
4.319629506727197
 20
-9.400558177746258
 10
4.320912995736913
 20
-9.391849350477892
 10
4.325440641016585
 20
-9.385172057961073
 10
4.333180945903399
 20
-9.380479055201627
 10
4.340921250790213
 20
-9.375817549104995
 10
4.352685254351651
 20
-9.372667882823481
 10
4.368496579084825
 20
-9.371045804688492
 10
4.396552231487425
 20
-9.370730838060353
 10
4.421300734294391
 20
-9.37499863587181
 10
4.442757835837179
 20
-9.383880694785652
 10
4.464199189048586
 20
-9.392747005368113
 10
4.482105041858984
 20
-9.408148873484707
 10
4.49645964593694
 20
-9.430070550804025
 10
4.510806375849242
 20
-9.452007976454751
 10
4.518625422393092
 20
-9.479898271377551
 10
4.519916785568511
 20
-9.513772932235193
 10
4.520562467156221
 20
-9.531836268359684
 10
4.519436461460574
 20
-9.550860252700001
 10
4.516530894315892
 20
-9.570860633587598
 10
4.511042600820372
 20
-9.613759088341794
 10
4.490727253304612
 20
-9.648436914101239
 10
4.455576977602933
 20
-9.674878362534526
 10
4.432025347982945
 20
-9.692610983699447
 10
4.399292441152334
 20
-9.700185931106462
 10
4.357370382945393
 20
-9.697603204755624
 10
4.32930685637714
 20
-9.694390545148481
 10
4.312692366742163
 20
-9.683098991529277
 10
4.307534788206187
 20
-9.66374429222939
 10
4.307534788206187
 20
-9.66374429222939
 10
4.307534788206187
 20
-9.633271270955749
 10
4.307534788206187
 20
-9.633271270955749
 10
4.306889106618478
 20
-9.569411787098108
 10
4.308818277215904
 20
-9.511835887472063
 10
4.313345922495575
 20
-9.460559320409073
 10
4.315597933886869
 20
-9.436684849995218
 10
4.317692461964067
 20
-9.416700217439029
 10
4.319629506727197
 20
-9.400558177746258
 97
        0
 97
        1
330
88
 75
     2
 76
     1
 98
        1
 10
0.0
 20
0.0
450
        0
451
        0
460
0.0
461
0.0
452
        0
462
0.0
453
        0
470

  0
SPLINE
  5
8A
330
7B
100
AcDbEntity
  8
Layer 1
100
AcDbSpline
210
0.0
220
0.0
230
1.0
 70
     9
 71
     3
 72
    62
 73
    58
 74
     0
 42
0.0000000001
 43
0.0000000001
 40
0.0
 40
0.0
 40
0.0
 40
0.0
 40
1.0
 40
1.0
 40
1.0
 40
2.0
 40
2.0
 40
2.0
 40
3.0
 40
3.0
 40
3.0
 40
4.0
 40
4.0
 40
4.0
 40
5.0
 40
5.0
 40
5.0
 40
6.0
 40
6.0
 40
6.0
 40
7.0
 40
7.0
 40
7.0
 40
8.0
 40
8.0
 40
8.0
 40
9.0
 40
9.0
 40
9.0
 40
10.0
 40
10.0
 40
10.0
 40
11.0
 40
11.0
 40
11.0
 40
12.0
 40
12.0
 40
12.0
 40
13.0
 40
13.0
 40
13.0
 40
14.0
 40
14.0
 40
14.0
 40
15.0
 40
15.0
 40
15.0
 40
16.0
 40
16.0
 40
16.0
 40
17.0
 40
17.0
 40
17.0
 40
18.0
 40
18.0
 40
18.0
 40
19.0
 40
19.0
 40
19.0
 40
19.0
 10
4.582815621210303
 20
-9.693256665287156
 30
0.0
 10
4.565712933301711
 20
-9.691004653895863
 30
0.0
 10
4.552492209085054
 20
-9.684059639745125
 30
0.0
 10
4.543145574394657
 20
-9.672453119497756
 30
0.0
 10
4.537334440105293
 20
-9.664704940445238
 30
0.0
 10
4.533783191372877
 20
-9.655838629862778
 30
0.0
 10
4.532499702363161
 20
-9.645838439418993
 30
0.0
 10
4.531208339187742
 20
-9.635853997306588
 30
0.0
 10
4.531208339187742
 20
-9.615207934831282
 30
0.0
 10
4.532499702363161
 20
-9.58391600032448
 30
0.0
 10
4.534106032166719
 20
-9.545537316684253
 30
0.0
 10
4.535074554548296
 20
-9.512796535687938
 30
0.0
 10
4.535405269507868
 20
-9.485709405666939
 30
0.0
 10
4.536043076929874
 20
-9.445724392223155
 30
0.0
 10
4.537980121692978
 20
-9.420889273593425
 30
0.0
 10
4.541208529631552
 20
-9.411204049777779
 30
0.0
 10
4.549917356899919
 20
-9.38734532769533
 30
0.0
 10
4.569587022827969
 20
-9.374431695941135
 30
0.0
 10
4.60023327574706
 20
-9.372510399509412
 30
0.0
 10
4.60635150249891
 20
-9.372510399509412
 30
0.0
 10
4.611997279308499
 20
-9.373156081097123
 30
0.0
 10
4.617162732010178
 20
-9.374431695941135
 30
0.0
 10
4.622320310546152
 20
-9.375738807447961
 30
0.0
 10
4.626674724180348
 20
-9.37783333552516
 30
0.0
 10
4.630225972912764
 20
-9.380731028504163
 30
0.0
 10
4.633769347479452
 20
-9.383628721483141
 30
0.0
 10
4.636911139595263
 20
-9.386290189491015
 30
0.0
 10
4.639659223425875
 20
-9.388715432527785
 30
0.0
 10
4.642391558925106
 20
-9.391124927233148
 30
0.0
 10
4.644572702825042
 20
-9.394762791788277
 30
0.0
 10
4.646186906794329
 20
-9.39959752953041
 30
0.0
 10
4.647801110763591
 20
-9.404432267272516
 30
0.0
 10
4.649092473939011
 20
-9.408306356798776
 30
0.0
 10
4.650060996320588
 20
-9.411204049777779
 30
0.0
 10
4.65102951870214
 20
-9.414117491088189
 30
0.0
 10
4.651753941946885
 20
-9.418637262202132
 30
0.0
 10
4.652234266054821
 20
-9.424747614788277
 30
0.0
 10
4.652722464328462
 20
-9.430889464037237
 30
0.0
 10
4.653037430956601
 20
-9.435157261848669
 30
0.0
 10
4.653202788436399
 20
-9.437566756554032
 30
0.0
 10
4.653360271750468
 20
-9.439991999590802
 30
0.0
 10
4.653446887573206
 20
-9.444433029047734
 30
0.0
 10
4.653446887573206
 20
-9.450874096593425
 30
0.0
 10
4.653446887573206
 20
-9.457330912470524
 30
0.0
 10
4.653446887573206
 20
-9.461205001996782
 30
0.0
 10
4.653446887573206
 20
-9.462496365172201
 30
0.0
 10
4.654092569160916
 20
-9.504749138338663
 30
0.0
 10
4.656509938031982
 20
-9.541033293901692
 30
0.0
 10
4.660706868352083
 20
-9.571348831861238
 30
0.0
 10
4.665218765300348
 20
-9.602310051408494
 30
0.0
 10
4.665856572722355
 20
-9.626342005136443
 30
0.0
 10
4.662636038949509
 20
-9.64342894471363
 30
0.0
 10
4.658769823588954
 20
-9.66180724746626
 30
0.0
 10
4.649092473939011
 20
-9.675287819151131
 30
0.0
 10
4.633611864165382
 20
-9.683823414774021
 30
0.0
 10
4.618131254391755
 20
-9.692374758728318
 30
0.0
 10
4.601193923962934
 20
-9.695508676678425
 30
0.0
 10
4.582815621210303
 20
-9.693256665287156
 30
0.0
  0
HATCH
  5
8B
330
7B
100
AcDbEntity
  8
Layer 1
 62
   250
420
  2301728
440
 33554687
100
AcDbHatch
 10
0.0
 20
0.0
 30
0.0
210
0.0
220
0.0
230
1.0
  2
SOLID
 70
     1
 71
     1
 91
        1
 92
        1
 93
        1
 72
     4
 94
        3
 73
     0
 74
     0
 95
       62
 96
       58
 40
0.0
 40
0.0
 40
0.0
 40
0.0
 40
1.0
 40
1.0
 40
1.0
 40
2.0
 40
2.0
 40
2.0
 40
3.0
 40
3.0
 40
3.0
 40
4.0
 40
4.0
 40
4.0
 40
5.0
 40
5.0
 40
5.0
 40
6.0
 40
6.0
 40
6.0
 40
7.0
 40
7.0
 40
7.0
 40
8.0
 40
8.0
 40
8.0
 40
9.0
 40
9.0
 40
9.0
 40
10.0
 40
10.0
 40
10.0
 40
11.0
 40
11.0
 40
11.0
 40
12.0
 40
12.0
 40
12.0
 40
13.0
 40
13.0
 40
13.0
 40
14.0
 40
14.0
 40
14.0
 40
15.0
 40
15.0
 40
15.0
 40
16.0
 40
16.0
 40
16.0
 40
17.0
 40
17.0
 40
17.0
 40
18.0
 40
18.0
 40
18.0
 40
19.0
 40
19.0
 40
19.0
 40
19.0
 10
4.582815621210303
 20
-9.693256665287156
 10
4.565712933301711
 20
-9.691004653895863
 10
4.552492209085054
 20
-9.684059639745125
 10
4.543145574394657
 20
-9.672453119497756
 10
4.537334440105293
 20
-9.664704940445238
 10
4.533783191372877
 20
-9.655838629862778
 10
4.532499702363161
 20
-9.645838439418993
 10
4.531208339187742
 20
-9.635853997306588
 10
4.531208339187742
 20
-9.615207934831282
 10
4.532499702363161
 20
-9.58391600032448
 10
4.534106032166719
 20
-9.545537316684253
 10
4.535074554548296
 20
-9.512796535687938
 10
4.535405269507868
 20
-9.485709405666939
 10
4.536043076929874
 20
-9.445724392223155
 10
4.537980121692978
 20
-9.420889273593425
 10
4.541208529631552
 20
-9.411204049777779
 10
4.549917356899919
 20
-9.38734532769533
 10
4.569587022827969
 20
-9.374431695941135
 10
4.60023327574706
 20
-9.372510399509412
 10
4.60635150249891
 20
-9.372510399509412
 10
4.611997279308499
 20
-9.373156081097123
 10
4.617162732010178
 20
-9.374431695941135
 10
4.622320310546152
 20
-9.375738807447961
 10
4.626674724180348
 20
-9.37783333552516
 10
4.630225972912764
 20
-9.380731028504163
 10
4.633769347479452
 20
-9.383628721483141
 10
4.636911139595263
 20
-9.386290189491015
 10
4.639659223425875
 20
-9.388715432527785
 10
4.642391558925106
 20
-9.391124927233148
 10
4.644572702825042
 20
-9.394762791788277
 10
4.646186906794329
 20
-9.39959752953041
 10
4.647801110763591
 20
-9.404432267272516
 10
4.649092473939011
 20
-9.408306356798776
 10
4.650060996320588
 20
-9.411204049777779
 10
4.65102951870214
 20
-9.414117491088189
 10
4.651753941946885
 20
-9.418637262202132
 10
4.652234266054821
 20
-9.424747614788277
 10
4.652722464328462
 20
-9.430889464037237
 10
4.653037430956601
 20
-9.435157261848669
 10
4.653202788436399
 20
-9.437566756554032
 10
4.653360271750468
 20
-9.439991999590802
 10
4.653446887573206
 20
-9.444433029047734
 10
4.653446887573206
 20
-9.450874096593425
 10
4.653446887573206
 20
-9.457330912470524
 10
4.653446887573206
 20
-9.461205001996782
 10
4.653446887573206
 20
-9.462496365172201
 10
4.654092569160916
 20
-9.504749138338663
 10
4.656509938031982
 20
-9.541033293901692
 10
4.660706868352083
 20
-9.571348831861238
 10
4.665218765300348
 20
-9.602310051408494
 10
4.665856572722355
 20
-9.626342005136443
 10
4.662636038949509
 20
-9.64342894471363
 10
4.658769823588954
 20
-9.66180724746626
 10
4.649092473939011
 20
-9.675287819151131
 10
4.633611864165382
 20
-9.683823414774021
 10
4.618131254391755
 20
-9.692374758728318
 10
4.601193923962934
 20
-9.695508676678425
 10
4.582815621210303
 20
-9.693256665287156
 97
        0
 97
        1
330
8A
 75
     2
 76
     1
 98
        1
 10
0.0
 20
0.0
450
        0
451
        0
460
0.0
461
0.0
452
        0
462
0.0
453
        0
470

  0
SPLINE
  5
8C
330
7B
100
AcDbEntity
  8
Layer 1
100
AcDbSpline
210
0.0
220
0.0
230
1.0
 70
     9
 71
     3
 72
    80
 73
    76
 74
     0
 42
0.0000000001
 43
0.0000000001
 40
0.0
 40
0.0
 40
0.0
 40
0.0
 40
1.0
 40
1.0
 40
1.0
 40
2.0
 40
2.0
 40
2.0
 40
3.0
 40
3.0
 40
3.0
 40
4.0
 40
4.0
 40
4.0
 40
5.0
 40
5.0
 40
5.0
 40
6.0
 40
6.0
 40
6.0
 40
7.0
 40
7.0
 40
7.0
 40
8.0
 40
8.0
 40
8.0
 40
9.0
 40
9.0
 40
9.0
 40
10.0
 40
10.0
 40
10.0
 40
11.0
 40
11.0
 40
11.0
 40
12.0
 40
12.0
 40
12.0
 40
13.0
 40
13.0
 40
13.0
 40
14.0
 40
14.0
 40
14.0
 40
15.0
 40
15.0
 40
15.0
 40
16.0
 40
16.0
 40
16.0
 40
17.0
 40
17.0
 40
17.0
 40
18.0
 40
18.0
 40
18.0
 40
19.0
 40
19.0
 40
19.0
 40
20.0
 40
20.0
 40
20.0
 40
21.0
 40
21.0
 40
21.0
 40
22.0
 40
22.0
 40
22.0
 40
23.0
 40
23.0
 40
23.0
 40
24.0
 40
24.0
 40
24.0
 40
25.0
 40
25.0
 40
25.0
 40
25.0
 10
4.729393215786154
 20
-9.684547838018765
 30
0.0
 10
4.713589765218658
 20
-9.676799658966247
 30
0.0
 10
4.707943988409068
 20
-9.645680956104923
 30
0.0
 10
4.712463759523036
 20
-9.591175981103358
 30
0.0
 10
4.717613463893308
 20
-9.541190777215762
 30
0.0
 10
4.72020406440985
 20
-9.508292512905375
 30
0.0
 10
4.72020406440985
 20
-9.492481188172178
 30
0.0
 10
4.72020406440985
 20
-9.492481188172178
 30
0.0
 10
4.708589669996777
 20
-9.492481188172178
 30
0.0
 10
4.708589669996777
 20
-9.492481188172178
 30
0.0
 10
4.699235161140677
 20
-9.492481188172178
 30
0.0
 10
4.692943702743352
 20
-9.491929996572908
 30
0.0
 10
4.689723168970506
 20
-9.490796116711583
 30
0.0
 10
4.686494761031958
 20
-9.489662236850234
 30
0.0
 10
4.683108869779339
 20
-9.486843285528291
 30
0.0
 10
4.679565495212651
 20
-9.482323514414321
 30
0.0
 10
4.670533827150393
 20
-9.463630245033527
 30
0.0
 10
4.666014056036424
 20
-9.445724392223155
 30
0.0
 10
4.666014056036424
 20
-9.428621704314537
 30
0.0
 10
4.665376248614418
 20
-9.413471809500453
 30
0.0
 10
4.668919623181131
 20
-9.401692057607608
 30
0.0
 10
4.676659928067945
 20
-9.393313945298787
 30
0.0
 10
4.683108869779339
 20
-9.385565766246271
 30
0.0
 10
4.694557906712639
 20
-9.380416061875999
 30
0.0
 10
4.711007038867819
 20
-9.37783333552516
 30
0.0
 10
4.742291099208942
 20
-9.372022201235772
 30
0.0
 10
4.776323243380677
 20
-9.370085156472642
 30
0.0
 10
4.813087723051618
 20
-9.372022201235772
 30
0.0
 10
4.83695431929977
 20
-9.372982849451647
 30
0.0
 10
4.8528365115243
 20
-9.374274212627065
 30
0.0
 10
4.860742173890886
 20
-9.37589629076203
 30
0.0
 10
4.868639962091795
 20
-9.377502620565589
 30
0.0
 10
4.875333002939997
 20
-9.380573545190069
 30
0.0
 10
4.880821296435542
 20
-9.385077567972631
 30
0.0
 10
4.891459294301335
 20
-9.394762791788277
 30
0.0
 10
4.896782230317082
 20
-9.411849731365489
 30
0.0
 10
4.896782230317082
 20
-9.436369883367053
 30
0.0
 10
4.896782230317082
 20
-9.45378753790381
 30
0.0
 10
4.892593174162684
 20
-9.467803552856542
 30
0.0
 10
4.884207187688161
 20
-9.478449424888063
 30
0.0
 10
4.877750371811063
 20
-9.484260559177451
 30
0.0
 10
4.871222688442634
 20
-9.487819682075546
 30
0.0
 10
4.864616263417145
 20
-9.489095296919559
 30
0.0
 10
4.858001964225977
 20
-9.490386660094978
 30
0.0
 10
4.848560839547139
 20
-9.491032341682688
 30
0.0
 10
4.836308637712059
 20
-9.491032341682688
 30
0.0
 10
4.836631478505927
 20
-9.506843666415887
 30
0.0
 10
4.838166940818155
 20
-9.528607860421136
 30
0.0
 10
4.840907150483062
 20
-9.556340672029843
 30
0.0
 10
4.843647360147997
 20
-9.584089231969956
 30
0.0
 10
4.845174948294521
 20
-9.603601414583913
 30
0.0
 10
4.845505663254091
 20
-9.614877219871736
 30
0.0
 10
4.84582062988223
 20
-9.621649002376972
 30
0.0
 10
4.845985987362003
 20
-9.626011290176872
 30
0.0
 10
4.845985987362003
 20
-9.627948334940002
 30
0.0
 10
4.845985987362003
 20
-9.62988537970313
 30
0.0
 10
4.845985987362003
 20
-9.6344051508171
 30
0.0
 10
4.845985987362003
 20
-9.6414918999505
 30
0.0
 10
4.845985987362003
 20
-9.648594397415308
 30
0.0
 10
4.845663146568161
 20
-9.653822843442613
 30
0.0
 10
4.845017464980451
 20
-9.657208734695258
 30
0.0
 10
4.844371783392741
 20
-9.660594625947876
 30
0.0
 10
4.843403261011164
 20
-9.66479943043368
 30
0.0
 10
4.842119772001447
 20
-9.669791651489882
 30
0.0
 10
4.840820534660324
 20
-9.674799620877491
 30
0.0
 10
4.838891364062899
 20
-9.678673710403749
 30
0.0
 10
4.836308637712059
 20
-9.681398171737251
 30
0.0
 10
4.833725911361221
 20
-9.684154129733592
 30
0.0
 10
4.83066286090247
 20
-9.685996684508255
 30
0.0
 10
4.827119486335757
 20
-9.686973081055535
 30
0.0
 10
4.813890887953397
 20
-9.691162137209932
 30
0.0
 10
4.79776459659206
 20
-9.693099181973062
 30
0.0
 10
4.778740612251744
 20
-9.692768467013516
 30
0.0
 10
4.759708753745699
 20
-9.692453500385353
 30
0.0
 10
4.743259621590519
 20
-9.689713290720444
 30
0.0
 10
4.729393215786154
 20
-9.684547838018765
 30
0.0
  0
HATCH
  5
8D
330
7B
100
AcDbEntity
  8
Layer 1
 62
   250
420
  2301728
440
 33554687
100
AcDbHatch
 10
0.0
 20
0.0
 30
0.0
210
0.0
220
0.0
230
1.0
  2
SOLID
 70
     1
 71
     1
 91
        1
 92
        1
 93
        1
 72
     4
 94
        3
 73
     0
 74
     0
 95
       80
 96
       76
 40
0.0
 40
0.0
 40
0.0
 40
0.0
 40
1.0
 40
1.0
 40
1.0
 40
2.0
 40
2.0
 40
2.0
 40
3.0
 40
3.0
 40
3.0
 40
4.0
 40
4.0
 40
4.0
 40
5.0
 40
5.0
 40
5.0
 40
6.0
 40
6.0
 40
6.0
 40
7.0
 40
7.0
 40
7.0
 40
8.0
 40
8.0
 40
8.0
 40
9.0
 40
9.0
 40
9.0
 40
10.0
 40
10.0
 40
10.0
 40
11.0
 40
11.0
 40
11.0
 40
12.0
 40
12.0
 40
12.0
 40
13.0
 40
13.0
 40
13.0
 40
14.0
 40
14.0
 40
14.0
 40
15.0
 40
15.0
 40
15.0
 40
16.0
 40
16.0
 40
16.0
 40
17.0
 40
17.0
 40
17.0
 40
18.0
 40
18.0
 40
18.0
 40
19.0
 40
19.0
 40
19.0
 40
20.0
 40
20.0
 40
20.0
 40
21.0
 40
21.0
 40
21.0
 40
22.0
 40
22.0
 40
22.0
 40
23.0
 40
23.0
 40
23.0
 40
24.0
 40
24.0
 40
24.0
 40
25.0
 40
25.0
 40
25.0
 40
25.0
 10
4.729393215786154
 20
-9.684547838018765
 10
4.713589765218658
 20
-9.676799658966247
 10
4.707943988409068
 20
-9.645680956104923
 10
4.712463759523036
 20
-9.591175981103358
 10
4.717613463893308
 20
-9.541190777215762
 10
4.72020406440985
 20
-9.508292512905375
 10
4.72020406440985
 20
-9.492481188172178
 10
4.72020406440985
 20
-9.492481188172178
 10
4.708589669996777
 20
-9.492481188172178
 10
4.708589669996777
 20
-9.492481188172178
 10
4.699235161140677
 20
-9.492481188172178
 10
4.692943702743352
 20
-9.491929996572908
 10
4.689723168970506
 20
-9.490796116711583
 10
4.686494761031958
 20
-9.489662236850234
 10
4.683108869779339
 20
-9.486843285528291
 10
4.679565495212651
 20
-9.482323514414321
 10
4.670533827150393
 20
-9.463630245033527
 10
4.666014056036424
 20
-9.445724392223155
 10
4.666014056036424
 20
-9.428621704314537
 10
4.665376248614418
 20
-9.413471809500453
 10
4.668919623181131
 20
-9.401692057607608
 10
4.676659928067945
 20
-9.393313945298787
 10
4.683108869779339
 20
-9.385565766246271
 10
4.694557906712639
 20
-9.380416061875999
 10
4.711007038867819
 20
-9.37783333552516
 10
4.742291099208942
 20
-9.372022201235772
 10
4.776323243380677
 20
-9.370085156472642
 10
4.813087723051618
 20
-9.372022201235772
 10
4.83695431929977
 20
-9.372982849451647
 10
4.8528365115243
 20
-9.374274212627065
 10
4.860742173890886
 20
-9.37589629076203
 10
4.868639962091795
 20
-9.377502620565589
 10
4.875333002939997
 20
-9.380573545190069
 10
4.880821296435542
 20
-9.385077567972631
 10
4.891459294301335
 20
-9.394762791788277
 10
4.896782230317082
 20
-9.411849731365489
 10
4.896782230317082
 20
-9.436369883367053
 10
4.896782230317082
 20
-9.45378753790381
 10
4.892593174162684
 20
-9.467803552856542
 10
4.884207187688161
 20
-9.478449424888063
 10
4.877750371811063
 20
-9.484260559177451
 10
4.871222688442634
 20
-9.487819682075546
 10
4.864616263417145
 20
-9.489095296919559
 10
4.858001964225977
 20
-9.490386660094978
 10
4.848560839547139
 20
-9.491032341682688
 10
4.836308637712059
 20
-9.491032341682688
 10
4.836631478505927
 20
-9.506843666415887
 10
4.838166940818155
 20
-9.528607860421136
 10
4.840907150483062
 20
-9.556340672029843
 10
4.843647360147997
 20
-9.584089231969956
 10
4.845174948294521
 20
-9.603601414583913
 10
4.845505663254091
 20
-9.614877219871736
 10
4.84582062988223
 20
-9.621649002376972
 10
4.845985987362003
 20
-9.626011290176872
 10
4.845985987362003
 20
-9.627948334940002
 10
4.845985987362003
 20
-9.62988537970313
 10
4.845985987362003
 20
-9.6344051508171
 10
4.845985987362003
 20
-9.6414918999505
 10
4.845985987362003
 20
-9.648594397415308
 10
4.845663146568161
 20
-9.653822843442613
 10
4.845017464980451
 20
-9.657208734695258
 10
4.844371783392741
 20
-9.660594625947876
 10
4.843403261011164
 20
-9.66479943043368
 10
4.842119772001447
 20
-9.669791651489882
 10
4.840820534660324
 20
-9.674799620877491
 10
4.838891364062899
 20
-9.678673710403749
 10
4.836308637712059
 20
-9.681398171737251
 10
4.833725911361221
 20
-9.684154129733592
 10
4.83066286090247
 20
-9.685996684508255
 10
4.827119486335757
 20
-9.686973081055535
 10
4.813890887953397
 20
-9.691162137209932
 10
4.79776459659206
 20
-9.693099181973062
 10
4.778740612251744
 20
-9.692768467013516
 10
4.759708753745699
 20
-9.692453500385353
 10
4.743259621590519
 20
-9.689713290720444
 10
4.729393215786154
 20
-9.684547838018765
 97
        0
 97
        1
330
8C
 75
     2
 76
     1
 98
        1
 10
0.0
 20
0.0
450
        0
451
        0
460
0.0
461
0.0
452
        0
462
0.0
453
        0
470

  0
SPLINE
  5
8E
330
7B
100
AcDbEntity
  8
Layer 1
100
AcDbSpline
210
0.0
220
0.0
230
1.0
 70
     9
 71
     3
 72
    62
 73
    58
 74
     0
 42
0.0000000001
 43
0.0000000001
 40
0.0
 40
0.0
 40
0.0
 40
0.0
 40
1.0
 40
1.0
 40
1.0
 40
2.0
 40
2.0
 40
2.0
 40
3.0
 40
3.0
 40
3.0
 40
4.0
 40
4.0
 40
4.0
 40
5.0
 40
5.0
 40
5.0
 40
6.0
 40
6.0
 40
6.0
 40
7.0
 40
7.0
 40
7.0
 40
8.0
 40
8.0
 40
8.0
 40
9.0
 40
9.0
 40
9.0
 40
10.0
 40
10.0
 40
10.0
 40
11.0
 40
11.0
 40
11.0
 40
12.0
 40
12.0
 40
12.0
 40
13.0
 40
13.0
 40
13.0
 40
14.0
 40
14.0
 40
14.0
 40
15.0
 40
15.0
 40
15.0
 40
16.0
 40
16.0
 40
16.0
 40
17.0
 40
17.0
 40
17.0
 40
18.0
 40
18.0
 40
18.0
 40
19.0
 40
19.0
 40
19.0
 40
19.0
 10
4.959192867685234
 20
-9.693256665287156
 30
0.0
 10
4.942090179776641
 20
-9.691004653895863
 30
0.0
 10
4.928869455559985
 20
-9.684059639745125
 30
0.0
 10
4.919522820869612
 20
-9.672453119497756
 30
0.0
 10
4.913711686580224
 20
-9.664704940445238
 30
0.0
 10
4.910160437847808
 20
-9.655838629862778
 30
0.0
 10
4.908876948838092
 20
-9.645838439418993
 30
0.0
 10
4.907585585662673
 20
-9.635853997306588
 30
0.0
 10
4.907585585662673
 20
-9.615207934831282
 30
0.0
 10
4.908876948838092
 20
-9.58391600032448
 30
0.0
 10
4.910483278641676
 20
-9.545537316684253
 30
0.0
 10
4.911451801023227
 20
-9.512796535687938
 30
0.0
 10
4.911782515982799
 20
-9.485709405666939
 30
0.0
 10
4.912420323404805
 20
-9.445724392223155
 30
0.0
 10
4.914357368167935
 20
-9.420889273593425
 30
0.0
 10
4.917585776106483
 20
-9.411204049777779
 30
0.0
 10
4.92629460337485
 20
-9.38734532769533
 30
0.0
 10
4.9459642693029
 20
-9.374431695941135
 30
0.0
 10
4.976610522222017
 20
-9.372510399509412
 30
0.0
 10
4.98272874897384
 20
-9.372510399509412
 30
0.0
 10
4.988374525783456
 20
-9.373156081097123
 30
0.0
 10
4.993539978485133
 20
-9.374431695941135
 30
0.0
 10
4.998697557021109
 20
-9.375738807447961
 30
0.0
 10
5.003051970655304
 20
-9.37783333552516
 30
0.0
 10
5.006603219387695
 20
-9.380731028504163
 30
0.0
 10
5.010146593954408
 20
-9.383628721483141
 30
0.0
 10
5.013288386070219
 20
-9.386290189491015
 30
0.0
 10
5.016036469900831
 20
-9.388715432527785
 30
0.0
 10
5.018768805400037
 20
-9.391124927233148
 30
0.0
 10
5.020949949299998
 20
-9.394762791788277
 30
0.0
 10
5.02256415326926
 20
-9.39959752953041
 30
0.0
 10
5.024178357238548
 20
-9.404432267272516
 30
0.0
 10
5.025469720413966
 20
-9.408306356798776
 30
0.0
 10
5.026438242795519
 20
-9.411204049777779
 30
0.0
 10
5.027406765177096
 20
-9.414117491088189
 30
0.0
 10
5.02813118842184
 20
-9.418637262202132
 30
0.0
 10
5.028611512529752
 20
-9.424747614788277
 30
0.0
 10
5.029099710803393
 20
-9.430889464037237
 30
0.0
 10
5.029414677431557
 20
-9.435157261848669
 30
0.0
 10
5.029580034911329
 20
-9.437566756554032
 30
0.0
 10
5.029737518225399
 20
-9.439991999590802
 30
0.0
 10
5.029824134048137
 20
-9.444433029047734
 30
0.0
 10
5.029824134048137
 20
-9.450874096593425
 30
0.0
 10
5.029824134048137
 20
-9.457330912470524
 30
0.0
 10
5.029824134048137
 20
-9.461205001996782
 30
0.0
 10
5.029824134048137
 20
-9.462496365172201
 30
0.0
 10
5.030469815635847
 20
-9.504749138338663
 30
0.0
 10
5.032887184506913
 20
-9.541033293901692
 30
0.0
 10
5.037084114827039
 20
-9.571348831861238
 30
0.0
 10
5.041596011775305
 20
-9.602310051408494
 30
0.0
 10
5.042233819197311
 20
-9.626342005136443
 30
0.0
 10
5.039013285424466
 20
-9.64342894471363
 30
0.0
 10
5.03514707006391
 20
-9.66180724746626
 30
0.0
 10
5.025469720413966
 20
-9.675287819151131
 30
0.0
 10
5.009989110640313
 20
-9.683823414774021
 30
0.0
 10
4.994508500866686
 20
-9.692374758728318
 30
0.0
 10
4.977571170437865
 20
-9.695508676678425
 30
0.0
 10
4.959192867685234
 20
-9.693256665287156
 30
0.0
  0
HATCH
  5
8F
330
7B
100
AcDbEntity
  8
Layer 1
 62
   250
420
  2301728
440
 33554687
100
AcDbHatch
 10
0.0
 20
0.0
 30
0.0
210
0.0
220
0.0
230
1.0
  2
SOLID
 70
     1
 71
     1
 91
        1
 92
        1
 93
        1
 72
     4
 94
        3
 73
     0
 74
     0
 95
       62
 96
       58
 40
0.0
 40
0.0
 40
0.0
 40
0.0
 40
1.0
 40
1.0
 40
1.0
 40
2.0
 40
2.0
 40
2.0
 40
3.0
 40
3.0
 40
3.0
 40
4.0
 40
4.0
 40
4.0
 40
5.0
 40
5.0
 40
5.0
 40
6.0
 40
6.0
 40
6.0
 40
7.0
 40
7.0
 40
7.0
 40
8.0
 40
8.0
 40
8.0
 40
9.0
 40
9.0
 40
9.0
 40
10.0
 40
10.0
 40
10.0
 40
11.0
 40
11.0
 40
11.0
 40
12.0
 40
12.0
 40
12.0
 40
13.0
 40
13.0
 40
13.0
 40
14.0
 40
14.0
 40
14.0
 40
15.0
 40
15.0
 40
15.0
 40
16.0
 40
16.0
 40
16.0
 40
17.0
 40
17.0
 40
17.0
 40
18.0
 40
18.0
 40
18.0
 40
19.0
 40
19.0
 40
19.0
 40
19.0
 10
4.959192867685234
 20
-9.693256665287156
 10
4.942090179776641
 20
-9.691004653895863
 10
4.928869455559985
 20
-9.684059639745125
 10
4.919522820869612
 20
-9.672453119497756
 10
4.913711686580224
 20
-9.664704940445238
 10
4.910160437847808
 20
-9.655838629862778
 10
4.908876948838092
 20
-9.645838439418993
 10
4.907585585662673
 20
-9.635853997306588
 10
4.907585585662673
 20
-9.615207934831282
 10
4.908876948838092
 20
-9.58391600032448
 10
4.910483278641676
 20
-9.545537316684253
 10
4.911451801023227
 20
-9.512796535687938
 10
4.911782515982799
 20
-9.485709405666939
 10
4.912420323404805
 20
-9.445724392223155
 10
4.914357368167935
 20
-9.420889273593425
 10
4.917585776106483
 20
-9.411204049777779
 10
4.92629460337485
 20
-9.38734532769533
 10
4.9459642693029
 20
-9.374431695941135
 10
4.976610522222017
 20
-9.372510399509412
 10
4.98272874897384
 20
-9.372510399509412
 10
4.988374525783456
 20
-9.373156081097123
 10
4.993539978485133
 20
-9.374431695941135
 10
4.998697557021109
 20
-9.375738807447961
 10
5.003051970655304
 20
-9.37783333552516
 10
5.006603219387695
 20
-9.380731028504163
 10
5.010146593954408
 20
-9.383628721483141
 10
5.013288386070219
 20
-9.386290189491015
 10
5.016036469900831
 20
-9.388715432527785
 10
5.018768805400037
 20
-9.391124927233148
 10
5.020949949299998
 20
-9.394762791788277
 10
5.02256415326926
 20
-9.39959752953041
 10
5.024178357238548
 20
-9.404432267272516
 10
5.025469720413966
 20
-9.408306356798776
 10
5.026438242795519
 20
-9.411204049777779
 10
5.027406765177096
 20
-9.414117491088189
 10
5.02813118842184
 20
-9.418637262202132
 10
5.028611512529752
 20
-9.424747614788277
 10
5.029099710803393
 20
-9.430889464037237
 10
5.029414677431557
 20
-9.435157261848669
 10
5.029580034911329
 20
-9.437566756554032
 10
5.029737518225399
 20
-9.439991999590802
 10
5.029824134048137
 20
-9.444433029047734
 10
5.029824134048137
 20
-9.450874096593425
 10
5.029824134048137
 20
-9.457330912470524
 10
5.029824134048137
 20
-9.461205001996782
 10
5.029824134048137
 20
-9.462496365172201
 10
5.030469815635847
 20
-9.504749138338663
 10
5.032887184506913
 20
-9.541033293901692
 10
5.037084114827039
 20
-9.571348831861238
 10
5.041596011775305
 20
-9.602310051408494
 10
5.042233819197311
 20
-9.626342005136443
 10
5.039013285424466
 20
-9.64342894471363
 10
5.03514707006391
 20
-9.66180724746626
 10
5.025469720413966
 20
-9.675287819151131
 10
5.009989110640313
 20
-9.683823414774021
 10
4.994508500866686
 20
-9.692374758728318
 10
4.977571170437865
 20
-9.695508676678425
 10
4.959192867685234
 20
-9.693256665287156
 97
        0
 97
        1
330
8E
 75
     2
 76
     1
 98
        1
 10
0.0
 20
0.0
450
        0
451
        0
460
0.0
461
0.0
452
        0
462
0.0
453
        0
470

  0
SPLINE
  5
90
330
7B
100
AcDbEntity
  8
Layer 1
100
AcDbSpline
210
0.0
220
0.0
230
1.0
 70
     9
 71
     3
 72
    32
 73
    28
 74
     0
 42
0.0000000001
 43
0.0000000001
 40
0.0
 40
0.0
 40
0.0
 40
0.0
 40
1.0
 40
1.0
 40
1.0
 40
2.0
 40
2.0
 40
2.0
 40
3.0
 40
3.0
 40
3.0
 40
4.0
 40
4.0
 40
4.0
 40
5.0
 40
5.0
 40
5.0
 40
6.0
 40
6.0
 40
6.0
 40
7.0
 40
7.0
 40
7.0
 40
8.0
 40
8.0
 40
8.0
 40
9.0
 40
9.0
 40
9.0
 40
9.0
 10
5.180756142258183
 20
-9.455708834335533
 30
0.0
 10
5.173984359752946
 20
-9.455708834335533
 30
0.0
 10
5.168661423737173
 20
-9.459992380478398
 30
0.0
 10
5.164795208376617
 20
-9.468543724432693
 30
0.0
 10
5.160921118850359
 20
-9.477079320055583
 30
0.0
 10
5.158984074087229
 20
-9.48651257056872
 30
0.0
 10
5.158984074087229
 20
-9.496843475972076
 30
0.0
 10
5.158984074087229
 20
-9.505552303240467
 30
0.0
 10
5.160440794742422
 20
-9.511835887472063
 30
0.0
 10
5.163338487721426
 20
-9.515709976998348
 30
0.0
 10
5.166244054866132
 20
-9.519568318193199
 30
0.0
 10
5.172047314989817
 20
-9.519410834879105
 30
0.0
 10
5.180756142258183
 20
-9.515221778724708
 30
0.0
 10
5.189787810320416
 20
-9.508449996219445
 30
0.0
 10
5.194622548062548
 20
-9.496843475972076
 30
0.0
 10
5.195268229650259
 20
-9.480386469651193
 30
0.0
 10
5.195268229650259
 20
-9.476843095084479
 30
0.0
 10
5.195189487993198
 20
-9.474339110390674
 30
0.0
 10
5.195032004679129
 20
-9.472890263901186
 30
0.0
 10
5.194866647199356
 20
-9.471441417411698
 30
0.0
 10
5.194465064748454
 20
-9.469016174374928
 30
0.0
 10
5.193819383160744
 20
-9.46563028312231
 30
0.0
 10
5.193173701573035
 20
-9.462244391869665
 30
0.0
 10
5.191716980917842
 20
-9.459756155507268
 30
0.0
 10
5.189464969526574
 20
-9.458134077372303
 30
0.0
 10
5.187205083969577
 20
-9.456527747568719
 30
0.0
 10
5.184307390990599
 20
-9.455708834335533
 30
0.0
 10
5.180756142258183
 20
-9.455708834335533
 30
0.0
  0
SPLINE
  5
91
330
7B
100
AcDbEntity
  8
Layer 1
100
AcDbSpline
210
0.0
220
0.0
230
1.0
 70
     9
 71
     3
 72
    38
 73
    34
 74
     0
 42
0.0000000001
 43
0.0000000001
 40
0.0
 40
0.0
 40
0.0
 40
0.0
 40
1.0
 40
1.0
 40
1.0
 40
2.0
 40
2.0
 40
2.0
 40
3.0
 40
3.0
 40
3.0
 40
4.0
 40
4.0
 40
4.0
 40
5.0
 40
5.0
 40
5.0
 40
6.0
 40
6.0
 40
6.0
 40
7.0
 40
7.0
 40
7.0
 40
8.0
 40
8.0
 40
8.0
 40
9.0
 40
9.0
 40
9.0
 40
10.0
 40
10.0
 40
10.0
 40
11.0
 40
11.0
 40
11.0
 40
11.0
 10
5.052068652161324
 20
-9.568435390550853
 30
0.0
 10
5.052068652161324
 20
-9.549742121170057
 30
0.0
 10
5.054564762689424
 20
-9.530056706910626
 30
0.0
 10
5.059572732077033
 20
-9.50941064443532
 30
0.0
 10
5.06456495313321
 20
-9.488780330291421
 30
0.0
 10
5.071982417226181
 20
-9.468622466089728
 30
0.0
 10
5.081825124355898
 20
-9.448937051830297
 30
0.0
 10
5.091659957319911
 20
-9.429267385902246
 30
0.0
 10
5.105361005644504
 20
-9.413141094540907
 30
0.0
 10
5.122944017661034
 20
-9.400558177746258
 30
0.0
 10
5.140519155511861
 20
-9.387991009283041
 30
0.0
 10
5.160275437262649
 20
-9.381691676720011
 30
0.0
 10
5.182212862913375
 20
-9.381691676720011
 30
0.0
 10
5.205433777573817
 20
-9.382353106639129
 30
0.0
 10
5.22526880098164
 20
-9.389754822400693
 30
0.0
 10
5.241717933136846
 20
-9.403944068998901
 30
0.0
 10
5.258167065292026
 20
-9.418149063928517
 30
0.0
 10
5.27041926712713
 20
-9.436684849995218
 30
0.0
 10
5.278482412807786
 20
-9.459582923861791
 30
0.0
 10
5.291057455436733
 20
-9.494418232935306
 30
0.0
 10
5.293309466828
 20
-9.530702388498335
 30
0.0
 10
5.285246321147345
 20
-9.568435390550853
 30
0.0
 10
5.277513890426234
 20
-9.606499107562916
 30
0.0
 10
5.260741917477162
 20
-9.637696552081276
 30
0.0
 10
5.234946150631584
 20
-9.662059220768771
 30
0.0
 10
5.209134635454599
 20
-9.68640614112486
 30
0.0
 10
5.177693091799406
 20
-9.696485073225705
 30
0.0
 10
5.140605771334624
 20
-9.692296017071283
 30
0.0
 10
5.111896563178636
 20
-9.687445530997768
 30
0.0
 10
5.089967011693614
 20
-9.673744482673175
 30
0.0
 10
5.074809242713828
 20
-9.651161375434741
 30
0.0
 10
5.059643599568365
 20
-9.628594016527712
 30
0.0
 10
5.052068652161324
 20
-9.601018688233073
 30
0.0
 10
5.052068652161324
 20
-9.568435390550853
 30
0.0
  0
HATCH
  5
92
330
7B
100
AcDbEntity
  8
Layer 1
 62
   250
420
  2301728
440
 33554687
100
AcDbHatch
 10
0.0
 20
0.0
 30
0.0
210
0.0
220
0.0
230
1.0
  2
SOLID
 70
     1
 71
     1
 91
        2
 92
        1
 93
        1
 72
     4
 94
        3
 73
     0
 74
     0
 95
       32
 96
       28
 40
0.0
 40
0.0
 40
0.0
 40
0.0
 40
1.0
 40
1.0
 40
1.0
 40
2.0
 40
2.0
 40
2.0
 40
3.0
 40
3.0
 40
3.0
 40
4.0
 40
4.0
 40
4.0
 40
5.0
 40
5.0
 40
5.0
 40
6.0
 40
6.0
 40
6.0
 40
7.0
 40
7.0
 40
7.0
 40
8.0
 40
8.0
 40
8.0
 40
9.0
 40
9.0
 40
9.0
 40
9.0
 10
5.180756142258183
 20
-9.455708834335533
 10
5.173984359752946
 20
-9.455708834335533
 10
5.168661423737173
 20
-9.459992380478398
 10
5.164795208376617
 20
-9.468543724432693
 10
5.160921118850359
 20
-9.477079320055583
 10
5.158984074087229
 20
-9.48651257056872
 10
5.158984074087229
 20
-9.496843475972076
 10
5.158984074087229
 20
-9.505552303240467
 10
5.160440794742422
 20
-9.511835887472063
 10
5.163338487721426
 20
-9.515709976998348
 10
5.166244054866132
 20
-9.519568318193199
 10
5.172047314989817
 20
-9.519410834879105
 10
5.180756142258183
 20
-9.515221778724708
 10
5.189787810320416
 20
-9.508449996219445
 10
5.194622548062548
 20
-9.496843475972076
 10
5.195268229650259
 20
-9.480386469651193
 10
5.195268229650259
 20
-9.476843095084479
 10
5.195189487993198
 20
-9.474339110390674
 10
5.195032004679129
 20
-9.472890263901186
 10
5.194866647199356
 20
-9.471441417411698
 10
5.194465064748454
 20
-9.469016174374928
 10
5.193819383160744
 20
-9.46563028312231
 10
5.193173701573035
 20
-9.462244391869665
 10
5.191716980917842
 20
-9.459756155507268
 10
5.189464969526574
 20
-9.458134077372303
 10
5.187205083969577
 20
-9.456527747568719
 10
5.184307390990599
 20
-9.455708834335533
 10
5.180756142258183
 20
-9.455708834335533
 97
        0
 97
        1
330
90
 92
        1
 93
        1
 72
     4
 94
        3
 73
     0
 74
     0
 95
       38
 96
       34
 40
0.0
 40
0.0
 40
0.0
 40
0.0
 40
1.0
 40
1.0
 40
1.0
 40
2.0
 40
2.0
 40
2.0
 40
3.0
 40
3.0
 40
3.0
 40
4.0
 40
4.0
 40
4.0
 40
5.0
 40
5.0
 40
5.0
 40
6.0
 40
6.0
 40
6.0
 40
7.0
 40
7.0
 40
7.0
 40
8.0
 40
8.0
 40
8.0
 40
9.0
 40
9.0
 40
9.0
 40
10.0
 40
10.0
 40
10.0
 40
11.0
 40
11.0
 40
11.0
 40
11.0
 10
5.052068652161324
 20
-9.568435390550853
 10
5.052068652161324
 20
-9.549742121170057
 10
5.054564762689424
 20
-9.530056706910626
 10
5.059572732077033
 20
-9.50941064443532
 10
5.06456495313321
 20
-9.488780330291421
 10
5.071982417226181
 20
-9.468622466089728
 10
5.081825124355898
 20
-9.448937051830297
 10
5.091659957319911
 20
-9.429267385902246
 10
5.105361005644504
 20
-9.413141094540907
 10
5.122944017661034
 20
-9.400558177746258
 10
5.140519155511861
 20
-9.387991009283041
 10
5.160275437262649
 20
-9.381691676720011
 10
5.182212862913375
 20
-9.381691676720011
 10
5.205433777573817
 20
-9.382353106639129
 10
5.22526880098164
 20
-9.389754822400693
 10
5.241717933136846
 20
-9.403944068998901
 10
5.258167065292026
 20
-9.418149063928517
 10
5.27041926712713
 20
-9.436684849995218
 10
5.278482412807786
 20
-9.459582923861791
 10
5.291057455436733
 20
-9.494418232935306
 10
5.293309466828
 20
-9.530702388498335
 10
5.285246321147345
 20
-9.568435390550853
 10
5.277513890426234
 20
-9.606499107562916
 10
5.260741917477162
 20
-9.637696552081276
 10
5.234946150631584
 20
-9.662059220768771
 10
5.209134635454599
 20
-9.68640614112486
 10
5.177693091799406
 20
-9.696485073225705
 10
5.140605771334624
 20
-9.692296017071283
 10
5.111896563178636
 20
-9.687445530997768
 10
5.089967011693614
 20
-9.673744482673175
 10
5.074809242713828
 20
-9.651161375434741
 10
5.059643599568365
 20
-9.628594016527712
 10
5.052068652161324
 20
-9.601018688233073
 10
5.052068652161324
 20
-9.568435390550853
 97
        0
 97
        1
330
91
 75
     2
 76
     1
 98
        1
 10
0.0
 20
0.0
450
        0
451
        0
460
0.0
461
0.0
452
        0
462
0.0
453
        0
470

  0
SPLINE
  5
93
330
7B
100
AcDbEntity
  8
Layer 1
100
AcDbSpline
210
0.0
220
0.0
230
1.0
 70
     9
 71
     3
 72
   104
 73
   100
 74
     0
 42
0.0000000001
 43
0.0000000001
 40
0.0
 40
0.0
 40
0.0
 40
0.0
 40
1.0
 40
1.0
 40
1.0
 40
2.0
 40
2.0
 40
2.0
 40
3.0
 40
3.0
 40
3.0
 40
4.0
 40
4.0
 40
4.0
 40
5.0
 40
5.0
 40
5.0
 40
6.0
 40
6.0
 40
6.0
 40
7.0
 40
7.0
 40
7.0
 40
8.0
 40
8.0
 40
8.0
 40
9.0
 40
9.0
 40
9.0
 40
10.0
 40
10.0
 40
10.0
 40
11.0
 40
11.0
 40
11.0
 40
12.0
 40
12.0
 40
12.0
 40
13.0
 40
13.0
 40
13.0
 40
14.0
 40
14.0
 40
14.0
 40
15.0
 40
15.0
 40
15.0
 40
16.0
 40
16.0
 40
16.0
 40
17.0
 40
17.0
 40
17.0
 40
18.0
 40
18.0
 40
18.0
 40
19.0
 40
19.0
 40
19.0
 40
20.0
 40
20.0
 40
20.0
 40
21.0
 40
21.0
 40
21.0
 40
22.0
 40
22.0
 40
22.0
 40
23.0
 40
23.0
 40
23.0
 40
24.0
 40
24.0
 40
24.0
 40
25.0
 40
25.0
 40
25.0
 40
26.0
 40
26.0
 40
26.0
 40
27.0
 40
27.0
 40
27.0
 40
28.0
 40
28.0
 40
28.0
 40
29.0
 40
29.0
 40
29.0
 40
30.0
 40
30.0
 40
30.0
 40
31.0
 40
31.0
 40
31.0
 40
32.0
 40
32.0
 40
32.0
 40
33.0
 40
33.0
 40
33.0
 40
33.0
 10
5.444902904957163
 20
-9.673901965987271
 30
0.0
 10
5.443280826822173
 20
-9.670358591420557
 30
0.0
 10
5.440871332116835
 20
-9.66415374884597
 30
0.0
 10
5.437642924178286
 20
-9.655271689932128
 30
0.0
 10
5.434414516239737
 20
-9.646405379349667
 30
0.0
 10
5.432634954790677
 20
-9.64133441663643
 30
0.0
 10
5.432319988162513
 20
-9.640043053461011
 30
0.0
 10
5.427154535460835
 20
-9.626499488450512
 30
0.0
 10
5.424256842481857
 20
-9.619727705945251
 30
0.0
 10
5.423611160894147
 20
-9.619727705945251
 30
0.0
 10
5.423296194265983
 20
-9.619727705945251
 30
0.0
 10
5.423122962620507
 20
-9.620373387532961
 30
0.0
 10
5.423122962620507
 20
-9.621649002376972
 30
0.0
 10
5.422807995992368
 20
-9.624562443687382
 30
0.0
 10
5.422398539375762
 20
-9.630688544604909
 30
0.0
 10
5.421926089433529
 20
-9.640043053461011
 30
0.0
 10
5.421437891159889
 20
-9.649397562317087
 30
0.0
 10
5.420870951229239
 20
-9.656815026410059
 30
0.0
 10
5.420225269641528
 20
-9.662295445739902
 30
0.0
 10
5.418603191506538
 20
-9.68550848623464
 30
0.0
 10
5.409894364238147
 20
-9.698248886343334
 30
0.0
 10
5.39409878783638
 20
-9.700516646066034
 30
0.0
 10
5.387972686918828
 20
-9.701477294281882
 30
0.0
 10
5.377563039858437
 20
-9.702044234212557
 30
0.0
 10
5.362901343317995
 20
-9.702201717526651
 30
0.0
 10
5.348223898446172
 20
-9.702359200840721
 30
0.0
 10
5.33732605311214
 20
-9.702122975869592
 30
0.0
 10
5.330239303978739
 20
-9.701477294281882
 30
0.0
 10
5.320884795122638
 20
-9.700516646066034
 30
0.0
 10
5.314443727576947
 20
-9.694390545148481
 30
0.0
 10
5.310884604678827
 20
-9.683098991529277
 30
0.0
 10
5.30734123011214
 20
-9.671492471281908
 30
0.0
 10
5.30556166866308
 20
-9.633995694200519
 30
0.0
 10
5.30556166866308
 20
-9.570608660285087
 30
0.0
 10
5.30556166866308
 20
-9.507237374701061
 30
0.0
 10
5.30782942838578
 20
-9.451204811552971
 30
0.0
 10
5.312349199499749
 20
-9.402495222509388
 30
0.0
 10
5.313624814343762
 20
-9.389928054046169
 30
0.0
 10
5.321609218367383
 20
-9.381376710091872
 30
0.0
 10
5.336286663239231
 20
-9.376856938977905
 30
0.0
 10
5.35096410811108
 20
-9.372352916195318
 30
0.0
 10
5.365877777954033
 20
-9.370415871432214
 30
0.0
 10
5.381043421099522
 20
-9.371045804688492
 30
0.0
 10
5.387815203604759
 20
-9.371376519648062
 30
0.0
 10
5.393689331219775
 20
-9.372746624480516
 30
0.0
 10
5.398697300607383
 20
-9.375171867517286
 30
0.0
 10
5.403689521663586
 20
-9.377581362222649
 30
0.0
 10
5.408288034434589
 20
-9.381376710091872
 30
0.0
 10
5.412492838920418
 20
-9.386526414462144
 30
0.0
 10
5.416681895074816
 20
-9.391691867163823
 30
0.0
 10
5.420146527984469
 20
-9.396699836551407
 30
0.0
 10
5.422886737649402
 20
-9.401534574293538
 30
0.0
 10
5.425626947314311
 20
-9.406369312035646
 30
0.0
 10
5.42950103684057
 20
-9.413471809500453
 30
0.0
 10
5.434493257896772
 20
-9.422810570025148
 30
0.0
 10
5.439501227284381
 20
-9.432180827212656
 30
0.0
 10
5.443926508409882
 20
-9.440070741247836
 30
0.0
 10
5.447800597936141
 20
-9.446527557124934
 30
0.0
 10
5.44844627952385
 20
-9.445881875537224
 30
0.0
 10
5.44844627952385
 20
-9.437661246542473
 30
0.0
 10
5.447800597936141
 20
-9.421849921809299
 30
0.0
 10
5.447800597936141
 20
-9.407329960251519
 30
0.0
 10
5.448210054552746
 20
-9.397109293168012
 30
0.0
 10
5.449013219454526
 20
-9.391124927233148
 30
0.0
 10
5.44981638435633
 20
-9.385172057961073
 30
0.0
 10
5.45087152256062
 20
-9.381297968434813
 30
0.0
 10
5.45216288573604
 20
-9.379518406985779
 30
0.0
 10
5.453438500580053
 20
-9.377754593868125
 30
0.0
 10
5.456351941890463
 20
-9.375738807447961
 30
0.0
 10
5.460871713004431
 20
-9.373471047725262
 30
0.0
 10
5.474084563055359
 20
-9.367990628395444
 30
0.0
 10
5.488021836351056
 20
-9.365565385358674
 30
0.0
 10
5.502699281222905
 20
-9.366211066946384
 30
0.0
 10
5.517376726094753
 20
-9.3668724968655
 30
0.0
 10
5.529723417918274
 20
-9.370730838060353
 30
0.0
 10
5.539707860030653
 20
-9.37783333552516
 30
0.0
 10
5.54874740225859
 20
-9.38427440307085
 30
0.0
 10
5.554731768193479
 20
-9.392747005368113
 30
0.0
 10
5.557629461172457
 20
-9.403219645754132
 30
0.0
 10
5.56052715415146
 20
-9.413708034471584
 30
0.0
 10
5.562290967269088
 20
-9.436039168407507
 30
0.0
 10
5.56295239718823
 20
-9.470228795893312
 30
0.0
 10
5.563582330444508
 20
-9.511520920843924
 30
0.0
 10
5.562857907199764
 20
-9.55101773601407
 30
0.0
 10
5.560779127453971
 20
-9.588750738066588
 30
0.0
 10
5.558668851045366
 20
-9.626499488450512
 30
0.0
 10
5.555676668077921
 20
-9.652452738610159
 30
0.0
 10
5.551802578551662
 20
-9.666641985208368
 30
0.0
 10
5.547928489025403
 20
-9.680846980137983
 30
0.0
 10
5.540684256577933
 20
-9.690516455622223
 30
0.0
 10
5.530038384546413
 20
-9.695681908323901
 30
0.0
 10
5.521345305609454
 20
-9.698894567931043
 30
0.0
 10
5.5116443334624
 20
-9.700831612694173
 30
0.0
 10
5.501029958093694
 20
-9.701477294281882
 30
0.0
 10
5.490384086062198
 20
-9.702122975869592
 30
0.0
 10
5.479486240728166
 20
-9.700264672763523
 30
0.0
 10
5.468367918754412
 20
-9.69591813329503
 30
0.0
 10
5.457233848449277
 20
-9.691555845495132
 30
0.0
 10
5.449406927739724
 20
-9.684232871390626
 30
0.0
 10
5.444902904957163
 20
-9.673901965987271
 30
0.0
  0
HATCH
  5
94
330
7B
100
AcDbEntity
  8
Layer 1
 62
   250
420
  2301728
440
 33554687
100
AcDbHatch
 10
0.0
 20
0.0
 30
0.0
210
0.0
220
0.0
230
1.0
  2
SOLID
 70
     1
 71
     1
 91
        1
 92
        1
 93
        1
 72
     4
 94
        3
 73
     0
 74
     0
 95
      104
 96
      100
 40
0.0
 40
0.0
 40
0.0
 40
0.0
 40
1.0
 40
1.0
 40
1.0
 40
2.0
 40
2.0
 40
2.0
 40
3.0
 40
3.0
 40
3.0
 40
4.0
 40
4.0
 40
4.0
 40
5.0
 40
5.0
 40
5.0
 40
6.0
 40
6.0
 40
6.0
 40
7.0
 40
7.0
 40
7.0
 40
8.0
 40
8.0
 40
8.0
 40
9.0
 40
9.0
 40
9.0
 40
10.0
 40
10.0
 40
10.0
 40
11.0
 40
11.0
 40
11.0
 40
12.0
 40
12.0
 40
12.0
 40
13.0
 40
13.0
 40
13.0
 40
14.0
 40
14.0
 40
14.0
 40
15.0
 40
15.0
 40
15.0
 40
16.0
 40
16.0
 40
16.0
 40
17.0
 40
17.0
 40
17.0
 40
18.0
 40
18.0
 40
18.0
 40
19.0
 40
19.0
 40
19.0
 40
20.0
 40
20.0
 40
20.0
 40
21.0
 40
21.0
 40
21.0
 40
22.0
 40
22.0
 40
22.0
 40
23.0
 40
23.0
 40
23.0
 40
24.0
 40
24.0
 40
24.0
 40
25.0
 40
25.0
 40
25.0
 40
26.0
 40
26.0
 40
26.0
 40
27.0
 40
27.0
 40
27.0
 40
28.0
 40
28.0
 40
28.0
 40
29.0
 40
29.0
 40
29.0
 40
30.0
 40
30.0
 40
30.0
 40
31.0
 40
31.0
 40
31.0
 40
32.0
 40
32.0
 40
32.0
 40
33.0
 40
33.0
 40
33.0
 40
33.0
 10
5.444902904957163
 20
-9.673901965987271
 10
5.443280826822173
 20
-9.670358591420557
 10
5.440871332116835
 20
-9.66415374884597
 10
5.437642924178286
 20
-9.655271689932128
 10
5.434414516239737
 20
-9.646405379349667
 10
5.432634954790677
 20
-9.64133441663643
 10
5.432319988162513
 20
-9.640043053461011
 10
5.427154535460835
 20
-9.626499488450512
 10
5.424256842481857
 20
-9.619727705945251
 10
5.423611160894147
 20
-9.619727705945251
 10
5.423296194265983
 20
-9.619727705945251
 10
5.423122962620507
 20
-9.620373387532961
 10
5.423122962620507
 20
-9.621649002376972
 10
5.422807995992368
 20
-9.624562443687382
 10
5.422398539375762
 20
-9.630688544604909
 10
5.421926089433529
 20
-9.640043053461011
 10
5.421437891159889
 20
-9.649397562317087
 10
5.420870951229239
 20
-9.656815026410059
 10
5.420225269641528
 20
-9.662295445739902
 10
5.418603191506538
 20
-9.68550848623464
 10
5.409894364238147
 20
-9.698248886343334
 10
5.39409878783638
 20
-9.700516646066034
 10
5.387972686918828
 20
-9.701477294281882
 10
5.377563039858437
 20
-9.702044234212557
 10
5.362901343317995
 20
-9.702201717526651
 10
5.348223898446172
 20
-9.702359200840721
 10
5.33732605311214
 20
-9.702122975869592
 10
5.330239303978739
 20
-9.701477294281882
 10
5.320884795122638
 20
-9.700516646066034
 10
5.314443727576947
 20
-9.694390545148481
 10
5.310884604678827
 20
-9.683098991529277
 10
5.30734123011214
 20
-9.671492471281908
 10
5.30556166866308
 20
-9.633995694200519
 10
5.30556166866308
 20
-9.570608660285087
 10
5.30556166866308
 20
-9.507237374701061
 10
5.30782942838578
 20
-9.451204811552971
 10
5.312349199499749
 20
-9.402495222509388
 10
5.313624814343762
 20
-9.389928054046169
 10
5.321609218367383
 20
-9.381376710091872
 10
5.336286663239231
 20
-9.376856938977905
 10
5.35096410811108
 20
-9.372352916195318
 10
5.365877777954033
 20
-9.370415871432214
 10
5.381043421099522
 20
-9.371045804688492
 10
5.387815203604759
 20
-9.371376519648062
 10
5.393689331219775
 20
-9.372746624480516
 10
5.398697300607383
 20
-9.375171867517286
 10
5.403689521663586
 20
-9.377581362222649
 10
5.408288034434589
 20
-9.381376710091872
 10
5.412492838920418
 20
-9.386526414462144
 10
5.416681895074816
 20
-9.391691867163823
 10
5.420146527984469
 20
-9.396699836551407
 10
5.422886737649402
 20
-9.401534574293538
 10
5.425626947314311
 20
-9.406369312035646
 10
5.42950103684057
 20
-9.413471809500453
 10
5.434493257896772
 20
-9.422810570025148
 10
5.439501227284381
 20
-9.432180827212656
 10
5.443926508409882
 20
-9.440070741247836
 10
5.447800597936141
 20
-9.446527557124934
 10
5.44844627952385
 20
-9.445881875537224
 10
5.44844627952385
 20
-9.437661246542473
 10
5.447800597936141
 20
-9.421849921809299
 10
5.447800597936141
 20
-9.407329960251519
 10
5.448210054552746
 20
-9.397109293168012
 10
5.449013219454526
 20
-9.391124927233148
 10
5.44981638435633
 20
-9.385172057961073
 10
5.45087152256062
 20
-9.381297968434813
 10
5.45216288573604
 20
-9.379518406985779
 10
5.453438500580053
 20
-9.377754593868125
 10
5.456351941890463
 20
-9.375738807447961
 10
5.460871713004431
 20
-9.373471047725262
 10
5.474084563055359
 20
-9.367990628395444
 10
5.488021836351056
 20
-9.365565385358674
 10
5.502699281222905
 20
-9.366211066946384
 10
5.517376726094753
 20
-9.3668724968655
 10
5.529723417918274
 20
-9.370730838060353
 10
5.539707860030653
 20
-9.37783333552516
 10
5.54874740225859
 20
-9.38427440307085
 10
5.554731768193479
 20
-9.392747005368113
 10
5.557629461172457
 20
-9.403219645754132
 10
5.56052715415146
 20
-9.413708034471584
 10
5.562290967269088
 20
-9.436039168407507
 10
5.56295239718823
 20
-9.470228795893312
 10
5.563582330444508
 20
-9.511520920843924
 10
5.562857907199764
 20
-9.55101773601407
 10
5.560779127453971
 20
-9.588750738066588
 10
5.558668851045366
 20
-9.626499488450512
 10
5.555676668077921
 20
-9.652452738610159
 10
5.551802578551662
 20
-9.666641985208368
 10
5.547928489025403
 20
-9.680846980137983
 10
5.540684256577933
 20
-9.690516455622223
 10
5.530038384546413
 20
-9.695681908323901
 10
5.521345305609454
 20
-9.698894567931043
 10
5.5116443334624
 20
-9.700831612694173
 10
5.501029958093694
 20
-9.701477294281882
 10
5.490384086062198
 20
-9.702122975869592
 10
5.479486240728166
 20
-9.700264672763523
 10
5.468367918754412
 20
-9.69591813329503
 10
5.457233848449277
 20
-9.691555845495132
 10
5.449406927739724
 20
-9.684232871390626
 10
5.444902904957163
 20
-9.673901965987271
 97
        0
 97
        1
330
93
 75
     2
 76
     1
 98
        1
 10
0.0
 20
0.0
450
        0
451
        0
460
0.0
461
0.0
452
        0
462
0.0
453
        0
470

  0
ENDBLK
  5
7E
330
7B
100
AcDbEntity
  8
0
100
AcDbBlockEnd
  0
ENDSEC
  0
SECTION
  2
ENTITIES
  0
LWPOLYLINE
  5
7A
330
70
100
AcDbEntity
  8
Layer 1
 62
   250
420
  2301728
370
    35
100
AcDbPolyline
 90
        4
 70
     1
 43
0.0
 10
2.941879204839753
 20
-10.93435699484007
 10
2.941879204839753
 20
-8.134356994840093
 10
5.941879204839753
 20
-8.134356994840093
 10
5.941879204839753
 20
-10.93435699484004
  0
INSERT
  5
7C
330
70
100
AcDbEntity
  8
Layer 1
100
AcDbBlockReference
  2
Block_0
 10
0.0
 20
0.0
 30
0.0
  0
LWPOLYLINE
  5
95
330
70
100
AcDbEntity
  8
Layer 1
 62
   250
420
  2301728
370
    35
100
AcDbPolyline
 90
        4
 70
     1
 43
0.0
 10
5.674553578773484
 20
-9.805633590584774
 10
3.209204830906009
 20
-9.805633590584774
 10
3.209204830906009
 20
-9.263080399095416
 10
5.674553578773484
 20
-9.263080399095416
  0
LWPOLYLINE
  5
96
330
70
100
AcDbEntity
  8
Layer 1
 62
   250
420
  2301728
370
    35
100
AcDbPolyline
 90
        4
 70
     1
 43
0.0
 10
5.724881796690295
 20
-9.842625853640861
 10
3.158876612989211
 20
-9.842625853640861
 10
3.158876612989211
 20
-9.226088136039328
 10
5.724881796690295
 20
-9.226088136039328
  0
ENDSEC
  0
SECTION
  2
OBJECTS
  0
DICTIONARY
  5
C
330
0
100
AcDbDictionary
281
     1
  3
ACAD_COLOR
350
63
  3
ACAD_DETAILVIEWSTYLE
350
6A
  3
ACAD_GROUP
350
D
  3
ACAD_LAYOUT
350
62
  3
ACAD_MATERIAL
350
10
  3
ACAD_MLEADERSTYLE
350
66
  3
ACAD_MLINESTYLE
350
5F
  3
ACAD_PLOTSETTINGS
350
61
  3
ACAD_PLOTSTYLENAME
350
E
  3
ACAD_SCALELIST
350
42
  3
ACAD_SECTIONVIEWSTYLE
350
68
  3
ACAD_TABLESTYLE
350
64
  3
ACAD_VISUALSTYLE
350
29
  3
ACDB_RECOMPOSE_DATA
350
9F
  3
AcDbVariableDictionary
350
97
  0
DICTIONARY
  5
63
102
{ACAD_REACTORS
330
C
102
}
330
C
100
AcDbDictionary
281
     1
  0
DICTIONARY
  5
6A
102
{ACAD_REACTORS
330
C
102
}
330
C
100
AcDbDictionary
281
     1
  3
Imperial24
350
6B
  0
DICTIONARY
  5
D
102
{ACAD_REACTORS
330
C
102
}
330
C
100
AcDbDictionary
281
     1
  0
DICTIONARY
  5
62
102
{ACAD_REACTORS
330
C
102
}
330
C
100
AcDbDictionary
281
     1
  3
Layout1
350
6F
  3
Layout2
350
77
  3
Model
350
73
  0
DICTIONARY
  5
10
102
{ACAD_REACTORS
330
C
102
}
330
C
100
AcDbDictionary
281
     1
  3
ByBlock
350
19
  3
ByLayer
350
11
  3
Global
350
21
  0
DICTIONARY
  5
66
102
{ACAD_REACTORS
330
C
102
}
330
C
100
AcDbDictionary
281
     1
  3
Standard
350
67
  0
DICTIONARY
  5
5F
102
{ACAD_REACTORS
330
C
102
}
330
C
100
AcDbDictionary
281
     1
  3
Standard
350
60
  0
DICTIONARY
  5
61
102
{ACAD_REACTORS
330
C
102
}
330
C
100
AcDbDictionary
281
     1
  0
ACDBDICTIONARYWDFLT
  5
E
102
{ACAD_REACTORS
330
C
102
}
330
C
100
AcDbDictionary
281
     1
  3
Normal
350
F
100
AcDbDictionaryWithDefault
340
F
  0
DICTIONARY
  5
42
102
{ACAD_REACTORS
330
C
102
}
330
C
100
AcDbDictionary
281
     1
  3
A0
350
43
  3
A1
350
44
  3
A2
350
45
  3
A3
350
46
  3
A4
350
47
  3
A5
350
48
  3
A6
350
49
  3
A7
350
4A
  3
A8
350
4B
  3
A9
350
4C
  3
B0
350
4D
  3
B1
350
4E
  3
B2
350
4F
  3
B3
350
50
  3
B4
350
51
  3
B5
350
52
  3
B6
350
53
  0
DICTIONARY
  5
68
102
{ACAD_REACTORS
330
C
102
}
330
C
100
AcDbDictionary
281
     1
  3
Imperial24
350
69
  0
DICTIONARY
  5
64
102
{ACAD_REACTORS
330
C
102
}
330
C
100
AcDbDictionary
281
     1
  3
Standard
350
65
  0
DICTIONARY
  5
29
102
{ACAD_REACTORS
330
C
102
}
330
C
100
AcDbDictionary
281
     1
  3
2dWireframe
350
2F
  3
Basic
350
2E
  3
Brighten
350
35
  3
ColorChange
350
39
  3
Conceptual
350
32
  3
Dim
350
34
  3
EdgeColorOff
350
41
  3
Facepattern
350
38
  3
Flat
350
2A
  3
FlatWithEdges
350
2B
  3
Gouraud
350
2C
  3
GouraudWithEdges
350
2D
  3
Hidden
350
31
  3
JitterOff
350
3F
  3
Linepattern
350
37
  3
OverhangOff
350
40
  3
Realistic
350
33
  3
Shaded
350
3E
  3
Shaded with edges
350
3D
  3
Shades of Gray
350
3A
  3
Sketchy
350
3B
  3
Thicken
350
36
  3
Wireframe
350
30
  3
X-Ray
350
3C
  0
XRECORD
  5
9F
102
{ACAD_REACTORS
330
C
102
}
330
C
100
AcDbXrecord
280
     1
 90
        1
330
65
  0
DICTIONARY
  5
97
102
{ACAD_REACTORS
330
C
102
}
330
C
100
AcDbDictionary
281
     1
  3
CANNOSCALE
350
9C
  3
CMLEADERSTYLE
350
99
  3
CTABLESTYLE
350
98
  3
CVIEWDETAILSTYLE
350
9A
  3
CVIEWSECTIONSTYLE
350
9B
  0
ACDBDETAILVIEWSTYLE
  5
6B
102
{ACAD_REACTORS
330
6A
102
}
330
6A
100
AcDbModelDocViewStyle
 70
     0
  3
Imperial24
290
     1
300
Imperial24
 90
        0
100
AcDbDetailViewStyle
 70
     0
 71
     0
 90
        3
 71
     1
340
55
 62
   256
 40
0.24
340
0
 62
   256
 40
0.24
300

 40
0.36
280
     3
 71
     2
340
5D
 90
       25
 62
   256
 71
     3
340
55
 62
   256
 40
0.24
 90
        1
 40
0.75
 90
        1
300
%<\AcVar ViewType \f "%tc1">% %<\AcVar ViewDetailId>%\PSCALE %<\AcVar ViewScale \f "%sn">%
 71
     4
340
5D
 90
       25
 62
   256
340
5D
 90
       25
 62
   256
280
     0
  0
LAYOUT
  5
6F
102
{ACAD_REACTORS
330
62
102
}
330
62
100
AcDbPlotSettings
  1

  2

  4

  6

 40
0.0
 41
0.0
 42
0.0
 43
0.0
 44
0.0
 45
0.0
 46
0.0
 47
0.0
 48
0.0
 49
0.0
140
0.0
141
0.0
142
1.0
143
1.0
 70
   688
 72
     0
 73
     0
 74
     5
  7

 75
    16
147
1.0
 76
     0
 77
     2
 78
   300
148
0.0
149
0.0
100
AcDbLayout
  1
Layout1
 70
     1
 71
     1
 10
0.0
 20
0.0
 11
12.0
 21
9.0
 12
0.0
 22
0.0
 32
0.0
 14
0.0
 24
0.0
 34
0.0
 15
0.0
 25
0.0
 35
0.0
146
0.0
 13
0.0
 23
0.0
 33
0.0
 16
1.0
 26
0.0
 36
0.0
 17
0.0
 27
1.0
 37
0.0
 76
     0
330
6C
  0
LAYOUT
  5
77
102
{ACAD_REACTORS
330
62
102
}
330
62
100
AcDbPlotSettings
  1

  2

  4

  6

 40
0.0
 41
0.0
 42
0.0
 43
0.0
 44
0.0
 45
0.0
 46
0.0
 47
0.0
 48
0.0
 49
0.0
140
0.0
141
0.0
142
1.0
143
1.0
 70
   688
 72
     0
 73
     0
 74
     5
  7

 75
    16
147
1.0
 76
     0
 77
     2
 78
   300
148
0.0
149
0.0
100
AcDbLayout
  1
Layout2
 70
     1
 71
     2
 10
0.0
 20
0.0
 11
12.0
 21
9.0
 12
0.0
 22
0.0
 32
0.0
 14
0.0
 24
0.0
 34
0.0
 15
0.0
 25
0.0
 35
0.0
146
0.0
 13
0.0
 23
0.0
 33
0.0
 16
1.0
 26
0.0
 36
0.0
 17
0.0
 27
1.0
 37
0.0
 76
     0
330
74
  0
LAYOUT
  5
73
102
{ACAD_REACTORS
330
62
102
}
330
62
100
AcDbPlotSettings
  1

  2

  4

  6

 40
0.0
 41
0.0
 42
0.0
 43
0.0
 44
0.0
 45
0.0
 46
0.0
 47
0.0
 48
0.0
 49
0.0
140
0.0
141
0.0
142
1.0
143
1.0
 70
  1712
 72
     0
 73
     0
 74
     0
  7

 75
     0
147
1.0
 76
     0
 77
     2
 78
   300
148
0.0
149
0.0
100
AcDbLayout
  1
Model
 70
     1
 71
     0
 10
0.0
 20
0.0
 11
12.0
 21
9.0
 12
0.0
 22
0.0
 32
0.0
 14
0.0
 24
0.0
 34
0.0
 15
0.0
 25
0.0
 35
0.0
146
0.0
 13
0.0
 23
0.0
 33
0.0
 16
1.0
 26
0.0
 36
0.0
 17
0.0
 27
1.0
 37
0.0
 76
     0
330
70
  0
MATERIAL
  5
19
102
{ACAD_XDICTIONARY
360
1A
102
}
102
{ACAD_REACTORS
330
10
102
}
330
10
100
AcDbMaterial
  1
ByBlock
 72
     0
 43
0.0208333333333333
 43
0.0
 43
0.0
 43
0.0
 43
0.0
 43
0.0208333333333333
 43
0.0
 43
0.0
 43
0.0
 43
0.0
 43
1.0
 43
0.0
 43
0.0
 43
0.0
 43
0.0
 43
1.0
 77
     0
 47
0.0208333333333333
 47
0.0
 47
0.0
 47
0.0
 47
0.0
 47
0.0208333333333333
 47
0.0
 47
0.0
 47
0.0
 47
0.0
 47
1.0
 47
0.0
 47
0.0
 47
0.0
 47
0.0
 47
1.0
171
     0
 49
0.0208333333333333
 49
0.0
 49
0.0
 49
0.0
 49
0.0
 49
0.0208333333333333
 49
0.0
 49
0.0
 49
0.0
 49
0.0
 49
1.0
 49
0.0
 49
0.0
 49
0.0
 49
0.0
 49
1.0
175
     0
142
0.0208333333333333
142
0.0
142
0.0
142
0.0
142
0.0
142
0.0208333333333333
142
0.0
142
0.0
142
0.0
142
0.0
142
1.0
142
0.0
142
0.0
142
0.0
142
0.0
142
1.0
179
     0
144
0.0208333333333333
144
0.0
144
0.0
144
0.0
144
0.0
144
0.0208333333333333
144
0.0
144
0.0
144
0.0
144
0.0
144
1.0
144
0.0
144
0.0
144
0.0
144
0.0
144
1.0
147
0.0208333333333333
147
0.0
147
0.0
147
0.0
147
0.0
147
0.0208333333333333
147
0.0
147
0.0
147
0.0
147
0.0
147
1.0
147
0.0
147
0.0
147
0.0
147
0.0
147
1.0
  0
MATERIAL
  5
11
102
{ACAD_XDICTIONARY
360
12
102
}
102
{ACAD_REACTORS
330
10
102
}
330
10
100
AcDbMaterial
  1
ByLayer
 72
     0
 43
0.0208333333333333
 43
0.0
 43
0.0
 43
0.0
 43
0.0
 43
0.0208333333333333
 43
0.0
 43
0.0
 43
0.0
 43
0.0
 43
1.0
 43
0.0
 43
0.0
 43
0.0
 43
0.0
 43
1.0
 77
     0
 47
0.0208333333333333
 47
0.0
 47
0.0
 47
0.0
 47
0.0
 47
0.0208333333333333
 47
0.0
 47
0.0
 47
0.0
 47
0.0
 47
1.0
 47
0.0
 47
0.0
 47
0.0
 47
0.0
 47
1.0
171
     0
 49
0.0208333333333333
 49
0.0
 49
0.0
 49
0.0
 49
0.0
 49
0.0208333333333333
 49
0.0
 49
0.0
 49
0.0
 49
0.0
 49
1.0
 49
0.0
 49
0.0
 49
0.0
 49
0.0
 49
1.0
175
     0
142
0.0208333333333333
142
0.0
142
0.0
142
0.0
142
0.0
142
0.0208333333333333
142
0.0
142
0.0
142
0.0
142
0.0
142
1.0
142
0.0
142
0.0
142
0.0
142
0.0
142
1.0
179
     0
144
0.0208333333333333
144
0.0
144
0.0
144
0.0
144
0.0
144
0.0208333333333333
144
0.0
144
0.0
144
0.0
144
0.0
144
1.0
144
0.0
144
0.0
144
0.0
144
0.0
144
1.0
147
0.0208333333333333
147
0.0
147
0.0
147
0.0
147
0.0
147
0.0208333333333333
147
0.0
147
0.0
147
0.0
147
0.0
147
1.0
147
0.0
147
0.0
147
0.0
147
0.0
147
1.0
  0
MATERIAL
  5
21
102
{ACAD_XDICTIONARY
360
22
102
}
102
{ACAD_REACTORS
330
10
102
}
330
10
100
AcDbMaterial
  1
Global
 72
     0
 43
0.0208333333333333
 43
0.0
 43
0.0
 43
0.0
 43
0.0
 43
0.0208333333333333
 43
0.0
 43
0.0
 43
0.0
 43
0.0
 43
1.0
 43
0.0
 43
0.0
 43
0.0
 43
0.0
 43
1.0
 77
     0
 47
0.0208333333333333
 47
0.0
 47
0.0
 47
0.0
 47
0.0
 47
0.0208333333333333
 47
0.0
 47
0.0
 47
0.0
 47
0.0
 47
1.0
 47
0.0
 47
0.0
 47
0.0
 47
0.0
 47
1.0
171
     0
 49
0.0208333333333333
 49
0.0
 49
0.0
 49
0.0
 49
0.0
 49
0.0208333333333333
 49
0.0
 49
0.0
 49
0.0
 49
0.0
 49
1.0
 49
0.0
 49
0.0
 49
0.0
 49
0.0
 49
1.0
175
     0
142
0.0208333333333333
142
0.0
142
0.0
142
0.0
142
0.0
142
0.0208333333333333
142
0.0
142
0.0
142
0.0
142
0.0
142
1.0
142
0.0
142
0.0
142
0.0
142
0.0
142
1.0
179
     0
144
0.0208333333333333
144
0.0
144
0.0
144
0.0
144
0.0
144
0.0208333333333333
144
0.0
144
0.0
144
0.0
144
0.0
144
1.0
144
0.0
144
0.0
144
0.0
144
0.0
144
1.0
147
0.0208333333333333
147
0.0
147
0.0
147
0.0
147
0.0
147
0.0208333333333333
147
0.0
147
0.0
147
0.0
147
0.0
147
1.0
147
0.0
147
0.0
147
0.0
147
0.0
147
1.0
  0
MLEADERSTYLE
  5
67
102
{ACAD_REACTORS
330
66
102
}
330
66
100
AcDbMLeaderStyle
179
     2
170
     2
171
     1
172
     0
 90
        2
 40
0.0
 41
0.0
173
     1
 91
-1056964608
340
5B
 92
       -2
290
     1
 42
0.09
291
     1
 43
0.36
  3
Standard
 44
0.18
300

342
55
174
     1
178
     6
175
     1
176
     0
 93
-1056964608
 45
0.18
292
     0
297
     0
 46
0.18
 94
-1056964608
 47
1.0
 49
1.0
140
1.0
293
     1
141
0.0
294
     1
177
     0
142
1.0
295
     1
296
     0
143
0.125
271
     0
272
     9
273
     9
298
     1
  0
MLINESTYLE
  5
60
102
{ACAD_REACTORS
330
5F
102
}
330
5F
100
AcDbMlineStyle
  2
STANDARD
 70
     0
  3

 62
   256
 51
90.0
 52
90.0
 71
     2
 49
0.5
 62
   256
  6
BYLAYER
 49
-0.5
 62
   256
  6
BYLAYER
  0
ACDBPLACEHOLDER
  5
F
102
{ACAD_REACTORS
330
E
102
}
330
E
  0
SCALE
  5
43
102
{ACAD_REACTORS
330
42
102
}
330
42
100
AcDbScale
 70
     0
300
1:1
140
1.0
141
1.0
290
     1
  0
SCALE
  5
44
102
{ACAD_REACTORS
330
42
102
}
330
42
100
AcDbScale
 70
     0
300
1/128" = 1'-0"
140
0.0078125
141
12.0
290
     0
  0
SCALE
  5
45
102
{ACAD_REACTORS
330
42
102
}
330
42
100
AcDbScale
 70
     0
300
1/64" = 1'-0"
140
0.015625
141
12.0
290
     0
  0
SCALE
  5
46
102
{ACAD_REACTORS
330
42
102
}
330
42
100
AcDbScale
 70
     0
300
1/32" = 1'-0"
140
0.03125
141
12.0
290
     0
  0
SCALE
  5
47
102
{ACAD_REACTORS
330
42
102
}
330
42
100
AcDbScale
 70
     0
300
1/16" = 1'-0"
140
0.0625
141
12.0
290
     0
  0
SCALE
  5
48
102
{ACAD_REACTORS
330
42
102
}
330
42
100
AcDbScale
 70
     0
300
3/32" = 1'-0"
140
0.09375
141
12.0
290
     0
  0
SCALE
  5
49
102
{ACAD_REACTORS
330
42
102
}
330
42
100
AcDbScale
 70
     0
300
1/8" = 1'-0"
140
0.125
141
12.0
290
     0
  0
SCALE
  5
4A
102
{ACAD_REACTORS
330
42
102
}
330
42
100
AcDbScale
 70
     0
300
3/16" = 1'-0"
140
0.1875
141
12.0
290
     0
  0
SCALE
  5
4B
102
{ACAD_REACTORS
330
42
102
}
330
42
100
AcDbScale
 70
     0
300
1/4" = 1'-0"
140
0.25
141
12.0
290
     0
  0
SCALE
  5
4C
102
{ACAD_REACTORS
330
42
102
}
330
42
100
AcDbScale
 70
     0
300
3/8" = 1'-0"
140
0.375
141
12.0
290
     0
  0
SCALE
  5
4D
102
{ACAD_REACTORS
330
42
102
}
330
42
100
AcDbScale
 70
     0
300
1/2" = 1'-0"
140
0.5
141
12.0
290
     0
  0
SCALE
  5
4E
102
{ACAD_REACTORS
330
42
102
}
330
42
100
AcDbScale
 70
     0
300
3/4" = 1'-0"
140
0.75
141
12.0
290
     0
  0
SCALE
  5
4F
102
{ACAD_REACTORS
330
42
102
}
330
42
100
AcDbScale
 70
     0
300
1" = 1'-0"
140
1.0
141
12.0
290
     0
  0
SCALE
  5
50
102
{ACAD_REACTORS
330
42
102
}
330
42
100
AcDbScale
 70
     0
300
1-1/2" = 1'-0"
140
1.5
141
12.0
290
     0
  0
SCALE
  5
51
102
{ACAD_REACTORS
330
42
102
}
330
42
100
AcDbScale
 70
     0
300
3" = 1'-0"
140
3.0
141
12.0
290
     0
  0
SCALE
  5
52
102
{ACAD_REACTORS
330
42
102
}
330
42
100
AcDbScale
 70
     0
300
6" = 1'-0"
140
6.0
141
12.0
290
     0
  0
SCALE
  5
53
102
{ACAD_REACTORS
330
42
102
}
330
42
100
AcDbScale
 70
     0
300
1'-0" = 1'-0"
140
12.0
141
12.0
290
     0
  0
ACDBSECTIONVIEWSTYLE
  5
69
102
{ACAD_REACTORS
330
68
102
}
330
68
100
AcDbModelDocViewStyle
 70
     0
  3
Imperial24
290
     1
300
Imperial24
 90
        0
100
AcDbSectionViewStyle
 70
     0
 71
     0
 90
       78
 71
     1
340
55
 62
   256
 40
0.24
340
0
340
0
 62
   256
 40
0.24
300
I, O, Q, S, X, Z
 40
0.48
 90
        3
 40
0.18
 90
        1
 71
     2
340
5D
 90
       25
 62
   256
340
5D
 90
       50
 62
   256
 40
0.24
 40
0.0
 40
0.24
 71
     3
340
55
 62
   256
 40
0.24
 90
        1
 40
0.75
 90
        1
300
%<\AcVar ViewType \f "%tc1">% %<\AcVar ViewSectionStartId>%-%<\AcVar ViewSectionEndId>%\PSCALE %<\AcVar ViewScale \f "%sn">%
 71
     4
 62
   256
 62
   257
300
ANSI31
 40
1.0
 90
        0
290
     0
290
     0
 90
        6
 40
0.0
 40
1.570796326794896
 40
0.2617993877991494
 40
1.308996938995747
 40
-0.2617993877991494
 40
1.832595714594046
  0
TABLESTYLE
  5
65
102
{ACAD_XDICTIONARY
360
9D
102
}
102
{ACAD_REACTORS
330
64
102
}
330
64
100
AcDbTableStyle
280
     0
  3
Standard
 70
     0
 71
     0
 40
0.06
 41
0.06
280
     0
281
     0
  7
Standard
140
0.18
170
     2
 62
     0
 63
     7
283
     0
 90
      512
 91
        0
  1

274
    -2
284
     1
 64
     0
275
    -2
285
     1
 65
     0
276
    -2
286
     1
 66
     0
277
    -2
287
     1
 67
     0
278
    -2
288
     1
 68
     0
279
    -2
289
     1
 69
     0
  7
Standard
140
0.25
170
     5
 62
     0
 63
     7
283
     0
 90
      512
 91
        0
  1

274
    -2
284
     1
 64
     0
275
    -2
285
     1
 65
     0
276
    -2
286
     1
 66
     0
277
    -2
287
     1
 67
     0
278
    -2
288
     1
 68
     0
279
    -2
289
     1
 69
     0
  7
Standard
140
0.18
170
     5
 62
     0
 63
     7
283
     0
 90
      512
 91
        0
  1

274
    -2
284
     1
 64
     0
275
    -2
285
     1
 65
     0
276
    -2
286
     1
 66
     0
277
    -2
287
     1
 67
     0
278
    -2
288
     1
 68
     0
279
    -2
289
     1
 69
     0
  0
VISUALSTYLE
  5
2F
102
{ACAD_REACTORS
330
29
102
}
330
29
100
AcDbVisualStyle
  2
2dWireframe
 70
     4
177
     3
291
     0
 70
    58
 90
        0
176
     1
 90
        2
176
     1
 90
        0
176
     1
 90
        0
176
     1
 40
0.6
176
     1
 40
30.0
176
     1
 62
     7
420
 16777215
176
     1
 90
        1
176
     1
 90
        4
176
     1
 62
     7
176
     1
 62
   257
176
     1
 90
        1
176
     1
 90
        1
176
     1
 40
1.0
176
     1
 90
        0
176
     1
 62
   257
176
     1
 40
1.0
176
     1
 90
        1
176
     1
 90
        6
176
     1
 90
        2
176
     1
 62
     7
176
     1
 90
        5
176
     1
 90
        0
176
     1
 90
        0
176
     1
290
     0
176
     1
 90
        1
176
     1
 40
0.0
176
     1
 90
        0
176
     1
290
     1
176
     1
290
     1
176
     1
290
     0
176
     1
290
     0
176
     1
290
     0
176
     1
290
     0
176
     1
290
     0
176
     1
290
     0
176
     1
290
     0
176
     1
 90
       50
176
     1
 40
0.0
176
     1
 40
1.0
176
     1
 90
        0
176
     1
 62
    18
420
        0
176
     1
 90
       50
176
     1
 90
        3
176
     1
 62
     5
420
      255
176
     1
290
     0
176
     1
 90
       50
176
     1
 90
       50
176
     1
 90
       50
176
     1
290
     0
176
     1
 90
       50
176
     1
 62
   256
176
     0
 40
1.0
176
     0
 90
        2
176
     1
  1
strokes_ogs.tif
176
     1
290
     0
176
     1
 40
1.0
176
     1
 40
1.0
176
     1
  0
VISUALSTYLE
  5
2E
102
{ACAD_REACTORS
330
29
102
}
330
29
100
AcDbVisualStyle
  2
Basic
 70
     7
177
     3
291
     1
 70
    58
 90
        1
176
     1
 90
        0
176
     1
 90
        1
176
     1
 90
        0
176
     1
 40
0.6
176
     1
 40
30.0
176
     1
 62
     7
420
 16777215
176
     1
 90
        0
176
     1
 90
        4
176
     1
 62
     7
176
     1
 62
   257
176
     1
 90
        1
176
     1
 90
        1
176
     1
 40
1.0
176
     1
 90
        8
176
     1
 62
     7
176
     1
 40
1.0
176
     1
 90
        1
176
     1
 90
        6
176
     1
 90
        2
176
     1
 62
     7
176
     1
 90
        5
176
     1
 90
        0
176
     1
 90
        0
176
     1
290
     0
176
     1
 90
        1
176
     1
 40
0.0
176
     1
 90
        0
176
     1
290
     0
176
     1
290
     1
176
     1
290
     1
176
     1
290
     0
176
     1
290
     0
176
     1
290
     0
176
     1
290
     0
176
     1
290
     0
176
     1
290
     0
176
     1
 90
       50
176
     1
 40
0.0
176
     1
 40
1.0
176
     1
 90
        0
176
     1
 62
    18
420
        0
176
     1
 90
       50
176
     1
 90
        3
176
     1
 62
     5
420
      255
176
     1
290
     0
176
     1
 90
       50
176
     1
 90
       50
176
     1
 90
       50
176
     1
290
     0
176
     1
 90
       50
176
     1
 62
   256
176
     0
 40
1.0
176
     0
 90
        2
176
     1
  1
strokes_ogs.tif
176
     1
290
     0
176
     1
 40
1.0
176
     1
 40
1.0
176
     1
  0
VISUALSTYLE
  5
35
102
{ACAD_REACTORS
330
29
102
}
330
29
100
AcDbVisualStyle
  2
Brighten
 70
    12
177
     3
291
     1
 70
    58
 90
        2
176
     1
 90
        2
176
     1
 90
        0
176
     1
 90
        0
176
     1
 40
0.6
176
     1
 40
30.0
176
     1
 62
     7
420
 16777215
176
     1
 90
        1
176
     1
 90
        4
176
     1
 62
     7
176
     1
 62
   257
176
     1
 90
        1
176
     1
 90
        1
176
     1
 40
1.0
176
     1
 90
        8
176
     1
 62
     7
176
     1
 40
1.0
176
     1
 90
        1
176
     1
 90
        6
176
     1
 90
        2
176
     1
 62
     7
176
     1
 90
        5
176
     1
 90
        0
176
     1
 90
        0
176
     1
290
     0
176
     1
 90
        1
176
     1
 40
50.0
176
     1
 90
        0
176
     1
290
     0
176
     1
290
     1
176
     1
290
     1
176
     1
290
     0
176
     1
290
     0
176
     1
290
     0
176
     1
290
     0
176
     1
290
     0
176
     1
290
     0
176
     1
 90
       50
176
     1
 40
0.0
176
     1
 40
1.0
176
     1
 90
        0
176
     1
 62
    18
420
        0
176
     1
 90
       50
176
     1
 90
        3
176
     1
 62
     5
420
      255
176
     1
290
     0
176
     1
 90
       50
176
     1
 90
       50
176
     1
 90
       50
176
     1
290
     0
176
     1
 90
       50
176
     1
 62
   256
176
     0
 40
1.0
176
     0
 90
        2
176
     1
  1
strokes_ogs.tif
176
     1
290
     0
176
     1
 40
1.0
176
     1
 40
1.0
176
     1
  0
VISUALSTYLE
  5
39
102
{ACAD_REACTORS
330
29
102
}
330
29
100
AcDbVisualStyle
  2
ColorChange
 70
    16
177
     3
291
     1
 70
    58
 90
        2
176
     1
 90
        2
176
     1
 90
        3
176
     1
 90
        0
176
     1
 40
0.6
176
     1
 40
30.0
176
     1
 62
     8
420
  8421504
176
     1
 90
        1
176
     1
 90
        4
176
     1
 62
     7
176
     1
 62
   257
176
     1
 90
        1
176
     1
 90
        1
176
     1
 40
1.0
176
     1
 90
        8
176
     1
 62
     8
420
  8421504
176
     1
 40
1.0
176
     1
 90
        1
176
     1
 90
        6
176
     1
 90
        2
176
     1
 62
     7
176
     1
 90
        5
176
     1
 90
        0
176
     1
 90
        0
176
     1
290
     0
176
     1
 90
        1
176
     1
 40
0.0
176
     1
 90
        0
176
     1
290
     0
176
     1
290
     1
176
     1
290
     1
176
     1
290
     0
176
     1
290
     0
176
     1
290
     0
176
     1
290
     0
176
     1
290
     0
176
     1
290
     0
176
     1
 90
       50
176
     1
 40
0.0
176
     1
 40
1.0
176
     1
 90
        0
176
     1
 62
    18
420
        0
176
     1
 90
       50
176
     1
 90
        3
176
     1
 62
     5
420
      255
176
     1
290
     0
176
     1
 90
       50
176
     1
 90
       50
176
     1
 90
       50
176
     1
290
     0
176
     1
 90
       50
176
     1
 62
   256
176
     0
 40
1.0
176
     0
 90
        2
176
     1
  1
strokes_ogs.tif
176
     1
290
     0
176
     1
 40
1.0
176
     1
 40
1.0
176
     1
  0
VISUALSTYLE
  5
32
102
{ACAD_REACTORS
330
29
102
}
330
29
100
AcDbVisualStyle
  2
Conceptual
 70
     9
177
     3
291
     0
 70
    58
 90
        3
176
     1
 90
        2
176
     1
 90
        0
176
     1
 90
        0
176
     1
 40
0.6
176
     1
 40
30.0
176
     1
 62
     7
420
 16777215
176
     1
 90
        2
176
     1
 90
        2
176
     1
 62
     7
176
     1
 62
   257
176
     1
 90
        1
176
     1
 90
        1
176
     1
 40
179.0
176
     1
 90
        8
176
     1
 62
     7
176
     1
 40
1.0
176
     1
 90
        1
176
     1
 90
        6
176
     1
 90
        2
176
     1
 62
     7
176
     1
 90
        3
176
     1
 90
        0
176
     1
 90
        0
176
     1
290
     0
176
     1
 90
        1
176
     1
 40
0.0
176
     1
 90
        0
176
     1
290
     0
176
     1
290
     1
176
     1
290
     1
176
     1
290
     0
176
     1
290
     0
176
     1
290
     0
176
     1
290
     0
176
     1
290
     0
176
     1
290
     0
176
     1
 90
       50
176
     1
 40
0.0
176
     1
 40
1.0
176
     1
 90
        0
176
     1
 62
    18
420
        0
176
     1
 90
       50
176
     1
 90
        3
176
     1
 62
     5
420
      255
176
     1
290
     0
176
     1
 90
       50
176
     1
 90
       50
176
     1
 90
       50
176
     1
290
     0
176
     1
 90
       50
176
     1
 62
   256
176
     0
 40
1.0
176
     0
 90
        2
176
     1
  1
strokes_ogs.tif
176
     1
290
     0
176
     1
 40
1.0
176
     1
 40
1.0
176
     1
  0
VISUALSTYLE
  5
34
102
{ACAD_REACTORS
330
29
102
}
330
29
100
AcDbVisualStyle
  2
Dim
 70
    11
177
     3
291
     1
 70
    58
 90
        2
176
     1
 90
        2
176
     1
 90
        0
176
     1
 90
        0
176
     1
 40
0.6
176
     1
 40
30.0
176
     1
 62
     7
420
 16777215
176
     1
 90
        1
176
     1
 90
        4
176
     1
 62
     7
176
     1
 62
   257
176
     1
 90
        1
176
     1
 90
        1
176
     1
 40
1.0
176
     1
 90
        8
176
     1
 62
     7
176
     1
 40
1.0
176
     1
 90
        1
176
     1
 90
        6
176
     1
 90
        2
176
     1
 62
     7
176
     1
 90
        5
176
     1
 90
        0
176
     1
 90
        0
176
     1
290
     0
176
     1
 90
        1
176
     1
 40
-50.0
176
     1
 90
        0
176
     1
290
     0
176
     1
290
     1
176
     1
290
     1
176
     1
290
     0
176
     1
290
     0
176
     1
290
     0
176
     1
290
     0
176
     1
290
     0
176
     1
290
     0
176
     1
 90
       50
176
     1
 40
0.0
176
     1
 40
1.0
176
     1
 90
        0
176
     1
 62
    18
420
        0
176
     1
 90
       50
176
     1
 90
        3
176
     1
 62
     5
420
      255
176
     1
290
     0
176
     1
 90
       50
176
     1
 90
       50
176
     1
 90
       50
176
     1
290
     0
176
     1
 90
       50
176
     1
 62
   256
176
     0
 40
1.0
176
     0
 90
        2
176
     1
  1
strokes_ogs.tif
176
     1
290
     0
176
     1
 40
1.0
176
     1
 40
1.0
176
     1
  0
VISUALSTYLE
  5
41
102
{ACAD_REACTORS
330
29
102
}
330
29
100
AcDbVisualStyle
  2
EdgeColorOff
 70
    22
177
     3
291
     1
 70
    58
 90
        2
176
     0
 90
        2
176
     0
 90
        0
176
     0
 90
        0
176
     0
 40
0.6
176
     0
 40
30.0
176
     0
 62
     7
420
 16777215
176
     0
 90
        1
176
     0
 90
        4
176
     0
 62
     7
176
     0
 62
   257
176
     0
 90
        1
176
     0
 90
        1
176
     0
 40
1.0
176
     0
 90
        8
176
     2
 62
     7
176
     0
 40
1.0
176
     0
 90
        1
176
     0
 90
        6
176
     0
 90
        2
176
     0
 62
     7
176
     0
 90
        5
176
     0
 90
        0
176
     0
 90
        0
176
     0
290
     0
176
     0
 90
        1
176
     0
 40
0.0
176
     0
 90
        0
176
     0
290
     0
176
     0
290
     1
176
     0
290
     1
176
     0
290
     0
176
     0
290
     0
176
     0
290
     0
176
     0
290
     0
176
     0
290
     0
176
     0
290
     0
176
     0
 90
       50
176
     0
 40
0.0
176
     0
 40
1.0
176
     0
 90
        0
176
     0
 62
    18
420
        0
176
     0
 90
       50
176
     0
 90
        3
176
     0
 62
     5
420
      255
176
     0
290
     0
176
     0
 90
       50
176
     0
 90
       50
176
     0
 90
       50
176
     0
290
     0
176
     0
 90
       50
176
     0
 62
   256
176
     0
 40
1.0
176
     0
 90
        2
176
     0
  1
strokes_ogs.tif
176
     0
290
     0
176
     0
 40
1.0
176
     0
 40
1.0
176
     0
  0
VISUALSTYLE
  5
38
102
{ACAD_REACTORS
330
29
102
}
330
29
100
AcDbVisualStyle
  2
Facepattern
 70
    15
177
     3
291
     1
 70
    58
 90
        2
176
     1
 90
        2
176
     1
 90
        0
176
     1
 90
        0
176
     1
 40
0.6
176
     1
 40
30.0
176
     1
 62
     7
420
 16777215
176
     1
 90
        1
176
     1
 90
        4
176
     1
 62
     7
176
     1
 62
   257
176
     1
 90
        1
176
     1
 90
        1
176
     1
 40
1.0
176
     1
 90
        8
176
     1
 62
     7
176
     1
 40
1.0
176
     1
 90
        1
176
     1
 90
        6
176
     1
 90
        2
176
     1
 62
     7
176
     1
 90
        5
176
     1
 90
        0
176
     1
 90
        0
176
     1
290
     0
176
     1
 90
        1
176
     1
 40
0.0
176
     1
 90
        0
176
     1
290
     0
176
     1
290
     1
176
     1
290
     1
176
     1
290
     0
176
     1
290
     0
176
     1
290
     0
176
     1
290
     0
176
     1
290
     0
176
     1
290
     0
176
     1
 90
       50
176
     1
 40
0.0
176
     1
 40
1.0
176
     1
 90
        0
176
     1
 62
    18
420
        0
176
     1
 90
       50
176
     1
 90
        3
176
     1
 62
     5
420
      255
176
     1
290
     0
176
     1
 90
       50
176
     1
 90
       50
176
     1
 90
       50
176
     1
290
     0
176
     1
 90
       50
176
     1
 62
   256
176
     0
 40
1.0
176
     0
 90
        2
176
     1
  1
strokes_ogs.tif
176
     1
290
     0
176
     1
 40
1.0
176
     1
 40
1.0
176
     1
  0
VISUALSTYLE
  5
2A
102
{ACAD_REACTORS
330
29
102
}
330
29
100
AcDbVisualStyle
  2
Flat
 70
     0
177
     3
291
     1
 70
    58
 90
        2
176
     1
 90
        1
176
     1
 90
        1
176
     1
 90
        2
176
     1
 40
0.6
176
     1
 40
30.0
176
     1
 62
     7
420
 16777215
176
     1
 90
        0
176
     1
 90
        0
176
     1
 62
     7
176
     1
 62
   257
176
     1
 90
        1
176
     1
 90
        1
176
     1
 40
1.0
176
     1
 90
        8
176
     1
 62
     7
176
     1
 40
1.0
176
     1
 90
        1
176
     1
 90
        6
176
     1
 90
        2
176
     1
 62
     7
176
     1
 90
        5
176
     1
 90
        0
176
     1
 90
        0
176
     1
290
     0
176
     1
 90
       13
176
     1
 40
0.0
176
     1
 90
        0
176
     1
290
     0
176
     1
290
     1
176
     1
290
     1
176
     1
290
     0
176
     1
290
     0
176
     1
290
     0
176
     1
290
     0
176
     1
290
     0
176
     1
290
     0
176
     1
 90
       50
176
     1
 40
0.0
176
     1
 40
1.0
176
     1
 90
        0
176
     1
 62
    18
420
        0
176
     1
 90
       50
176
     1
 90
        3
176
     1
 62
     5
420
      255
176
     1
290
     0
176
     1
 90
       50
176
     1
 90
       50
176
     1
 90
       50
176
     1
290
     0
176
     1
 90
       50
176
     1
 62
   256
176
     0
 40
1.0
176
     0
 90
        2
176
     1
  1
strokes_ogs.tif
176
     1
290
     0
176
     1
 40
1.0
176
     1
 40
1.0
176
     1
  0
VISUALSTYLE
  5
2B
102
{ACAD_REACTORS
330
29
102
}
330
29
100
AcDbVisualStyle
  2
FlatWithEdges
 70
     1
177
     3
291
     1
 70
    58
 90
        2
176
     1
 90
        1
176
     1
 90
        1
176
     1
 90
        2
176
     1
 40
0.6
176
     1
 40
30.0
176
     1
 62
     7
420
 16777215
176
     1
 90
        1
176
     1
 90
        0
176
     1
 62
     7
176
     1
 62
   257
176
     1
 90
        1
176
     1
 90
        1
176
     1
 40
1.0
176
     1
 90
        0
176
     1
 62
   257
176
     1
 40
1.0
176
     1
 90
        1
176
     1
 90
        6
176
     1
 90
        2
176
     1
 62
     7
176
     1
 90
        5
176
     1
 90
        0
176
     1
 90
        0
176
     1
290
     0
176
     1
 90
       13
176
     1
 40
0.0
176
     1
 90
        0
176
     1
290
     0
176
     1
290
     1
176
     1
290
     1
176
     1
290
     0
176
     1
290
     0
176
     1
290
     0
176
     1
290
     0
176
     1
290
     0
176
     1
290
     0
176
     1
 90
       50
176
     1
 40
0.0
176
     1
 40
1.0
176
     1
 90
        0
176
     1
 62
    18
420
        0
176
     1
 90
       50
176
     1
 90
        3
176
     1
 62
     5
420
      255
176
     1
290
     0
176
     1
 90
       50
176
     1
 90
       50
176
     1
 90
       50
176
     1
290
     0
176
     1
 90
       50
176
     1
 62
   256
176
     0
 40
1.0
176
     0
 90
        2
176
     1
  1
strokes_ogs.tif
176
     1
290
     0
176
     1
 40
1.0
176
     1
 40
1.0
176
     1
  0
VISUALSTYLE
  5
2C
102
{ACAD_REACTORS
330
29
102
}
330
29
100
AcDbVisualStyle
  2
Gouraud
 70
     2
177
     3
291
     1
 70
    58
 90
        2
176
     1
 90
        2
176
     1
 90
        1
176
     1
 90
        2
176
     1
 40
0.6
176
     1
 40
30.0
176
     1
 62
     7
420
 16777215
176
     1
 90
        0
176
     1
 90
        0
176
     1
 62
     7
176
     1
 62
   257
176
     1
 90
        1
176
     1
 90
        1
176
     1
 40
1.0
176
     1
 90
        0
176
     1
 62
     7
176
     1
 40
1.0
176
     1
 90
        1
176
     1
 90
        6
176
     1
 90
        2
176
     1
 62
     7
176
     1
 90
        5
176
     1
 90
        0
176
     1
 90
        0
176
     1
290
     0
176
     1
 90
       13
176
     1
 40
0.0
176
     1
 90
        0
176
     1
290
     0
176
     1
290
     1
176
     1
290
     1
176
     1
290
     0
176
     1
290
     0
176
     1
290
     0
176
     1
290
     0
176
     1
290
     0
176
     1
290
     0
176
     1
 90
       50
176
     1
 40
0.0
176
     1
 40
1.0
176
     1
 90
        0
176
     1
 62
    18
420
        0
176
     1
 90
       50
176
     1
 90
        3
176
     1
 62
     5
420
      255
176
     1
290
     0
176
     1
 90
       50
176
     1
 90
       50
176
     1
 90
       50
176
     1
290
     0
176
     1
 90
       50
176
     1
 62
   256
176
     0
 40
1.0
176
     0
 90
        2
176
     1
  1
strokes_ogs.tif
176
     1
290
     0
176
     1
 40
1.0
176
     1
 40
1.0
176
     1
  0
VISUALSTYLE
  5
2D
102
{ACAD_REACTORS
330
29
102
}
330
29
100
AcDbVisualStyle
  2
GouraudWithEdges
 70
     3
177
     3
291
     1
 70
    58
 90
        2
176
     1
 90
        2
176
     1
 90
        1
176
     1
 90
        2
176
     1
 40
0.6
176
     1
 40
30.0
176
     1
 62
     7
420
 16777215
176
     1
 90
        1
176
     1
 90
        0
176
     1
 62
     7
176
     1
 62
   257
176
     1
 90
        1
176
     1
 90
        1
176
     1
 40
1.0
176
     1
 90
        0
176
     1
 62
   257
176
     1
 40
1.0
176
     1
 90
        1
176
     1
 90
        6
176
     1
 90
        2
176
     1
 62
     7
176
     1
 90
        5
176
     1
 90
        0
176
     1
 90
        0
176
     1
290
     0
176
     1
 90
       13
176
     1
 40
0.0
176
     1
 90
        0
176
     1
290
     0
176
     1
290
     1
176
     1
290
     1
176
     1
290
     0
176
     1
290
     0
176
     1
290
     0
176
     1
290
     0
176
     1
290
     0
176
     1
290
     0
176
     1
 90
       50
176
     1
 40
0.0
176
     1
 40
1.0
176
     1
 90
        0
176
     1
 62
    18
420
        0
176
     1
 90
       50
176
     1
 90
        3
176
     1
 62
     5
420
      255
176
     1
290
     0
176
     1
 90
       50
176
     1
 90
       50
176
     1
 90
       50
176
     1
290
     0
176
     1
 90
       50
176
     1
 62
   256
176
     0
 40
1.0
176
     0
 90
        2
176
     1
  1
strokes_ogs.tif
176
     1
290
     0
176
     1
 40
1.0
176
     1
 40
1.0
176
     1
  0
VISUALSTYLE
  5
31
102
{ACAD_REACTORS
330
29
102
}
330
29
100
AcDbVisualStyle
  2
Hidden
 70
     6
177
     3
291
     0
 70
    58
 90
        1
176
     1
 90
        2
176
     1
 90
        2
176
     1
 90
        0
176
     1
 40
0.6
176
     1
 40
30.0
176
     1
 62
     7
420
 16777215
176
     1
 90
        2
176
     1
 90
        2
176
     1
 62
     7
176
     1
 62
   257
176
     1
 90
        2
176
     1
 90
        1
176
     1
 40
40.0
176
     1
 90
        0
176
     1
 62
   257
176
     1
 40
1.0
176
     1
 90
        1
176
     1
 90
        6
176
     1
 90
        2
176
     1
 62
     7
176
     1
 90
        3
176
     1
 90
        0
176
     1
 90
        0
176
     1
290
     0
176
     1
 90
        1
176
     1
 40
0.0
176
     1
 90
        0
176
     1
290
     0
176
     1
290
     1
176
     1
290
     1
176
     1
290
     0
176
     1
290
     0
176
     1
290
     0
176
     1
290
     0
176
     1
290
     0
176
     1
290
     0
176
     1
 90
       50
176
     1
 40
0.0
176
     1
 40
1.0
176
     1
 90
        0
176
     1
 62
    18
420
        0
176
     1
 90
       50
176
     1
 90
        3
176
     1
 62
     5
420
      255
176
     1
290
     0
176
     1
 90
       50
176
     1
 90
       50
176
     1
 90
       50
176
     1
290
     0
176
     1
 90
       50
176
     1
 62
   256
176
     0
 40
1.0
176
     0
 90
        2
176
     1
  1
strokes_ogs.tif
176
     1
290
     0
176
     1
 40
1.0
176
     1
 40
1.0
176
     1
  0
VISUALSTYLE
  5
3F
102
{ACAD_REACTORS
330
29
102
}
330
29
100
AcDbVisualStyle
  2
JitterOff
 70
    20
177
     3
291
     1
 70
    58
 90
        2
176
     0
 90
        2
176
     0
 90
        0
176
     0
 90
        0
176
     0
 40
0.6
176
     0
 40
30.0
176
     0
 62
     7
420
 16777215
176
     0
 90
        1
176
     0
 90
        4
176
     0
 62
     7
176
     0
 62
   257
176
     0
 90
        1
176
     0
 90
        1
176
     0
 40
1.0
176
     0
 90
       10
176
     2
 62
     7
176
     0
 40
1.0
176
     0
 90
        1
176
     0
 90
        6
176
     0
 90
        2
176
     0
 62
     7
176
     0
 90
        5
176
     0
 90
        0
176
     0
 90
        0
176
     0
290
     0
176
     0
 90
        1
176
     0
 40
0.0
176
     0
 90
        0
176
     0
290
     0
176
     0
290
     1
176
     0
290
     1
176
     0
290
     0
176
     0
290
     0
176
     0
290
     0
176
     0
290
     0
176
     0
290
     0
176
     0
290
     0
176
     0
 90
       50
176
     0
 40
0.0
176
     0
 40
1.0
176
     0
 90
        0
176
     0
 62
    18
420
        0
176
     0
 90
       50
176
     0
 90
        3
176
     0
 62
     5
420
      255
176
     0
290
     0
176
     0
 90
       50
176
     0
 90
       50
176
     0
 90
       50
176
     0
290
     0
176
     0
 90
       50
176
     0
 62
   256
176
     0
 40
1.0
176
     0
 90
        2
176
     0
  1
strokes_ogs.tif
176
     0
290
     0
176
     0
 40
1.0
176
     0
 40
1.0
176
     0
  0
VISUALSTYLE
  5
37
102
{ACAD_REACTORS
330
29
102
}
330
29
100
AcDbVisualStyle
  2
Linepattern
 70
    14
177
     3
291
     1
 70
    58
 90
        2
176
     1
 90
        2
176
     1
 90
        0
176
     1
 90
        0
176
     1
 40
0.6
176
     1
 40
30.0
176
     1
 62
     7
420
 16777215
176
     1
 90
        1
176
     1
 90
        4
176
     1
 62
     7
176
     1
 62
   257
176
     1
 90
        7
176
     1
 90
        7
176
     1
 40
1.0
176
     1
 90
        8
176
     1
 62
     7
176
     1
 40
1.0
176
     1
 90
        1
176
     1
 90
        6
176
     1
 90
        2
176
     1
 62
     7
176
     1
 90
        5
176
     1
 90
        0
176
     1
 90
        0
176
     1
290
     0
176
     1
 90
        1
176
     1
 40
0.0
176
     1
 90
        0
176
     1
290
     0
176
     1
290
     1
176
     1
290
     1
176
     1
290
     0
176
     1
290
     0
176
     1
290
     0
176
     1
290
     0
176
     1
290
     0
176
     1
290
     0
176
     1
 90
       50
176
     1
 40
0.0
176
     1
 40
1.0
176
     1
 90
        0
176
     1
 62
    18
420
        0
176
     1
 90
       50
176
     1
 90
        3
176
     1
 62
     5
420
      255
176
     1
290
     0
176
     1
 90
       50
176
     1
 90
       50
176
     1
 90
       50
176
     1
290
     0
176
     1
 90
       50
176
     1
 62
   256
176
     0
 40
1.0
176
     0
 90
        2
176
     1
  1
strokes_ogs.tif
176
     1
290
     0
176
     1
 40
1.0
176
     1
 40
1.0
176
     1
  0
VISUALSTYLE
  5
40
102
{ACAD_REACTORS
330
29
102
}
330
29
100
AcDbVisualStyle
  2
OverhangOff
 70
    21
177
     3
291
     1
 70
    58
 90
        2
176
     0
 90
        2
176
     0
 90
        0
176
     0
 90
        0
176
     0
 40
0.6
176
     0
 40
30.0
176
     0
 62
     7
420
 16777215
176
     0
 90
        1
176
     0
 90
        4
176
     0
 62
     7
176
     0
 62
   257
176
     0
 90
        1
176
     0
 90
        1
176
     0
 40
1.0
176
     0
 90
        9
176
     2
 62
     7
176
     0
 40
1.0
176
     0
 90
        1
176
     0
 90
        6
176
     0
 90
        2
176
     0
 62
     7
176
     0
 90
        5
176
     0
 90
        0
176
     0
 90
        0
176
     0
290
     0
176
     0
 90
        1
176
     0
 40
0.0
176
     0
 90
        0
176
     0
290
     0
176
     0
290
     1
176
     0
290
     1
176
     0
290
     0
176
     0
290
     0
176
     0
290
     0
176
     0
290
     0
176
     0
290
     0
176
     0
290
     0
176
     0
 90
       50
176
     0
 40
0.0
176
     0
 40
1.0
176
     0
 90
        0
176
     0
 62
    18
420
        0
176
     0
 90
       50
176
     0
 90
        3
176
     0
 62
     5
420
      255
176
     0
290
     0
176
     0
 90
       50
176
     0
 90
       50
176
     0
 90
       50
176
     0
290
     0
176
     0
 90
       50
176
     0
 62
   256
176
     0
 40
1.0
176
     0
 90
        2
176
     0
  1
strokes_ogs.tif
176
     0
290
     0
176
     0
 40
1.0
176
     0
 40
1.0
176
     0
  0
VISUALSTYLE
  5
33
102
{ACAD_REACTORS
330
29
102
}
330
29
100
AcDbVisualStyle
  2
Realistic
 70
     8
177
     3
291
     0
 70
    58
 90
        2
176
     1
 90
        3
176
     1
 90
        0
176
     1
 90
        2
176
     1
 40
0.6
176
     1
 40
30.0
176
     1
 62
     7
420
 16777215
176
     1
 90
        0
176
     1
 90
        0
176
     1
 62
     7
176
     1
 62
   257
176
     1
 90
        1
176
     1
 90
        1
176
     1
 40
1.0
176
     1
 90
        8
176
     1
 62
   257
176
     1
 40
1.0
176
     1
 90
        1
176
     1
 90
        6
176
     1
 90
        2
176
     1
 62
     7
176
     1
 90
        3
176
     1
 90
        0
176
     1
 90
        0
176
     1
290
     0
176
     1
 90
       13
176
     1
 40
0.0
176
     1
 90
        0
176
     1
290
     0
176
     1
290
     1
176
     1
290
     1
176
     1
290
     0
176
     1
290
     0
176
     1
290
     0
176
     1
290
     0
176
     1
290
     0
176
     1
290
     0
176
     1
 90
       50
176
     1
 40
0.0
176
     1
 40
1.0
176
     1
 90
        0
176
     1
 62
    18
420
        0
176
     1
 90
       50
176
     1
 90
        3
176
     1
 62
     5
420
      255
176
     1
290
     0
176
     1
 90
       50
176
     1
 90
       50
176
     1
 90
       50
176
     1
290
     0
176
     1
 90
       50
176
     1
 62
   256
176
     0
 40
1.0
176
     0
 90
        2
176
     1
  1
strokes_ogs.tif
176
     1
290
     0
176
     1
 40
1.0
176
     1
 40
1.0
176
     1
  0
VISUALSTYLE
  5
3E
102
{ACAD_REACTORS
330
29
102
}
330
29
100
AcDbVisualStyle
  2
Shaded
 70
    27
177
     3
291
     0
 70
    58
 90
        2
176
     1
 90
        2
176
     1
 90
        1
176
     1
 90
        2
176
     1
 40
0.6
176
     1
 40
30.0
176
     1
 62
     7
420
 16777215
176
     1
 90
        0
176
     1
 90
        4
176
     1
 62
     7
176
     1
 62
   257
176
     1
 90
        1
176
     1
 90
        1
176
     1
 40
1.0
176
     1
 90
        8
176
     1
 62
   257
176
     1
 40
1.0
176
     1
 90
        1
176
     1
 90
        6
176
     1
 90
        2
176
     1
 62
     8
420
  7895160
176
     1
 90
        3
176
     1
 90
        0
176
     1
 90
        0
176
     1
290
     0
176
     1
 90
        5
176
     1
 40
0.0
176
     1
 90
        0
176
     1
290
     0
176
     1
290
     1
176
     1
290
     1
176
     1
290
     0
176
     1
290
     0
176
     1
290
     0
176
     1
290
     0
176
     1
290
     0
176
     1
290
     0
176
     1
 90
       50
176
     1
 40
0.0
176
     1
 40
1.0
176
     1
 90
        0
176
     1
 62
    18
420
        0
176
     1
 90
       50
176
     1
 90
        3
176
     1
 62
     5
420
      255
176
     1
290
     0
176
     1
 90
       50
176
     1
 90
       50
176
     1
 90
       50
176
     1
290
     0
176
     1
 90
       50
176
     1
 62
   256
176
     0
 40
1.0
176
     0
 90
        2
176
     1
  1
strokes_ogs.tif
176
     1
290
     0
176
     1
 40
1.0
176
     1
 40
1.0
176
     1
  0
VISUALSTYLE
  5
3D
102
{ACAD_REACTORS
330
29
102
}
330
29
100
AcDbVisualStyle
  2
Shaded with edges
 70
    26
177
     3
291
     0
 70
    58
 90
        2
176
     1
 90
        2
176
     1
 90
        1
176
     1
 90
        2
176
     1
 40
0.6
176
     1
 40
30.0
176
     1
 62
     7
420
 16777215
176
     1
 90
        1
176
     1
 90
        2
176
     1
 62
     7
176
     1
 62
   257
176
     1
 90
        2
176
     1
 90
        1
176
     1
 40
1.0
176
     1
 90
        8
176
     1
 62
   257
176
     1
 40
1.0
176
     1
 90
        1
176
     1
 90
        6
176
     1
 90
        2
176
     1
 62
     7
176
     1
 90
        3
176
     1
 90
        0
176
     1
 90
        0
176
     1
290
     0
176
     1
 90
        5
176
     1
 40
0.0
176
     1
 90
        0
176
     1
290
     0
176
     1
290
     1
176
     1
290
     1
176
     1
290
     0
176
     1
290
     0
176
     1
290
     0
176
     1
290
     0
176
     1
290
     0
176
     1
290
     0
176
     1
 90
       50
176
     1
 40
0.0
176
     1
 40
1.0
176
     1
 90
        0
176
     1
 62
    18
420
        0
176
     1
 90
       50
176
     1
 90
        3
176
     1
 62
     5
420
      255
176
     1
290
     0
176
     1
 90
       50
176
     1
 90
       50
176
     1
 90
       50
176
     1
290
     0
176
     1
 90
       50
176
     1
 62
   256
176
     0
 40
1.0
176
     0
 90
        2
176
     1
  1
strokes_ogs.tif
176
     1
290
     0
176
     1
 40
1.0
176
     1
 40
1.0
176
     1
  0
VISUALSTYLE
  5
3A
102
{ACAD_REACTORS
330
29
102
}
330
29
100
AcDbVisualStyle
  2
Shades of Gray
 70
    23
177
     3
291
     0
 70
    58
 90
        2
176
     1
 90
        2
176
     1
 90
        3
176
     1
 90
        0
176
     1
 40
0.6
176
     1
 40
30.0
176
     1
 62
     7
420
 16777215
176
     1
 90
        2
176
     1
 90
        2
176
     1
 62
     7
176
     1
 62
     7
176
     1
 90
        1
176
     1
 90
        1
176
     1
 40
40.0
176
     1
 90
        8
176
     1
 62
     7
176
     1
 40
1.0
176
     1
 90
        1
176
     1
 90
        6
176
     1
 90
        2
176
     1
 62
     7
176
     1
 90
        3
176
     1
 90
        0
176
     1
 90
        0
176
     1
290
     0
176
     1
 90
        1
176
     1
 40
0.0
176
     1
 90
        0
176
     1
290
     0
176
     1
290
     1
176
     1
290
     1
176
     1
290
     0
176
     1
290
     0
176
     1
290
     0
176
     1
290
     0
176
     1
290
     0
176
     1
290
     0
176
     1
 90
       50
176
     1
 40
0.0
176
     1
 40
1.0
176
     1
 90
        0
176
     1
 62
    18
420
        0
176
     1
 90
       50
176
     1
 90
        3
176
     1
 62
     5
420
      255
176
     1
290
     0
176
     1
 90
       50
176
     1
 90
       50
176
     1
 90
       50
176
     1
290
     0
176
     1
 90
       50
176
     1
 62
   256
176
     0
 40
1.0
176
     0
 90
        2
176
     1
  1
strokes_ogs.tif
176
     1
290
     0
176
     1
 40
1.0
176
     1
 40
1.0
176
     1
  0
VISUALSTYLE
  5
3B
102
{ACAD_REACTORS
330
29
102
}
330
29
100
AcDbVisualStyle
  2
Sketchy
 70
    24
177
     3
291
     0
 70
    58
 90
        1
176
     1
 90
        2
176
     1
 90
        2
176
     1
 90
        0
176
     1
 40
0.6
176
     1
 40
30.0
176
     1
 62
     7
420
 16777215
176
     1
 90
        2
176
     1
 90
        2
176
     1
 62
     7
176
     1
 62
     7
176
     1
 90
        1
176
     1
 90
        1
176
     1
 40
40.0
176
     1
 90
       11
176
     1
 62
     7
176
     1
 40
1.0
176
     1
 90
        1
176
     1
 90
        6
176
     1
 90
        2
176
     1
 62
     7
176
     1
 90
        6
176
     1
 90
        0
176
     1
 90
        0
176
     1
290
     0
176
     1
 90
        1
176
     1
 40
0.0
176
     1
 90
        0
176
     1
290
     0
176
     1
290
     1
176
     1
290
     1
176
     1
290
     0
176
     1
290
     0
176
     1
290
     0
176
     1
290
     0
176
     1
290
     0
176
     1
290
     0
176
     1
 90
       50
176
     1
 40
0.0
176
     1
 40
1.0
176
     1
 90
        0
176
     1
 62
    18
420
        0
176
     1
 90
       50
176
     1
 90
        3
176
     1
 62
     5
420
      255
176
     1
290
     0
176
     1
 90
       50
176
     1
 90
       50
176
     1
 90
       50
176
     1
290
     0
176
     1
 90
       50
176
     1
 62
   256
176
     0
 40
1.0
176
     0
 90
        2
176
     1
  1
strokes_ogs.tif
176
     1
290
     0
176
     1
 40
1.0
176
     1
 40
1.0
176
     1
  0
VISUALSTYLE
  5
36
102
{ACAD_REACTORS
330
29
102
}
330
29
100
AcDbVisualStyle
  2
Thicken
 70
    13
177
     3
291
     1
 70
    58
 90
        2
176
     1
 90
        2
176
     1
 90
        0
176
     1
 90
        0
176
     1
 40
0.6
176
     1
 40
30.0
176
     1
 62
     7
420
 16777215
176
     1
 90
        1
176
     1
 90
        4
176
     1
 62
     7
176
     1
 62
   257
176
     1
 90
        1
176
     1
 90
        1
176
     1
 40
1.0
176
     1
 90
       12
176
     1
 62
     7
176
     1
 40
1.0
176
     1
 90
        1
176
     1
 90
        6
176
     1
 90
        2
176
     1
 62
     7
176
     1
 90
        5
176
     1
 90
        0
176
     1
 90
        0
176
     1
290
     0
176
     1
 90
        1
176
     1
 40
0.0
176
     1
 90
        0
176
     1
290
     0
176
     1
290
     1
176
     1
290
     1
176
     1
290
     0
176
     1
290
     0
176
     1
290
     0
176
     1
290
     0
176
     1
290
     0
176
     1
290
     0
176
     1
 90
       50
176
     1
 40
0.0
176
     1
 40
1.0
176
     1
 90
        0
176
     1
 62
    18
420
        0
176
     1
 90
       50
176
     1
 90
        3
176
     1
 62
     5
420
      255
176
     1
290
     0
176
     1
 90
       50
176
     1
 90
       50
176
     1
 90
       50
176
     1
290
     0
176
     1
 90
       50
176
     1
 62
   256
176
     0
 40
1.0
176
     0
 90
        2
176
     1
  1
strokes_ogs.tif
176
     1
290
     0
176
     1
 40
1.0
176
     1
 40
1.0
176
     1
  0
VISUALSTYLE
  5
30
102
{ACAD_REACTORS
330
29
102
}
330
29
100
AcDbVisualStyle
  2
Wireframe
 70
     5
177
     3
291
     0
 70
    58
 90
        0
176
     1
 90
        2
176
     1
 90
        0
176
     1
 90
        0
176
     1
 40
0.6
176
     1
 40
30.0
176
     1
 62
     7
420
 16777215
176
     1
 90
        1
176
     1
 90
        4
176
     1
 62
     7
176
     1
 62
   257
176
     1
 90
        1
176
     1
 90
        1
176
     1
 40
1.0
176
     1
 90
        0
176
     1
 62
   257
176
     1
 40
1.0
176
     1
 90
        1
176
     1
 90
        6
176
     1
 90
        2
176
     1
 62
     7
176
     1
 90
        3
176
     1
 90
        0
176
     1
 90
        0
176
     1
290
     0
176
     1
 90
        1
176
     1
 40
0.0
176
     1
 90
        0
176
     1
290
     0
176
     1
290
     1
176
     1
290
     1
176
     1
290
     0
176
     1
290
     0
176
     1
290
     0
176
     1
290
     0
176
     1
290
     0
176
     1
290
     0
176
     1
 90
       50
176
     1
 40
0.0
176
     1
 40
1.0
176
     1
 90
        0
176
     1
 62
    18
420
        0
176
     1
 90
       50
176
     1
 90
        3
176
     1
 62
     5
420
      255
176
     1
290
     0
176
     1
 90
       50
176
     1
 90
       50
176
     1
 90
       50
176
     1
290
     0
176
     1
 90
       50
176
     1
 62
   256
176
     0
 40
1.0
176
     0
 90
        2
176
     1
  1
strokes_ogs.tif
176
     1
290
     0
176
     1
 40
1.0
176
     1
 40
1.0
176
     1
  0
VISUALSTYLE
  5
3C
102
{ACAD_REACTORS
330
29
102
}
330
29
100
AcDbVisualStyle
  2
X-Ray
 70
    25
177
     3
291
     0
 70
    58
 90
        2
176
     1
 90
        2
176
     1
 90
        1
176
     1
 90
        1
176
     1
 40
0.5
176
     1
 40
30.0
176
     1
 62
     7
420
 16777215
176
     1
 90
        1
176
     1
 90
        0
176
     1
 62
     7
176
     1
 62
   257
176
     1
 90
        1
176
     1
 90
        1
176
     1
 40
1.0
176
     1
 90
        8
176
     1
 62
     7
176
     1
 40
1.0
176
     1
 90
        1
176
     1
 90
        6
176
     1
 90
        2
176
     1
 62
     7
176
     1
 90
        3
176
     1
 90
        0
176
     1
 90
        0
176
     1
290
     0
176
     1
 90
       13
176
     1
 40
0.0
176
     1
 90
        0
176
     1
290
     0
176
     1
290
     1
176
     1
290
     1
176
     1
290
     0
176
     1
290
     0
176
     1
290
     0
176
     1
290
     0
176
     1
290
     0
176
     1
290
     0
176
     1
 90
       50
176
     1
 40
0.0
176
     1
 40
1.0
176
     1
 90
        0
176
     1
 62
    18
420
        0
176
     1
 90
       50
176
     1
 90
        3
176
     1
 62
     5
420
      255
176
     1
290
     0
176
     1
 90
       50
176
     1
 90
       50
176
     1
 90
       50
176
     1
290
     0
176
     1
 90
       50
176
     1
 62
   256
176
     0
 40
1.0
176
     0
 90
        2
176
     1
  1
strokes_ogs.tif
176
     1
290
     0
176
     1
 40
1.0
176
     1
 40
1.0
176
     1
  0
DICTIONARYVAR
  5
9C
102
{ACAD_REACTORS
330
97
102
}
330
97
100
DictionaryVariables
280
     0
  1
1:1
  0
DICTIONARYVAR
  5
99
102
{ACAD_REACTORS
330
97
102
}
330
97
100
DictionaryVariables
280
     0
  1
STANDARD
  0
DICTIONARYVAR
  5
98
102
{ACAD_REACTORS
330
97
102
}
330
97
100
DictionaryVariables
280
     0
  1
STANDARD
  0
DICTIONARYVAR
  5
9A
102
{ACAD_REACTORS
330
97
102
}
330
97
100
DictionaryVariables
280
     0
  1
Imperial24
  0
DICTIONARYVAR
  5
9B
102
{ACAD_REACTORS
330
97
102
}
330
97
100
DictionaryVariables
280
     0
  1
Imperial24
  0
DICTIONARY
  5
1A
330
19
100
AcDbDictionary
280
     1
281
     1
  3
BUMPTILE
360
1C
  3
DIFFUSETILE
360
1B
  3
OPACITYTILE
360
1F
  3
REFLECTIONTILE
360
1E
  3
REFRACTIONTILE
360
20
  3
SPECULARTILE
360
1D
  0
DICTIONARY
  5
12
330
11
100
AcDbDictionary
280
     1
281
     1
  3
BUMPTILE
360
14
  3
DIFFUSETILE
360
13
  3
OPACITYTILE
360
17
  3
REFLECTIONTILE
360
16
  3
REFRACTIONTILE
360
18
  3
SPECULARTILE
360
15
  0
DICTIONARY
  5
22
330
21
100
AcDbDictionary
280
     1
281
     1
  3
BUMPTILE
360
24
  3
DIFFUSETILE
360
23
  3
OPACITYTILE
360
27
  3
REFLECTIONTILE
360
26
  3
REFRACTIONTILE
360
28
  3
SPECULARTILE
360
25
  0
DICTIONARY
  5
9D
330
65
100
AcDbDictionary
280
     1
281
     1
  3
ACAD_ROUNDTRIP_2008_TABLESTYLE_CELLSTYLEMAP
360
9E
  0
XRECORD
  5
1C
102
{ACAD_REACTORS
330
1A
102
}
330
1A
100
AcDbXrecord
280
     1
270
     1
271
     1
  0
XRECORD
  5
1B
102
{ACAD_REACTORS
330
1A
102
}
330
1A
100
AcDbXrecord
280
     1
270
     1
271
     1
  0
XRECORD
  5
1F
102
{ACAD_REACTORS
330
1A
102
}
330
1A
100
AcDbXrecord
280
     1
270
     1
271
     1
  0
XRECORD
  5
1E
102
{ACAD_REACTORS
330
1A
102
}
330
1A
100
AcDbXrecord
280
     1
270
     1
271
     1
  0
XRECORD
  5
20
102
{ACAD_REACTORS
330
1A
102
}
330
1A
100
AcDbXrecord
280
     1
270
     1
271
     1
  0
XRECORD
  5
1D
102
{ACAD_REACTORS
330
1A
102
}
330
1A
100
AcDbXrecord
280
     1
270
     1
271
     1
  0
XRECORD
  5
14
102
{ACAD_REACTORS
330
12
102
}
330
12
100
AcDbXrecord
280
     1
270
     1
271
     1
  0
XRECORD
  5
13
102
{ACAD_REACTORS
330
12
102
}
330
12
100
AcDbXrecord
280
     1
270
     1
271
     1
  0
XRECORD
  5
17
102
{ACAD_REACTORS
330
12
102
}
330
12
100
AcDbXrecord
280
     1
270
     1
271
     1
  0
XRECORD
  5
16
102
{ACAD_REACTORS
330
12
102
}
330
12
100
AcDbXrecord
280
     1
270
     1
271
     1
  0
XRECORD
  5
18
102
{ACAD_REACTORS
330
12
102
}
330
12
100
AcDbXrecord
280
     1
270
     1
271
     1
  0
XRECORD
  5
15
102
{ACAD_REACTORS
330
12
102
}
330
12
100
AcDbXrecord
280
     1
270
     1
271
     1
  0
XRECORD
  5
24
102
{ACAD_REACTORS
330
22
102
}
330
22
100
AcDbXrecord
280
     1
270
     1
271
     1
  0
XRECORD
  5
23
102
{ACAD_REACTORS
330
22
102
}
330
22
100
AcDbXrecord
280
     1
270
     1
271
     1
  0
XRECORD
  5
27
102
{ACAD_REACTORS
330
22
102
}
330
22
100
AcDbXrecord
280
     1
270
     1
271
     1
  0
XRECORD
  5
26
102
{ACAD_REACTORS
330
22
102
}
330
22
100
AcDbXrecord
280
     1
270
     1
271
     1
  0
XRECORD
  5
28
102
{ACAD_REACTORS
330
22
102
}
330
22
100
AcDbXrecord
280
     1
270
     1
271
     1
  0
XRECORD
  5
25
102
{ACAD_REACTORS
330
22
102
}
330
22
100
AcDbXrecord
280
     1
270
     1
271
     1
  0
CELLSTYLEMAP
  5
9E
102
{ACAD_REACTORS
330
9D
102
}
330
9D
100
AcDbCellStyleMap
 90
        3
300
CELLSTYLE
  1
TABLEFORMAT_BEGIN
 90
        5
170
     1
 91
        0
 92
    32768
 62
   257
 93
        1
300
CONTENTFORMAT
  1
CONTENTFORMAT_BEGIN
 90
        0
 91
        0
 92
      512
 93
        0
300

 40
0.0
140
1.0
 94
        5
 62
     0
340
55
144
0.25
309
CONTENTFORMAT_END
171
     0
 94
        0
309
TABLEFORMAT_END
  1
CELLSTYLE_BEGIN
 90
        1
 91
        1
300
_TITLE
309
CELLSTYLE_END
300
CELLSTYLE
  1
TABLEFORMAT_BEGIN
 90
        5
170
     1
 91
        0
 92
        0
 62
   257
 93
        1
300
CONTENTFORMAT
  1
CONTENTFORMAT_BEGIN
 90
        0
 91
        0
 92
      512
 93
        0
300

 40
0.0
140
1.0
 94
        5
 62
     0
340
55
144
0.18
309
CONTENTFORMAT_END
171
     0
 94
        0
309
TABLEFORMAT_END
  1
CELLSTYLE_BEGIN
 90
        2
 91
        1
300
_HEADER
309
CELLSTYLE_END
300
CELLSTYLE
  1
TABLEFORMAT_BEGIN
 90
        5
170
     1
 91
        0
 92
        0
 62
   257
 93
        1
300
CONTENTFORMAT
  1
CONTENTFORMAT_BEGIN
 90
        0
 91
        0
 92
      512
 93
        0
300

 40
0.0
140
1.0
 94
        2
 62
     0
340
55
144
0.18
309
CONTENTFORMAT_END
171
     0
 94
        0
309
TABLEFORMAT_END
  1
CELLSTYLE_BEGIN
 90
        3
 91
        2
300
_DATA
309
CELLSTYLE_END
  0
ENDSEC
  0
EOF
