  0
SECTION
  2
HEADER
  9
$ACADVER
  1
AC1032
  9
$ACADMAINTVER
 90
      228
  9
$DWGCODEPAGE
  3
ANSI_1252
  9
$REQUIREDVERSIONS
160
                 0
  9
$INSBASE
 10
0.0
 20
0.0
 30
0.0
  9
$EXTMIN
 10
1.000000000000000E+20
 20
1.000000000000000E+20
 30
1.000000000000000E+20
  9
$EXTMAX
 10
-1.000000000000000E+20
 20
-1.000000000000000E+20
 30
-1.000000000000000E+20
  9
$LIMMIN
 10
0.0
 20
0.0
  9
$LIMMAX
 10
12.0
 20
9.0
  9
$ORTHOMODE
 70
     0
  9
$REGENMODE
 70
     1
  9
$FILLMODE
 70
     1
  9
$QTEXTMODE
 70
     0
  9
$MIRRTEXT
 70
     0
  9
$LTSCALE
 40
1.0
  9
$ATTMODE
 70
     1
  9
$TEXTSIZE
 40
0.2
  9
$TRACEWID
 40
0.05
  9
$TEXTSTYLE
  7
Standard
  9
$CLAYER
  8
0
  9
$CELTYPE
  6
ByLayer
  9
$CECOLOR
 62
   256
  9
$CELTSCALE
 40
1.0
  9
$DISPSILH
 70
     0
  9
$DIMSCALE
 40
1.0
  9
$DIMASZ
 40
0.18
  9
$DIMEXO
 40
0.0625
  9
$DIMDLI
 40
0.38
  9
$DIMRND
 40
0.0
  9
$DIMDLE
 40
0.0
  9
$DIMEXE
 40
0.18
  9
$DIMTP
 40
0.0
  9
$DIMTM
 40
0.0
  9
$DIMTXT
 40
0.18
  9
$DIMCEN
 40
0.09
  9
$DIMTSZ
 40
0.0
  9
$DIMTOL
 70
     0
  9
$DIMLIM
 70
     0
  9
$DIMTIH
 70
     1
  9
$DIMTOH
 70
     1
  9
$DIMSE1
 70
     0
  9
$DIMSE2
 70
     0
  9
$DIMTAD
 70
     0
  9
$DIMZIN
 70
     0
  9
$DIMBLK
  1

  9
$DIMASO
 70
     1
  9
$DIMSHO
 70
     1
  9
$DIMPOST
  1

  9
$DIMAPOST
  1

  9
$DIMALT
 70
     0
  9
$DIMALTD
 70
     2
  9
$DIMALTF
 40
25.4
  9
$DIMLFAC
 40
1.0
  9
$DIMTOFL
 70
     0
  9
$DIMTVP
 40
0.0
  9
$DIMTIX
 70
     0
  9
$DIMSOXD
 70
     0
  9
$DIMSAH
 70
     0
  9
$DIMBLK1
  1

  9
$DIMBLK2
  1

  9
$DIMSTYLE
  2
Standard
  9
$DIMCLRD
 70
     0
  9
$DIMCLRE
 70
     0
  9
$DIMCLRT
 70
     0
  9
$DIMTFAC
 40
1.0
  9
$DIMGAP
 40
0.09
  9
$DIMJUST
 70
     0
  9
$DIMSD1
 70
     0
  9
$DIMSD2
 70
     0
  9
$DIMTOLJ
 70
     1
  9
$DIMTZIN
 70
     0
  9
$DIMALTZ
 70
     0
  9
$DIMALTTZ
 70
     0
  9
$DIMUPT
 70
     0
  9
$DIMDEC
 70
     4
  9
$DIMTDEC
 70
     4
  9
$DIMALTU
 70
     2
  9
$DIMALTTD
 70
     2
  9
$DIMTXSTY
  7
Standard
  9
$DIMAUNIT
 70
     0
  9
$DIMADEC
 70
     0
  9
$DIMALTRND
 40
0.0
  9
$DIMAZIN
 70
     0
  9
$DIMDSEP
 70
    46
  9
$DIMATFIT
 70
     3
  9
$DIMFRAC
 70
     0
  9
$DIMLDRBLK
  1

  9
$DIMLUNIT
 70
     2
  9
$DIMLWD
 70
    -2
  9
$DIMLWE
 70
    -2
  9
$DIMTMOVE
 70
     0
  9
$DIMFXL
 40
1.0
  9
$DIMFXLON
 70
     0
  9
$DIMJOGANG
 40
0.7853981633974483
  9
$DIMTFILL
 70
     0
  9
$DIMTFILLCLR
 70
     0
  9
$DIMARCSYM
 70
     0
  9
$DIMLTYPE
  6

  9
$DIMLTEX1
  6

  9
$DIMLTEX2
  6

  9
$DIMTXTDIRECTION
 70
     0
  9
$LUNITS
 70
     2
  9
$LUPREC
 70
     4
  9
$SKETCHINC
 40
0.1
  9
$FILLETRAD
 40
0.0
  9
$AUNITS
 70
     0
  9
$AUPREC
 70
     0
  9
$MENU
  1
.
  9
$ELEVATION
 40
0.0
  9
$PELEVATION
 40
0.0
  9
$THICKNESS
 40
0.0
  9
$LIMCHECK
 70
     0
  9
$CHAMFERA
 40
0.0
  9
$CHAMFERB
 40
0.0
  9
$CHAMFERC
 40
0.0
  9
$CHAMFERD
 40
0.0
  9
$SKPOLY
 70
     0
  9
$TDCREATE
 40
2460246.836527778
  9
$TDUCREATE
 40
2460247.128194445
  9
$TDUPDATE
 40
2460246.836527778
  9
$TDUUPDATE
 40
2460247.128194445
  9
$TDINDWG
 40
0.0000000000
  9
$TDUSRTIMER
 40
0.0000000000
  9
$USRTIMER
 70
     1
  9
$ANGBASE
 50
0.0
  9
$ANGDIR
 70
     0
  9
$PDMODE
 70
     0
  9
$PDSIZE
 40
0.0
  9
$PLINEWID
 40
0.0
  9
$SPLFRAME
 70
     0
  9
$SPLINETYPE
 70
     6
  9
$SPLINESEGS
 70
     8
  9
$HANDSEED
  5
96
  9
$SURFTAB1
 70
     6
  9
$SURFTAB2
 70
     6
  9
$SURFTYPE
 70
     6
  9
$SURFU
 70
     6
  9
$SURFV
 70
     6
  9
$UCSBASE
  2

  9
$UCSNAME
  2

  9
$UCSORG
 10
0.0
 20
0.0
 30
0.0
  9
$UCSXDIR
 10
1.0
 20
0.0
 30
0.0
  9
$UCSYDIR
 10
0.0
 20
1.0
 30
0.0
  9
$UCSORTHOREF
  2

  9
$UCSORTHOVIEW
 70
     0
  9
$UCSORGTOP
 10
0.0
 20
0.0
 30
0.0
  9
$UCSORGBOTTOM
 10
0.0
 20
0.0
 30
0.0
  9
$UCSORGLEFT
 10
0.0
 20
0.0
 30
0.0
  9
$UCSORGRIGHT
 10
0.0
 20
0.0
 30
0.0
  9
$UCSORGFRONT
 10
0.0
 20
0.0
 30
0.0
  9
$UCSORGBACK
 10
0.0
 20
0.0
 30
0.0
  9
$PUCSBASE
  2

  9
$PUCSNAME
  2

  9
$PUCSORG
 10
0.0
 20
0.0
 30
0.0
  9
$PUCSXDIR
 10
1.0
 20
0.0
 30
0.0
  9
$PUCSYDIR
 10
0.0
 20
1.0
 30
0.0
  9
$PUCSORTHOREF
  2

  9
$PUCSORTHOVIEW
 70
     0
  9
$PUCSORGTOP
 10
0.0
 20
0.0
 30
0.0
  9
$PUCSORGBOTTOM
 10
0.0
 20
0.0
 30
0.0
  9
$PUCSORGLEFT
 10
0.0
 20
0.0
 30
0.0
  9
$PUCSORGRIGHT
 10
0.0
 20
0.0
 30
0.0
  9
$PUCSORGFRONT
 10
0.0
 20
0.0
 30
0.0
  9
$PUCSORGBACK
 10
0.0
 20
0.0
 30
0.0
  9
$USERI1
 70
     0
  9
$USERI2
 70
     0
  9
$USERI3
 70
     0
  9
$USERI4
 70
     0
  9
$USERI5
 70
     0
  9
$USERR1
 40
0.0
  9
$USERR2
 40
0.0
  9
$USERR3
 40
0.0
  9
$USERR4
 40
0.0
  9
$USERR5
 40
0.0
  9
$WORLDVIEW
 70
     1
  9
$SHADEDGE
 70
     3
  9
$SHADEDIF
 70
    70
  9
$TILEMODE
 70
     1
  9
$MAXACTVP
 70
    64
  9
$PINSBASE
 10
0.0
 20
0.0
 30
0.0
  9
$PLIMCHECK
 70
     0
  9
$PEXTMIN
 10
1.000000000000000E+20
 20
1.000000000000000E+20
 30
1.000000000000000E+20
  9
$PEXTMAX
 10
-1.000000000000000E+20
 20
-1.000000000000000E+20
 30
-1.000000000000000E+20
  9
$PLIMMIN
 10
0.0
 20
0.0
  9
$PLIMMAX
 10
12.0
 20
9.0
  9
$UNITMODE
 70
     0
  9
$VISRETAIN
 70
     1
  9
$PLINEGEN
 70
     0
  9
$PSLTSCALE
 70
     1
  9
$TREEDEPTH
 70
  3020
  9
$CMLSTYLE
  2
Standard
  9
$CMLJUST
 70
     0
  9
$CMLSCALE
 40
1.0
  9
$PROXYGRAPHICS
 70
     1
  9
$MEASUREMENT
 70
     0
  9
$CELWEIGHT
370
    -1
  9
$ENDCAPS
280
     0
  9
$JOINSTYLE
280
     0
  9
$LWDISPLAY
290
     1
  9
$INSUNITS
 70
     1
  9
$HYPERLINKBASE
  1

  9
$STYLESHEET
  1

  9
$XEDIT
290
     1
  9
$CEPSNTYPE
380
     0
  9
$PSTYLEMODE
290
     1
  9
$FINGERPRINTGUID
  2
{CA5D3C21-56FF-A94C-AF06-70A74DE016A6}
  9
$VERSIONGUID
  2
{F79BD00E-898E-3143-A819-968027A5FD70}
  9
$EXTNAMES
290
     1
  9
$PSVPSCALE
 40
0.0
  9
$OLESTARTUP
290
     0
  9
$SORTENTS
280
   127
  9
$INDEXCTL
280
     0
  9
$HIDETEXT
280
     1
  9
$XCLIPFRAME
280
     2
  9
$HALOGAP
280
     0
  9
$OBSCOLOR
 70
   257
  9
$OBSLTYPE
280
     0
  9
$INTERSECTIONDISPLAY
280
     0
  9
$INTERSECTIONCOLOR
 70
   257
  9
$DIMASSOC
280
     2
  9
$PROJECTNAME
  1

  9
$CAMERADISPLAY
290
     0
  9
$LENSLENGTH
 40
50.0
  9
$CAMERAHEIGHT
 40
0.0
  9
$STEPSPERSEC
 40
2.0
  9
$STEPSIZE
 40
6.0
  9
$3DDWFPREC
 40
2.0
  9
$PSOLWIDTH
 40
0.25
  9
$PSOLHEIGHT
 40
4.0
  9
$LOFTANG1
 40
1.570796326794896
  9
$LOFTANG2
 40
1.570796326794896
  9
$LOFTMAG1
 40
0.0
  9
$LOFTMAG2
 40
0.0
  9
$LOFTPARAM
 70
     7
  9
$LOFTNORMALS
280
     1
  9
$LATITUDE
 40
37.795
  9
$LONGITUDE
 40
-122.394
  9
$NORTHDIRECTION
 40
0.0
  9
$TIMEZONE
 70
 -8000
  9
$LIGHTGLYPHDISPLAY
280
     1
  9
$TILEMODELIGHTSYNCH
280
     1
  9
$CMATERIAL
347
11
  9
$SOLIDHIST
280
     0
  9
$SHOWHIST
280
     1
  9
$DWFFRAME
280
     2
  9
$DGNFRAME
280
     0
  9
$REALWORLDSCALE
290
     1
  9
$INTERFERECOLOR
 62
     1
  9
$INTERFEREOBJVS
345
33
  9
$INTERFEREVPVS
346
30
  9
$CSHADOW
280
     0
  9
$SHADOWPLANELOCATION
 40
0.0
  0
ENDSEC
  0
SECTION
  2
CLASSES
  0
CLASS
  1
ACDBDICTIONARYWDFLT
  2
AcDbDictionaryWithDefault
  3
ObjectDBX Classes
 90
        0
 91
        1
280
     0
281
     0
  0
CLASS
  1
MATERIAL
  2
AcDbMaterial
  3
ObjectDBX Classes
 90
     1153
 91
        3
280
     0
281
     0
  0
CLASS
  1
VISUALSTYLE
  2
AcDbVisualStyle
  3
ObjectDBX Classes
 90
     4095
 91
       24
280
     0
281
     0
  0
CLASS
  1
SCALE
  2
AcDbScale
  3
ObjectDBX Classes
 90
     1153
 91
       17
280
     0
281
     0
  0
CLASS
  1
TABLESTYLE
  2
AcDbTableStyle
  3
ObjectDBX Classes
 90
     4095
 91
        1
280
     0
281
     0
  0
CLASS
  1
MLEADERSTYLE
  2
AcDbMLeaderStyle
  3
ACDB_MLEADERSTYLE_CLASS
 90
     4095
 91
        1
280
     0
281
     0
  0
CLASS
  1
ACDBSECTIONVIEWSTYLE
  2
AcDbSectionViewStyle
  3
ObjectDBX Classes
 90
     1025
 91
        1
280
     0
281
     0
  0
CLASS
  1
ACDBDETAILVIEWSTYLE
  2
AcDbDetailViewStyle
  3
ObjectDBX Classes
 90
     1025
 91
        1
280
     0
281
     0
  0
CLASS
  1
DICTIONARYVAR
  2
AcDbDictionaryVar
  3
ObjectDBX Classes
 90
        0
 91
        5
280
     0
281
     0
  0
CLASS
  1
CELLSTYLEMAP
  2
AcDbCellStyleMap
  3
ObjectDBX Classes
 90
     1152
 91
        1
280
     0
281
     0
  0
ENDSEC
  0
SECTION
  2
TABLES
  0
TABLE
  2
VPORT
  5
8
330
0
100
AcDbSymbolTable
 70
     1
  0
VPORT
  5
57
330
8
100
AcDbSymbolTableRecord
100
AcDbViewportTableRecord
  2
*Active
 70
     0
 10
0.0
 20
0.0
 11
1.0
 21
1.0
 12
0.0
 22
0.0
 13
0.0
 23
0.0
 14
1.0
 24
1.0
 15
0.0
 25
0.0
 16
0.0
 26
0.0
 36
1.0
 17
1.614999999999989
 27
-1.514999999999998
 37
0.0
 40
3.104766666666664
 41
1.065705420697209
 42
50.0
 43
0.0
 44
0.0
 50
0.0
 51
0.0
 71
     0
 72
   100
 73
     1
 74
     1
 75
     0
 76
     0
 77
     0
 78
     0
281
     0
 65
     1
110
0.0
120
0.0
130
0.0
111
1.0
121
0.0
131
0.0
112
0.0
122
1.0
132
0.0
 79
     0
146
0.0
 60
     3
 61
     5
292
     1
282
     1
141
0.0
142
0.0
 63
   250
421
  3355443
  0
ENDTAB
  0
TABLE
  2
LTYPE
  5
5
330
0
100
AcDbSymbolTable
 70
     1
  0
LTYPE
  5
5B
330
5
100
AcDbSymbolTableRecord
100
AcDbLinetypeTableRecord
  2
ByBlock
 70
     0
  3

 72
    65
 73
     0
 40
0.0
  0
LTYPE
  5
5C
330
5
100
AcDbSymbolTableRecord
100
AcDbLinetypeTableRecord
  2
ByLayer
 70
     0
  3

 72
    65
 73
     0
 40
0.0
  0
LTYPE
  5
5D
330
5
100
AcDbSymbolTableRecord
100
AcDbLinetypeTableRecord
  2
Continuous
 70
     0
  3
Solid line
 72
    65
 73
     0
 40
0.0
  0
ENDTAB
  0
TABLE
  2
LAYER
  5
2
330
0
100
AcDbSymbolTable
 70
     6
  0
LAYER
  5
54
330
2
100
AcDbSymbolTableRecord
100
AcDbLayerTableRecord
  2
0
 70
     0
 62
     7
  6
Continuous
370
    -3
390
F
347
21
348
0
  0
LAYER
  5
78
330
2
100
AcDbSymbolTableRecord
100
AcDbLayerTableRecord
  2
Reference
 70
     5
 62
     7
  6
Continuous
370
     0
390
F
347
21
348
0
  0
LAYER
  5
79
330
2
100
AcDbSymbolTableRecord
100
AcDbLayerTableRecord
  2
Outline
 70
     0
 62
     7
  6
Continuous
370
     0
390
F
347
21
348
0
  0
LAYER
  5
7B
330
2
100
AcDbSymbolTableRecord
100
AcDbLayerTableRecord
  2
Own
 70
     1
 62
     7
  6
Continuous
370
     0
390
F
347
21
348
0
  0
LAYER
  5
7C
330
2
100
AcDbSymbolTableRecord
100
AcDbLayerTableRecord
  2
正義
 70
     1
 62
     7
  6
Continuous
370
     0
390
F
347
21
348
0
  0
LAYER
  5
7D
330
2
100
AcDbSymbolTableRecord
100
AcDbLayerTableRecord
  2
Sesh
 70
     0
 62
     7
  6
Continuous
370
     0
390
F
347
21
348
0
  0
ENDTAB
  0
TABLE
  2
STYLE
  5
3
330
0
100
AcDbSymbolTable
 70
     2
  0
STYLE
  5
55
330
3
100
AcDbSymbolTableRecord
100
AcDbTextStyleTableRecord
  2
Standard
 70
     0
 40
0.0
 41
1.0
 50
0.0
 71
     0
 42
0.2
  3
txt
  4

  0
STYLE
  5
5A
330
3
100
AcDbSymbolTableRecord
100
AcDbTextStyleTableRecord
  2
Annotative
 70
     0
 40
0.0
 41
1.0
 50
0.0
 71
     0
 42
0.2
  3
txt
  4

1001
AcadAnnotative
1000
AnnotativeData
1002
{
1070
     1
1070
     1
1002
}
  0
ENDTAB
  0
TABLE
  2
VIEW
  5
6
330
0
100
AcDbSymbolTable
 70
     0
  0
ENDTAB
  0
TABLE
  2
UCS
  5
7
330
0
100
AcDbSymbolTable
 70
     0
  0
ENDTAB
  0
TABLE
  2
APPID
  5
9
330
0
100
AcDbSymbolTable
 70
     2
  0
APPID
  5
56
330
9
100
AcDbSymbolTableRecord
100
AcDbRegAppTableRecord
  2
ACAD
 70
     0
  0
APPID
  5
5E
330
9
100
AcDbSymbolTableRecord
100
AcDbRegAppTableRecord
  2
AcadAnnotative
 70
     0
  0
ENDTAB
  0
TABLE
  2
DIMSTYLE
  5
A
330
0
100
AcDbSymbolTable
 70
     2
100
AcDbDimStyleTable
 71
     0
  0
DIMSTYLE
105
58
330
A
100
AcDbSymbolTableRecord
100
AcDbDimStyleTableRecord
  2
Standard
 70
     0
340
55
  0
DIMSTYLE
105
59
330
A
100
AcDbSymbolTableRecord
100
AcDbDimStyleTableRecord
  2
Annotative
 70
     0
340
55
1001
AcadAnnotative
1000
AnnotativeData
1002
{
1070
     1
1070
     1
1002
}
  0
ENDTAB
  0
TABLE
  2
BLOCK_RECORD
  5
1
330
0
100
AcDbSymbolTable
 70
     1
  0
BLOCK_RECORD
  5
70
330
1
100
AcDbSymbolTableRecord
100
AcDbBlockTableRecord
  2
*Model_Space
340
73
 70
     0
280
     1
281
     0
  0
BLOCK_RECORD
  5
6C
330
1
100
AcDbSymbolTableRecord
100
AcDbBlockTableRecord
  2
*Paper_Space
340
6F
 70
     0
280
     1
281
     0
  0
BLOCK_RECORD
  5
74
330
1
100
AcDbSymbolTableRecord
100
AcDbBlockTableRecord
  2
*Paper_Space0
340
77
 70
     0
280
     1
281
     0
  0
ENDTAB
  0
ENDSEC
  0
SECTION
  2
BLOCKS
  0
BLOCK
  5
71
330
70
100
AcDbEntity
  8
0
100
AcDbBlockBegin
  2
*Model_Space
 70
     0
 10
0.0
 20
0.0
 30
0.0
  3
*Model_Space
  1

  0
ENDBLK
  5
72
330
70
100
AcDbEntity
  8
0
100
AcDbBlockEnd
  0
BLOCK
  5
6D
330
6C
100
AcDbEntity
 67
     1
  8
0
100
AcDbBlockBegin
  2
*Paper_Space
 70
     0
 10
0.0
 20
0.0
 30
0.0
  3
*Paper_Space
  1

  0
ENDBLK
  5
6E
330
6C
100
AcDbEntity
 67
     1
  8
0
100
AcDbBlockEnd
  0
BLOCK
  5
75
330
74
100
AcDbEntity
 67
     1
  8
0
100
AcDbBlockBegin
  2
*Paper_Space0
 70
     0
 10
0.0
 20
0.0
 30
0.0
  3
*Paper_Space0
  1

  0
ENDBLK
  5
76
330
74
100
AcDbEntity
 67
     1
  8
0
100
AcDbBlockEnd
  0
ENDSEC
  0
SECTION
  2
ENTITIES
  0
LWPOLYLINE
  5
7A
330
70
100
AcDbEntity
  8
Outline
 62
   250
420
  2301728
370
    35
100
AcDbPolyline
 90
        4
 70
     1
 43
0.0
 10
3.229999999999992
 20
-3.029999999999998
 10
-0.0000000000000126
 20
-3.029999999999998
 10
-0.0000000000000126
 20
0.0
 10
3.229999999999992
 20
0.0
  0
SPLINE
  5
7E
330
70
100
AcDbEntity
  8
Sesh
100
AcDbSpline
210
0.0
220
0.0
230
1.0
 70
     9
 71
     3
 72
    32
 73
    28
 74
     0
 42
0.0000000001
 43
0.0000000001
 40
0.0
 40
0.0
 40
0.0
 40
0.0
 40
1.0
 40
1.0
 40
1.0
 40
2.0
 40
2.0
 40
2.0
 40
3.0
 40
3.0
 40
3.0
 40
4.0
 40
4.0
 40
4.0
 40
5.0
 40
5.0
 40
5.0
 40
6.0
 40
6.0
 40
6.0
 40
7.0
 40
7.0
 40
7.0
 40
8.0
 40
8.0
 40
8.0
 40
9.0
 40
9.0
 40
9.0
 40
9.0
 10
1.644566883027234
 20
-2.075053191777947
 30
0.0
 10
1.648582354405132
 20
-2.075619427764372
 30
0.0
 10
1.651234239021732
 20
-2.076734370382685
 30
0.0
 10
1.653472286879251
 20
-2.07617961044851
 30
0.0
 10
1.662754135261467
 20
-2.073878598909838
 30
0.0
 10
1.671925509469979
 20
-2.071123337477375
 30
0.0
 10
1.681109810165733
 20
-2.068440085120224
 30
0.0
 10
1.691457809991182
 20
-2.065416965060749
 30
0.0
 10
1.697937259000759
 20
-2.058395260497465
 30
0.0
 10
1.701762679488562
 20
-2.048505677856736
 30
0.0
 10
1.707479465752334
 20
-2.033725909726828
 30
0.0
 10
1.706680041338005
 20
-2.01902571730016
 30
0.0
 10
1.697914558828086
 20
-2.006206966896141
 30
0.0
 10
1.684958309162412
 20
-1.987259626239746
 30
0.0
 10
1.671320612924268
 20
-1.968650135518247
 30
0.0
 10
1.656499922409643
 20
-1.951143859141817
 30
0.0
 10
1.642912734055698
 20
-1.935094410853455
 30
0.0
 10
1.626442119323883
 20
-1.937715995193356
 30
0.0
 10
1.617565910416159
 20
-1.956908242372188
 30
0.0
 10
1.600128142216375
 20
-1.994612622993776
 30
0.0
 10
1.587294788763314
 20
-2.033934748656343
 30
0.0
 10
1.580496087047473
 20
-2.074993415417667
 30
0.0
 10
1.577275500049381
 20
-2.094443054054914
 30
0.0
 10
1.588387675965476
 20
-2.104240197725049
 30
0.0
 10
1.607900239947664
 20
-2.102170977220465
 30
0.0
 10
1.625920772024806
 20
-2.100259899238608
 30
0.0
 10
1.639450957722904
 20
-2.093519799342958
 30
0.0
 10
1.644566883027234
 20
-2.075053191777947
 30
0.0
  0
SPLINE
  5
7F
330
70
100
AcDbEntity
  8
Sesh
100
AcDbSpline
210
0.0
220
0.0
230
1.0
 70
     9
 71
     3
 72
    35
 73
    31
 74
     0
 42
0.0000000001
 43
0.0000000001
 40
0.0
 40
0.0
 40
0.0
 40
0.0
 40
1.0
 40
1.0
 40
1.0
 40
2.0
 40
2.0
 40
2.0
 40
3.0
 40
3.0
 40
3.0
 40
4.0
 40
4.0
 40
4.0
 40
5.0
 40
5.0
 40
5.0
 40
6.0
 40
6.0
 40
6.0
 40
7.0
 40
7.0
 40
7.0
 40
8.0
 40
8.0
 40
8.0
 40
9.0
 40
9.0
 40
9.0
 40
10.0
 40
10.0
 40
10.0
 40
10.0
 10
1.661436390237769
 20
-1.895122564076801
 30
0.0
 10
1.665464031430448
 20
-1.906522445642622
 30
0.0
 10
1.666637315077524
 20
-1.918185519748249
 30
0.0
 10
1.672835029721808
 20
-1.925710405065652
 30
0.0
 10
1.687315343758402
 20
-1.94329159105809
 30
0.0
 10
1.705909748811942
 20
-1.957056926610044
 30
0.0
 10
1.727707085173733
 20
-1.964174475126507
 30
0.0
 10
1.737550951997718
 20
-1.967388652539966
 30
0.0
 10
1.749709795042185
 20
-1.967265947057841
 30
0.0
 10
1.759926386090278
 20
-1.964863794926486
 30
0.0
 10
1.787538750018711
 20
-1.958371375983485
 30
0.0
 10
1.810692736977949
 20
-1.942798246920245
 30
0.0
 10
1.831313952171108
 20
-1.923770573897829
 30
0.0
 10
1.844235647129506
 20
-1.911847586124496
 30
0.0
 10
1.848753801220052
 20
-1.896457695566444
 30
0.0
 10
1.846830466034235
 20
-1.878873230701906
 30
0.0
 10
1.845043584108578
 20
-1.862536628885461
 30
0.0
 10
1.84394760716067
 20
-1.846120073034398
 30
0.0
 10
1.842769531254942
 20
-1.829722812084431
 30
0.0
 10
1.841725197199871
 20
-1.81518656326183
 30
0.0
 10
1.836317763844817
 20
-1.807826882653191
 30
0.0
 10
1.822129966755558
 20
-1.803840026422575
 30
0.0
 10
1.803975503659633
 20
-1.798738479794615
 30
0.0
 10
1.785580103453159
 20
-1.798077156517794
 30
0.0
 10
1.767149454923027
 20
-1.80251044379338
 30
0.0
 10
1.729067077741041
 20
-1.811670477395914
 30
0.0
 10
1.700443610288124
 20
-1.835633483453825
 30
0.0
 10
1.675253607008117
 20
-1.863707438439607
 30
0.0
 10
1.668094098658861
 20
-1.871686447540342
 30
0.0
 10
1.666024725695504
 20
-1.88423254711971
 30
0.0
 10
1.661436390237769
 20
-1.895122564076801
 30
0.0
  0
SPLINE
  5
80
330
70
100
AcDbEntity
  8
Sesh
100
AcDbSpline
210
0.0
220
0.0
230
1.0
 70
     9
 71
     3
 72
    35
 73
    31
 74
     0
 42
0.0000000001
 43
0.0000000001
 40
0.0
 40
0.0
 40
0.0
 40
0.0
 40
1.0
 40
1.0
 40
1.0
 40
2.0
 40
2.0
 40
2.0
 40
3.0
 40
3.0
 40
3.0
 40
4.0
 40
4.0
 40
4.0
 40
5.0
 40
5.0
 40
5.0
 40
6.0
 40
6.0
 40
6.0
 40
7.0
 40
7.0
 40
7.0
 40
8.0
 40
8.0
 40
8.0
 40
9.0
 40
9.0
 40
9.0
 40
10.0
 40
10.0
 40
10.0
 40
10.0
 10
1.512194798609786
 20
-2.036866564739385
 30
0.0
 10
1.544186656407342
 20
-2.039774672055071
 30
0.0
 10
1.563980324194466
 20
-2.030853491672663
 30
0.0
 10
1.574468245362039
 20
-2.009010402526124
 30
0.0
 10
1.584977731693659
 20
-1.987122418054165
 30
0.0
 10
1.594741895689139
 20
-1.964802883572044
 30
0.0
 10
1.603436755439626
 20
-1.942137175864344
 30
0.0
 10
1.61294623610892
 20
-1.917347767931333
 30
0.0
 10
1.597947538406906
 20
-1.887982315676708
 30
0.0
 10
1.571961011290214
 20
-1.882641285276299
 30
0.0
 10
1.559443757741632
 20
-1.880068505686216
 30
0.0
 10
1.545456604956383
 20
-1.882313145847168
 30
0.0
 10
1.532521983510782
 20
-1.884582251438283
 30
0.0
 10
1.503877959790353
 20
-1.889606870682806
 30
0.0
 10
1.475207074198932
 20
-1.894964169333156
 30
0.0
 10
1.4470517978074
 20
-1.902160158558647
 30
0.0
 10
1.415732558737368
 20
-1.910164768083707
 30
0.0
 10
1.405427247847746
 20
-1.930170049428372
 30
0.0
 10
1.414009552575395
 20
-1.961542171397089
 30
0.0
 10
1.415181512045718
 20
-1.965826017772037
 30
0.0
 10
1.416784711740812
 20
-1.969991446420635
 30
0.0
 10
1.417971741603537
 20
-1.974271635592104
 30
0.0
 10
1.422995731208516
 20
-1.992387025512976
 30
0.0
 10
1.428848403228155
 20
-2.010336201841381
 30
0.0
 10
1.432660581948564
 20
-2.028706587121834
 30
0.0
 10
1.436684187555
 20
-2.048095818846503
 30
0.0
 10
1.442136453751092
 20
-2.052606033505551
 30
0.0
 10
1.461470443041561
 20
-2.048258249125006
 30
0.0
 10
1.478377468593028
 20
-2.04445601861471
 30
0.0
 10
1.495286574993656
 20
-2.040663498610178
 30
0.0
 10
1.512194798609786
 20
-2.036866564739385
 30
0.0
  0
SPLINE
  5
81
330
70
100
AcDbEntity
  8
Sesh
100
AcDbSpline
210
0.0
220
0.0
230
1.0
 70
     9
 71
     3
 72
   116
 73
   112
 74
     0
 42
0.0000000001
 43
0.0000000001
 40
0.0
 40
0.0
 40
0.0
 40
0.0
 40
1.0
 40
1.0
 40
1.0
 40
2.0
 40
2.0
 40
2.0
 40
3.0
 40
3.0
 40
3.0
 40
4.0
 40
4.0
 40
4.0
 40
5.0
 40
5.0
 40
5.0
 40
6.0
 40
6.0
 40
6.0
 40
7.0
 40
7.0
 40
7.0
 40
8.0
 40
8.0
 40
8.0
 40
9.0
 40
9.0
 40
9.0
 40
10.0
 40
10.0
 40
10.0
 40
11.0
 40
11.0
 40
11.0
 40
12.0
 40
12.0
 40
12.0
 40
13.0
 40
13.0
 40
13.0
 40
14.0
 40
14.0
 40
14.0
 40
15.0
 40
15.0
 40
15.0
 40
16.0
 40
16.0
 40
16.0
 40
17.0
 40
17.0
 40
17.0
 40
18.0
 40
18.0
 40
18.0
 40
19.0
 40
19.0
 40
19.0
 40
20.0
 40
20.0
 40
20.0
 40
21.0
 40
21.0
 40
21.0
 40
22.0
 40
22.0
 40
22.0
 40
23.0
 40
23.0
 40
23.0
 40
24.0
 40
24.0
 40
24.0
 40
25.0
 40
25.0
 40
25.0
 40
26.0
 40
26.0
 40
26.0
 40
27.0
 40
27.0
 40
27.0
 40
28.0
 40
28.0
 40
28.0
 40
29.0
 40
29.0
 40
29.0
 40
30.0
 40
30.0
 40
30.0
 40
31.0
 40
31.0
 40
31.0
 40
32.0
 40
32.0
 40
32.0
 40
33.0
 40
33.0
 40
33.0
 40
34.0
 40
34.0
 40
34.0
 40
35.0
 40
35.0
 40
35.0
 40
36.0
 40
36.0
 40
36.0
 40
37.0
 40
37.0
 40
37.0
 40
37.0
 10
1.633050202645285
 20
-2.252212163686181
 30
0.0
 10
1.626633620502818
 20
-2.243579397936526
 30
0.0
 10
1.620773003422729
 20
-2.23569459335292
 30
0.0
 10
1.614865661820557
 20
-2.227746985757878
 30
0.0
 10
1.605614773951654
 20
-2.233722477906136
 30
0.0
 10
1.59706822199597
 20
-2.239243215718741
 30
0.0
 10
1.587166911123909
 20
-2.24563890793532
 30
0.0
 10
1.583851740072999
 20
-2.228733800144052
 30
0.0
 10
1.581014218488765
 20
-2.213073528749721
 30
0.0
 10
1.57752564334103
 20
-2.197559671604873
 30
0.0
 10
1.576888714329419
 20
-2.194727104457544
 30
0.0
 10
1.573597630683972
 20
-2.19249154425006
 30
0.0
 10
1.571531788858578
 20
-2.189980306566742
 30
0.0
 10
1.569394063153051
 20
-2.192384098134147
 30
0.0
 10
1.566090998860898
 20
-2.194462650813117
 30
0.0
 10
1.565314148507165
 20
-2.197246034879198
 30
0.0
 10
1.561267653559942
 20
-2.211743567789123
 30
0.0
 10
1.55786407794767
 20
-2.226420429779838
 30
0.0
 10
1.554067789348133
 20
-2.241715863599842
 30
0.0
 10
1.539618057488622
 20
-2.234778022495573
 30
0.0
 10
1.534146622257834
 20
-2.215282731870098
 30
0.0
 10
1.514495902502529
 20
-2.212262260130399
 30
0.0
 10
1.514422820557721
 20
-2.211994779834791
 30
0.0
 10
1.513740175920588
 20
-2.209478876064293
 30
0.0
 10
1.51304807287819
 20
-2.206965494503088
 30
0.0
 10
1.502941073219277
 20
-2.170262809302509
 30
0.0
 10
1.480865848910335
 20
-2.156646536319815
 30
0.0
 10
1.443423742709796
 20
-2.163843912760411
 30
0.0
 10
1.43874511100964
 20
-2.164743332594551
 30
0.0
 10
1.433897110798928
 20
-2.165417014696913
 30
0.0
 10
1.429161791723117
 20
-2.165246387238185
 30
0.0
 10
1.41387618906093
 20
-2.164695536728433
 30
0.0
 10
1.40263481132869
 20
-2.153231717157015
 30
0.0
 10
1.404622778950612
 20
-2.138164543278106
 30
0.0
 10
1.410474442073677
 20
-2.09381515005124
 30
0.0
 10
1.3992835091696
 20
-2.052416615587592
 30
0.0
 10
1.384684145338547
 20
-2.011401961378447
 30
0.0
 10
1.366779920118334
 20
-1.961102676427673
 30
0.0
 10
1.346909418552311
 20
-1.911376689649361
 30
0.0
 10
1.33175156741744
 20
-1.860257560567636
 30
0.0
 10
1.311768290132451
 20
-1.792865011012281
 30
0.0
 10
1.317984637835151
 20
-1.725703495828232
 30
0.0
 10
1.344498786326413
 20
-1.66077312698543
 30
0.0
 10
1.356559608764175
 20
-1.631237299492997
 30
0.0
 10
1.376251157302274
 20
-1.606917905261878
 30
0.0
 10
1.402021086938033
 20
-1.588024035442509
 30
0.0
 10
1.440803070830649
 20
-1.559590035080039
 30
0.0
 10
1.479232067038158
 20
-1.530584502091616
 30
0.0
 10
1.519140231719537
 20
-1.503802359650863
 30
0.0
 10
1.556845092418749
 20
-1.478498925463782
 30
0.0
 10
1.599414474009929
 20
-1.465259029162944
 30
0.0
 10
1.644956064876522
 20
-1.46343742655578
 30
0.0
 10
1.658936155385819
 20
-1.462878252755356
 30
0.0
 10
1.673017387775593
 20
-1.465304870316862
 30
0.0
 10
1.687070749397813
 20
-1.465977606590728
 30
0.0
 10
1.699078005733655
 20
-1.466552481144011
 30
0.0
 10
1.711125554875984
 20
-1.467080505659648
 30
0.0
 10
1.723131423979061
 20
-1.46675406872181
 30
0.0
 10
1.784172062187028
 20
-1.465094581117
 30
0.0
 10
1.827515330498272
 20
-1.493474669255798
 30
0.0
 10
1.856298771112531
 20
-1.545673493080938
 30
0.0
 10
1.878872831715979
 20
-1.586611598238
 30
0.0
 10
1.892277472848011
 20
-1.631079787522594
 30
0.0
 10
1.899617510626083
 20
-1.67687062336083
 30
0.0
 10
1.905962335000493
 20
-1.716453293243451
 30
0.0
 10
1.90843526658917
 20
-1.756660840478616
 30
0.0
 10
1.912473753419918
 20
-1.796606834609999
 30
0.0
 10
1.914294937828723
 20
-1.814619948944002
 30
0.0
 10
1.908466416270559
 20
-1.831021119318367
 30
0.0
 10
1.90180076278903
 20
-1.847400724803289
 30
0.0
 10
1.89188759738234
 20
-1.87176009605173
 30
0.0
 10
1.880860610169798
 20
-1.895898017324169
 30
0.0
 10
1.87373086426914
 20
-1.921098797592978
 30
0.0
 10
1.864991865294036
 20
-1.9519874120401
 30
0.0
 10
1.86841561883754
 20
-1.983798146205016
 30
0.0
 10
1.874157816683514
 20
-2.015128147278548
 30
0.0
 10
1.880631842874082
 20
-2.050451562326846
 30
0.0
 10
1.860917625691298
 20
-2.07655478908095
 30
0.0
 10
1.82483210703218
 20
-2.080662963578586
 30
0.0
 10
1.816329252908897
 20
-2.081631113615988
 30
0.0
 10
1.807815300923443
 20
-2.082937996361553
 30
0.0
 10
1.799478725564995
 20
-2.08484289493064
 30
0.0
 10
1.779956577065478
 20
-2.089303926508465
 30
0.0
 10
1.76653579358842
 20
-2.100930933021193
 30
0.0
 10
1.759629518276546
 20
-2.119949904421547
 30
0.0
 10
1.758491356841078
 20
-2.123084380021333
 30
0.0
 10
1.756936016676718
 20
-2.12649314588182
 30
0.0
 10
1.754566560041818
 20
-2.128688350740604
 30
0.0
 10
1.733171521184607
 20
-2.148510015248676
 30
0.0
 10
1.71701070075379
 20
-2.170705457033565
 30
0.0
 10
1.720730376270517
 20
-2.202468773663743
 30
0.0
 10
1.71988801069622
 20
-2.202787959249866
 30
0.0
 10
1.719045645121898
 20
-2.20310714483599
 30
0.0
 10
1.7182032795476
 20
-2.203426330422113
 30
0.0
 10
1.713890625075767
 20
-2.198936041216484
 30
0.0
 10
1.709485971848582
 20
-2.194529867690789
 30
0.0
 10
1.70528461127891
 20
-2.189937681229669
 30
0.0
 10
1.696931641351334
 20
-2.180807661917747
 30
0.0
 10
1.690968621270081
 20
-2.180707404098332
 30
0.0
 10
1.68579115327538
 20
-2.192003875083097
 30
0.0
 10
1.681327605711329
 20
-2.201742629608083
 30
0.0
 10
1.679791308469601
 20
-2.212835558302862
 30
0.0
 10
1.677087339567909
 20
-2.223362377121651
 30
0.0
 10
1.675832461411295
 20
-2.228247770413165
 30
0.0
 10
1.674878045262428
 20
-2.233210217198575
 30
0.0
 10
1.673157119949615
 20
-2.240985179567435
 30
0.0
 10
1.667446197897106
 20
-2.23151516644273
 30
0.0
 10
1.663186384382798
 20
-2.224451467094695
 30
0.0
 10
1.658187175799664
 20
-2.216161721808981
 30
0.0
 10
1.64956810940349
 20
-2.228522817336624
 30
0.0
 10
1.641484956250552
 20
-2.240115395692504
 30
0.0
 10
1.633050202645285
 20
-2.252212163686181
 30
0.0
  0
HATCH
  5
82
330
70
100
AcDbEntity
  8
Sesh
 62
   250
420
  2301728
440
 33554687
100
AcDbHatch
 10
0.0
 20
0.0
 30
0.0
210
0.0
220
0.0
230
1.0
  2
SOLID
 70
     1
 71
     1
 91
        4
 92
        1
 93
        1
 72
     4
 94
        3
 73
     0
 74
     0
 95
       32
 96
       28
 40
0.0
 40
0.0
 40
0.0
 40
0.0
 40
1.0
 40
1.0
 40
1.0
 40
2.0
 40
2.0
 40
2.0
 40
3.0
 40
3.0
 40
3.0
 40
4.0
 40
4.0
 40
4.0
 40
5.0
 40
5.0
 40
5.0
 40
6.0
 40
6.0
 40
6.0
 40
7.0
 40
7.0
 40
7.0
 40
8.0
 40
8.0
 40
8.0
 40
9.0
 40
9.0
 40
9.0
 40
9.0
 10
1.644566883027234
 20
-2.075053191777947
 10
1.648582354405132
 20
-2.075619427764372
 10
1.651234239021732
 20
-2.076734370382685
 10
1.653472286879251
 20
-2.07617961044851
 10
1.662754135261467
 20
-2.073878598909838
 10
1.671925509469979
 20
-2.071123337477375
 10
1.681109810165733
 20
-2.068440085120224
 10
1.691457809991182
 20
-2.065416965060749
 10
1.697937259000759
 20
-2.058395260497465
 10
1.701762679488562
 20
-2.048505677856736
 10
1.707479465752334
 20
-2.033725909726828
 10
1.706680041338005
 20
-2.01902571730016
 10
1.697914558828086
 20
-2.006206966896141
 10
1.684958309162412
 20
-1.987259626239746
 10
1.671320612924268
 20
-1.968650135518247
 10
1.656499922409643
 20
-1.951143859141817
 10
1.642912734055698
 20
-1.935094410853455
 10
1.626442119323883
 20
-1.937715995193356
 10
1.617565910416159
 20
-1.956908242372188
 10
1.600128142216375
 20
-1.994612622993776
 10
1.587294788763314
 20
-2.033934748656343
 10
1.580496087047473
 20
-2.074993415417667
 10
1.577275500049381
 20
-2.094443054054914
 10
1.588387675965476
 20
-2.104240197725049
 10
1.607900239947664
 20
-2.102170977220465
 10
1.625920772024806
 20
-2.100259899238608
 10
1.639450957722904
 20
-2.093519799342958
 10
1.644566883027234
 20
-2.075053191777947
 97
        0
 97
        1
330
7E
 92
        1
 93
        1
 72
     4
 94
        3
 73
     0
 74
     0
 95
       35
 96
       31
 40
0.0
 40
0.0
 40
0.0
 40
0.0
 40
1.0
 40
1.0
 40
1.0
 40
2.0
 40
2.0
 40
2.0
 40
3.0
 40
3.0
 40
3.0
 40
4.0
 40
4.0
 40
4.0
 40
5.0
 40
5.0
 40
5.0
 40
6.0
 40
6.0
 40
6.0
 40
7.0
 40
7.0
 40
7.0
 40
8.0
 40
8.0
 40
8.0
 40
9.0
 40
9.0
 40
9.0
 40
10.0
 40
10.0
 40
10.0
 40
10.0
 10
1.661436390237769
 20
-1.895122564076801
 10
1.665464031430448
 20
-1.906522445642622
 10
1.666637315077524
 20
-1.918185519748249
 10
1.672835029721808
 20
-1.925710405065652
 10
1.687315343758402
 20
-1.94329159105809
 10
1.705909748811942
 20
-1.957056926610044
 10
1.727707085173733
 20
-1.964174475126507
 10
1.737550951997718
 20
-1.967388652539966
 10
1.749709795042185
 20
-1.967265947057841
 10
1.759926386090278
 20
-1.964863794926486
 10
1.787538750018711
 20
-1.958371375983485
 10
1.810692736977949
 20
-1.942798246920245
 10
1.831313952171108
 20
-1.923770573897829
 10
1.844235647129506
 20
-1.911847586124496
 10
1.848753801220052
 20
-1.896457695566444
 10
1.846830466034235
 20
-1.878873230701906
 10
1.845043584108578
 20
-1.862536628885461
 10
1.84394760716067
 20
-1.846120073034398
 10
1.842769531254942
 20
-1.829722812084431
 10
1.841725197199871
 20
-1.81518656326183
 10
1.836317763844817
 20
-1.807826882653191
 10
1.822129966755558
 20
-1.803840026422575
 10
1.803975503659633
 20
-1.798738479794615
 10
1.785580103453159
 20
-1.798077156517794
 10
1.767149454923027
 20
-1.80251044379338
 10
1.729067077741041
 20
-1.811670477395914
 10
1.700443610288124
 20
-1.835633483453825
 10
1.675253607008117
 20
-1.863707438439607
 10
1.668094098658861
 20
-1.871686447540342
 10
1.666024725695504
 20
-1.88423254711971
 10
1.661436390237769
 20
-1.895122564076801
 97
        0
 97
        1
330
7F
 92
        1
 93
        1
 72
     4
 94
        3
 73
     0
 74
     0
 95
       35
 96
       31
 40
0.0
 40
0.0
 40
0.0
 40
0.0
 40
1.0
 40
1.0
 40
1.0
 40
2.0
 40
2.0
 40
2.0
 40
3.0
 40
3.0
 40
3.0
 40
4.0
 40
4.0
 40
4.0
 40
5.0
 40
5.0
 40
5.0
 40
6.0
 40
6.0
 40
6.0
 40
7.0
 40
7.0
 40
7.0
 40
8.0
 40
8.0
 40
8.0
 40
9.0
 40
9.0
 40
9.0
 40
10.0
 40
10.0
 40
10.0
 40
10.0
 10
1.512194798609786
 20
-2.036866564739385
 10
1.544186656407342
 20
-2.039774672055071
 10
1.563980324194466
 20
-2.030853491672663
 10
1.574468245362039
 20
-2.009010402526124
 10
1.584977731693659
 20
-1.987122418054165
 10
1.594741895689139
 20
-1.964802883572044
 10
1.603436755439626
 20
-1.942137175864344
 10
1.61294623610892
 20
-1.917347767931333
 10
1.597947538406906
 20
-1.887982315676708
 10
1.571961011290214
 20
-1.882641285276299
 10
1.559443757741632
 20
-1.880068505686216
 10
1.545456604956383
 20
-1.882313145847168
 10
1.532521983510782
 20
-1.884582251438283
 10
1.503877959790353
 20
-1.889606870682806
 10
1.475207074198932
 20
-1.894964169333156
 10
1.4470517978074
 20
-1.902160158558647
 10
1.415732558737368
 20
-1.910164768083707
 10
1.405427247847746
 20
-1.930170049428372
 10
1.414009552575395
 20
-1.961542171397089
 10
1.415181512045718
 20
-1.965826017772037
 10
1.416784711740812
 20
-1.969991446420635
 10
1.417971741603537
 20
-1.974271635592104
 10
1.422995731208516
 20
-1.992387025512976
 10
1.428848403228155
 20
-2.010336201841381
 10
1.432660581948564
 20
-2.028706587121834
 10
1.436684187555
 20
-2.048095818846503
 10
1.442136453751092
 20
-2.052606033505551
 10
1.461470443041561
 20
-2.048258249125006
 10
1.478377468593028
 20
-2.04445601861471
 10
1.495286574993656
 20
-2.040663498610178
 10
1.512194798609786
 20
-2.036866564739385
 97
        0
 97
        1
330
80
 92
        1
 93
        1
 72
     4
 94
        3
 73
     0
 74
     0
 95
      116
 96
      112
 40
0.0
 40
0.0
 40
0.0
 40
0.0
 40
1.0
 40
1.0
 40
1.0
 40
2.0
 40
2.0
 40
2.0
 40
3.0
 40
3.0
 40
3.0
 40
4.0
 40
4.0
 40
4.0
 40
5.0
 40
5.0
 40
5.0
 40
6.0
 40
6.0
 40
6.0
 40
7.0
 40
7.0
 40
7.0
 40
8.0
 40
8.0
 40
8.0
 40
9.0
 40
9.0
 40
9.0
 40
10.0
 40
10.0
 40
10.0
 40
11.0
 40
11.0
 40
11.0
 40
12.0
 40
12.0
 40
12.0
 40
13.0
 40
13.0
 40
13.0
 40
14.0
 40
14.0
 40
14.0
 40
15.0
 40
15.0
 40
15.0
 40
16.0
 40
16.0
 40
16.0
 40
17.0
 40
17.0
 40
17.0
 40
18.0
 40
18.0
 40
18.0
 40
19.0
 40
19.0
 40
19.0
 40
20.0
 40
20.0
 40
20.0
 40
21.0
 40
21.0
 40
21.0
 40
22.0
 40
22.0
 40
22.0
 40
23.0
 40
23.0
 40
23.0
 40
24.0
 40
24.0
 40
24.0
 40
25.0
 40
25.0
 40
25.0
 40
26.0
 40
26.0
 40
26.0
 40
27.0
 40
27.0
 40
27.0
 40
28.0
 40
28.0
 40
28.0
 40
29.0
 40
29.0
 40
29.0
 40
30.0
 40
30.0
 40
30.0
 40
31.0
 40
31.0
 40
31.0
 40
32.0
 40
32.0
 40
32.0
 40
33.0
 40
33.0
 40
33.0
 40
34.0
 40
34.0
 40
34.0
 40
35.0
 40
35.0
 40
35.0
 40
36.0
 40
36.0
 40
36.0
 40
37.0
 40
37.0
 40
37.0
 40
37.0
 10
1.633050202645285
 20
-2.252212163686181
 10
1.626633620502818
 20
-2.243579397936526
 10
1.620773003422729
 20
-2.23569459335292
 10
1.614865661820557
 20
-2.227746985757878
 10
1.605614773951654
 20
-2.233722477906136
 10
1.59706822199597
 20
-2.239243215718741
 10
1.587166911123909
 20
-2.24563890793532
 10
1.583851740072999
 20
-2.228733800144052
 10
1.581014218488765
 20
-2.213073528749721
 10
1.57752564334103
 20
-2.197559671604873
 10
1.576888714329419
 20
-2.194727104457544
 10
1.573597630683972
 20
-2.19249154425006
 10
1.571531788858578
 20
-2.189980306566742
 10
1.569394063153051
 20
-2.192384098134147
 10
1.566090998860898
 20
-2.194462650813117
 10
1.565314148507165
 20
-2.197246034879198
 10
1.561267653559942
 20
-2.211743567789123
 10
1.55786407794767
 20
-2.226420429779838
 10
1.554067789348133
 20
-2.241715863599842
 10
1.539618057488622
 20
-2.234778022495573
 10
1.534146622257834
 20
-2.215282731870098
 10
1.514495902502529
 20
-2.212262260130399
 10
1.514422820557721
 20
-2.211994779834791
 10
1.513740175920588
 20
-2.209478876064293
 10
1.51304807287819
 20
-2.206965494503088
 10
1.502941073219277
 20
-2.170262809302509
 10
1.480865848910335
 20
-2.156646536319815
 10
1.443423742709796
 20
-2.163843912760411
 10
1.43874511100964
 20
-2.164743332594551
 10
1.433897110798928
 20
-2.165417014696913
 10
1.429161791723117
 20
-2.165246387238185
 10
1.41387618906093
 20
-2.164695536728433
 10
1.40263481132869
 20
-2.153231717157015
 10
1.404622778950612
 20
-2.138164543278106
 10
1.410474442073677
 20
-2.09381515005124
 10
1.3992835091696
 20
-2.052416615587592
 10
1.384684145338547
 20
-2.011401961378447
 10
1.366779920118334
 20
-1.961102676427673
 10
1.346909418552311
 20
-1.911376689649361
 10
1.33175156741744
 20
-1.860257560567636
 10
1.311768290132451
 20
-1.792865011012281
 10
1.317984637835151
 20
-1.725703495828232
 10
1.344498786326413
 20
-1.66077312698543
 10
1.356559608764175
 20
-1.631237299492997
 10
1.376251157302274
 20
-1.606917905261878
 10
1.402021086938033
 20
-1.588024035442509
 10
1.440803070830649
 20
-1.559590035080039
 10
1.479232067038158
 20
-1.530584502091616
 10
1.519140231719537
 20
-1.503802359650863
 10
1.556845092418749
 20
-1.478498925463782
 10
1.599414474009929
 20
-1.465259029162944
 10
1.644956064876522
 20
-1.46343742655578
 10
1.658936155385819
 20
-1.462878252755356
 10
1.673017387775593
 20
-1.465304870316862
 10
1.687070749397813
 20
-1.465977606590728
 10
1.699078005733655
 20
-1.466552481144011
 10
1.711125554875984
 20
-1.467080505659648
 10
1.723131423979061
 20
-1.46675406872181
 10
1.784172062187028
 20
-1.465094581117
 10
1.827515330498272
 20
-1.493474669255798
 10
1.856298771112531
 20
-1.545673493080938
 10
1.878872831715979
 20
-1.586611598238
 10
1.892277472848011
 20
-1.631079787522594
 10
1.899617510626083
 20
-1.67687062336083
 10
1.905962335000493
 20
-1.716453293243451
 10
1.90843526658917
 20
-1.756660840478616
 10
1.912473753419918
 20
-1.796606834609999
 10
1.914294937828723
 20
-1.814619948944002
 10
1.908466416270559
 20
-1.831021119318367
 10
1.90180076278903
 20
-1.847400724803289
 10
1.89188759738234
 20
-1.87176009605173
 10
1.880860610169798
 20
-1.895898017324169
 10
1.87373086426914
 20
-1.921098797592978
 10
1.864991865294036
 20
-1.9519874120401
 10
1.86841561883754
 20
-1.983798146205016
 10
1.874157816683514
 20
-2.015128147278548
 10
1.880631842874082
 20
-2.050451562326846
 10
1.860917625691298
 20
-2.07655478908095
 10
1.82483210703218
 20
-2.080662963578586
 10
1.816329252908897
 20
-2.081631113615988
 10
1.807815300923443
 20
-2.082937996361553
 10
1.799478725564995
 20
-2.08484289493064
 10
1.779956577065478
 20
-2.089303926508465
 10
1.76653579358842
 20
-2.100930933021193
 10
1.759629518276546
 20
-2.119949904421547
 10
1.758491356841078
 20
-2.123084380021333
 10
1.756936016676718
 20
-2.12649314588182
 10
1.754566560041818
 20
-2.128688350740604
 10
1.733171521184607
 20
-2.148510015248676
 10
1.71701070075379
 20
-2.170705457033565
 10
1.720730376270517
 20
-2.202468773663743
 10
1.71988801069622
 20
-2.202787959249866
 10
1.719045645121898
 20
-2.20310714483599
 10
1.7182032795476
 20
-2.203426330422113
 10
1.713890625075767
 20
-2.198936041216484
 10
1.709485971848582
 20
-2.194529867690789
 10
1.70528461127891
 20
-2.189937681229669
 10
1.696931641351334
 20
-2.180807661917747
 10
1.690968621270081
 20
-2.180707404098332
 10
1.68579115327538
 20
-2.192003875083097
 10
1.681327605711329
 20
-2.201742629608083
 10
1.679791308469601
 20
-2.212835558302862
 10
1.677087339567909
 20
-2.223362377121651
 10
1.675832461411295
 20
-2.228247770413165
 10
1.674878045262428
 20
-2.233210217198575
 10
1.673157119949615
 20
-2.240985179567435
 10
1.667446197897106
 20
-2.23151516644273
 10
1.663186384382798
 20
-2.224451467094695
 10
1.658187175799664
 20
-2.216161721808981
 10
1.64956810940349
 20
-2.228522817336624
 10
1.641484956250552
 20
-2.240115395692504
 10
1.633050202645285
 20
-2.252212163686181
 97
        0
 97
        1
330
81
 75
     2
 76
     1
 98
        1
 10
0.0
 20
0.0
450
        0
451
        0
460
0.0
461
0.0
452
        0
462
0.0
453
        0
470

  0
SPLINE
  5
83
330
70
100
AcDbEntity
  8
Sesh
100
AcDbSpline
210
0.0
220
0.0
230
1.0
 70
     9
 71
     3
 72
   131
 73
   127
 74
     0
 42
0.0000000001
 43
0.0000000001
 40
0.0
 40
0.0
 40
0.0
 40
0.0
 40
1.0
 40
1.0
 40
1.0
 40
2.0
 40
2.0
 40
2.0
 40
3.0
 40
3.0
 40
3.0
 40
4.0
 40
4.0
 40
4.0
 40
5.0
 40
5.0
 40
5.0
 40
6.0
 40
6.0
 40
6.0
 40
7.0
 40
7.0
 40
7.0
 40
8.0
 40
8.0
 40
8.0
 40
9.0
 40
9.0
 40
9.0
 40
10.0
 40
10.0
 40
10.0
 40
11.0
 40
11.0
 40
11.0
 40
12.0
 40
12.0
 40
12.0
 40
13.0
 40
13.0
 40
13.0
 40
14.0
 40
14.0
 40
14.0
 40
15.0
 40
15.0
 40
15.0
 40
16.0
 40
16.0
 40
16.0
 40
17.0
 40
17.0
 40
17.0
 40
18.0
 40
18.0
 40
18.0
 40
19.0
 40
19.0
 40
19.0
 40
20.0
 40
20.0
 40
20.0
 40
21.0
 40
21.0
 40
21.0
 40
22.0
 40
22.0
 40
22.0
 40
23.0
 40
23.0
 40
23.0
 40
24.0
 40
24.0
 40
24.0
 40
25.0
 40
25.0
 40
25.0
 40
26.0
 40
26.0
 40
26.0
 40
27.0
 40
27.0
 40
27.0
 40
28.0
 40
28.0
 40
28.0
 40
29.0
 40
29.0
 40
29.0
 40
30.0
 40
30.0
 40
30.0
 40
31.0
 40
31.0
 40
31.0
 40
32.0
 40
32.0
 40
32.0
 40
33.0
 40
33.0
 40
33.0
 40
34.0
 40
34.0
 40
34.0
 40
35.0
 40
35.0
 40
35.0
 40
36.0
 40
36.0
 40
36.0
 40
37.0
 40
37.0
 40
37.0
 40
38.0
 40
38.0
 40
38.0
 40
39.0
 40
39.0
 40
39.0
 40
40.0
 40
40.0
 40
40.0
 40
41.0
 40
41.0
 40
41.0
 40
42.0
 40
42.0
 40
42.0
 40
42.0
 10
2.216749894630159
 20
-0.9994020543019182
 30
0.0
 10
2.21521952465572
 20
-1.04894253258668
 30
0.0
 10
2.212813936912652
 20
-1.098476894513901
 30
0.0
 10
2.212468768175919
 20
-1.148025633034093
 30
0.0
 10
2.212241766449197
 20
-1.180655454667152
 30
0.0
 10
2.216227160098317
 20
-1.213311696442562
 30
0.0
 10
2.216076960622457
 20
-1.245945742776181
 30
0.0
 10
2.215893593672086
 20
-1.285795325457317
 30
0.0
 10
2.215500250124452
 20
-1.325859548149348
 30
0.0
 10
2.211345109628584
 20
-1.365426328113433
 30
0.0
 10
2.204645027551805
 20
-1.429224540259509
 30
0.0
 10
2.201049572424406
 20
-1.492914675737362
 30
0.0
 10
2.203745722377713
 20
-1.557035289286406
 30
0.0
 10
2.204914655158366
 20
-1.584838106773127
 30
0.0
 10
2.204451697747875
 20
-1.612745469835039
 30
0.0
 10
2.203652273333545
 20
-1.640574266077489
 30
0.0
 10
2.203393239140925
 20
-1.649588894314218
 30
0.0
 10
2.200741858972631
 20
-1.658920312038238
 30
0.0
 10
2.197358146011437
 20
-1.6673760186955
 30
0.0
 10
2.191151540466181
 20
-1.682885966415925
 30
0.0
 10
2.175884160998167
 20
-1.688179957613025
 30
0.0
 10
2.16066432578067
 20
-1.681329637171226
 30
0.0
 10
2.134226948012281
 20
-1.669430232054789
 30
0.0
 10
2.121915004914323
 20
-1.638445773654489
 30
0.0
 10
2.130758866075994
 20
-1.60802364181624
 30
0.0
 10
2.137058416217112
 20
-1.586353071785399
 30
0.0
 10
2.143538054394816
 20
-1.564615158766425
 30
0.0
 10
2.147767727124295
 20
-1.542492356609197
 30
0.0
 10
2.153362941352219
 20
-1.513228927720496
 30
0.0
 10
2.152271189158657
 20
-1.48343432155453
 30
0.0
 10
2.147778320538211
 20
-1.454109666035227
 30
0.0
 10
2.142243766216198
 20
-1.417985953978018
 30
0.0
 10
2.146002536474775
 20
-1.3819930184727
 30
0.0
 10
2.146761857250718
 20
-1.345925173351361
 30
0.0
 10
2.146978013339396
 20
-1.335649692688687
 30
0.0
 10
2.14699440790855
 20
-1.325298734912886
 30
0.0
 10
2.146024353862938
 20
-1.315084859212207
 30
0.0
 10
2.14422359960958
 20
-1.296127871105265
 30
0.0
 10
2.134906692071783
 20
-1.280953061944741
 30
0.0
 10
2.118826520309969
 20
-1.271110392396862
 30
0.0
 10
2.098935367892408
 20
-1.258935183694145
 30
0.0
 10
2.078666888160189
 20
-1.24721176573117
 30
0.0
 10
2.057783107636447
 20
-1.236863582385593
 30
0.0
 10
2.029193627386499
 20
-1.22269702639024
 30
0.0
 10
2.009929504183017
 20
-1.232614416388438
 30
0.0
 10
2.003993913477087
 20
-1.263201311548805
 30
0.0
 10
2.002818675092915
 20
-1.269257892725855
 30
0.0
 10
2.001911298746335
 20
-1.275411894236867
 30
0.0
 10
2.001490336655302
 20
-1.281562679931034
 30
0.0
 10
1.99651155822759
 20
-1.354297836267606
 30
0.0
 10
1.991682853163638
 20
-1.427043333662292
 30
0.0
 10
1.986730684382766
 20
-1.499780318600604
 30
0.0
 10
1.985562760498674
 20
-1.516935440388111
 30
0.0
 10
1.984723736894238
 20
-1.534150779922507
 30
0.0
 10
1.982552591490048
 20
-1.551188051480746
 30
0.0
 10
1.980645020313027
 20
-1.566157363639073
 30
0.0
 10
1.970253637935355
 20
-1.575596984141813
 30
0.0
 10
1.957196876949561
 20
-1.581335010285051
 30
0.0
 10
1.953997413723249
 20
-1.582741141966304
 30
0.0
 10
1.948179485579
 20
-1.579880956627221
 30
0.0
 10
1.944279217577433
 20
-1.577703659454401
 30
0.0
 10
1.928552916285196
 20
-1.568924227234295
 30
0.0
 10
1.926033071006309
 20
-1.552713861992995
 30
0.0
 10
1.92318382099951
 20
-1.537236955214312
 30
0.0
 10
1.916956028626423
 20
-1.503407507785924
 30
0.0
 10
1.916117131134089
 20
-1.469097831708015
 30
0.0
 10
1.913567145070373
 20
-1.434872271310041
 30
0.0
 10
1.908767067446433
 20
-1.370445776828887
 30
0.0
 10
1.91053011419078
 20
-1.306118026841583
 30
0.0
 10
1.910988027118415
 20
-1.241803392342616
 30
0.0
 10
1.91146094738244
 20
-1.175412096821635
 30
0.0
 10
1.916174638238165
 20
-1.10906147192553
 30
0.0
 10
1.917754948592497
 20
-1.042662672831902
 30
0.0
 10
1.918398498487805
 20
-1.015624147816437
 30
0.0
 10
1.915138375355632
 20
-0.9885154423273736
 30
0.0
 10
1.91463859322059
 20
-0.961420514406566
 30
0.0
 10
1.914164664059979
 20
-0.9357220391888555
 30
0.0
 10
1.914371613967533
 20
-0.9099758626878912
 30
0.0
 10
1.915385428901547
 20
-0.8842943808552945
 30
0.0
 10
1.916524725345652
 20
-0.8554405587558953
 30
0.0
 10
1.918789319793985
 20
-0.8266277225575196
 30
0.0
 10
1.920808752377474
 20
-0.7978141612239571
 30
0.0
 10
1.921456085634897
 20
-0.7885774209312962
 30
0.0
 10
1.922375064291978
 20
-0.7793009558422455
 30
0.0
 10
1.924069127733799
 20
-0.7702102829953093
 30
0.0
 10
1.926529448115439
 20
-0.757007683864395
 30
0.0
 10
1.937440033887014
 20
-0.7464710284293562
 30
0.0
 10
1.948405100072957
 20
-0.7456421043449634
 30
0.0
 10
1.960770388576722
 20
-0.7447073735807078
 30
0.0
 10
1.973022932889509
 20
-0.7534829594316332
 30
0.0
 10
1.977273918558871
 20
-0.7674136258027981
 30
0.0
 10
1.987855604050815
 20
-0.8020898104187052
 30
0.0
 10
1.999371779984484
 20
-0.8365623266341419
 30
0.0
 10
2.007967452591578
 20
-0.8717385707701497
 30
0.0
 10
2.015547923031893
 20
-0.9027604839784544
 30
0.0
 10
2.015462923496417
 20
-0.9348361131744315
 30
0.0
 10
2.005377110665348
 20
-0.9654534640120193
 30
0.0
 10
1.993531025555487
 20
-1.001414020655526
 30
0.0
 10
1.997964999839041
 20
-1.036551422768411
 30
0.0
 10
2.006187128493593
 20
-1.07201191989183
 30
0.0
 10
2.010058390718995
 20
-1.088708062643099
 30
0.0
 10
2.014237744732377
 20
-1.105360634228822
 30
0.0
 10
2.017256741585924
 20
-1.122215739220842
 30
0.0
 10
2.018964803467598
 20
-1.13175214950522
 30
0.0
 10
2.024596464083843
 20
-1.138163353308969
 30
0.0
 10
2.032659313193435
 20
-1.139667094489886
 30
0.0
 10
2.061062147579201
 20
-1.144964427614291
 30
0.0
 10
2.08974873412338
 20
-1.149099526696141
 30
0.0
 10
2.118609229212653
 20
-1.142581381218342
 30
0.0
 10
2.136557877409662
 20
-1.138527686441445
 30
0.0
 10
2.14486689728071
 20
-1.127595359423442
 30
0.0
 10
2.146044027345952
 20
-1.109016198268705
 30
0.0
 10
2.148324890251362
 20
-1.0730180291791
 30
0.0
 10
2.151019022411572
 20
-1.037045334403362
 30
0.0
 10
2.153666745329827
 20
-1.001071315467748
 30
0.0
 10
2.155376572780444
 20
-0.9778409796820394
 30
0.0
 10
2.153358022981465
 20
-0.9551031998437842
 30
0.0
 10
2.145877307188837
 20
-0.9329164281533621
 30
0.0
 10
2.138725239451736
 20
-0.9117047425758958
 30
0.0
 10
2.145447391140831
 20
-0.8898433043567466
 30
0.0
 10
2.162869899780111
 20
-0.876707827520666
 30
0.0
 10
2.180492296050968
 20
-0.863421648679289
 30
0.0
 10
2.203308113493398
 20
-0.8719664523798403
 30
0.0
 10
2.208144006945329
 20
-0.8937898052386495
 30
0.0
 10
2.215855886163025
 20
-0.928591785043093
 30
0.0
 10
2.217615023433179
 20
-0.9638843345551574
 30
0.0
 10
2.216749894630159
 20
-0.9994020543019182
 30
0.0
  0
HATCH
  5
84
330
70
100
AcDbEntity
  8
Sesh
 62
   250
420
  2301728
440
 33554687
100
AcDbHatch
 10
0.0
 20
0.0
 30
0.0
210
0.0
220
0.0
230
1.0
  2
SOLID
 70
     1
 71
     1
 91
        1
 92
        1
 93
        1
 72
     4
 94
        3
 73
     0
 74
     0
 95
      131
 96
      127
 40
0.0
 40
0.0
 40
0.0
 40
0.0
 40
1.0
 40
1.0
 40
1.0
 40
2.0
 40
2.0
 40
2.0
 40
3.0
 40
3.0
 40
3.0
 40
4.0
 40
4.0
 40
4.0
 40
5.0
 40
5.0
 40
5.0
 40
6.0
 40
6.0
 40
6.0
 40
7.0
 40
7.0
 40
7.0
 40
8.0
 40
8.0
 40
8.0
 40
9.0
 40
9.0
 40
9.0
 40
10.0
 40
10.0
 40
10.0
 40
11.0
 40
11.0
 40
11.0
 40
12.0
 40
12.0
 40
12.0
 40
13.0
 40
13.0
 40
13.0
 40
14.0
 40
14.0
 40
14.0
 40
15.0
 40
15.0
 40
15.0
 40
16.0
 40
16.0
 40
16.0
 40
17.0
 40
17.0
 40
17.0
 40
18.0
 40
18.0
 40
18.0
 40
19.0
 40
19.0
 40
19.0
 40
20.0
 40
20.0
 40
20.0
 40
21.0
 40
21.0
 40
21.0
 40
22.0
 40
22.0
 40
22.0
 40
23.0
 40
23.0
 40
23.0
 40
24.0
 40
24.0
 40
24.0
 40
25.0
 40
25.0
 40
25.0
 40
26.0
 40
26.0
 40
26.0
 40
27.0
 40
27.0
 40
27.0
 40
28.0
 40
28.0
 40
28.0
 40
29.0
 40
29.0
 40
29.0
 40
30.0
 40
30.0
 40
30.0
 40
31.0
 40
31.0
 40
31.0
 40
32.0
 40
32.0
 40
32.0
 40
33.0
 40
33.0
 40
33.0
 40
34.0
 40
34.0
 40
34.0
 40
35.0
 40
35.0
 40
35.0
 40
36.0
 40
36.0
 40
36.0
 40
37.0
 40
37.0
 40
37.0
 40
38.0
 40
38.0
 40
38.0
 40
39.0
 40
39.0
 40
39.0
 40
40.0
 40
40.0
 40
40.0
 40
41.0
 40
41.0
 40
41.0
 40
42.0
 40
42.0
 40
42.0
 40
42.0
 10
2.216749894630159
 20
-0.9994020543019182
 10
2.21521952465572
 20
-1.04894253258668
 10
2.212813936912652
 20
-1.098476894513901
 10
2.212468768175919
 20
-1.148025633034093
 10
2.212241766449197
 20
-1.180655454667152
 10
2.216227160098317
 20
-1.213311696442562
 10
2.216076960622457
 20
-1.245945742776181
 10
2.215893593672086
 20
-1.285795325457317
 10
2.215500250124452
 20
-1.325859548149348
 10
2.211345109628584
 20
-1.365426328113433
 10
2.204645027551805
 20
-1.429224540259509
 10
2.201049572424406
 20
-1.492914675737362
 10
2.203745722377713
 20
-1.557035289286406
 10
2.204914655158366
 20
-1.584838106773127
 10
2.204451697747875
 20
-1.612745469835039
 10
2.203652273333545
 20
-1.640574266077489
 10
2.203393239140925
 20
-1.649588894314218
 10
2.200741858972631
 20
-1.658920312038238
 10
2.197358146011437
 20
-1.6673760186955
 10
2.191151540466181
 20
-1.682885966415925
 10
2.175884160998167
 20
-1.688179957613025
 10
2.16066432578067
 20
-1.681329637171226
 10
2.134226948012281
 20
-1.669430232054789
 10
2.121915004914323
 20
-1.638445773654489
 10
2.130758866075994
 20
-1.60802364181624
 10
2.137058416217112
 20
-1.586353071785399
 10
2.143538054394816
 20
-1.564615158766425
 10
2.147767727124295
 20
-1.542492356609197
 10
2.153362941352219
 20
-1.513228927720496
 10
2.152271189158657
 20
-1.48343432155453
 10
2.147778320538211
 20
-1.454109666035227
 10
2.142243766216198
 20
-1.417985953978018
 10
2.146002536474775
 20
-1.3819930184727
 10
2.146761857250718
 20
-1.345925173351361
 10
2.146978013339396
 20
-1.335649692688687
 10
2.14699440790855
 20
-1.325298734912886
 10
2.146024353862938
 20
-1.315084859212207
 10
2.14422359960958
 20
-1.296127871105265
 10
2.134906692071783
 20
-1.280953061944741
 10
2.118826520309969
 20
-1.271110392396862
 10
2.098935367892408
 20
-1.258935183694145
 10
2.078666888160189
 20
-1.24721176573117
 10
2.057783107636447
 20
-1.236863582385593
 10
2.029193627386499
 20
-1.22269702639024
 10
2.009929504183017
 20
-1.232614416388438
 10
2.003993913477087
 20
-1.263201311548805
 10
2.002818675092915
 20
-1.269257892725855
 10
2.001911298746335
 20
-1.275411894236867
 10
2.001490336655302
 20
-1.281562679931034
 10
1.99651155822759
 20
-1.354297836267606
 10
1.991682853163638
 20
-1.427043333662292
 10
1.986730684382766
 20
-1.499780318600604
 10
1.985562760498674
 20
-1.516935440388111
 10
1.984723736894238
 20
-1.534150779922507
 10
1.982552591490048
 20
-1.551188051480746
 10
1.980645020313027
 20
-1.566157363639073
 10
1.970253637935355
 20
-1.575596984141813
 10
1.957196876949561
 20
-1.581335010285051
 10
1.953997413723249
 20
-1.582741141966304
 10
1.948179485579
 20
-1.579880956627221
 10
1.944279217577433
 20
-1.577703659454401
 10
1.928552916285196
 20
-1.568924227234295
 10
1.926033071006309
 20
-1.552713861992995
 10
1.92318382099951
 20
-1.537236955214312
 10
1.916956028626423
 20
-1.503407507785924
 10
1.916117131134089
 20
-1.469097831708015
 10
1.913567145070373
 20
-1.434872271310041
 10
1.908767067446433
 20
-1.370445776828887
 10
1.91053011419078
 20
-1.306118026841583
 10
1.910988027118415
 20
-1.241803392342616
 10
1.91146094738244
 20
-1.175412096821635
 10
1.916174638238165
 20
-1.10906147192553
 10
1.917754948592497
 20
-1.042662672831902
 10
1.918398498487805
 20
-1.015624147816437
 10
1.915138375355632
 20
-0.9885154423273736
 10
1.91463859322059
 20
-0.961420514406566
 10
1.914164664059979
 20
-0.9357220391888555
 10
1.914371613967533
 20
-0.9099758626878912
 10
1.915385428901547
 20
-0.8842943808552945
 10
1.916524725345652
 20
-0.8554405587558953
 10
1.918789319793985
 20
-0.8266277225575196
 10
1.920808752377474
 20
-0.7978141612239571
 10
1.921456085634897
 20
-0.7885774209312962
 10
1.922375064291978
 20
-0.7793009558422455
 10
1.924069127733799
 20
-0.7702102829953093
 10
1.926529448115439
 20
-0.757007683864395
 10
1.937440033887014
 20
-0.7464710284293562
 10
1.948405100072957
 20
-0.7456421043449634
 10
1.960770388576722
 20
-0.7447073735807078
 10
1.973022932889509
 20
-0.7534829594316332
 10
1.977273918558871
 20
-0.7674136258027981
 10
1.987855604050815
 20
-0.8020898104187052
 10
1.999371779984484
 20
-0.8365623266341419
 10
2.007967452591578
 20
-0.8717385707701497
 10
2.015547923031893
 20
-0.9027604839784544
 10
2.015462923496417
 20
-0.9348361131744315
 10
2.005377110665348
 20
-0.9654534640120193
 10
1.993531025555487
 20
-1.001414020655526
 10
1.997964999839041
 20
-1.036551422768411
 10
2.006187128493593
 20
-1.07201191989183
 10
2.010058390718995
 20
-1.088708062643099
 10
2.014237744732377
 20
-1.105360634228822
 10
2.017256741585924
 20
-1.122215739220842
 10
2.018964803467598
 20
-1.13175214950522
 10
2.024596464083843
 20
-1.138163353308969
 10
2.032659313193435
 20
-1.139667094489886
 10
2.061062147579201
 20
-1.144964427614291
 10
2.08974873412338
 20
-1.149099526696141
 10
2.118609229212653
 20
-1.142581381218342
 10
2.136557877409662
 20
-1.138527686441445
 10
2.14486689728071
 20
-1.127595359423442
 10
2.146044027345952
 20
-1.109016198268705
 10
2.148324890251362
 20
-1.0730180291791
 10
2.151019022411572
 20
-1.037045334403362
 10
2.153666745329827
 20
-1.001071315467748
 10
2.155376572780444
 20
-0.9778409796820394
 10
2.153358022981465
 20
-0.9551031998437842
 10
2.145877307188837
 20
-0.9329164281533621
 10
2.138725239451736
 20
-0.9117047425758958
 10
2.145447391140831
 20
-0.8898433043567466
 10
2.162869899780111
 20
-0.876707827520666
 10
2.180492296050968
 20
-0.863421648679289
 10
2.203308113493398
 20
-0.8719664523798403
 10
2.208144006945329
 20
-0.8937898052386495
 10
2.215855886163025
 20
-0.928591785043093
 10
2.217615023433179
 20
-0.9638843345551574
 10
2.216749894630159
 20
-0.9994020543019182
 97
        0
 97
        1
330
83
 75
     2
 76
     1
 98
        1
 10
0.0
 20
0.0
450
        0
451
        0
460
0.0
461
0.0
452
        0
462
0.0
453
        0
470

  0
SPLINE
  5
85
330
70
100
AcDbEntity
  8
Sesh
100
AcDbSpline
210
0.0
220
0.0
230
1.0
 70
     9
 71
     3
 72
   104
 73
   100
 74
     0
 42
0.0000000001
 43
0.0000000001
 40
0.0
 40
0.0
 40
0.0
 40
0.0
 40
1.0
 40
1.0
 40
1.0
 40
2.0
 40
2.0
 40
2.0
 40
3.0
 40
3.0
 40
3.0
 40
4.0
 40
4.0
 40
4.0
 40
5.0
 40
5.0
 40
5.0
 40
6.0
 40
6.0
 40
6.0
 40
7.0
 40
7.0
 40
7.0
 40
8.0
 40
8.0
 40
8.0
 40
9.0
 40
9.0
 40
9.0
 40
10.0
 40
10.0
 40
10.0
 40
11.0
 40
11.0
 40
11.0
 40
12.0
 40
12.0
 40
12.0
 40
13.0
 40
13.0
 40
13.0
 40
14.0
 40
14.0
 40
14.0
 40
15.0
 40
15.0
 40
15.0
 40
16.0
 40
16.0
 40
16.0
 40
17.0
 40
17.0
 40
17.0
 40
18.0
 40
18.0
 40
18.0
 40
19.0
 40
19.0
 40
19.0
 40
20.0
 40
20.0
 40
20.0
 40
21.0
 40
21.0
 40
21.0
 40
22.0
 40
22.0
 40
22.0
 40
23.0
 40
23.0
 40
23.0
 40
24.0
 40
24.0
 40
24.0
 40
25.0
 40
25.0
 40
25.0
 40
26.0
 40
26.0
 40
26.0
 40
27.0
 40
27.0
 40
27.0
 40
28.0
 40
28.0
 40
28.0
 40
29.0
 40
29.0
 40
29.0
 40
30.0
 40
30.0
 40
30.0
 40
31.0
 40
31.0
 40
31.0
 40
32.0
 40
32.0
 40
32.0
 40
33.0
 40
33.0
 40
33.0
 40
33.0
 10
1.381048334348608
 20
-1.460892643488869
 30
0.0
 10
1.374173334830187
 20
-1.422364572367175
 30
0.0
 10
1.368485365174516
 20
-1.38476517870745
 30
0.0
 10
1.360462525119234
 20
-1.347670857458789
 30
0.0
 10
1.355636752160914
 20
-1.325358574328384
 30
0.0
 10
1.347928372553206
 20
-1.303562461329938
 30
0.0
 10
1.340203314624179
 20
-1.282004570999295
 30
0.0
 10
1.31646530266687
 20
-1.215760194169686
 30
0.0
 10
1.30826360416774
 20
-1.147148030310341
 30
0.0
 10
1.309703141923452
 20
-1.077377794053783
 30
0.0
 10
1.310987372664461
 20
-1.015135154489611
 30
0.0
 10
1.314326410424705
 20
-0.9529302219543751
 30
0.0
 10
1.317129062021459
 20
-0.8907253209467601
 30
0.0
 10
1.318955227857044
 20
-0.8501942057868442
 30
0.0
 10
1.322623796457264
 20
-0.8097092785846168
 30
0.0
 10
1.323184932114549
 20
-0.7691720785947684
 30
0.0
 10
1.323511152512689
 20
-0.7456060682796862
 30
0.0
 10
1.319075034323936
 20
-0.7219961715228843
 30
0.0
 10
1.317341529332086
 20
-0.6983649463337543
 30
0.0
 10
1.316876900936676
 20
-0.6920310955362841
 30
0.0
 10
1.317324914066805
 20
-0.6851569402166686
 30
0.0
 10
1.319354687840068
 20
-0.679214173734004
 30
0.0
 10
1.323315363523369
 20
-0.6676183007422449
 30
0.0
 10
1.332834712462183
 20
-0.6628091412266536
 30
0.0
 10
1.344703686912806
 20
-0.6614623287552174
 30
0.0
 10
1.393486767853182
 20
-0.6559266941439875
 30
0.0
 10
1.442243901235087
 20
-0.6501619483460292
 30
0.0
 10
1.491013519711929
 20
-0.6445070605266336
 30
0.0
 10
1.498518007629804
 20
-0.6436369140841027
 30
0.0
 10
1.506389860008791
 20
-0.6440357857200954
 30
0.0
 10
1.513469980809734
 20
-0.641841463634541
 30
0.0
 10
1.524645906377435
 20
-0.6383777451390717
 30
0.0
 10
1.529300639840244
 20
-0.6430473003702623
 30
0.0
 10
1.533499856504742
 20
-0.6526303084713416
 30
0.0
 10
1.5432585976812
 20
-0.6749006441084349
 30
0.0
 10
1.554696521075167
 20
-0.6964464278344673
 30
0.0
 10
1.564142378204943
 20
-0.7188390590946862
 30
0.0
 10
1.571742017679942
 20
-0.736854790220832
 30
0.0
 10
1.567252932421613
 20
-0.7446444444588249
 30
0.0
 10
1.548037173197144
 20
-0.7474638645902207
 30
0.0
 10
1.535232258015968
 20
-0.7493426267655094
 30
0.0
 10
1.521981032217594
 20
-0.7479787105623043
 30
0.0
 10
1.509060976716126
 20
-0.7493265792088676
 30
0.0
 10
1.493865859464449
 20
-0.7509117877499799
 30
0.0
 10
1.478134892025587
 20
-0.7518549679153795
 30
0.0
 10
1.463855726741308
 20
-0.7566831385835258
 30
0.0
 10
1.441884418778373
 20
-0.7641122430029933
 30
0.0
 10
1.429678662043708
 20
-0.7824010978680337
 30
0.0
 10
1.429559675305275
 20
-0.8048261868090978
 30
0.0
 10
1.42931722484991
 20
-0.8504936550852384
 30
0.0
 10
1.431672809157071
 20
-0.896177170918021
 30
0.0
 10
1.43319031570032
 20
-0.9418463101578328
 30
0.0
 10
1.433282503623786
 20
-0.9446209926018632
 30
0.0
 10
1.434634425018581
 20
-0.9484745500712961
 30
0.0
 10
1.436714202227752
 20
-0.9498757949720458
 30
0.0
 10
1.448031310258278
 20
-0.9575006228327158
 30
0.0
 10
1.458069011334487
 20
-0.9676603025611838
 30
0.0
 10
1.474622733920707
 20
-0.9618580231361875
 30
0.0
 10
1.482447420385344
 20
-0.9591154042777942
 30
0.0
 10
1.49241241785296
 20
-0.9606083314863679
 30
0.0
 10
1.500983687774439
 20
-0.9623134710793944
 30
0.0
 10
1.513242096298502
 20
-0.9647521006626599
 30
0.0
 10
1.520832151256147
 20
-0.9734068726884162
 30
0.0
 10
1.522060987270227
 20
-0.9859480224320375
 30
0.0
 10
1.524838290340843
 20
-1.014293745469217
 30
0.0
 10
1.520123590588544
 20
-1.018326884240372
 30
0.0
 10
1.499371597178386
 20
-1.026424626343605
 30
0.0
 10
1.491393810660257
 20
-1.029537663164395
 30
0.0
 10
1.48334823890429
 20
-1.032520995372263
 30
0.0
 10
1.475550540422697
 20
-1.036043638982353
 30
0.0
 10
1.440162736793139
 20
-1.052030221204063
 30
0.0
 10
1.43103436680062
 20
-1.069461083522608
 30
0.0
 10
1.433805931772023
 20
-1.108621409459007
 30
0.0
 10
1.436256541524231
 20
-1.143247181416654
 30
0.0
 10
1.436690871494735
 20
-1.178016782359274
 30
0.0
 10
1.437949722181567
 20
-1.212725219726533
 30
0.0
 10
1.438448054027793
 20
-1.226464513467526
 30
0.0
 10
1.438095759959107
 20
-1.240271402417596
 30
0.0
 10
1.439340044701806
 20
-1.253937425978607
 30
0.0
 10
1.44090925719393
 20
-1.27117243874549
 30
0.0
 10
1.450208509041847
 20
-1.278166146785628
 30
0.0
 10
1.466835376628889
 20
-1.272623087420786
 30
0.0
 10
1.486241375911567
 20
-1.266153620582346
 30
0.0
 10
1.504811504391568
 20
-1.257141073168276
 30
0.0
 10
1.52364482876251
 20
-1.249001903777399
 30
0.0
 10
1.536103692422494
 20
-1.243617554432363
 30
0.0
 10
1.548387701696848
 20
-1.23782851660615
 30
0.0
 10
1.560749963510905
 20
-1.232220699517685
 30
0.0
 10
1.561427563665221
 20
-1.232971813445361
 30
0.0
 10
1.562105226875574
 20
-1.233722864317807
 30
0.0
 10
1.56278282702989
 20
-1.234473978245482
 30
0.0
 10
1.558674474112131
 20
-1.242403173712659
 30
0.0
 10
1.555363338647465
 20
-1.250882526082035
 30
0.0
 10
1.550331719262241
 20
-1.258174674536854
 30
0.0
 10
1.509939221174464
 20
-1.316713891139796
 30
0.0
 10
1.469342106252434
 20
-1.375113188182176
 30
0.0
 10
1.428527511064999
 20
-1.433359134899496
 30
0.0
 10
1.417024892178902
 20
-1.449774303535453
 30
0.0
 10
1.4021593057672
 20
-1.461235222566187
 30
0.0
 10
1.381048334348608
 20
-1.460892643488869
 30
0.0
  0
HATCH
  5
86
330
70
100
AcDbEntity
  8
Sesh
 62
   250
420
  2301728
440
 33554687
100
AcDbHatch
 10
0.0
 20
0.0
 30
0.0
210
0.0
220
0.0
230
1.0
  2
SOLID
 70
     1
 71
     1
 91
        1
 92
        1
 93
        1
 72
     4
 94
        3
 73
     0
 74
     0
 95
      104
 96
      100
 40
0.0
 40
0.0
 40
0.0
 40
0.0
 40
1.0
 40
1.0
 40
1.0
 40
2.0
 40
2.0
 40
2.0
 40
3.0
 40
3.0
 40
3.0
 40
4.0
 40
4.0
 40
4.0
 40
5.0
 40
5.0
 40
5.0
 40
6.0
 40
6.0
 40
6.0
 40
7.0
 40
7.0
 40
7.0
 40
8.0
 40
8.0
 40
8.0
 40
9.0
 40
9.0
 40
9.0
 40
10.0
 40
10.0
 40
10.0
 40
11.0
 40
11.0
 40
11.0
 40
12.0
 40
12.0
 40
12.0
 40
13.0
 40
13.0
 40
13.0
 40
14.0
 40
14.0
 40
14.0
 40
15.0
 40
15.0
 40
15.0
 40
16.0
 40
16.0
 40
16.0
 40
17.0
 40
17.0
 40
17.0
 40
18.0
 40
18.0
 40
18.0
 40
19.0
 40
19.0
 40
19.0
 40
20.0
 40
20.0
 40
20.0
 40
21.0
 40
21.0
 40
21.0
 40
22.0
 40
22.0
 40
22.0
 40
23.0
 40
23.0
 40
23.0
 40
24.0
 40
24.0
 40
24.0
 40
25.0
 40
25.0
 40
25.0
 40
26.0
 40
26.0
 40
26.0
 40
27.0
 40
27.0
 40
27.0
 40
28.0
 40
28.0
 40
28.0
 40
29.0
 40
29.0
 40
29.0
 40
30.0
 40
30.0
 40
30.0
 40
31.0
 40
31.0
 40
31.0
 40
32.0
 40
32.0
 40
32.0
 40
33.0
 40
33.0
 40
33.0
 40
33.0
 10
1.381048334348608
 20
-1.460892643488869
 10
1.374173334830187
 20
-1.422364572367175
 10
1.368485365174516
 20
-1.38476517870745
 10
1.360462525119234
 20
-1.347670857458789
 10
1.355636752160914
 20
-1.325358574328384
 10
1.347928372553206
 20
-1.303562461329938
 10
1.340203314624179
 20
-1.282004570999295
 10
1.31646530266687
 20
-1.215760194169686
 10
1.30826360416774
 20
-1.147148030310341
 10
1.309703141923452
 20
-1.077377794053783
 10
1.310987372664461
 20
-1.015135154489611
 10
1.314326410424705
 20
-0.9529302219543751
 10
1.317129062021459
 20
-0.8907253209467601
 10
1.318955227857044
 20
-0.8501942057868442
 10
1.322623796457264
 20
-0.8097092785846168
 10
1.323184932114549
 20
-0.7691720785947684
 10
1.323511152512689
 20
-0.7456060682796862
 10
1.319075034323936
 20
-0.7219961715228843
 10
1.317341529332086
 20
-0.6983649463337543
 10
1.316876900936676
 20
-0.6920310955362841
 10
1.317324914066805
 20
-0.6851569402166686
 10
1.319354687840068
 20
-0.679214173734004
 10
1.323315363523369
 20
-0.6676183007422449
 10
1.332834712462183
 20
-0.6628091412266536
 10
1.344703686912806
 20
-0.6614623287552174
 10
1.393486767853182
 20
-0.6559266941439875
 10
1.442243901235087
 20
-0.6501619483460292
 10
1.491013519711929
 20
-0.6445070605266336
 10
1.498518007629804
 20
-0.6436369140841027
 10
1.506389860008791
 20
-0.6440357857200954
 10
1.513469980809734
 20
-0.641841463634541
 10
1.524645906377435
 20
-0.6383777451390717
 10
1.529300639840244
 20
-0.6430473003702623
 10
1.533499856504742
 20
-0.6526303084713416
 10
1.5432585976812
 20
-0.6749006441084349
 10
1.554696521075167
 20
-0.6964464278344673
 10
1.564142378204943
 20
-0.7188390590946862
 10
1.571742017679942
 20
-0.736854790220832
 10
1.567252932421613
 20
-0.7446444444588249
 10
1.548037173197144
 20
-0.7474638645902207
 10
1.535232258015968
 20
-0.7493426267655094
 10
1.521981032217594
 20
-0.7479787105623043
 10
1.509060976716126
 20
-0.7493265792088676
 10
1.493865859464449
 20
-0.7509117877499799
 10
1.478134892025587
 20
-0.7518549679153795
 10
1.463855726741308
 20
-0.7566831385835258
 10
1.441884418778373
 20
-0.7641122430029933
 10
1.429678662043708
 20
-0.7824010978680337
 10
1.429559675305275
 20
-0.8048261868090978
 10
1.42931722484991
 20
-0.8504936550852384
 10
1.431672809157071
 20
-0.896177170918021
 10
1.43319031570032
 20
-0.9418463101578328
 10
1.433282503623786
 20
-0.9446209926018632
 10
1.434634425018581
 20
-0.9484745500712961
 10
1.436714202227752
 20
-0.9498757949720458
 10
1.448031310258278
 20
-0.9575006228327158
 10
1.458069011334487
 20
-0.9676603025611838
 10
1.474622733920707
 20
-0.9618580231361875
 10
1.482447420385344
 20
-0.9591154042777942
 10
1.49241241785296
 20
-0.9606083314863679
 10
1.500983687774439
 20
-0.9623134710793944
 10
1.513242096298502
 20
-0.9647521006626599
 10
1.520832151256147
 20
-0.9734068726884162
 10
1.522060987270227
 20
-0.9859480224320375
 10
1.524838290340843
 20
-1.014293745469217
 10
1.520123590588544
 20
-1.018326884240372
 10
1.499371597178386
 20
-1.026424626343605
 10
1.491393810660257
 20
-1.029537663164395
 10
1.48334823890429
 20
-1.032520995372263
 10
1.475550540422697
 20
-1.036043638982353
 10
1.440162736793139
 20
-1.052030221204063
 10
1.43103436680062
 20
-1.069461083522608
 10
1.433805931772023
 20
-1.108621409459007
 10
1.436256541524231
 20
-1.143247181416654
 10
1.436690871494735
 20
-1.178016782359274
 10
1.437949722181567
 20
-1.212725219726533
 10
1.438448054027793
 20
-1.226464513467526
 10
1.438095759959107
 20
-1.240271402417596
 10
1.439340044701806
 20
-1.253937425978607
 10
1.44090925719393
 20
-1.27117243874549
 10
1.450208509041847
 20
-1.278166146785628
 10
1.466835376628889
 20
-1.272623087420786
 10
1.486241375911567
 20
-1.266153620582346
 10
1.504811504391568
 20
-1.257141073168276
 10
1.52364482876251
 20
-1.249001903777399
 10
1.536103692422494
 20
-1.243617554432363
 10
1.548387701696848
 20
-1.23782851660615
 10
1.560749963510905
 20
-1.232220699517685
 10
1.561427563665221
 20
-1.232971813445361
 10
1.562105226875574
 20
-1.233722864317807
 10
1.56278282702989
 20
-1.234473978245482
 10
1.558674474112131
 20
-1.242403173712659
 10
1.555363338647465
 20
-1.250882526082035
 10
1.550331719262241
 20
-1.258174674536854
 10
1.509939221174464
 20
-1.316713891139796
 10
1.469342106252434
 20
-1.375113188182176
 10
1.428527511064999
 20
-1.433359134899496
 10
1.417024892178902
 20
-1.449774303535453
 10
1.4021593057672
 20
-1.461235222566187
 10
1.381048334348608
 20
-1.460892643488869
 97
        0
 97
        1
330
85
 75
     2
 76
     1
 98
        1
 10
0.0
 20
0.0
450
        0
451
        0
460
0.0
461
0.0
452
        0
462
0.0
453
        0
470

  0
SPLINE
  5
87
330
70
100
AcDbEntity
  8
Sesh
100
AcDbSpline
210
0.0
220
0.0
230
1.0
 70
     9
 71
     3
 72
    83
 73
    79
 74
     0
 42
0.0000000001
 43
0.0000000001
 40
0.0
 40
0.0
 40
0.0
 40
0.0
 40
1.0
 40
1.0
 40
1.0
 40
2.0
 40
2.0
 40
2.0
 40
3.0
 40
3.0
 40
3.0
 40
4.0
 40
4.0
 40
4.0
 40
5.0
 40
5.0
 40
5.0
 40
6.0
 40
6.0
 40
6.0
 40
7.0
 40
7.0
 40
7.0
 40
8.0
 40
8.0
 40
8.0
 40
9.0
 40
9.0
 40
9.0
 40
10.0
 40
10.0
 40
10.0
 40
11.0
 40
11.0
 40
11.0
 40
12.0
 40
12.0
 40
12.0
 40
13.0
 40
13.0
 40
13.0
 40
14.0
 40
14.0
 40
14.0
 40
15.0
 40
15.0
 40
15.0
 40
16.0
 40
16.0
 40
16.0
 40
17.0
 40
17.0
 40
17.0
 40
18.0
 40
18.0
 40
18.0
 40
19.0
 40
19.0
 40
19.0
 40
20.0
 40
20.0
 40
20.0
 40
21.0
 40
21.0
 40
21.0
 40
22.0
 40
22.0
 40
22.0
 40
23.0
 40
23.0
 40
23.0
 40
24.0
 40
24.0
 40
24.0
 40
25.0
 40
25.0
 40
25.0
 40
26.0
 40
26.0
 40
26.0
 40
26.0
 10
1.047747421313387
 20
-1.615096925559605
 30
0.0
 10
1.050286577503041
 20
-1.598843178318449
 30
0.0
 10
1.05614118849577
 20
-1.586261767808966
 30
0.0
 10
1.067550027293501
 20
-1.576870447614207
 30
0.0
 10
1.082143857957463
 20
-1.564857164748142
 30
0.0
 10
1.098630110586011
 20
-1.554900113008797
 30
0.0
 10
1.112039402100625
 20
-1.541750827076839
 30
0.0
 10
1.129610975207116
 20
-1.52452010206577
 30
0.0
 10
1.146332994351294
 20
-1.50604201844846
 30
0.0
 10
1.160948311359245
 20
-1.486272815893698
 30
0.0
 10
1.179803768398553
 20
-1.460768235515451
 30
0.0
 10
1.180683715369847
 20
-1.431507328836043
 30
0.0
 10
1.165230383653996
 20
-1.404613011136941
 30
0.0
 10
1.14252176147142
 20
-1.365091946216314
 30
0.0
 10
1.119553253839727
 20
-1.325222564192219
 30
0.0
 10
1.091923864781796
 20
-1.289156989059241
 30
0.0
 10
1.060005372681189
 20
-1.247492865956953
 30
0.0
 10
1.045287778784123
 20
-1.201388456448285
 30
0.0
 10
1.04034543098074
 20
-1.150590026278273
 30
0.0
 10
1.035289503493926
 20
-1.098624191536651
 30
0.0
 10
1.039498020923613
 20
-1.047746942326221
 30
0.0
 10
1.057020158098503
 20
-0.9983088026835451
 30
0.0
 10
1.066927790338089
 20
-0.9703547472220684
 30
0.0
 10
1.082288808018385
 20
-0.9461416641126763
 30
0.0
 10
1.103721144520414
 20
-0.9252208207943921
 30
0.0
 10
1.114088943940916
 20
-0.9151005190585186
 30
0.0
 10
1.121445533928218
 20
-0.9018121963392406
 30
0.0
 10
1.129706315932341
 20
-0.8896464774489913
 30
0.0
 10
1.135099404039402
 20
-0.8817040719106266
 30
0.0
 10
1.139443681112867
 20
-0.8730573078993806
 30
0.0
 10
1.144649997243643
 20
-0.8649787976420132
 30
0.0
 10
1.156959922548468
 20
-0.8458778229120046
 30
0.0
 10
1.169806013320655
 20
-0.8405174345552698
 30
0.0
 10
1.192071698383933
 20
-0.8455700818505595
 30
0.0
 10
1.222780271281029
 20
-0.8525386939082231
 30
0.0
 10
1.241933005998298
 20
-0.8735787116156263
 30
0.0
 10
1.255117486983408
 20
-0.9003761134226174
 30
0.0
 10
1.260263206264337
 20
-0.9108347380076287
 30
0.0
 10
1.256982810616856
 20
-0.922399981920282
 30
0.0
 10
1.249021450195894
 20
-0.9310406926292291
 30
0.0
 10
1.228257759891183
 20
-0.9535762543373493
 30
0.0
 10
1.206529659056046
 20
-0.9750420209735466
 30
0.0
 10
1.180156882195698
 20
-0.9913103024457541
 30
0.0
 10
1.133712990993343
 20
-1.0199596994819
 30
0.0
 10
1.113131690270468
 20
-1.06345532486283
 30
0.0
 10
1.111111028094304
 20
-1.116420080595225
 30
0.0
 10
1.110355490680477
 20
-1.136223396030686
 30
0.0
 10
1.110638738390611
 20
-1.156537963289995
 30
0.0
 10
1.114198629914161
 20
-1.175931041383819
 30
0.0
 10
1.120615306640691
 20
-1.210886844427566
 30
0.0
 10
1.141649318168308
 20
-1.237642125339347
 30
0.0
 10
1.171531100331789
 20
-1.255547352170803
 30
0.0
 10
1.196980516140607
 20
-1.270796566505497
 30
0.0
 10
1.224682703391181
 20
-1.282283149015787
 30
0.0
 10
1.251369341666759
 20
-1.295472727241215
 30
0.0
 10
1.25842969440066
 20
-1.298962266854333
 30
0.0
 10
1.265824843153495
 20
-1.301979648887658
 30
0.0
 10
1.272358110489133
 20
-1.306287708471826
 30
0.0
 10
1.285844409186741
 20
-1.315180703165373
 30
0.0
 10
1.294474005940779
 20
-1.326831859832092
 30
0.0
 10
1.295142809778187
 20
-1.344221736249601
 30
0.0
 10
1.29757160214222
 20
-1.407375460865902
 30
0.0
 10
1.275415004019843
 20
-1.462545195018126
 30
0.0
 10
1.241018062927474
 20
-1.513721893526962
 30
0.0
 10
1.219935750476881
 20
-1.545088844966635
 30
0.0
 10
1.198410406322939
 20
-1.57611706369817
 30
0.0
 10
1.186598623696227
 20
-1.612527550952083
 30
0.0
 10
1.183853794483752
 20
-1.620988554248823
 30
0.0
 10
1.181658372506022
 20
-1.629626112196168
 30
0.0
 10
1.179066454178913
 20
-1.638138694672989
 30
0.0
 10
1.172041097544529
 20
-1.661211739181605
 30
0.0
 10
1.157932814115648
 20
-1.672869390537243
 30
0.0
 10
1.133979371214056
 20
-1.67285589671754
 30
0.0
 10
1.105293951206527
 20
-1.67283975457806
 30
0.0
 10
1.079630538978247
 20
-1.663876074969039
 30
0.0
 10
1.061176827703244
 20
-1.640718788670003
 30
0.0
 10
1.055275697120552
 20
-1.633313456073134
 30
0.0
 10
1.052145469420881
 20
-1.623700055350076
 30
0.0
 10
1.047747421313387
 20
-1.615096925559605
 30
0.0
  0
HATCH
  5
88
330
70
100
AcDbEntity
  8
Sesh
 62
   250
420
  2301728
440
 33554687
100
AcDbHatch
 10
0.0
 20
0.0
 30
0.0
210
0.0
220
0.0
230
1.0
  2
SOLID
 70
     1
 71
     1
 91
        1
 92
        1
 93
        1
 72
     4
 94
        3
 73
     0
 74
     0
 95
       83
 96
       79
 40
0.0
 40
0.0
 40
0.0
 40
0.0
 40
1.0
 40
1.0
 40
1.0
 40
2.0
 40
2.0
 40
2.0
 40
3.0
 40
3.0
 40
3.0
 40
4.0
 40
4.0
 40
4.0
 40
5.0
 40
5.0
 40
5.0
 40
6.0
 40
6.0
 40
6.0
 40
7.0
 40
7.0
 40
7.0
 40
8.0
 40
8.0
 40
8.0
 40
9.0
 40
9.0
 40
9.0
 40
10.0
 40
10.0
 40
10.0
 40
11.0
 40
11.0
 40
11.0
 40
12.0
 40
12.0
 40
12.0
 40
13.0
 40
13.0
 40
13.0
 40
14.0
 40
14.0
 40
14.0
 40
15.0
 40
15.0
 40
15.0
 40
16.0
 40
16.0
 40
16.0
 40
17.0
 40
17.0
 40
17.0
 40
18.0
 40
18.0
 40
18.0
 40
19.0
 40
19.0
 40
19.0
 40
20.0
 40
20.0
 40
20.0
 40
21.0
 40
21.0
 40
21.0
 40
22.0
 40
22.0
 40
22.0
 40
23.0
 40
23.0
 40
23.0
 40
24.0
 40
24.0
 40
24.0
 40
25.0
 40
25.0
 40
25.0
 40
26.0
 40
26.0
 40
26.0
 40
26.0
 10
1.047747421313387
 20
-1.615096925559605
 10
1.050286577503041
 20
-1.598843178318449
 10
1.05614118849577
 20
-1.586261767808966
 10
1.067550027293501
 20
-1.576870447614207
 10
1.082143857957463
 20
-1.564857164748142
 10
1.098630110586011
 20
-1.554900113008797
 10
1.112039402100625
 20
-1.541750827076839
 10
1.129610975207116
 20
-1.52452010206577
 10
1.146332994351294
 20
-1.50604201844846
 10
1.160948311359245
 20
-1.486272815893698
 10
1.179803768398553
 20
-1.460768235515451
 10
1.180683715369847
 20
-1.431507328836043
 10
1.165230383653996
 20
-1.404613011136941
 10
1.14252176147142
 20
-1.365091946216314
 10
1.119553253839727
 20
-1.325222564192219
 10
1.091923864781796
 20
-1.289156989059241
 10
1.060005372681189
 20
-1.247492865956953
 10
1.045287778784123
 20
-1.201388456448285
 10
1.04034543098074
 20
-1.150590026278273
 10
1.035289503493926
 20
-1.098624191536651
 10
1.039498020923613
 20
-1.047746942326221
 10
1.057020158098503
 20
-0.9983088026835451
 10
1.066927790338089
 20
-0.9703547472220684
 10
1.082288808018385
 20
-0.9461416641126763
 10
1.103721144520414
 20
-0.9252208207943921
 10
1.114088943940916
 20
-0.9151005190585186
 10
1.121445533928218
 20
-0.9018121963392406
 10
1.129706315932341
 20
-0.8896464774489913
 10
1.135099404039402
 20
-0.8817040719106266
 10
1.139443681112867
 20
-0.8730573078993806
 10
1.144649997243643
 20
-0.8649787976420132
 10
1.156959922548468
 20
-0.8458778229120046
 10
1.169806013320655
 20
-0.8405174345552698
 10
1.192071698383933
 20
-0.8455700818505595
 10
1.222780271281029
 20
-0.8525386939082231
 10
1.241933005998298
 20
-0.8735787116156263
 10
1.255117486983408
 20
-0.9003761134226174
 10
1.260263206264337
 20
-0.9108347380076287
 10
1.256982810616856
 20
-0.922399981920282
 10
1.249021450195894
 20
-0.9310406926292291
 10
1.228257759891183
 20
-0.9535762543373493
 10
1.206529659056046
 20
-0.9750420209735466
 10
1.180156882195698
 20
-0.9913103024457541
 10
1.133712990993343
 20
-1.0199596994819
 10
1.113131690270468
 20
-1.06345532486283
 10
1.111111028094304
 20
-1.116420080595225
 10
1.110355490680477
 20
-1.136223396030686
 10
1.110638738390611
 20
-1.156537963289995
 10
1.114198629914161
 20
-1.175931041383819
 10
1.120615306640691
 20
-1.210886844427566
 10
1.141649318168308
 20
-1.237642125339347
 10
1.171531100331789
 20
-1.255547352170803
 10
1.196980516140607
 20
-1.270796566505497
 10
1.224682703391181
 20
-1.282283149015787
 10
1.251369341666759
 20
-1.295472727241215
 10
1.25842969440066
 20
-1.298962266854333
 10
1.265824843153495
 20
-1.301979648887658
 10
1.272358110489133
 20
-1.306287708471826
 10
1.285844409186741
 20
-1.315180703165373
 10
1.294474005940779
 20
-1.326831859832092
 10
1.295142809778187
 20
-1.344221736249601
 10
1.29757160214222
 20
-1.407375460865902
 10
1.275415004019843
 20
-1.462545195018126
 10
1.241018062927474
 20
-1.513721893526962
 10
1.219935750476881
 20
-1.545088844966635
 10
1.198410406322939
 20
-1.57611706369817
 10
1.186598623696227
 20
-1.612527550952083
 10
1.183853794483752
 20
-1.620988554248823
 10
1.181658372506022
 20
-1.629626112196168
 10
1.179066454178913
 20
-1.638138694672989
 10
1.172041097544529
 20
-1.661211739181605
 10
1.157932814115648
 20
-1.672869390537243
 10
1.133979371214056
 20
-1.67285589671754
 10
1.105293951206527
 20
-1.67283975457806
 10
1.079630538978247
 20
-1.663876074969039
 10
1.061176827703244
 20
-1.640718788670003
 10
1.055275697120552
 20
-1.633313456073134
 10
1.052145469420881
 20
-1.623700055350076
 10
1.047747421313387
 20
-1.615096925559605
 97
        0
 97
        1
330
87
 75
     2
 76
     1
 98
        1
 10
0.0
 20
0.0
450
        0
451
        0
460
0.0
461
0.0
452
        0
462
0.0
453
        0
470

  0
SPLINE
  5
89
330
70
100
AcDbEntity
  8
Sesh
100
AcDbSpline
210
0.0
220
0.0
230
1.0
 70
     9
 71
     3
 72
    71
 73
    67
 74
     0
 42
0.0000000001
 43
0.0000000001
 40
0.0
 40
0.0
 40
0.0
 40
0.0
 40
1.0
 40
1.0
 40
1.0
 40
2.0
 40
2.0
 40
2.0
 40
3.0
 40
3.0
 40
3.0
 40
4.0
 40
4.0
 40
4.0
 40
5.0
 40
5.0
 40
5.0
 40
6.0
 40
6.0
 40
6.0
 40
7.0
 40
7.0
 40
7.0
 40
8.0
 40
8.0
 40
8.0
 40
9.0
 40
9.0
 40
9.0
 40
10.0
 40
10.0
 40
10.0
 40
11.0
 40
11.0
 40
11.0
 40
12.0
 40
12.0
 40
12.0
 40
13.0
 40
13.0
 40
13.0
 40
14.0
 40
14.0
 40
14.0
 40
15.0
 40
15.0
 40
15.0
 40
16.0
 40
16.0
 40
16.0
 40
17.0
 40
17.0
 40
17.0
 40
18.0
 40
18.0
 40
18.0
 40
19.0
 40
19.0
 40
19.0
 40
20.0
 40
20.0
 40
20.0
 40
21.0
 40
21.0
 40
21.0
 40
22.0
 40
22.0
 40
22.0
 40
22.0
 10
1.721206701560479
 20
-1.38233805670408
 30
0.0
 10
1.687667511714986
 20
-1.381063962679351
 30
0.0
 10
1.662105666995406
 20
-1.363935828531301
 30
0.0
 10
1.640560176438232
 20
-1.340127496958315
 30
0.0
 10
1.633589710082484
 20
-1.332424985051412
 30
0.0
 10
1.636022916369003
 20
-1.32191222754942
 30
0.0
 10
1.639188896840626
 20
-1.312549093043521
 30
0.0
 10
1.644027501702086
 20
-1.298239464725977
 30
0.0
 10
1.653840092732631
 20
-1.287885732519965
 30
0.0
 10
1.666087025058282
 20
-1.279614714638253
 30
0.0
 10
1.682870713004856
 20
-1.268279906072204
 30
0.0
 10
1.700635300635111
 20
-1.258180286452531
 30
0.0
 10
1.716355233267828
 20
-1.245532541838631
 30
0.0
 10
1.749745169477945
 20
-1.218667923153967
 30
0.0
 10
1.770827135120346
 20
-1.184436309453695
 30
0.0
 10
1.769638465800704
 20
-1.140161825842862
 30
0.0
 10
1.768963513999854
 20
-1.115023533309289
 30
0.0
 10
1.759760044269417
 20
-1.091499391668485
 30
0.0
 10
1.746222354903087
 20
-1.070710396841023
 30
0.0
 10
1.730338854915089
 20
-1.046318993534568
 30
0.0
 10
1.713584298856757
 20
-1.022120728404767
 30
0.0
 10
1.694349559765694
 20
-1.000365475196897
 30
0.0
 10
1.657209302805692
 20
-0.9583582370478072
 30
0.0
 10
1.629715736447602
 20
-0.9117147683578346
 30
0.0
 10
1.624349730907662
 20
-0.8554882915667828
 30
0.0
 10
1.618047658525117
 20
-0.7894527221390666
 30
0.0
 10
1.624399734343581
 20
-0.7251221031386877
 30
0.0
 10
1.664157888717201
 20
-0.6683039475749411
 30
0.0
 10
1.683454107442609
 20
-0.640727892467554
 30
0.0
 10
1.702654354882396
 20
-0.6130573333306934
 30
0.0
 10
1.720899618669035
 20
-0.5847852588048883
 30
0.0
 10
1.729452602340289
 20
-0.5715319238576563
 30
0.0
 10
1.740260280662369
 20
-0.5667845584697614
 30
0.0
 10
1.754884551627355
 20
-0.5702866697198235
 30
0.0
 10
1.780376404147874
 20
-0.5763912911020018
 30
0.0
 10
1.802097947155339
 20
-0.5888645067146854
 30
0.0
 10
1.817565466479107
 20
-0.6105254450587836
 30
0.0
 10
1.828111020862858
 20
-0.6252935952621278
 30
0.0
 10
1.827130877851636
 20
-0.644064948765049
 30
0.0
 10
1.814050596964685
 20
-0.6566663320193761
 30
0.0
 10
1.794781681502551
 20
-0.6752297136022208
 30
0.0
 10
1.775605269244073
 20
-0.6942132952534116
 30
0.0
 10
1.754333946327935
 20
-0.7102999934202848
 30
0.0
 10
1.720234566665693
 20
-0.7360880701231483
 30
0.0
 10
1.70413194695536
 20
-0.7695438207170532
 30
0.0
 10
1.701530822447112
 20
-0.8115571121684297
 30
0.0
 10
1.6990017709871
 20
-0.8524066877793075
 30
0.0
 10
1.704237754982437
 20
-0.8910772321984772
 30
0.0
 10
1.726646230437432
 20
-0.9261086069381764
 30
0.0
 10
1.745384024915059
 20
-0.9554015772032345
 30
0.0
 10
1.771538154973313
 20
-0.9769705021995427
 30
0.0
 10
1.800661719841476
 20
-0.9952214923975537
 30
0.0
 10
1.812292594703194
 20
-1.002510298925054
 30
0.0
 10
1.824207410891403
 20
-1.009346305829101
 30
0.0
 10
1.835831286533195
 20
-1.016645894801323
 30
0.0
 10
1.870963587108134
 20
-1.038708479211651
 30
0.0
 10
1.876210479797565
 20
-1.052792622018336
 30
0.0
 10
1.868424257514384
 20
-1.093127351657118
 30
0.0
 10
1.860703676563844
 20
-1.133122276648805
 30
0.0
 10
1.846960928971055
 20
-1.170865877624906
 30
0.0
 10
1.830858057036594
 20
-1.208080445201656
 30
0.0
 10
1.81072590445246
 20
-1.254606820325168
 30
0.0
 10
1.791534043465364
 20
-1.301543874176938
 30
0.0
 10
1.772283855645658
 20
-1.348446310706145
 30
0.0
 10
1.762818325032892
 20
-1.371508572770039
 30
0.0
 10
1.746176450109462
 20
-1.382909274053885
 30
0.0
 10
1.721206701560479
 20
-1.38233805670408
 30
0.0
  0
HATCH
  5
8A
330
70
100
AcDbEntity
  8
Sesh
 62
   250
420
  2301728
440
 33554687
100
AcDbHatch
 10
0.0
 20
0.0
 30
0.0
210
0.0
220
0.0
230
1.0
  2
SOLID
 70
     1
 71
     1
 91
        1
 92
        1
 93
        1
 72
     4
 94
        3
 73
     0
 74
     0
 95
       71
 96
       67
 40
0.0
 40
0.0
 40
0.0
 40
0.0
 40
1.0
 40
1.0
 40
1.0
 40
2.0
 40
2.0
 40
2.0
 40
3.0
 40
3.0
 40
3.0
 40
4.0
 40
4.0
 40
4.0
 40
5.0
 40
5.0
 40
5.0
 40
6.0
 40
6.0
 40
6.0
 40
7.0
 40
7.0
 40
7.0
 40
8.0
 40
8.0
 40
8.0
 40
9.0
 40
9.0
 40
9.0
 40
10.0
 40
10.0
 40
10.0
 40
11.0
 40
11.0
 40
11.0
 40
12.0
 40
12.0
 40
12.0
 40
13.0
 40
13.0
 40
13.0
 40
14.0
 40
14.0
 40
14.0
 40
15.0
 40
15.0
 40
15.0
 40
16.0
 40
16.0
 40
16.0
 40
17.0
 40
17.0
 40
17.0
 40
18.0
 40
18.0
 40
18.0
 40
19.0
 40
19.0
 40
19.0
 40
20.0
 40
20.0
 40
20.0
 40
21.0
 40
21.0
 40
21.0
 40
22.0
 40
22.0
 40
22.0
 40
22.0
 10
1.721206701560479
 20
-1.38233805670408
 10
1.687667511714986
 20
-1.381063962679351
 10
1.662105666995406
 20
-1.363935828531301
 10
1.640560176438232
 20
-1.340127496958315
 10
1.633589710082484
 20
-1.332424985051412
 10
1.636022916369003
 20
-1.32191222754942
 10
1.639188896840626
 20
-1.312549093043521
 10
1.644027501702086
 20
-1.298239464725977
 10
1.653840092732631
 20
-1.287885732519965
 10
1.666087025058282
 20
-1.279614714638253
 10
1.682870713004856
 20
-1.268279906072204
 10
1.700635300635111
 20
-1.258180286452531
 10
1.716355233267828
 20
-1.245532541838631
 10
1.749745169477945
 20
-1.218667923153967
 10
1.770827135120346
 20
-1.184436309453695
 10
1.769638465800704
 20
-1.140161825842862
 10
1.768963513999854
 20
-1.115023533309289
 10
1.759760044269417
 20
-1.091499391668485
 10
1.746222354903087
 20
-1.070710396841023
 10
1.730338854915089
 20
-1.046318993534568
 10
1.713584298856757
 20
-1.022120728404767
 10
1.694349559765694
 20
-1.000365475196897
 10
1.657209302805692
 20
-0.9583582370478072
 10
1.629715736447602
 20
-0.9117147683578346
 10
1.624349730907662
 20
-0.8554882915667828
 10
1.618047658525117
 20
-0.7894527221390666
 10
1.624399734343581
 20
-0.7251221031386877
 10
1.664157888717201
 20
-0.6683039475749411
 10
1.683454107442609
 20
-0.640727892467554
 10
1.702654354882396
 20
-0.6130573333306934
 10
1.720899618669035
 20
-0.5847852588048883
 10
1.729452602340289
 20
-0.5715319238576563
 10
1.740260280662369
 20
-0.5667845584697614
 10
1.754884551627355
 20
-0.5702866697198235
 10
1.780376404147874
 20
-0.5763912911020018
 10
1.802097947155339
 20
-0.5888645067146854
 10
1.817565466479107
 20
-0.6105254450587836
 10
1.828111020862858
 20
-0.6252935952621278
 10
1.827130877851636
 20
-0.644064948765049
 10
1.814050596964685
 20
-0.6566663320193761
 10
1.794781681502551
 20
-0.6752297136022208
 10
1.775605269244073
 20
-0.6942132952534116
 10
1.754333946327935
 20
-0.7102999934202848
 10
1.720234566665693
 20
-0.7360880701231483
 10
1.70413194695536
 20
-0.7695438207170532
 10
1.701530822447112
 20
-0.8115571121684297
 10
1.6990017709871
 20
-0.8524066877793075
 10
1.704237754982437
 20
-0.8910772321984772
 10
1.726646230437432
 20
-0.9261086069381764
 10
1.745384024915059
 20
-0.9554015772032345
 10
1.771538154973313
 20
-0.9769705021995427
 10
1.800661719841476
 20
-0.9952214923975537
 10
1.812292594703194
 20
-1.002510298925054
 10
1.824207410891403
 20
-1.009346305829101
 10
1.835831286533195
 20
-1.016645894801323
 10
1.870963587108134
 20
-1.038708479211651
 10
1.876210479797565
 20
-1.052792622018336
 10
1.868424257514384
 20
-1.093127351657118
 10
1.860703676563844
 20
-1.133122276648805
 10
1.846960928971055
 20
-1.170865877624906
 10
1.830858057036594
 20
-1.208080445201656
 10
1.81072590445246
 20
-1.254606820325168
 10
1.791534043465364
 20
-1.301543874176938
 10
1.772283855645658
 20
-1.348446310706145
 10
1.762818325032892
 20
-1.371508572770039
 10
1.746176450109462
 20
-1.382909274053885
 10
1.721206701560479
 20
-1.38233805670408
 97
        0
 97
        1
330
89
 75
     2
 76
     1
 98
        1
 10
0.0
 20
0.0
450
        0
451
        0
460
0.0
461
0.0
452
        0
462
0.0
453
        0
470

  0
SPLINE
  5
8B
330
70
100
AcDbEntity
  8
Sesh
100
AcDbSpline
210
0.0
220
0.0
230
1.0
 70
     9
 71
     3
 72
   104
 73
   100
 74
     0
 42
0.0000000001
 43
0.0000000001
 40
0.0
 40
0.0
 40
0.0
 40
0.0
 40
1.0
 40
1.0
 40
1.0
 40
2.0
 40
2.0
 40
2.0
 40
3.0
 40
3.0
 40
3.0
 40
4.0
 40
4.0
 40
4.0
 40
5.0
 40
5.0
 40
5.0
 40
6.0
 40
6.0
 40
6.0
 40
7.0
 40
7.0
 40
7.0
 40
8.0
 40
8.0
 40
8.0
 40
9.0
 40
9.0
 40
9.0
 40
10.0
 40
10.0
 40
10.0
 40
11.0
 40
11.0
 40
11.0
 40
12.0
 40
12.0
 40
12.0
 40
13.0
 40
13.0
 40
13.0
 40
14.0
 40
14.0
 40
14.0
 40
15.0
 40
15.0
 40
15.0
 40
16.0
 40
16.0
 40
16.0
 40
17.0
 40
17.0
 40
17.0
 40
18.0
 40
18.0
 40
18.0
 40
19.0
 40
19.0
 40
19.0
 40
20.0
 40
20.0
 40
20.0
 40
21.0
 40
21.0
 40
21.0
 40
22.0
 40
22.0
 40
22.0
 40
23.0
 40
23.0
 40
23.0
 40
24.0
 40
24.0
 40
24.0
 40
25.0
 40
25.0
 40
25.0
 40
26.0
 40
26.0
 40
26.0
 40
27.0
 40
27.0
 40
27.0
 40
28.0
 40
28.0
 40
28.0
 40
29.0
 40
29.0
 40
29.0
 40
30.0
 40
30.0
 40
30.0
 40
31.0
 40
31.0
 40
31.0
 40
32.0
 40
32.0
 40
32.0
 40
33.0
 40
33.0
 40
33.0
 40
33.0
 10
1.789790228811751
 20
-2.146176593320584
 30
0.0
 10
1.789790228811751
 20
-2.190466966849978
 30
0.0
 10
1.788539890689687
 20
-2.231951634761015
 30
0.0
 10
1.790158476057336
 20
-2.273324064358474
 30
0.0
 10
1.791637392307064
 20
-2.311125045595998
 30
0.0
 10
1.769787593323952
 20
-2.334557631039438
 30
0.0
 10
1.74446807294766
 20
-2.356663408283919
 30
0.0
 10
1.721939412689557
 20
-2.376332731350657
 30
0.0
 10
1.698916267003343
 20
-2.3954345573263
 30
0.0
 10
1.676209977894056
 20
-2.414901977539077
 30
0.0
 10
1.654575263047061
 20
-2.433450430795649
 30
0.0
 10
1.631805476510332
 20
-2.436194594507242
 30
0.0
 10
1.605748704970425
 20
-2.423469039736624
 30
0.0
 10
1.588324809098392
 20
-2.414959610021418
 30
0.0
 10
1.569385361420194
 20
-2.40944353829602
 30
0.0
 10
1.55091183478612
 20
-2.403217842985845
 30
0.0
 10
1.520096413437386
 20
-2.392832646218872
 30
0.0
 10
1.498536546104156
 20
-2.369771708314854
 30
0.0
 10
1.475596697440475
 20
-2.348682129194836
 30
0.0
 10
1.472846004016724
 20
-2.346153488267393
 30
0.0
 10
1.471945753002096
 20
-2.340511432187768
 30
0.0
 10
1.471914729432771
 20
-2.336299847109103
 30
0.0
 10
1.471677008180045
 20
-2.303966637288997
 30
0.0
 10
1.471573848506459
 20
-2.271624725846802
 30
0.0
 10
1.47217382668143
 20
-2.239299460985976
 30
0.0
 10
1.472291867579327
 20
-2.232939836362295
 30
0.0
 10
1.475635981350415
 20
-2.22663998809887
 30
0.0
 10
1.477492351026853
 20
-2.220312647754124
 30
0.0
 10
1.478417320007275
 20
-2.220382134620169
 30
0.0
 10
1.479342352043747
 20
-2.220451621486214
 30
0.0
 10
1.480267384080194
 20
-2.220521108352259
 30
0.0
 10
1.485885992097147
 20
-2.247111878162867
 30
0.0
 10
1.491740303573717
 20
-2.273655987101518
 30
0.0
 10
1.497003464720213
 20
-2.300317000440953
 30
0.0
 10
1.499016024195864
 20
-2.310511896516699
 30
0.0
 10
1.502880854705659
 20
-2.319704718840032
 30
0.0
 10
1.513425715473027
 20
-2.32171416298436
 30
0.0
 10
1.52551765606414
 20
-2.324018327284647
 30
0.0
 10
1.538385059776222
 20
-2.324741192468233
 30
0.0
 10
1.546962887525359
 20
-2.312329148312831
 30
0.0
 10
1.550267654330456
 20
-2.307547165602373
 30
0.0
 10
1.55376619233175
 20
-2.302899238315881
 30
0.0
 10
1.557873851633126
 20
-2.29722716794567
 30
0.0
 10
1.563153344292749
 20
-2.303380097517724
 30
0.0
 10
1.567913318278316
 20
-2.308927444638382
 30
0.0
 10
1.573179632226596
 20
-2.315065114844199
 30
0.0
 10
1.579956327386121
 20
-2.309658885333545
 30
0.0
 10
1.586313132407225
 20
-2.304587731327576
 30
0.0
 10
1.593001990509732
 20
-2.299251619235266
 30
0.0
 10
1.597521090440813
 20
-2.304361236932991
 30
0.0
 10
1.601404774705138
 20
-2.309601757293042
 30
0.0
 10
1.606135364578297
 20
-2.313913095749285
 30
0.0
 10
1.614365249125183
 20
-2.321414146188872
 30
0.0
 10
1.621873331237048
 20
-2.320050765955127
 30
0.0
 10
1.626983077049898
 20
-2.310232561837412
 30
0.0
 10
1.629777405250024
 20
-2.304863282692899
 30
0.0
 10
1.631596130473452
 20
-2.298986282817572
 30
0.0
 10
1.634597849973362
 20
-2.291480061848965
 30
0.0
 10
1.640531675110297
 20
-2.296499384453959
 30
0.0
 10
1.645927380042823
 20
-2.300451308085838
 30
0.0
 10
1.650589995510042
 20
-2.3051332851978
 30
0.0
 10
1.660715029194989
 20
-2.315300563081791
 30
0.0
 10
1.667237860756813
 20
-2.314384244445363
 30
0.0
 10
1.672933712416882
 20
-2.301392092152405
 30
0.0
 10
1.674852696736277
 20
-2.297014924033596
 30
0.0
 10
1.675561194347841
 20
-2.291744263272474
 30
0.0
 10
1.67847192398896
 20
-2.288259074470387
 30
0.0
 10
1.681900028398912
 20
-2.284154178844826
 30
0.0
 10
1.687602563998754
 20
-2.278321191521677
 30
0.0
 10
1.691469538413735
 20
-2.278901047438314
 30
0.0
 10
1.702383907547401
 20
-2.28053783515947
 30
0.0
 10
1.708071309698778
 20
-2.274646837022575
 30
0.0
 10
1.714166684397923
 20
-2.267990096144078
 30
0.0
 10
1.715487456111304
 20
-2.266548022980385
 30
0.0
 10
1.717207246415505
 20
-2.265471165722424
 30
0.0
 10
1.719256063111414
 20
-2.263810417012968
 30
0.0
 10
1.721613349931506
 20
-2.268347114869609
 30
0.0
 10
1.723196056415165
 20
-2.272586065919111
 30
0.0
 10
1.725798063707896
 20
-2.27606204865727
 30
0.0
 10
1.72835202230183
 20
-2.279473588947995
 30
0.0
 10
1.73360383336199
 20
-2.28519459017851
 30
0.0
 10
1.73479180906525
 20
-2.284554705680673
 30
0.0
 10
1.74009734386742
 20
-2.281697420882285
 30
0.0
 10
1.745798366122395
 20
-2.277706529116787
 30
0.0
 10
1.748583803421549
 20
-2.272609900796952
 30
0.0
 10
1.750947206677084
 20
-2.268285572962844
 30
0.0
 10
1.750011581226696
 20
-2.261854569816124
 30
0.0
 10
1.749664836089095
 20
-2.256411011607926
 30
0.0
 10
1.748717229992053
 20
-2.241536534519051
 30
0.0
 10
1.751491884709164
 20
-2.22946549306016
 30
0.0
 10
1.765150893887216
 20
-2.219795847069841
 30
0.0
 10
1.771747627122269
 20
-2.215125850452043
 30
0.0
 10
1.775322399870118
 20
-2.204628919813356
 30
0.0
 10
1.777802772070951
 20
-2.196057695970466
 30
0.0
 10
1.781785706534694
 20
-2.182294504296401
 30
0.0
 10
1.783684386810768
 20
-2.167931783473224
 30
0.0
 10
1.78657664103356
 20
-2.153845496788638
 30
0.0
 10
1.786944572998992
 20
-2.152053467085452
 30
0.0
 10
1.787990483454905
 20
-2.150400411114333
 30
0.0
 10
1.789790228811751
 20
-2.146176593320584
 30
0.0
  0
HATCH
  5
8C
330
70
100
AcDbEntity
  8
Sesh
 62
   250
420
  2301728
440
 33554687
100
AcDbHatch
 10
0.0
 20
0.0
 30
0.0
210
0.0
220
0.0
230
1.0
  2
SOLID
 70
     1
 71
     1
 91
        1
 92
        1
 93
        1
 72
     4
 94
        3
 73
     0
 74
     0
 95
      104
 96
      100
 40
0.0
 40
0.0
 40
0.0
 40
0.0
 40
1.0
 40
1.0
 40
1.0
 40
2.0
 40
2.0
 40
2.0
 40
3.0
 40
3.0
 40
3.0
 40
4.0
 40
4.0
 40
4.0
 40
5.0
 40
5.0
 40
5.0
 40
6.0
 40
6.0
 40
6.0
 40
7.0
 40
7.0
 40
7.0
 40
8.0
 40
8.0
 40
8.0
 40
9.0
 40
9.0
 40
9.0
 40
10.0
 40
10.0
 40
10.0
 40
11.0
 40
11.0
 40
11.0
 40
12.0
 40
12.0
 40
12.0
 40
13.0
 40
13.0
 40
13.0
 40
14.0
 40
14.0
 40
14.0
 40
15.0
 40
15.0
 40
15.0
 40
16.0
 40
16.0
 40
16.0
 40
17.0
 40
17.0
 40
17.0
 40
18.0
 40
18.0
 40
18.0
 40
19.0
 40
19.0
 40
19.0
 40
20.0
 40
20.0
 40
20.0
 40
21.0
 40
21.0
 40
21.0
 40
22.0
 40
22.0
 40
22.0
 40
23.0
 40
23.0
 40
23.0
 40
24.0
 40
24.0
 40
24.0
 40
25.0
 40
25.0
 40
25.0
 40
26.0
 40
26.0
 40
26.0
 40
27.0
 40
27.0
 40
27.0
 40
28.0
 40
28.0
 40
28.0
 40
29.0
 40
29.0
 40
29.0
 40
30.0
 40
30.0
 40
30.0
 40
31.0
 40
31.0
 40
31.0
 40
32.0
 40
32.0
 40
32.0
 40
33.0
 40
33.0
 40
33.0
 40
33.0
 10
1.789790228811751
 20
-2.146176593320584
 10
1.789790228811751
 20
-2.190466966849978
 10
1.788539890689687
 20
-2.231951634761015
 10
1.790158476057336
 20
-2.273324064358474
 10
1.791637392307064
 20
-2.311125045595998
 10
1.769787593323952
 20
-2.334557631039438
 10
1.74446807294766
 20
-2.356663408283919
 10
1.721939412689557
 20
-2.376332731350657
 10
1.698916267003343
 20
-2.3954345573263
 10
1.676209977894056
 20
-2.414901977539077
 10
1.654575263047061
 20
-2.433450430795649
 10
1.631805476510332
 20
-2.436194594507242
 10
1.605748704970425
 20
-2.423469039736624
 10
1.588324809098392
 20
-2.414959610021418
 10
1.569385361420194
 20
-2.40944353829602
 10
1.55091183478612
 20
-2.403217842985845
 10
1.520096413437386
 20
-2.392832646218872
 10
1.498536546104156
 20
-2.369771708314854
 10
1.475596697440475
 20
-2.348682129194836
 10
1.472846004016724
 20
-2.346153488267393
 10
1.471945753002096
 20
-2.340511432187768
 10
1.471914729432771
 20
-2.336299847109103
 10
1.471677008180045
 20
-2.303966637288997
 10
1.471573848506459
 20
-2.271624725846802
 10
1.47217382668143
 20
-2.239299460985976
 10
1.472291867579327
 20
-2.232939836362295
 10
1.475635981350415
 20
-2.22663998809887
 10
1.477492351026853
 20
-2.220312647754124
 10
1.478417320007275
 20
-2.220382134620169
 10
1.479342352043747
 20
-2.220451621486214
 10
1.480267384080194
 20
-2.220521108352259
 10
1.485885992097147
 20
-2.247111878162867
 10
1.491740303573717
 20
-2.273655987101518
 10
1.497003464720213
 20
-2.300317000440953
 10
1.499016024195864
 20
-2.310511896516699
 10
1.502880854705659
 20
-2.319704718840032
 10
1.513425715473027
 20
-2.32171416298436
 10
1.52551765606414
 20
-2.324018327284647
 10
1.538385059776222
 20
-2.324741192468233
 10
1.546962887525359
 20
-2.312329148312831
 10
1.550267654330456
 20
-2.307547165602373
 10
1.55376619233175
 20
-2.302899238315881
 10
1.557873851633126
 20
-2.29722716794567
 10
1.563153344292749
 20
-2.303380097517724
 10
1.567913318278316
 20
-2.308927444638382
 10
1.573179632226596
 20
-2.315065114844199
 10
1.579956327386121
 20
-2.309658885333545
 10
1.586313132407225
 20
-2.304587731327576
 10
1.593001990509732
 20
-2.299251619235266
 10
1.597521090440813
 20
-2.304361236932991
 10
1.601404774705138
 20
-2.309601757293042
 10
1.606135364578297
 20
-2.313913095749285
 10
1.614365249125183
 20
-2.321414146188872
 10
1.621873331237048
 20
-2.320050765955127
 10
1.626983077049898
 20
-2.310232561837412
 10
1.629777405250024
 20
-2.304863282692899
 10
1.631596130473452
 20
-2.298986282817572
 10
1.634597849973362
 20
-2.291480061848965
 10
1.640531675110297
 20
-2.296499384453959
 10
1.645927380042823
 20
-2.300451308085838
 10
1.650589995510042
 20
-2.3051332851978
 10
1.660715029194989
 20
-2.315300563081791
 10
1.667237860756813
 20
-2.314384244445363
 10
1.672933712416882
 20
-2.301392092152405
 10
1.674852696736277
 20
-2.297014924033596
 10
1.675561194347841
 20
-2.291744263272474
 10
1.67847192398896
 20
-2.288259074470387
 10
1.681900028398912
 20
-2.284154178844826
 10
1.687602563998754
 20
-2.278321191521677
 10
1.691469538413735
 20
-2.278901047438314
 10
1.702383907547401
 20
-2.28053783515947
 10
1.708071309698778
 20
-2.274646837022575
 10
1.714166684397923
 20
-2.267990096144078
 10
1.715487456111304
 20
-2.266548022980385
 10
1.717207246415505
 20
-2.265471165722424
 10
1.719256063111414
 20
-2.263810417012968
 10
1.721613349931506
 20
-2.268347114869609
 10
1.723196056415165
 20
-2.272586065919111
 10
1.725798063707896
 20
-2.27606204865727
 10
1.72835202230183
 20
-2.279473588947995
 10
1.73360383336199
 20
-2.28519459017851
 10
1.73479180906525
 20
-2.284554705680673
 10
1.74009734386742
 20
-2.281697420882285
 10
1.745798366122395
 20
-2.277706529116787
 10
1.748583803421549
 20
-2.272609900796952
 10
1.750947206677084
 20
-2.268285572962844
 10
1.750011581226696
 20
-2.261854569816124
 10
1.749664836089095
 20
-2.256411011607926
 10
1.748717229992053
 20
-2.241536534519051
 10
1.751491884709164
 20
-2.22946549306016
 10
1.765150893887216
 20
-2.219795847069841
 10
1.771747627122269
 20
-2.215125850452043
 10
1.775322399870118
 20
-2.204628919813356
 10
1.777802772070951
 20
-2.196057695970466
 10
1.781785706534694
 20
-2.182294504296401
 10
1.783684386810768
 20
-2.167931783473224
 10
1.78657664103356
 20
-2.153845496788638
 10
1.786944572998992
 20
-2.152053467085452
 10
1.787990483454905
 20
-2.150400411114333
 10
1.789790228811751
 20
-2.146176593320584
 97
        0
 97
        1
330
8B
 75
     2
 76
     1
 98
        1
 10
0.0
 20
0.0
450
        0
451
        0
460
0.0
461
0.0
452
        0
462
0.0
453
        0
470

  0
ENDSEC
  0
SECTION
  2
OBJECTS
  0
DICTIONARY
  5
C
330
0
100
AcDbDictionary
281
     1
  3
ACAD_COLOR
350
63
  3
ACAD_DETAILVIEWSTYLE
350
6A
  3
ACAD_GROUP
350
D
  3
ACAD_LAYOUT
350
62
  3
ACAD_MATERIAL
350
10
  3
ACAD_MLEADERSTYLE
350
66
  3
ACAD_MLINESTYLE
350
5F
  3
ACAD_PLOTSETTINGS
350
61
  3
ACAD_PLOTSTYLENAME
350
E
  3
ACAD_SCALELIST
350
42
  3
ACAD_SECTIONVIEWSTYLE
350
68
  3
ACAD_TABLESTYLE
350
64
  3
ACAD_VISUALSTYLE
350
29
  3
ACDB_RECOMPOSE_DATA
350
95
  3
AcDbVariableDictionary
350
8D
  0
DICTIONARY
  5
63
102
{ACAD_REACTORS
330
C
102
}
330
C
100
AcDbDictionary
281
     1
  0
DICTIONARY
  5
6A
102
{ACAD_REACTORS
330
C
102
}
330
C
100
AcDbDictionary
281
     1
  3
Imperial24
350
6B
  0
DICTIONARY
  5
D
102
{ACAD_REACTORS
330
C
102
}
330
C
100
AcDbDictionary
281
     1
  0
DICTIONARY
  5
62
102
{ACAD_REACTORS
330
C
102
}
330
C
100
AcDbDictionary
281
     1
  3
Layout1
350
6F
  3
Layout2
350
77
  3
Model
350
73
  0
DICTIONARY
  5
10
102
{ACAD_REACTORS
330
C
102
}
330
C
100
AcDbDictionary
281
     1
  3
ByBlock
350
19
  3
ByLayer
350
11
  3
Global
350
21
  0
DICTIONARY
  5
66
102
{ACAD_REACTORS
330
C
102
}
330
C
100
AcDbDictionary
281
     1
  3
Standard
350
67
  0
DICTIONARY
  5
5F
102
{ACAD_REACTORS
330
C
102
}
330
C
100
AcDbDictionary
281
     1
  3
Standard
350
60
  0
DICTIONARY
  5
61
102
{ACAD_REACTORS
330
C
102
}
330
C
100
AcDbDictionary
281
     1
  0
ACDBDICTIONARYWDFLT
  5
E
102
{ACAD_REACTORS
330
C
102
}
330
C
100
AcDbDictionary
281
     1
  3
Normal
350
F
100
AcDbDictionaryWithDefault
340
F
  0
DICTIONARY
  5
42
102
{ACAD_REACTORS
330
C
102
}
330
C
100
AcDbDictionary
281
     1
  3
A0
350
43
  3
A1
350
44
  3
A2
350
45
  3
A3
350
46
  3
A4
350
47
  3
A5
350
48
  3
A6
350
49
  3
A7
350
4A
  3
A8
350
4B
  3
A9
350
4C
  3
B0
350
4D
  3
B1
350
4E
  3
B2
350
4F
  3
B3
350
50
  3
B4
350
51
  3
B5
350
52
  3
B6
350
53
  0
DICTIONARY
  5
68
102
{ACAD_REACTORS
330
C
102
}
330
C
100
AcDbDictionary
281
     1
  3
Imperial24
350
69
  0
DICTIONARY
  5
64
102
{ACAD_REACTORS
330
C
102
}
330
C
100
AcDbDictionary
281
     1
  3
Standard
350
65
  0
DICTIONARY
  5
29
102
{ACAD_REACTORS
330
C
102
}
330
C
100
AcDbDictionary
281
     1
  3
2dWireframe
350
2F
  3
Basic
350
2E
  3
Brighten
350
35
  3
ColorChange
350
39
  3
Conceptual
350
32
  3
Dim
350
34
  3
EdgeColorOff
350
41
  3
Facepattern
350
38
  3
Flat
350
2A
  3
FlatWithEdges
350
2B
  3
Gouraud
350
2C
  3
GouraudWithEdges
350
2D
  3
Hidden
350
31
  3
JitterOff
350
3F
  3
Linepattern
350
37
  3
OverhangOff
350
40
  3
Realistic
350
33
  3
Shaded
350
3E
  3
Shaded with edges
350
3D
  3
Shades of Gray
350
3A
  3
Sketchy
350
3B
  3
Thicken
350
36
  3
Wireframe
350
30
  3
X-Ray
350
3C
  0
XRECORD
  5
95
102
{ACAD_REACTORS
330
C
102
}
330
C
100
AcDbXrecord
280
     1
 90
        1
330
65
  0
DICTIONARY
  5
8D
102
{ACAD_REACTORS
330
C
102
}
330
C
100
AcDbDictionary
281
     1
  3
CANNOSCALE
350
92
  3
CMLEADERSTYLE
350
8F
  3
CTABLESTYLE
350
8E
  3
CVIEWDETAILSTYLE
350
90
  3
CVIEWSECTIONSTYLE
350
91
  0
ACDBDETAILVIEWSTYLE
  5
6B
102
{ACAD_REACTORS
330
6A
102
}
330
6A
100
AcDbModelDocViewStyle
 70
     0
  3
Imperial24
290
     1
300
Imperial24
 90
        0
100
AcDbDetailViewStyle
 70
     0
 71
     0
 90
        3
 71
     1
340
55
 62
   256
 40
0.24
340
0
 62
   256
 40
0.24
300

 40
0.36
280
     3
 71
     2
340
5D
 90
       25
 62
   256
 71
     3
340
55
 62
   256
 40
0.24
 90
        1
 40
0.75
 90
        1
300
%<\AcVar ViewType \f "%tc1">% %<\AcVar ViewDetailId>%\PSCALE %<\AcVar ViewScale \f "%sn">%
 71
     4
340
5D
 90
       25
 62
   256
340
5D
 90
       25
 62
   256
280
     0
  0
LAYOUT
  5
6F
102
{ACAD_REACTORS
330
62
102
}
330
62
100
AcDbPlotSettings
  1

  2

  4

  6

 40
0.0
 41
0.0
 42
0.0
 43
0.0
 44
0.0
 45
0.0
 46
0.0
 47
0.0
 48
0.0
 49
0.0
140
0.0
141
0.0
142
1.0
143
1.0
 70
   688
 72
     0
 73
     0
 74
     5
  7

 75
    16
147
1.0
 76
     0
 77
     2
 78
   300
148
0.0
149
0.0
100
AcDbLayout
  1
Layout1
 70
     1
 71
     1
 10
0.0
 20
0.0
 11
12.0
 21
9.0
 12
0.0
 22
0.0
 32
0.0
 14
0.0
 24
0.0
 34
0.0
 15
0.0
 25
0.0
 35
0.0
146
0.0
 13
0.0
 23
0.0
 33
0.0
 16
1.0
 26
0.0
 36
0.0
 17
0.0
 27
1.0
 37
0.0
 76
     0
330
6C
  0
LAYOUT
  5
77
102
{ACAD_REACTORS
330
62
102
}
330
62
100
AcDbPlotSettings
  1

  2

  4

  6

 40
0.0
 41
0.0
 42
0.0
 43
0.0
 44
0.0
 45
0.0
 46
0.0
 47
0.0
 48
0.0
 49
0.0
140
0.0
141
0.0
142
1.0
143
1.0
 70
   688
 72
     0
 73
     0
 74
     5
  7

 75
    16
147
1.0
 76
     0
 77
     2
 78
   300
148
0.0
149
0.0
100
AcDbLayout
  1
Layout2
 70
     1
 71
     2
 10
0.0
 20
0.0
 11
12.0
 21
9.0
 12
0.0
 22
0.0
 32
0.0
 14
0.0
 24
0.0
 34
0.0
 15
0.0
 25
0.0
 35
0.0
146
0.0
 13
0.0
 23
0.0
 33
0.0
 16
1.0
 26
0.0
 36
0.0
 17
0.0
 27
1.0
 37
0.0
 76
     0
330
74
  0
LAYOUT
  5
73
102
{ACAD_REACTORS
330
62
102
}
330
62
100
AcDbPlotSettings
  1

  2

  4

  6

 40
0.0
 41
0.0
 42
0.0
 43
0.0
 44
0.0
 45
0.0
 46
0.0
 47
0.0
 48
0.0
 49
0.0
140
0.0
141
0.0
142
1.0
143
1.0
 70
  1712
 72
     0
 73
     0
 74
     0
  7

 75
     0
147
1.0
 76
     0
 77
     2
 78
   300
148
0.0
149
0.0
100
AcDbLayout
  1
Model
 70
     1
 71
     0
 10
0.0
 20
0.0
 11
12.0
 21
9.0
 12
0.0
 22
0.0
 32
0.0
 14
0.0
 24
0.0
 34
0.0
 15
0.0
 25
0.0
 35
0.0
146
0.0
 13
0.0
 23
0.0
 33
0.0
 16
1.0
 26
0.0
 36
0.0
 17
0.0
 27
1.0
 37
0.0
 76
     0
330
70
  0
MATERIAL
  5
19
102
{ACAD_XDICTIONARY
360
1A
102
}
102
{ACAD_REACTORS
330
10
102
}
330
10
100
AcDbMaterial
  1
ByBlock
 72
     0
 43
0.0208333333333333
 43
0.0
 43
0.0
 43
0.0
 43
0.0
 43
0.0208333333333333
 43
0.0
 43
0.0
 43
0.0
 43
0.0
 43
1.0
 43
0.0
 43
0.0
 43
0.0
 43
0.0
 43
1.0
 77
     0
 47
0.0208333333333333
 47
0.0
 47
0.0
 47
0.0
 47
0.0
 47
0.0208333333333333
 47
0.0
 47
0.0
 47
0.0
 47
0.0
 47
1.0
 47
0.0
 47
0.0
 47
0.0
 47
0.0
 47
1.0
171
     0
 49
0.0208333333333333
 49
0.0
 49
0.0
 49
0.0
 49
0.0
 49
0.0208333333333333
 49
0.0
 49
0.0
 49
0.0
 49
0.0
 49
1.0
 49
0.0
 49
0.0
 49
0.0
 49
0.0
 49
1.0
175
     0
142
0.0208333333333333
142
0.0
142
0.0
142
0.0
142
0.0
142
0.0208333333333333
142
0.0
142
0.0
142
0.0
142
0.0
142
1.0
142
0.0
142
0.0
142
0.0
142
0.0
142
1.0
179
     0
144
0.0208333333333333
144
0.0
144
0.0
144
0.0
144
0.0
144
0.0208333333333333
144
0.0
144
0.0
144
0.0
144
0.0
144
1.0
144
0.0
144
0.0
144
0.0
144
0.0
144
1.0
147
0.0208333333333333
147
0.0
147
0.0
147
0.0
147
0.0
147
0.0208333333333333
147
0.0
147
0.0
147
0.0
147
0.0
147
1.0
147
0.0
147
0.0
147
0.0
147
0.0
147
1.0
  0
MATERIAL
  5
11
102
{ACAD_XDICTIONARY
360
12
102
}
102
{ACAD_REACTORS
330
10
102
}
330
10
100
AcDbMaterial
  1
ByLayer
 72
     0
 43
0.0208333333333333
 43
0.0
 43
0.0
 43
0.0
 43
0.0
 43
0.0208333333333333
 43
0.0
 43
0.0
 43
0.0
 43
0.0
 43
1.0
 43
0.0
 43
0.0
 43
0.0
 43
0.0
 43
1.0
 77
     0
 47
0.0208333333333333
 47
0.0
 47
0.0
 47
0.0
 47
0.0
 47
0.0208333333333333
 47
0.0
 47
0.0
 47
0.0
 47
0.0
 47
1.0
 47
0.0
 47
0.0
 47
0.0
 47
0.0
 47
1.0
171
     0
 49
0.0208333333333333
 49
0.0
 49
0.0
 49
0.0
 49
0.0
 49
0.0208333333333333
 49
0.0
 49
0.0
 49
0.0
 49
0.0
 49
1.0
 49
0.0
 49
0.0
 49
0.0
 49
0.0
 49
1.0
175
     0
142
0.0208333333333333
142
0.0
142
0.0
142
0.0
142
0.0
142
0.0208333333333333
142
0.0
142
0.0
142
0.0
142
0.0
142
1.0
142
0.0
142
0.0
142
0.0
142
0.0
142
1.0
179
     0
144
0.0208333333333333
144
0.0
144
0.0
144
0.0
144
0.0
144
0.0208333333333333
144
0.0
144
0.0
144
0.0
144
0.0
144
1.0
144
0.0
144
0.0
144
0.0
144
0.0
144
1.0
147
0.0208333333333333
147
0.0
147
0.0
147
0.0
147
0.0
147
0.0208333333333333
147
0.0
147
0.0
147
0.0
147
0.0
147
1.0
147
0.0
147
0.0
147
0.0
147
0.0
147
1.0
  0
MATERIAL
  5
21
102
{ACAD_XDICTIONARY
360
22
102
}
102
{ACAD_REACTORS
330
10
102
}
330
10
100
AcDbMaterial
  1
Global
 72
     0
 43
0.0208333333333333
 43
0.0
 43
0.0
 43
0.0
 43
0.0
 43
0.0208333333333333
 43
0.0
 43
0.0
 43
0.0
 43
0.0
 43
1.0
 43
0.0
 43
0.0
 43
0.0
 43
0.0
 43
1.0
 77
     0
 47
0.0208333333333333
 47
0.0
 47
0.0
 47
0.0
 47
0.0
 47
0.0208333333333333
 47
0.0
 47
0.0
 47
0.0
 47
0.0
 47
1.0
 47
0.0
 47
0.0
 47
0.0
 47
0.0
 47
1.0
171
     0
 49
0.0208333333333333
 49
0.0
 49
0.0
 49
0.0
 49
0.0
 49
0.0208333333333333
 49
0.0
 49
0.0
 49
0.0
 49
0.0
 49
1.0
 49
0.0
 49
0.0
 49
0.0
 49
0.0
 49
1.0
175
     0
142
0.0208333333333333
142
0.0
142
0.0
142
0.0
142
0.0
142
0.0208333333333333
142
0.0
142
0.0
142
0.0
142
0.0
142
1.0
142
0.0
142
0.0
142
0.0
142
0.0
142
1.0
179
     0
144
0.0208333333333333
144
0.0
144
0.0
144
0.0
144
0.0
144
0.0208333333333333
144
0.0
144
0.0
144
0.0
144
0.0
144
1.0
144
0.0
144
0.0
144
0.0
144
0.0
144
1.0
147
0.0208333333333333
147
0.0
147
0.0
147
0.0
147
0.0
147
0.0208333333333333
147
0.0
147
0.0
147
0.0
147
0.0
147
1.0
147
0.0
147
0.0
147
0.0
147
0.0
147
1.0
  0
MLEADERSTYLE
  5
67
102
{ACAD_REACTORS
330
66
102
}
330
66
100
AcDbMLeaderStyle
179
     2
170
     2
171
     1
172
     0
 90
        2
 40
0.0
 41
0.0
173
     1
 91
-1056964608
340
5B
 92
       -2
290
     1
 42
0.09
291
     1
 43
0.36
  3
Standard
 44
0.18
300

342
55
174
     1
178
     6
175
     1
176
     0
 93
-1056964608
 45
0.18
292
     0
297
     0
 46
0.18
 94
-1056964608
 47
1.0
 49
1.0
140
1.0
293
     1
141
0.0
294
     1
177
     0
142
1.0
295
     1
296
     0
143
0.125
271
     0
272
     9
273
     9
298
     1
  0
MLINESTYLE
  5
60
102
{ACAD_REACTORS
330
5F
102
}
330
5F
100
AcDbMlineStyle
  2
STANDARD
 70
     0
  3

 62
   256
 51
90.0
 52
90.0
 71
     2
 49
0.5
 62
   256
  6
BYLAYER
 49
-0.5
 62
   256
  6
BYLAYER
  0
ACDBPLACEHOLDER
  5
F
102
{ACAD_REACTORS
330
E
102
}
330
E
  0
SCALE
  5
43
102
{ACAD_REACTORS
330
42
102
}
330
42
100
AcDbScale
 70
     0
300
1:1
140
1.0
141
1.0
290
     1
  0
SCALE
  5
44
102
{ACAD_REACTORS
330
42
102
}
330
42
100
AcDbScale
 70
     0
300
1/128" = 1'-0"
140
0.0078125
141
12.0
290
     0
  0
SCALE
  5
45
102
{ACAD_REACTORS
330
42
102
}
330
42
100
AcDbScale
 70
     0
300
1/64" = 1'-0"
140
0.015625
141
12.0
290
     0
  0
SCALE
  5
46
102
{ACAD_REACTORS
330
42
102
}
330
42
100
AcDbScale
 70
     0
300
1/32" = 1'-0"
140
0.03125
141
12.0
290
     0
  0
SCALE
  5
47
102
{ACAD_REACTORS
330
42
102
}
330
42
100
AcDbScale
 70
     0
300
1/16" = 1'-0"
140
0.0625
141
12.0
290
     0
  0
SCALE
  5
48
102
{ACAD_REACTORS
330
42
102
}
330
42
100
AcDbScale
 70
     0
300
3/32" = 1'-0"
140
0.09375
141
12.0
290
     0
  0
SCALE
  5
49
102
{ACAD_REACTORS
330
42
102
}
330
42
100
AcDbScale
 70
     0
300
1/8" = 1'-0"
140
0.125
141
12.0
290
     0
  0
SCALE
  5
4A
102
{ACAD_REACTORS
330
42
102
}
330
42
100
AcDbScale
 70
     0
300
3/16" = 1'-0"
140
0.1875
141
12.0
290
     0
  0
SCALE
  5
4B
102
{ACAD_REACTORS
330
42
102
}
330
42
100
AcDbScale
 70
     0
300
1/4" = 1'-0"
140
0.25
141
12.0
290
     0
  0
SCALE
  5
4C
102
{ACAD_REACTORS
330
42
102
}
330
42
100
AcDbScale
 70
     0
300
3/8" = 1'-0"
140
0.375
141
12.0
290
     0
  0
SCALE
  5
4D
102
{ACAD_REACTORS
330
42
102
}
330
42
100
AcDbScale
 70
     0
300
1/2" = 1'-0"
140
0.5
141
12.0
290
     0
  0
SCALE
  5
4E
102
{ACAD_REACTORS
330
42
102
}
330
42
100
AcDbScale
 70
     0
300
3/4" = 1'-0"
140
0.75
141
12.0
290
     0
  0
SCALE
  5
4F
102
{ACAD_REACTORS
330
42
102
}
330
42
100
AcDbScale
 70
     0
300
1" = 1'-0"
140
1.0
141
12.0
290
     0
  0
SCALE
  5
50
102
{ACAD_REACTORS
330
42
102
}
330
42
100
AcDbScale
 70
     0
300
1-1/2" = 1'-0"
140
1.5
141
12.0
290
     0
  0
SCALE
  5
51
102
{ACAD_REACTORS
330
42
102
}
330
42
100
AcDbScale
 70
     0
300
3" = 1'-0"
140
3.0
141
12.0
290
     0
  0
SCALE
  5
52
102
{ACAD_REACTORS
330
42
102
}
330
42
100
AcDbScale
 70
     0
300
6" = 1'-0"
140
6.0
141
12.0
290
     0
  0
SCALE
  5
53
102
{ACAD_REACTORS
330
42
102
}
330
42
100
AcDbScale
 70
     0
300
1'-0" = 1'-0"
140
12.0
141
12.0
290
     0
  0
ACDBSECTIONVIEWSTYLE
  5
69
102
{ACAD_REACTORS
330
68
102
}
330
68
100
AcDbModelDocViewStyle
 70
     0
  3
Imperial24
290
     1
300
Imperial24
 90
        0
100
AcDbSectionViewStyle
 70
     0
 71
     0
 90
       78
 71
     1
340
55
 62
   256
 40
0.24
340
0
340
0
 62
   256
 40
0.24
300
I, O, Q, S, X, Z
 40
0.48
 90
        3
 40
0.18
 90
        1
 71
     2
340
5D
 90
       25
 62
   256
340
5D
 90
       50
 62
   256
 40
0.24
 40
0.0
 40
0.24
 71
     3
340
55
 62
   256
 40
0.24
 90
        1
 40
0.75
 90
        1
300
%<\AcVar ViewType \f "%tc1">% %<\AcVar ViewSectionStartId>%-%<\AcVar ViewSectionEndId>%\PSCALE %<\AcVar ViewScale \f "%sn">%
 71
     4
 62
   256
 62
   257
300
ANSI31
 40
1.0
 90
        0
290
     0
290
     0
 90
        6
 40
0.0
 40
1.570796326794896
 40
0.2617993877991494
 40
1.308996938995747
 40
-0.2617993877991494
 40
1.832595714594046
  0
TABLESTYLE
  5
65
102
{ACAD_XDICTIONARY
360
93
102
}
102
{ACAD_REACTORS
330
64
102
}
330
64
100
AcDbTableStyle
280
     0
  3
Standard
 70
     0
 71
     0
 40
0.06
 41
0.06
280
     0
281
     0
  7
Standard
140
0.18
170
     2
 62
     0
 63
     7
283
     0
 90
      512
 91
        0
  1

274
    -2
284
     1
 64
     0
275
    -2
285
     1
 65
     0
276
    -2
286
     1
 66
     0
277
    -2
287
     1
 67
     0
278
    -2
288
     1
 68
     0
279
    -2
289
     1
 69
     0
  7
Standard
140
0.25
170
     5
 62
     0
 63
     7
283
     0
 90
      512
 91
        0
  1

274
    -2
284
     1
 64
     0
275
    -2
285
     1
 65
     0
276
    -2
286
     1
 66
     0
277
    -2
287
     1
 67
     0
278
    -2
288
     1
 68
     0
279
    -2
289
     1
 69
     0
  7
Standard
140
0.18
170
     5
 62
     0
 63
     7
283
     0
 90
      512
 91
        0
  1

274
    -2
284
     1
 64
     0
275
    -2
285
     1
 65
     0
276
    -2
286
     1
 66
     0
277
    -2
287
     1
 67
     0
278
    -2
288
     1
 68
     0
279
    -2
289
     1
 69
     0
  0
VISUALSTYLE
  5
2F
102
{ACAD_REACTORS
330
29
102
}
330
29
100
AcDbVisualStyle
  2
2dWireframe
 70
     4
177
     3
291
     0
 70
    58
 90
        0
176
     1
 90
        2
176
     1
 90
        0
176
     1
 90
        0
176
     1
 40
0.6
176
     1
 40
30.0
176
     1
 62
     7
420
 16777215
176
     1
 90
        1
176
     1
 90
        4
176
     1
 62
     7
176
     1
 62
   257
176
     1
 90
        1
176
     1
 90
        1
176
     1
 40
1.0
176
     1
 90
        0
176
     1
 62
   257
176
     1
 40
1.0
176
     1
 90
        1
176
     1
 90
        6
176
     1
 90
        2
176
     1
 62
     7
176
     1
 90
        5
176
     1
 90
        0
176
     1
 90
        0
176
     1
290
     0
176
     1
 90
        1
176
     1
 40
0.0
176
     1
 90
        0
176
     1
290
     1
176
     1
290
     1
176
     1
290
     0
176
     1
290
     0
176
     1
290
     0
176
     1
290
     0
176
     1
290
     0
176
     1
290
     0
176
     1
290
     0
176
     1
 90
       50
176
     1
 40
0.0
176
     1
 40
1.0
176
     1
 90
        0
176
     1
 62
    18
420
        0
176
     1
 90
       50
176
     1
 90
        3
176
     1
 62
     5
420
      255
176
     1
290
     0
176
     1
 90
       50
176
     1
 90
       50
176
     1
 90
       50
176
     1
290
     0
176
     1
 90
       50
176
     1
 62
   256
176
     0
 40
1.0
176
     0
 90
        2
176
     1
  1
strokes_ogs.tif
176
     1
290
     0
176
     1
 40
1.0
176
     1
 40
1.0
176
     1
  0
VISUALSTYLE
  5
2E
102
{ACAD_REACTORS
330
29
102
}
330
29
100
AcDbVisualStyle
  2
Basic
 70
     7
177
     3
291
     1
 70
    58
 90
        1
176
     1
 90
        0
176
     1
 90
        1
176
     1
 90
        0
176
     1
 40
0.6
176
     1
 40
30.0
176
     1
 62
     7
420
 16777215
176
     1
 90
        0
176
     1
 90
        4
176
     1
 62
     7
176
     1
 62
   257
176
     1
 90
        1
176
     1
 90
        1
176
     1
 40
1.0
176
     1
 90
        8
176
     1
 62
     7
176
     1
 40
1.0
176
     1
 90
        1
176
     1
 90
        6
176
     1
 90
        2
176
     1
 62
     7
176
     1
 90
        5
176
     1
 90
        0
176
     1
 90
        0
176
     1
290
     0
176
     1
 90
        1
176
     1
 40
0.0
176
     1
 90
        0
176
     1
290
     0
176
     1
290
     1
176
     1
290
     1
176
     1
290
     0
176
     1
290
     0
176
     1
290
     0
176
     1
290
     0
176
     1
290
     0
176
     1
290
     0
176
     1
 90
       50
176
     1
 40
0.0
176
     1
 40
1.0
176
     1
 90
        0
176
     1
 62
    18
420
        0
176
     1
 90
       50
176
     1
 90
        3
176
     1
 62
     5
420
      255
176
     1
290
     0
176
     1
 90
       50
176
     1
 90
       50
176
     1
 90
       50
176
     1
290
     0
176
     1
 90
       50
176
     1
 62
   256
176
     0
 40
1.0
176
     0
 90
        2
176
     1
  1
strokes_ogs.tif
176
     1
290
     0
176
     1
 40
1.0
176
     1
 40
1.0
176
     1
  0
VISUALSTYLE
  5
35
102
{ACAD_REACTORS
330
29
102
}
330
29
100
AcDbVisualStyle
  2
Brighten
 70
    12
177
     3
291
     1
 70
    58
 90
        2
176
     1
 90
        2
176
     1
 90
        0
176
     1
 90
        0
176
     1
 40
0.6
176
     1
 40
30.0
176
     1
 62
     7
420
 16777215
176
     1
 90
        1
176
     1
 90
        4
176
     1
 62
     7
176
     1
 62
   257
176
     1
 90
        1
176
     1
 90
        1
176
     1
 40
1.0
176
     1
 90
        8
176
     1
 62
     7
176
     1
 40
1.0
176
     1
 90
        1
176
     1
 90
        6
176
     1
 90
        2
176
     1
 62
     7
176
     1
 90
        5
176
     1
 90
        0
176
     1
 90
        0
176
     1
290
     0
176
     1
 90
        1
176
     1
 40
50.0
176
     1
 90
        0
176
     1
290
     0
176
     1
290
     1
176
     1
290
     1
176
     1
290
     0
176
     1
290
     0
176
     1
290
     0
176
     1
290
     0
176
     1
290
     0
176
     1
290
     0
176
     1
 90
       50
176
     1
 40
0.0
176
     1
 40
1.0
176
     1
 90
        0
176
     1
 62
    18
420
        0
176
     1
 90
       50
176
     1
 90
        3
176
     1
 62
     5
420
      255
176
     1
290
     0
176
     1
 90
       50
176
     1
 90
       50
176
     1
 90
       50
176
     1
290
     0
176
     1
 90
       50
176
     1
 62
   256
176
     0
 40
1.0
176
     0
 90
        2
176
     1
  1
strokes_ogs.tif
176
     1
290
     0
176
     1
 40
1.0
176
     1
 40
1.0
176
     1
  0
VISUALSTYLE
  5
39
102
{ACAD_REACTORS
330
29
102
}
330
29
100
AcDbVisualStyle
  2
ColorChange
 70
    16
177
     3
291
     1
 70
    58
 90
        2
176
     1
 90
        2
176
     1
 90
        3
176
     1
 90
        0
176
     1
 40
0.6
176
     1
 40
30.0
176
     1
 62
     8
420
  8421504
176
     1
 90
        1
176
     1
 90
        4
176
     1
 62
     7
176
     1
 62
   257
176
     1
 90
        1
176
     1
 90
        1
176
     1
 40
1.0
176
     1
 90
        8
176
     1
 62
     8
420
  8421504
176
     1
 40
1.0
176
     1
 90
        1
176
     1
 90
        6
176
     1
 90
        2
176
     1
 62
     7
176
     1
 90
        5
176
     1
 90
        0
176
     1
 90
        0
176
     1
290
     0
176
     1
 90
        1
176
     1
 40
0.0
176
     1
 90
        0
176
     1
290
     0
176
     1
290
     1
176
     1
290
     1
176
     1
290
     0
176
     1
290
     0
176
     1
290
     0
176
     1
290
     0
176
     1
290
     0
176
     1
290
     0
176
     1
 90
       50
176
     1
 40
0.0
176
     1
 40
1.0
176
     1
 90
        0
176
     1
 62
    18
420
        0
176
     1
 90
       50
176
     1
 90
        3
176
     1
 62
     5
420
      255
176
     1
290
     0
176
     1
 90
       50
176
     1
 90
       50
176
     1
 90
       50
176
     1
290
     0
176
     1
 90
       50
176
     1
 62
   256
176
     0
 40
1.0
176
     0
 90
        2
176
     1
  1
strokes_ogs.tif
176
     1
290
     0
176
     1
 40
1.0
176
     1
 40
1.0
176
     1
  0
VISUALSTYLE
  5
32
102
{ACAD_REACTORS
330
29
102
}
330
29
100
AcDbVisualStyle
  2
Conceptual
 70
     9
177
     3
291
     0
 70
    58
 90
        3
176
     1
 90
        2
176
     1
 90
        0
176
     1
 90
        0
176
     1
 40
0.6
176
     1
 40
30.0
176
     1
 62
     7
420
 16777215
176
     1
 90
        2
176
     1
 90
        2
176
     1
 62
     7
176
     1
 62
   257
176
     1
 90
        1
176
     1
 90
        1
176
     1
 40
179.0
176
     1
 90
        8
176
     1
 62
     7
176
     1
 40
1.0
176
     1
 90
        1
176
     1
 90
        6
176
     1
 90
        2
176
     1
 62
     7
176
     1
 90
        3
176
     1
 90
        0
176
     1
 90
        0
176
     1
290
     0
176
     1
 90
        1
176
     1
 40
0.0
176
     1
 90
        0
176
     1
290
     0
176
     1
290
     1
176
     1
290
     1
176
     1
290
     0
176
     1
290
     0
176
     1
290
     0
176
     1
290
     0
176
     1
290
     0
176
     1
290
     0
176
     1
 90
       50
176
     1
 40
0.0
176
     1
 40
1.0
176
     1
 90
        0
176
     1
 62
    18
420
        0
176
     1
 90
       50
176
     1
 90
        3
176
     1
 62
     5
420
      255
176
     1
290
     0
176
     1
 90
       50
176
     1
 90
       50
176
     1
 90
       50
176
     1
290
     0
176
     1
 90
       50
176
     1
 62
   256
176
     0
 40
1.0
176
     0
 90
        2
176
     1
  1
strokes_ogs.tif
176
     1
290
     0
176
     1
 40
1.0
176
     1
 40
1.0
176
     1
  0
VISUALSTYLE
  5
34
102
{ACAD_REACTORS
330
29
102
}
330
29
100
AcDbVisualStyle
  2
Dim
 70
    11
177
     3
291
     1
 70
    58
 90
        2
176
     1
 90
        2
176
     1
 90
        0
176
     1
 90
        0
176
     1
 40
0.6
176
     1
 40
30.0
176
     1
 62
     7
420
 16777215
176
     1
 90
        1
176
     1
 90
        4
176
     1
 62
     7
176
     1
 62
   257
176
     1
 90
        1
176
     1
 90
        1
176
     1
 40
1.0
176
     1
 90
        8
176
     1
 62
     7
176
     1
 40
1.0
176
     1
 90
        1
176
     1
 90
        6
176
     1
 90
        2
176
     1
 62
     7
176
     1
 90
        5
176
     1
 90
        0
176
     1
 90
        0
176
     1
290
     0
176
     1
 90
        1
176
     1
 40
-50.0
176
     1
 90
        0
176
     1
290
     0
176
     1
290
     1
176
     1
290
     1
176
     1
290
     0
176
     1
290
     0
176
     1
290
     0
176
     1
290
     0
176
     1
290
     0
176
     1
290
     0
176
     1
 90
       50
176
     1
 40
0.0
176
     1
 40
1.0
176
     1
 90
        0
176
     1
 62
    18
420
        0
176
     1
 90
       50
176
     1
 90
        3
176
     1
 62
     5
420
      255
176
     1
290
     0
176
     1
 90
       50
176
     1
 90
       50
176
     1
 90
       50
176
     1
290
     0
176
     1
 90
       50
176
     1
 62
   256
176
     0
 40
1.0
176
     0
 90
        2
176
     1
  1
strokes_ogs.tif
176
     1
290
     0
176
     1
 40
1.0
176
     1
 40
1.0
176
     1
  0
VISUALSTYLE
  5
41
102
{ACAD_REACTORS
330
29
102
}
330
29
100
AcDbVisualStyle
  2
EdgeColorOff
 70
    22
177
     3
291
     1
 70
    58
 90
        2
176
     0
 90
        2
176
     0
 90
        0
176
     0
 90
        0
176
     0
 40
0.6
176
     0
 40
30.0
176
     0
 62
     7
420
 16777215
176
     0
 90
        1
176
     0
 90
        4
176
     0
 62
     7
176
     0
 62
   257
176
     0
 90
        1
176
     0
 90
        1
176
     0
 40
1.0
176
     0
 90
        8
176
     2
 62
     7
176
     0
 40
1.0
176
     0
 90
        1
176
     0
 90
        6
176
     0
 90
        2
176
     0
 62
     7
176
     0
 90
        5
176
     0
 90
        0
176
     0
 90
        0
176
     0
290
     0
176
     0
 90
        1
176
     0
 40
0.0
176
     0
 90
        0
176
     0
290
     0
176
     0
290
     1
176
     0
290
     1
176
     0
290
     0
176
     0
290
     0
176
     0
290
     0
176
     0
290
     0
176
     0
290
     0
176
     0
290
     0
176
     0
 90
       50
176
     0
 40
0.0
176
     0
 40
1.0
176
     0
 90
        0
176
     0
 62
    18
420
        0
176
     0
 90
       50
176
     0
 90
        3
176
     0
 62
     5
420
      255
176
     0
290
     0
176
     0
 90
       50
176
     0
 90
       50
176
     0
 90
       50
176
     0
290
     0
176
     0
 90
       50
176
     0
 62
   256
176
     0
 40
1.0
176
     0
 90
        2
176
     0
  1
strokes_ogs.tif
176
     0
290
     0
176
     0
 40
1.0
176
     0
 40
1.0
176
     0
  0
VISUALSTYLE
  5
38
102
{ACAD_REACTORS
330
29
102
}
330
29
100
AcDbVisualStyle
  2
Facepattern
 70
    15
177
     3
291
     1
 70
    58
 90
        2
176
     1
 90
        2
176
     1
 90
        0
176
     1
 90
        0
176
     1
 40
0.6
176
     1
 40
30.0
176
     1
 62
     7
420
 16777215
176
     1
 90
        1
176
     1
 90
        4
176
     1
 62
     7
176
     1
 62
   257
176
     1
 90
        1
176
     1
 90
        1
176
     1
 40
1.0
176
     1
 90
        8
176
     1
 62
     7
176
     1
 40
1.0
176
     1
 90
        1
176
     1
 90
        6
176
     1
 90
        2
176
     1
 62
     7
176
     1
 90
        5
176
     1
 90
        0
176
     1
 90
        0
176
     1
290
     0
176
     1
 90
        1
176
     1
 40
0.0
176
     1
 90
        0
176
     1
290
     0
176
     1
290
     1
176
     1
290
     1
176
     1
290
     0
176
     1
290
     0
176
     1
290
     0
176
     1
290
     0
176
     1
290
     0
176
     1
290
     0
176
     1
 90
       50
176
     1
 40
0.0
176
     1
 40
1.0
176
     1
 90
        0
176
     1
 62
    18
420
        0
176
     1
 90
       50
176
     1
 90
        3
176
     1
 62
     5
420
      255
176
     1
290
     0
176
     1
 90
       50
176
     1
 90
       50
176
     1
 90
       50
176
     1
290
     0
176
     1
 90
       50
176
     1
 62
   256
176
     0
 40
1.0
176
     0
 90
        2
176
     1
  1
strokes_ogs.tif
176
     1
290
     0
176
     1
 40
1.0
176
     1
 40
1.0
176
     1
  0
VISUALSTYLE
  5
2A
102
{ACAD_REACTORS
330
29
102
}
330
29
100
AcDbVisualStyle
  2
Flat
 70
     0
177
     3
291
     1
 70
    58
 90
        2
176
     1
 90
        1
176
     1
 90
        1
176
     1
 90
        2
176
     1
 40
0.6
176
     1
 40
30.0
176
     1
 62
     7
420
 16777215
176
     1
 90
        0
176
     1
 90
        0
176
     1
 62
     7
176
     1
 62
   257
176
     1
 90
        1
176
     1
 90
        1
176
     1
 40
1.0
176
     1
 90
        8
176
     1
 62
     7
176
     1
 40
1.0
176
     1
 90
        1
176
     1
 90
        6
176
     1
 90
        2
176
     1
 62
     7
176
     1
 90
        5
176
     1
 90
        0
176
     1
 90
        0
176
     1
290
     0
176
     1
 90
       13
176
     1
 40
0.0
176
     1
 90
        0
176
     1
290
     0
176
     1
290
     1
176
     1
290
     1
176
     1
290
     0
176
     1
290
     0
176
     1
290
     0
176
     1
290
     0
176
     1
290
     0
176
     1
290
     0
176
     1
 90
       50
176
     1
 40
0.0
176
     1
 40
1.0
176
     1
 90
        0
176
     1
 62
    18
420
        0
176
     1
 90
       50
176
     1
 90
        3
176
     1
 62
     5
420
      255
176
     1
290
     0
176
     1
 90
       50
176
     1
 90
       50
176
     1
 90
       50
176
     1
290
     0
176
     1
 90
       50
176
     1
 62
   256
176
     0
 40
1.0
176
     0
 90
        2
176
     1
  1
strokes_ogs.tif
176
     1
290
     0
176
     1
 40
1.0
176
     1
 40
1.0
176
     1
  0
VISUALSTYLE
  5
2B
102
{ACAD_REACTORS
330
29
102
}
330
29
100
AcDbVisualStyle
  2
FlatWithEdges
 70
     1
177
     3
291
     1
 70
    58
 90
        2
176
     1
 90
        1
176
     1
 90
        1
176
     1
 90
        2
176
     1
 40
0.6
176
     1
 40
30.0
176
     1
 62
     7
420
 16777215
176
     1
 90
        1
176
     1
 90
        0
176
     1
 62
     7
176
     1
 62
   257
176
     1
 90
        1
176
     1
 90
        1
176
     1
 40
1.0
176
     1
 90
        0
176
     1
 62
   257
176
     1
 40
1.0
176
     1
 90
        1
176
     1
 90
        6
176
     1
 90
        2
176
     1
 62
     7
176
     1
 90
        5
176
     1
 90
        0
176
     1
 90
        0
176
     1
290
     0
176
     1
 90
       13
176
     1
 40
0.0
176
     1
 90
        0
176
     1
290
     0
176
     1
290
     1
176
     1
290
     1
176
     1
290
     0
176
     1
290
     0
176
     1
290
     0
176
     1
290
     0
176
     1
290
     0
176
     1
290
     0
176
     1
 90
       50
176
     1
 40
0.0
176
     1
 40
1.0
176
     1
 90
        0
176
     1
 62
    18
420
        0
176
     1
 90
       50
176
     1
 90
        3
176
     1
 62
     5
420
      255
176
     1
290
     0
176
     1
 90
       50
176
     1
 90
       50
176
     1
 90
       50
176
     1
290
     0
176
     1
 90
       50
176
     1
 62
   256
176
     0
 40
1.0
176
     0
 90
        2
176
     1
  1
strokes_ogs.tif
176
     1
290
     0
176
     1
 40
1.0
176
     1
 40
1.0
176
     1
  0
VISUALSTYLE
  5
2C
102
{ACAD_REACTORS
330
29
102
}
330
29
100
AcDbVisualStyle
  2
Gouraud
 70
     2
177
     3
291
     1
 70
    58
 90
        2
176
     1
 90
        2
176
     1
 90
        1
176
     1
 90
        2
176
     1
 40
0.6
176
     1
 40
30.0
176
     1
 62
     7
420
 16777215
176
     1
 90
        0
176
     1
 90
        0
176
     1
 62
     7
176
     1
 62
   257
176
     1
 90
        1
176
     1
 90
        1
176
     1
 40
1.0
176
     1
 90
        0
176
     1
 62
     7
176
     1
 40
1.0
176
     1
 90
        1
176
     1
 90
        6
176
     1
 90
        2
176
     1
 62
     7
176
     1
 90
        5
176
     1
 90
        0
176
     1
 90
        0
176
     1
290
     0
176
     1
 90
       13
176
     1
 40
0.0
176
     1
 90
        0
176
     1
290
     0
176
     1
290
     1
176
     1
290
     1
176
     1
290
     0
176
     1
290
     0
176
     1
290
     0
176
     1
290
     0
176
     1
290
     0
176
     1
290
     0
176
     1
 90
       50
176
     1
 40
0.0
176
     1
 40
1.0
176
     1
 90
        0
176
     1
 62
    18
420
        0
176
     1
 90
       50
176
     1
 90
        3
176
     1
 62
     5
420
      255
176
     1
290
     0
176
     1
 90
       50
176
     1
 90
       50
176
     1
 90
       50
176
     1
290
     0
176
     1
 90
       50
176
     1
 62
   256
176
     0
 40
1.0
176
     0
 90
        2
176
     1
  1
strokes_ogs.tif
176
     1
290
     0
176
     1
 40
1.0
176
     1
 40
1.0
176
     1
  0
VISUALSTYLE
  5
2D
102
{ACAD_REACTORS
330
29
102
}
330
29
100
AcDbVisualStyle
  2
GouraudWithEdges
 70
     3
177
     3
291
     1
 70
    58
 90
        2
176
     1
 90
        2
176
     1
 90
        1
176
     1
 90
        2
176
     1
 40
0.6
176
     1
 40
30.0
176
     1
 62
     7
420
 16777215
176
     1
 90
        1
176
     1
 90
        0
176
     1
 62
     7
176
     1
 62
   257
176
     1
 90
        1
176
     1
 90
        1
176
     1
 40
1.0
176
     1
 90
        0
176
     1
 62
   257
176
     1
 40
1.0
176
     1
 90
        1
176
     1
 90
        6
176
     1
 90
        2
176
     1
 62
     7
176
     1
 90
        5
176
     1
 90
        0
176
     1
 90
        0
176
     1
290
     0
176
     1
 90
       13
176
     1
 40
0.0
176
     1
 90
        0
176
     1
290
     0
176
     1
290
     1
176
     1
290
     1
176
     1
290
     0
176
     1
290
     0
176
     1
290
     0
176
     1
290
     0
176
     1
290
     0
176
     1
290
     0
176
     1
 90
       50
176
     1
 40
0.0
176
     1
 40
1.0
176
     1
 90
        0
176
     1
 62
    18
420
        0
176
     1
 90
       50
176
     1
 90
        3
176
     1
 62
     5
420
      255
176
     1
290
     0
176
     1
 90
       50
176
     1
 90
       50
176
     1
 90
       50
176
     1
290
     0
176
     1
 90
       50
176
     1
 62
   256
176
     0
 40
1.0
176
     0
 90
        2
176
     1
  1
strokes_ogs.tif
176
     1
290
     0
176
     1
 40
1.0
176
     1
 40
1.0
176
     1
  0
VISUALSTYLE
  5
31
102
{ACAD_REACTORS
330
29
102
}
330
29
100
AcDbVisualStyle
  2
Hidden
 70
     6
177
     3
291
     0
 70
    58
 90
        1
176
     1
 90
        2
176
     1
 90
        2
176
     1
 90
        0
176
     1
 40
0.6
176
     1
 40
30.0
176
     1
 62
     7
420
 16777215
176
     1
 90
        2
176
     1
 90
        2
176
     1
 62
     7
176
     1
 62
   257
176
     1
 90
        2
176
     1
 90
        1
176
     1
 40
40.0
176
     1
 90
        0
176
     1
 62
   257
176
     1
 40
1.0
176
     1
 90
        1
176
     1
 90
        6
176
     1
 90
        2
176
     1
 62
     7
176
     1
 90
        3
176
     1
 90
        0
176
     1
 90
        0
176
     1
290
     0
176
     1
 90
        1
176
     1
 40
0.0
176
     1
 90
        0
176
     1
290
     0
176
     1
290
     1
176
     1
290
     1
176
     1
290
     0
176
     1
290
     0
176
     1
290
     0
176
     1
290
     0
176
     1
290
     0
176
     1
290
     0
176
     1
 90
       50
176
     1
 40
0.0
176
     1
 40
1.0
176
     1
 90
        0
176
     1
 62
    18
420
        0
176
     1
 90
       50
176
     1
 90
        3
176
     1
 62
     5
420
      255
176
     1
290
     0
176
     1
 90
       50
176
     1
 90
       50
176
     1
 90
       50
176
     1
290
     0
176
     1
 90
       50
176
     1
 62
   256
176
     0
 40
1.0
176
     0
 90
        2
176
     1
  1
strokes_ogs.tif
176
     1
290
     0
176
     1
 40
1.0
176
     1
 40
1.0
176
     1
  0
VISUALSTYLE
  5
3F
102
{ACAD_REACTORS
330
29
102
}
330
29
100
AcDbVisualStyle
  2
JitterOff
 70
    20
177
     3
291
     1
 70
    58
 90
        2
176
     0
 90
        2
176
     0
 90
        0
176
     0
 90
        0
176
     0
 40
0.6
176
     0
 40
30.0
176
     0
 62
     7
420
 16777215
176
     0
 90
        1
176
     0
 90
        4
176
     0
 62
     7
176
     0
 62
   257
176
     0
 90
        1
176
     0
 90
        1
176
     0
 40
1.0
176
     0
 90
       10
176
     2
 62
     7
176
     0
 40
1.0
176
     0
 90
        1
176
     0
 90
        6
176
     0
 90
        2
176
     0
 62
     7
176
     0
 90
        5
176
     0
 90
        0
176
     0
 90
        0
176
     0
290
     0
176
     0
 90
        1
176
     0
 40
0.0
176
     0
 90
        0
176
     0
290
     0
176
     0
290
     1
176
     0
290
     1
176
     0
290
     0
176
     0
290
     0
176
     0
290
     0
176
     0
290
     0
176
     0
290
     0
176
     0
290
     0
176
     0
 90
       50
176
     0
 40
0.0
176
     0
 40
1.0
176
     0
 90
        0
176
     0
 62
    18
420
        0
176
     0
 90
       50
176
     0
 90
        3
176
     0
 62
     5
420
      255
176
     0
290
     0
176
     0
 90
       50
176
     0
 90
       50
176
     0
 90
       50
176
     0
290
     0
176
     0
 90
       50
176
     0
 62
   256
176
     0
 40
1.0
176
     0
 90
        2
176
     0
  1
strokes_ogs.tif
176
     0
290
     0
176
     0
 40
1.0
176
     0
 40
1.0
176
     0
  0
VISUALSTYLE
  5
37
102
{ACAD_REACTORS
330
29
102
}
330
29
100
AcDbVisualStyle
  2
Linepattern
 70
    14
177
     3
291
     1
 70
    58
 90
        2
176
     1
 90
        2
176
     1
 90
        0
176
     1
 90
        0
176
     1
 40
0.6
176
     1
 40
30.0
176
     1
 62
     7
420
 16777215
176
     1
 90
        1
176
     1
 90
        4
176
     1
 62
     7
176
     1
 62
   257
176
     1
 90
        7
176
     1
 90
        7
176
     1
 40
1.0
176
     1
 90
        8
176
     1
 62
     7
176
     1
 40
1.0
176
     1
 90
        1
176
     1
 90
        6
176
     1
 90
        2
176
     1
 62
     7
176
     1
 90
        5
176
     1
 90
        0
176
     1
 90
        0
176
     1
290
     0
176
     1
 90
        1
176
     1
 40
0.0
176
     1
 90
        0
176
     1
290
     0
176
     1
290
     1
176
     1
290
     1
176
     1
290
     0
176
     1
290
     0
176
     1
290
     0
176
     1
290
     0
176
     1
290
     0
176
     1
290
     0
176
     1
 90
       50
176
     1
 40
0.0
176
     1
 40
1.0
176
     1
 90
        0
176
     1
 62
    18
420
        0
176
     1
 90
       50
176
     1
 90
        3
176
     1
 62
     5
420
      255
176
     1
290
     0
176
     1
 90
       50
176
     1
 90
       50
176
     1
 90
       50
176
     1
290
     0
176
     1
 90
       50
176
     1
 62
   256
176
     0
 40
1.0
176
     0
 90
        2
176
     1
  1
strokes_ogs.tif
176
     1
290
     0
176
     1
 40
1.0
176
     1
 40
1.0
176
     1
  0
VISUALSTYLE
  5
40
102
{ACAD_REACTORS
330
29
102
}
330
29
100
AcDbVisualStyle
  2
OverhangOff
 70
    21
177
     3
291
     1
 70
    58
 90
        2
176
     0
 90
        2
176
     0
 90
        0
176
     0
 90
        0
176
     0
 40
0.6
176
     0
 40
30.0
176
     0
 62
     7
420
 16777215
176
     0
 90
        1
176
     0
 90
        4
176
     0
 62
     7
176
     0
 62
   257
176
     0
 90
        1
176
     0
 90
        1
176
     0
 40
1.0
176
     0
 90
        9
176
     2
 62
     7
176
     0
 40
1.0
176
     0
 90
        1
176
     0
 90
        6
176
     0
 90
        2
176
     0
 62
     7
176
     0
 90
        5
176
     0
 90
        0
176
     0
 90
        0
176
     0
290
     0
176
     0
 90
        1
176
     0
 40
0.0
176
     0
 90
        0
176
     0
290
     0
176
     0
290
     1
176
     0
290
     1
176
     0
290
     0
176
     0
290
     0
176
     0
290
     0
176
     0
290
     0
176
     0
290
     0
176
     0
290
     0
176
     0
 90
       50
176
     0
 40
0.0
176
     0
 40
1.0
176
     0
 90
        0
176
     0
 62
    18
420
        0
176
     0
 90
       50
176
     0
 90
        3
176
     0
 62
     5
420
      255
176
     0
290
     0
176
     0
 90
       50
176
     0
 90
       50
176
     0
 90
       50
176
     0
290
     0
176
     0
 90
       50
176
     0
 62
   256
176
     0
 40
1.0
176
     0
 90
        2
176
     0
  1
strokes_ogs.tif
176
     0
290
     0
176
     0
 40
1.0
176
     0
 40
1.0
176
     0
  0
VISUALSTYLE
  5
33
102
{ACAD_REACTORS
330
29
102
}
330
29
100
AcDbVisualStyle
  2
Realistic
 70
     8
177
     3
291
     0
 70
    58
 90
        2
176
     1
 90
        3
176
     1
 90
        0
176
     1
 90
        2
176
     1
 40
0.6
176
     1
 40
30.0
176
     1
 62
     7
420
 16777215
176
     1
 90
        0
176
     1
 90
        0
176
     1
 62
     7
176
     1
 62
   257
176
     1
 90
        1
176
     1
 90
        1
176
     1
 40
1.0
176
     1
 90
        8
176
     1
 62
   257
176
     1
 40
1.0
176
     1
 90
        1
176
     1
 90
        6
176
     1
 90
        2
176
     1
 62
     7
176
     1
 90
        3
176
     1
 90
        0
176
     1
 90
        0
176
     1
290
     0
176
     1
 90
       13
176
     1
 40
0.0
176
     1
 90
        0
176
     1
290
     0
176
     1
290
     1
176
     1
290
     1
176
     1
290
     0
176
     1
290
     0
176
     1
290
     0
176
     1
290
     0
176
     1
290
     0
176
     1
290
     0
176
     1
 90
       50
176
     1
 40
0.0
176
     1
 40
1.0
176
     1
 90
        0
176
     1
 62
    18
420
        0
176
     1
 90
       50
176
     1
 90
        3
176
     1
 62
     5
420
      255
176
     1
290
     0
176
     1
 90
       50
176
     1
 90
       50
176
     1
 90
       50
176
     1
290
     0
176
     1
 90
       50
176
     1
 62
   256
176
     0
 40
1.0
176
     0
 90
        2
176
     1
  1
strokes_ogs.tif
176
     1
290
     0
176
     1
 40
1.0
176
     1
 40
1.0
176
     1
  0
VISUALSTYLE
  5
3E
102
{ACAD_REACTORS
330
29
102
}
330
29
100
AcDbVisualStyle
  2
Shaded
 70
    27
177
     3
291
     0
 70
    58
 90
        2
176
     1
 90
        2
176
     1
 90
        1
176
     1
 90
        2
176
     1
 40
0.6
176
     1
 40
30.0
176
     1
 62
     7
420
 16777215
176
     1
 90
        0
176
     1
 90
        4
176
     1
 62
     7
176
     1
 62
   257
176
     1
 90
        1
176
     1
 90
        1
176
     1
 40
1.0
176
     1
 90
        8
176
     1
 62
   257
176
     1
 40
1.0
176
     1
 90
        1
176
     1
 90
        6
176
     1
 90
        2
176
     1
 62
     8
420
  7895160
176
     1
 90
        3
176
     1
 90
        0
176
     1
 90
        0
176
     1
290
     0
176
     1
 90
        5
176
     1
 40
0.0
176
     1
 90
        0
176
     1
290
     0
176
     1
290
     1
176
     1
290
     1
176
     1
290
     0
176
     1
290
     0
176
     1
290
     0
176
     1
290
     0
176
     1
290
     0
176
     1
290
     0
176
     1
 90
       50
176
     1
 40
0.0
176
     1
 40
1.0
176
     1
 90
        0
176
     1
 62
    18
420
        0
176
     1
 90
       50
176
     1
 90
        3
176
     1
 62
     5
420
      255
176
     1
290
     0
176
     1
 90
       50
176
     1
 90
       50
176
     1
 90
       50
176
     1
290
     0
176
     1
 90
       50
176
     1
 62
   256
176
     0
 40
1.0
176
     0
 90
        2
176
     1
  1
strokes_ogs.tif
176
     1
290
     0
176
     1
 40
1.0
176
     1
 40
1.0
176
     1
  0
VISUALSTYLE
  5
3D
102
{ACAD_REACTORS
330
29
102
}
330
29
100
AcDbVisualStyle
  2
Shaded with edges
 70
    26
177
     3
291
     0
 70
    58
 90
        2
176
     1
 90
        2
176
     1
 90
        1
176
     1
 90
        2
176
     1
 40
0.6
176
     1
 40
30.0
176
     1
 62
     7
420
 16777215
176
     1
 90
        1
176
     1
 90
        2
176
     1
 62
     7
176
     1
 62
   257
176
     1
 90
        2
176
     1
 90
        1
176
     1
 40
1.0
176
     1
 90
        8
176
     1
 62
   257
176
     1
 40
1.0
176
     1
 90
        1
176
     1
 90
        6
176
     1
 90
        2
176
     1
 62
     7
176
     1
 90
        3
176
     1
 90
        0
176
     1
 90
        0
176
     1
290
     0
176
     1
 90
        5
176
     1
 40
0.0
176
     1
 90
        0
176
     1
290
     0
176
     1
290
     1
176
     1
290
     1
176
     1
290
     0
176
     1
290
     0
176
     1
290
     0
176
     1
290
     0
176
     1
290
     0
176
     1
290
     0
176
     1
 90
       50
176
     1
 40
0.0
176
     1
 40
1.0
176
     1
 90
        0
176
     1
 62
    18
420
        0
176
     1
 90
       50
176
     1
 90
        3
176
     1
 62
     5
420
      255
176
     1
290
     0
176
     1
 90
       50
176
     1
 90
       50
176
     1
 90
       50
176
     1
290
     0
176
     1
 90
       50
176
     1
 62
   256
176
     0
 40
1.0
176
     0
 90
        2
176
     1
  1
strokes_ogs.tif
176
     1
290
     0
176
     1
 40
1.0
176
     1
 40
1.0
176
     1
  0
VISUALSTYLE
  5
3A
102
{ACAD_REACTORS
330
29
102
}
330
29
100
AcDbVisualStyle
  2
Shades of Gray
 70
    23
177
     3
291
     0
 70
    58
 90
        2
176
     1
 90
        2
176
     1
 90
        3
176
     1
 90
        0
176
     1
 40
0.6
176
     1
 40
30.0
176
     1
 62
     7
420
 16777215
176
     1
 90
        2
176
     1
 90
        2
176
     1
 62
     7
176
     1
 62
     7
176
     1
 90
        1
176
     1
 90
        1
176
     1
 40
40.0
176
     1
 90
        8
176
     1
 62
     7
176
     1
 40
1.0
176
     1
 90
        1
176
     1
 90
        6
176
     1
 90
        2
176
     1
 62
     7
176
     1
 90
        3
176
     1
 90
        0
176
     1
 90
        0
176
     1
290
     0
176
     1
 90
        1
176
     1
 40
0.0
176
     1
 90
        0
176
     1
290
     0
176
     1
290
     1
176
     1
290
     1
176
     1
290
     0
176
     1
290
     0
176
     1
290
     0
176
     1
290
     0
176
     1
290
     0
176
     1
290
     0
176
     1
 90
       50
176
     1
 40
0.0
176
     1
 40
1.0
176
     1
 90
        0
176
     1
 62
    18
420
        0
176
     1
 90
       50
176
     1
 90
        3
176
     1
 62
     5
420
      255
176
     1
290
     0
176
     1
 90
       50
176
     1
 90
       50
176
     1
 90
       50
176
     1
290
     0
176
     1
 90
       50
176
     1
 62
   256
176
     0
 40
1.0
176
     0
 90
        2
176
     1
  1
strokes_ogs.tif
176
     1
290
     0
176
     1
 40
1.0
176
     1
 40
1.0
176
     1
  0
VISUALSTYLE
  5
3B
102
{ACAD_REACTORS
330
29
102
}
330
29
100
AcDbVisualStyle
  2
Sketchy
 70
    24
177
     3
291
     0
 70
    58
 90
        1
176
     1
 90
        2
176
     1
 90
        2
176
     1
 90
        0
176
     1
 40
0.6
176
     1
 40
30.0
176
     1
 62
     7
420
 16777215
176
     1
 90
        2
176
     1
 90
        2
176
     1
 62
     7
176
     1
 62
     7
176
     1
 90
        1
176
     1
 90
        1
176
     1
 40
40.0
176
     1
 90
       11
176
     1
 62
     7
176
     1
 40
1.0
176
     1
 90
        1
176
     1
 90
        6
176
     1
 90
        2
176
     1
 62
     7
176
     1
 90
        6
176
     1
 90
        0
176
     1
 90
        0
176
     1
290
     0
176
     1
 90
        1
176
     1
 40
0.0
176
     1
 90
        0
176
     1
290
     0
176
     1
290
     1
176
     1
290
     1
176
     1
290
     0
176
     1
290
     0
176
     1
290
     0
176
     1
290
     0
176
     1
290
     0
176
     1
290
     0
176
     1
 90
       50
176
     1
 40
0.0
176
     1
 40
1.0
176
     1
 90
        0
176
     1
 62
    18
420
        0
176
     1
 90
       50
176
     1
 90
        3
176
     1
 62
     5
420
      255
176
     1
290
     0
176
     1
 90
       50
176
     1
 90
       50
176
     1
 90
       50
176
     1
290
     0
176
     1
 90
       50
176
     1
 62
   256
176
     0
 40
1.0
176
     0
 90
        2
176
     1
  1
strokes_ogs.tif
176
     1
290
     0
176
     1
 40
1.0
176
     1
 40
1.0
176
     1
  0
VISUALSTYLE
  5
36
102
{ACAD_REACTORS
330
29
102
}
330
29
100
AcDbVisualStyle
  2
Thicken
 70
    13
177
     3
291
     1
 70
    58
 90
        2
176
     1
 90
        2
176
     1
 90
        0
176
     1
 90
        0
176
     1
 40
0.6
176
     1
 40
30.0
176
     1
 62
     7
420
 16777215
176
     1
 90
        1
176
     1
 90
        4
176
     1
 62
     7
176
     1
 62
   257
176
     1
 90
        1
176
     1
 90
        1
176
     1
 40
1.0
176
     1
 90
       12
176
     1
 62
     7
176
     1
 40
1.0
176
     1
 90
        1
176
     1
 90
        6
176
     1
 90
        2
176
     1
 62
     7
176
     1
 90
        5
176
     1
 90
        0
176
     1
 90
        0
176
     1
290
     0
176
     1
 90
        1
176
     1
 40
0.0
176
     1
 90
        0
176
     1
290
     0
176
     1
290
     1
176
     1
290
     1
176
     1
290
     0
176
     1
290
     0
176
     1
290
     0
176
     1
290
     0
176
     1
290
     0
176
     1
290
     0
176
     1
 90
       50
176
     1
 40
0.0
176
     1
 40
1.0
176
     1
 90
        0
176
     1
 62
    18
420
        0
176
     1
 90
       50
176
     1
 90
        3
176
     1
 62
     5
420
      255
176
     1
290
     0
176
     1
 90
       50
176
     1
 90
       50
176
     1
 90
       50
176
     1
290
     0
176
     1
 90
       50
176
     1
 62
   256
176
     0
 40
1.0
176
     0
 90
        2
176
     1
  1
strokes_ogs.tif
176
     1
290
     0
176
     1
 40
1.0
176
     1
 40
1.0
176
     1
  0
VISUALSTYLE
  5
30
102
{ACAD_REACTORS
330
29
102
}
330
29
100
AcDbVisualStyle
  2
Wireframe
 70
     5
177
     3
291
     0
 70
    58
 90
        0
176
     1
 90
        2
176
     1
 90
        0
176
     1
 90
        0
176
     1
 40
0.6
176
     1
 40
30.0
176
     1
 62
     7
420
 16777215
176
     1
 90
        1
176
     1
 90
        4
176
     1
 62
     7
176
     1
 62
   257
176
     1
 90
        1
176
     1
 90
        1
176
     1
 40
1.0
176
     1
 90
        0
176
     1
 62
   257
176
     1
 40
1.0
176
     1
 90
        1
176
     1
 90
        6
176
     1
 90
        2
176
     1
 62
     7
176
     1
 90
        3
176
     1
 90
        0
176
     1
 90
        0
176
     1
290
     0
176
     1
 90
        1
176
     1
 40
0.0
176
     1
 90
        0
176
     1
290
     0
176
     1
290
     1
176
     1
290
     1
176
     1
290
     0
176
     1
290
     0
176
     1
290
     0
176
     1
290
     0
176
     1
290
     0
176
     1
290
     0
176
     1
 90
       50
176
     1
 40
0.0
176
     1
 40
1.0
176
     1
 90
        0
176
     1
 62
    18
420
        0
176
     1
 90
       50
176
     1
 90
        3
176
     1
 62
     5
420
      255
176
     1
290
     0
176
     1
 90
       50
176
     1
 90
       50
176
     1
 90
       50
176
     1
290
     0
176
     1
 90
       50
176
     1
 62
   256
176
     0
 40
1.0
176
     0
 90
        2
176
     1
  1
strokes_ogs.tif
176
     1
290
     0
176
     1
 40
1.0
176
     1
 40
1.0
176
     1
  0
VISUALSTYLE
  5
3C
102
{ACAD_REACTORS
330
29
102
}
330
29
100
AcDbVisualStyle
  2
X-Ray
 70
    25
177
     3
291
     0
 70
    58
 90
        2
176
     1
 90
        2
176
     1
 90
        1
176
     1
 90
        1
176
     1
 40
0.5
176
     1
 40
30.0
176
     1
 62
     7
420
 16777215
176
     1
 90
        1
176
     1
 90
        0
176
     1
 62
     7
176
     1
 62
   257
176
     1
 90
        1
176
     1
 90
        1
176
     1
 40
1.0
176
     1
 90
        8
176
     1
 62
     7
176
     1
 40
1.0
176
     1
 90
        1
176
     1
 90
        6
176
     1
 90
        2
176
     1
 62
     7
176
     1
 90
        3
176
     1
 90
        0
176
     1
 90
        0
176
     1
290
     0
176
     1
 90
       13
176
     1
 40
0.0
176
     1
 90
        0
176
     1
290
     0
176
     1
290
     1
176
     1
290
     1
176
     1
290
     0
176
     1
290
     0
176
     1
290
     0
176
     1
290
     0
176
     1
290
     0
176
     1
290
     0
176
     1
 90
       50
176
     1
 40
0.0
176
     1
 40
1.0
176
     1
 90
        0
176
     1
 62
    18
420
        0
176
     1
 90
       50
176
     1
 90
        3
176
     1
 62
     5
420
      255
176
     1
290
     0
176
     1
 90
       50
176
     1
 90
       50
176
     1
 90
       50
176
     1
290
     0
176
     1
 90
       50
176
     1
 62
   256
176
     0
 40
1.0
176
     0
 90
        2
176
     1
  1
strokes_ogs.tif
176
     1
290
     0
176
     1
 40
1.0
176
     1
 40
1.0
176
     1
  0
DICTIONARYVAR
  5
92
102
{ACAD_REACTORS
330
8D
102
}
330
8D
100
DictionaryVariables
280
     0
  1
1:1
  0
DICTIONARYVAR
  5
8F
102
{ACAD_REACTORS
330
8D
102
}
330
8D
100
DictionaryVariables
280
     0
  1
STANDARD
  0
DICTIONARYVAR
  5
8E
102
{ACAD_REACTORS
330
8D
102
}
330
8D
100
DictionaryVariables
280
     0
  1
STANDARD
  0
DICTIONARYVAR
  5
90
102
{ACAD_REACTORS
330
8D
102
}
330
8D
100
DictionaryVariables
280
     0
  1
Imperial24
  0
DICTIONARYVAR
  5
91
102
{ACAD_REACTORS
330
8D
102
}
330
8D
100
DictionaryVariables
280
     0
  1
Imperial24
  0
DICTIONARY
  5
1A
330
19
100
AcDbDictionary
280
     1
281
     1
  3
BUMPTILE
360
1C
  3
DIFFUSETILE
360
1B
  3
OPACITYTILE
360
1F
  3
REFLECTIONTILE
360
1E
  3
REFRACTIONTILE
360
20
  3
SPECULARTILE
360
1D
  0
DICTIONARY
  5
12
330
11
100
AcDbDictionary
280
     1
281
     1
  3
BUMPTILE
360
14
  3
DIFFUSETILE
360
13
  3
OPACITYTILE
360
17
  3
REFLECTIONTILE
360
16
  3
REFRACTIONTILE
360
18
  3
SPECULARTILE
360
15
  0
DICTIONARY
  5
22
330
21
100
AcDbDictionary
280
     1
281
     1
  3
BUMPTILE
360
24
  3
DIFFUSETILE
360
23
  3
OPACITYTILE
360
27
  3
REFLECTIONTILE
360
26
  3
REFRACTIONTILE
360
28
  3
SPECULARTILE
360
25
  0
DICTIONARY
  5
93
330
65
100
AcDbDictionary
280
     1
281
     1
  3
ACAD_ROUNDTRIP_2008_TABLESTYLE_CELLSTYLEMAP
360
94
  0
XRECORD
  5
1C
102
{ACAD_REACTORS
330
1A
102
}
330
1A
100
AcDbXrecord
280
     1
270
     1
271
     1
  0
XRECORD
  5
1B
102
{ACAD_REACTORS
330
1A
102
}
330
1A
100
AcDbXrecord
280
     1
270
     1
271
     1
  0
XRECORD
  5
1F
102
{ACAD_REACTORS
330
1A
102
}
330
1A
100
AcDbXrecord
280
     1
270
     1
271
     1
  0
XRECORD
  5
1E
102
{ACAD_REACTORS
330
1A
102
}
330
1A
100
AcDbXrecord
280
     1
270
     1
271
     1
  0
XRECORD
  5
20
102
{ACAD_REACTORS
330
1A
102
}
330
1A
100
AcDbXrecord
280
     1
270
     1
271
     1
  0
XRECORD
  5
1D
102
{ACAD_REACTORS
330
1A
102
}
330
1A
100
AcDbXrecord
280
     1
270
     1
271
     1
  0
XRECORD
  5
14
102
{ACAD_REACTORS
330
12
102
}
330
12
100
AcDbXrecord
280
     1
270
     1
271
     1
  0
XRECORD
  5
13
102
{ACAD_REACTORS
330
12
102
}
330
12
100
AcDbXrecord
280
     1
270
     1
271
     1
  0
XRECORD
  5
17
102
{ACAD_REACTORS
330
12
102
}
330
12
100
AcDbXrecord
280
     1
270
     1
271
     1
  0
XRECORD
  5
16
102
{ACAD_REACTORS
330
12
102
}
330
12
100
AcDbXrecord
280
     1
270
     1
271
     1
  0
XRECORD
  5
18
102
{ACAD_REACTORS
330
12
102
}
330
12
100
AcDbXrecord
280
     1
270
     1
271
     1
  0
XRECORD
  5
15
102
{ACAD_REACTORS
330
12
102
}
330
12
100
AcDbXrecord
280
     1
270
     1
271
     1
  0
XRECORD
  5
24
102
{ACAD_REACTORS
330
22
102
}
330
22
100
AcDbXrecord
280
     1
270
     1
271
     1
  0
XRECORD
  5
23
102
{ACAD_REACTORS
330
22
102
}
330
22
100
AcDbXrecord
280
     1
270
     1
271
     1
  0
XRECORD
  5
27
102
{ACAD_REACTORS
330
22
102
}
330
22
100
AcDbXrecord
280
     1
270
     1
271
     1
  0
XRECORD
  5
26
102
{ACAD_REACTORS
330
22
102
}
330
22
100
AcDbXrecord
280
     1
270
     1
271
     1
  0
XRECORD
  5
28
102
{ACAD_REACTORS
330
22
102
}
330
22
100
AcDbXrecord
280
     1
270
     1
271
     1
  0
XRECORD
  5
25
102
{ACAD_REACTORS
330
22
102
}
330
22
100
AcDbXrecord
280
     1
270
     1
271
     1
  0
CELLSTYLEMAP
  5
94
102
{ACAD_REACTORS
330
93
102
}
330
93
100
AcDbCellStyleMap
 90
        3
300
CELLSTYLE
  1
TABLEFORMAT_BEGIN
 90
        5
170
     1
 91
        0
 92
    32768
 62
   257
 93
        1
300
CONTENTFORMAT
  1
CONTENTFORMAT_BEGIN
 90
        0
 91
        0
 92
      512
 93
        0
300

 40
0.0
140
1.0
 94
        5
 62
     0
340
55
144
0.25
309
CONTENTFORMAT_END
171
     0
 94
        0
309
TABLEFORMAT_END
  1
CELLSTYLE_BEGIN
 90
        1
 91
        1
300
_TITLE
309
CELLSTYLE_END
300
CELLSTYLE
  1
TABLEFORMAT_BEGIN
 90
        5
170
     1
 91
        0
 92
        0
 62
   257
 93
        1
300
CONTENTFORMAT
  1
CONTENTFORMAT_BEGIN
 90
        0
 91
        0
 92
      512
 93
        0
300

 40
0.0
140
1.0
 94
        5
 62
     0
340
55
144
0.18
309
CONTENTFORMAT_END
171
     0
 94
        0
309
TABLEFORMAT_END
  1
CELLSTYLE_BEGIN
 90
        2
 91
        1
300
_HEADER
309
CELLSTYLE_END
300
CELLSTYLE
  1
TABLEFORMAT_BEGIN
 90
        5
170
     1
 91
        0
 92
        0
 62
   257
 93
        1
300
CONTENTFORMAT
  1
CONTENTFORMAT_BEGIN
 90
        0
 91
        0
 92
      512
 93
        0
300

 40
0.0
140
1.0
 94
        2
 62
     0
340
55
144
0.18
309
CONTENTFORMAT_END
171
     0
 94
        0
309
TABLEFORMAT_END
  1
CELLSTYLE_BEGIN
 90
        3
 91
        2
300
_DATA
309
CELLSTYLE_END
  0
ENDSEC
  0
EOF
