  0
SECTION
  2
HEADER
  9
$ACADVER
  1
AC1032
  9
$ACADMAINTVER
 90
      228
  9
$DWGCODEPAGE
  3
ANSI_1252
  9
$REQUIREDVERSIONS
160
                 0
  9
$INSBASE
 10
0.0
 20
0.0
 30
0.0
  9
$EXTMIN
 10
1.000000000000000E+20
 20
1.000000000000000E+20
 30
1.000000000000000E+20
  9
$EXTMAX
 10
-1.000000000000000E+20
 20
-1.000000000000000E+20
 30
-1.000000000000000E+20
  9
$LIMMIN
 10
0.0
 20
0.0
  9
$LIMMAX
 10
12.0
 20
9.0
  9
$ORTHOMODE
 70
     0
  9
$REGENMODE
 70
     1
  9
$FILLMODE
 70
     1
  9
$QTEXTMODE
 70
     0
  9
$MIRRTEXT
 70
     0
  9
$LTSCALE
 40
1.0
  9
$ATTMODE
 70
     1
  9
$TEXTSIZE
 40
0.2
  9
$TRACEWID
 40
0.05
  9
$TEXTSTYLE
  7
Standard
  9
$CLAYER
  8
0
  9
$CELTYPE
  6
ByLayer
  9
$CECOLOR
 62
   256
  9
$CELTSCALE
 40
1.0
  9
$DISPSILH
 70
     0
  9
$DIMSCALE
 40
1.0
  9
$DIMASZ
 40
0.18
  9
$DIMEXO
 40
0.0625
  9
$DIMDLI
 40
0.38
  9
$DIMRND
 40
0.0
  9
$DIMDLE
 40
0.0
  9
$DIMEXE
 40
0.18
  9
$DIMTP
 40
0.0
  9
$DIMTM
 40
0.0
  9
$DIMTXT
 40
0.18
  9
$DIMCEN
 40
0.09
  9
$DIMTSZ
 40
0.0
  9
$DIMTOL
 70
     0
  9
$DIMLIM
 70
     0
  9
$DIMTIH
 70
     1
  9
$DIMTOH
 70
     1
  9
$DIMSE1
 70
     0
  9
$DIMSE2
 70
     0
  9
$DIMTAD
 70
     0
  9
$DIMZIN
 70
     0
  9
$DIMBLK
  1

  9
$DIMASO
 70
     1
  9
$DIMSHO
 70
     1
  9
$DIMPOST
  1

  9
$DIMAPOST
  1

  9
$DIMALT
 70
     0
  9
$DIMALTD
 70
     2
  9
$DIMALTF
 40
25.4
  9
$DIMLFAC
 40
1.0
  9
$DIMTOFL
 70
     0
  9
$DIMTVP
 40
0.0
  9
$DIMTIX
 70
     0
  9
$DIMSOXD
 70
     0
  9
$DIMSAH
 70
     0
  9
$DIMBLK1
  1

  9
$DIMBLK2
  1

  9
$DIMSTYLE
  2
Standard
  9
$DIMCLRD
 70
     0
  9
$DIMCLRE
 70
     0
  9
$DIMCLRT
 70
     0
  9
$DIMTFAC
 40
1.0
  9
$DIMGAP
 40
0.09
  9
$DIMJUST
 70
     0
  9
$DIMSD1
 70
     0
  9
$DIMSD2
 70
     0
  9
$DIMTOLJ
 70
     1
  9
$DIMTZIN
 70
     0
  9
$DIMALTZ
 70
     0
  9
$DIMALTTZ
 70
     0
  9
$DIMUPT
 70
     0
  9
$DIMDEC
 70
     4
  9
$DIMTDEC
 70
     4
  9
$DIMALTU
 70
     2
  9
$DIMALTTD
 70
     2
  9
$DIMTXSTY
  7
Standard
  9
$DIMAUNIT
 70
     0
  9
$DIMADEC
 70
     0
  9
$DIMALTRND
 40
0.0
  9
$DIMAZIN
 70
     0
  9
$DIMDSEP
 70
    46
  9
$DIMATFIT
 70
     3
  9
$DIMFRAC
 70
     0
  9
$DIMLDRBLK
  1

  9
$DIMLUNIT
 70
     2
  9
$DIMLWD
 70
    -2
  9
$DIMLWE
 70
    -2
  9
$DIMTMOVE
 70
     0
  9
$DIMFXL
 40
1.0
  9
$DIMFXLON
 70
     0
  9
$DIMJOGANG
 40
0.7853981633974483
  9
$DIMTFILL
 70
     0
  9
$DIMTFILLCLR
 70
     0
  9
$DIMARCSYM
 70
     0
  9
$DIMLTYPE
  6

  9
$DIMLTEX1
  6

  9
$DIMLTEX2
  6

  9
$DIMTXTDIRECTION
 70
     0
  9
$LUNITS
 70
     2
  9
$LUPREC
 70
     4
  9
$SKETCHINC
 40
0.1
  9
$FILLETRAD
 40
0.0
  9
$AUNITS
 70
     0
  9
$AUPREC
 70
     0
  9
$MENU
  1
.
  9
$ELEVATION
 40
0.0
  9
$PELEVATION
 40
0.0
  9
$THICKNESS
 40
0.0
  9
$LIMCHECK
 70
     0
  9
$CHAMFERA
 40
0.0
  9
$CHAMFERB
 40
0.0
  9
$CHAMFERC
 40
0.0
  9
$CHAMFERD
 40
0.0
  9
$SKPOLY
 70
     0
  9
$TDCREATE
 40
2460302.074756945
  9
$TDUCREATE
 40
2460302.408090278
  9
$TDUPDATE
 40
2460302.074756945
  9
$TDUUPDATE
 40
2460302.408090278
  9
$TDINDWG
 40
0.0000000000
  9
$TDUSRTIMER
 40
0.0000000000
  9
$USRTIMER
 70
     1
  9
$ANGBASE
 50
0.0
  9
$ANGDIR
 70
     0
  9
$PDMODE
 70
     0
  9
$PDSIZE
 40
0.0
  9
$PLINEWID
 40
0.0
  9
$SPLFRAME
 70
     0
  9
$SPLINETYPE
 70
     6
  9
$SPLINESEGS
 70
     8
  9
$HANDSEED
  5
118
  9
$SURFTAB1
 70
     6
  9
$SURFTAB2
 70
     6
  9
$SURFTYPE
 70
     6
  9
$SURFU
 70
     6
  9
$SURFV
 70
     6
  9
$UCSBASE
  2

  9
$UCSNAME
  2

  9
$UCSORG
 10
0.0
 20
0.0
 30
0.0
  9
$UCSXDIR
 10
1.0
 20
0.0
 30
0.0
  9
$UCSYDIR
 10
0.0
 20
1.0
 30
0.0
  9
$UCSORTHOREF
  2

  9
$UCSORTHOVIEW
 70
     0
  9
$UCSORGTOP
 10
0.0
 20
0.0
 30
0.0
  9
$UCSORGBOTTOM
 10
0.0
 20
0.0
 30
0.0
  9
$UCSORGLEFT
 10
0.0
 20
0.0
 30
0.0
  9
$UCSORGRIGHT
 10
0.0
 20
0.0
 30
0.0
  9
$UCSORGFRONT
 10
0.0
 20
0.0
 30
0.0
  9
$UCSORGBACK
 10
0.0
 20
0.0
 30
0.0
  9
$PUCSBASE
  2

  9
$PUCSNAME
  2

  9
$PUCSORG
 10
0.0
 20
0.0
 30
0.0
  9
$PUCSXDIR
 10
1.0
 20
0.0
 30
0.0
  9
$PUCSYDIR
 10
0.0
 20
1.0
 30
0.0
  9
$PUCSORTHOREF
  2

  9
$PUCSORTHOVIEW
 70
     0
  9
$PUCSORGTOP
 10
0.0
 20
0.0
 30
0.0
  9
$PUCSORGBOTTOM
 10
0.0
 20
0.0
 30
0.0
  9
$PUCSORGLEFT
 10
0.0
 20
0.0
 30
0.0
  9
$PUCSORGRIGHT
 10
0.0
 20
0.0
 30
0.0
  9
$PUCSORGFRONT
 10
0.0
 20
0.0
 30
0.0
  9
$PUCSORGBACK
 10
0.0
 20
0.0
 30
0.0
  9
$USERI1
 70
     0
  9
$USERI2
 70
     0
  9
$USERI3
 70
     0
  9
$USERI4
 70
     0
  9
$USERI5
 70
     0
  9
$USERR1
 40
0.0
  9
$USERR2
 40
0.0
  9
$USERR3
 40
0.0
  9
$USERR4
 40
0.0
  9
$USERR5
 40
0.0
  9
$WORLDVIEW
 70
     1
  9
$SHADEDGE
 70
     3
  9
$SHADEDIF
 70
    70
  9
$TILEMODE
 70
     1
  9
$MAXACTVP
 70
    64
  9
$PINSBASE
 10
0.0
 20
0.0
 30
0.0
  9
$PLIMCHECK
 70
     0
  9
$PEXTMIN
 10
1.000000000000000E+20
 20
1.000000000000000E+20
 30
1.000000000000000E+20
  9
$PEXTMAX
 10
-1.000000000000000E+20
 20
-1.000000000000000E+20
 30
-1.000000000000000E+20
  9
$PLIMMIN
 10
0.0
 20
0.0
  9
$PLIMMAX
 10
12.0
 20
9.0
  9
$UNITMODE
 70
     0
  9
$VISRETAIN
 70
     1
  9
$PLINEGEN
 70
     0
  9
$PSLTSCALE
 70
     1
  9
$TREEDEPTH
 70
  3020
  9
$CMLSTYLE
  2
Standard
  9
$CMLJUST
 70
     0
  9
$CMLSCALE
 40
1.0
  9
$PROXYGRAPHICS
 70
     1
  9
$MEASUREMENT
 70
     0
  9
$CELWEIGHT
370
    -1
  9
$ENDCAPS
280
     0
  9
$JOINSTYLE
280
     0
  9
$LWDISPLAY
290
     1
  9
$INSUNITS
 70
     1
  9
$HYPERLINKBASE
  1

  9
$STYLESHEET
  1

  9
$XEDIT
290
     1
  9
$CEPSNTYPE
380
     0
  9
$PSTYLEMODE
290
     1
  9
$FINGERPRINTGUID
  2
{D74F7EBD-C17F-3B44-849A-9AC70F257C9A}
  9
$VERSIONGUID
  2
{ECF3E29E-B834-EB4F-AD00-1650C259B41D}
  9
$EXTNAMES
290
     1
  9
$PSVPSCALE
 40
0.0
  9
$OLESTARTUP
290
     0
  9
$SORTENTS
280
   127
  9
$INDEXCTL
280
     0
  9
$HIDETEXT
280
     1
  9
$XCLIPFRAME
280
     2
  9
$HALOGAP
280
     0
  9
$OBSCOLOR
 70
   257
  9
$OBSLTYPE
280
     0
  9
$INTERSECTIONDISPLAY
280
     0
  9
$INTERSECTIONCOLOR
 70
   257
  9
$DIMASSOC
280
     2
  9
$PROJECTNAME
  1

  9
$CAMERADISPLAY
290
     0
  9
$LENSLENGTH
 40
50.0
  9
$CAMERAHEIGHT
 40
0.0
  9
$STEPSPERSEC
 40
2.0
  9
$STEPSIZE
 40
6.0
  9
$3DDWFPREC
 40
2.0
  9
$PSOLWIDTH
 40
0.25
  9
$PSOLHEIGHT
 40
4.0
  9
$LOFTANG1
 40
1.570796326794896
  9
$LOFTANG2
 40
1.570796326794896
  9
$LOFTMAG1
 40
0.0
  9
$LOFTMAG2
 40
0.0
  9
$LOFTPARAM
 70
     7
  9
$LOFTNORMALS
280
     1
  9
$LATITUDE
 40
37.795
  9
$LONGITUDE
 40
-122.394
  9
$NORTHDIRECTION
 40
0.0
  9
$TIMEZONE
 70
 -8000
  9
$LIGHTGLYPHDISPLAY
280
     1
  9
$TILEMODELIGHTSYNCH
280
     1
  9
$CMATERIAL
347
11
  9
$SOLIDHIST
280
     0
  9
$SHOWHIST
280
     1
  9
$DWFFRAME
280
     2
  9
$DGNFRAME
280
     0
  9
$REALWORLDSCALE
290
     1
  9
$INTERFERECOLOR
 62
     1
  9
$INTERFEREOBJVS
345
33
  9
$INTERFEREVPVS
346
30
  9
$CSHADOW
280
     0
  9
$SHADOWPLANELOCATION
 40
0.0
  0
ENDSEC
  0
SECTION
  2
CLASSES
  0
CLASS
  1
ACDBDICTIONARYWDFLT
  2
AcDbDictionaryWithDefault
  3
ObjectDBX Classes
 90
        0
 91
        1
280
     0
281
     0
  0
CLASS
  1
MATERIAL
  2
AcDbMaterial
  3
ObjectDBX Classes
 90
     1153
 91
        3
280
     0
281
     0
  0
CLASS
  1
VISUALSTYLE
  2
AcDbVisualStyle
  3
ObjectDBX Classes
 90
     4095
 91
       24
280
     0
281
     0
  0
CLASS
  1
SCALE
  2
AcDbScale
  3
ObjectDBX Classes
 90
     1153
 91
       17
280
     0
281
     0
  0
CLASS
  1
TABLESTYLE
  2
AcDbTableStyle
  3
ObjectDBX Classes
 90
     4095
 91
        1
280
     0
281
     0
  0
CLASS
  1
MLEADERSTYLE
  2
AcDbMLeaderStyle
  3
ACDB_MLEADERSTYLE_CLASS
 90
     4095
 91
        1
280
     0
281
     0
  0
CLASS
  1
ACDBSECTIONVIEWSTYLE
  2
AcDbSectionViewStyle
  3
ObjectDBX Classes
 90
     1025
 91
        1
280
     0
281
     0
  0
CLASS
  1
ACDBDETAILVIEWSTYLE
  2
AcDbDetailViewStyle
  3
ObjectDBX Classes
 90
     1025
 91
        1
280
     0
281
     0
  0
CLASS
  1
DICTIONARYVAR
  2
AcDbDictionaryVar
  3
ObjectDBX Classes
 90
        0
 91
        5
280
     0
281
     0
  0
CLASS
  1
CELLSTYLEMAP
  2
AcDbCellStyleMap
  3
ObjectDBX Classes
 90
     1152
 91
        1
280
     0
281
     0
  0
ENDSEC
  0
SECTION
  2
TABLES
  0
TABLE
  2
VPORT
  5
8
330
0
100
AcDbSymbolTable
 70
     1
  0
VPORT
  5
57
330
8
100
AcDbSymbolTableRecord
100
AcDbViewportTableRecord
  2
*Active
 70
     0
 10
0.0
 20
0.0
 11
1.0
 21
1.0
 12
0.0
 22
0.0
 13
0.0
 23
0.0
 14
1.0
 24
1.0
 15
0.0
 25
0.0
 16
0.0
 26
0.0
 36
1.0
 17
0.9063715204259157
 27
-9.464948306989613
 37
0.0
 40
28.18769568220836
 41
1.322120462652983
 42
50.0
 43
0.0
 44
0.0
 50
0.0
 51
0.0
 71
     0
 72
   100
 73
     1
 74
     1
 75
     0
 76
     0
 77
     0
 78
     0
281
     0
 65
     1
110
0.0
120
0.0
130
0.0
111
1.0
121
0.0
131
0.0
112
0.0
122
1.0
132
0.0
 79
     0
146
0.0
 60
     3
 61
     5
292
     1
282
     1
141
0.0
142
0.0
 63
   250
421
  3355443
  0
ENDTAB
  0
TABLE
  2
LTYPE
  5
5
330
0
100
AcDbSymbolTable
 70
     1
  0
LTYPE
  5
5B
330
5
100
AcDbSymbolTableRecord
100
AcDbLinetypeTableRecord
  2
ByBlock
 70
     0
  3

 72
    65
 73
     0
 40
0.0
  0
LTYPE
  5
5C
330
5
100
AcDbSymbolTableRecord
100
AcDbLinetypeTableRecord
  2
ByLayer
 70
     0
  3

 72
    65
 73
     0
 40
0.0
  0
LTYPE
  5
5D
330
5
100
AcDbSymbolTableRecord
100
AcDbLinetypeTableRecord
  2
Continuous
 70
     0
  3
Solid line
 72
    65
 73
     0
 40
0.0
  0
ENDTAB
  0
TABLE
  2
LAYER
  5
2
330
0
100
AcDbSymbolTable
 70
     6
  0
LAYER
  5
54
330
2
100
AcDbSymbolTableRecord
100
AcDbLayerTableRecord
  2
0
 70
     0
 62
     7
  6
Continuous
370
    -3
390
F
347
21
348
0
  0
LAYER
  5
78
330
2
100
AcDbSymbolTableRecord
100
AcDbLayerTableRecord
  2
Luffy
 70
     1
 62
     7
  6
Continuous
370
     0
390
F
347
21
348
0
  0
LAYER
  5
79
330
2
100
AcDbSymbolTableRecord
100
AcDbLayerTableRecord
  2
Deck Box - G5
 70
     0
 62
     7
  6
Continuous
370
     0
390
F
347
21
348
0
  0
LAYER
  5
10C
330
2
100
AcDbSymbolTableRecord
100
AcDbLayerTableRecord
  2
Poneglyph
 70
     1
 62
     7
  6
Continuous
370
     0
390
F
347
21
348
0
  0
LAYER
  5
10D
330
2
100
AcDbSymbolTableRecord
100
AcDbLayerTableRecord
  2
Crocodile
 70
     1
 62
     7
  6
Continuous
370
     0
390
F
347
21
348
0
  0
LAYER
  5
10E
330
2
100
AcDbSymbolTableRecord
100
AcDbLayerTableRecord
  2
Layer 2
 70
     5
 62
     7
  6
Continuous
370
     0
390
F
347
21
348
0
  0
ENDTAB
  0
TABLE
  2
STYLE
  5
3
330
0
100
AcDbSymbolTable
 70
     2
  0
STYLE
  5
55
330
3
100
AcDbSymbolTableRecord
100
AcDbTextStyleTableRecord
  2
Standard
 70
     0
 40
0.0
 41
1.0
 50
0.0
 71
     0
 42
0.2
  3
txt
  4

  0
STYLE
  5
5A
330
3
100
AcDbSymbolTableRecord
100
AcDbTextStyleTableRecord
  2
Annotative
 70
     0
 40
0.0
 41
1.0
 50
0.0
 71
     0
 42
0.2
  3
txt
  4

1001
AcadAnnotative
1000
AnnotativeData
1002
{
1070
     1
1070
     1
1002
}
  0
ENDTAB
  0
TABLE
  2
VIEW
  5
6
330
0
100
AcDbSymbolTable
 70
     0
  0
ENDTAB
  0
TABLE
  2
UCS
  5
7
330
0
100
AcDbSymbolTable
 70
     0
  0
ENDTAB
  0
TABLE
  2
APPID
  5
9
330
0
100
AcDbSymbolTable
 70
     2
  0
APPID
  5
56
330
9
100
AcDbSymbolTableRecord
100
AcDbRegAppTableRecord
  2
ACAD
 70
     0
  0
APPID
  5
5E
330
9
100
AcDbSymbolTableRecord
100
AcDbRegAppTableRecord
  2
AcadAnnotative
 70
     0
  0
ENDTAB
  0
TABLE
  2
DIMSTYLE
  5
A
330
0
100
AcDbSymbolTable
 70
     2
100
AcDbDimStyleTable
 71
     0
  0
DIMSTYLE
105
58
330
A
100
AcDbSymbolTableRecord
100
AcDbDimStyleTableRecord
  2
Standard
 70
     0
340
55
  0
DIMSTYLE
105
59
330
A
100
AcDbSymbolTableRecord
100
AcDbDimStyleTableRecord
  2
Annotative
 70
     0
340
55
1001
AcadAnnotative
1000
AnnotativeData
1002
{
1070
     1
1070
     1
1002
}
  0
ENDTAB
  0
TABLE
  2
BLOCK_RECORD
  5
1
330
0
100
AcDbSymbolTable
 70
     3
  0
BLOCK_RECORD
  5
70
330
1
100
AcDbSymbolTableRecord
100
AcDbBlockTableRecord
  2
*Model_Space
340
73
 70
     0
280
     1
281
     0
  0
BLOCK_RECORD
  5
6C
330
1
100
AcDbSymbolTableRecord
100
AcDbBlockTableRecord
  2
*Paper_Space
340
6F
 70
     0
280
     1
281
     0
  0
BLOCK_RECORD
  5
74
330
1
100
AcDbSymbolTableRecord
100
AcDbBlockTableRecord
  2
*Paper_Space0
340
77
 70
     0
280
     1
281
     0
  0
BLOCK_RECORD
  5
7A
330
1
100
AcDbSymbolTableRecord
100
AcDbBlockTableRecord
  2
Block_0
340
0
102
{BLKREFS
331
7B
102
}
 70
     0
280
     1
281
     0
  0
BLOCK_RECORD
  5
85
330
1
100
AcDbSymbolTableRecord
100
AcDbBlockTableRecord
  2
Block_1
340
0
102
{BLKREFS
331
86
102
}
 70
     0
280
     1
281
     0
  0
ENDTAB
  0
ENDSEC
  0
SECTION
  2
BLOCKS
  0
BLOCK
  5
71
330
70
100
AcDbEntity
  8
0
100
AcDbBlockBegin
  2
*Model_Space
 70
     0
 10
0.0
 20
0.0
 30
0.0
  3
*Model_Space
  1

  0
ENDBLK
  5
72
330
70
100
AcDbEntity
  8
0
100
AcDbBlockEnd
  0
BLOCK
  5
6D
330
6C
100
AcDbEntity
 67
     1
  8
0
100
AcDbBlockBegin
  2
*Paper_Space
 70
     0
 10
0.0
 20
0.0
 30
0.0
  3
*Paper_Space
  1

  0
ENDBLK
  5
6E
330
6C
100
AcDbEntity
 67
     1
  8
0
100
AcDbBlockEnd
  0
BLOCK
  5
75
330
74
100
AcDbEntity
 67
     1
  8
0
100
AcDbBlockBegin
  2
*Paper_Space0
 70
     0
 10
0.0
 20
0.0
 30
0.0
  3
*Paper_Space0
  1

  0
ENDBLK
  5
76
330
74
100
AcDbEntity
 67
     1
  8
0
100
AcDbBlockEnd
  0
BLOCK
  5
7C
330
7A
100
AcDbEntity
  8
0
100
AcDbBlockBegin
  2
Block_0
 70
     0
 10
0.0
 20
0.0
 30
0.0
  3
Block_0
  1

  0
SPLINE
  5
7E
330
7A
100
AcDbEntity
  8
Deck Box - G5
100
AcDbSpline
210
0.0
220
0.0
230
1.0
 70
     9
 71
     3
 72
    98
 73
    94
 74
     0
 42
0.0000000001
 43
0.0000000001
 40
0.0
 40
0.0
 40
0.0
 40
0.0
 40
1.0
 40
1.0
 40
1.0
 40
2.0
 40
2.0
 40
2.0
 40
3.0
 40
3.0
 40
3.0
 40
4.0
 40
4.0
 40
4.0
 40
5.0
 40
5.0
 40
5.0
 40
6.0
 40
6.0
 40
6.0
 40
7.0
 40
7.0
 40
7.0
 40
8.0
 40
8.0
 40
8.0
 40
9.0
 40
9.0
 40
9.0
 40
10.0
 40
10.0
 40
10.0
 40
11.0
 40
11.0
 40
11.0
 40
12.0
 40
12.0
 40
12.0
 40
13.0
 40
13.0
 40
13.0
 40
14.0
 40
14.0
 40
14.0
 40
15.0
 40
15.0
 40
15.0
 40
16.0
 40
16.0
 40
16.0
 40
17.0
 40
17.0
 40
17.0
 40
18.0
 40
18.0
 40
18.0
 40
19.0
 40
19.0
 40
19.0
 40
20.0
 40
20.0
 40
20.0
 40
21.0
 40
21.0
 40
21.0
 40
22.0
 40
22.0
 40
22.0
 40
23.0
 40
23.0
 40
23.0
 40
24.0
 40
24.0
 40
24.0
 40
25.0
 40
25.0
 40
25.0
 40
26.0
 40
26.0
 40
26.0
 40
27.0
 40
27.0
 40
27.0
 40
28.0
 40
28.0
 40
28.0
 40
29.0
 40
29.0
 40
29.0
 40
30.0
 40
30.0
 40
30.0
 40
31.0
 40
31.0
 40
31.0
 40
31.0
 10
3.464035174923802
 20
-5.271551285374319
 30
0.0
 10
3.438914545719158
 20
-5.296943181940074
 30
0.0
 10
3.408766993228924
 20
-5.312095159479136
 30
0.0
 10
3.372543687632678
 20
-5.318513175700925
 30
0.0
 10
3.336329282996719
 20
-5.324945179146021
 30
0.0
 10
3.302664155772327
 20
-5.323393868924666
 30
0.0
 10
3.270944736081029
 20
-5.313932995850664
 30
0.0
 10
3.239246085297066
 20
-5.30446661265839
 30
0.0
 10
3.214009319753447
 20
-5.290300522434866
 30
0.0
 10
3.195521813310847
 20
-5.270424678115205
 30
0.0
 10
3.180172319224475
 20
-5.253969769532305
 30
0.0
 10
3.16790298125247
 20
-5.234597889106958
 30
0.0
 10
3.158949462914796
 20
-5.211911460613034
 30
0.0
 10
3.14999149409698
 20
-5.189234780789901
 30
0.0
 10
3.145726662554011
 20
-5.166377114774276
 30
0.0
 10
3.146411824568442
 20
-5.143100679769935
 30
0.0
 10
3.146456753225126
 20
-5.111423009820933
 30
0.0
 10
3.156098612491619
 20
-5.079290543186819
 30
0.0
 10
3.175916176714167
 20
-5.046807124404267
 30
0.0
 10
3.195717846364775
 20
-5.014359733318112
 30
0.0
 10
3.222823813568551
 20
-4.985661341933564
 30
0.0
 10
3.257004772634306
 20
-4.961705043105439
 30
0.0
 10
3.29919574824737
 20
-4.933307588949623
 30
0.0
 10
3.346822243608698
 20
-4.91791401391707
 30
0.0
 10
3.398098556542726
 20
-4.917485496257565
 30
0.0
 10
3.42565338645809
 20
-4.915787532119111
 30
0.0
 10
3.449796605452231
 20
-4.925760846192461
 30
0.0
 10
3.470186374264623
 20
-4.947270652507565
 30
0.0
 10
3.490583348616294
 20
-4.968788935927705
 30
0.0
 10
3.500989842756919
 20
-4.992969878039249
 30
0.0
 10
3.502140185910131
 20
-5.018953052681177
 30
0.0
 10
3.503249415103924
 20
-5.044983275256046
 30
0.0
 10
3.493799986121719
 20
-5.062965758166202
 30
0.0
 10
3.473791051253012
 20
-5.073316303413599
 30
0.0
 10
3.459583211287192
 20
-5.079129054335908
 30
0.0
 10
3.447560133216446
 20
-5.082361374485647
 30
0.0
 10
3.437620091780356
 20
-5.082997581218503
 30
0.0
 10
3.427668818180096
 20
-5.083630820964597
 30
0.0
 10
3.420111055186389
 20
-5.082681385200708
 30
0.0
 10
3.414924126543269
 20
-5.080075523113034
 30
0.0
 10
3.409730628143746
 20
-5.077475171143633
 30
0.0
 10
3.404728288462756
 20
-5.074633645535994
 30
0.0
 10
3.399913080875408
 20
-5.071543316895586
 30
0.0
 10
3.395092787025039
 20
-5.068464432346975
 30
0.0
 10
3.389031656925213
 20
-5.066407038955048
 30
0.0
 10
3.381740498884848
 20
-5.065413098389726
 30
0.0
 10
3.374445314219592
 20
-5.064428906495195
 30
0.0
 10
3.36553375755184
 20
-5.065947156006914
 30
0.0
 10
3.355028928992813
 20
-5.070000483779267
 30
0.0
 10
3.342083753821914
 20
-5.076931788710908
 30
0.0
 10
3.332749613468182
 20
-5.087543428793373
 30
0.0
 10
3.327142008487713
 20
-5.101603555203963
 30
0.0
 10
3.321518508935304
 20
-5.115675549561601
 30
0.0
 10
3.319050399804445
 20
-5.128681971816376
 30
0.0
 10
3.31961688234839
 20
-5.140679618572018
 30
0.0
 10
3.320170437307158
 20
-5.15269167640622
 30
0.0
 10
3.321972669837539
 20
-5.163723780898408
 30
0.0
 10
3.324972929236953
 20
-5.173828490099796
 30
0.0
 10
3.330076146467856
 20
-5.188392156549449
 30
0.0
 10
3.337989524017769
 20
-5.197783093506914
 30
0.0
 10
3.348661563473607
 20
-5.202167452230873
 30
0.0
 10
3.353746766856311
 20
-5.204446521919458
 30
0.0
 10
3.360326695784262
 20
-5.204452455892982
 30
0.0
 10
3.368408555796741
 20
-5.202212804742808
 30
0.0
 10
3.376499316769506
 20
-5.19998163069767
 30
0.0
 10
3.382119213552275
 20
-5.196392424425968
 30
0.0
 10
3.385303214203316
 20
-5.191376097521671
 30
0.0
 10
3.387738898407418
 20
-5.18739863983938
 30
0.0
 10
3.388287790958416
 20
-5.184926716011255
 30
0.0
 10
3.386908354041641
 20
-5.183958630616289
 30
0.0
 10
3.385515777612062
 20
-5.183007923286646
 30
0.0
 10
3.380896603078642
 20
-5.182781584582218
 30
0.0
 10
3.373009292626711
 20
-5.183345735922279
 30
0.0
 10
3.355307189965578
 20
-5.185128894966333
 30
0.0
 10
3.345247833276125
 20
-5.178017451552705
 30
0.0
 10
3.342933795529271
 20
-5.161615948731523
 30
0.0
 10
3.342082694183785
 20
-5.154315465875621
 30
0.0
 10
3.343395797753664
 20
-5.147655852160343
 30
0.0
 10
3.346883490692574
 20
-5.141647280111732
 30
0.0
 10
3.350355712914796
 20
-5.135647185168155
 30
0.0
 10
3.356887746199301
 20
-5.131194161893416
 30
0.0
 10
3.366417283824084
 20
-5.128389511692678
 30
0.0
 10
3.425840730479358
 20
-5.111699787300318
 30
0.0
 10
3.46577298145592
 20
-5.105790397380612
 30
0.0
 10
3.485624242170981
 20
-5.107824902588945
 30
0.0
 10
3.490619588240317
 20
-5.108451784506264
 30
0.0
 10
3.494772098141576
 20
-5.110957616754527
 30
0.0
 10
3.498077321394614
 20
-5.115336889215464
 30
0.0
 10
3.5072292039901
 20
-5.131552743436385
 30
0.0
 10
3.510664550805421
 20
-5.153911107965464
 30
0.0
 10
3.508906611148846
 20
-5.181952947565074
 30
0.0
 10
3.504201605926949
 20
-5.216478924805742
 30
0.0
 10
3.489138637990751
 20
-5.246197959636472
 30
0.0
 10
3.464035174923802
 20
-5.271551285374319
 30
0.0
  0
SPLINE
  5
7F
330
7A
100
AcDbEntity
  8
Deck Box - G5
100
AcDbSpline
210
0.0
220
0.0
230
1.0
 70
     9
 71
     3
 72
    89
 73
    85
 74
     0
 42
0.0000000001
 43
0.0000000001
 40
0.0
 40
0.0
 40
0.0
 40
0.0
 40
1.0
 40
1.0
 40
1.0
 40
2.0
 40
2.0
 40
2.0
 40
3.0
 40
3.0
 40
3.0
 40
4.0
 40
4.0
 40
4.0
 40
5.0
 40
5.0
 40
5.0
 40
6.0
 40
6.0
 40
6.0
 40
7.0
 40
7.0
 40
7.0
 40
8.0
 40
8.0
 40
8.0
 40
9.0
 40
9.0
 40
9.0
 40
10.0
 40
10.0
 40
10.0
 40
11.0
 40
11.0
 40
11.0
 40
12.0
 40
12.0
 40
12.0
 40
13.0
 40
13.0
 40
13.0
 40
14.0
 40
14.0
 40
14.0
 40
15.0
 40
15.0
 40
15.0
 40
16.0
 40
16.0
 40
16.0
 40
17.0
 40
17.0
 40
17.0
 40
18.0
 40
18.0
 40
18.0
 40
19.0
 40
19.0
 40
19.0
 40
20.0
 40
20.0
 40
20.0
 40
21.0
 40
21.0
 40
21.0
 40
22.0
 40
22.0
 40
22.0
 40
23.0
 40
23.0
 40
23.0
 40
24.0
 40
24.0
 40
24.0
 40
25.0
 40
25.0
 40
25.0
 40
26.0
 40
26.0
 40
26.0
 40
27.0
 40
27.0
 40
27.0
 40
28.0
 40
28.0
 40
28.0
 40
28.0
 10
3.598057781667509
 20
-5.222816832384952
 30
0.0
 10
3.580358434065512
 20
-5.202938868789033
 30
0.0
 10
3.563695836409262
 20
-5.161381556777314
 30
0.0
 10
3.548560177297392
 20
-5.097523524550751
 30
0.0
 10
3.533437021915447
 20
-5.033659558350664
 30
0.0
 10
3.526092881968616
 20
-4.97611951250648
 30
0.0
 10
3.527401535058351
 20
-4.924214198378876
 30
0.0
 10
3.529118996538386
 20
-4.900466860189857
 30
0.0
 10
3.53627324933244
 20
-4.883143896051402
 30
0.0
 10
3.548793509613473
 20
-4.872446637208086
 30
0.0
 10
3.561289610145156
 20
-4.861787525337427
 30
0.0
 10
3.583477584863039
 20
-4.851461563694631
 30
0.0
 10
3.615401090858047
 20
-4.842214313667505
 30
0.0
 10
3.670456497216554
 20
-4.825657255968937
 30
0.0
 10
3.722705134098065
 20
-4.815903498915986
 30
0.0
 10
3.771319212195938
 20
-4.812803421604788
 30
0.0
 10
3.793545333886476
 20
-4.810398043051185
 30
0.0
 10
3.81055803598066
 20
-4.81793334171655
 30
0.0
 10
3.822125045800539
 20
-4.83525757742076
 30
0.0
 10
3.832008926415773
 20
-4.852477544733043
 30
0.0
 10
3.831754613264731
 20
-4.872227504042939
 30
0.0
 10
3.821960166107613
 20
-4.894170914280569
 30
0.0
 10
3.815806211707656
 20
-4.906024026395369
 30
0.0
 10
3.80504283144507
 20
-4.914978392443546
 30
0.0
 10
3.789650104123021
 20
-4.921208640788815
 30
0.0
 10
3.782011384776233
 20
-4.924762243219371
 30
0.0
 10
3.772402586219375
 20
-4.927713123481958
 30
0.0
 10
3.760845325070287
 20
-4.930155377442461
 30
0.0
 10
3.749282977658177
 20
-4.932604836942244
 30
0.0
 10
3.739458860633438
 20
-4.934028990588077
 30
0.0
 10
3.731364920746285
 20
-4.934413003446151
 30
0.0
 10
3.727615073334176
 20
-4.934752935358043
 30
0.0
 10
3.723863954356311
 20
-4.93510134437497
 30
0.0
 10
3.720114106944202
 20
-4.935459502062687
 30
0.0
 10
3.720173446679445
 20
-4.942446755887557
 30
0.0
 10
3.720240415809219
 20
-4.949428499594154
 30
0.0
 10
3.720314590478273
 20
-4.95640515703773
 30
0.0
 10
3.73553353714711
 20
-4.953706046794675
 30
0.0
 10
3.750966954573325
 20
-4.953099933784693
 30
0.0
 10
3.76651269364125
 20
-4.954670317492374
 30
0.0
 10
3.782063942827448
 20
-4.956234767226533
 30
0.0
 10
3.792370407128664
 20
-4.960327513537296
 30
0.0
 10
3.797521943858264
 20
-4.966706958931177
 30
0.0
 10
3.801618081011042
 20
-4.973278410754093
 30
0.0
 10
3.804304475596545
 20
-4.98343143945418
 30
0.0
 10
3.805643858192031
 20
-4.997106705296194
 30
0.0
 10
3.806967981998455
 20
-5.01080697859806
 30
0.0
 10
3.80573625863691
 20
-5.020944748509085
 30
0.0
 10
3.801965642317465
 20
-5.027528915989553
 30
0.0
 10
3.797060789344375
 20
-5.037307256647105
 30
0.0
 10
3.783629664127361
 20
-5.044968016466984
 30
0.0
 10
3.761720586165122
 20
-5.050890545899492
 30
0.0
 10
3.75621724957658
 20
-5.052280791125187
 30
0.0
 10
3.750715608409045
 20
-5.053573549642982
 30
0.0
 10
3.745195741465686
 20
-5.054781113255178
 30
0.0
 10
3.739667397417292
 20
-5.055998425538164
 30
0.0
 10
3.735402565874323
 20
-5.056882587593286
 30
0.0
 10
3.732382173350452
 20
-5.057443348091333
 30
0.0
 10
3.730866466970244
 20
-5.057724364123234
 30
0.0
 10
3.729352456011042
 20
-5.05800665172089
 30
0.0
 10
3.727837597341337
 20
-5.058290210884302
 30
0.0
 10
3.727378138248455
 20
-5.061756075277748
 30
0.0
 10
3.727644319346545
 20
-5.066341341391029
 30
0.0
 10
3.728615371728273
 20
-5.072058301026445
 30
0.0
 10
3.729936528547934
 20
-5.079829263211776
 30
0.0
 10
3.731696375553143
 20
-5.08412969859589
 30
0.0
 10
3.733908052256702
 20
-5.084998601861949
 30
0.0
 10
3.736107437157961
 20
-5.085865385851749
 30
0.0
 10
3.74212533402211
 20
-5.084997330296194
 30
0.0
 10
3.75200328066382
 20
-5.082424952773408
 30
0.0
 10
3.795322135101754
 20
-5.073654116049232
 30
0.0
 10
3.825540471419028
 20
-5.075235096138208
 30
0.0
 10
3.842089052012561
 20
-5.086034504097193
 30
0.0
 10
3.858702058604358
 20
-5.096845780003225
 30
0.0
 10
3.865143810720244
 20
-5.120768170411211
 30
0.0
 10
3.862145882524714
 20
-5.157104433432045
 30
0.0
 10
3.860143166460261
 20
-5.177061234104788
 30
0.0
 10
3.85558502708309
 20
-5.191238344564857
 30
0.0
 10
3.848440946815078
 20
-5.199714178033824
 30
0.0
 10
3.837841174679662
 20
-5.211594416884736
 30
0.0
 10
3.819603530907961
 20
-5.221061647787514
 30
0.0
 10
3.793742002723281
 20
-5.228642298964814
 30
0.0
 10
3.687998170664905
 20
-5.252257818170543
 30
0.0
 10
3.623953642127578
 20
-5.25287495141707
 30
0.0
 10
3.598057781667509
 20
-5.222816832384952
 30
0.0
  0
SPLINE
  5
80
330
7A
100
AcDbEntity
  8
Deck Box - G5
100
AcDbSpline
210
0.0
220
0.0
230
1.0
 70
     9
 71
     3
 72
    38
 73
    34
 74
     0
 42
0.0000000001
 43
0.0000000001
 40
0.0
 40
0.0
 40
0.0
 40
0.0
 40
1.0
 40
1.0
 40
1.0
 40
2.0
 40
2.0
 40
2.0
 40
3.0
 40
3.0
 40
3.0
 40
4.0
 40
4.0
 40
4.0
 40
5.0
 40
5.0
 40
5.0
 40
6.0
 40
6.0
 40
6.0
 40
7.0
 40
7.0
 40
7.0
 40
8.0
 40
8.0
 40
8.0
 40
9.0
 40
9.0
 40
9.0
 40
10.0
 40
10.0
 40
10.0
 40
11.0
 40
11.0
 40
11.0
 40
11.0
 10
4.110073230343724
 20
-4.966908290175751
 30
0.0
 10
4.109820188758438
 20
-4.967148616103486
 30
0.0
 10
4.109565875607396
 20
-4.967388518175968
 30
0.0
 10
4.109313257877362
 20
-4.967628420248451
 30
0.0
 10
4.109318344140382
 20
-4.967852215821367
 30
0.0
 10
4.109323430403403
 20
-4.968076859104788
 30
0.0
 10
4.109328516666424
 20
-4.968300654677705
 30
0.0
 10
4.108828367469375
 20
-4.969238222494545
 30
0.0
 10
4.106889653547934
 20
-4.976203011991072
 30
0.0
 10
4.103609437754749
 20
-4.989189936904267
 30
0.0
 10
4.100328374251059
 20
-5.002182371935734
 30
0.0
 10
4.098748241872587
 20
-5.009331114611515
 30
0.0
 10
4.098780031016468
 20
-5.010677278891029
 30
0.0
 10
4.09879528980553
 20
-5.011129956299883
 30
0.0
 10
4.100327950395808
 20
-5.011390203424449
 30
0.0
 10
4.103401748681398
 20
-5.011460139540986
 30
0.0
 10
4.106477666243247
 20
-5.011550420709605
 30
0.0
 10
4.109650646657743
 20
-5.011168950983043
 30
0.0
 10
4.112966042436823
 20
-5.010348791070933
 30
0.0
 10
4.116277623518637
 20
-5.009528207303572
 30
0.0
 10
4.118421483381919
 20
-5.008879708768416
 30
0.0
 10
4.119446365380617
 20
-5.008378288005612
 30
0.0
 10
4.119902009776233
 20
-5.005651627171194
 30
0.0
 10
4.1198452131725
 20
-5.002506621203312
 30
0.0
 10
4.119263259911867
 20
-4.998911480958086
 30
0.0
 10
4.11868300207224
 20
-4.995336685764944
 30
0.0
 10
4.11727919347849
 20
-4.989865562175534
 30
0.0
 10
4.115071331472196
 20
-4.98254049571503
 30
0.0
 10
4.112843972124323
 20
-4.975205256728486
 30
0.0
 10
4.111713974023195
 20
-4.970878542318764
 30
0.0
 10
4.11168345644507
 20
-4.969528987197236
 30
0.0
 10
4.111146855696372
 20
-4.968654997668155
 30
0.0
 10
4.110610254947674
 20
-4.96778185584958
 30
0.0
 10
4.110073230343724
 20
-4.966908290175751
 30
0.0
  0
SPLINE
  5
81
330
7A
100
AcDbEntity
  8
Deck Box - G5
100
AcDbSpline
210
0.0
220
0.0
230
1.0
 70
     9
 71
     3
 72
    74
 73
    70
 74
     0
 42
0.0000000001
 43
0.0000000001
 40
0.0
 40
0.0
 40
0.0
 40
0.0
 40
1.0
 40
1.0
 40
1.0
 40
2.0
 40
2.0
 40
2.0
 40
3.0
 40
3.0
 40
3.0
 40
4.0
 40
4.0
 40
4.0
 40
5.0
 40
5.0
 40
5.0
 40
6.0
 40
6.0
 40
6.0
 40
7.0
 40
7.0
 40
7.0
 40
8.0
 40
8.0
 40
8.0
 40
9.0
 40
9.0
 40
9.0
 40
10.0
 40
10.0
 40
10.0
 40
11.0
 40
11.0
 40
11.0
 40
12.0
 40
12.0
 40
12.0
 40
13.0
 40
13.0
 40
13.0
 40
14.0
 40
14.0
 40
14.0
 40
15.0
 40
15.0
 40
15.0
 40
16.0
 40
16.0
 40
16.0
 40
17.0
 40
17.0
 40
17.0
 40
18.0
 40
18.0
 40
18.0
 40
19.0
 40
19.0
 40
19.0
 40
20.0
 40
20.0
 40
20.0
 40
21.0
 40
21.0
 40
21.0
 40
22.0
 40
22.0
 40
22.0
 40
23.0
 40
23.0
 40
23.0
 40
23.0
 10
4.031946534922718
 20
-4.767267804200273
 30
0.0
 10
4.045951136295331
 20
-4.756302668837861
 30
0.0
 10
4.061969473968941
 20
-4.74915392616208
 30
0.0
 10
4.079857861013212
 20
-4.745994085260386
 30
0.0
 10
4.09772844613691
 20
-4.742842721463729
 30
0.0
 10
4.117382614159914
 20
-4.741907696778398
 30
0.0
 10
4.138730507768855
 20
-4.743342022950273
 30
0.0
 10
4.166249309987821
 20
-4.746109373888859
 30
0.0
 10
4.186968202403186
 20
-4.757339842638859
 30
0.0
 10
4.200636262705921
 20
-4.77673969751082
 30
0.0
 10
4.235058395409914
 20
-4.827530272326359
 30
0.0
 10
4.264763866872574
 20
-4.890845769830699
 30
0.0
 10
4.289150378781211
 20
-4.966622611736081
 30
0.0
 10
4.313499591427696
 20
-5.042435481337861
 30
0.0
 10
4.324339265635595
 20
-5.107310766168589
 30
0.0
 10
4.324770326426611
 20
-5.159141057916636
 30
0.0
 10
4.321740185231949
 20
-5.17780891476885
 30
0.0
 10
4.315963038150786
 20
-5.190828052681177
 30
0.0
 10
4.307472793603261
 20
-5.198225598389726
 30
0.0
 10
4.298423060123442
 20
-5.20657342757267
 30
0.0
 10
4.272643336002349
 20
-5.209762514486732
 30
0.0
 10
4.229996715993681
 20
-5.209317466472409
 30
0.0
 10
4.203928770301406
 20
-5.209159368463511
 30
0.0
 10
4.185835237315296
 20
-5.206346665012991
 30
0.0
 10
4.175607610090903
 20
-5.200450838461342
 30
0.0
 10
4.165388459971546
 20
-5.194567727567244
 30
0.0
 10
4.157113110036649
 20
-5.182329331028616
 30
0.0
 10
4.150689159841337
 20
-5.163722933187904
 30
0.0
 10
4.150196216183568
 20
-5.162368715658607
 30
0.0
 10
4.149441753835477
 20
-5.15988407617293
 30
0.0
 10
4.148442303151884
 20
-5.156245702692027
 30
0.0
 10
4.147447514876059
 20
-5.15262343571069
 30
0.0
 10
4.146677793738906
 20
-5.149794625760604
 30
0.0
 10
4.146187393212648
 20
-5.147755458144501
 30
0.0
 10
4.145669442095027
 20
-5.145713747396889
 30
0.0
 10
4.144675077674453
 20
-5.14334100569767
 30
0.0
 10
4.143191160438125
 20
-5.140632994494327
 30
0.0
 10
4.141705123925539
 20
-5.137937698948538
 30
0.0
 10
4.139963926551406
 20
-5.135684484430308
 30
0.0
 10
4.137995966617596
 20
-5.133889881294458
 30
0.0
 10
4.136026311262778
 20
-5.133009533936601
 30
0.0
 10
4.128193466210695
 20
-5.132745895970022
 30
0.0
 10
4.114534730723499
 20
-5.133234177220022
 30
0.0
 10
4.100862855723499
 20
-5.13372924015405
 30
0.0
 10
4.093553895762561
 20
-5.134520154053789
 30
0.0
 10
4.092610817827448
 20
-5.135433138266029
 30
0.0
 10
4.09119259815514
 20
-5.136808972413164
 30
0.0
 10
4.08987440832224
 20
-5.14154682641707
 30
0.0
 10
4.088675745670331
 20
-5.149644581001489
 30
0.0
 10
4.08523573644724
 20
-5.163611459256697
 30
0.0
 10
4.080118108137778
 20
-5.175925302030135
 30
0.0
 10
4.073342358083524
 20
-5.186555591743677
 30
0.0
 10
4.066569151160781
 20
-5.197214279759085
 30
0.0
 10
4.059464489431181
 20
-5.203494119168807
 30
0.0
 10
4.051946568831137
 20
-5.20547988102319
 30
0.0
 10
4.034098871891034
 20
-5.210899294271889
 30
0.0
 10
4.0045985463702
 20
-5.212888870823538
 30
0.0
 10
3.96308743458092
 20
-5.212874459744979
 30
0.0
 10
3.929229453216988
 20
-5.212833769640812
 30
0.0
 10
3.907122010996936
 20
-5.202762968859562
 30
0.0
 10
3.896546398610869
 20
-5.181814346897756
 30
0.0
 10
3.891858135671416
 20
-5.143073129178572
 30
0.0
 10
3.895870349484349
 20
-5.093185366049232
 30
0.0
 10
3.910600591047934
 20
-5.031060054091767
 30
0.0
 10
3.925357959347631
 20
-4.968943643094588
 30
0.0
 10
3.9449061635577
 20
-4.912427631538599
 30
0.0
 10
3.969321073768203
 20
-4.861819314481307
 30
0.0
 10
3.993738103254965
 20
-4.811204215739987
 30
0.0
 10
4.015212305728924
 20
-4.779443894016897
 30
0.0
 10
4.031946534922718
 20
-4.767267804200273
 30
0.0
  0
SPLINE
  5
82
330
7A
100
AcDbEntity
  8
Deck Box - G5
100
AcDbSpline
210
0.0
220
0.0
230
1.0
 70
     9
 71
     3
 72
    26
 73
    22
 74
     0
 42
0.0000000001
 43
0.0000000001
 40
0.0
 40
0.0
 40
0.0
 40
0.0
 40
1.0
 40
1.0
 40
1.0
 40
2.0
 40
2.0
 40
2.0
 40
3.0
 40
3.0
 40
3.0
 40
4.0
 40
4.0
 40
4.0
 40
5.0
 40
5.0
 40
5.0
 40
6.0
 40
6.0
 40
6.0
 40
7.0
 40
7.0
 40
7.0
 40
7.0
 10
4.556140192691802
 20
-4.950109634983694
 30
0.0
 10
4.558483264523399
 20
-4.948386663385386
 30
0.0
 10
4.561724061778173
 20
-4.946001206028616
 30
0.0
 10
4.565858769758859
 20
-4.942969793268199
 30
0.0
 10
4.569980762081993
 20
-4.939949400744327
 30
0.0
 10
4.575899476817236
 20
-4.932675196914033
 30
0.0
 10
4.583709857540977
 20
-4.921122598172713
 30
0.0
 10
4.591502860199398
 20
-4.909592463759736
 30
0.0
 10
4.596458575802696
 20
-4.896979379178572
 30
0.0
 10
4.598435436696793
 20
-4.883318948270369
 30
0.0
 10
4.599918506222618
 20
-4.873084115506697
 30
0.0
 10
4.598497743418798
 20
-4.864899470595673
 30
0.0
 10
4.594163823469797
 20
-4.858808246772974
 30
0.0
 10
4.589830327376047
 20
-4.85272846704207
 30
0.0
 10
4.584955991981082
 20
-4.849213859294675
 30
0.0
 10
4.579607362559423
 20
-4.848246197754961
 30
0.0
 10
4.57719944087431
 20
-4.847790553359345
 30
0.0
 10
4.574790247623442
 20
-4.847339571371498
 30
0.0
 10
4.57237978280682
 20
-4.846890708659909
 30
0.0
 10
4.566937057519276
 20
-4.881307755100881
 30
0.0
 10
4.561524425954606
 20
-4.915714629015812
 30
0.0
 10
4.556140192691802
 20
-4.950109634983694
 30
0.0
  0
SPLINE
  5
83
330
7A
100
AcDbEntity
  8
Deck Box - G5
100
AcDbSpline
210
0.0
220
0.0
230
1.0
 70
     9
 71
     3
 72
    89
 73
    85
 74
     0
 42
0.0000000001
 43
0.0000000001
 40
0.0
 40
0.0
 40
0.0
 40
0.0
 40
1.0
 40
1.0
 40
1.0
 40
2.0
 40
2.0
 40
2.0
 40
3.0
 40
3.0
 40
3.0
 40
4.0
 40
4.0
 40
4.0
 40
5.0
 40
5.0
 40
5.0
 40
6.0
 40
6.0
 40
6.0
 40
7.0
 40
7.0
 40
7.0
 40
8.0
 40
8.0
 40
8.0
 40
9.0
 40
9.0
 40
9.0
 40
10.0
 40
10.0
 40
10.0
 40
11.0
 40
11.0
 40
11.0
 40
12.0
 40
12.0
 40
12.0
 40
13.0
 40
13.0
 40
13.0
 40
14.0
 40
14.0
 40
14.0
 40
15.0
 40
15.0
 40
15.0
 40
16.0
 40
16.0
 40
16.0
 40
17.0
 40
17.0
 40
17.0
 40
18.0
 40
18.0
 40
18.0
 40
19.0
 40
19.0
 40
19.0
 40
20.0
 40
20.0
 40
20.0
 40
21.0
 40
21.0
 40
21.0
 40
22.0
 40
22.0
 40
22.0
 40
23.0
 40
23.0
 40
23.0
 40
24.0
 40
24.0
 40
24.0
 40
25.0
 40
25.0
 40
25.0
 40
26.0
 40
26.0
 40
26.0
 40
27.0
 40
27.0
 40
27.0
 40
28.0
 40
28.0
 40
28.0
 40
28.0
 10
4.425486387488894
 20
-4.732442161296628
 30
0.0
 10
4.515147032020144
 20
-4.711824146431177
 30
0.0
 10
4.605668102712418
 20
-4.719258567546628
 30
0.0
 10
4.689916963389501
 20
-4.757583135553355
 30
0.0
 10
4.725889982459597
 20
-4.774352544733043
 30
0.0
 10
4.751773127262114
 20
-4.798267305746498
 30
0.0
 10
4.767478659759945
 20
-4.828603473823755
 30
0.0
 10
4.783168085758208
 20
-4.858963801650361
 30
0.0
 10
4.787307456146663
 20
-4.890146832520586
 30
0.0
 10
4.780792800927479
 20
-4.921523141385604
 30
0.0
 10
4.774997428070491
 20
-4.949443334527964
 30
0.0
 10
4.761266213335248
 20
-4.974031177681177
 30
0.0
 10
4.740245535980648
 20
-4.995306168186819
 30
0.0
 10
4.719201970442453
 20
-5.016614219402097
 30
0.0
 10
4.691846352495404
 20
-5.031155845378659
 30
0.0
 10
4.658151131548138
 20
-5.039543093100014
 30
0.0
 10
4.659993630327435
 20
-5.040852805827878
 30
0.0
 10
4.66445513070721
 20
-5.043701113119545
 30
0.0
 10
4.671458067176394
 20
-5.048138877605222
 30
0.0
 10
4.678456341237809
 20
-5.052591053169458
 30
0.0
 10
4.682846633935292
 20
-5.055501243327878
 30
0.0
 10
4.684687861148833
 20
-5.056826214844805
 30
0.0
 10
4.686510014876047
 20
-5.058167292861298
 30
0.0
 10
4.690040729123008
 20
-5.060795195422062
 30
0.0
 10
4.695261778113894
 20
-5.064778163222626
 30
0.0
 10
4.700465449039458
 20
-5.068764098009952
 30
0.0
 10
4.704125862993451
 20
-5.071994722738685
 30
0.0
 10
4.706251073225656
 20
-5.074424261041636
 30
0.0
 10
4.708360176958295
 20
-5.076867786567896
 30
0.0
 10
4.711055896359336
 20
-5.080310338922496
 30
0.0
 10
4.714327635047488
 20
-5.084781164117808
 30
0.0
 10
4.717567160736507
 20
-5.089244783773842
 30
0.0
 10
4.720034846012114
 20
-5.093718152100664
 30
0.0
 10
4.721726028466542
 20
-5.098168632243893
 30
0.0
 10
4.723414243934207
 20
-5.102632251899927
 30
0.0
 10
4.724976574392106
 20
-5.107589662924232
 30
0.0
 10
4.726443537418364
 20
-5.113045103869327
 30
0.0
 10
4.730718965342626
 20
-5.129940821914033
 30
0.0
 10
4.73098599415122
 20
-5.149497503229136
 30
0.0
 10
4.727421795339371
 20
-5.171621899659258
 30
0.0
 10
4.723946606130387
 20
-5.193252080865855
 30
0.0
 10
4.720078503103043
 20
-5.208828761367158
 30
0.0
 10
4.715910734412722
 20
-5.218307860216984
 30
0.0
 10
4.711723468380821
 20
-5.227803065566376
 30
0.0
 10
4.705476689680734
 20
-5.236022466608043
 30
0.0
 10
4.697227194916195
 20
-5.243008448867158
 30
0.0
 10
4.686237052093929
 20
-5.251476652941593
 30
0.0
 10
4.670161070106082
 20
-5.254330894206784
 30
0.0
 10
4.648847508772531
 20
-5.251919157824405
 30
0.0
 10
4.579690862044015
 20
-5.24520868147892
 30
0.0
 10
4.547975468977609
 20
-5.220538610406871
 30
0.0
 10
4.553447864132774
 20
-5.174000151476749
 30
0.0
 10
4.558290410383859
 20
-5.126911528429874
 30
0.0
 10
4.549965893239762
 20
-5.102114300782305
 30
0.0
 10
4.5286006215655
 20
-5.099923392986081
 30
0.0
 10
4.527032780989328
 20
-5.104169998753225
 30
0.0
 10
4.52389116586346
 20
-5.120531659180742
 30
0.0
 10
4.519217737857817
 20
-5.149001168729354
 30
0.0
 10
4.513179495941585
 20
-5.180256678847626
 30
0.0
 10
4.507663443695491
 20
-5.198707097955699
 30
0.0
 10
4.502605578976524
 20
-5.204392268447236
 30
0.0
 10
4.48802199133004
 20
-5.220095681668807
 30
0.0
 10
4.460307791840023
 20
-5.223022826037296
 30
0.0
 10
4.418633071923573
 20
-5.214807663548147
 30
0.0
 10
4.408282102820925
 20
-5.21315547577688
 30
0.0
 10
4.399952499413807
 20
-5.211547368951793
 30
0.0
 10
4.393656553504519
 20
-5.209924851048147
 30
0.0
 10
4.387344501095665
 20
-5.208311234104788
 30
0.0
 10
4.379443839203304
 20
-5.205591778809648
 30
0.0
 10
4.369936342051611
 20
-5.201843626818546
 30
0.0
 10
4.360416553097618
 20
-5.198093355551185
 30
0.0
 10
4.353238140554215
 20
-5.192857047771237
 30
0.0
 10
4.348419330197227
 20
-5.186063495796411
 30
0.0
 10
4.343584837195925
 20
-5.179266129124319
 30
0.0
 10
4.341221420312245
 20
-5.170928048612166
 30
0.0
 10
4.341386723860422
 20
-5.160997543919241
 30
0.0
 10
4.344585983300526
 20
-5.103503698297496
 30
0.0
 10
4.347753877452001
 20
-5.046025535320065
 30
0.0
 10
4.350889134749094
 20
-4.988562631131697
 30
0.0
 10
4.357163887895795
 20
-4.88166125038083
 30
0.0
 10
4.361499079410552
 20
-4.817170826118677
 30
0.0
 10
4.364019322737375
 20
-4.795033714031003
 30
0.0
 10
4.368813549489762
 20
-4.762610058838945
 30
0.0
 10
4.389182337467192
 20
-4.741488503934432
 30
0.0
 10
4.425486387488894
 20
-4.732442161296628
 30
0.0
  0
SPLINE
  5
84
330
7A
100
AcDbEntity
  8
Deck Box - G5
100
AcDbSpline
210
0.0
220
0.0
230
1.0
 70
     9
 71
     3
 72
    98
 73
    94
 74
     0
 42
0.0000000001
 43
0.0000000001
 40
0.0
 40
0.0
 40
0.0
 40
0.0
 40
1.0
 40
1.0
 40
1.0
 40
2.0
 40
2.0
 40
2.0
 40
3.0
 40
3.0
 40
3.0
 40
4.0
 40
4.0
 40
4.0
 40
5.0
 40
5.0
 40
5.0
 40
6.0
 40
6.0
 40
6.0
 40
7.0
 40
7.0
 40
7.0
 40
8.0
 40
8.0
 40
8.0
 40
9.0
 40
9.0
 40
9.0
 40
10.0
 40
10.0
 40
10.0
 40
11.0
 40
11.0
 40
11.0
 40
12.0
 40
12.0
 40
12.0
 40
13.0
 40
13.0
 40
13.0
 40
14.0
 40
14.0
 40
14.0
 40
15.0
 40
15.0
 40
15.0
 40
16.0
 40
16.0
 40
16.0
 40
17.0
 40
17.0
 40
17.0
 40
18.0
 40
18.0
 40
18.0
 40
19.0
 40
19.0
 40
19.0
 40
20.0
 40
20.0
 40
20.0
 40
21.0
 40
21.0
 40
21.0
 40
22.0
 40
22.0
 40
22.0
 40
23.0
 40
23.0
 40
23.0
 40
24.0
 40
24.0
 40
24.0
 40
25.0
 40
25.0
 40
25.0
 40
26.0
 40
26.0
 40
26.0
 40
27.0
 40
27.0
 40
27.0
 40
28.0
 40
28.0
 40
28.0
 40
29.0
 40
29.0
 40
29.0
 40
30.0
 40
30.0
 40
30.0
 40
31.0
 40
31.0
 40
31.0
 40
31.0
 10
4.951529325721316
 20
-5.281974309869761
 30
0.0
 10
4.94237023758655
 20
-5.259985123264944
 30
0.0
 10
4.938090147254519
 20
-5.238042136882565
 30
0.0
 10
4.939006522308773
 20
-5.215934270807261
 30
0.0
 10
4.939933917599571
 20
-5.1938488690603
 30
0.0
 10
4.947431917002782
 20
-5.173081657146237
 30
0.0
 10
4.962048989214154
 20
-5.153597878934432
 30
0.0
 10
4.97248006695938
 20
-5.14119756968964
 30
0.0
 10
4.987243793087852
 20
-5.133959817410994
 30
0.0
 10
5.006321094113243
 20
-5.132124524170976
 30
0.0
 10
5.025383136349571
 20
-5.130301946588511
 30
0.0
 10
5.044812661089154
 20
-5.134399779162296
 30
0.0
 10
5.064271431841107
 20
-5.144584597006264
 30
0.0
 10
5.082764236474354
 20
-5.154471020753008
 30
0.0
 10
5.086996007307687
 20
-5.174211655247366
 30
0.0
 10
5.077170618717192
 20
-5.203454276775143
 30
0.0
 10
5.070309249902089
 20
-5.223990063721758
 30
0.0
 10
5.07231662837431
 20
-5.23612419186846
 30
0.0
 10
5.083165627397748
 20
-5.240001195856089
 30
0.0
 10
5.106246665131038
 20
-5.249982987034475
 30
0.0
 10
5.124499567691802
 20
-5.249042876086124
 30
0.0
 10
5.138386761159684
 20
-5.236685376221758
 30
0.0
 10
5.152241741628434
 20
-5.224345678277964
 30
0.0
 10
5.160609492008208
 20
-5.20722786008135
 30
0.0
 10
5.163064037771012
 20
-5.185363286920543
 30
0.0
 10
5.169340062483469
 20
-5.13103903087128
 30
0.0
 10
5.132732532101524
 20
-5.101865073894284
 30
0.0
 10
5.056010916840023
 20
-5.101458172852617
 30
0.0
 10
5.004083562239328
 20
-5.101871855578312
 30
0.0
 10
4.983644414290109
 20
-5.08318746837128
 30
0.0
 10
4.993796595279692
 20
-5.043679072646455
 30
0.0
 10
4.996975509667714
 20
-5.030833291532088
 30
0.0
 10
5.007910127452001
 20
-5.004597499160126
 30
0.0
 10
5.02711628047392
 20
-4.964916594347843
 30
0.0
 10
5.046333453732383
 20
-4.925251796035126
 30
0.0
 10
5.063848000444623
 20
-4.893912786432261
 30
0.0
 10
5.079507332720013
 20
-4.870963567682261
 30
0.0
 10
5.084305798024918
 20
-4.866687292047496
 30
0.0
 10
5.087092222449832
 20
-4.863271866429006
 30
0.0
 10
5.087861943586984
 20
-4.860713476129527
 30
0.0
 10
5.092036493961333
 20
-4.854637934951142
 30
0.0
 10
5.104090089610204
 20
-4.850751182292722
 30
0.0
 10
5.124119793386246
 20
-4.849297782634518
 30
0.0
 10
5.136030973670535
 20
-4.849092212837427
 30
0.0
 10
5.16452591453425
 20
-4.853337547038815
 30
0.0
 10
5.20947957867813
 20
-4.863406652399058
 30
0.0
 10
5.254425189572227
 20
-4.873538488336558
 30
0.0
 10
5.288950742957644
 20
-4.883620309354354
 30
0.0
 10
5.313030383664024
 20
-4.892623842611732
 30
0.0
 10
5.341660534353043
 20
-4.902551380317896
 30
0.0
 10
5.363319537716758
 20
-4.916035063586124
 30
0.0
 10
5.377806486365847
 20
-4.932729874241506
 30
0.0
 10
5.392312932356515
 20
-4.949433585857175
 30
0.0
 10
5.394974743337418
 20
-4.968557087105005
 30
0.0
 10
5.386212383718278
 20
-4.989763836915117
 30
0.0
 10
5.374660632687461
 20
-5.017732773411428
 30
0.0
 10
5.35835153031116
 20
-5.032450723172713
 30
0.0
 10
5.337482169281429
 20
-5.034134700087861
 30
0.0
 10
5.325778678070491
 20
-5.035119315837643
 30
0.0
 10
5.312833290971966
 20
-5.034189377415335
 30
0.0
 10
5.29860319860543
 20
-5.031397442872148
 30
0.0
 10
5.284349370344797
 20
-5.028636025907088
 30
0.0
 10
5.255660303775786
 20
-5.020606512018199
 30
0.0
 10
5.212355860416411
 20
-5.008661847169023
 30
0.0
 10
5.200135265798356
 20
-5.00551387421438
 30
0.0
 10
5.187905346364762
 20
-5.002446009902314
 30
0.0
 10
5.175669492957644
 20
-4.999455711101315
 30
0.0
 10
5.171690339854345
 20
-5.009314584256697
 30
0.0
 10
5.167715425303564
 20
-5.019171761991072
 30
0.0
 10
5.163748987857817
 20
-5.029028092014944
 30
0.0
 10
5.19692583383221
 20
-5.03219598616642
 30
0.0
 10
5.226011628916845
 20
-5.038515667969805
 30
0.0
 10
5.250685938541411
 20
-5.04776249414168
 30
0.0
 10
5.275348380218929
 20
-5.057013558866072
 30
0.0
 10
5.295776507931602
 20
-5.072185033746714
 30
0.0
 10
5.311552824256472
 20
-5.093155696181611
 30
0.0
 10
5.327313881792279
 20
-5.114133564155786
 30
0.0
 10
5.337828882877349
 20
-5.141299294950057
 30
0.0
 10
5.342796466427696
 20
-5.174512592476099
 30
0.0
 10
5.34723592633438
 20
-5.206286901422496
 30
0.0
 10
5.342437884884727
 20
-5.237586916342201
 30
0.0
 10
5.329205547780778
 20
-5.268157476373668
 30
0.0
 10
5.308979599023182
 20
-5.314842165365639
 30
0.0
 10
5.275869722178564
 20
-5.349313465278833
 30
0.0
 10
5.231717992170969
 20
-5.372274975831133
 30
0.0
 10
5.196138310774484
 20
-5.391189516439857
 30
0.0
 10
5.159642678178998
 20
-5.398030540202878
 30
0.0
 10
5.121310056922488
 20
-5.393438492405569
 30
0.0
 10
5.082968958560942
 20
-5.388880353028398
 30
0.0
 10
5.04962596132787
 20
-5.376318978787947
 30
0.0
 10
5.020097661360422
 20
-5.355760303657739
 30
0.0
 10
4.99059775969484
 20
-5.335212648764076
 30
0.0
 10
4.967800281124961
 20
-5.310749419054874
 30
0.0
 10
4.951529325721316
 20
-5.281974309869761
 30
0.0
  0
ENDBLK
  5
7D
330
7A
100
AcDbEntity
  8
0
100
AcDbBlockEnd
  0
BLOCK
  5
87
330
85
100
AcDbEntity
  8
0
100
AcDbBlockBegin
  2
Block_1
 70
     0
 10
0.0
 20
0.0
 30
0.0
  3
Block_1
  1

  0
SPLINE
  5
89
330
85
100
AcDbEntity
  8
Deck Box - G5
100
AcDbSpline
210
0.0
220
0.0
230
1.0
 70
     9
 71
     3
 72
    29
 73
    25
 74
     0
 42
0.0000000001
 43
0.0000000001
 40
0.0
 40
0.0
 40
0.0
 40
0.0
 40
1.0
 40
1.0
 40
1.0
 40
2.0
 40
2.0
 40
2.0
 40
3.0
 40
3.0
 40
3.0
 40
4.0
 40
4.0
 40
4.0
 40
5.0
 40
5.0
 40
5.0
 40
6.0
 40
6.0
 40
6.0
 40
7.0
 40
7.0
 40
7.0
 40
8.0
 40
8.0
 40
8.0
 40
8.0
 10
3.901259306548644
 20
-4.60639787785193
 30
0.0
 10
3.867144045046908
 20
-4.591359493520333
 30
0.0
 10
3.83096545617972
 20
-4.65534298690141
 30
0.0
 10
3.877848085574252
 20
-4.653204213301149
 30
0.0
 10
3.890559504573818
 20
-4.646013932810697
 30
0.0
 10
3.877207216433627
 20
-4.667728885067642
 30
0.0
 10
3.869893170209668
 20
-4.660503000736045
 30
0.0
 10
3.815841453087273
 20
-4.646208906226497
 30
0.0
 10
3.877199587039095
 20
-4.578458187367989
 30
0.0
 10
3.912129498334668
 20
-4.601341284698719
 30
0.0
 10
3.94831402117538
 20
-4.631937699900541
 30
0.0
 10
3.946884781266526
 20
-4.660660674889691
 30
0.0
 10
3.906955073421474
 20
-4.744872236304622
 30
0.0
 10
3.94924904586071
 20
-4.708508846547677
 30
0.0
 10
3.988793893137186
 20
-4.676361968835004
 30
0.0
 10
3.976349502946213
 20
-4.618476057105403
 30
0.0
 10
3.9757357605417
 20
-4.607343922773805
 30
0.0
 10
3.973322328738314
 20
-4.597541846222156
 30
0.0
 10
3.969700061756977
 20
-4.588888417402712
 30
0.0
 10
3.969700061756977
 20
-4.588888417402712
 30
0.0
 10
3.83057466163762
 20
-4.588888417402712
 30
0.0
 10
3.83057466163762
 20
-4.588888417402712
 30
0.0
 10
3.714264542008713
 20
-4.731018103546375
 30
0.0
 10
3.997541417822516
 20
-4.746614281389256
 30
0.0
 10
3.901259306548644
 20
-4.60639787785193
 30
0.0
  0
HATCH
  5
8A
330
85
100
AcDbEntity
  8
Deck Box - G5
 62
   250
420
  2301728
440
 33554559
100
AcDbHatch
 10
0.0
 20
0.0
 30
0.0
210
0.0
220
0.0
230
1.0
  2
SOLID
 70
     1
 71
     1
 91
        1
 92
        1
 93
        1
 72
     4
 94
        3
 73
     0
 74
     0
 95
       29
 96
       25
 40
0.0
 40
0.0
 40
0.0
 40
0.0
 40
1.0
 40
1.0
 40
1.0
 40
2.0
 40
2.0
 40
2.0
 40
3.0
 40
3.0
 40
3.0
 40
4.0
 40
4.0
 40
4.0
 40
5.0
 40
5.0
 40
5.0
 40
6.0
 40
6.0
 40
6.0
 40
7.0
 40
7.0
 40
7.0
 40
8.0
 40
8.0
 40
8.0
 40
8.0
 10
3.901259306548644
 20
-4.60639787785193
 10
3.867144045046908
 20
-4.591359493520333
 10
3.83096545617972
 20
-4.65534298690141
 10
3.877848085574252
 20
-4.653204213301149
 10
3.890559504573818
 20
-4.646013932810697
 10
3.877207216433627
 20
-4.667728885067642
 10
3.869893170209668
 20
-4.660503000736045
 10
3.815841453087273
 20
-4.646208906226497
 10
3.877199587039095
 20
-4.578458187367989
 10
3.912129498334668
 20
-4.601341284698719
 10
3.94831402117538
 20
-4.631937699900541
 10
3.946884781266526
 20
-4.660660674889691
 10
3.906955073421474
 20
-4.744872236304622
 10
3.94924904586071
 20
-4.708508846547677
 10
3.988793893137186
 20
-4.676361968835004
 10
3.976349502946213
 20
-4.618476057105403
 10
3.9757357605417
 20
-4.607343922773805
 10
3.973322328738314
 20
-4.597541846222156
 10
3.969700061756977
 20
-4.588888417402712
 10
3.969700061756977
 20
-4.588888417402712
 10
3.83057466163762
 20
-4.588888417402712
 10
3.83057466163762
 20
-4.588888417402712
 10
3.714264542008713
 20
-4.731018103546375
 10
3.997541417822516
 20
-4.746614281389256
 10
3.901259306548644
 20
-4.60639787785193
 97
        0
 97
        1
330
89
 75
     2
 76
     1
 98
        1
 10
0.0
 20
0.0
450
        0
451
        0
460
0.0
461
0.0
452
        0
462
0.0
453
        0
470

  0
SPLINE
  5
8B
330
85
100
AcDbEntity
  8
Deck Box - G5
100
AcDbSpline
210
0.0
220
0.0
230
1.0
 70
     9
 71
     3
 72
    29
 73
    25
 74
     0
 42
0.0000000001
 43
0.0000000001
 40
0.0
 40
0.0
 40
0.0
 40
0.0
 40
1.0
 40
1.0
 40
1.0
 40
2.0
 40
2.0
 40
2.0
 40
3.0
 40
3.0
 40
3.0
 40
4.0
 40
4.0
 40
4.0
 40
5.0
 40
5.0
 40
5.0
 40
6.0
 40
6.0
 40
6.0
 40
7.0
 40
7.0
 40
7.0
 40
8.0
 40
8.0
 40
8.0
 40
8.0
 10
5.197022958078579
 20
-4.803911034318944
 30
0.0
 10
5.204465008588562
 20
-4.805436065514691
 30
0.0
 10
5.212629308447503
 20
-4.80718404457285
 30
0.0
 10
5.221612496652798
 20
-4.809197357018597
 30
0.0
 10
5.266642878597243
 20
-4.81934953800818
 30
0.0
 10
5.303928577381965
 20
-4.829901838355403
 30
0.0
 10
5.332493030506965
 20
-4.84058977238318
 30
0.0
 10
5.368992053944465
 20
-4.853230831410958
 30
0.0
 10
5.39879077356252
 20
-4.872138166480403
 30
0.0
 10
5.419773303944465
 20
-4.896328433407486
 30
0.0
 10
5.446944968712259
 20
-4.927632686879708
 30
0.0
 10
5.453687658056878
 20
-4.967827728112347
 30
0.0
 10
5.438867983035176
 20
-5.007166581736479
 30
0.0
 10
5.445217334706184
 20
-5.003236595842381
 30
0.0
 10
5.451715883425801
 20
-4.998952266957833
 30
0.0
 10
5.458439923139343
 20
-4.994113535404014
 30
0.0
 10
5.568933901003926
 20
-4.759308746178754
 30
0.0
 10
5.376841005496114
 20
-4.790369706736479
 30
0.0
 10
5.274604575645853
 20
-4.760037777211739
 30
0.0
 10
5.284013314523892
 20
-4.761967166317642
 30
0.0
 10
5.295327706613735
 20
-4.76225962644134
 30
0.0
 10
5.30886394793318
 20
-4.760347191545506
 30
0.0
 10
5.577591568375888
 20
-4.550662607669639
 30
0.0
 10
4.979486031809048
 20
-4.530978769779014
 30
0.0
 10
5.197022958078579
 20
-4.803911034318944
 30
0.0
  0
HATCH
  5
8C
330
85
100
AcDbEntity
  8
Deck Box - G5
 62
   250
420
  2301728
440
 33554559
100
AcDbHatch
 10
0.0
 20
0.0
 30
0.0
210
0.0
220
0.0
230
1.0
  2
SOLID
 70
     1
 71
     1
 91
        1
 92
        1
 93
        1
 72
     4
 94
        3
 73
     0
 74
     0
 95
       29
 96
       25
 40
0.0
 40
0.0
 40
0.0
 40
0.0
 40
1.0
 40
1.0
 40
1.0
 40
2.0
 40
2.0
 40
2.0
 40
3.0
 40
3.0
 40
3.0
 40
4.0
 40
4.0
 40
4.0
 40
5.0
 40
5.0
 40
5.0
 40
6.0
 40
6.0
 40
6.0
 40
7.0
 40
7.0
 40
7.0
 40
8.0
 40
8.0
 40
8.0
 40
8.0
 10
5.197022958078579
 20
-4.803911034318944
 10
5.204465008588562
 20
-4.805436065514691
 10
5.212629308447503
 20
-4.80718404457285
 10
5.221612496652798
 20
-4.809197357018597
 10
5.266642878597243
 20
-4.81934953800818
 10
5.303928577381965
 20
-4.829901838355403
 10
5.332493030506965
 20
-4.84058977238318
 10
5.368992053944465
 20
-4.853230831410958
 10
5.39879077356252
 20
-4.872138166480403
 10
5.419773303944465
 20
-4.896328433407486
 10
5.446944968712259
 20
-4.927632686879708
 10
5.453687658056878
 20
-4.967827728112347
 10
5.438867983035176
 20
-5.007166581736479
 10
5.445217334706184
 20
-5.003236595842381
 10
5.451715883425801
 20
-4.998952266957833
 10
5.458439923139343
 20
-4.994113535404014
 10
5.568933901003926
 20
-4.759308746178754
 10
5.376841005496114
 20
-4.790369706736479
 10
5.274604575645853
 20
-4.760037777211739
 10
5.284013314523892
 20
-4.761967166317642
 10
5.295327706613735
 20
-4.76225962644134
 10
5.30886394793318
 20
-4.760347191545506
 10
5.577591568375888
 20
-4.550662607669639
 10
4.979486031809048
 20
-4.530978769779014
 10
5.197022958078579
 20
-4.803911034318944
 97
        0
 97
        1
330
8B
 75
     2
 76
     1
 98
        1
 10
0.0
 20
0.0
450
        0
451
        0
460
0.0
461
0.0
452
        0
462
0.0
453
        0
470

  0
SPLINE
  5
8D
330
85
100
AcDbEntity
  8
Deck Box - G5
100
AcDbSpline
210
0.0
220
0.0
230
1.0
 70
     9
 71
     3
 72
    17
 73
    13
 74
     0
 42
0.0000000001
 43
0.0000000001
 40
0.0
 40
0.0
 40
0.0
 40
0.0
 40
1.0
 40
1.0
 40
1.0
 40
2.0
 40
2.0
 40
2.0
 40
3.0
 40
3.0
 40
3.0
 40
4.0
 40
4.0
 40
4.0
 40
4.0
 10
5.31494542308509
 20
-4.695604149553319
 30
0.0
 10
5.307555082915819
 20
-4.701095618194813
 30
0.0
 10
5.289412382720507
 20
-4.711714039961305
 30
0.0
 10
5.299024572119378
 20
-4.697229210588475
 30
0.0
 10
5.268529882177972
 20
-4.588860442956097
 30
0.0
 10
5.197581599300368
 20
-4.72181281518917
 30
0.0
 10
5.259216934586826
 20
-4.754655663225194
 30
0.0
 10
5.236349096045159
 20
-4.745238447242122
 30
0.0
 10
5.220342626318597
 20
-4.730939266469552
 30
0.0
 10
5.21735020824134
 20
-4.7066345586245
 30
0.0
 10
5.20377836308075
 20
-4.639300065623197
 30
0.0
 10
5.318852520795593
 20
-4.625510358863215
 30
0.0
 10
5.31494542308509
 20
-4.695604149553319
 30
0.0
  0
HATCH
  5
8E
330
85
100
AcDbEntity
  8
Deck Box - G5
 62
   250
420
  2301728
440
 33554559
100
AcDbHatch
 10
0.0
 20
0.0
 30
0.0
210
0.0
220
0.0
230
1.0
  2
SOLID
 70
     1
 71
     1
 91
        1
 92
        1
 93
        1
 72
     4
 94
        3
 73
     0
 74
     0
 95
       17
 96
       13
 40
0.0
 40
0.0
 40
0.0
 40
0.0
 40
1.0
 40
1.0
 40
1.0
 40
2.0
 40
2.0
 40
2.0
 40
3.0
 40
3.0
 40
3.0
 40
4.0
 40
4.0
 40
4.0
 40
4.0
 10
5.31494542308509
 20
-4.695604149553319
 10
5.307555082915819
 20
-4.701095618194813
 10
5.289412382720507
 20
-4.711714039961305
 10
5.299024572119378
 20
-4.697229210588475
 10
5.268529882177972
 20
-4.588860442956097
 10
5.197581599300368
 20
-4.72181281518917
 10
5.259216934586826
 20
-4.754655663225194
 10
5.236349096045159
 20
-4.745238447242122
 10
5.220342626318597
 20
-4.730939266469552
 10
5.21735020824134
 20
-4.7066345586245
 10
5.20377836308075
 20
-4.639300065623197
 10
5.318852520795593
 20
-4.625510358863215
 10
5.31494542308509
 20
-4.695604149553319
 97
        0
 97
        1
330
8D
 75
     2
 76
     1
 98
        1
 10
0.0
 20
0.0
450
        0
451
        0
460
0.0
461
0.0
452
        0
462
0.0
453
        0
470

  0
SPLINE
  5
8F
330
85
100
AcDbEntity
  8
Deck Box - G5
100
AcDbSpline
210
0.0
220
0.0
230
1.0
 70
     9
 71
     3
 72
    17
 73
    13
 74
     0
 42
0.0000000001
 43
0.0000000001
 40
0.0
 40
0.0
 40
0.0
 40
0.0
 40
1.0
 40
1.0
 40
1.0
 40
2.0
 40
2.0
 40
2.0
 40
3.0
 40
3.0
 40
3.0
 40
4.0
 40
4.0
 40
4.0
 40
4.0
 10
5.424017790435351
 20
-5.037083133114517
 30
0.0
 10
5.407803631635437
 20
-5.062492407745594
 30
0.0
 10
5.388257970556878
 20
-5.075943030304188
 30
0.0
 10
5.370795981895853
 20
-5.082811180803319
 30
0.0
 10
5.379305299929708
 20
-5.098295460859743
 30
0.0
 10
5.38589031512068
 20
-5.11558960284108
 30
0.0
 10
5.390896893354187
 20
-5.134245167890993
 30
0.0
 10
5.397963408111132
 20
-5.087250640710004
 30
0.0
 10
5.644155492529534
 20
-5.029964908016861
 30
0.0
 10
5.479741192670593
 20
-5.283450693607139
 30
0.0
 10
5.646436681494378
 20
-5.222067976050715
 30
0.0
 10
5.634391562950541
 20
-4.951348235924847
 30
0.0
 10
5.424017790435351
 20
-5.037083133114517
 30
0.0
  0
HATCH
  5
90
330
85
100
AcDbEntity
  8
Deck Box - G5
 62
   250
420
  2301728
440
 33554559
100
AcDbHatch
 10
0.0
 20
0.0
 30
0.0
210
0.0
220
0.0
230
1.0
  2
SOLID
 70
     1
 71
     1
 91
        1
 92
        1
 93
        1
 72
     4
 94
        3
 73
     0
 74
     0
 95
       17
 96
       13
 40
0.0
 40
0.0
 40
0.0
 40
0.0
 40
1.0
 40
1.0
 40
1.0
 40
2.0
 40
2.0
 40
2.0
 40
3.0
 40
3.0
 40
3.0
 40
4.0
 40
4.0
 40
4.0
 40
4.0
 10
5.424017790435351
 20
-5.037083133114517
 10
5.407803631635437
 20
-5.062492407745594
 10
5.388257970556878
 20
-5.075943030304188
 10
5.370795981895853
 20
-5.082811180803319
 10
5.379305299929708
 20
-5.098295460859743
 10
5.38589031512068
 20
-5.11558960284108
 10
5.390896893354187
 20
-5.134245167890993
 10
5.397963408111132
 20
-5.087250640710004
 10
5.644155492529534
 20
-5.029964908016861
 10
5.479741192670593
 20
-5.283450693607139
 10
5.646436681494378
 20
-5.222067976050715
 10
5.634391562950541
 20
-4.951348235924847
 10
5.424017790435351
 20
-5.037083133114517
 97
        0
 97
        1
330
8F
 75
     2
 76
     1
 98
        1
 10
0.0
 20
0.0
450
        0
451
        0
460
0.0
461
0.0
452
        0
462
0.0
453
        0
470

  0
SPLINE
  5
91
330
85
100
AcDbEntity
  8
Deck Box - G5
100
AcDbSpline
210
0.0
220
0.0
230
1.0
 70
     9
 71
     3
 72
    14
 73
    10
 74
     0
 42
0.0000000001
 43
0.0000000001
 40
0.0
 40
0.0
 40
0.0
 40
0.0
 40
1.0
 40
1.0
 40
1.0
 40
2.0
 40
2.0
 40
2.0
 40
3.0
 40
3.0
 40
3.0
 40
3.0
 10
5.154871401003926
 20
-5.450028350670941
 30
0.0
 10
5.151242352338562
 20
-5.450195349640125
 30
0.0
 10
5.147613303673197
 20
-5.450364891740819
 30
0.0
 10
5.143962214534743
 20
-5.450364891740819
 30
0.0
 10
5.140777366173197
 20
-5.450364891740819
 30
0.0
 10
5.137576411312086
 20
-5.450202979034656
 30
0.0
 10
5.134378847292989
 20
-5.450076670169639
 30
0.0
 10
5.143590917334222
 20
-5.453586191654014
 30
0.0
 10
5.150310718495246
 20
-5.453097910404014
 30
0.0
 10
5.154871401003926
 20
-5.450028350670941
 30
0.0
  0
HATCH
  5
92
330
85
100
AcDbEntity
  8
Deck Box - G5
 62
   250
420
  2301728
440
 33554559
100
AcDbHatch
 10
0.0
 20
0.0
 30
0.0
210
0.0
220
0.0
230
1.0
  2
SOLID
 70
     1
 71
     1
 91
        1
 92
        1
 93
        1
 72
     4
 94
        3
 73
     0
 74
     0
 95
       14
 96
       10
 40
0.0
 40
0.0
 40
0.0
 40
0.0
 40
1.0
 40
1.0
 40
1.0
 40
2.0
 40
2.0
 40
2.0
 40
3.0
 40
3.0
 40
3.0
 40
3.0
 10
5.154871401003926
 20
-5.450028350670941
 10
5.151242352338562
 20
-5.450195349640125
 10
5.147613303673197
 20
-5.450364891740819
 10
5.143962214534743
 20
-5.450364891740819
 10
5.140777366173197
 20
-5.450364891740819
 10
5.137576411312086
 20
-5.450202979034656
 10
5.134378847292989
 20
-5.450076670169639
 10
5.143590917334222
 20
-5.453586191654014
 10
5.150310718495246
 20
-5.453097910404014
 10
5.154871401003926
 20
-5.450028350670941
 97
        0
 97
        1
330
91
 75
     2
 76
     1
 98
        1
 10
0.0
 20
0.0
450
        0
451
        0
460
0.0
461
0.0
452
        0
462
0.0
453
        0
470

  0
SPLINE
  5
93
330
85
100
AcDbEntity
  8
Deck Box - G5
100
AcDbSpline
210
0.0
220
0.0
230
1.0
 70
     9
 71
     3
 72
    20
 73
    16
 74
     0
 42
0.0000000001
 43
0.0000000001
 40
0.0
 40
0.0
 40
0.0
 40
0.0
 40
1.0
 40
1.0
 40
1.0
 40
2.0
 40
2.0
 40
2.0
 40
3.0
 40
3.0
 40
3.0
 40
4.0
 40
4.0
 40
4.0
 40
5.0
 40
5.0
 40
5.0
 40
5.0
 10
5.479403803890211
 20
-5.099139780521201
 30
0.0
 10
5.437522666466166
 20
-5.084316714657486
 30
0.0
 10
5.390575611073371
 20
-5.135244618574587
 30
0.0
 10
5.409319338015645
 20
-5.15501831377858
 30
0.0
 10
5.401529726199239
 20
-5.151917388756879
 30
0.0
 10
5.396468046783007
 20
-5.14832394393266
 30
0.0
 10
5.393615500938822
 20
-5.144466861141861
 30
0.0
 10
5.395221912342902
 20
-5.151545243845854
 30
0.0
 10
5.396624873226149
 20
-5.158797407203059
 30
0.0
 10
5.397746394222243
 20
-5.166280147817208
 30
0.0
 10
5.400709990142382
 20
-5.187532250139256
 30
0.0
 10
5.400633696197069
 20
-5.208656348175281
 30
0.0
 10
5.397595501752625
 20
-5.229575300269465
 30
0.0
 10
5.469316896609395
 20
-5.237159766144031
 30
0.0
 10
5.553798877674934
 20
-5.194149478329361
 30
0.0
 10
5.479403803890211
 20
-5.099139780521201
 30
0.0
  0
HATCH
  5
94
330
85
100
AcDbEntity
  8
Deck Box - G5
 62
   250
420
  2301728
440
 33554559
100
AcDbHatch
 10
0.0
 20
0.0
 30
0.0
210
0.0
220
0.0
230
1.0
  2
SOLID
 70
     1
 71
     1
 91
        1
 92
        1
 93
        1
 72
     4
 94
        3
 73
     0
 74
     0
 95
       20
 96
       16
 40
0.0
 40
0.0
 40
0.0
 40
0.0
 40
1.0
 40
1.0
 40
1.0
 40
2.0
 40
2.0
 40
2.0
 40
3.0
 40
3.0
 40
3.0
 40
4.0
 40
4.0
 40
4.0
 40
5.0
 40
5.0
 40
5.0
 40
5.0
 10
5.479403803890211
 20
-5.099139780521201
 10
5.437522666466166
 20
-5.084316714657486
 10
5.390575611073371
 20
-5.135244618574587
 10
5.409319338015645
 20
-5.15501831377858
 10
5.401529726199239
 20
-5.151917388756879
 10
5.396468046783007
 20
-5.14832394393266
 10
5.393615500938822
 20
-5.144466861141861
 10
5.395221912342902
 20
-5.151545243845854
 10
5.396624873226149
 20
-5.158797407203059
 10
5.397746394222243
 20
-5.166280147817208
 10
5.400709990142382
 20
-5.187532250139256
 10
5.400633696197069
 20
-5.208656348175281
 10
5.397595501752625
 20
-5.229575300269465
 10
5.469316896609395
 20
-5.237159766144031
 10
5.553798877674934
 20
-5.194149478329361
 10
5.479403803890211
 20
-5.099139780521201
 97
        0
 97
        1
330
93
 75
     2
 76
     1
 98
        1
 10
0.0
 20
0.0
450
        0
451
        0
460
0.0
461
0.0
452
        0
462
0.0
453
        0
470

  0
SPLINE
  5
95
330
85
100
AcDbEntity
  8
Deck Box - G5
100
AcDbSpline
210
0.0
220
0.0
230
1.0
 70
     9
 71
     3
 72
    20
 73
    16
 74
     0
 42
0.0000000001
 43
0.0000000001
 40
0.0
 40
0.0
 40
0.0
 40
0.0
 40
1.0
 40
1.0
 40
1.0
 40
2.0
 40
2.0
 40
2.0
 40
3.0
 40
3.0
 40
3.0
 40
4.0
 40
4.0
 40
4.0
 40
5.0
 40
5.0
 40
5.0
 40
5.0
 10
3.316506905832498
 20
-4.873583512888822
 30
0.0
 10
3.334765742366787
 20
-4.86842180363318
 30
0.0
 10
3.353412830311665
 20
-4.864839379045506
 30
0.0
 10
3.372506661691873
 20
-4.863163455380142
 30
0.0
 10
3.370968067128071
 20
-4.775988298045072
 30
0.0
 10
3.1443148621042
 20
-4.724611955271635
 30
0.0
 10
3.20142681414413
 20
-4.934388091881879
 30
0.0
 10
3.209024843386752
 20
-4.928098927656618
 30
0.0
 10
3.216869556385884
 20
-4.921995412031618
 30
0.0
 10
3.225118627295172
 20
-4.91621233097693
 30
0.0
 10
3.23190031132295
 20
-4.911646562205229
 30
0.0
 10
3.238764223269564
 20
-4.907393598609309
 30
0.0
 10
3.245698495187967
 20
-4.903405120690472
 30
0.0
 10
3.217609607655415
 20
-4.84644660425167
 30
0.0
 10
3.313418696468349
 20
-4.796997955163129
 30
0.0
 10
3.316506905832498
 20
-4.873583512888822
 30
0.0
  0
HATCH
  5
96
330
85
100
AcDbEntity
  8
Deck Box - G5
 62
   250
420
  2301728
440
 33554559
100
AcDbHatch
 10
0.0
 20
0.0
 30
0.0
210
0.0
220
0.0
230
1.0
  2
SOLID
 70
     1
 71
     1
 91
        1
 92
        1
 93
        1
 72
     4
 94
        3
 73
     0
 74
     0
 95
       20
 96
       16
 40
0.0
 40
0.0
 40
0.0
 40
0.0
 40
1.0
 40
1.0
 40
1.0
 40
2.0
 40
2.0
 40
2.0
 40
3.0
 40
3.0
 40
3.0
 40
4.0
 40
4.0
 40
4.0
 40
5.0
 40
5.0
 40
5.0
 40
5.0
 10
3.316506905832498
 20
-4.873583512888822
 10
3.334765742366787
 20
-4.86842180363318
 10
3.353412830311665
 20
-4.864839379045506
 10
3.372506661691873
 20
-4.863163455380142
 10
3.370968067128071
 20
-4.775988298045072
 10
3.1443148621042
 20
-4.724611955271635
 10
3.20142681414413
 20
-4.934388091881879
 10
3.209024843386752
 20
-4.928098927656618
 10
3.216869556385884
 20
-4.921995412031618
 10
3.225118627295172
 20
-4.91621233097693
 10
3.23190031132295
 20
-4.911646562205229
 10
3.238764223269564
 20
-4.907393598609309
 10
3.245698495187967
 20
-4.903405120690472
 10
3.217609607655415
 20
-4.84644660425167
 10
3.313418696468349
 20
-4.796997955163129
 10
3.316506905832498
 20
-4.873583512888822
 97
        0
 97
        1
330
95
 75
     2
 76
     1
 98
        1
 10
0.0
 20
0.0
450
        0
451
        0
460
0.0
461
0.0
452
        0
462
0.0
453
        0
470

  0
SPLINE
  5
97
330
85
100
AcDbEntity
  8
Deck Box - G5
100
AcDbSpline
210
0.0
220
0.0
230
1.0
 70
     9
 71
     3
 72
    35
 73
    31
 74
     0
 42
0.0000000001
 43
0.0000000001
 40
0.0
 40
0.0
 40
0.0
 40
0.0
 40
1.0
 40
1.0
 40
1.0
 40
2.0
 40
2.0
 40
2.0
 40
3.0
 40
3.0
 40
3.0
 40
4.0
 40
4.0
 40
4.0
 40
5.0
 40
5.0
 40
5.0
 40
6.0
 40
6.0
 40
6.0
 40
7.0
 40
7.0
 40
7.0
 40
8.0
 40
8.0
 40
8.0
 40
9.0
 40
9.0
 40
9.0
 40
10.0
 40
10.0
 40
10.0
 40
10.0
 10
5.032994366498718
 20
-4.655989790015559
 30
0.0
 10
5.114219443809916
 20
-4.68830705753943
 30
0.0
 10
5.177656163916253
 20
-4.641640594323285
 30
0.0
 10
5.188027054215732
 20
-4.588888417402712
 30
0.0
 10
5.188027054215732
 20
-4.588888417402712
 30
0.0
 10
5.140160232926669
 20
-4.588888417402712
 30
0.0
 10
5.140160232926669
 20
-4.588888417402712
 30
0.0
 10
5.137223763742642
 20
-4.598394642988649
 30
0.0
 10
5.129597760053406
 20
-4.606649647871462
 30
0.0
 10
5.115677505875888
 20
-4.610752566708267
 30
0.0
 10
5.099217511029968
 20
-4.61530646753292
 30
0.0
 10
5.083974828467034
 20
-4.612104664961305
 30
0.0
 10
5.069372167334222
 20
-4.604309119171375
 30
0.0
 10
5.088925457807312
 20
-4.611039940568944
 30
0.0
 10
5.109446833675368
 20
-4.601546430640559
 30
0.0
 10
5.121635215294291
 20
-4.588888417402712
 30
0.0
 10
5.121635215294291
 20
-4.588888417402712
 30
0.0
 10
5.048245526166687
 20
-4.588888417402712
 30
0.0
 10
5.048245526166687
 20
-4.588888417402712
 30
0.0
 10
5.049012704172329
 20
-4.589795467641427
 30
0.0
 10
5.049626446576843
 20
-4.590717776669205
 30
0.0
 10
5.050446182633701
 20
-4.591618045223892
 30
0.0
 10
5.049346702110697
 20
-4.590744903405316
 30
0.0
 10
5.048255698692728
 20
-4.589799706193944
 30
0.0
 10
5.047160456722243
 20
-4.588888417402712
 30
0.0
 10
5.047160456722243
 20
-4.588888417402712
 30
0.0
 10
4.959473282243076
 20
-4.588888417402712
 30
0.0
 10
4.959473282243076
 20
-4.588888417402712
 30
0.0
 10
4.981139915001322
 20
-4.613136328644031
 30
0.0
 10
4.999589486398892
 20
-4.64309950409976
 30
0.0
 10
5.032994366498718
 20
-4.655989790015559
 30
0.0
  0
HATCH
  5
98
330
85
100
AcDbEntity
  8
Deck Box - G5
 62
   250
420
  2301728
440
 33554559
100
AcDbHatch
 10
0.0
 20
0.0
 30
0.0
210
0.0
220
0.0
230
1.0
  2
SOLID
 70
     1
 71
     1
 91
        1
 92
        1
 93
        1
 72
     4
 94
        3
 73
     0
 74
     0
 95
       35
 96
       31
 40
0.0
 40
0.0
 40
0.0
 40
0.0
 40
1.0
 40
1.0
 40
1.0
 40
2.0
 40
2.0
 40
2.0
 40
3.0
 40
3.0
 40
3.0
 40
4.0
 40
4.0
 40
4.0
 40
5.0
 40
5.0
 40
5.0
 40
6.0
 40
6.0
 40
6.0
 40
7.0
 40
7.0
 40
7.0
 40
8.0
 40
8.0
 40
8.0
 40
9.0
 40
9.0
 40
9.0
 40
10.0
 40
10.0
 40
10.0
 40
10.0
 10
5.032994366498718
 20
-4.655989790015559
 10
5.114219443809916
 20
-4.68830705753943
 10
5.177656163916253
 20
-4.641640594323285
 10
5.188027054215732
 20
-4.588888417402712
 10
5.188027054215732
 20
-4.588888417402712
 10
5.140160232926669
 20
-4.588888417402712
 10
5.140160232926669
 20
-4.588888417402712
 10
5.137223763742642
 20
-4.598394642988649
 10
5.129597760053406
 20
-4.606649647871462
 10
5.115677505875888
 20
-4.610752566708267
 10
5.099217511029968
 20
-4.61530646753292
 10
5.083974828467034
 20
-4.612104664961305
 10
5.069372167334222
 20
-4.604309119171375
 10
5.088925457807312
 20
-4.611039940568944
 10
5.109446833675368
 20
-4.601546430640559
 10
5.121635215294291
 20
-4.588888417402712
 10
5.121635215294291
 20
-4.588888417402712
 10
5.048245526166687
 20
-4.588888417402712
 10
5.048245526166687
 20
-4.588888417402712
 10
5.049012704172329
 20
-4.589795467641427
 10
5.049626446576843
 20
-4.590717776669205
 10
5.050446182633701
 20
-4.591618045223892
 10
5.049346702110697
 20
-4.590744903405316
 10
5.048255698692728
 20
-4.589799706193944
 10
5.047160456722243
 20
-4.588888417402712
 10
5.047160456722243
 20
-4.588888417402712
 10
4.959473282243076
 20
-4.588888417402712
 10
4.959473282243076
 20
-4.588888417402712
 10
4.981139915001322
 20
-4.613136328644031
 10
4.999589486398892
 20
-4.64309950409976
 10
5.032994366498718
 20
-4.655989790015559
 97
        0
 97
        1
330
97
 75
     2
 76
     1
 98
        1
 10
0.0
 20
0.0
450
        0
451
        0
460
0.0
461
0.0
452
        0
462
0.0
453
        0
470

  0
SPLINE
  5
99
330
85
100
AcDbEntity
  8
Deck Box - G5
100
AcDbSpline
210
0.0
220
0.0
230
1.0
 70
     9
 71
     3
 72
    23
 73
    19
 74
     0
 42
0.0000000001
 43
0.0000000001
 40
0.0
 40
0.0
 40
0.0
 40
0.0
 40
1.0
 40
1.0
 40
1.0
 40
2.0
 40
2.0
 40
2.0
 40
3.0
 40
3.0
 40
3.0
 40
4.0
 40
4.0
 40
4.0
 40
5.0
 40
5.0
 40
5.0
 40
6.0
 40
6.0
 40
6.0
 40
6.0
 10
4.949414349408875
 20
-4.588888417402712
 30
0.0
 10
4.949414349408875
 20
-4.588888417402712
 30
0.0
 10
4.861126148182746
 20
-4.588888417402712
 30
0.0
 10
4.861126148182746
 20
-4.588888417402712
 30
0.0
 10
4.858408388308614
 20
-4.609555599477364
 30
0.0
 10
4.876981725439691
 20
-4.631894466664864
 30
0.0
 10
4.904719660823805
 20
-4.612516652265993
 30
0.0
 10
4.910551909087694
 20
-4.599515316274239
 30
0.0
 10
4.916764779367642
 20
-4.623675913333701
 30
0.0
 10
4.903508282514343
 20
-4.622728172990819
 30
0.0
 10
4.866762575320333
 20
-4.63538449080766
 30
0.0
 10
4.851046870296461
 20
-4.611909691545506
 30
0.0
 10
4.854347854996982
 20
-4.588888417402712
 30
0.0
 10
4.854347854996982
 20
-4.588888417402712
 30
0.0
 10
4.803246170426669
 20
-4.588888417402712
 30
0.0
 10
4.803246170426669
 20
-4.588888417402712
 30
0.0
 10
4.810522069677972
 20
-4.74608531003509
 30
0.0
 10
5.025554859120246
 20
-4.64881476831417
 30
0.0
 10
4.949414349408875
 20
-4.588888417402712
 30
0.0
  0
HATCH
  5
9A
330
85
100
AcDbEntity
  8
Deck Box - G5
 62
   250
420
  2301728
440
 33554559
100
AcDbHatch
 10
0.0
 20
0.0
 30
0.0
210
0.0
220
0.0
230
1.0
  2
SOLID
 70
     1
 71
     1
 91
        1
 92
        1
 93
        1
 72
     4
 94
        3
 73
     0
 74
     0
 95
       23
 96
       19
 40
0.0
 40
0.0
 40
0.0
 40
0.0
 40
1.0
 40
1.0
 40
1.0
 40
2.0
 40
2.0
 40
2.0
 40
3.0
 40
3.0
 40
3.0
 40
4.0
 40
4.0
 40
4.0
 40
5.0
 40
5.0
 40
5.0
 40
6.0
 40
6.0
 40
6.0
 40
6.0
 10
4.949414349408875
 20
-4.588888417402712
 10
4.949414349408875
 20
-4.588888417402712
 10
4.861126148182746
 20
-4.588888417402712
 10
4.861126148182746
 20
-4.588888417402712
 10
4.858408388308614
 20
-4.609555599477364
 10
4.876981725439691
 20
-4.631894466664864
 10
4.904719660823805
 20
-4.612516652265993
 10
4.910551909087694
 20
-4.599515316274239
 10
4.916764779367642
 20
-4.623675913333701
 10
4.903508282514343
 20
-4.622728172990819
 10
4.866762575320333
 20
-4.63538449080766
 10
4.851046870296461
 20
-4.611909691545506
 10
4.854347854996982
 20
-4.588888417402712
 10
4.854347854996982
 20
-4.588888417402712
 10
4.803246170426669
 20
-4.588888417402712
 10
4.803246170426669
 20
-4.588888417402712
 10
4.810522069677972
 20
-4.74608531003509
 10
5.025554859120246
 20
-4.64881476831417
 10
4.949414349408875
 20
-4.588888417402712
 97
        0
 97
        1
330
99
 75
     2
 76
     1
 98
        1
 10
0.0
 20
0.0
450
        0
451
        0
460
0.0
461
0.0
452
        0
462
0.0
453
        0
470

  0
SPLINE
  5
9B
330
85
100
AcDbEntity
  8
Deck Box - G5
100
AcDbSpline
210
0.0
220
0.0
230
1.0
 70
     9
 71
     3
 72
    29
 73
    25
 74
     0
 42
0.0000000001
 43
0.0000000001
 40
0.0
 40
0.0
 40
0.0
 40
0.0
 40
1.0
 40
1.0
 40
1.0
 40
2.0
 40
2.0
 40
2.0
 40
3.0
 40
3.0
 40
3.0
 40
4.0
 40
4.0
 40
4.0
 40
5.0
 40
5.0
 40
5.0
 40
6.0
 40
6.0
 40
6.0
 40
7.0
 40
7.0
 40
7.0
 40
8.0
 40
8.0
 40
8.0
 40
8.0
 10
4.180245919504374
 20
-4.695945776886219
 30
0.0
 10
4.207317554432759
 20
-4.705219729794205
 30
0.0
 10
4.22976916711722
 20
-4.721628014299413
 30
0.0
 10
4.246053685888922
 20
-4.744737450334569
 30
0.0
 10
4.253052383805589
 20
-4.755063411977364
 30
0.0
 10
4.259760317019564
 20
-4.765974293867555
 30
0.0
 10
4.266338550526496
 20
-4.777144575171809
 30
0.0
 10
4.282439963829448
 20
-4.783269283559396
 30
0.0
 10
4.29669591136634
 20
-4.786057403405316
 30
0.0
 10
4.309224224897156
 20
-4.786132001929622
 30
0.0
 10
4.316189014393684
 20
-4.740781185414864
 30
0.0
 10
4.342479907948371
 20
-4.707067738691774
 30
0.0
 10
4.383960926014777
 20
-4.688479990482139
 30
0.0
 10
4.38236723026825
 20
-4.613696665286826
 30
0.0
 10
4.326146221967468
 20
-4.541757408830663
 30
0.0
 10
4.248459488297776
 20
-4.660929399119291
 30
0.0
 10
4.240496095828158
 20
-4.678248124705229
 30
0.0
 10
4.237390932253939
 20
-4.633215199629274
 30
0.0
 10
4.219954374908019
 20
-4.588888417402712
 30
0.0
 10
4.219954374908019
 20
-4.588888417402712
 30
0.0
 10
4.136998272748731
 20
-4.588888417402712
 30
0.0
 10
4.136998272748731
 20
-4.588888417402712
 30
0.0
 10
4.170972814306891
 20
-4.612511566002972
 30
0.0
 10
4.169848750179286
 20
-4.656439076582399
 30
0.0
 10
4.180245919504374
 20
-4.695945776886219
 30
0.0
  0
HATCH
  5
9C
330
85
100
AcDbEntity
  8
Deck Box - G5
 62
   250
420
  2301728
440
 33554559
100
AcDbHatch
 10
0.0
 20
0.0
 30
0.0
210
0.0
220
0.0
230
1.0
  2
SOLID
 70
     1
 71
     1
 91
        1
 92
        1
 93
        1
 72
     4
 94
        3
 73
     0
 74
     0
 95
       29
 96
       25
 40
0.0
 40
0.0
 40
0.0
 40
0.0
 40
1.0
 40
1.0
 40
1.0
 40
2.0
 40
2.0
 40
2.0
 40
3.0
 40
3.0
 40
3.0
 40
4.0
 40
4.0
 40
4.0
 40
5.0
 40
5.0
 40
5.0
 40
6.0
 40
6.0
 40
6.0
 40
7.0
 40
7.0
 40
7.0
 40
8.0
 40
8.0
 40
8.0
 40
8.0
 10
4.180245919504374
 20
-4.695945776886219
 10
4.207317554432759
 20
-4.705219729794205
 10
4.22976916711722
 20
-4.721628014299413
 10
4.246053685888922
 20
-4.744737450334569
 10
4.253052383805589
 20
-4.755063411977364
 10
4.259760317019564
 20
-4.765974293867555
 10
4.266338550526496
 20
-4.777144575171809
 10
4.282439963829448
 20
-4.783269283559396
 10
4.29669591136634
 20
-4.786057403405316
 10
4.309224224897156
 20
-4.786132001929622
 10
4.316189014393684
 20
-4.740781185414864
 10
4.342479907948371
 20
-4.707067738691774
 10
4.383960926014777
 20
-4.688479990482139
 10
4.38236723026825
 20
-4.613696665286826
 10
4.326146221967468
 20
-4.541757408830663
 10
4.248459488297776
 20
-4.660929399119291
 10
4.240496095828158
 20
-4.678248124705229
 10
4.237390932253939
 20
-4.633215199629274
 10
4.219954374908019
 20
-4.588888417402712
 10
4.219954374908019
 20
-4.588888417402712
 10
4.136998272748731
 20
-4.588888417402712
 10
4.136998272748731
 20
-4.588888417402712
 10
4.170972814306891
 20
-4.612511566002972
 10
4.169848750179286
 20
-4.656439076582399
 10
4.180245919504374
 20
-4.695945776886219
 97
        0
 97
        1
330
9B
 75
     2
 76
     1
 98
        1
 10
0.0
 20
0.0
450
        0
451
        0
460
0.0
461
0.0
452
        0
462
0.0
453
        0
470

  0
SPLINE
  5
9D
330
85
100
AcDbEntity
  8
Deck Box - G5
100
AcDbSpline
210
0.0
220
0.0
230
1.0
 70
     9
 71
     3
 72
    14
 73
    10
 74
     0
 42
0.0000000001
 43
0.0000000001
 40
0.0
 40
0.0
 40
0.0
 40
0.0
 40
1.0
 40
1.0
 40
1.0
 40
2.0
 40
2.0
 40
2.0
 40
3.0
 40
3.0
 40
3.0
 40
3.0
 10
4.301643997575107
 20
-4.66505266300818
 30
0.0
 10
4.290327062353753
 20
-4.673682355933528
 30
0.0
 10
4.297783523942294
 20
-4.658393049292903
 30
0.0
 10
4.301788108360698
 20
-4.652086930857572
 30
0.0
 10
4.39530922652476
 20
-4.655014075226063
 30
0.0
 10
4.313914607112868
 20
-4.788151248348892
 30
0.0
 10
4.261088679378505
 20
-4.705834319909222
 30
0.0
 10
4.296961244753926
 20
-4.743315839820247
 30
0.0
 10
4.390371312842034
 20
-4.682475656986045
 30
0.0
 10
4.301643997575107
 20
-4.66505266300818
 30
0.0
  0
HATCH
  5
9E
330
85
100
AcDbEntity
  8
Deck Box - G5
 62
   250
420
  2301728
440
 33554559
100
AcDbHatch
 10
0.0
 20
0.0
 30
0.0
210
0.0
220
0.0
230
1.0
  2
SOLID
 70
     1
 71
     1
 91
        1
 92
        1
 93
        1
 72
     4
 94
        3
 73
     0
 74
     0
 95
       14
 96
       10
 40
0.0
 40
0.0
 40
0.0
 40
0.0
 40
1.0
 40
1.0
 40
1.0
 40
2.0
 40
2.0
 40
2.0
 40
3.0
 40
3.0
 40
3.0
 40
3.0
 10
4.301643997575107
 20
-4.66505266300818
 10
4.290327062353753
 20
-4.673682355933528
 10
4.297783523942294
 20
-4.658393049292903
 10
4.301788108360698
 20
-4.652086930857572
 10
4.39530922652476
 20
-4.655014075226063
 10
4.313914607112868
 20
-4.788151248348892
 10
4.261088679378505
 20
-4.705834319909222
 10
4.296961244753926
 20
-4.743315839820247
 10
4.390371312842034
 20
-4.682475656986045
 10
4.301643997575107
 20
-4.66505266300818
 97
        0
 97
        1
330
9D
 75
     2
 76
     1
 98
        1
 10
0.0
 20
0.0
450
        0
451
        0
460
0.0
461
0.0
452
        0
462
0.0
453
        0
470

  0
SPLINE
  5
9F
330
85
100
AcDbEntity
  8
Deck Box - G5
100
AcDbSpline
210
0.0
220
0.0
230
1.0
 70
     9
 71
     3
 72
    35
 73
    31
 74
     0
 42
0.0000000001
 43
0.0000000001
 40
0.0
 40
0.0
 40
0.0
 40
0.0
 40
1.0
 40
1.0
 40
1.0
 40
2.0
 40
2.0
 40
2.0
 40
3.0
 40
3.0
 40
3.0
 40
4.0
 40
4.0
 40
4.0
 40
5.0
 40
5.0
 40
5.0
 40
6.0
 40
6.0
 40
6.0
 40
7.0
 40
7.0
 40
7.0
 40
8.0
 40
8.0
 40
8.0
 40
9.0
 40
9.0
 40
9.0
 40
10.0
 40
10.0
 40
10.0
 40
10.0
 10
4.054705927913661
 20
-4.694970909807225
 30
0.0
 10
4.059793038644999
 20
-4.693567101213475
 30
0.0
 10
4.064903885270433
 20
-4.692217546091947
 30
0.0
 10
4.070184273996561
 20
-4.691284216827625
 30
0.0
 10
4.092631648128505
 20
-4.68733049503943
 30
0.0
 10
4.116923640316005
 20
-4.686197953806791
 30
0.0
 10
4.142449898996561
 20
-4.687906938181791
 30
0.0
 10
4.142449898996561
 20
-4.687906938181791
 30
0.0
 10
4.144294517052117
 20
-4.68806291691443
 30
0.0
 10
4.144294517052117
 20
-4.68806291691443
 30
0.0
 10
4.14633410852347
 20
-4.688268062856271
 30
0.0
 10
4.148260954497863
 20
-4.688672420766427
 30
0.0
 10
4.150263246707064
 20
-4.688944535838041
 30
0.0
 10
4.173404895741352
 20
-4.670339833418337
 30
0.0
 10
4.174088998117655
 20
-4.635918548424847
 30
0.0
 10
4.116005569840745
 20
-4.590394798967381
 30
0.0
 10
4.070135954497863
 20
-4.580675798045072
 30
0.0
 10
4.054967022748731
 20
-4.657133351484743
 30
0.0
 10
4.108452469254808
 20
-4.645735036055055
 30
0.0
 10
4.120185630333367
 20
-4.635468414147504
 30
0.0
 10
4.113792197716179
 20
-4.661625369442642
 30
0.0
 10
4.102282832210536
 20
-4.655197180694813
 30
0.0
 10
4.053559823312967
 20
-4.651613908396635
 30
0.0
 10
4.061034934532585
 20
-4.607722849368857
 30
0.0
 10
4.087322437245259
 20
-4.588888417402712
 30
0.0
 10
4.087322437245259
 20
-4.588888417402712
 30
0.0
 10
4.024915685400641
 20
-4.588888417402712
 30
0.0
 10
4.024915685400641
 20
-4.588888417402712
 30
0.0
 10
4.002036826622429
 20
-4.645961374759482
 30
0.0
 10
4.022836251535624
 20
-4.679831647925715
 30
0.0
 10
4.054705927913661
 20
-4.694970909807225
 30
0.0
  0
HATCH
  5
A0
330
85
100
AcDbEntity
  8
Deck Box - G5
 62
   250
420
  2301728
440
 33554559
100
AcDbHatch
 10
0.0
 20
0.0
 30
0.0
210
0.0
220
0.0
230
1.0
  2
SOLID
 70
     1
 71
     1
 91
        1
 92
        1
 93
        1
 72
     4
 94
        3
 73
     0
 74
     0
 95
       35
 96
       31
 40
0.0
 40
0.0
 40
0.0
 40
0.0
 40
1.0
 40
1.0
 40
1.0
 40
2.0
 40
2.0
 40
2.0
 40
3.0
 40
3.0
 40
3.0
 40
4.0
 40
4.0
 40
4.0
 40
5.0
 40
5.0
 40
5.0
 40
6.0
 40
6.0
 40
6.0
 40
7.0
 40
7.0
 40
7.0
 40
8.0
 40
8.0
 40
8.0
 40
9.0
 40
9.0
 40
9.0
 40
10.0
 40
10.0
 40
10.0
 40
10.0
 10
4.054705927913661
 20
-4.694970909807225
 10
4.059793038644999
 20
-4.693567101213475
 10
4.064903885270433
 20
-4.692217546091947
 10
4.070184273996561
 20
-4.691284216827625
 10
4.092631648128505
 20
-4.68733049503943
 10
4.116923640316005
 20
-4.686197953806791
 10
4.142449898996561
 20
-4.687906938181791
 10
4.142449898996561
 20
-4.687906938181791
 10
4.144294517052117
 20
-4.68806291691443
 10
4.144294517052117
 20
-4.68806291691443
 10
4.14633410852347
 20
-4.688268062856271
 10
4.148260954497863
 20
-4.688672420766427
 10
4.150263246707064
 20
-4.688944535838041
 10
4.173404895741352
 20
-4.670339833418337
 10
4.174088998117655
 20
-4.635918548424847
 10
4.116005569840745
 20
-4.590394798967381
 10
4.070135954497863
 20
-4.580675798045072
 10
4.054967022748731
 20
-4.657133351484743
 10
4.108452469254808
 20
-4.645735036055055
 10
4.120185630333367
 20
-4.635468414147504
 10
4.113792197716179
 20
-4.661625369442642
 10
4.102282832210536
 20
-4.655197180694813
 10
4.053559823312967
 20
-4.651613908396635
 10
4.061034934532585
 20
-4.607722849368857
 10
4.087322437245259
 20
-4.588888417402712
 10
4.087322437245259
 20
-4.588888417402712
 10
4.024915685400641
 20
-4.588888417402712
 10
4.024915685400641
 20
-4.588888417402712
 10
4.002036826622429
 20
-4.645961374759482
 10
4.022836251535624
 20
-4.679831647925715
 10
4.054705927913661
 20
-4.694970909807225
 97
        0
 97
        1
330
9F
 75
     2
 76
     1
 98
        1
 10
0.0
 20
0.0
450
        0
451
        0
460
0.0
461
0.0
452
        0
462
0.0
453
        0
470

  0
SPLINE
  5
A1
330
85
100
AcDbEntity
  8
Deck Box - G5
100
AcDbSpline
210
0.0
220
0.0
230
1.0
 70
     9
 71
     3
 72
    23
 73
    19
 74
     0
 42
0.0000000001
 43
0.0000000001
 40
0.0
 40
0.0
 40
0.0
 40
0.0
 40
1.0
 40
1.0
 40
1.0
 40
2.0
 40
2.0
 40
2.0
 40
3.0
 40
3.0
 40
3.0
 40
4.0
 40
4.0
 40
4.0
 40
5.0
 40
5.0
 40
5.0
 40
6.0
 40
6.0
 40
6.0
 40
6.0
 10
4.613601462852884
 20
-4.629115671634482
 30
0.0
 10
4.616432815934482
 20
-4.614145104143163
 30
0.0
 10
4.619680394873284
 20
-4.600831810686131
 30
0.0
 10
4.623224672488301
 20
-4.588888417402712
 30
0.0
 10
4.623224672488301
 20
-4.588888417402712
 30
0.0
 10
4.478350947444899
 20
-4.588888417402712
 30
0.0
 10
4.478350947444899
 20
-4.588888417402712
 30
0.0
 10
4.459030777360263
 20
-4.613074445777278
 30
0.0
 10
4.603054248768684
 20
-4.605532365427885
 30
0.0
 10
4.518629064306878
 20
-4.623336829132313
 30
0.0
 10
4.489361011463996
 20
-4.626938751061566
 30
0.0
 10
4.473120573638476
 20
-4.607268476538997
 30
0.0
 10
4.472876433013476
 20
-4.588888417402712
 30
0.0
 10
4.472876433013476
 20
-4.588888417402712
 30
0.0
 10
4.423864354834222
 20
-4.588888417402712
 30
0.0
 10
4.423864354834222
 20
-4.588888417402712
 30
0.0
 10
4.427189923139343
 20
-4.652281056562868
 30
0.0
 10
4.546047412831184
 20
-4.7000673453541
 30
0.0
 10
4.613601462852884
 20
-4.629115671634482
 30
0.0
  0
HATCH
  5
A2
330
85
100
AcDbEntity
  8
Deck Box - G5
 62
   250
420
  2301728
440
 33554559
100
AcDbHatch
 10
0.0
 20
0.0
 30
0.0
210
0.0
220
0.0
230
1.0
  2
SOLID
 70
     1
 71
     1
 91
        1
 92
        1
 93
        1
 72
     4
 94
        3
 73
     0
 74
     0
 95
       23
 96
       19
 40
0.0
 40
0.0
 40
0.0
 40
0.0
 40
1.0
 40
1.0
 40
1.0
 40
2.0
 40
2.0
 40
2.0
 40
3.0
 40
3.0
 40
3.0
 40
4.0
 40
4.0
 40
4.0
 40
5.0
 40
5.0
 40
5.0
 40
6.0
 40
6.0
 40
6.0
 40
6.0
 10
4.613601462852884
 20
-4.629115671634482
 10
4.616432815934482
 20
-4.614145104143163
 10
4.619680394873284
 20
-4.600831810686131
 10
4.623224672488301
 20
-4.588888417402712
 10
4.623224672488301
 20
-4.588888417402712
 10
4.478350947444899
 20
-4.588888417402712
 10
4.478350947444899
 20
-4.588888417402712
 10
4.459030777360263
 20
-4.613074445777278
 10
4.603054248768684
 20
-4.605532365427885
 10
4.518629064306878
 20
-4.623336829132313
 10
4.489361011463996
 20
-4.626938751061566
 10
4.473120573638476
 20
-4.607268476538997
 10
4.472876433013476
 20
-4.588888417402712
 10
4.472876433013476
 20
-4.588888417402712
 10
4.423864354834222
 20
-4.588888417402712
 10
4.423864354834222
 20
-4.588888417402712
 10
4.427189923139343
 20
-4.652281056562868
 10
4.546047412831184
 20
-4.7000673453541
 10
4.613601462852884
 20
-4.629115671634482
 97
        0
 97
        1
330
A1
 75
     2
 76
     1
 98
        1
 10
0.0
 20
0.0
450
        0
451
        0
460
0.0
461
0.0
452
        0
462
0.0
453
        0
470

  0
SPLINE
  5
A3
330
85
100
AcDbEntity
  8
Deck Box - G5
100
AcDbSpline
210
0.0
220
0.0
230
1.0
 70
     9
 71
     3
 72
    29
 73
    25
 74
     0
 42
0.0000000001
 43
0.0000000001
 40
0.0
 40
0.0
 40
0.0
 40
0.0
 40
1.0
 40
1.0
 40
1.0
 40
2.0
 40
2.0
 40
2.0
 40
3.0
 40
3.0
 40
3.0
 40
4.0
 40
4.0
 40
4.0
 40
5.0
 40
5.0
 40
5.0
 40
6.0
 40
6.0
 40
6.0
 40
7.0
 40
7.0
 40
7.0
 40
8.0
 40
8.0
 40
8.0
 40
8.0
 10
5.646121333187086
 20
-4.718355004045506
 30
0.0
 10
5.616435359065993
 20
-4.65192756128292
 30
0.0
 10
5.553915861724413
 20
-4.62580705753943
 30
0.0
 10
5.509921382015211
 20
-4.664344824737781
 30
0.0
 10
5.416769865630663
 20
-4.744777292728232
 30
0.0
 10
5.642243905344204
 20
-4.819322411272069
 30
0.0
 10
5.556398805789083
 20
-4.711769141144031
 30
0.0
 10
5.539170785227017
 20
-4.708821651723458
 30
0.0
 10
5.557930618668857
 20
-4.703553130944379
 30
0.0
 10
5.566556920752191
 20
-4.702167124271201
 30
0.0
 10
5.660961353260871
 20
-4.826589833418337
 30
0.0
 10
5.359208627023892
 20
-4.805188534047677
 30
0.0
 10
5.549065262223544
 20
-4.589085086239517
 30
0.0
 10
5.549084759565125
 20
-4.589018964820247
 30
0.0
 10
5.549094084380663
 20
-4.588954538821982
 30
0.0
 10
5.549113581722243
 20
-4.588888417402712
 30
0.0
 10
5.549113581722243
 20
-4.588888417402712
 30
0.0
 10
5.447204368126322
 20
-4.588888417402712
 30
0.0
 10
5.447204368126322
 20
-4.588888417402712
 30
0.0
 10
5.429077774430576
 20
-4.619021982669639
 30
0.0
 10
5.403369257991774
 20
-4.647845835208701
 30
0.0
 10
5.405143516075541
 20
-4.68673964081851
 30
0.0
 10
5.410707040109829
 20
-4.854205698489951
 30
0.0
 10
5.676459196685351
 20
-4.889943477895333
 30
0.0
 10
5.646121333187086
 20
-4.718355004045506
 30
0.0
  0
HATCH
  5
A4
330
85
100
AcDbEntity
  8
Deck Box - G5
 62
   250
420
  2301728
440
 33554559
100
AcDbHatch
 10
0.0
 20
0.0
 30
0.0
210
0.0
220
0.0
230
1.0
  2
SOLID
 70
     1
 71
     1
 91
        1
 92
        1
 93
        1
 72
     4
 94
        3
 73
     0
 74
     0
 95
       29
 96
       25
 40
0.0
 40
0.0
 40
0.0
 40
0.0
 40
1.0
 40
1.0
 40
1.0
 40
2.0
 40
2.0
 40
2.0
 40
3.0
 40
3.0
 40
3.0
 40
4.0
 40
4.0
 40
4.0
 40
5.0
 40
5.0
 40
5.0
 40
6.0
 40
6.0
 40
6.0
 40
7.0
 40
7.0
 40
7.0
 40
8.0
 40
8.0
 40
8.0
 40
8.0
 10
5.646121333187086
 20
-4.718355004045506
 10
5.616435359065993
 20
-4.65192756128292
 10
5.553915861724413
 20
-4.62580705753943
 10
5.509921382015211
 20
-4.664344824737781
 10
5.416769865630663
 20
-4.744777292728232
 10
5.642243905344204
 20
-4.819322411272069
 10
5.556398805789083
 20
-4.711769141144031
 10
5.539170785227017
 20
-4.708821651723458
 10
5.557930618668857
 20
-4.703553130944379
 10
5.566556920752191
 20
-4.702167124271201
 10
5.660961353260871
 20
-4.826589833418337
 10
5.359208627023892
 20
-4.805188534047677
 10
5.549065262223544
 20
-4.589085086239517
 10
5.549084759565125
 20
-4.589018964820247
 10
5.549094084380663
 20
-4.588954538821982
 10
5.549113581722243
 20
-4.588888417402712
 10
5.549113581722243
 20
-4.588888417402712
 10
5.447204368126322
 20
-4.588888417402712
 10
5.447204368126322
 20
-4.588888417402712
 10
5.429077774430576
 20
-4.619021982669639
 10
5.403369257991774
 20
-4.647845835208701
 10
5.405143516075541
 20
-4.68673964081851
 10
5.410707040109829
 20
-4.854205698489951
 10
5.676459196685351
 20
-4.889943477895333
 10
5.646121333187086
 20
-4.718355004045506
 97
        0
 97
        1
330
A3
 75
     2
 76
     1
 98
        1
 10
0.0
 20
0.0
450
        0
451
        0
460
0.0
461
0.0
452
        0
462
0.0
453
        0
470

  0
SPLINE
  5
A5
330
85
100
AcDbEntity
  8
Deck Box - G5
100
AcDbSpline
210
0.0
220
0.0
230
1.0
 70
     9
 71
     3
 72
    29
 73
    25
 74
     0
 42
0.0000000001
 43
0.0000000001
 40
0.0
 40
0.0
 40
0.0
 40
0.0
 40
1.0
 40
1.0
 40
1.0
 40
2.0
 40
2.0
 40
2.0
 40
3.0
 40
3.0
 40
3.0
 40
4.0
 40
4.0
 40
4.0
 40
5.0
 40
5.0
 40
5.0
 40
6.0
 40
6.0
 40
6.0
 40
7.0
 40
7.0
 40
7.0
 40
8.0
 40
8.0
 40
8.0
 40
8.0
 10
4.784319338015645
 20
-5.163024091773372
 30
0.0
 10
4.783799691477017
 20
-5.168766482723892
 30
0.0
 10
4.783224943755663
 20
-5.174531761858006
 30
0.0
 10
4.782267878597243
 20
-5.180467430803319
 30
0.0
 10
4.779415332753059
 20
-5.198244767771635
 30
0.0
 10
4.776242352338562
 20
-5.212401533179622
 30
0.0
 10
4.772630257883267
 20
-5.224245744334135
 30
0.0
 10
4.811127334977451
 20
-5.260207319312434
 30
0.0
 10
4.768459522206184
 20
-5.292266035132747
 30
0.0
 10
4.727057341216601
 20
-5.28960337644134
 30
0.0
 10
4.709375795535176
 20
-5.301848554663997
 30
0.0
 10
4.68781427887936
 20
-5.308281829674847
 30
0.0
 10
4.662367704986132
 20
-5.308281829674847
 30
0.0
 10
4.656006485368076
 20
-5.308281829674847
 30
0.0
 10
4.649414688493076
 20
-5.307895273685264
 30
0.0
 10
4.642592314361132
 20
-5.307122161706097
 30
0.0
 10
4.626646879790819
 20
-5.305577633168771
 30
0.0
 10
4.612195111127625
 20
-5.302996354685697
 30
0.0
 10
4.598888599354621
 20
-5.299588558461739
 30
0.0
 10
4.623160246490038
 20
-5.323360904110611
 30
0.0
 10
4.669310454009569
 20
-5.342219071970854
 30
0.0
 10
4.750129477989603
 20
-5.35279171737016
 30
0.0
 10
4.922057036040819
 20
-5.294829511695247
 30
0.0
 10
4.858037091108093
 20
-5.193999433570247
 30
0.0
 10
4.784319338015645
 20
-5.163024091773372
 30
0.0
  0
HATCH
  5
A6
330
85
100
AcDbEntity
  8
Deck Box - G5
 62
   250
420
  2301728
440
 33554559
100
AcDbHatch
 10
0.0
 20
0.0
 30
0.0
210
0.0
220
0.0
230
1.0
  2
SOLID
 70
     1
 71
     1
 91
        1
 92
        1
 93
        1
 72
     4
 94
        3
 73
     0
 74
     0
 95
       29
 96
       25
 40
0.0
 40
0.0
 40
0.0
 40
0.0
 40
1.0
 40
1.0
 40
1.0
 40
2.0
 40
2.0
 40
2.0
 40
3.0
 40
3.0
 40
3.0
 40
4.0
 40
4.0
 40
4.0
 40
5.0
 40
5.0
 40
5.0
 40
6.0
 40
6.0
 40
6.0
 40
7.0
 40
7.0
 40
7.0
 40
8.0
 40
8.0
 40
8.0
 40
8.0
 10
4.784319338015645
 20
-5.163024091773372
 10
4.783799691477017
 20
-5.168766482723892
 10
4.783224943755663
 20
-5.174531761858006
 10
4.782267878597243
 20
-5.180467430803319
 10
4.779415332753059
 20
-5.198244767771635
 10
4.776242352338562
 20
-5.212401533179622
 10
4.772630257883267
 20
-5.224245744334135
 10
4.811127334977451
 20
-5.260207319312434
 10
4.768459522206184
 20
-5.292266035132747
 10
4.727057341216601
 20
-5.28960337644134
 10
4.709375795535176
 20
-5.301848554663997
 10
4.68781427887936
 20
-5.308281829674847
 10
4.662367704986132
 20
-5.308281829674847
 10
4.656006485368076
 20
-5.308281829674847
 10
4.649414688493076
 20
-5.307895273685264
 10
4.642592314361132
 20
-5.307122161706097
 10
4.626646879790819
 20
-5.305577633168771
 10
4.612195111127625
 20
-5.302996354685697
 10
4.598888599354621
 20
-5.299588558461739
 10
4.623160246490038
 20
-5.323360904110611
 10
4.669310454009569
 20
-5.342219071970854
 10
4.750129477989603
 20
-5.35279171737016
 10
4.922057036040819
 20
-5.294829511695247
 10
4.858037091108093
 20
-5.193999433570247
 10
4.784319338015645
 20
-5.163024091773372
 97
        0
 97
        1
330
A5
 75
     2
 76
     1
 98
        1
 10
0.0
 20
0.0
450
        0
451
        0
460
0.0
461
0.0
452
        0
462
0.0
453
        0
470

  0
SPLINE
  5
A7
330
85
100
AcDbEntity
  8
Deck Box - G5
100
AcDbSpline
210
0.0
220
0.0
230
1.0
 70
     9
 71
     3
 72
    29
 73
    25
 74
     0
 42
0.0000000001
 43
0.0000000001
 40
0.0
 40
0.0
 40
0.0
 40
0.0
 40
1.0
 40
1.0
 40
1.0
 40
2.0
 40
2.0
 40
2.0
 40
3.0
 40
3.0
 40
3.0
 40
4.0
 40
4.0
 40
4.0
 40
5.0
 40
5.0
 40
5.0
 40
6.0
 40
6.0
 40
6.0
 40
7.0
 40
7.0
 40
7.0
 40
8.0
 40
8.0
 40
8.0
 40
8.0
 10
4.78524334246443
 20
-4.725281646569379
 30
0.0
 10
4.791171382015211
 20
-4.739904652754274
 30
0.0
 10
4.792107254411044
 20
-4.752475351810264
 30
0.0
 10
4.790047317887607
 20
-4.763860951582399
 30
0.0
 10
4.800459746001757
 20
-4.775847578101497
 30
0.0
 10
4.809473451785176
 20
-4.788865868303319
 30
0.0
 10
4.816827340402798
 20
-4.803066714657486
 30
0.0
 10
4.826622635270419
 20
-4.822031694041166
 30
0.0
 10
4.833069473649326
 20
-4.841451893965212
 30
0.0
 10
4.836478117583788
 20
-4.861181508223024
 30
0.0
 10
4.851364761735263
 20
-4.847585927168337
 30
0.0
 10
4.865697850927972
 20
-4.833460527048979
 30
0.0
 10
4.870752748660176
 20
-4.815533993032052
 30
0.0
 10
4.901243200049066
 20
-4.743217505401844
 30
0.0
 10
4.818015830528666
 20
-4.646093617598024
 30
0.0
 10
4.736239741390211
 20
-4.633707719431791
 30
0.0
 10
4.671812047705316
 20
-4.636218637943076
 30
0.0
 10
4.640640884782138
 20
-4.654708051734309
 30
0.0
 10
4.630333572770419
 20
-4.678879669030316
 30
0.0
 10
4.652695328141513
 20
-4.684271955542903
 30
0.0
 10
4.674640009944899
 20
-4.691422393639691
 30
0.0
 10
4.696125232655402
 20
-4.700195349640125
 30
0.0
 10
4.713762697390645
 20
-4.682075537628406
 30
0.0
 10
4.766351266184048
 20
-4.68875125784325
 30
0.0
 10
4.78524334246443
 20
-4.725281646569379
 30
0.0
  0
HATCH
  5
A8
330
85
100
AcDbEntity
  8
Deck Box - G5
 62
   250
420
  2301728
440
 33554559
100
AcDbHatch
 10
0.0
 20
0.0
 30
0.0
210
0.0
220
0.0
230
1.0
  2
SOLID
 70
     1
 71
     1
 91
        1
 92
        1
 93
        1
 72
     4
 94
        3
 73
     0
 74
     0
 95
       29
 96
       25
 40
0.0
 40
0.0
 40
0.0
 40
0.0
 40
1.0
 40
1.0
 40
1.0
 40
2.0
 40
2.0
 40
2.0
 40
3.0
 40
3.0
 40
3.0
 40
4.0
 40
4.0
 40
4.0
 40
5.0
 40
5.0
 40
5.0
 40
6.0
 40
6.0
 40
6.0
 40
7.0
 40
7.0
 40
7.0
 40
8.0
 40
8.0
 40
8.0
 40
8.0
 10
4.78524334246443
 20
-4.725281646569379
 10
4.791171382015211
 20
-4.739904652754274
 10
4.792107254411044
 20
-4.752475351810264
 10
4.790047317887607
 20
-4.763860951582399
 10
4.800459746001757
 20
-4.775847578101497
 10
4.809473451785176
 20
-4.788865868303319
 10
4.816827340402798
 20
-4.803066714657486
 10
4.826622635270419
 20
-4.822031694041166
 10
4.833069473649326
 20
-4.841451893965212
 10
4.836478117583788
 20
-4.861181508223024
 10
4.851364761735263
 20
-4.847585927168337
 10
4.865697850927972
 20
-4.833460527048979
 10
4.870752748660176
 20
-4.815533993032052
 10
4.901243200049066
 20
-4.743217505401844
 10
4.818015830528666
 20
-4.646093617598024
 10
4.736239741390211
 20
-4.633707719431791
 10
4.671812047705316
 20
-4.636218637943076
 10
4.640640884782138
 20
-4.654708051734309
 10
4.630333572770419
 20
-4.678879669030316
 10
4.652695328141513
 20
-4.684271955542903
 10
4.674640009944899
 20
-4.691422393639691
 10
4.696125232655402
 20
-4.700195349640125
 10
4.713762697390645
 20
-4.682075537628406
 10
4.766351266184048
 20
-4.68875125784325
 10
4.78524334246443
 20
-4.725281646569379
 97
        0
 97
        1
330
A7
 75
     2
 76
     1
 98
        1
 10
0.0
 20
0.0
450
        0
451
        0
460
0.0
461
0.0
452
        0
462
0.0
453
        0
470

  0
SPLINE
  5
A9
330
85
100
AcDbEntity
  8
Deck Box - G5
100
AcDbSpline
210
0.0
220
0.0
230
1.0
 70
     9
 71
     3
 72
    14
 73
    10
 74
     0
 42
0.0000000001
 43
0.0000000001
 40
0.0
 40
0.0
 40
0.0
 40
0.0
 40
1.0
 40
1.0
 40
1.0
 40
2.0
 40
2.0
 40
2.0
 40
3.0
 40
3.0
 40
3.0
 40
3.0
 10
4.989044815446201
 20
-4.916753170278146
 30
0.0
 10
4.995497587798632
 20
-4.904115502092381
 30
0.0
 10
5.001808792496982
 20
-4.892306894779014
 30
0.0
 10
5.007957236778666
 20
-4.881408728546375
 30
0.0
 10
4.981373035389777
 20
-4.869402604685697
 30
0.0
 10
4.949182924441426
 20
-4.848691341664864
 30
0.0
 10
4.910647700374586
 20
-4.816352033667903
 30
0.0
 10
4.925415665055576
 20
-4.858590904924413
 30
0.0
 10
4.954768488948805
 20
-4.892688364505576
 30
0.0
 10
4.989044815446201
 20
-4.916753170278146
 30
0.0
  0
HATCH
  5
AA
330
85
100
AcDbEntity
  8
Deck Box - G5
 62
   250
420
  2301728
440
 33554559
100
AcDbHatch
 10
0.0
 20
0.0
 30
0.0
210
0.0
220
0.0
230
1.0
  2
SOLID
 70
     1
 71
     1
 91
        1
 92
        1
 93
        1
 72
     4
 94
        3
 73
     0
 74
     0
 95
       14
 96
       10
 40
0.0
 40
0.0
 40
0.0
 40
0.0
 40
1.0
 40
1.0
 40
1.0
 40
2.0
 40
2.0
 40
2.0
 40
3.0
 40
3.0
 40
3.0
 40
3.0
 10
4.989044815446201
 20
-4.916753170278146
 10
4.995497587798632
 20
-4.904115502092381
 10
5.001808792496982
 20
-4.892306894779014
 10
5.007957236778666
 20
-4.881408728546375
 10
4.981373035389777
 20
-4.869402604685697
 10
4.949182924441426
 20
-4.848691341664864
 10
4.910647700374586
 20
-4.816352033667903
 10
4.925415665055576
 20
-4.858590904924413
 10
4.954768488948805
 20
-4.892688364505576
 10
4.989044815446201
 20
-4.916753170278146
 97
        0
 97
        1
330
A9
 75
     2
 76
     1
 98
        1
 10
0.0
 20
0.0
450
        0
451
        0
460
0.0
461
0.0
452
        0
462
0.0
453
        0
470

  0
SPLINE
  5
AB
330
85
100
AcDbEntity
  8
Deck Box - G5
100
AcDbSpline
210
0.0
220
0.0
230
1.0
 70
     9
 71
     3
 72
    17
 73
    13
 74
     0
 42
0.0000000001
 43
0.0000000001
 40
0.0
 40
0.0
 40
0.0
 40
0.0
 40
1.0
 40
1.0
 40
1.0
 40
2.0
 40
2.0
 40
2.0
 40
3.0
 40
3.0
 40
3.0
 40
4.0
 40
4.0
 40
4.0
 40
4.0
 10
4.770068476741774
 20
-4.720505645592816
 30
0.0
 10
4.752179241987
 20
-4.694237640221722
 30
0.0
 10
4.720575746707051
 20
-4.693077124542469
 30
0.0
 10
4.706364727826843
 20
-4.704351674238649
 30
0.0
 10
4.708531475873718
 20
-4.705297719160524
 30
0.0
 10
4.710762649918857
 20
-4.706030141035524
 30
0.0
 10
4.712918377729187
 20
-4.707010942088041
 30
0.0
 10
4.736010859554274
 20
-4.717780256324153
 30
0.0
 10
4.756037172488301
 20
-4.730971479468684
 30
0.0
 10
4.773062590240038
 20
-4.746416764841947
 30
0.0
 10
4.77260906512068
 20
-4.738569508711305
 30
0.0
 10
4.771675735856357
 20
-4.730014414310264
 30
0.0
 10
4.770068476741774
 20
-4.720505645592816
 30
0.0
  0
HATCH
  5
AC
330
85
100
AcDbEntity
  8
Deck Box - G5
 62
   250
420
  2301728
440
 33554559
100
AcDbHatch
 10
0.0
 20
0.0
 30
0.0
210
0.0
220
0.0
230
1.0
  2
SOLID
 70
     1
 71
     1
 91
        1
 92
        1
 93
        1
 72
     4
 94
        3
 73
     0
 74
     0
 95
       17
 96
       13
 40
0.0
 40
0.0
 40
0.0
 40
0.0
 40
1.0
 40
1.0
 40
1.0
 40
2.0
 40
2.0
 40
2.0
 40
3.0
 40
3.0
 40
3.0
 40
4.0
 40
4.0
 40
4.0
 40
4.0
 10
4.770068476741774
 20
-4.720505645592816
 10
4.752179241987
 20
-4.694237640221722
 10
4.720575746707051
 20
-4.693077124542469
 10
4.706364727826843
 20
-4.704351674238649
 10
4.708531475873718
 20
-4.705297719160524
 10
4.710762649918857
 20
-4.706030141035524
 10
4.712918377729187
 20
-4.707010942088041
 10
4.736010859554274
 20
-4.717780256324153
 10
4.756037172488301
 20
-4.730971479468684
 10
4.773062590240038
 20
-4.746416764841947
 10
4.77260906512068
 20
-4.738569508711305
 10
4.771675735856357
 20
-4.730014414310264
 10
4.770068476741774
 20
-4.720505645592816
 97
        0
 97
        1
330
AB
 75
     2
 76
     1
 98
        1
 10
0.0
 20
0.0
450
        0
451
        0
460
0.0
461
0.0
452
        0
462
0.0
453
        0
470

  0
SPLINE
  5
AD
330
85
100
AcDbEntity
  8
Deck Box - G5
100
AcDbSpline
210
0.0
220
0.0
230
1.0
 70
     9
 71
     3
 72
    23
 73
    19
 74
     0
 42
0.0000000001
 43
0.0000000001
 40
0.0
 40
0.0
 40
0.0
 40
0.0
 40
1.0
 40
1.0
 40
1.0
 40
2.0
 40
2.0
 40
2.0
 40
3.0
 40
3.0
 40
3.0
 40
4.0
 40
4.0
 40
4.0
 40
5.0
 40
5.0
 40
5.0
 40
6.0
 40
6.0
 40
6.0
 40
6.0
 10
3.871263918093783
 20
-4.919779496775541
 30
0.0
 10
3.868562264719217
 20
-4.924977657582833
 30
0.0
 10
3.865465578250033
 20
-4.929880815134916
 30
0.0
 10
3.862000985422342
 20
-4.934502532799847
 30
0.0
 10
3.865761429215745
 20
-4.938319773196982
 30
0.0
 10
3.871328344092047
 20
-4.940478044138822
 30
0.0
 10
3.878878901546474
 20
-4.940221187856271
 30
0.0
 10
3.887897693592915
 20
-4.912351009633614
 30
0.0
 10
3.897963408111144
 20
-4.885727813561566
 30
0.0
 10
3.909076892811665
 20
-4.86048723332068
 30
0.0
 10
3.900181018788227
 20
-4.859856536706097
 30
0.0
 10
3.892054018191439
 20
-4.862086015330229
 30
0.0
 10
3.884962919829894
 20
-4.866216060903146
 30
0.0
 10
3.884483963395432
 20
-4.881326500627538
 30
0.0
 10
3.880983766726595
 20
-4.898235782040298
 30
0.0
 10
3.872694853423644
 20
-4.916809119171375
 30
0.0
 10
3.872694853423644
 20
-4.916809119171375
 30
0.0
 10
3.871263918093783
 20
-4.919779496775541
 30
0.0
 10
3.871263918093783
 20
-4.919779496775541
 30
0.0
  0
HATCH
  5
AE
330
85
100
AcDbEntity
  8
Deck Box - G5
 62
   250
420
  2301728
440
 33554559
100
AcDbHatch
 10
0.0
 20
0.0
 30
0.0
210
0.0
220
0.0
230
1.0
  2
SOLID
 70
     1
 71
     1
 91
        1
 92
        1
 93
        1
 72
     4
 94
        3
 73
     0
 74
     0
 95
       23
 96
       19
 40
0.0
 40
0.0
 40
0.0
 40
0.0
 40
1.0
 40
1.0
 40
1.0
 40
2.0
 40
2.0
 40
2.0
 40
3.0
 40
3.0
 40
3.0
 40
4.0
 40
4.0
 40
4.0
 40
5.0
 40
5.0
 40
5.0
 40
6.0
 40
6.0
 40
6.0
 40
6.0
 10
3.871263918093783
 20
-4.919779496775541
 10
3.868562264719217
 20
-4.924977657582833
 10
3.865465578250033
 20
-4.929880815134916
 10
3.862000985422342
 20
-4.934502532799847
 10
3.865761429215745
 20
-4.938319773196982
 10
3.871328344092047
 20
-4.940478044138822
 10
3.878878901546474
 20
-4.940221187856271
 10
3.887897693592915
 20
-4.912351009633614
 10
3.897963408111144
 20
-4.885727813561566
 10
3.909076892811665
 20
-4.86048723332068
 10
3.900181018788227
 20
-4.859856536706097
 10
3.892054018191439
 20
-4.862086015330229
 10
3.884962919829894
 20
-4.866216060903146
 10
3.884483963395432
 20
-4.881326500627538
 10
3.880983766726595
 20
-4.898235782040298
 10
3.872694853423644
 20
-4.916809119171375
 10
3.872694853423644
 20
-4.916809119171375
 10
3.871263918093783
 20
-4.919779496775541
 10
3.871263918093783
 20
-4.919779496775541
 97
        0
 97
        1
330
AD
 75
     2
 76
     1
 98
        1
 10
0.0
 20
0.0
450
        0
451
        0
460
0.0
461
0.0
452
        0
462
0.0
453
        0
470

  0
SPLINE
  5
AF
330
85
100
AcDbEntity
  8
Deck Box - G5
100
AcDbSpline
210
0.0
220
0.0
230
1.0
 70
     9
 71
     3
 72
    14
 73
    10
 74
     0
 42
0.0000000001
 43
0.0000000001
 40
0.0
 40
0.0
 40
0.0
 40
0.0
 40
1.0
 40
1.0
 40
1.0
 40
2.0
 40
2.0
 40
2.0
 40
3.0
 40
3.0
 40
3.0
 40
3.0
 10
4.769498815283441
 20
-5.233541737715212
 30
0.0
 10
4.76860278528127
 20
-5.235952626387087
 30
0.0
 10
4.767734729725715
 20
-5.238474565134916
 30
0.0
 10
4.766778512277798
 20
-5.240648094865819
 30
0.0
 10
4.759825590728319
 20
-5.256412119388389
 30
0.0
 10
4.749635262766079
 20
-5.270212846384916
 30
0.0
 10
4.736717002403666
 20
-5.282008738040732
 30
0.0
 10
4.766043547271288
 20
-5.280535417185697
 30
0.0
 10
4.790896723812086
 20
-5.253922393639691
 30
0.0
 10
4.769498815283441
 20
-5.233541737715212
 30
0.0
  0
HATCH
  5
B0
330
85
100
AcDbEntity
  8
Deck Box - G5
 62
   250
420
  2301728
440
 33554559
100
AcDbHatch
 10
0.0
 20
0.0
 30
0.0
210
0.0
220
0.0
230
1.0
  2
SOLID
 70
     1
 71
     1
 91
        1
 92
        1
 93
        1
 72
     4
 94
        3
 73
     0
 74
     0
 95
       14
 96
       10
 40
0.0
 40
0.0
 40
0.0
 40
0.0
 40
1.0
 40
1.0
 40
1.0
 40
2.0
 40
2.0
 40
2.0
 40
3.0
 40
3.0
 40
3.0
 40
3.0
 10
4.769498815283441
 20
-5.233541737715212
 10
4.76860278528127
 20
-5.235952626387087
 10
4.767734729725715
 20
-5.238474565134916
 10
4.766778512277798
 20
-5.240648094865819
 10
4.759825590728319
 20
-5.256412119388389
 10
4.749635262766079
 20
-5.270212846384916
 10
4.736717002403666
 20
-5.282008738040732
 10
4.766043547271288
 20
-5.280535417185697
 10
4.790896723812086
 20
-5.253922393639691
 10
4.769498815283441
 20
-5.233541737715212
 97
        0
 97
        1
330
AF
 75
     2
 76
     1
 98
        1
 10
0.0
 20
0.0
450
        0
451
        0
460
0.0
461
0.0
452
        0
462
0.0
453
        0
470

  0
SPLINE
  5
B1
330
85
100
AcDbEntity
  8
Deck Box - G5
100
AcDbSpline
210
0.0
220
0.0
230
1.0
 70
     9
 71
     3
 72
    20
 73
    16
 74
     0
 42
0.0000000001
 43
0.0000000001
 40
0.0
 40
0.0
 40
0.0
 40
0.0
 40
1.0
 40
1.0
 40
1.0
 40
2.0
 40
2.0
 40
2.0
 40
3.0
 40
3.0
 40
3.0
 40
4.0
 40
4.0
 40
4.0
 40
5.0
 40
5.0
 40
5.0
 40
5.0
 10
3.860935413319477
 20
-4.991672129154014
 30
0.0
 10
3.861199051286057
 20
-4.994399213843684
 30
0.0
 10
3.861316035335537
 20
-4.997005923641861
 30
0.0
 10
3.861444039621561
 20
-4.999621958255576
 30
0.0
 10
3.86567241961288
 20
-4.983184003882747
 30
0.0
 10
3.87030854835637
 20
-4.967169057051149
 30
0.0
 10
3.875187122303852
 20
-4.951427920712173
 30
0.0
 10
3.868988663102463
 20
-4.94843380721391
 30
0.0
 10
3.863164044233106
 20
-4.94412489472476
 30
0.0
 10
3.858126948421474
 20
-4.938888586944813
 30
0.0
 10
3.855583816911057
 20
-4.941914065731705
 30
0.0
 10
3.85311613163545
 20
-4.944998036543337
 30
0.0
 10
3.850220352555588
 20
-4.947747161706097
 30
0.0
 10
3.855706734934061
 20
-4.959879594431791
 30
0.0
 10
3.859233210628505
 20
-4.974365271515125
 30
0.0
 10
3.860935413319477
 20
-4.991672129154014
 30
0.0
  0
HATCH
  5
B2
330
85
100
AcDbEntity
  8
Deck Box - G5
 62
   250
420
  2301728
440
 33554559
100
AcDbHatch
 10
0.0
 20
0.0
 30
0.0
210
0.0
220
0.0
230
1.0
  2
SOLID
 70
     1
 71
     1
 91
        1
 92
        1
 93
        1
 72
     4
 94
        3
 73
     0
 74
     0
 95
       20
 96
       16
 40
0.0
 40
0.0
 40
0.0
 40
0.0
 40
1.0
 40
1.0
 40
1.0
 40
2.0
 40
2.0
 40
2.0
 40
3.0
 40
3.0
 40
3.0
 40
4.0
 40
4.0
 40
4.0
 40
5.0
 40
5.0
 40
5.0
 40
5.0
 10
3.860935413319477
 20
-4.991672129154014
 10
3.861199051286057
 20
-4.994399213843684
 10
3.861316035335537
 20
-4.997005923641861
 10
3.861444039621561
 20
-4.999621958255576
 10
3.86567241961288
 20
-4.983184003882747
 10
3.87030854835637
 20
-4.967169057051149
 10
3.875187122303852
 20
-4.951427920712173
 10
3.868988663102463
 20
-4.94843380721391
 10
3.863164044233106
 20
-4.94412489472476
 10
3.858126948421474
 20
-4.938888586944813
 10
3.855583816911057
 20
-4.941914065731705
 10
3.85311613163545
 20
-4.944998036543337
 10
3.850220352555588
 20
-4.947747161706097
 10
3.855706734934061
 20
-4.959879594431791
 10
3.859233210628505
 20
-4.974365271515125
 10
3.860935413319477
 20
-4.991672129154014
 97
        0
 97
        1
330
B1
 75
     2
 76
     1
 98
        1
 10
0.0
 20
0.0
450
        0
451
        0
460
0.0
461
0.0
452
        0
462
0.0
453
        0
470

  0
SPLINE
  5
B3
330
85
100
AcDbEntity
  8
Deck Box - G5
100
AcDbSpline
210
0.0
220
0.0
230
1.0
 70
     9
 71
     3
 72
    41
 73
    37
 74
     0
 42
0.0000000001
 43
0.0000000001
 40
0.0
 40
0.0
 40
0.0
 40
0.0
 40
1.0
 40
1.0
 40
1.0
 40
2.0
 40
2.0
 40
2.0
 40
3.0
 40
3.0
 40
3.0
 40
4.0
 40
4.0
 40
4.0
 40
5.0
 40
5.0
 40
5.0
 40
6.0
 40
6.0
 40
6.0
 40
7.0
 40
7.0
 40
7.0
 40
8.0
 40
8.0
 40
8.0
 40
9.0
 40
9.0
 40
9.0
 40
10.0
 40
10.0
 40
10.0
 40
11.0
 40
11.0
 40
11.0
 40
12.0
 40
12.0
 40
12.0
 40
12.0
 10
5.166591846424934
 20
-4.792964548587607
 30
0.0
 10
4.977208233686218
 20
-4.538885365644899
 30
0.0
 10
4.915327910064257
 20
-4.817807552602364
 30
0.0
 10
5.019759062408007
 20
-4.861228132300715
 30
0.0
 10
5.024492677859395
 20
-4.853459713246896
 30
0.0
 10
5.029121177208353
 20
-4.846237219757313
 30
0.0
 10
5.033624215402798
 20
-4.839640336619291
 30
0.0
 10
5.033624215402798
 20
-4.839640336619291
 30
0.0
 10
5.03746264856252
 20
-4.834018320560264
 30
0.0
 10
5.03746264856252
 20
-4.834018320560264
 30
0.0
 10
5.03746264856252
 20
-4.834018320560264
 30
0.0
 10
5.04210132043752
 20
-4.829210106584569
 30
0.0
 10
5.04210132043752
 20
-4.829210106584569
 30
0.0
 10
5.055328995133701
 20
-4.809996748023372
 30
0.0
 10
5.07569269684811
 20
-4.801459455542903
 30
0.0
 10
5.095023039458788
 20
-4.797353993574587
 30
0.0
 10
5.074390613514777
 20
-4.770291683461739
 30
0.0
 10
5.03939373308943
 20
-4.757452260176149
 30
0.0
 10
5.040650040055576
 20
-4.801744286272069
 30
0.0
 10
5.050521628868509
 20
-4.82288703393917
 30
0.0
 10
5.020163420318163
 20
-4.79625366534108
 30
0.0
 10
5.030510574723544
 20
-4.78761125675818
 30
0.0
 10
5.063942581559482
 20
-4.755913665612347
 30
0.0
 10
5.091612700103319
 20
-4.769179487281184
 30
0.0
 10
5.105553299332919
 20
-4.795476314809396
 30
0.0
 10
5.110628542117208
 20
-4.794760847144465
 30
0.0
 10
5.115576628325976
 20
-4.794213226159222
 30
0.0
 10
5.12010425012502
 20
-4.793884314483875
 30
0.0
 10
5.12010425012502
 20
-4.793884314483875
 30
0.0
 10
5.123169571305576
 20
-4.793748680803319
 30
0.0
 10
5.123169571305576
 20
-4.793748680803319
 30
0.0
 10
5.127883689415384
 20
-4.793702056725629
 30
0.0
 10
5.139120939849413
 20
-4.793495215362781
 30
0.0
 10
5.168944243072069
 20
-4.79859249862016
 30
0.0
 10
5.168111791357659
 20
-4.796684302276844
 30
0.0
 10
5.167480247032572
 20
-4.79491089190358
 30
0.0
 10
5.166591846424934
 20
-4.792964548587607
 30
0.0
  0
HATCH
  5
B4
330
85
100
AcDbEntity
  8
Deck Box - G5
 62
   250
420
  2301728
440
 33554559
100
AcDbHatch
 10
0.0
 20
0.0
 30
0.0
210
0.0
220
0.0
230
1.0
  2
SOLID
 70
     1
 71
     1
 91
        1
 92
        1
 93
        1
 72
     4
 94
        3
 73
     0
 74
     0
 95
       41
 96
       37
 40
0.0
 40
0.0
 40
0.0
 40
0.0
 40
1.0
 40
1.0
 40
1.0
 40
2.0
 40
2.0
 40
2.0
 40
3.0
 40
3.0
 40
3.0
 40
4.0
 40
4.0
 40
4.0
 40
5.0
 40
5.0
 40
5.0
 40
6.0
 40
6.0
 40
6.0
 40
7.0
 40
7.0
 40
7.0
 40
8.0
 40
8.0
 40
8.0
 40
9.0
 40
9.0
 40
9.0
 40
10.0
 40
10.0
 40
10.0
 40
11.0
 40
11.0
 40
11.0
 40
12.0
 40
12.0
 40
12.0
 40
12.0
 10
5.166591846424934
 20
-4.792964548587607
 10
4.977208233686218
 20
-4.538885365644899
 10
4.915327910064257
 20
-4.817807552602364
 10
5.019759062408007
 20
-4.861228132300715
 10
5.024492677859395
 20
-4.853459713246896
 10
5.029121177208353
 20
-4.846237219757313
 10
5.033624215402798
 20
-4.839640336619291
 10
5.033624215402798
 20
-4.839640336619291
 10
5.03746264856252
 20
-4.834018320560264
 10
5.03746264856252
 20
-4.834018320560264
 10
5.03746264856252
 20
-4.834018320560264
 10
5.04210132043752
 20
-4.829210106584569
 10
5.04210132043752
 20
-4.829210106584569
 10
5.055328995133701
 20
-4.809996748023372
 10
5.07569269684811
 20
-4.801459455542903
 10
5.095023039458788
 20
-4.797353993574587
 10
5.074390613514777
 20
-4.770291683461739
 10
5.03939373308943
 20
-4.757452260176149
 10
5.040650040055576
 20
-4.801744286272069
 10
5.050521628868509
 20
-4.82288703393917
 10
5.020163420318163
 20
-4.79625366534108
 10
5.030510574723544
 20
-4.78761125675818
 10
5.063942581559482
 20
-4.755913665612347
 10
5.091612700103319
 20
-4.769179487281184
 10
5.105553299332919
 20
-4.795476314809396
 10
5.110628542117208
 20
-4.794760847144465
 10
5.115576628325976
 20
-4.794213226159222
 10
5.12010425012502
 20
-4.793884314483875
 10
5.12010425012502
 20
-4.793884314483875
 10
5.123169571305576
 20
-4.793748680803319
 10
5.123169571305576
 20
-4.793748680803319
 10
5.127883689415384
 20
-4.793702056725629
 10
5.139120939849413
 20
-4.793495215362781
 10
5.168944243072069
 20
-4.79859249862016
 10
5.168111791357659
 20
-4.796684302276844
 10
5.167480247032572
 20
-4.79491089190358
 10
5.166591846424934
 20
-4.792964548587607
 97
        0
 97
        1
330
B3
 75
     2
 76
     1
 98
        1
 10
0.0
 20
0.0
450
        0
451
        0
460
0.0
461
0.0
452
        0
462
0.0
453
        0
470

  0
SPLINE
  5
B5
330
85
100
AcDbEntity
  8
Deck Box - G5
100
AcDbSpline
210
0.0
220
0.0
230
1.0
 70
     9
 71
     3
 72
    11
 73
     7
 74
     0
 42
0.0000000001
 43
0.0000000001
 40
0.0
 40
0.0
 40
0.0
 40
0.0
 40
1.0
 40
1.0
 40
1.0
 40
2.0
 40
2.0
 40
2.0
 40
2.0
 10
4.867292394385003
 20
-4.699133168379274
 30
0.0
 10
4.907982498551669
 20
-4.742424048370594
 30
0.0
 10
4.892639786149326
 20
-4.692644792185697
 30
0.0
 10
4.892189651871982
 20
-4.777450598663563
 30
0.0
 10
4.947538366064691
 20
-4.835497575388822
 30
0.0
 10
5.054626243126322
 20
-4.576020171960004
 30
0.0
 10
4.867292394385003
 20
-4.699133168379274
 30
0.0
  0
HATCH
  5
B6
330
85
100
AcDbEntity
  8
Deck Box - G5
 62
   250
420
  2301728
440
 33554559
100
AcDbHatch
 10
0.0
 20
0.0
 30
0.0
210
0.0
220
0.0
230
1.0
  2
SOLID
 70
     1
 71
     1
 91
        1
 92
        1
 93
        1
 72
     4
 94
        3
 73
     0
 74
     0
 95
       11
 96
        7
 40
0.0
 40
0.0
 40
0.0
 40
0.0
 40
1.0
 40
1.0
 40
1.0
 40
2.0
 40
2.0
 40
2.0
 40
2.0
 10
4.867292394385003
 20
-4.699133168379274
 10
4.907982498551669
 20
-4.742424048370594
 10
4.892639786149326
 20
-4.692644792185697
 10
4.892189651871982
 20
-4.777450598663563
 10
4.947538366064691
 20
-4.835497575388822
 10
5.054626243126322
 20
-4.576020171960004
 10
4.867292394385003
 20
-4.699133168379274
 97
        0
 97
        1
330
B5
 75
     2
 76
     1
 98
        1
 10
0.0
 20
0.0
450
        0
451
        0
460
0.0
461
0.0
452
        0
462
0.0
453
        0
470

  0
SPLINE
  5
B7
330
85
100
AcDbEntity
  8
Deck Box - G5
100
AcDbSpline
210
0.0
220
0.0
230
1.0
 70
     9
 71
     3
 72
    35
 73
    31
 74
     0
 42
0.0000000001
 43
0.0000000001
 40
0.0
 40
0.0
 40
0.0
 40
0.0
 40
1.0
 40
1.0
 40
1.0
 40
2.0
 40
2.0
 40
2.0
 40
3.0
 40
3.0
 40
3.0
 40
4.0
 40
4.0
 40
4.0
 40
5.0
 40
5.0
 40
5.0
 40
6.0
 40
6.0
 40
6.0
 40
7.0
 40
7.0
 40
7.0
 40
8.0
 40
8.0
 40
8.0
 40
9.0
 40
9.0
 40
9.0
 40
10.0
 40
10.0
 40
10.0
 40
10.0
 10
4.838268482167121
 20
-4.874465979522938
 30
0.0
 10
4.840179221641947
 20
-4.893679338084135
 30
0.0
 10
4.839273866824239
 20
-4.91315803003292
 30
0.0
 10
4.835178577381965
 20
-4.932834238529014
 30
0.0
 10
4.833215279855923
 20
-4.942305707984309
 30
0.0
 10
4.830583986453145
 20
-4.95152964597259
 30
0.0
 10
4.827305042225715
 20
-4.960495879967816
 30
0.0
 10
4.861730565771722
 20
-4.988160912248631
 30
0.0
 10
4.914114836333788
 20
-4.993272606584569
 30
0.0
 10
4.869823657948371
 20
-4.929978301842816
 30
0.0
 10
4.853098329714864
 20
-4.925087859948285
 30
0.0
 10
4.871871726524759
 20
-4.922568464331965
 30
0.0
 10
4.880410714426235
 20
-4.922363318390125
 30
0.0
 10
4.933666431385871
 20
-4.967214833418337
 30
0.0
 10
4.865449471750454
 20
-5.017741770267295
 30
0.0
 10
4.821199831179708
 20
-4.975185007571982
 30
0.0
 10
4.814608882015211
 20
-4.989462147871462
 30
0.0
 10
4.806186878163215
 20
-5.002974653296809
 30
0.0
 10
4.796110143408441
 20
-5.015725066979535
 30
0.0
 10
4.850500097021722
 20
-5.049680111196114
 30
0.0
 10
4.919629193158875
 20
-5.052343617598024
 30
0.0
 10
4.946738127349413
 20
-5.009007808950021
 30
0.0
 10
4.949009991498718
 20
-5.002986521243857
 30
0.0
 10
4.95199138933943
 20
-4.995615678416166
 30
0.0
 10
4.955929004628059
 20
-4.986529917239951
 30
0.0
 10
4.958513673953145
 20
-4.975328270647069
 30
0.0
 10
4.959202014881965
 20
-4.962321000681791
 30
0.0
 10
4.957504050743509
 20
-4.947338565243423
 30
0.0
 10
4.93467944543752
 20
-4.887226565731705
 30
0.0
 10
4.88218921106252
 20
-4.855450137509048
 30
0.0
 10
4.838268482167121
 20
-4.874465979522938
 30
0.0
  0
HATCH
  5
B8
330
85
100
AcDbEntity
  8
Deck Box - G5
 62
   250
420
  2301728
440
 33554559
100
AcDbHatch
 10
0.0
 20
0.0
 30
0.0
210
0.0
220
0.0
230
1.0
  2
SOLID
 70
     1
 71
     1
 91
        1
 92
        1
 93
        1
 72
     4
 94
        3
 73
     0
 74
     0
 95
       35
 96
       31
 40
0.0
 40
0.0
 40
0.0
 40
0.0
 40
1.0
 40
1.0
 40
1.0
 40
2.0
 40
2.0
 40
2.0
 40
3.0
 40
3.0
 40
3.0
 40
4.0
 40
4.0
 40
4.0
 40
5.0
 40
5.0
 40
5.0
 40
6.0
 40
6.0
 40
6.0
 40
7.0
 40
7.0
 40
7.0
 40
8.0
 40
8.0
 40
8.0
 40
9.0
 40
9.0
 40
9.0
 40
10.0
 40
10.0
 40
10.0
 40
10.0
 10
4.838268482167121
 20
-4.874465979522938
 10
4.840179221641947
 20
-4.893679338084135
 10
4.839273866824239
 20
-4.91315803003292
 10
4.835178577381965
 20
-4.932834238529014
 10
4.833215279855923
 20
-4.942305707984309
 10
4.830583986453145
 20
-4.95152964597259
 10
4.827305042225715
 20
-4.960495879967816
 10
4.861730565771722
 20
-4.988160912248631
 10
4.914114836333788
 20
-4.993272606584569
 10
4.869823657948371
 20
-4.929978301842816
 10
4.853098329714864
 20
-4.925087859948285
 10
4.871871726524759
 20
-4.922568464331965
 10
4.880410714426235
 20
-4.922363318390125
 10
4.933666431385871
 20
-4.967214833418337
 10
4.865449471750454
 20
-5.017741770267295
 10
4.821199831179708
 20
-4.975185007571982
 10
4.814608882015211
 20
-4.989462147871462
 10
4.806186878163215
 20
-5.002974653296809
 10
4.796110143408441
 20
-5.015725066979535
 10
4.850500097021722
 20
-5.049680111196114
 10
4.919629193158875
 20
-5.052343617598024
 10
4.946738127349413
 20
-5.009007808950021
 10
4.949009991498718
 20
-5.002986521243857
 10
4.95199138933943
 20
-4.995615678416166
 10
4.955929004628059
 20
-4.986529917239951
 10
4.958513673953145
 20
-4.975328270647069
 10
4.959202014881965
 20
-4.962321000681791
 10
4.957504050743509
 20
-4.947338565243423
 10
4.93467944543752
 20
-4.887226565731705
 10
4.88218921106252
 20
-4.855450137509048
 10
4.838268482167121
 20
-4.874465979522938
 97
        0
 97
        1
330
B7
 75
     2
 76
     1
 98
        1
 10
0.0
 20
0.0
450
        0
451
        0
460
0.0
461
0.0
452
        0
462
0.0
453
        0
470

  0
SPLINE
  5
B9
330
85
100
AcDbEntity
  8
Deck Box - G5
100
AcDbSpline
210
0.0
220
0.0
230
1.0
 70
     9
 71
     3
 72
    29
 73
    25
 74
     0
 42
0.0000000001
 43
0.0000000001
 40
0.0
 40
0.0
 40
0.0
 40
0.0
 40
1.0
 40
1.0
 40
1.0
 40
2.0
 40
2.0
 40
2.0
 40
3.0
 40
3.0
 40
3.0
 40
4.0
 40
4.0
 40
4.0
 40
5.0
 40
5.0
 40
5.0
 40
6.0
 40
6.0
 40
6.0
 40
7.0
 40
7.0
 40
7.0
 40
8.0
 40
8.0
 40
8.0
 40
8.0
 10
3.919285022694477
 20
-4.837680429935264
 30
0.0
 10
3.9288607605417
 20
-4.817832136206965
 30
0.0
 10
3.937648975331196
 20
-4.801455216990385
 30
0.0
 10
3.945712397640224
 20
-4.787810468726497
 30
0.0
 10
3.941249201839443
 20
-4.786338843292469
 30
0.0
 10
3.93667834680472
 20
-4.785146114614083
 30
0.0
 10
3.931979487483974
 20
-4.784291622426583
 30
0.0
 10
3.902334203467047
 20
-4.778555165449587
 30
0.0
 10
3.877048694569477
 20
-4.781247494008614
 30
0.0
 10
3.856173823421474
 20
-4.789499955759916
 30
0.0
 10
3.860531903119825
 20
-4.794079287899673
 30
0.0
 10
3.864678902902811
 20
-4.798945993900107
 30
0.0
 10
3.868334230593783
 20
-4.804423051463041
 30
0.0
 10
3.868334230593783
 20
-4.804423051463041
 30
0.0
 10
3.870300918961838
 20
-4.807596879588041
 30
0.0
 10
3.870300918961838
 20
-4.807596879588041
 30
0.0
 10
3.877198739328592
 20
-4.81961063284325
 30
0.0
 10
3.883385330582932
 20
-4.835770538170941
 30
0.0
 10
3.88467385054821
 20
-4.855400970299847
 30
0.0
 10
3.892715232384148
 20
-4.854873694366688
 30
0.0
 10
3.901098241552984
 20
-4.856143564700889
 30
0.0
 10
3.909783035661057
 20
-4.858911339494725
 30
0.0
 10
3.912931432470953
 20
-4.851806677765125
 30
0.0
 10
3.915969626915398
 20
-4.844552818986913
 30
0.0
 10
3.919285022694477
 20
-4.837680429935264
 30
0.0
  0
HATCH
  5
BA
330
85
100
AcDbEntity
  8
Deck Box - G5
 62
   250
420
  2301728
440
 33554559
100
AcDbHatch
 10
0.0
 20
0.0
 30
0.0
210
0.0
220
0.0
230
1.0
  2
SOLID
 70
     1
 71
     1
 91
        1
 92
        1
 93
        1
 72
     4
 94
        3
 73
     0
 74
     0
 95
       29
 96
       25
 40
0.0
 40
0.0
 40
0.0
 40
0.0
 40
1.0
 40
1.0
 40
1.0
 40
2.0
 40
2.0
 40
2.0
 40
3.0
 40
3.0
 40
3.0
 40
4.0
 40
4.0
 40
4.0
 40
5.0
 40
5.0
 40
5.0
 40
6.0
 40
6.0
 40
6.0
 40
7.0
 40
7.0
 40
7.0
 40
8.0
 40
8.0
 40
8.0
 40
8.0
 10
3.919285022694477
 20
-4.837680429935264
 10
3.9288607605417
 20
-4.817832136206965
 10
3.937648975331196
 20
-4.801455216990385
 10
3.945712397640224
 20
-4.787810468726497
 10
3.941249201839443
 20
-4.786338843292469
 10
3.93667834680472
 20
-4.785146114614083
 10
3.931979487483974
 20
-4.784291622426583
 10
3.902334203467047
 20
-4.778555165449587
 10
3.877048694569477
 20
-4.781247494008614
 10
3.856173823421474
 20
-4.789499955759916
 10
3.860531903119825
 20
-4.794079287899673
 10
3.864678902902811
 20
-4.798945993900107
 10
3.868334230593783
 20
-4.804423051463041
 10
3.868334230593783
 20
-4.804423051463041
 10
3.870300918961838
 20
-4.807596879588041
 10
3.870300918961838
 20
-4.807596879588041
 10
3.877198739328592
 20
-4.81961063284325
 10
3.883385330582932
 20
-4.835770538170941
 10
3.88467385054821
 20
-4.855400970299847
 10
3.892715232384148
 20
-4.854873694366688
 10
3.901098241552984
 20
-4.856143564700889
 10
3.909783035661057
 20
-4.858911339494725
 10
3.912931432470953
 20
-4.851806677765125
 10
3.915969626915398
 20
-4.844552818986913
 10
3.919285022694477
 20
-4.837680429935264
 97
        0
 97
        1
330
B9
 75
     2
 76
     1
 98
        1
 10
0.0
 20
0.0
450
        0
451
        0
460
0.0
461
0.0
452
        0
462
0.0
453
        0
470

  0
SPLINE
  5
BB
330
85
100
AcDbEntity
  8
Deck Box - G5
100
AcDbSpline
210
0.0
220
0.0
230
1.0
 70
     9
 71
     3
 72
    17
 73
    13
 74
     0
 42
0.0000000001
 43
0.0000000001
 40
0.0
 40
0.0
 40
0.0
 40
0.0
 40
1.0
 40
1.0
 40
1.0
 40
2.0
 40
2.0
 40
2.0
 40
3.0
 40
3.0
 40
3.0
 40
4.0
 40
4.0
 40
4.0
 40
4.0
 10
3.168880664784321
 20
-5.360861921363215
 30
0.0
 10
3.204302248171908
 20
-5.43008680878726
 30
0.0
 10
3.244478639773471
 20
-5.402542999108441
 30
0.0
 10
3.259725560888922
 20
-5.368370941002972
 30
0.0
 10
3.258180184641092
 20
-5.367941999488215
 30
0.0
 10
3.256603443104634
 20
-5.36762580347042
 30
0.0
 10
3.255066543961838
 20
-5.367167192088041
 30
0.0
 10
3.222294903608106
 20
-5.357383765167469
 30
0.0
 10
3.194560359066005
 20
-5.343003204186566
 30
0.0
 10
3.172137568538662
 20
-5.324427323923979
 30
0.0
 10
3.170786317996127
 20
-5.335529788387955
 30
0.0
 10
3.169670730973557
 20
-5.347572363800281
 30
0.0
 10
3.168880664784321
 20
-5.360861921363215
 30
0.0
  0
HATCH
  5
BC
330
85
100
AcDbEntity
  8
Deck Box - G5
 62
   250
420
  2301728
440
 33554559
100
AcDbHatch
 10
0.0
 20
0.0
 30
0.0
210
0.0
220
0.0
230
1.0
  2
SOLID
 70
     1
 71
     1
 91
        1
 92
        1
 93
        1
 72
     4
 94
        3
 73
     0
 74
     0
 95
       17
 96
       13
 40
0.0
 40
0.0
 40
0.0
 40
0.0
 40
1.0
 40
1.0
 40
1.0
 40
2.0
 40
2.0
 40
2.0
 40
3.0
 40
3.0
 40
3.0
 40
4.0
 40
4.0
 40
4.0
 40
4.0
 10
3.168880664784321
 20
-5.360861921363215
 10
3.204302248171908
 20
-5.43008680878726
 10
3.244478639773471
 20
-5.402542999108441
 10
3.259725560888922
 20
-5.368370941002972
 10
3.258180184641092
 20
-5.367941999488215
 10
3.256603443104634
 20
-5.36762580347042
 10
3.255066543961838
 20
-5.367167192088041
 10
3.222294903608106
 20
-5.357383765167469
 10
3.194560359066005
 20
-5.343003204186566
 10
3.172137568538662
 20
-5.324427323923979
 10
3.170786317996127
 20
-5.335529788387955
 10
3.169670730973557
 20
-5.347572363800281
 10
3.168880664784321
 20
-5.360861921363215
 97
        0
 97
        1
330
BB
 75
     2
 76
     1
 98
        1
 10
0.0
 20
0.0
450
        0
451
        0
460
0.0
461
0.0
452
        0
462
0.0
453
        0
470

  0
SPLINE
  5
BD
330
85
100
AcDbEntity
  8
Deck Box - G5
100
AcDbSpline
210
0.0
220
0.0
230
1.0
 70
     9
 71
     3
 72
    14
 73
    10
 74
     0
 42
0.0000000001
 43
0.0000000001
 40
0.0
 40
0.0
 40
0.0
 40
0.0
 40
1.0
 40
1.0
 40
1.0
 40
2.0
 40
2.0
 40
2.0
 40
3.0
 40
3.0
 40
3.0
 40
3.0
 10
3.115775840294304
 20
-5.251305511315472
 30
0.0
 10
3.112727473323818
 20
-5.245123158613649
 30
0.0
 10
3.109843562191005
 20
-5.238821278730837
 30
0.0
 10
3.107273303944478
 20
-5.232306623511653
 30
0.0
 10
3.099619325808627
 20
-5.212929656823285
 30
0.0
 10
3.094883167225728
 20
-5.193216149065038
 30
0.0
 10
3.09255959273571
 20
-5.173427195071982
 30
0.0
 10
3.01038423195012
 20
-5.206260718292469
 30
0.0
 10
3.056514942128071
 20
-5.246504079023805
 30
0.0
 10
3.115775840294304
 20
-5.251305511315472
 30
0.0
  0
HATCH
  5
BE
330
85
100
AcDbEntity
  8
Deck Box - G5
 62
   250
420
  2301728
440
 33554559
100
AcDbHatch
 10
0.0
 20
0.0
 30
0.0
210
0.0
220
0.0
230
1.0
  2
SOLID
 70
     1
 71
     1
 91
        1
 92
        1
 93
        1
 72
     4
 94
        3
 73
     0
 74
     0
 95
       14
 96
       10
 40
0.0
 40
0.0
 40
0.0
 40
0.0
 40
1.0
 40
1.0
 40
1.0
 40
2.0
 40
2.0
 40
2.0
 40
3.0
 40
3.0
 40
3.0
 40
3.0
 10
3.115775840294304
 20
-5.251305511315472
 10
3.112727473323818
 20
-5.245123158613649
 10
3.109843562191005
 20
-5.238821278730837
 10
3.107273303944478
 20
-5.232306623511653
 10
3.099619325808627
 20
-5.212929656823285
 10
3.094883167225728
 20
-5.193216149065038
 10
3.09255959273571
 20
-5.173427195071982
 10
3.01038423195012
 20
-5.206260718292469
 10
3.056514942128071
 20
-5.246504079023805
 10
3.115775840294304
 20
-5.251305511315472
 97
        0
 97
        1
330
BD
 75
     2
 76
     1
 98
        1
 10
0.0
 20
0.0
450
        0
451
        0
460
0.0
461
0.0
452
        0
462
0.0
453
        0
470

  0
SPLINE
  5
BF
330
85
100
AcDbEntity
  8
Deck Box - G5
100
AcDbSpline
210
0.0
220
0.0
230
1.0
 70
     9
 71
     3
 72
    20
 73
    16
 74
     0
 42
0.0000000001
 43
0.0000000001
 40
0.0
 40
0.0
 40
0.0
 40
0.0
 40
1.0
 40
1.0
 40
1.0
 40
2.0
 40
2.0
 40
2.0
 40
3.0
 40
3.0
 40
3.0
 40
4.0
 40
4.0
 40
4.0
 40
5.0
 40
5.0
 40
5.0
 40
5.0
 10
3.971693876861144
 20
-5.268370771460872
 30
0.0
 10
3.968953228803418
 20
-5.268389421091947
 30
0.0
 10
3.966364320925814
 20
-5.268432654327625
 30
0.0
 10
3.963501602555588
 20
-5.268432654327625
 30
0.0
 10
3.963352405506977
 20
-5.268432654327625
 30
0.0
 10
3.963216771826422
 20
-5.268432654327625
 30
0.0
 10
3.963067574777811
 20
-5.268432654327625
 30
0.0
 10
3.9256869324167
 20
-5.268389421091947
 30
0.0
 10
3.899318897206196
 20
-5.258882347795506
 30
0.0
 10
3.880616708078592
 20
-5.245806413279447
 30
0.0
 10
3.873447620350727
 20
-5.252171871450021
 30
0.0
 10
3.864916261843783
 20
-5.25782610050818
 30
0.0
 10
3.855493111887186
 20
-5.263061560577625
 30
0.0
 10
3.911762439686665
 20
-5.332497527917035
 30
0.0
 10
3.95931730351045
 20
-5.306901756975194
 30
0.0
 10
3.971693876861144
 20
-5.268370771460872
 30
0.0
  0
HATCH
  5
C0
330
85
100
AcDbEntity
  8
Deck Box - G5
 62
   250
420
  2301728
440
 33554559
100
AcDbHatch
 10
0.0
 20
0.0
 30
0.0
210
0.0
220
0.0
230
1.0
  2
SOLID
 70
     1
 71
     1
 91
        1
 92
        1
 93
        1
 72
     4
 94
        3
 73
     0
 74
     0
 95
       20
 96
       16
 40
0.0
 40
0.0
 40
0.0
 40
0.0
 40
1.0
 40
1.0
 40
1.0
 40
2.0
 40
2.0
 40
2.0
 40
3.0
 40
3.0
 40
3.0
 40
4.0
 40
4.0
 40
4.0
 40
5.0
 40
5.0
 40
5.0
 40
5.0
 10
3.971693876861144
 20
-5.268370771460872
 10
3.968953228803418
 20
-5.268389421091947
 10
3.966364320925814
 20
-5.268432654327625
 10
3.963501602555588
 20
-5.268432654327625
 10
3.963352405506977
 20
-5.268432654327625
 10
3.963216771826422
 20
-5.268432654327625
 10
3.963067574777811
 20
-5.268432654327625
 10
3.9256869324167
 20
-5.268389421091947
 10
3.899318897206196
 20
-5.258882347795506
 10
3.880616708078592
 20
-5.245806413279447
 10
3.873447620350727
 20
-5.252171871450021
 10
3.864916261843783
 20
-5.25782610050818
 10
3.855493111887186
 20
-5.263061560577625
 10
3.911762439686665
 20
-5.332497527917035
 10
3.95931730351045
 20
-5.306901756975194
 10
3.971693876861144
 20
-5.268370771460872
 97
        0
 97
        1
330
BF
 75
     2
 76
     1
 98
        1
 10
0.0
 20
0.0
450
        0
451
        0
460
0.0
461
0.0
452
        0
462
0.0
453
        0
470

  0
SPLINE
  5
C1
330
85
100
AcDbEntity
  8
Deck Box - G5
100
AcDbSpline
210
0.0
220
0.0
230
1.0
 70
     9
 71
     3
 72
    23
 73
    19
 74
     0
 42
0.0000000001
 43
0.0000000001
 40
0.0
 40
0.0
 40
0.0
 40
0.0
 40
1.0
 40
1.0
 40
1.0
 40
2.0
 40
2.0
 40
2.0
 40
3.0
 40
3.0
 40
3.0
 40
4.0
 40
4.0
 40
4.0
 40
5.0
 40
5.0
 40
5.0
 40
6.0
 40
6.0
 40
6.0
 40
6.0
 10
4.349555747520854
 20
-5.253526512834569
 30
0.0
 10
4.348790264936218
 20
-5.253224727895333
 30
0.0
 10
4.348138375559048
 20
-5.252811045169639
 30
0.0
 10
4.347386456342468
 20
-5.25249654457285
 30
0.0
 10
4.402310467572937
 20
-5.307169633494291
 30
0.0
 10
4.495208518516947
 20
-5.315834930260785
 30
0.0
 10
4.53231365496443
 20
-5.265830183081965
 30
0.0
 10
4.529497560671895
 20
-5.26321669159976
 30
0.0
 10
4.526734024430576
 20
-5.260561662302885
 30
0.0
 10
4.524224801340298
 20
-5.25770403019568
 30
0.0
 10
4.482666641618076
 20
-5.283487992869291
 30
0.0
 10
4.429376168527798
 20
-5.273546044084569
 30
0.0
 10
4.408854792659743
 20
-5.269504160404014
 30
0.0
 10
4.39695971887502
 20
-5.267584943824153
 30
0.0
 10
4.387451797868076
 20
-5.265692853980403
 30
0.0
 10
4.379815621652798
 20
-5.263732947296375
 30
0.0
 10
4.37144702356252
 20
-5.261589935143597
 30
0.0
 10
4.361532201513909
 20
-5.258246564917903
 30
0.0
 10
4.349555747520854
 20
-5.253526512834569
 30
0.0
  0
HATCH
  5
C2
330
85
100
AcDbEntity
  8
Deck Box - G5
 62
   250
420
  2301728
440
 33554559
100
AcDbHatch
 10
0.0
 20
0.0
 30
0.0
210
0.0
220
0.0
230
1.0
  2
SOLID
 70
     1
 71
     1
 91
        1
 92
        1
 93
        1
 72
     4
 94
        3
 73
     0
 74
     0
 95
       23
 96
       19
 40
0.0
 40
0.0
 40
0.0
 40
0.0
 40
1.0
 40
1.0
 40
1.0
 40
2.0
 40
2.0
 40
2.0
 40
3.0
 40
3.0
 40
3.0
 40
4.0
 40
4.0
 40
4.0
 40
5.0
 40
5.0
 40
5.0
 40
6.0
 40
6.0
 40
6.0
 40
6.0
 10
4.349555747520854
 20
-5.253526512834569
 10
4.348790264936218
 20
-5.253224727895333
 10
4.348138375559048
 20
-5.252811045169639
 10
4.347386456342468
 20
-5.25249654457285
 10
4.402310467572937
 20
-5.307169633494291
 10
4.495208518516947
 20
-5.315834930260785
 10
4.53231365496443
 20
-5.265830183081965
 10
4.529497560671895
 20
-5.26321669159976
 10
4.526734024430576
 20
-5.260561662302885
 10
4.524224801340298
 20
-5.25770403019568
 10
4.482666641618076
 20
-5.283487992869291
 10
4.429376168527798
 20
-5.273546044084569
 10
4.408854792659743
 20
-5.269504160404014
 10
4.39695971887502
 20
-5.267584943824153
 10
4.387451797868076
 20
-5.265692853980403
 10
4.379815621652798
 20
-5.263732947296375
 10
4.37144702356252
 20
-5.261589935143597
 10
4.361532201513909
 20
-5.258246564917903
 10
4.349555747520854
 20
-5.253526512834569
 97
        0
 97
        1
330
C1
 75
     2
 76
     1
 98
        1
 10
0.0
 20
0.0
450
        0
451
        0
460
0.0
461
0.0
452
        0
462
0.0
453
        0
470

  0
SPLINE
  5
C3
330
85
100
AcDbEntity
  8
Deck Box - G5
100
AcDbSpline
210
0.0
220
0.0
230
1.0
 70
     9
 71
     3
 72
    17
 73
    13
 74
     0
 42
0.0000000001
 43
0.0000000001
 40
0.0
 40
0.0
 40
0.0
 40
0.0
 40
1.0
 40
1.0
 40
1.0
 40
2.0
 40
2.0
 40
2.0
 40
3.0
 40
3.0
 40
3.0
 40
4.0
 40
4.0
 40
4.0
 40
4.0
 10
2.985358122466613
 20
-5.248679304175715
 30
0.0
 10
3.029631498931457
 20
-5.203837961673545
 30
0.0
 10
3.064520720122863
 20
-5.178138770050281
 30
0.0
 10
3.091446548844651
 20
-5.164779700226063
 30
0.0
 10
3.090863324018262
 20
-5.157268985165298
 30
0.0
 10
3.090660721207932
 20
-5.149751488420506
 30
0.0
 10
3.090854846913228
 20
-5.142239077938736
 30
0.0
 10
3.090913338937967
 20
-5.130894168270767
 30
0.0
 10
3.091961956830762
 20
-5.119560278839344
 30
0.0
 10
3.093834549332932
 20
-5.108254363854535
 30
0.0
 10
3.015644275624165
 20
-5.126019832875802
 30
0.0
 10
2.944946915055588
 20
-5.194936153676583
 30
0.0
 10
2.985358122466613
 20
-5.248679304175715
 30
0.0
  0
HATCH
  5
C4
330
85
100
AcDbEntity
  8
Deck Box - G5
 62
   250
420
  2301728
440
 33554559
100
AcDbHatch
 10
0.0
 20
0.0
 30
0.0
210
0.0
220
0.0
230
1.0
  2
SOLID
 70
     1
 71
     1
 91
        1
 92
        1
 93
        1
 72
     4
 94
        3
 73
     0
 74
     0
 95
       17
 96
       13
 40
0.0
 40
0.0
 40
0.0
 40
0.0
 40
1.0
 40
1.0
 40
1.0
 40
2.0
 40
2.0
 40
2.0
 40
3.0
 40
3.0
 40
3.0
 40
4.0
 40
4.0
 40
4.0
 40
4.0
 10
2.985358122466613
 20
-5.248679304175715
 10
3.029631498931457
 20
-5.203837961673545
 10
3.064520720122863
 20
-5.178138770050281
 10
3.091446548844651
 20
-5.164779700226063
 10
3.090863324018262
 20
-5.157268985165298
 10
3.090660721207932
 20
-5.149751488420506
 10
3.090854846913228
 20
-5.142239077938736
 10
3.090913338937967
 20
-5.130894168270767
 10
3.091961956830762
 20
-5.119560278839344
 10
3.093834549332932
 20
-5.108254363854535
 10
3.015644275624165
 20
-5.126019832875802
 10
2.944946915055588
 20
-5.194936153676583
 10
2.985358122466613
 20
-5.248679304175715
 97
        0
 97
        1
330
C3
 75
     2
 76
     1
 98
        1
 10
0.0
 20
0.0
450
        0
451
        0
460
0.0
461
0.0
452
        0
462
0.0
453
        0
470

  0
SPLINE
  5
C5
330
85
100
AcDbEntity
  8
Deck Box - G5
100
AcDbSpline
210
0.0
220
0.0
230
1.0
 70
     9
 71
     3
 72
    11
 73
     7
 74
     0
 42
0.0000000001
 43
0.0000000001
 40
0.0
 40
0.0
 40
0.0
 40
0.0
 40
1.0
 40
1.0
 40
1.0
 40
2.0
 40
2.0
 40
2.0
 40
2.0
 10
3.252867582915832
 20
-4.899590423424847
 30
0.0
 10
3.269432693864182
 20
-4.890597910404014
 30
0.0
 10
3.286397924170172
 20
-4.88315077363101
 30
0.0
 10
3.303787009727898
 20
-4.877396514733441
 30
0.0
 10
3.299562868289096
 20
-4.803944942739083
 30
0.0
 10
3.2507601746042
 20
-4.85466685300384
 30
0.0
 10
3.252867582915832
 20
-4.899590423424847
 30
0.0
  0
HATCH
  5
C6
330
85
100
AcDbEntity
  8
Deck Box - G5
 62
   250
420
  2301728
440
 33554559
100
AcDbHatch
 10
0.0
 20
0.0
 30
0.0
210
0.0
220
0.0
230
1.0
  2
SOLID
 70
     1
 71
     1
 91
        1
 92
        1
 93
        1
 72
     4
 94
        3
 73
     0
 74
     0
 95
       11
 96
        7
 40
0.0
 40
0.0
 40
0.0
 40
0.0
 40
1.0
 40
1.0
 40
1.0
 40
2.0
 40
2.0
 40
2.0
 40
2.0
 10
3.252867582915832
 20
-4.899590423424847
 10
3.269432693864182
 20
-4.890597910404014
 10
3.286397924170172
 20
-4.88315077363101
 10
3.303787009727898
 20
-4.877396514733441
 10
3.299562868289096
 20
-4.803944942739083
 10
3.2507601746042
 20
-4.85466685300384
 10
3.252867582915832
 20
-4.899590423424847
 97
        0
 97
        1
330
C5
 75
     2
 76
     1
 98
        1
 10
0.0
 20
0.0
450
        0
451
        0
460
0.0
461
0.0
452
        0
462
0.0
453
        0
470

  0
SPLINE
  5
C7
330
85
100
AcDbEntity
  8
Deck Box - G5
100
AcDbSpline
210
0.0
220
0.0
230
1.0
 70
     9
 71
     3
 72
    23
 73
    19
 74
     0
 42
0.0000000001
 43
0.0000000001
 40
0.0
 40
0.0
 40
0.0
 40
0.0
 40
1.0
 40
1.0
 40
1.0
 40
2.0
 40
2.0
 40
2.0
 40
3.0
 40
3.0
 40
3.0
 40
4.0
 40
4.0
 40
4.0
 40
5.0
 40
5.0
 40
5.0
 40
6.0
 40
6.0
 40
6.0
 40
6.0
 10
4.886127674061652
 20
-5.190773895104535
 30
0.0
 10
4.889721966596375
 20
-5.171310461944813
 30
0.0
 10
4.896932592138909
 20
-5.152738820234743
 30
0.0
 10
4.907601028825107
 20
-5.135210710154447
 30
0.0
 10
4.908650494428406
 20
-5.125041574954795
 30
0.0
 10
4.914147049332919
 20
-5.115046220408354
 30
0.0
 10
4.926227771717902
 20
-5.107341379642295
 30
0.0
 10
4.929295636029968
 20
-5.105361975616688
 30
0.0
 10
4.93241605839325
 20
-5.103844573815472
 30
0.0
 10
4.935562759782138
 20
-5.102549272166166
 30
0.0
 10
4.937821060563388
 20
-5.100743648793771
 30
0.0
 10
4.93998950403127
 20
-5.098821041371896
 30
0.0
 10
4.942383438493076
 20
-5.097195132626236
 30
0.0
 10
4.937179343712259
 20
-5.084312476104969
 30
0.0
 10
4.934220834055142
 20
-5.067849090417035
 30
0.0
 10
4.93668851933075
 20
-5.047556596384916
 30
0.0
 10
4.823479324723544
 20
-5.079743316491254
 30
0.0
 10
4.839574804052972
 20
-5.146365732669639
 30
0.0
 10
4.886127674061652
 20
-5.190773895104535
 30
0.0
  0
HATCH
  5
C8
330
85
100
AcDbEntity
  8
Deck Box - G5
 62
   250
420
  2301728
440
 33554559
100
AcDbHatch
 10
0.0
 20
0.0
 30
0.0
210
0.0
220
0.0
230
1.0
  2
SOLID
 70
     1
 71
     1
 91
        1
 92
        1
 93
        1
 72
     4
 94
        3
 73
     0
 74
     0
 95
       23
 96
       19
 40
0.0
 40
0.0
 40
0.0
 40
0.0
 40
1.0
 40
1.0
 40
1.0
 40
2.0
 40
2.0
 40
2.0
 40
3.0
 40
3.0
 40
3.0
 40
4.0
 40
4.0
 40
4.0
 40
5.0
 40
5.0
 40
5.0
 40
6.0
 40
6.0
 40
6.0
 40
6.0
 10
4.886127674061652
 20
-5.190773895104535
 10
4.889721966596375
 20
-5.171310461944813
 10
4.896932592138909
 20
-5.152738820234743
 10
4.907601028825107
 20
-5.135210710154447
 10
4.908650494428406
 20
-5.125041574954795
 10
4.914147049332919
 20
-5.115046220408354
 10
4.926227771717902
 20
-5.107341379642295
 10
4.929295636029968
 20
-5.105361975616688
 10
4.93241605839325
 20
-5.103844573815472
 10
4.935562759782138
 20
-5.102549272166166
 10
4.937821060563388
 20
-5.100743648793771
 10
4.93998950403127
 20
-5.098821041371896
 10
4.942383438493076
 20
-5.097195132626236
 10
4.937179343712259
 20
-5.084312476104969
 10
4.934220834055142
 20
-5.067849090417035
 10
4.93668851933075
 20
-5.047556596384916
 10
4.823479324723544
 20
-5.079743316491254
 10
4.839574804052972
 20
-5.146365732669639
 10
4.886127674061652
 20
-5.190773895104535
 97
        0
 97
        1
330
C7
 75
     2
 76
     1
 98
        1
 10
0.0
 20
0.0
450
        0
451
        0
460
0.0
461
0.0
452
        0
462
0.0
453
        0
470

  0
SPLINE
  5
C9
330
85
100
AcDbEntity
  8
Deck Box - G5
100
AcDbSpline
210
0.0
220
0.0
230
1.0
 70
     9
 71
     3
 72
    23
 73
    19
 74
     0
 42
0.0000000001
 43
0.0000000001
 40
0.0
 40
0.0
 40
0.0
 40
0.0
 40
1.0
 40
1.0
 40
1.0
 40
2.0
 40
2.0
 40
2.0
 40
3.0
 40
3.0
 40
3.0
 40
4.0
 40
4.0
 40
4.0
 40
5.0
 40
5.0
 40
5.0
 40
6.0
 40
6.0
 40
6.0
 40
6.0
 10
4.826431900407138
 20
-5.5062196891041
 30
0.0
 10
4.931813336225281
 20
-5.411534664418771
 30
0.0
 10
4.685088041900194
 20
-5.395227257463475
 30
0.0
 10
4.776568720882399
 20
-5.4736269156666
 30
0.0
 10
4.795506573529968
 20
-5.472367217858441
 30
0.0
 10
4.774622377566426
 20
-5.481468237823719
 30
0.0
 10
4.765054269113735
 20
-5.484703948815472
 30
0.0
 10
4.672839472835524
 20
-5.400846730390993
 30
0.0
 10
4.9434634216745
 20
-5.351686302873631
 30
0.0
 10
4.82587580231686
 20
-5.527142032040298
 30
0.0
 10
4.82587580231686
 20
-5.527142032040298
 30
0.0
 10
4.906553258642816
 20
-5.527142032040298
 30
0.0
 10
4.906553258642816
 20
-5.527142032040298
 30
0.0
 10
4.915842470339864
 20
-5.507899003611479
 30
0.0
 10
4.927596824181009
 20
-5.486395131269899
 30
0.0
 10
4.942878501427103
 20
-5.461824242326756
 30
0.0
 10
4.855298138471375
 20
-5.150788238366254
 30
0.0
 10
4.461500158056878
 20
-5.61817511987667
 30
0.0
 10
4.826431900407138
 20
-5.5062196891041
 30
0.0
  0
HATCH
  5
CA
330
85
100
AcDbEntity
  8
Deck Box - G5
 62
   250
420
  2301728
440
 33554559
100
AcDbHatch
 10
0.0
 20
0.0
 30
0.0
210
0.0
220
0.0
230
1.0
  2
SOLID
 70
     1
 71
     1
 91
        1
 92
        1
 93
        1
 72
     4
 94
        3
 73
     0
 74
     0
 95
       23
 96
       19
 40
0.0
 40
0.0
 40
0.0
 40
0.0
 40
1.0
 40
1.0
 40
1.0
 40
2.0
 40
2.0
 40
2.0
 40
3.0
 40
3.0
 40
3.0
 40
4.0
 40
4.0
 40
4.0
 40
5.0
 40
5.0
 40
5.0
 40
6.0
 40
6.0
 40
6.0
 40
6.0
 10
4.826431900407138
 20
-5.5062196891041
 10
4.931813336225281
 20
-5.411534664418771
 10
4.685088041900194
 20
-5.395227257463475
 10
4.776568720882399
 20
-5.4736269156666
 10
4.795506573529968
 20
-5.472367217858441
 10
4.774622377566426
 20
-5.481468237823719
 10
4.765054269113735
 20
-5.484703948815472
 10
4.672839472835524
 20
-5.400846730390993
 10
4.9434634216745
 20
-5.351686302873631
 10
4.82587580231686
 20
-5.527142032040298
 10
4.82587580231686
 20
-5.527142032040298
 10
4.906553258642816
 20
-5.527142032040298
 10
4.906553258642816
 20
-5.527142032040298
 10
4.915842470339864
 20
-5.507899003611479
 10
4.927596824181009
 20
-5.486395131269899
 10
4.942878501427103
 20
-5.461824242326756
 10
4.855298138471375
 20
-5.150788238366254
 10
4.461500158056878
 20
-5.61817511987667
 10
4.826431900407138
 20
-5.5062196891041
 97
        0
 97
        1
330
C9
 75
     2
 76
     1
 98
        1
 10
0.0
 20
0.0
450
        0
451
        0
460
0.0
461
0.0
452
        0
462
0.0
453
        0
470

  0
SPLINE
  5
CB
330
85
100
AcDbEntity
  8
Deck Box - G5
100
AcDbSpline
210
0.0
220
0.0
230
1.0
 70
     9
 71
     3
 72
    20
 73
    16
 74
     0
 42
0.0000000001
 43
0.0000000001
 40
0.0
 40
0.0
 40
0.0
 40
0.0
 40
1.0
 40
1.0
 40
1.0
 40
2.0
 40
2.0
 40
2.0
 40
3.0
 40
3.0
 40
3.0
 40
4.0
 40
4.0
 40
4.0
 40
5.0
 40
5.0
 40
5.0
 40
5.0
 10
4.971696419992642
 20
-5.388814327504708
 30
0.0
 10
4.971877830040384
 20
-5.393286848121028
 30
0.0
 10
4.972209284847243
 20
-5.397854312313736
 30
0.0
 10
4.972776403174066
 20
-5.402565039581531
 30
0.0
 10
4.982228375287781
 20
-5.451840755727364
 30
0.0
 10
5.007192601904534
 20
-5.4721620719166
 30
0.0
 10
5.027945402740038
 20
-5.525710248999934
 30
0.0
 10
5.041023032677103
 20
-5.501990461402278
 30
0.0
 10
5.044631736290384
 20
-5.466190799130142
 30
0.0
 10
5.051154020904101
 20
-5.433676862769465
 30
0.0
 10
5.028836346479187
 20
-5.42565073972259
 30
0.0
 10
5.007817364545593
 20
-5.414905161380576
 30
0.0
 10
4.988349692833353
 20
-5.401346879588041
 30
0.0
 10
4.982581022857226
 20
-5.397329579512087
 30
0.0
 10
4.97707683855818
 20
-5.39311645830983
 30
0.0
 10
4.971696419992642
 20
-5.388814327504708
 30
0.0
  0
HATCH
  5
CC
330
85
100
AcDbEntity
  8
Deck Box - G5
 62
   250
420
  2301728
440
 33554559
100
AcDbHatch
 10
0.0
 20
0.0
 30
0.0
210
0.0
220
0.0
230
1.0
  2
SOLID
 70
     1
 71
     1
 91
        1
 92
        1
 93
        1
 72
     4
 94
        3
 73
     0
 74
     0
 95
       20
 96
       16
 40
0.0
 40
0.0
 40
0.0
 40
0.0
 40
1.0
 40
1.0
 40
1.0
 40
2.0
 40
2.0
 40
2.0
 40
3.0
 40
3.0
 40
3.0
 40
4.0
 40
4.0
 40
4.0
 40
5.0
 40
5.0
 40
5.0
 40
5.0
 10
4.971696419992642
 20
-5.388814327504708
 10
4.971877830040384
 20
-5.393286848121028
 10
4.972209284847243
 20
-5.397854312313736
 10
4.972776403174066
 20
-5.402565039581531
 10
4.982228375287781
 20
-5.451840755727364
 10
5.007192601904534
 20
-5.4721620719166
 10
5.027945402740038
 20
-5.525710248999934
 10
5.041023032677103
 20
-5.501990461402278
 10
5.044631736290384
 20
-5.466190799130142
 10
5.051154020904101
 20
-5.433676862769465
 10
5.028836346479187
 20
-5.42565073972259
 10
5.007817364545593
 20
-5.414905161380576
 10
4.988349692833353
 20
-5.401346879588041
 10
4.982581022857226
 20
-5.397329579512087
 10
4.97707683855818
 20
-5.39311645830983
 10
4.971696419992642
 20
-5.388814327504708
 97
        0
 97
        1
330
CB
 75
     2
 76
     1
 98
        1
 10
0.0
 20
0.0
450
        0
451
        0
460
0.0
461
0.0
452
        0
462
0.0
453
        0
470

  0
SPLINE
  5
CD
330
85
100
AcDbEntity
  8
Deck Box - G5
100
AcDbSpline
210
0.0
220
0.0
230
1.0
 70
     9
 71
     3
 72
    20
 73
    16
 74
     0
 42
0.0000000001
 43
0.0000000001
 40
0.0
 40
0.0
 40
0.0
 40
0.0
 40
1.0
 40
1.0
 40
1.0
 40
2.0
 40
2.0
 40
2.0
 40
3.0
 40
3.0
 40
3.0
 40
4.0
 40
4.0
 40
4.0
 40
5.0
 40
5.0
 40
5.0
 40
5.0
 10
3.750725418473557
 20
-5.527142032040298
 30
0.0
 10
3.750725418473557
 20
-5.527142032040298
 30
0.0
 10
3.810898453141526
 20
-5.527142032040298
 30
0.0
 10
3.810898453141526
 20
-5.527142032040298
 30
0.0
 10
3.827973885812967
 20
-5.492566463735177
 30
0.0
 10
3.889375253000467
 20
-5.488811106204795
 30
0.0
 10
3.902455426069043
 20
-5.527142032040298
 30
0.0
 10
3.902455426069043
 20
-5.527142032040298
 30
0.0
 10
3.966125266563835
 20
-5.527142032040298
 30
0.0
 10
3.966125266563835
 20
-5.527142032040298
 30
0.0
 10
3.964401023399773
 20
-5.511393266306791
 30
0.0
 10
3.958510283111144
 20
-5.494583167022938
 30
0.0
 10
3.947122987918002
 20
-5.477573008060264
 30
0.0
 10
3.865324010595953
 20
-5.400094811174413
 30
0.0
 10
3.774928401058193
 20
-5.451400793976063
 30
0.0
 10
3.750725418473557
 20
-5.527142032040298
 30
0.0
  0
HATCH
  5
CE
330
85
100
AcDbEntity
  8
Deck Box - G5
 62
   250
420
  2301728
440
 33554559
100
AcDbHatch
 10
0.0
 20
0.0
 30
0.0
210
0.0
220
0.0
230
1.0
  2
SOLID
 70
     1
 71
     1
 91
        1
 92
        1
 93
        1
 72
     4
 94
        3
 73
     0
 74
     0
 95
       20
 96
       16
 40
0.0
 40
0.0
 40
0.0
 40
0.0
 40
1.0
 40
1.0
 40
1.0
 40
2.0
 40
2.0
 40
2.0
 40
3.0
 40
3.0
 40
3.0
 40
4.0
 40
4.0
 40
4.0
 40
5.0
 40
5.0
 40
5.0
 40
5.0
 10
3.750725418473557
 20
-5.527142032040298
 10
3.750725418473557
 20
-5.527142032040298
 10
3.810898453141526
 20
-5.527142032040298
 10
3.810898453141526
 20
-5.527142032040298
 10
3.827973885812967
 20
-5.492566463735177
 10
3.889375253000467
 20
-5.488811106204795
 10
3.902455426069043
 20
-5.527142032040298
 10
3.902455426069043
 20
-5.527142032040298
 10
3.966125266563835
 20
-5.527142032040298
 10
3.966125266563835
 20
-5.527142032040298
 10
3.964401023399773
 20
-5.511393266306791
 10
3.958510283111144
 20
-5.494583167022938
 10
3.947122987918002
 20
-5.477573008060264
 10
3.865324010595953
 20
-5.400094811174413
 10
3.774928401058193
 20
-5.451400793976063
 10
3.750725418473557
 20
-5.527142032040298
 97
        0
 97
        1
330
CD
 75
     2
 76
     1
 98
        1
 10
0.0
 20
0.0
450
        0
451
        0
460
0.0
461
0.0
452
        0
462
0.0
453
        0
470

  0
SPLINE
  5
CF
330
85
100
AcDbEntity
  8
Deck Box - G5
100
AcDbSpline
210
0.0
220
0.0
230
1.0
 70
     9
 71
     3
 72
    23
 73
    19
 74
     0
 42
0.0000000001
 43
0.0000000001
 40
0.0
 40
0.0
 40
0.0
 40
0.0
 40
1.0
 40
1.0
 40
1.0
 40
2.0
 40
2.0
 40
2.0
 40
3.0
 40
3.0
 40
3.0
 40
4.0
 40
4.0
 40
4.0
 40
5.0
 40
5.0
 40
5.0
 40
6.0
 40
6.0
 40
6.0
 40
6.0
 10
4.574872960791253
 20
-5.457087236033354
 30
0.0
 10
4.653234472021722
 20
-5.387291839440472
 30
0.0
 10
4.461556106950107
 20
-5.30693990394785
 30
0.0
 10
4.535116185888909
 20
-5.410852257463475
 30
0.0
 10
4.412616084163649
 20
-5.337562598175281
 30
0.0
 10
4.715462356950107
 20
-5.299173180315038
 30
0.0
 10
4.542253060617642
 20
-5.524812523576756
 30
0.0
 10
4.542036046728753
 20
-5.525579701582399
 30
0.0
 10
4.541985184098544
 20
-5.526371463192642
 30
0.0
 10
4.541788515261739
 20
-5.527142032040298
 30
0.0
 10
4.541788515261739
 20
-5.527142032040298
 30
0.0
 10
4.629028098595072
 20
-5.527142032040298
 30
0.0
 10
4.629028098595072
 20
-5.527142032040298
 30
0.0
 10
4.635855558990038
 20
-5.503444284915732
 30
0.0
 10
4.646809674115906
 20
-5.475315554989517
 30
0.0
 10
4.663521438981357
 20
-5.441615671634482
 30
0.0
 10
4.573808236398892
 20
-5.094765594323285
 30
0.0
 10
4.297609743289083
 20
-5.487004635121896
 30
0.0
 10
4.574872960791253
 20
-5.457087236033354
 30
0.0
  0
HATCH
  5
D0
330
85
100
AcDbEntity
  8
Deck Box - G5
 62
   250
420
  2301728
440
 33554559
100
AcDbHatch
 10
0.0
 20
0.0
 30
0.0
210
0.0
220
0.0
230
1.0
  2
SOLID
 70
     1
 71
     1
 91
        1
 92
        1
 93
        1
 72
     4
 94
        3
 73
     0
 74
     0
 95
       23
 96
       19
 40
0.0
 40
0.0
 40
0.0
 40
0.0
 40
1.0
 40
1.0
 40
1.0
 40
2.0
 40
2.0
 40
2.0
 40
3.0
 40
3.0
 40
3.0
 40
4.0
 40
4.0
 40
4.0
 40
5.0
 40
5.0
 40
5.0
 40
6.0
 40
6.0
 40
6.0
 40
6.0
 10
4.574872960791253
 20
-5.457087236033354
 10
4.653234472021722
 20
-5.387291839440472
 10
4.461556106950107
 20
-5.30693990394785
 10
4.535116185888909
 20
-5.410852257463475
 10
4.412616084163649
 20
-5.337562598175281
 10
4.715462356950107
 20
-5.299173180315038
 10
4.542253060617642
 20
-5.524812523576756
 10
4.542036046728753
 20
-5.525579701582399
 10
4.541985184098544
 20
-5.526371463192642
 10
4.541788515261739
 20
-5.527142032040298
 10
4.541788515261739
 20
-5.527142032040298
 10
4.629028098595072
 20
-5.527142032040298
 10
4.629028098595072
 20
-5.527142032040298
 10
4.635855558990038
 20
-5.503444284915732
 10
4.646809674115906
 20
-5.475315554989517
 10
4.663521438981357
 20
-5.441615671634482
 10
4.573808236398892
 20
-5.094765594323285
 10
4.297609743289083
 20
-5.487004635121896
 10
4.574872960791253
 20
-5.457087236033354
 97
        0
 97
        1
330
CF
 75
     2
 76
     1
 98
        1
 10
0.0
 20
0.0
450
        0
451
        0
460
0.0
461
0.0
452
        0
462
0.0
453
        0
470

  0
SPLINE
  5
D1
330
85
100
AcDbEntity
  8
Deck Box - G5
100
AcDbSpline
210
0.0
220
0.0
230
1.0
 70
     9
 71
     3
 72
    23
 73
    19
 74
     0
 42
0.0000000001
 43
0.0000000001
 40
0.0
 40
0.0
 40
0.0
 40
0.0
 40
1.0
 40
1.0
 40
1.0
 40
2.0
 40
2.0
 40
2.0
 40
3.0
 40
3.0
 40
3.0
 40
4.0
 40
4.0
 40
4.0
 40
5.0
 40
5.0
 40
5.0
 40
6.0
 40
6.0
 40
6.0
 40
6.0
 10
4.030867460845519
 20
-5.323566050052451
 30
0.0
 10
3.748104297596821
 20
-5.382005516740819
 30
0.0
 10
4.140800254356804
 20
-5.665348513973892
 30
0.0
 10
4.073883682633714
 20
-5.410952287302885
 30
0.0
 10
4.037232071305589
 20
-5.366326263268597
 30
0.0
 10
3.965648853260884
 20
-5.413154639190906
 30
0.0
 10
4.025351408599425
 20
-5.447619157420072
 30
0.0
 10
4.044244332590311
 20
-5.449176401614951
 30
0.0
 10
4.01860193757078
 20
-5.46422241534108
 30
0.0
 10
4.012363635975727
 20
-5.449931711673545
 30
0.0
 10
3.93639266836505
 20
-5.378217098500802
 30
0.0
 10
4.149584230593783
 20
-5.318619659264691
 30
0.0
 10
4.075531631852464
 20
-5.527142032040298
 30
0.0
 10
4.075531631852464
 20
-5.527142032040298
 30
0.0
 10
4.161827713395433
 20
-5.527142032040298
 30
0.0
 10
4.161827713395433
 20
-5.527142032040298
 30
0.0
 10
4.198379294884148
 20
-5.453822702884482
 30
0.0
 10
4.224610000993089
 20
-5.376758188724326
 30
0.0
 10
4.030867460845519
 20
-5.323566050052451
 30
0.0
  0
HATCH
  5
D2
330
85
100
AcDbEntity
  8
Deck Box - G5
 62
   250
420
  2301728
440
 33554559
100
AcDbHatch
 10
0.0
 20
0.0
 30
0.0
210
0.0
220
0.0
230
1.0
  2
SOLID
 70
     1
 71
     1
 91
        1
 92
        1
 93
        1
 72
     4
 94
        3
 73
     0
 74
     0
 95
       23
 96
       19
 40
0.0
 40
0.0
 40
0.0
 40
0.0
 40
1.0
 40
1.0
 40
1.0
 40
2.0
 40
2.0
 40
2.0
 40
3.0
 40
3.0
 40
3.0
 40
4.0
 40
4.0
 40
4.0
 40
5.0
 40
5.0
 40
5.0
 40
6.0
 40
6.0
 40
6.0
 40
6.0
 10
4.030867460845519
 20
-5.323566050052451
 10
3.748104297596821
 20
-5.382005516740819
 10
4.140800254356804
 20
-5.665348513973892
 10
4.073883682633714
 20
-5.410952287302885
 10
4.037232071305589
 20
-5.366326263268597
 10
3.965648853260884
 20
-5.413154639190906
 10
4.025351408599425
 20
-5.447619157420072
 10
4.044244332590311
 20
-5.449176401614951
 10
4.01860193757078
 20
-5.46422241534108
 10
4.012363635975727
 20
-5.449931711673545
 10
3.93639266836505
 20
-5.378217098500802
 10
4.149584230593783
 20
-5.318619659264691
 10
4.075531631852464
 20
-5.527142032040298
 10
4.075531631852464
 20
-5.527142032040298
 10
4.161827713395433
 20
-5.527142032040298
 10
4.161827713395433
 20
-5.527142032040298
 10
4.198379294884148
 20
-5.453822702884482
 10
4.224610000993089
 20
-5.376758188724326
 10
4.030867460845519
 20
-5.323566050052451
 97
        0
 97
        1
330
D1
 75
     2
 76
     1
 98
        1
 10
0.0
 20
0.0
450
        0
451
        0
460
0.0
461
0.0
452
        0
462
0.0
453
        0
470

  0
SPLINE
  5
D3
330
85
100
AcDbEntity
  8
Deck Box - G5
100
AcDbSpline
210
0.0
220
0.0
230
1.0
 70
     9
 71
     3
 72
    32
 73
    28
 74
     0
 42
0.0000000001
 43
0.0000000001
 40
0.0
 40
0.0
 40
0.0
 40
0.0
 40
1.0
 40
1.0
 40
1.0
 40
2.0
 40
2.0
 40
2.0
 40
3.0
 40
3.0
 40
3.0
 40
4.0
 40
4.0
 40
4.0
 40
5.0
 40
5.0
 40
5.0
 40
6.0
 40
6.0
 40
6.0
 40
7.0
 40
7.0
 40
7.0
 40
8.0
 40
8.0
 40
8.0
 40
9.0
 40
9.0
 40
9.0
 40
9.0
 10
4.315408273019985
 20
-5.255997588952191
 30
0.0
 10
4.298026816856792
 20
-5.261855268531184
 30
0.0
 10
4.276727242746548
 20
-5.264109330759916
 30
0.0
 10
4.251491748768696
 20
-5.264692555586305
 30
0.0
 10
4.281379477989604
 20
-5.301281436337173
 30
0.0
 10
4.130876107492655
 20
-5.359885358863215
 30
0.0
 10
4.147587872358106
 20
-5.25184211206417
 30
0.0
 10
4.145217673790398
 20
-5.310813940948719
 30
0.0
 10
4.277173138471375
 20
-5.323422786977364
 30
0.0
 10
4.233654224354634
 20
-5.264863793108006
 30
0.0
 10
4.232216507340745
 20
-5.264858706844986
 30
0.0
 10
4.230872038482238
 20
-5.26488413816009
 30
0.0
 10
4.229411433284755
 20
-5.264872270213041
 30
0.0
 10
4.192247804812533
 20
-5.264648474640125
 30
0.0
 10
4.1670199402292
 20
-5.259623246775541
 30
0.0
 10
4.147868464534755
 20
-5.248589446862347
 30
0.0
 10
4.136237876427117
 20
-5.241889143042903
 30
0.0
 10
4.126099258805589
 20
-5.232489728980403
 30
0.0
 10
4.117506865142394
 20
-5.220479366567208
 30
0.0
 10
4.1037875183542
 20
-5.240458207713041
 30
0.0
 10
4.086907906809061
 20
-5.253377315785958
 30
0.0
 10
4.0672884949167
 20
-5.258877261532486
 30
0.0
 10
4.066582352067308
 20
-5.259086646026844
 30
0.0
 10
4.06578719961505
 20
-5.259259578969552
 30
0.0
 10
4.065063254845085
 20
-5.259462181779881
 30
0.0
 10
4.154573006906717
 20
-5.477717966556357
 30
0.0
 10
4.306578520415819
 20
-5.345808278242555
 30
0.0
 10
4.315408273019985
 20
-5.255997588952191
 30
0.0
  0
HATCH
  5
D4
330
85
100
AcDbEntity
  8
Deck Box - G5
 62
   250
420
  2301728
440
 33554559
100
AcDbHatch
 10
0.0
 20
0.0
 30
0.0
210
0.0
220
0.0
230
1.0
  2
SOLID
 70
     1
 71
     1
 91
        1
 92
        1
 93
        1
 72
     4
 94
        3
 73
     0
 74
     0
 95
       32
 96
       28
 40
0.0
 40
0.0
 40
0.0
 40
0.0
 40
1.0
 40
1.0
 40
1.0
 40
2.0
 40
2.0
 40
2.0
 40
3.0
 40
3.0
 40
3.0
 40
4.0
 40
4.0
 40
4.0
 40
5.0
 40
5.0
 40
5.0
 40
6.0
 40
6.0
 40
6.0
 40
7.0
 40
7.0
 40
7.0
 40
8.0
 40
8.0
 40
8.0
 40
9.0
 40
9.0
 40
9.0
 40
9.0
 10
4.315408273019985
 20
-5.255997588952191
 10
4.298026816856792
 20
-5.261855268531184
 10
4.276727242746548
 20
-5.264109330759916
 10
4.251491748768696
 20
-5.264692555586305
 10
4.281379477989604
 20
-5.301281436337173
 10
4.130876107492655
 20
-5.359885358863215
 10
4.147587872358106
 20
-5.25184211206417
 10
4.145217673790398
 20
-5.310813940948719
 10
4.277173138471375
 20
-5.323422786977364
 10
4.233654224354634
 20
-5.264863793108006
 10
4.232216507340745
 20
-5.264858706844986
 10
4.230872038482238
 20
-5.26488413816009
 10
4.229411433284755
 20
-5.264872270213041
 10
4.192247804812533
 20
-5.264648474640125
 10
4.1670199402292
 20
-5.259623246775541
 10
4.147868464534755
 20
-5.248589446862347
 10
4.136237876427117
 20
-5.241889143042903
 10
4.126099258805589
 20
-5.232489728980403
 10
4.117506865142394
 20
-5.220479366567208
 10
4.1037875183542
 20
-5.240458207713041
 10
4.086907906809061
 20
-5.253377315785958
 10
4.0672884949167
 20
-5.258877261532486
 10
4.066582352067308
 20
-5.259086646026844
 10
4.06578719961505
 20
-5.259259578969552
 10
4.065063254845085
 20
-5.259462181779881
 10
4.154573006906717
 20
-5.477717966556357
 10
4.306578520415819
 20
-5.345808278242555
 10
4.315408273019985
 20
-5.255997588952191
 97
        0
 97
        1
330
D3
 75
     2
 76
     1
 98
        1
 10
0.0
 20
0.0
450
        0
451
        0
460
0.0
461
0.0
452
        0
462
0.0
453
        0
470

  0
SPLINE
  5
D5
330
85
100
AcDbEntity
  8
Deck Box - G5
100
AcDbSpline
210
0.0
220
0.0
230
1.0
 70
     9
 71
     3
 72
    29
 73
    25
 74
     0
 42
0.0000000001
 43
0.0000000001
 40
0.0
 40
0.0
 40
0.0
 40
0.0
 40
1.0
 40
1.0
 40
1.0
 40
2.0
 40
2.0
 40
2.0
 40
3.0
 40
3.0
 40
3.0
 40
4.0
 40
4.0
 40
4.0
 40
5.0
 40
5.0
 40
5.0
 40
6.0
 40
6.0
 40
6.0
 40
7.0
 40
7.0
 40
7.0
 40
8.0
 40
8.0
 40
8.0
 40
8.0
 10
4.30746013933943
 20
-5.504346248891427
 30
0.0
 10
4.2662173279245
 20
-5.464287689049847
 30
0.0
 10
4.335871156863301
 20
-5.356821733103666
 30
0.0
 10
4.371894614708354
 20
-5.426066965579795
 30
0.0
 10
4.383735435020854
 20
-5.433618370744725
 30
0.0
 10
4.359400209597676
 20
-5.459399790286826
 30
0.0
 10
4.364819622846375
 20
-5.439488765981271
 30
0.0
 10
4.35270923059377
 20
-5.374432071102798
 30
0.0
 10
4.279999405289951
 20
-5.446057674672677
 30
0.0
 10
4.310656855648024
 20
-5.487694671471722
 30
0.0
 10
4.537739849897156
 20
-5.57622447019134
 30
0.0
 10
4.402028179975281
 20
-5.144208309438302
 30
0.0
 10
4.240033245893262
 20
-5.436282724857139
 30
0.0
 10
4.228642559858106
 20
-5.469999562422243
 30
0.0
 10
4.228302627946214
 20
-5.500947777483006
 30
0.0
 10
4.2357455261667
 20
-5.527142032040298
 30
0.0
 10
4.2357455261667
 20
-5.527142032040298
 30
0.0
 10
4.465344525190125
 20
-5.527142032040298
 30
0.0
 10
4.465344525190125
 20
-5.527142032040298
 30
0.0
 10
4.474098831559482
 20
-5.508623796091947
 30
0.0
 10
4.481634977935351
 20
-5.488790761152712
 30
0.0
 10
4.497879654313388
 20
-5.464464860545072
 30
0.0
 10
4.436713950645854
 20
-5.472580840905316
 30
0.0
 10
4.35925694652259
 20
-5.543476565731705
 30
0.0
 10
4.30746013933943
 20
-5.504346248891427
 30
0.0
  0
HATCH
  5
D6
330
85
100
AcDbEntity
  8
Deck Box - G5
 62
   250
420
  2301728
440
 33554559
100
AcDbHatch
 10
0.0
 20
0.0
 30
0.0
210
0.0
220
0.0
230
1.0
  2
SOLID
 70
     1
 71
     1
 91
        1
 92
        1
 93
        1
 72
     4
 94
        3
 73
     0
 74
     0
 95
       29
 96
       25
 40
0.0
 40
0.0
 40
0.0
 40
0.0
 40
1.0
 40
1.0
 40
1.0
 40
2.0
 40
2.0
 40
2.0
 40
3.0
 40
3.0
 40
3.0
 40
4.0
 40
4.0
 40
4.0
 40
5.0
 40
5.0
 40
5.0
 40
6.0
 40
6.0
 40
6.0
 40
7.0
 40
7.0
 40
7.0
 40
8.0
 40
8.0
 40
8.0
 40
8.0
 10
4.30746013933943
 20
-5.504346248891427
 10
4.2662173279245
 20
-5.464287689049847
 10
4.335871156863301
 20
-5.356821733103666
 10
4.371894614708354
 20
-5.426066965579795
 10
4.383735435020854
 20
-5.433618370744725
 10
4.359400209597676
 20
-5.459399790286826
 10
4.364819622846375
 20
-5.439488765981271
 10
4.35270923059377
 20
-5.374432071102798
 10
4.279999405289951
 20
-5.446057674672677
 10
4.310656855648024
 20
-5.487694671471722
 10
4.537739849897156
 20
-5.57622447019134
 10
4.402028179975281
 20
-5.144208309438302
 10
4.240033245893262
 20
-5.436282724857139
 10
4.228642559858106
 20
-5.469999562422243
 10
4.228302627946214
 20
-5.500947777483006
 10
4.2357455261667
 20
-5.527142032040298
 10
4.2357455261667
 20
-5.527142032040298
 10
4.465344525190125
 20
-5.527142032040298
 10
4.465344525190125
 20
-5.527142032040298
 10
4.474098831559482
 20
-5.508623796091947
 10
4.481634977935351
 20
-5.488790761152712
 10
4.497879654313388
 20
-5.464464860545072
 10
4.436713950645854
 20
-5.472580840905316
 10
4.35925694652259
 20
-5.543476565731705
 10
4.30746013933943
 20
-5.504346248891427
 97
        0
 97
        1
330
D5
 75
     2
 76
     1
 98
        1
 10
0.0
 20
0.0
450
        0
451
        0
460
0.0
461
0.0
452
        0
462
0.0
453
        0
470

  0
SPLINE
  5
D7
330
85
100
AcDbEntity
  8
Deck Box - G5
100
AcDbSpline
210
0.0
220
0.0
230
1.0
 70
     9
 71
     3
 72
    29
 73
    25
 74
     0
 42
0.0000000001
 43
0.0000000001
 40
0.0
 40
0.0
 40
0.0
 40
0.0
 40
1.0
 40
1.0
 40
1.0
 40
2.0
 40
2.0
 40
2.0
 40
3.0
 40
3.0
 40
3.0
 40
4.0
 40
4.0
 40
4.0
 40
5.0
 40
5.0
 40
5.0
 40
6.0
 40
6.0
 40
6.0
 40
7.0
 40
7.0
 40
7.0
 40
8.0
 40
8.0
 40
8.0
 40
8.0
 10
5.169246875721809
 20
-5.448922936174413
 30
0.0
 10
5.164760791737434
 20
-5.459784650855403
 30
0.0
 10
5.152982702002191
 20
-5.465265946970854
 30
0.0
 10
5.131237232167121
 20
-5.459431155575455
 30
0.0
 10
5.125411765587259
 20
-5.461013831085438
 30
0.0
 10
5.120667977609829
 20
-5.454749250464778
 30
0.0
 10
5.118402047434048
 20
-5.448936499542469
 30
0.0
 10
5.117163542388476
 20
-5.448806799835438
 30
0.0
 10
5.115933514447937
 20
-5.448750850942208
 30
0.0
 10
5.114692466270853
 20
-5.448601653893597
 30
0.0
 10
5.09576817699134
 20
-5.446351830217381
 30
0.0
 10
5.077580548139343
 20
-5.442324357615385
 30
0.0
 10
5.060131275135871
 20
-5.436720991187434
 30
0.0
 10
5.057524565337694
 20
-5.478086720625368
 30
0.0
 10
5.104812400352884
 20
-5.516749948978232
 30
0.0
 10
5.150174237104187
 20
-5.527142032040298
 30
0.0
 10
5.150174237104187
 20
-5.527142032040298
 30
0.0
 10
5.192891217084656
 20
-5.527142032040298
 30
0.0
 10
5.192891217084656
 20
-5.527142032040298
 30
0.0
 10
5.220534208892382
 20
-5.519005706627972
 30
0.0
 10
5.238002979237434
 20
-5.491569556183094
 30
0.0
 10
5.226110448584222
 20
-5.435508765167469
 30
0.0
 10
5.207585430951843
 20
-5.442358266035524
 30
0.0
 10
5.188594172542555
 20
-5.446840959177885
 30
0.0
 10
5.169246875721809
 20
-5.448922936174413
 30
0.0
  0
HATCH
  5
D8
330
85
100
AcDbEntity
  8
Deck Box - G5
 62
   250
420
  2301728
440
 33554559
100
AcDbHatch
 10
0.0
 20
0.0
 30
0.0
210
0.0
220
0.0
230
1.0
  2
SOLID
 70
     1
 71
     1
 91
        1
 92
        1
 93
        1
 72
     4
 94
        3
 73
     0
 74
     0
 95
       29
 96
       25
 40
0.0
 40
0.0
 40
0.0
 40
0.0
 40
1.0
 40
1.0
 40
1.0
 40
2.0
 40
2.0
 40
2.0
 40
3.0
 40
3.0
 40
3.0
 40
4.0
 40
4.0
 40
4.0
 40
5.0
 40
5.0
 40
5.0
 40
6.0
 40
6.0
 40
6.0
 40
7.0
 40
7.0
 40
7.0
 40
8.0
 40
8.0
 40
8.0
 40
8.0
 10
5.169246875721809
 20
-5.448922936174413
 10
5.164760791737434
 20
-5.459784650855403
 10
5.152982702002191
 20
-5.465265946970854
 10
5.131237232167121
 20
-5.459431155575455
 10
5.125411765587259
 20
-5.461013831085438
 10
5.120667977609829
 20
-5.454749250464778
 10
5.118402047434048
 20
-5.448936499542469
 10
5.117163542388476
 20
-5.448806799835438
 10
5.115933514447937
 20
-5.448750850942208
 10
5.114692466270853
 20
-5.448601653893597
 10
5.09576817699134
 20
-5.446351830217381
 10
5.077580548139343
 20
-5.442324357615385
 10
5.060131275135871
 20
-5.436720991187434
 10
5.057524565337694
 20
-5.478086720625368
 10
5.104812400352884
 20
-5.516749948978232
 10
5.150174237104187
 20
-5.527142032040298
 10
5.150174237104187
 20
-5.527142032040298
 10
5.192891217084656
 20
-5.527142032040298
 10
5.192891217084656
 20
-5.527142032040298
 10
5.220534208892382
 20
-5.519005706627972
 10
5.238002979237434
 20
-5.491569556183094
 10
5.226110448584222
 20
-5.435508765167469
 10
5.207585430951843
 20
-5.442358266035524
 10
5.188594172542555
 20
-5.446840959177885
 10
5.169246875721809
 20
-5.448922936174413
 97
        0
 97
        1
330
D7
 75
     2
 76
     1
 98
        1
 10
0.0
 20
0.0
450
        0
451
        0
460
0.0
461
0.0
452
        0
462
0.0
453
        0
470

  0
SPLINE
  5
D9
330
85
100
AcDbEntity
  8
Deck Box - G5
100
AcDbSpline
210
0.0
220
0.0
230
1.0
 70
     9
 71
     3
 72
    32
 73
    28
 74
     0
 42
0.0000000001
 43
0.0000000001
 40
0.0
 40
0.0
 40
0.0
 40
0.0
 40
1.0
 40
1.0
 40
1.0
 40
2.0
 40
2.0
 40
2.0
 40
3.0
 40
3.0
 40
3.0
 40
4.0
 40
4.0
 40
4.0
 40
5.0
 40
5.0
 40
5.0
 40
6.0
 40
6.0
 40
6.0
 40
7.0
 40
7.0
 40
7.0
 40
8.0
 40
8.0
 40
8.0
 40
9.0
 40
9.0
 40
9.0
 40
9.0
 10
5.334185060671895
 20
-5.486878326256879
 30
0.0
 10
5.364483081776496
 20
-5.530787187205229
 30
0.0
 10
5.42615656403561
 20
-5.493013207170506
 30
0.0
 10
5.376090781700541
 20
-5.456733740753406
 30
0.0
 10
5.360073291737434
 20
-5.453872717804188
 30
0.0
 10
5.382132414458788
 20
-5.441935258494291
 30
0.0
 10
5.387149165218336
 20
-5.455571529653146
 30
0.0
 10
5.438676400461392
 20
-5.515081654707399
 30
0.0
 10
5.349146303347676
 20
-5.536134545061131
 30
0.0
 10
5.320891264556444
 20
-5.483278947459135
 30
0.0
 10
5.291746977447069
 20
-5.415635040124066
 30
0.0
 10
5.360716704009569
 20
-5.385074228763389
 30
0.0
 10
5.362734255007833
 20
-5.323614369551149
 30
0.0
 10
5.337541146555142
 20
-5.365216610219552
 30
0.0
 10
5.302338272477451
 20
-5.398174746884048
 30
0.0
 10
5.257351971479187
 20
-5.421569861358875
 30
0.0
 10
5.253002368885871
 20
-5.423881567901844
 30
0.0
 10
5.248618010161913
 20
-5.426042381975194
 30
0.0
 10
5.244206524701843
 20
-5.428077734894031
 30
0.0
 10
5.238114877023892
 20
-5.460973988691774
 30
0.0
 10
5.242676407243076
 20
-5.49704237519351
 30
0.0
 10
5.277689394167989
 20
-5.527142032040298
 30
0.0
 10
5.277689394167989
 20
-5.527142032040298
 30
0.0
 10
5.452697532188822
 20
-5.527142032040298
 30
0.0
 10
5.452697532188822
 20
-5.527142032040298
 30
0.0
 10
5.49530430980384
 20
-5.443813784969986
 30
0.0
 10
5.292397171403232
 20
-5.294677771515125
 30
0.0
 10
5.334185060671895
 20
-5.486878326256879
 30
0.0
  0
HATCH
  5
DA
330
85
100
AcDbEntity
  8
Deck Box - G5
 62
   250
420
  2301728
440
 33554559
100
AcDbHatch
 10
0.0
 20
0.0
 30
0.0
210
0.0
220
0.0
230
1.0
  2
SOLID
 70
     1
 71
     1
 91
        1
 92
        1
 93
        1
 72
     4
 94
        3
 73
     0
 74
     0
 95
       32
 96
       28
 40
0.0
 40
0.0
 40
0.0
 40
0.0
 40
1.0
 40
1.0
 40
1.0
 40
2.0
 40
2.0
 40
2.0
 40
3.0
 40
3.0
 40
3.0
 40
4.0
 40
4.0
 40
4.0
 40
5.0
 40
5.0
 40
5.0
 40
6.0
 40
6.0
 40
6.0
 40
7.0
 40
7.0
 40
7.0
 40
8.0
 40
8.0
 40
8.0
 40
9.0
 40
9.0
 40
9.0
 40
9.0
 10
5.334185060671895
 20
-5.486878326256879
 10
5.364483081776496
 20
-5.530787187205229
 10
5.42615656403561
 20
-5.493013207170506
 10
5.376090781700541
 20
-5.456733740753406
 10
5.360073291737434
 20
-5.453872717804188
 10
5.382132414458788
 20
-5.441935258494291
 10
5.387149165218336
 20
-5.455571529653146
 10
5.438676400461392
 20
-5.515081654707399
 10
5.349146303347676
 20
-5.536134545061131
 10
5.320891264556444
 20
-5.483278947459135
 10
5.291746977447069
 20
-5.415635040124066
 10
5.360716704009569
 20
-5.385074228763389
 10
5.362734255007833
 20
-5.323614369551149
 10
5.337541146555142
 20
-5.365216610219552
 10
5.302338272477451
 20
-5.398174746884048
 10
5.257351971479187
 20
-5.421569861358875
 10
5.253002368885871
 20
-5.423881567901844
 10
5.248618010161913
 20
-5.426042381975194
 10
5.244206524701843
 20
-5.428077734894031
 10
5.238114877023892
 20
-5.460973988691774
 10
5.242676407243076
 20
-5.49704237519351
 10
5.277689394167989
 20
-5.527142032040298
 10
5.277689394167989
 20
-5.527142032040298
 10
5.452697532188822
 20
-5.527142032040298
 10
5.452697532188822
 20
-5.527142032040298
 10
5.49530430980384
 20
-5.443813784969986
 10
5.292397171403232
 20
-5.294677771515125
 10
5.334185060671895
 20
-5.486878326256879
 97
        0
 97
        1
330
D9
 75
     2
 76
     1
 98
        1
 10
0.0
 20
0.0
450
        0
451
        0
460
0.0
461
0.0
452
        0
462
0.0
453
        0
470

  0
SPLINE
  5
DB
330
85
100
AcDbEntity
  8
Deck Box - G5
100
AcDbSpline
210
0.0
220
0.0
230
1.0
 70
     9
 71
     3
 72
    23
 73
    19
 74
     0
 42
0.0000000001
 43
0.0000000001
 40
0.0
 40
0.0
 40
0.0
 40
0.0
 40
1.0
 40
1.0
 40
1.0
 40
2.0
 40
2.0
 40
2.0
 40
3.0
 40
3.0
 40
3.0
 40
4.0
 40
4.0
 40
4.0
 40
5.0
 40
5.0
 40
5.0
 40
6.0
 40
6.0
 40
6.0
 40
6.0
 10
5.572898643028666
 20
-5.016822852081531
 30
0.0
 10
5.591025236724413
 20
-5.061328501224326
 30
0.0
 10
5.622881349734395
 20
-5.087898291534656
 30
0.0
 10
5.653074254736566
 20
-5.087938981638822
 30
0.0
 10
5.653074254736566
 20
-5.087938981638822
 30
0.0
 10
5.653074254736566
 20
-5.03256483613101
 30
0.0
 10
5.653074254736566
 20
-5.03256483613101
 30
0.0
 10
5.650071664133267
 20
-5.034143273088475
 30
0.0
 10
5.644186857818163
 20
-5.035378387292035
 30
0.0
 10
5.640484058338996
 20
-5.035813262780316
 30
0.0
 10
5.605255752946201
 20
-5.006392622046809
 30
0.0
 10
5.624373320220507
 20
-4.969067080868423
 30
0.0
 10
5.653074254736566
 20
-4.965585533830663
 30
0.0
 10
5.653074254736566
 20
-4.965585533830663
 30
0.0
 10
5.653074254736566
 20
-4.917563581519465
 30
0.0
 10
5.653074254736566
 20
-4.917563581519465
 30
0.0
 10
5.603252613026496
 20
-4.911788977569813
 30
0.0
 10
5.560220284738735
 20
-4.941483428795941
 30
0.0
 10
5.572898643028666
 20
-5.016822852081531
 30
0.0
  0
HATCH
  5
DC
330
85
100
AcDbEntity
  8
Deck Box - G5
 62
   250
420
  2301728
440
 33554559
100
AcDbHatch
 10
0.0
 20
0.0
 30
0.0
210
0.0
220
0.0
230
1.0
  2
SOLID
 70
     1
 71
     1
 91
        1
 92
        1
 93
        1
 72
     4
 94
        3
 73
     0
 74
     0
 95
       23
 96
       19
 40
0.0
 40
0.0
 40
0.0
 40
0.0
 40
1.0
 40
1.0
 40
1.0
 40
2.0
 40
2.0
 40
2.0
 40
3.0
 40
3.0
 40
3.0
 40
4.0
 40
4.0
 40
4.0
 40
5.0
 40
5.0
 40
5.0
 40
6.0
 40
6.0
 40
6.0
 40
6.0
 10
5.572898643028666
 20
-5.016822852081531
 10
5.591025236724413
 20
-5.061328501224326
 10
5.622881349734395
 20
-5.087898291534656
 10
5.653074254736566
 20
-5.087938981638822
 10
5.653074254736566
 20
-5.087938981638822
 10
5.653074254736566
 20
-5.03256483613101
 10
5.653074254736566
 20
-5.03256483613101
 10
5.650071664133267
 20
-5.034143273088475
 10
5.644186857818163
 20
-5.035378387292035
 10
5.640484058338996
 20
-5.035813262780316
 10
5.605255752946201
 20
-5.006392622046809
 10
5.624373320220507
 20
-4.969067080868423
 10
5.653074254736566
 20
-4.965585533830663
 10
5.653074254736566
 20
-4.965585533830663
 10
5.653074254736566
 20
-4.917563581519465
 10
5.653074254736566
 20
-4.917563581519465
 10
5.603252613026496
 20
-4.911788977569813
 10
5.560220284738735
 20
-4.941483428795941
 10
5.572898643028666
 20
-5.016822852081531
 97
        0
 97
        1
330
DB
 75
     2
 76
     1
 98
        1
 10
0.0
 20
0.0
450
        0
451
        0
460
0.0
461
0.0
452
        0
462
0.0
453
        0
470

  0
SPLINE
  5
DD
330
85
100
AcDbEntity
  8
Deck Box - G5
100
AcDbSpline
210
0.0
220
0.0
230
1.0
 70
     9
 71
     3
 72
    29
 73
    25
 74
     0
 42
0.0000000001
 43
0.0000000001
 40
0.0
 40
0.0
 40
0.0
 40
0.0
 40
1.0
 40
1.0
 40
1.0
 40
2.0
 40
2.0
 40
2.0
 40
3.0
 40
3.0
 40
3.0
 40
4.0
 40
4.0
 40
4.0
 40
5.0
 40
5.0
 40
5.0
 40
6.0
 40
6.0
 40
6.0
 40
7.0
 40
7.0
 40
7.0
 40
8.0
 40
8.0
 40
8.0
 40
8.0
 10
3.668161806277377
 20
-4.766238779544639
 30
0.0
 10
3.669823318864182
 20
-4.767834170712173
 30
0.0
 10
3.671550105159755
 20
-4.769218481964344
 30
0.0
 10
3.673302322770432
 20
-4.770507001929622
 30
0.0
 10
3.69633885570229
 20
-4.765792883819813
 30
0.0
 10
3.718943056277377
 20
-4.762290991729969
 30
0.0
 10
3.74108016836505
 20
-4.759936899661826
 30
0.0
 10
3.74923683882946
 20
-4.746970319800715
 30
0.0
 10
3.745687474951422
 20
-4.730523040612347
 30
0.0
 10
3.71851665789413
 20
-4.719892750898805
 30
0.0
 10
3.698021561051682
 20
-4.721420325226063
 30
0.0
 10
3.724870248117654
 20
-4.70144657034325
 30
0.0
 10
3.732393678835971
 20
-4.715307484785524
 30
0.0
 10
3.753488954714877
 20
-4.73082397784108
 30
0.0
 10
3.758151362483974
 20
-4.7461853398745
 30
0.0
 10
3.753359255007846
 20
-4.75873654158891
 30
0.0
 10
3.757785999256977
 20
-4.758351681020333
 30
0.0
 10
3.762322945871561
 20
-4.757720136695247
 30
0.0
 10
3.766703913753505
 20
-4.757432762834569
 30
0.0
 10
3.787736459055154
 20
-4.755399953047243
 30
0.0
 10
3.807516088232672
 20
-4.758678897274673
 30
0.0
 10
3.82487635163328
 20
-4.766729603926149
 30
0.0
 10
3.852035300743523
 20
-4.663757361358875
 30
0.0
 10
3.60077984148788
 20
-4.568513695451756
 30
0.0
 10
3.668161806277377
 20
-4.766238779544639
 30
0.0
  0
HATCH
  5
DE
330
85
100
AcDbEntity
  8
Deck Box - G5
 62
   250
420
  2301728
440
 33554559
100
AcDbHatch
 10
0.0
 20
0.0
 30
0.0
210
0.0
220
0.0
230
1.0
  2
SOLID
 70
     1
 71
     1
 91
        1
 92
        1
 93
        1
 72
     4
 94
        3
 73
     0
 74
     0
 95
       29
 96
       25
 40
0.0
 40
0.0
 40
0.0
 40
0.0
 40
1.0
 40
1.0
 40
1.0
 40
2.0
 40
2.0
 40
2.0
 40
3.0
 40
3.0
 40
3.0
 40
4.0
 40
4.0
 40
4.0
 40
5.0
 40
5.0
 40
5.0
 40
6.0
 40
6.0
 40
6.0
 40
7.0
 40
7.0
 40
7.0
 40
8.0
 40
8.0
 40
8.0
 40
8.0
 10
3.668161806277377
 20
-4.766238779544639
 10
3.669823318864182
 20
-4.767834170712173
 10
3.671550105159755
 20
-4.769218481964344
 10
3.673302322770432
 20
-4.770507001929622
 10
3.69633885570229
 20
-4.765792883819813
 10
3.718943056277377
 20
-4.762290991729969
 10
3.74108016836505
 20
-4.759936899661826
 10
3.74923683882946
 20
-4.746970319800715
 10
3.745687474951422
 20
-4.730523040612347
 10
3.71851665789413
 20
-4.719892750898805
 10
3.698021561051682
 20
-4.721420325226063
 10
3.724870248117654
 20
-4.70144657034325
 10
3.732393678835971
 20
-4.715307484785524
 10
3.753488954714877
 20
-4.73082397784108
 10
3.758151362483974
 20
-4.7461853398745
 10
3.753359255007846
 20
-4.75873654158891
 10
3.757785999256977
 20
-4.758351681020333
 10
3.762322945871561
 20
-4.757720136695247
 10
3.766703913753505
 20
-4.757432762834569
 10
3.787736459055154
 20
-4.755399953047243
 10
3.807516088232672
 20
-4.758678897274673
 10
3.82487635163328
 20
-4.766729603926149
 10
3.852035300743523
 20
-4.663757361358875
 10
3.60077984148788
 20
-4.568513695451756
 10
3.668161806277377
 20
-4.766238779544639
 97
        0
 97
        1
330
DD
 75
     2
 76
     1
 98
        1
 10
0.0
 20
0.0
450
        0
451
        0
460
0.0
461
0.0
452
        0
462
0.0
453
        0
470

  0
SPLINE
  5
DF
330
85
100
AcDbEntity
  8
Deck Box - G5
100
AcDbSpline
210
0.0
220
0.0
230
1.0
 70
     9
 71
     3
 72
    11
 73
     7
 74
     0
 42
0.0000000001
 43
0.0000000001
 40
0.0
 40
0.0
 40
0.0
 40
0.0
 40
1.0
 40
1.0
 40
1.0
 40
2.0
 40
2.0
 40
2.0
 40
2.0
 10
5.653074254736566
 20
-4.887519873565906
 30
0.0
 10
5.653074254736566
 20
-4.887519873565906
 30
0.0
 10
5.653074254736566
 20
-4.784424712975629
 30
0.0
 10
5.653074254736566
 20
-4.784424712975629
 30
0.0
 10
5.624336020958353
 20
-4.831027597904014
 30
0.0
 10
5.630670961550801
 20
-4.865526024553319
 30
0.0
 10
5.653074254736566
 20
-4.887519873565906
 30
0.0
  0
HATCH
  5
E0
330
85
100
AcDbEntity
  8
Deck Box - G5
 62
   250
420
  2301728
440
 33554559
100
AcDbHatch
 10
0.0
 20
0.0
 30
0.0
210
0.0
220
0.0
230
1.0
  2
SOLID
 70
     1
 71
     1
 91
        1
 92
        1
 93
        1
 72
     4
 94
        3
 73
     0
 74
     0
 95
       11
 96
        7
 40
0.0
 40
0.0
 40
0.0
 40
0.0
 40
1.0
 40
1.0
 40
1.0
 40
2.0
 40
2.0
 40
2.0
 40
2.0
 10
5.653074254736566
 20
-4.887519873565906
 10
5.653074254736566
 20
-4.887519873565906
 10
5.653074254736566
 20
-4.784424712975629
 10
5.653074254736566
 20
-4.784424712975629
 10
5.624336020958353
 20
-4.831027597904014
 10
5.630670961550801
 20
-4.865526024553319
 10
5.653074254736566
 20
-4.887519873565906
 97
        0
 97
        1
330
DF
 75
     2
 76
     1
 98
        1
 10
0.0
 20
0.0
450
        0
451
        0
460
0.0
461
0.0
452
        0
462
0.0
453
        0
470

  0
SPLINE
  5
E1
330
85
100
AcDbEntity
  8
Deck Box - G5
100
AcDbSpline
210
0.0
220
0.0
230
1.0
 70
     9
 71
     3
 72
    17
 73
    13
 74
     0
 42
0.0000000001
 43
0.0000000001
 40
0.0
 40
0.0
 40
0.0
 40
0.0
 40
1.0
 40
1.0
 40
1.0
 40
2.0
 40
2.0
 40
2.0
 40
3.0
 40
3.0
 40
3.0
 40
4.0
 40
4.0
 40
4.0
 40
4.0
 10
5.628248204931878
 20
-5.527142032040298
 30
0.0
 10
5.628248204931878
 20
-5.527142032040298
 30
0.0
 10
5.653074254736566
 20
-5.527142032040298
 30
0.0
 10
5.653074254736566
 20
-5.527142032040298
 30
0.0
 10
5.653074254736566
 20
-5.527142032040298
 30
0.0
 10
5.653074254736566
 20
-5.477215274227798
 30
0.0
 10
5.653074254736566
 20
-5.477215274227798
 30
0.0
 10
5.652978463449673
 20
-5.47724494409542
 30
0.0
 10
5.652891996978319
 20
-5.47726698456851
 30
0.0
 10
5.652796205691426
 20
-5.477296654436131
 30
0.0
 10
5.630795574994812
 20
-5.497555240048111
 30
0.0
 10
5.62492094120575
 20
-5.514176299889691
 30
0.0
 10
5.628248204931878
 20
-5.527142032040298
 30
0.0
  0
HATCH
  5
E2
330
85
100
AcDbEntity
  8
Deck Box - G5
 62
   250
420
  2301728
440
 33554559
100
AcDbHatch
 10
0.0
 20
0.0
 30
0.0
210
0.0
220
0.0
230
1.0
  2
SOLID
 70
     1
 71
     1
 91
        1
 92
        1
 93
        1
 72
     4
 94
        3
 73
     0
 74
     0
 95
       17
 96
       13
 40
0.0
 40
0.0
 40
0.0
 40
0.0
 40
1.0
 40
1.0
 40
1.0
 40
2.0
 40
2.0
 40
2.0
 40
3.0
 40
3.0
 40
3.0
 40
4.0
 40
4.0
 40
4.0
 40
4.0
 10
5.628248204931878
 20
-5.527142032040298
 10
5.628248204931878
 20
-5.527142032040298
 10
5.653074254736566
 20
-5.527142032040298
 10
5.653074254736566
 20
-5.527142032040298
 10
5.653074254736566
 20
-5.527142032040298
 10
5.653074254736566
 20
-5.477215274227798
 10
5.653074254736566
 20
-5.477215274227798
 10
5.652978463449673
 20
-5.47724494409542
 10
5.652891996978319
 20
-5.47726698456851
 10
5.652796205691426
 20
-5.477296654436131
 10
5.630795574994812
 20
-5.497555240048111
 10
5.62492094120575
 20
-5.514176299889691
 10
5.628248204931878
 20
-5.527142032040298
 97
        0
 97
        1
330
E1
 75
     2
 76
     1
 98
        1
 10
0.0
 20
0.0
450
        0
451
        0
460
0.0
461
0.0
452
        0
462
0.0
453
        0
470

  0
SPLINE
  5
E3
330
85
100
AcDbEntity
  8
Deck Box - G5
100
AcDbSpline
210
0.0
220
0.0
230
1.0
 70
     9
 71
     3
 72
    14
 73
    10
 74
     0
 42
0.0000000001
 43
0.0000000001
 40
0.0
 40
0.0
 40
0.0
 40
0.0
 40
1.0
 40
1.0
 40
1.0
 40
2.0
 40
2.0
 40
2.0
 40
3.0
 40
3.0
 40
3.0
 40
3.0
 10
5.649001005767382
 20
-5.027429405900975
 30
0.0
 10
5.650803238297763
 20
-5.027872758494291
 30
0.0
 10
5.652124818972676
 20
-5.028320349640125
 30
0.0
 10
5.653074254736566
 20
-5.028767093075455
 30
0.0
 10
5.653074254736566
 20
-5.028767093075455
 30
0.0
 10
5.653074254736566
 20
-4.978627559926583
 30
0.0
 10
5.653074254736566
 20
-4.978627559926583
 30
0.0
 10
5.632323997032572
 20
-4.974148257626236
 30
0.0
 10
5.619918601524759
 20
-4.986356136586739
 30
0.0
 10
5.649001005767382
 20
-5.027429405900975
 30
0.0
  0
HATCH
  5
E4
330
85
100
AcDbEntity
  8
Deck Box - G5
 62
   250
420
  2301728
440
 33554559
100
AcDbHatch
 10
0.0
 20
0.0
 30
0.0
210
0.0
220
0.0
230
1.0
  2
SOLID
 70
     1
 71
     1
 91
        1
 92
        1
 93
        1
 72
     4
 94
        3
 73
     0
 74
     0
 95
       14
 96
       10
 40
0.0
 40
0.0
 40
0.0
 40
0.0
 40
1.0
 40
1.0
 40
1.0
 40
2.0
 40
2.0
 40
2.0
 40
3.0
 40
3.0
 40
3.0
 40
3.0
 10
5.649001005767382
 20
-5.027429405900975
 10
5.650803238297763
 20
-5.027872758494291
 10
5.652124818972676
 20
-5.028320349640125
 10
5.653074254736566
 20
-5.028767093075455
 10
5.653074254736566
 20
-5.028767093075455
 10
5.653074254736566
 20
-4.978627559926583
 10
5.653074254736566
 20
-4.978627559926583
 10
5.632323997032572
 20
-4.974148257626236
 10
5.619918601524759
 20
-4.986356136586739
 10
5.649001005767382
 20
-5.027429405900975
 97
        0
 97
        1
330
E3
 75
     2
 76
     1
 98
        1
 10
0.0
 20
0.0
450
        0
451
        0
460
0.0
461
0.0
452
        0
462
0.0
453
        0
470

  0
SPLINE
  5
E5
330
85
100
AcDbEntity
  8
Deck Box - G5
100
AcDbSpline
210
0.0
220
0.0
230
1.0
 70
     9
 71
     3
 72
    35
 73
    31
 74
     0
 42
0.0000000001
 43
0.0000000001
 40
0.0
 40
0.0
 40
0.0
 40
0.0
 40
1.0
 40
1.0
 40
1.0
 40
2.0
 40
2.0
 40
2.0
 40
3.0
 40
3.0
 40
3.0
 40
4.0
 40
4.0
 40
4.0
 40
5.0
 40
5.0
 40
5.0
 40
6.0
 40
6.0
 40
6.0
 40
7.0
 40
7.0
 40
7.0
 40
8.0
 40
8.0
 40
8.0
 40
9.0
 40
9.0
 40
9.0
 40
10.0
 40
10.0
 40
10.0
 40
10.0
 10
5.523558500884569
 20
-5.271114810360611
 30
0.0
 10
5.199601693430142
 20
-5.385826995690472
 30
0.0
 10
5.642835607275628
 20
-5.564942291100629
 30
0.0
 10
5.571079456288215
 20
-5.343052371395767
 30
0.0
 10
5.530044333946634
 20
-5.309455061011653
 30
0.0
 10
5.447445965619812
 20
-5.368237850453927
 30
0.0
 10
5.514988995404968
 20
-5.387472401777712
 30
0.0
 10
5.536534405561218
 20
-5.38487925534759
 30
0.0
 10
5.506978978857659
 20
-5.404330820560264
 30
0.0
 10
5.500138802805142
 20
-5.392400990644899
 30
0.0
 10
5.430460390261739
 20
-5.350429148196982
 30
0.0
 10
5.550614877023892
 20
-5.29888326332285
 30
0.0
 10
5.588970386463996
 20
-5.342124128394465
 30
0.0
 10
5.630089432145419
 20
-5.401980119334135
 30
0.0
 10
5.528882122846375
 20
-5.457856109460004
 30
0.0
 10
5.53376154450436
 20
-5.522927215417035
 30
0.0
 10
5.534261693701409
 20
-5.524388668325021
 30
0.0
 10
5.534809314686652
 20
-5.525714487552451
 30
0.0
 10
5.53532133183075
 20
-5.527142032040298
 30
0.0
 10
5.53532133183075
 20
-5.527142032040298
 30
0.0
 10
5.62474292200002
 20
-5.527142032040298
 30
0.0
 10
5.62474292200002
 20
-5.527142032040298
 30
0.0
 10
5.625365141509569
 20
-5.509030697133614
 30
0.0
 10
5.633666770470072
 20
-5.485210879696548
 30
0.0
 10
5.653074254736566
 20
-5.454900990644899
 30
0.0
 10
5.653074254736566
 20
-5.454900990644899
 30
0.0
 10
5.653074254736566
 20
-5.295769622643597
 30
0.0
 10
5.653074254736566
 20
-5.295769622643597
 30
0.0
 10
5.618483427642382
 20
-5.273115407148805
 30
0.0
 10
5.569869773399759
 20
-5.262357960859743
 30
0.0
 10
5.523558500884569
 20
-5.271114810360611
 30
0.0
  0
HATCH
  5
E6
330
85
100
AcDbEntity
  8
Deck Box - G5
 62
   250
420
  2301728
440
 33554559
100
AcDbHatch
 10
0.0
 20
0.0
 30
0.0
210
0.0
220
0.0
230
1.0
  2
SOLID
 70
     1
 71
     1
 91
        1
 92
        1
 93
        1
 72
     4
 94
        3
 73
     0
 74
     0
 95
       35
 96
       31
 40
0.0
 40
0.0
 40
0.0
 40
0.0
 40
1.0
 40
1.0
 40
1.0
 40
2.0
 40
2.0
 40
2.0
 40
3.0
 40
3.0
 40
3.0
 40
4.0
 40
4.0
 40
4.0
 40
5.0
 40
5.0
 40
5.0
 40
6.0
 40
6.0
 40
6.0
 40
7.0
 40
7.0
 40
7.0
 40
8.0
 40
8.0
 40
8.0
 40
9.0
 40
9.0
 40
9.0
 40
10.0
 40
10.0
 40
10.0
 40
10.0
 10
5.523558500884569
 20
-5.271114810360611
 10
5.199601693430142
 20
-5.385826995690472
 10
5.642835607275628
 20
-5.564942291100629
 10
5.571079456288215
 20
-5.343052371395767
 10
5.530044333946634
 20
-5.309455061011653
 10
5.447445965619812
 20
-5.368237850453927
 10
5.514988995404968
 20
-5.387472401777712
 10
5.536534405561218
 20
-5.38487925534759
 10
5.506978978857659
 20
-5.404330820560264
 10
5.500138802805142
 20
-5.392400990644899
 10
5.430460390261739
 20
-5.350429148196982
 10
5.550614877023892
 20
-5.29888326332285
 10
5.588970386463996
 20
-5.342124128394465
 10
5.630089432145419
 20
-5.401980119334135
 10
5.528882122846375
 20
-5.457856109460004
 10
5.53376154450436
 20
-5.522927215417035
 10
5.534261693701409
 20
-5.524388668325021
 10
5.534809314686652
 20
-5.525714487552451
 10
5.53532133183075
 20
-5.527142032040298
 10
5.53532133183075
 20
-5.527142032040298
 10
5.62474292200002
 20
-5.527142032040298
 10
5.62474292200002
 20
-5.527142032040298
 10
5.625365141509569
 20
-5.509030697133614
 10
5.633666770470072
 20
-5.485210879696548
 10
5.653074254736566
 20
-5.454900990644899
 10
5.653074254736566
 20
-5.454900990644899
 10
5.653074254736566
 20
-5.295769622643597
 10
5.653074254736566
 20
-5.295769622643597
 10
5.618483427642382
 20
-5.273115407148805
 10
5.569869773399759
 20
-5.262357960859743
 10
5.523558500884569
 20
-5.271114810360611
 97
        0
 97
        1
330
E5
 75
     2
 76
     1
 98
        1
 10
0.0
 20
0.0
450
        0
451
        0
460
0.0
461
0.0
452
        0
462
0.0
453
        0
470

  0
SPLINE
  5
E7
330
85
100
AcDbEntity
  8
Deck Box - G5
100
AcDbSpline
210
0.0
220
0.0
230
1.0
 70
     9
 71
     3
 72
    14
 73
    10
 74
     0
 42
0.0000000001
 43
0.0000000001
 40
0.0
 40
0.0
 40
0.0
 40
0.0
 40
1.0
 40
1.0
 40
1.0
 40
2.0
 40
2.0
 40
2.0
 40
3.0
 40
3.0
 40
3.0
 40
3.0
 10
5.598399470394118
 20
-4.588888417402712
 30
0.0
 10
5.614570395958353
 20
-4.60450324487667
 30
0.0
 10
5.633325143137173
 20
-4.618733761098458
 30
0.0
 10
5.653074254736566
 20
-4.630073584503406
 30
0.0
 10
5.653074254736566
 20
-4.630073584503406
 30
0.0
 10
5.653074254736566
 20
-4.588888417402712
 30
0.0
 10
5.653074254736566
 20
-4.588888417402712
 30
0.0
 10
5.653074254736566
 20
-4.588888417402712
 30
0.0
 10
5.598399470394118
 20
-4.588888417402712
 30
0.0
 10
5.598399470394118
 20
-4.588888417402712
 30
0.0
  0
HATCH
  5
E8
330
85
100
AcDbEntity
  8
Deck Box - G5
 62
   250
420
  2301728
440
 33554559
100
AcDbHatch
 10
0.0
 20
0.0
 30
0.0
210
0.0
220
0.0
230
1.0
  2
SOLID
 70
     1
 71
     1
 91
        1
 92
        1
 93
        1
 72
     4
 94
        3
 73
     0
 74
     0
 95
       14
 96
       10
 40
0.0
 40
0.0
 40
0.0
 40
0.0
 40
1.0
 40
1.0
 40
1.0
 40
2.0
 40
2.0
 40
2.0
 40
3.0
 40
3.0
 40
3.0
 40
3.0
 10
5.598399470394118
 20
-4.588888417402712
 10
5.614570395958353
 20
-4.60450324487667
 10
5.633325143137173
 20
-4.618733761098458
 10
5.653074254736566
 20
-4.630073584503406
 10
5.653074254736566
 20
-4.630073584503406
 10
5.653074254736566
 20
-4.588888417402712
 10
5.653074254736566
 20
-4.588888417402712
 10
5.653074254736566
 20
-4.588888417402712
 10
5.598399470394118
 20
-4.588888417402712
 10
5.598399470394118
 20
-4.588888417402712
 97
        0
 97
        1
330
E7
 75
     2
 76
     1
 98
        1
 10
0.0
 20
0.0
450
        0
451
        0
460
0.0
461
0.0
452
        0
462
0.0
453
        0
470

  0
SPLINE
  5
E9
330
85
100
AcDbEntity
  8
Deck Box - G5
100
AcDbSpline
210
0.0
220
0.0
230
1.0
 70
     9
 71
     3
 72
    26
 73
    22
 74
     0
 42
0.0000000001
 43
0.0000000001
 40
0.0
 40
0.0
 40
0.0
 40
0.0
 40
1.0
 40
1.0
 40
1.0
 40
2.0
 40
2.0
 40
2.0
 40
3.0
 40
3.0
 40
3.0
 40
4.0
 40
4.0
 40
4.0
 40
5.0
 40
5.0
 40
5.0
 40
6.0
 40
6.0
 40
6.0
 40
7.0
 40
7.0
 40
7.0
 40
7.0
 10
3.16321626320012
 20
-4.604469336456531
 30
0.0
 10
3.164809111236144
 20
-4.59864641300818
 30
0.0
 10
3.165627151871995
 20
-4.593475378937
 30
0.0
 10
3.16580178023571
 20
-4.588888417402712
 30
0.0
 10
3.16580178023571
 20
-4.588888417402712
 30
0.0
 10
3.085109912831196
 20
-4.588888417402712
 30
0.0
 10
3.085109912831196
 20
-4.588888417402712
 30
0.0
 10
3.088475323529981
 20
-4.593975528134048
 30
0.0
 10
3.097277949398037
 20
-4.598535362932225
 30
0.0
 10
3.114125347944043
 20
-4.60142944659108
 30
0.0
 10
3.126262866932759
 20
-4.594211191654014
 30
0.0
 10
3.116557429378505
 20
-4.606906504154014
 30
0.0
 10
3.111669530615484
 20
-4.612151289038997
 30
0.0
 10
3.089253521772168
 20
-4.608688391632313
 30
0.0
 10
3.079762554975293
 20
-4.599433936065906
 30
0.0
 10
3.078374852881109
 20
-4.588888417402712
 30
0.0
 10
3.078374852881109
 20
-4.588888417402712
 30
0.0
 10
3.042917665652377
 20
-4.588888417402712
 30
0.0
 10
3.042917665652377
 20
-4.588888417402712
 30
0.0
 10
3.027172290760884
 20
-4.647463517771635
 30
0.0
 10
3.054199844743088
 20
-4.695771148522504
 30
0.0
 10
3.16321626320012
 20
-4.604469336456531
 30
0.0
  0
HATCH
  5
EA
330
85
100
AcDbEntity
  8
Deck Box - G5
 62
   250
420
  2301728
440
 33554559
100
AcDbHatch
 10
0.0
 20
0.0
 30
0.0
210
0.0
220
0.0
230
1.0
  2
SOLID
 70
     1
 71
     1
 91
        1
 92
        1
 93
        1
 72
     4
 94
        3
 73
     0
 74
     0
 95
       26
 96
       22
 40
0.0
 40
0.0
 40
0.0
 40
0.0
 40
1.0
 40
1.0
 40
1.0
 40
2.0
 40
2.0
 40
2.0
 40
3.0
 40
3.0
 40
3.0
 40
4.0
 40
4.0
 40
4.0
 40
5.0
 40
5.0
 40
5.0
 40
6.0
 40
6.0
 40
6.0
 40
7.0
 40
7.0
 40
7.0
 40
7.0
 10
3.16321626320012
 20
-4.604469336456531
 10
3.164809111236144
 20
-4.59864641300818
 10
3.165627151871995
 20
-4.593475378937
 10
3.16580178023571
 20
-4.588888417402712
 10
3.16580178023571
 20
-4.588888417402712
 10
3.085109912831196
 20
-4.588888417402712
 10
3.085109912831196
 20
-4.588888417402712
 10
3.088475323529981
 20
-4.593975528134048
 10
3.097277949398037
 20
-4.598535362932225
 10
3.114125347944043
 20
-4.60142944659108
 10
3.126262866932759
 20
-4.594211191654014
 10
3.116557429378505
 20
-4.606906504154014
 10
3.111669530615484
 20
-4.612151289038997
 10
3.089253521772168
 20
-4.608688391632313
 10
3.079762554975293
 20
-4.599433936065906
 10
3.078374852881109
 20
-4.588888417402712
 10
3.078374852881109
 20
-4.588888417402712
 10
3.042917665652377
 20
-4.588888417402712
 10
3.042917665652377
 20
-4.588888417402712
 10
3.027172290760884
 20
-4.647463517771635
 10
3.054199844743088
 20
-4.695771148522504
 10
3.16321626320012
 20
-4.604469336456531
 97
        0
 97
        1
330
E9
 75
     2
 76
     1
 98
        1
 10
0.0
 20
0.0
450
        0
451
        0
460
0.0
461
0.0
452
        0
462
0.0
453
        0
470

  0
SPLINE
  5
EB
330
85
100
AcDbEntity
  8
Deck Box - G5
100
AcDbSpline
210
0.0
220
0.0
230
1.0
 70
     9
 71
     3
 72
    17
 73
    13
 74
     0
 42
0.0000000001
 43
0.0000000001
 40
0.0
 40
0.0
 40
0.0
 40
0.0
 40
1.0
 40
1.0
 40
1.0
 40
2.0
 40
2.0
 40
2.0
 40
3.0
 40
3.0
 40
3.0
 40
4.0
 40
4.0
 40
4.0
 40
4.0
 10
2.892839845828158
 20
-4.591367122914864
 30
0.0
 10
2.890935888037359
 20
-4.590299855390993
 30
0.0
 10
2.889039559641092
 20
-4.58966915877641
 30
0.0
 10
2.887138992692307
 20
-4.588888417402712
 30
0.0
 10
2.887138992692307
 20
-4.588888417402712
 30
0.0
 10
2.884821352175814
 20
-4.588888417402712
 30
0.0
 10
2.884821352175814
 20
-4.588888417402712
 30
0.0
 10
2.884821352175814
 20
-4.588888417402712
 30
0.0
 10
2.884821352175814
 20
-4.715978023793771
 30
0.0
 10
2.884821352175814
 20
-4.715978023793771
 30
0.0
 10
2.925233407297342
 20
-4.706660837650107
 30
0.0
 10
2.94587261492538
 20
-4.668647803253406
 30
0.0
 10
2.892839845828158
 20
-4.591367122914864
 30
0.0
  0
HATCH
  5
EC
330
85
100
AcDbEntity
  8
Deck Box - G5
 62
   250
420
  2301728
440
 33554559
100
AcDbHatch
 10
0.0
 20
0.0
 30
0.0
210
0.0
220
0.0
230
1.0
  2
SOLID
 70
     1
 71
     1
 91
        1
 92
        1
 93
        1
 72
     4
 94
        3
 73
     0
 74
     0
 95
       17
 96
       13
 40
0.0
 40
0.0
 40
0.0
 40
0.0
 40
1.0
 40
1.0
 40
1.0
 40
2.0
 40
2.0
 40
2.0
 40
3.0
 40
3.0
 40
3.0
 40
4.0
 40
4.0
 40
4.0
 40
4.0
 10
2.892839845828158
 20
-4.591367122914864
 10
2.890935888037359
 20
-4.590299855390993
 10
2.889039559641092
 20
-4.58966915877641
 10
2.887138992692307
 20
-4.588888417402712
 10
2.887138992692307
 20
-4.588888417402712
 10
2.884821352175814
 20
-4.588888417402712
 10
2.884821352175814
 20
-4.588888417402712
 10
2.884821352175814
 20
-4.588888417402712
 10
2.884821352175814
 20
-4.715978023793771
 10
2.884821352175814
 20
-4.715978023793771
 10
2.925233407297342
 20
-4.706660837650107
 10
2.94587261492538
 20
-4.668647803253406
 10
2.892839845828158
 20
-4.591367122914864
 97
        0
 97
        1
330
EB
 75
     2
 76
     1
 98
        1
 10
0.0
 20
0.0
450
        0
451
        0
460
0.0
461
0.0
452
        0
462
0.0
453
        0
470

  0
SPLINE
  5
ED
330
85
100
AcDbEntity
  8
Deck Box - G5
100
AcDbSpline
210
0.0
220
0.0
230
1.0
 70
     9
 71
     3
 72
    26
 73
    22
 74
     0
 42
0.0000000001
 43
0.0000000001
 40
0.0
 40
0.0
 40
0.0
 40
0.0
 40
1.0
 40
1.0
 40
1.0
 40
2.0
 40
2.0
 40
2.0
 40
3.0
 40
3.0
 40
3.0
 40
4.0
 40
4.0
 40
4.0
 40
5.0
 40
5.0
 40
5.0
 40
6.0
 40
6.0
 40
6.0
 40
7.0
 40
7.0
 40
7.0
 40
7.0
 10
3.169585112212707
 20
-4.667619530412694
 30
0.0
 10
3.187209013579894
 20
-4.72736701440792
 30
0.0
 10
3.283225791466179
 20
-4.73318739472476
 30
0.0
 10
3.336930794992654
 20
-4.691281673696114
 30
0.0
 10
3.382105287722689
 20
-4.6414490117495
 30
0.0
 10
3.385199431060363
 20
-4.608289119985177
 30
0.0
 10
3.369754993397602
 20
-4.588888417402712
 30
0.0
 10
3.369754993397602
 20
-4.588888417402712
 30
0.0
 10
3.249987062625033
 20
-4.588888417402712
 30
0.0
 10
3.249987062625033
 20
-4.588888417402712
 30
0.0
 10
3.245415359879807
 20
-4.59374156003509
 30
0.0
 10
3.242247465728332
 20
-4.599318647437434
 30
0.0
 10
3.241142898942307
 20
-4.605622222741254
 30
0.0
 10
3.238671822824686
 20
-4.599753522925715
 30
0.0
 10
3.236182944786492
 20
-4.594223059601063
 30
0.0
 10
3.233683046511752
 20
-4.588888417402712
 30
0.0
 10
3.233683046511752
 20
-4.588888417402712
 30
0.0
 10
3.168700102447082
 20
-4.588888417402712
 30
0.0
 10
3.168700102447082
 20
-4.588888417402712
 30
0.0
 10
3.172902203412793
 20
-4.607576195451756
 30
0.0
 10
3.173849096045172
 20
-4.633141448815472
 30
0.0
 10
3.169585112212707
 20
-4.667619530412694
 30
0.0
  0
HATCH
  5
EE
330
85
100
AcDbEntity
  8
Deck Box - G5
 62
   250
420
  2301728
440
 33554559
100
AcDbHatch
 10
0.0
 20
0.0
 30
0.0
210
0.0
220
0.0
230
1.0
  2
SOLID
 70
     1
 71
     1
 91
        1
 92
        1
 93
        1
 72
     4
 94
        3
 73
     0
 74
     0
 95
       26
 96
       22
 40
0.0
 40
0.0
 40
0.0
 40
0.0
 40
1.0
 40
1.0
 40
1.0
 40
2.0
 40
2.0
 40
2.0
 40
3.0
 40
3.0
 40
3.0
 40
4.0
 40
4.0
 40
4.0
 40
5.0
 40
5.0
 40
5.0
 40
6.0
 40
6.0
 40
6.0
 40
7.0
 40
7.0
 40
7.0
 40
7.0
 10
3.169585112212707
 20
-4.667619530412694
 10
3.187209013579894
 20
-4.72736701440792
 10
3.283225791466179
 20
-4.73318739472476
 10
3.336930794992654
 20
-4.691281673696114
 10
3.382105287722689
 20
-4.6414490117495
 10
3.385199431060363
 20
-4.608289119985177
 10
3.369754993397602
 20
-4.588888417402712
 10
3.369754993397602
 20
-4.588888417402712
 10
3.249987062625033
 20
-4.588888417402712
 10
3.249987062625033
 20
-4.588888417402712
 10
3.245415359879807
 20
-4.59374156003509
 10
3.242247465728332
 20
-4.599318647437434
 10
3.241142898942307
 20
-4.605622222741254
 10
3.238671822824686
 20
-4.599753522925715
 10
3.236182944786492
 20
-4.594223059601063
 10
3.233683046511752
 20
-4.588888417402712
 10
3.233683046511752
 20
-4.588888417402712
 10
3.168700102447082
 20
-4.588888417402712
 10
3.168700102447082
 20
-4.588888417402712
 10
3.172902203412793
 20
-4.607576195451756
 10
3.173849096045172
 20
-4.633141448815472
 10
3.169585112212707
 20
-4.667619530412694
 97
        0
 97
        1
330
ED
 75
     2
 76
     1
 98
        1
 10
0.0
 20
0.0
450
        0
451
        0
460
0.0
461
0.0
452
        0
462
0.0
453
        0
470

  0
SPLINE
  5
EF
330
85
100
AcDbEntity
  8
Deck Box - G5
100
AcDbSpline
210
0.0
220
0.0
230
1.0
 70
     9
 71
     3
 72
    20
 73
    16
 74
     0
 42
0.0000000001
 43
0.0000000001
 40
0.0
 40
0.0
 40
0.0
 40
0.0
 40
1.0
 40
1.0
 40
1.0
 40
2.0
 40
2.0
 40
2.0
 40
3.0
 40
3.0
 40
3.0
 40
4.0
 40
4.0
 40
4.0
 40
5.0
 40
5.0
 40
5.0
 40
5.0
 10
3.274748686431457
 20
-4.66177626191226
 30
0.0
 10
3.31598980242538
 20
-4.669471777862781
 30
0.0
 10
3.343801488623297
 20
-4.60615119409542
 30
0.0
 10
3.291668988080762
 20
-4.615970224857139
 30
0.0
 10
3.278850757557759
 20
-4.624543968889256
 30
0.0
 10
3.289493762928852
 20
-4.602873097578493
 30
0.0
 10
3.299132231353332
 20
-4.60810177596391
 30
0.0
 10
3.362575733143696
 20
-4.61176897160193
 30
0.0
 10
3.307286358686231
 20
-4.682705386532486
 30
0.0
 10
3.263568232601162
 20
-4.668147654056357
 30
0.0
 10
3.26091405101479
 20
-4.659522199683528
 30
0.0
 10
3.258225961008279
 20
-4.651323991404447
 30
0.0
 10
3.255514982818175
 20
-4.643447913116688
 30
0.0
 10
3.260509693104634
 20
-4.649292029327625
 30
0.0
 10
3.266808182145432
 20
-4.655398088084135
 30
0.0
 10
3.274748686431457
 20
-4.66177626191226
 30
0.0
  0
HATCH
  5
F0
330
85
100
AcDbEntity
  8
Deck Box - G5
 62
   250
420
  2301728
440
 33554559
100
AcDbHatch
 10
0.0
 20
0.0
 30
0.0
210
0.0
220
0.0
230
1.0
  2
SOLID
 70
     1
 71
     1
 91
        1
 92
        1
 93
        1
 72
     4
 94
        3
 73
     0
 74
     0
 95
       20
 96
       16
 40
0.0
 40
0.0
 40
0.0
 40
0.0
 40
1.0
 40
1.0
 40
1.0
 40
2.0
 40
2.0
 40
2.0
 40
3.0
 40
3.0
 40
3.0
 40
4.0
 40
4.0
 40
4.0
 40
5.0
 40
5.0
 40
5.0
 40
5.0
 10
3.274748686431457
 20
-4.66177626191226
 10
3.31598980242538
 20
-4.669471777862781
 10
3.343801488623297
 20
-4.60615119409542
 10
3.291668988080762
 20
-4.615970224857139
 10
3.278850757557759
 20
-4.624543968889256
 10
3.289493762928852
 20
-4.602873097578493
 10
3.299132231353332
 20
-4.60810177596391
 10
3.362575733143696
 20
-4.61176897160193
 10
3.307286358686231
 20
-4.682705386532486
 10
3.263568232601162
 20
-4.668147654056357
 10
3.26091405101479
 20
-4.659522199683528
 10
3.258225961008279
 20
-4.651323991404447
 10
3.255514982818175
 20
-4.643447913116688
 10
3.260509693104634
 20
-4.649292029327625
 10
3.266808182145432
 20
-4.655398088084135
 10
3.274748686431457
 20
-4.66177626191226
 97
        0
 97
        1
330
EF
 75
     2
 76
     1
 98
        1
 10
0.0
 20
0.0
450
        0
451
        0
460
0.0
461
0.0
452
        0
462
0.0
453
        0
470

  0
SPLINE
  5
F1
330
85
100
AcDbEntity
  8
Deck Box - G5
100
AcDbSpline
210
0.0
220
0.0
230
1.0
 70
     9
 71
     3
 72
    26
 73
    22
 74
     0
 42
0.0000000001
 43
0.0000000001
 40
0.0
 40
0.0
 40
0.0
 40
0.0
 40
1.0
 40
1.0
 40
1.0
 40
2.0
 40
2.0
 40
2.0
 40
3.0
 40
3.0
 40
3.0
 40
4.0
 40
4.0
 40
4.0
 40
5.0
 40
5.0
 40
5.0
 40
6.0
 40
6.0
 40
6.0
 40
7.0
 40
7.0
 40
7.0
 40
7.0
 10
2.931217395741353
 20
-4.793371449629274
 30
0.0
 10
3.185328791683193
 20
-5.114177317142295
 30
0.0
 10
3.304433812842047
 20
-4.516177744388389
 30
0.0
 10
3.022582786095085
 20
-4.721839094214778
 30
0.0
 10
2.964951187516526
 20
-4.84587779050384
 30
0.0
 10
3.209270679432759
 20
-4.814471811771201
 30
0.0
 10
3.085426108848992
 20
-4.747375525421375
 30
0.0
 10
3.067827638796908
 20
-4.752519432756444
 30
0.0
 10
3.08368999773788
 20
-4.73845337237233
 30
0.0
 10
3.091390599951422
 20
-4.733022091176583
 30
0.0
 10
3.22958097538545
 20
-4.818515390872764
 30
0.0
 10
2.931892173302117
 20
-4.927697960588475
 30
0.0
 10
3.030656380930154
 20
-4.628310346656184
 30
0.0
 10
3.029528925960537
 20
-4.614053551408788
 30
0.0
 10
3.025450590728332
 20
-4.600958967261653
 30
0.0
 10
3.019508987809495
 20
-4.588888417402712
 30
0.0
 10
3.019508987809495
 20
-4.588888417402712
 30
0.0
 10
2.906628704877637
 20
-4.588888417402712
 30
0.0
 10
2.906628704877637
 20
-4.588888417402712
 30
0.0
 10
2.926308304215745
 20
-4.614501142554622
 30
0.0
 10
2.939287599734408
 20
-4.674335093021201
 30
0.0
 10
2.931217395741353
 20
-4.793371449629274
 30
0.0
  0
HATCH
  5
F2
330
85
100
AcDbEntity
  8
Deck Box - G5
 62
   250
420
  2301728
440
 33554559
100
AcDbHatch
 10
0.0
 20
0.0
 30
0.0
210
0.0
220
0.0
230
1.0
  2
SOLID
 70
     1
 71
     1
 91
        1
 92
        1
 93
        1
 72
     4
 94
        3
 73
     0
 74
     0
 95
       26
 96
       22
 40
0.0
 40
0.0
 40
0.0
 40
0.0
 40
1.0
 40
1.0
 40
1.0
 40
2.0
 40
2.0
 40
2.0
 40
3.0
 40
3.0
 40
3.0
 40
4.0
 40
4.0
 40
4.0
 40
5.0
 40
5.0
 40
5.0
 40
6.0
 40
6.0
 40
6.0
 40
7.0
 40
7.0
 40
7.0
 40
7.0
 10
2.931217395741353
 20
-4.793371449629274
 10
3.185328791683193
 20
-5.114177317142295
 10
3.304433812842047
 20
-4.516177744388389
 10
3.022582786095085
 20
-4.721839094214778
 10
2.964951187516526
 20
-4.84587779050384
 10
3.209270679432759
 20
-4.814471811771201
 10
3.085426108848992
 20
-4.747375525421375
 10
3.067827638796908
 20
-4.752519432756444
 10
3.08368999773788
 20
-4.73845337237233
 10
3.091390599951422
 20
-4.733022091176583
 10
3.22958097538545
 20
-4.818515390872764
 10
2.931892173302117
 20
-4.927697960588475
 10
3.030656380930154
 20
-4.628310346656184
 10
3.029528925960537
 20
-4.614053551408788
 10
3.025450590728332
 20
-4.600958967261653
 10
3.019508987809495
 20
-4.588888417402712
 10
3.019508987809495
 20
-4.588888417402712
 10
2.906628704877637
 20
-4.588888417402712
 10
2.906628704877637
 20
-4.588888417402712
 10
2.926308304215745
 20
-4.614501142554622
 10
2.939287599734408
 20
-4.674335093021201
 10
2.931217395741353
 20
-4.793371449629274
 97
        0
 97
        1
330
F1
 75
     2
 76
     1
 98
        1
 10
0.0
 20
0.0
450
        0
451
        0
460
0.0
461
0.0
452
        0
462
0.0
453
        0
470

  0
SPLINE
  5
F3
330
85
100
AcDbEntity
  8
Deck Box - G5
100
AcDbSpline
210
0.0
220
0.0
230
1.0
 70
     9
 71
     3
 72
    26
 73
    22
 74
     0
 42
0.0000000001
 43
0.0000000001
 40
0.0
 40
0.0
 40
0.0
 40
0.0
 40
1.0
 40
1.0
 40
1.0
 40
2.0
 40
2.0
 40
2.0
 40
3.0
 40
3.0
 40
3.0
 40
4.0
 40
4.0
 40
4.0
 40
5.0
 40
5.0
 40
5.0
 40
6.0
 40
6.0
 40
6.0
 40
7.0
 40
7.0
 40
7.0
 40
7.0
 10
3.574699180138054
 20
-4.797024234188736
 30
0.0
 10
3.582581192399338
 20
-4.794191185686131
 30
0.0
 10
3.590940465674078
 20
-4.791459862443944
 30
0.0
 10
3.59994230351045
 20
-4.788852304935264
 30
0.0
 10
3.619660897531717
 20
-4.782920874542469
 30
0.0
 10
3.639131112375467
 20
-4.778075361304622
 30
0.0
 10
3.658452130170606
 20
-4.773733388105837
 30
0.0
 10
3.655793710031717
 20
-4.771489498403146
 30
0.0
 10
3.653284486941439
 20
-4.768991295549413
 30
0.0
 10
3.651027033870693
 20
-4.766129424889691
 30
0.0
 10
3.621107091650641
 20
-4.70977193519785
 30
0.0
 10
3.672196908273904
 20
-4.648866478654881
 30
0.0
 10
3.686384191260016
 20
-4.588888417402712
 30
0.0
 10
3.686384191260016
 20
-4.588888417402712
 30
0.0
 10
3.598044279693175
 20
-4.588888417402712
 30
0.0
 10
3.598044279693175
 20
-4.588888417402712
 30
0.0
 10
3.59139738163545
 20
-4.617068857669639
 30
0.0
 10
3.574949254736578
 20
-4.652287838246896
 30
0.0
 10
3.543588204660623
 20
-4.695861005835872
 30
0.0
 10
3.535121272151943
 20
-4.733618879371028
 30
0.0
 10
3.549125449669304
 20
-4.769283755673111
 30
0.0
 10
3.574699180138054
 20
-4.797024234188736
 30
0.0
  0
HATCH
  5
F4
330
85
100
AcDbEntity
  8
Deck Box - G5
 62
   250
420
  2301728
440
 33554559
100
AcDbHatch
 10
0.0
 20
0.0
 30
0.0
210
0.0
220
0.0
230
1.0
  2
SOLID
 70
     1
 71
     1
 91
        1
 92
        1
 93
        1
 72
     4
 94
        3
 73
     0
 74
     0
 95
       26
 96
       22
 40
0.0
 40
0.0
 40
0.0
 40
0.0
 40
1.0
 40
1.0
 40
1.0
 40
2.0
 40
2.0
 40
2.0
 40
3.0
 40
3.0
 40
3.0
 40
4.0
 40
4.0
 40
4.0
 40
5.0
 40
5.0
 40
5.0
 40
6.0
 40
6.0
 40
6.0
 40
7.0
 40
7.0
 40
7.0
 40
7.0
 10
3.574699180138054
 20
-4.797024234188736
 10
3.582581192399338
 20
-4.794191185686131
 10
3.590940465674078
 20
-4.791459862443944
 10
3.59994230351045
 20
-4.788852304935264
 10
3.619660897531717
 20
-4.782920874542469
 10
3.639131112375467
 20
-4.778075361304622
 10
3.658452130170606
 20
-4.773733388105837
 10
3.655793710031717
 20
-4.771489498403146
 10
3.653284486941439
 20
-4.768991295549413
 10
3.651027033870693
 20
-4.766129424889691
 10
3.621107091650641
 20
-4.70977193519785
 10
3.672196908273904
 20
-4.648866478654881
 10
3.686384191260016
 20
-4.588888417402712
 10
3.686384191260016
 20
-4.588888417402712
 10
3.598044279693175
 20
-4.588888417402712
 10
3.598044279693175
 20
-4.588888417402712
 10
3.59139738163545
 20
-4.617068857669639
 10
3.574949254736578
 20
-4.652287838246896
 10
3.543588204660623
 20
-4.695861005835872
 10
3.535121272151943
 20
-4.733618879371028
 10
3.549125449669304
 20
-4.769283755673111
 10
3.574699180138054
 20
-4.797024234188736
 97
        0
 97
        1
330
F3
 75
     2
 76
     1
 98
        1
 10
0.0
 20
0.0
450
        0
451
        0
460
0.0
461
0.0
452
        0
462
0.0
453
        0
470

  0
SPLINE
  5
F5
330
85
100
AcDbEntity
  8
Deck Box - G5
100
AcDbSpline
210
0.0
220
0.0
230
1.0
 70
     9
 71
     3
 72
    29
 73
    25
 74
     0
 42
0.0000000001
 43
0.0000000001
 40
0.0
 40
0.0
 40
0.0
 40
0.0
 40
1.0
 40
1.0
 40
1.0
 40
2.0
 40
2.0
 40
2.0
 40
3.0
 40
3.0
 40
3.0
 40
4.0
 40
4.0
 40
4.0
 40
5.0
 40
5.0
 40
5.0
 40
6.0
 40
6.0
 40
6.0
 40
7.0
 40
7.0
 40
7.0
 40
8.0
 40
8.0
 40
8.0
 40
8.0
 10
3.447666370350727
 20
-4.746571895864083
 30
0.0
 10
3.422182497195346
 20
-4.702557071102798
 30
0.0
 10
3.352345562787793
 20
-4.739537594106271
 30
0.0
 10
3.399580839751769
 20
-4.77615614472476
 30
0.0
 10
3.415928936811231
 20
-4.77916636472259
 30
0.0
 10
3.391171551557325
 20
-4.79082662269785
 30
0.0
 10
3.387835810726162
 20
-4.777192046960004
 30
0.0
 10
3.330903573312967
 20
-4.703744713518163
 30
0.0
 10
3.534840679975293
 20
-4.66700070174516
 30
0.0
 10
3.426115026220953
 20
-4.863566965579795
 30
0.0
 10
3.444794327164963
 20
-4.866516998131879
 30
0.0
 10
3.462494522477463
 20
-4.873114728980403
 30
0.0
 10
3.47880955882729
 20
-4.883257585154447
 30
0.0
 10
3.485538684803852
 20
-4.861607906606271
 30
0.0
 10
3.496808995947516
 20
-4.843789879533788
 30
0.0
 10
3.512709501861144
 20
-4.830207014136653
 30
0.0
 10
3.518657038753505
 20
-4.825130923641861
 30
0.0
 10
3.525612503434495
 20
-4.820360856638822
 30
0.0
 10
3.533395333566873
 20
-4.815812889787694
 30
0.0
 10
3.555968168853332
 20
-4.765106238312
 30
0.0
 10
3.547931025569912
 20
-4.712907616350194
 30
0.0
 10
3.423000537831196
 20
-4.66278927596391
 30
0.0
 10
3.166085763254373
 20
-4.692754994551149
 30
0.0
 10
3.468296253163227
 20
-4.985599131107139
 30
0.0
 10
3.447666370350727
 20
-4.746571895864083
 30
0.0
  0
HATCH
  5
F6
330
85
100
AcDbEntity
  8
Deck Box - G5
 62
   250
420
  2301728
440
 33554559
100
AcDbHatch
 10
0.0
 20
0.0
 30
0.0
210
0.0
220
0.0
230
1.0
  2
SOLID
 70
     1
 71
     1
 91
        1
 92
        1
 93
        1
 72
     4
 94
        3
 73
     0
 74
     0
 95
       29
 96
       25
 40
0.0
 40
0.0
 40
0.0
 40
0.0
 40
1.0
 40
1.0
 40
1.0
 40
2.0
 40
2.0
 40
2.0
 40
3.0
 40
3.0
 40
3.0
 40
4.0
 40
4.0
 40
4.0
 40
5.0
 40
5.0
 40
5.0
 40
6.0
 40
6.0
 40
6.0
 40
7.0
 40
7.0
 40
7.0
 40
8.0
 40
8.0
 40
8.0
 40
8.0
 10
3.447666370350727
 20
-4.746571895864083
 10
3.422182497195346
 20
-4.702557071102798
 10
3.352345562787793
 20
-4.739537594106271
 10
3.399580839751769
 20
-4.77615614472476
 10
3.415928936811231
 20
-4.77916636472259
 10
3.391171551557325
 20
-4.79082662269785
 10
3.387835810726162
 20
-4.777192046960004
 10
3.330903573312967
 20
-4.703744713518163
 10
3.534840679975293
 20
-4.66700070174516
 10
3.426115026220953
 20
-4.863566965579795
 10
3.444794327164963
 20
-4.866516998131879
 10
3.462494522477463
 20
-4.873114728980403
 10
3.47880955882729
 20
-4.883257585154447
 10
3.485538684803852
 20
-4.861607906606271
 10
3.496808995947516
 20
-4.843789879533788
 10
3.512709501861144
 20
-4.830207014136653
 10
3.518657038753505
 20
-4.825130923641861
 10
3.525612503434495
 20
-4.820360856638822
 10
3.533395333566873
 20
-4.815812889787694
 10
3.555968168853332
 20
-4.765106238312
 10
3.547931025569912
 20
-4.712907616350194
 10
3.423000537831196
 20
-4.66278927596391
 10
3.166085763254373
 20
-4.692754994551149
 10
3.468296253163227
 20
-4.985599131107139
 10
3.447666370350727
 20
-4.746571895864083
 97
        0
 97
        1
330
F5
 75
     2
 76
     1
 98
        1
 10
0.0
 20
0.0
450
        0
451
        0
460
0.0
461
0.0
452
        0
462
0.0
453
        0
470

  0
SPLINE
  5
F7
330
85
100
AcDbEntity
  8
Deck Box - G5
100
AcDbSpline
210
0.0
220
0.0
230
1.0
 70
     9
 71
     3
 72
    14
 73
    10
 74
     0
 42
0.0000000001
 43
0.0000000001
 40
0.0
 40
0.0
 40
0.0
 40
0.0
 40
1.0
 40
1.0
 40
1.0
 40
2.0
 40
2.0
 40
2.0
 40
3.0
 40
3.0
 40
3.0
 40
3.0
 10
3.578945362049946
 20
-4.609970977624066
 30
0.0
 10
3.585718568972689
 20
-4.602558596981705
 30
0.0
 10
3.590488635975727
 20
-4.595554812802017
 30
0.0
 10
3.593898975331196
 20
-4.588888417402712
 30
0.0
 10
3.593898975331196
 20
-4.588888417402712
 30
0.0
 10
3.434709963015658
 20
-4.588888417402712
 30
0.0
 10
3.434709963015658
 20
-4.588888417402712
 30
0.0
 10
3.449850072607672
 20
-4.631037431345854
 30
0.0
 10
3.496202035227029
 20
-4.654501210371462
 30
0.0
 10
3.578945362049946
 20
-4.609970977624066
 30
0.0
  0
HATCH
  5
F8
330
85
100
AcDbEntity
  8
Deck Box - G5
 62
   250
420
  2301728
440
 33554559
100
AcDbHatch
 10
0.0
 20
0.0
 30
0.0
210
0.0
220
0.0
230
1.0
  2
SOLID
 70
     1
 71
     1
 91
        1
 92
        1
 93
        1
 72
     4
 94
        3
 73
     0
 74
     0
 95
       14
 96
       10
 40
0.0
 40
0.0
 40
0.0
 40
0.0
 40
1.0
 40
1.0
 40
1.0
 40
2.0
 40
2.0
 40
2.0
 40
3.0
 40
3.0
 40
3.0
 40
3.0
 10
3.578945362049946
 20
-4.609970977624066
 10
3.585718568972689
 20
-4.602558596981705
 10
3.590488635975727
 20
-4.595554812802017
 10
3.593898975331196
 20
-4.588888417402712
 10
3.593898975331196
 20
-4.588888417402712
 10
3.434709963015658
 20
-4.588888417402712
 10
3.434709963015658
 20
-4.588888417402712
 10
3.449850072607672
 20
-4.631037431345854
 10
3.496202035227029
 20
-4.654501210371462
 10
3.578945362049946
 20
-4.609970977624066
 97
        0
 97
        1
330
F7
 75
     2
 76
     1
 98
        1
 10
0.0
 20
0.0
450
        0
451
        0
460
0.0
461
0.0
452
        0
462
0.0
453
        0
470

  0
SPLINE
  5
F9
330
85
100
AcDbEntity
  8
Deck Box - G5
100
AcDbSpline
210
0.0
220
0.0
230
1.0
 70
     9
 71
     3
 72
    56
 73
    52
 74
     0
 42
0.0000000001
 43
0.0000000001
 40
0.0
 40
0.0
 40
0.0
 40
0.0
 40
1.0
 40
1.0
 40
1.0
 40
2.0
 40
2.0
 40
2.0
 40
3.0
 40
3.0
 40
3.0
 40
4.0
 40
4.0
 40
4.0
 40
5.0
 40
5.0
 40
5.0
 40
6.0
 40
6.0
 40
6.0
 40
7.0
 40
7.0
 40
7.0
 40
8.0
 40
8.0
 40
8.0
 40
9.0
 40
9.0
 40
9.0
 40
10.0
 40
10.0
 40
10.0
 40
11.0
 40
11.0
 40
11.0
 40
12.0
 40
12.0
 40
12.0
 40
13.0
 40
13.0
 40
13.0
 40
14.0
 40
14.0
 40
14.0
 40
15.0
 40
15.0
 40
15.0
 40
16.0
 40
16.0
 40
16.0
 40
17.0
 40
17.0
 40
17.0
 40
17.0
 10
2.963541444949252
 20
-5.170950184980837
 30
0.0
 10
3.034164206993523
 20
-5.139136457496028
 30
0.0
 10
3.025390403282585
 20
-5.075809092044639
 30
0.0
 10
2.955363581722255
 20
-5.057167938073285
 30
0.0
 10
2.999247011355502
 20
-5.063801272762955
 30
0.0
 10
3.052597671891526
 20
-5.085506900204361
 30
0.0
 10
3.098259598161057
 20
-5.087883880456097
 30
0.0
 10
3.104457209651943
 20
-5.064287010881444
 30
0.0
 10
3.114460193592915
 20
-5.040876637617555
 30
0.0
 10
3.128493193267394
 20
-5.017876556237347
 30
0.0
 10
3.144215679975293
 20
-4.992107852352798
 30
0.0
 10
3.163652834109408
 20
-4.968596601538997
 30
0.0
 10
3.186414708838141
 20
-4.947505564212607
 30
0.0
 10
3.065584596804721
 20
-4.787090762509048
 30
0.0
 10
2.897486994808193
 20
-5.067286210642729
 30
0.0
 10
3.123339961116787
 20
-5.003435807810697
 30
0.0
 10
3.158746285715311
 20
-4.973872751712607
 30
0.0
 10
3.096739653228332
 20
-4.925553253014691
 30
0.0
 10
3.076486153879373
 20
-4.971021053578927
 30
0.0
 10
3.079227649647603
 20
-4.984753116024673
 30
0.0
 10
3.058708816911057
 20
-4.967322492652278
 30
0.0
 10
3.071288840782585
 20
-4.961819156063736
 30
0.0
 10
3.129583348974859
 20
-4.896013085100194
 30
0.0
 10
3.252822654259148
 20
-5.083576663387955
 30
0.0
 10
2.933646934044304
 20
-4.995190127743423
 30
0.0
 10
2.914715863080762
 20
-4.997473859839778
 30
0.0
 10
2.898544937516526
 20
-5.002219343238215
 30
0.0
 10
2.884821352175814
 20
-5.008634816328493
 30
0.0
 10
2.884821352175814
 20
-5.008634816328493
 30
0.0
 10
2.884821352175814
 20
-5.074976640330229
 30
0.0
 10
2.884821352175814
 20
-5.074976640330229
 30
0.0
 10
2.885518170209668
 20
-5.074173010772938
 30
0.0
 10
2.88595813196097
 20
-5.073357513268597
 30
0.0
 10
2.886755827544738
 20
-5.07255981768483
 30
0.0
 10
2.899360435020867
 20
-5.058464935143597
 30
0.0
 10
2.917457358848992
 20
-5.054342518965212
 30
0.0
 10
2.938665380224859
 20
-5.055420806725629
 30
0.0
 10
2.87755477774005
 20
-5.057904598500802
 30
0.0
 10
2.877925227230068
 20
-5.165753719594552
 30
0.0
 10
2.947362042279981
 20
-5.10599012909976
 30
0.0
 10
2.945893807687967
 20
-5.093360938019031
 30
0.0
 10
2.955747594580328
 20
-5.106327517880142
 30
0.0
 10
2.959266440880242
 20
-5.112367455217381
 30
0.0
 10
2.942424128597255
 20
-5.142054277048979
 30
0.0
 10
2.902166356787359
 20
-5.133877261532486
 30
0.0
 10
2.884821352175814
 20
-5.113945044464344
 30
0.0
 10
2.884821352175814
 20
-5.113945044464344
 30
0.0
 10
2.884821352175814
 20
-5.169284433841514
 30
0.0
 10
2.884821352175814
 20
-5.169284433841514
 30
0.0
 10
2.905825923030849
 20
-5.176709530141427
 30
0.0
 10
2.932177004031283
 20
-5.178356631649673
 30
0.0
 10
2.963541444949252
 20
-5.170950184980837
 30
0.0
  0
HATCH
  5
FA
330
85
100
AcDbEntity
  8
Deck Box - G5
 62
   250
420
  2301728
440
 33554559
100
AcDbHatch
 10
0.0
 20
0.0
 30
0.0
210
0.0
220
0.0
230
1.0
  2
SOLID
 70
     1
 71
     1
 91
        1
 92
        1
 93
        1
 72
     4
 94
        3
 73
     0
 74
     0
 95
       56
 96
       52
 40
0.0
 40
0.0
 40
0.0
 40
0.0
 40
1.0
 40
1.0
 40
1.0
 40
2.0
 40
2.0
 40
2.0
 40
3.0
 40
3.0
 40
3.0
 40
4.0
 40
4.0
 40
4.0
 40
5.0
 40
5.0
 40
5.0
 40
6.0
 40
6.0
 40
6.0
 40
7.0
 40
7.0
 40
7.0
 40
8.0
 40
8.0
 40
8.0
 40
9.0
 40
9.0
 40
9.0
 40
10.0
 40
10.0
 40
10.0
 40
11.0
 40
11.0
 40
11.0
 40
12.0
 40
12.0
 40
12.0
 40
13.0
 40
13.0
 40
13.0
 40
14.0
 40
14.0
 40
14.0
 40
15.0
 40
15.0
 40
15.0
 40
16.0
 40
16.0
 40
16.0
 40
17.0
 40
17.0
 40
17.0
 40
17.0
 10
2.963541444949252
 20
-5.170950184980837
 10
3.034164206993523
 20
-5.139136457496028
 10
3.025390403282585
 20
-5.075809092044639
 10
2.955363581722255
 20
-5.057167938073285
 10
2.999247011355502
 20
-5.063801272762955
 10
3.052597671891526
 20
-5.085506900204361
 10
3.098259598161057
 20
-5.087883880456097
 10
3.104457209651943
 20
-5.064287010881444
 10
3.114460193592915
 20
-5.040876637617555
 10
3.128493193267394
 20
-5.017876556237347
 10
3.144215679975293
 20
-4.992107852352798
 10
3.163652834109408
 20
-4.968596601538997
 10
3.186414708838141
 20
-4.947505564212607
 10
3.065584596804721
 20
-4.787090762509048
 10
2.897486994808193
 20
-5.067286210642729
 10
3.123339961116787
 20
-5.003435807810697
 10
3.158746285715311
 20
-4.973872751712607
 10
3.096739653228332
 20
-4.925553253014691
 10
3.076486153879373
 20
-4.971021053578927
 10
3.079227649647603
 20
-4.984753116024673
 10
3.058708816911057
 20
-4.967322492652278
 10
3.071288840782585
 20
-4.961819156063736
 10
3.129583348974859
 20
-4.896013085100194
 10
3.252822654259148
 20
-5.083576663387955
 10
2.933646934044304
 20
-4.995190127743423
 10
2.914715863080762
 20
-4.997473859839778
 10
2.898544937516526
 20
-5.002219343238215
 10
2.884821352175814
 20
-5.008634816328493
 10
2.884821352175814
 20
-5.008634816328493
 10
2.884821352175814
 20
-5.074976640330229
 10
2.884821352175814
 20
-5.074976640330229
 10
2.885518170209668
 20
-5.074173010772938
 10
2.88595813196097
 20
-5.073357513268597
 10
2.886755827544738
 20
-5.07255981768483
 10
2.899360435020867
 20
-5.058464935143597
 10
2.917457358848992
 20
-5.054342518965212
 10
2.938665380224859
 20
-5.055420806725629
 10
2.87755477774005
 20
-5.057904598500802
 10
2.877925227230068
 20
-5.165753719594552
 10
2.947362042279981
 20
-5.10599012909976
 10
2.945893807687967
 20
-5.093360938019031
 10
2.955747594580328
 20
-5.106327517880142
 10
2.959266440880242
 20
-5.112367455217381
 10
2.942424128597255
 20
-5.142054277048979
 10
2.902166356787359
 20
-5.133877261532486
 10
2.884821352175814
 20
-5.113945044464344
 10
2.884821352175814
 20
-5.113945044464344
 10
2.884821352175814
 20
-5.169284433841514
 10
2.884821352175814
 20
-5.169284433841514
 10
2.905825923030849
 20
-5.176709530141427
 10
2.932177004031283
 20
-5.178356631649673
 10
2.963541444949252
 20
-5.170950184980837
 97
        0
 97
        1
330
F9
 75
     2
 76
     1
 98
        1
 10
0.0
 20
0.0
450
        0
451
        0
460
0.0
461
0.0
452
        0
462
0.0
453
        0
470

  0
SPLINE
  5
FB
330
85
100
AcDbEntity
  8
Deck Box - G5
100
AcDbSpline
210
0.0
220
0.0
230
1.0
 70
     9
 71
     3
 72
    41
 73
    37
 74
     0
 42
0.0000000001
 43
0.0000000001
 40
0.0
 40
0.0
 40
0.0
 40
0.0
 40
1.0
 40
1.0
 40
1.0
 40
2.0
 40
2.0
 40
2.0
 40
3.0
 40
3.0
 40
3.0
 40
4.0
 40
4.0
 40
4.0
 40
5.0
 40
5.0
 40
5.0
 40
6.0
 40
6.0
 40
6.0
 40
7.0
 40
7.0
 40
7.0
 40
8.0
 40
8.0
 40
8.0
 40
9.0
 40
9.0
 40
9.0
 40
10.0
 40
10.0
 40
10.0
 40
11.0
 40
11.0
 40
11.0
 40
12.0
 40
12.0
 40
12.0
 40
12.0
 10
3.297651281103766
 20
-5.475127363257747
 30
0.0
 10
3.322563797379807
 20
-5.456782060252104
 30
0.0
 10
3.327672948584234
 20
-5.418677473121028
 30
0.0
 10
3.321167618180588
 20
-5.37761352862233
 30
0.0
 10
3.305829992041266
 20
-5.377120161109309
 30
0.0
 10
3.290764480973557
 20
-5.375429826365385
 30
0.0
 10
3.276057551448818
 20
-5.372375525421375
 30
0.0
 10
3.266332616552984
 20
-5.421359629154014
 30
0.0
 10
3.207213286040832
 20
-5.453715891361045
 30
0.0
 10
3.101953920535189
 20
-5.28997213051035
 30
0.0
 10
3.028151396392394
 20
-5.231798844920072
 30
0.0
 10
2.935719586225293
 20
-5.298458560360611
 30
0.0
 10
2.927762975439703
 20
-5.389933305369291
 30
0.0
 10
2.933691862700988
 20
-5.465258317576322
 30
0.0
 10
2.953547785823818
 20
-5.507367489125802
 30
0.0
 10
2.977961848323818
 20
-5.527142032040298
 30
0.0
 10
2.977961848323818
 20
-5.527142032040298
 30
0.0
 10
3.060242325211838
 20
-5.527142032040298
 30
0.0
 10
3.060242325211838
 20
-5.527142032040298
 30
0.0
 10
3.095627457047776
 20
-5.503617217858441
 30
0.0
 10
3.118805557633713
 20
-5.455657148413997
 30
0.0
 10
3.097784032568609
 20
-5.419929541534656
 30
0.0
 10
3.170999941043002
 20
-5.467792124271201
 30
0.0
 10
3.22284761085637
 20
-5.48662740394785
 30
0.0
 10
3.258241219797342
 20
-5.486564673370594
 30
0.0
 10
3.231247574235276
 20
-5.497289906660524
 30
0.0
 10
3.215282642323384
 20
-5.511492448435697
 30
0.0
 10
3.20710054054387
 20
-5.527142032040298
 30
0.0
 10
3.20710054054387
 20
-5.527142032040298
 30
0.0
 10
3.416779190446213
 20
-5.527142032040298
 30
0.0
 10
3.416779190446213
 20
-5.527142032040298
 30
0.0
 10
3.387170357980936
 20
-5.495987823327191
 30
0.0
 10
3.345936871381543
 20
-5.474322885989951
 30
0.0
 10
3.306254695003505
 20
-5.473405663225194
 30
0.0
 10
3.303279231136318
 20
-5.473940568552885
 30
0.0
 10
3.300482634185363
 20
-5.47453989987884
 30
0.0
 10
3.297651281103766
 20
-5.475127363257747
 30
0.0
  0
HATCH
  5
FC
330
85
100
AcDbEntity
  8
Deck Box - G5
 62
   250
420
  2301728
440
 33554559
100
AcDbHatch
 10
0.0
 20
0.0
 30
0.0
210
0.0
220
0.0
230
1.0
  2
SOLID
 70
     1
 71
     1
 91
        1
 92
        1
 93
        1
 72
     4
 94
        3
 73
     0
 74
     0
 95
       41
 96
       37
 40
0.0
 40
0.0
 40
0.0
 40
0.0
 40
1.0
 40
1.0
 40
1.0
 40
2.0
 40
2.0
 40
2.0
 40
3.0
 40
3.0
 40
3.0
 40
4.0
 40
4.0
 40
4.0
 40
5.0
 40
5.0
 40
5.0
 40
6.0
 40
6.0
 40
6.0
 40
7.0
 40
7.0
 40
7.0
 40
8.0
 40
8.0
 40
8.0
 40
9.0
 40
9.0
 40
9.0
 40
10.0
 40
10.0
 40
10.0
 40
11.0
 40
11.0
 40
11.0
 40
12.0
 40
12.0
 40
12.0
 40
12.0
 10
3.297651281103766
 20
-5.475127363257747
 10
3.322563797379807
 20
-5.456782060252104
 10
3.327672948584234
 20
-5.418677473121028
 10
3.321167618180588
 20
-5.37761352862233
 10
3.305829992041266
 20
-5.377120161109309
 10
3.290764480973557
 20
-5.375429826365385
 10
3.276057551448818
 20
-5.372375525421375
 10
3.266332616552984
 20
-5.421359629154014
 10
3.207213286040832
 20
-5.453715891361045
 10
3.101953920535189
 20
-5.28997213051035
 10
3.028151396392394
 20
-5.231798844920072
 10
2.935719586225293
 20
-5.298458560360611
 10
2.927762975439703
 20
-5.389933305369291
 10
2.933691862700988
 20
-5.465258317576322
 10
2.953547785823818
 20
-5.507367489125802
 10
2.977961848323818
 20
-5.527142032040298
 10
2.977961848323818
 20
-5.527142032040298
 10
3.060242325211838
 20
-5.527142032040298
 10
3.060242325211838
 20
-5.527142032040298
 10
3.095627457047776
 20
-5.503617217858441
 10
3.118805557633713
 20
-5.455657148413997
 10
3.097784032568609
 20
-5.419929541534656
 10
3.170999941043002
 20
-5.467792124271201
 10
3.22284761085637
 20
-5.48662740394785
 10
3.258241219797342
 20
-5.486564673370594
 10
3.231247574235276
 20
-5.497289906660524
 10
3.215282642323384
 20
-5.511492448435697
 10
3.20710054054387
 20
-5.527142032040298
 10
3.20710054054387
 20
-5.527142032040298
 10
3.416779190446213
 20
-5.527142032040298
 10
3.416779190446213
 20
-5.527142032040298
 10
3.387170357980936
 20
-5.495987823327191
 10
3.345936871381543
 20
-5.474322885989951
 10
3.306254695003505
 20
-5.473405663225194
 10
3.303279231136318
 20
-5.473940568552885
 10
3.300482634185363
 20
-5.47453989987884
 10
3.297651281103766
 20
-5.475127363257747
 97
        0
 97
        1
330
FB
 75
     2
 76
     1
 98
        1
 10
0.0
 20
0.0
450
        0
451
        0
460
0.0
461
0.0
452
        0
462
0.0
453
        0
470

  0
SPLINE
  5
FD
330
85
100
AcDbEntity
  8
Deck Box - G5
100
AcDbSpline
210
0.0
220
0.0
230
1.0
 70
     9
 71
     3
 72
    20
 73
    16
 74
     0
 42
0.0000000001
 43
0.0000000001
 40
0.0
 40
0.0
 40
0.0
 40
0.0
 40
1.0
 40
1.0
 40
1.0
 40
2.0
 40
2.0
 40
2.0
 40
3.0
 40
3.0
 40
3.0
 40
4.0
 40
4.0
 40
4.0
 40
5.0
 40
5.0
 40
5.0
 40
5.0
 10
3.042500592084668
 20
-5.460749345408354
 30
0.0
 10
2.981598526383713
 20
-5.505010006215646
 30
0.0
 10
2.962866667388488
 20
-5.377486372046809
 30
0.0
 10
3.016489442996127
 20
-5.361430735111045
 30
0.0
 10
3.027062936105936
 20
-5.369652679284222
 30
0.0
 10
3.037264284304721
 20
-5.377351586076756
 30
0.0
 10
3.047183344905849
 20
-5.38465715519568
 30
0.0
 10
3.037146452544738
 20
-5.381565554989517
 30
0.0
 10
3.025648954986144
 20
-5.379175859080229
 30
0.0
 10
3.012551827707498
 20
-5.377642350779447
 30
0.0
 10
2.967817296728766
 20
-5.400039709991688
 30
0.0
 10
3.004011144385016
 20
-5.497350941816774
 30
0.0
 10
3.041625754845085
 20
-5.445583804501236
 30
0.0
 10
3.044907242204026
 20
-5.425464243411826
 30
0.0
 10
3.056277583187099
 20
-5.459631215254274
 30
0.0
 10
3.042500592084668
 20
-5.460749345408354
 30
0.0
  0
HATCH
  5
FE
330
85
100
AcDbEntity
  8
Deck Box - G5
 62
   250
420
  2301728
440
 33554559
100
AcDbHatch
 10
0.0
 20
0.0
 30
0.0
210
0.0
220
0.0
230
1.0
  2
SOLID
 70
     1
 71
     1
 91
        1
 92
        1
 93
        1
 72
     4
 94
        3
 73
     0
 74
     0
 95
       20
 96
       16
 40
0.0
 40
0.0
 40
0.0
 40
0.0
 40
1.0
 40
1.0
 40
1.0
 40
2.0
 40
2.0
 40
2.0
 40
3.0
 40
3.0
 40
3.0
 40
4.0
 40
4.0
 40
4.0
 40
5.0
 40
5.0
 40
5.0
 40
5.0
 10
3.042500592084668
 20
-5.460749345408354
 10
2.981598526383713
 20
-5.505010006215646
 10
2.962866667388488
 20
-5.377486372046809
 10
3.016489442996127
 20
-5.361430735111045
 10
3.027062936105936
 20
-5.369652679284222
 10
3.037264284304721
 20
-5.377351586076756
 10
3.047183344905849
 20
-5.38465715519568
 10
3.037146452544738
 20
-5.381565554989517
 10
3.025648954986144
 20
-5.379175859080229
 10
3.012551827707498
 20
-5.377642350779447
 10
2.967817296728766
 20
-5.400039709991688
 10
3.004011144385016
 20
-5.497350941816774
 10
3.041625754845085
 20
-5.445583804501236
 10
3.044907242204026
 20
-5.425464243411826
 10
3.056277583187099
 20
-5.459631215254274
 10
3.042500592084668
 20
-5.460749345408354
 97
        0
 97
        1
330
FD
 75
     2
 76
     1
 98
        1
 10
0.0
 20
0.0
450
        0
451
        0
460
0.0
461
0.0
452
        0
462
0.0
453
        0
470

  0
SPLINE
  5
FF
330
85
100
AcDbEntity
  8
Deck Box - G5
100
AcDbSpline
210
0.0
220
0.0
230
1.0
 70
     9
 71
     3
 72
    38
 73
    34
 74
     0
 42
0.0000000001
 43
0.0000000001
 40
0.0
 40
0.0
 40
0.0
 40
0.0
 40
1.0
 40
1.0
 40
1.0
 40
2.0
 40
2.0
 40
2.0
 40
3.0
 40
3.0
 40
3.0
 40
4.0
 40
4.0
 40
4.0
 40
5.0
 40
5.0
 40
5.0
 40
6.0
 40
6.0
 40
6.0
 40
7.0
 40
7.0
 40
7.0
 40
8.0
 40
8.0
 40
8.0
 40
9.0
 40
9.0
 40
9.0
 40
10.0
 40
10.0
 40
10.0
 40
11.0
 40
11.0
 40
11.0
 40
11.0
 10
3.501818117312533
 20
-5.449886783016861
 30
0.0
 10
3.524488439306891
 20
-5.490629445234743
 30
0.0
 10
3.590893841596387
 20
-5.461843739668337
 30
0.0
 10
3.547652976524773
 20
-5.426393334123631
 30
0.0
 10
3.532425552750901
 20
-5.422735463301149
 30
0.0
 10
3.555926631038662
 20
-5.413822635067642
 30
0.0
 10
3.55866558367538
 20
-5.42616106144568
 30
0.0
 10
3.599636280018696
 20
-5.482126908884916
 30
0.0
 10
3.508618450971387
 20
-5.494233062585004
 30
0.0
 10
3.489375422542568
 20
-5.445775387075021
 30
0.0
 10
3.470963150407151
 20
-5.381996191925281
 30
0.0
 10
3.549676461496561
 20
-5.360879723283788
 30
0.0
 10
3.557006614220085
 20
-5.302468231042035
 30
0.0
 10
3.559254742475293
 20
-5.286192189375368
 30
0.0
 10
3.55813576461071
 20
-5.271089379045506
 30
0.0
 10
3.554567751101596
 20
-5.257275936391427
 30
0.0
 10
3.552034792117221
 20
-5.25428097518266
 30
0.0
 10
3.549520482763922
 20
-5.2512148062916
 30
0.0
 10
3.547090096750467
 20
-5.24779175127858
 30
0.0
 10
3.536725140424512
 20
-5.270629072242122
 30
0.0
 10
3.522277610313835
 20
-5.291686201148372
 30
0.0
 10
3.503527101687533
 20
-5.310628292348458
 30
0.0
 10
3.481844362429721
 20
-5.332536522600194
 30
0.0
 10
3.456539356190571
 20
-5.34905416176035
 30
0.0
 10
3.428085953141526
 20
-5.360249874379708
 30
0.0
 10
3.426931371435797
 20
-5.362412383874066
 30
0.0
 10
3.425869190174946
 20
-5.364616431183094
 30
0.0
 10
3.425010459434929
 20
-5.366908640384482
 30
0.0
 10
3.392572817019564
 20
-5.430683596981705
 30
0.0
 10
3.454376846696213
 20
-5.515605539798545
 30
0.0
 10
3.522642125830328
 20
-5.526017967912694
 30
0.0
 10
3.764053970719651
 20
-5.514647626929622
 30
0.0
 10
3.488988866552984
 20
-5.235655080000368
 30
0.0
 10
3.501818117312533
 20
-5.449886783016861
 30
0.0
  0
HATCH
  5
100
330
85
100
AcDbEntity
  8
Deck Box - G5
 62
   250
420
  2301728
440
 33554559
100
AcDbHatch
 10
0.0
 20
0.0
 30
0.0
210
0.0
220
0.0
230
1.0
  2
SOLID
 70
     1
 71
     1
 91
        1
 92
        1
 93
        1
 72
     4
 94
        3
 73
     0
 74
     0
 95
       38
 96
       34
 40
0.0
 40
0.0
 40
0.0
 40
0.0
 40
1.0
 40
1.0
 40
1.0
 40
2.0
 40
2.0
 40
2.0
 40
3.0
 40
3.0
 40
3.0
 40
4.0
 40
4.0
 40
4.0
 40
5.0
 40
5.0
 40
5.0
 40
6.0
 40
6.0
 40
6.0
 40
7.0
 40
7.0
 40
7.0
 40
8.0
 40
8.0
 40
8.0
 40
9.0
 40
9.0
 40
9.0
 40
10.0
 40
10.0
 40
10.0
 40
11.0
 40
11.0
 40
11.0
 40
11.0
 10
3.501818117312533
 20
-5.449886783016861
 10
3.524488439306891
 20
-5.490629445234743
 10
3.590893841596387
 20
-5.461843739668337
 10
3.547652976524773
 20
-5.426393334123631
 10
3.532425552750901
 20
-5.422735463301149
 10
3.555926631038662
 20
-5.413822635067642
 10
3.55866558367538
 20
-5.42616106144568
 10
3.599636280018696
 20
-5.482126908884916
 10
3.508618450971387
 20
-5.494233062585004
 10
3.489375422542568
 20
-5.445775387075021
 10
3.470963150407151
 20
-5.381996191925281
 10
3.549676461496561
 20
-5.360879723283788
 10
3.557006614220085
 20
-5.302468231042035
 10
3.559254742475293
 20
-5.286192189375368
 10
3.55813576461071
 20
-5.271089379045506
 10
3.554567751101596
 20
-5.257275936391427
 10
3.552034792117221
 20
-5.25428097518266
 10
3.549520482763922
 20
-5.2512148062916
 10
3.547090096750467
 20
-5.24779175127858
 10
3.536725140424512
 20
-5.270629072242122
 10
3.522277610313835
 20
-5.291686201148372
 10
3.503527101687533
 20
-5.310628292348458
 10
3.481844362429721
 20
-5.332536522600194
 10
3.456539356190571
 20
-5.34905416176035
 10
3.428085953141526
 20
-5.360249874379708
 10
3.426931371435797
 20
-5.362412383874066
 10
3.425869190174946
 20
-5.364616431183094
 10
3.425010459434929
 20
-5.366908640384482
 10
3.392572817019564
 20
-5.430683596981705
 10
3.454376846696213
 20
-5.515605539798545
 10
3.522642125830328
 20
-5.526017967912694
 10
3.764053970719651
 20
-5.514647626929622
 10
3.488988866552984
 20
-5.235655080000368
 10
3.501818117312533
 20
-5.449886783016861
 97
        0
 97
        1
330
FF
 75
     2
 76
     1
 98
        1
 10
0.0
 20
0.0
450
        0
451
        0
460
0.0
461
0.0
452
        0
462
0.0
453
        0
470

  0
SPLINE
  5
101
330
85
100
AcDbEntity
  8
Deck Box - G5
100
AcDbSpline
210
0.0
220
0.0
230
1.0
 70
     9
 71
     3
 72
    11
 73
     7
 74
     0
 42
0.0000000001
 43
0.0000000001
 40
0.0
 40
0.0
 40
0.0
 40
0.0
 40
1.0
 40
1.0
 40
1.0
 40
2.0
 40
2.0
 40
2.0
 40
2.0
 10
2.884821352175814
 20
-4.881608788225194
 30
0.0
 10
2.884821352175814
 20
-4.881608788225194
 30
0.0
 10
2.884821352175814
 20
-4.92298469018917
 30
0.0
 10
2.884821352175814
 20
-4.92298469018917
 30
0.0
 10
2.889584637494825
 20
-4.91301900551035
 30
0.0
 10
2.889521059207064
 20
-4.89714732175384
 30
0.0
 10
2.884821352175814
 20
-4.881608788225194
 30
0.0
  0
HATCH
  5
102
330
85
100
AcDbEntity
  8
Deck Box - G5
 62
   250
420
  2301728
440
 33554559
100
AcDbHatch
 10
0.0
 20
0.0
 30
0.0
210
0.0
220
0.0
230
1.0
  2
SOLID
 70
     1
 71
     1
 91
        1
 92
        1
 93
        1
 72
     4
 94
        3
 73
     0
 74
     0
 95
       11
 96
        7
 40
0.0
 40
0.0
 40
0.0
 40
0.0
 40
1.0
 40
1.0
 40
1.0
 40
2.0
 40
2.0
 40
2.0
 40
2.0
 10
2.884821352175814
 20
-4.881608788225194
 10
2.884821352175814
 20
-4.881608788225194
 10
2.884821352175814
 20
-4.92298469018917
 10
2.884821352175814
 20
-4.92298469018917
 10
2.889584637494825
 20
-4.91301900551035
 10
2.889521059207064
 20
-4.89714732175384
 10
2.884821352175814
 20
-4.881608788225194
 97
        0
 97
        1
330
101
 75
     2
 76
     1
 98
        1
 10
0.0
 20
0.0
450
        0
451
        0
460
0.0
461
0.0
452
        0
462
0.0
453
        0
470

  0
SPLINE
  5
103
330
85
100
AcDbEntity
  8
Deck Box - G5
100
AcDbSpline
210
0.0
220
0.0
230
1.0
 70
     9
 71
     3
 72
    38
 73
    34
 74
     0
 42
0.0000000001
 43
0.0000000001
 40
0.0
 40
0.0
 40
0.0
 40
0.0
 40
1.0
 40
1.0
 40
1.0
 40
2.0
 40
2.0
 40
2.0
 40
3.0
 40
3.0
 40
3.0
 40
4.0
 40
4.0
 40
4.0
 40
5.0
 40
5.0
 40
5.0
 40
6.0
 40
6.0
 40
6.0
 40
7.0
 40
7.0
 40
7.0
 40
8.0
 40
8.0
 40
8.0
 40
9.0
 40
9.0
 40
9.0
 40
10.0
 40
10.0
 40
10.0
 40
11.0
 40
11.0
 40
11.0
 40
11.0
 10
3.8223179613338
 20
-5.277593014028146
 30
0.0
 10
3.818056520632845
 20
-5.279068878014691
 30
0.0
 10
3.813957840348557
 20
-5.28061171113101
 30
0.0
 10
3.809374269656283
 20
-5.281955332279014
 30
0.0
 10
3.809374269656283
 20
-5.281955332279014
 30
0.0
 10
3.805847793961838
 20
-5.282864077938736
 30
0.0
 10
3.805847793961838
 20
-5.282864077938736
 30
0.0
 10
3.784709284847255
 20
-5.287585825443076
 30
0.0
 10
3.763646221967481
 20
-5.291743845462607
 30
0.0
 10
3.743007014339443
 20
-5.295009226321982
 30
0.0
 10
3.761429459000901
 20
-5.308887094974326
 30
0.0
 10
3.772145367475293
 20
-5.327735090308528
 30
0.0
 10
3.767072667822516
 20
-5.357274410512521
 30
0.0
 10
3.757012039567307
 20
-5.41824344534325
 30
0.0
 10
3.638277467898471
 20
-5.386428870147938
 30
0.0
 10
3.666605409793002
 20
-5.329740773359743
 30
0.0
 10
3.675836977175814
 20
-5.327961429012955
 30
0.0
 10
3.697503609934061
 20
-5.325971852461305
 30
0.0
 10
3.68293316180038
 20
-5.334377749813736
 30
0.0
 10
3.675018936539963
 20
-5.439582014136653
 30
0.0
 10
3.800924291357672
 20
-5.345531924618423
 30
0.0
 10
3.736043072553418
 20
-5.296165503448719
 30
0.0
 10
3.713821189415398
 20
-5.299445295386653
 30
0.0
 10
3.69220796241887
 20
-5.301483191437
 30
0.0
 10
3.671814590836838
 20
-5.301486582279014
 30
0.0
 10
3.651381376861144
 20
-5.301486582279014
 30
0.0
 10
3.632274829823384
 20
-5.299297793759048
 30
0.0
 10
3.614849292714009
 20
-5.294522640492989
 30
0.0
 10
3.598750422542568
 20
-5.311597225453927
 30
0.0
 10
3.592832555517828
 20
-5.338426415178319
 30
0.0
 10
3.601055347401509
 20
-5.370744530412694
 30
0.0
 10
3.685896757720519
 20
-5.520206064700889
 30
0.0
 10
3.903058995947516
 20
-5.413553063127538
 30
0.0
 10
3.8223179613338
 20
-5.277593014028146
 30
0.0
  0
HATCH
  5
104
330
85
100
AcDbEntity
  8
Deck Box - G5
 62
   250
420
  2301728
440
 33554559
100
AcDbHatch
 10
0.0
 20
0.0
 30
0.0
210
0.0
220
0.0
230
1.0
  2
SOLID
 70
     1
 71
     1
 91
        1
 92
        1
 93
        1
 72
     4
 94
        3
 73
     0
 74
     0
 95
       38
 96
       34
 40
0.0
 40
0.0
 40
0.0
 40
0.0
 40
1.0
 40
1.0
 40
1.0
 40
2.0
 40
2.0
 40
2.0
 40
3.0
 40
3.0
 40
3.0
 40
4.0
 40
4.0
 40
4.0
 40
5.0
 40
5.0
 40
5.0
 40
6.0
 40
6.0
 40
6.0
 40
7.0
 40
7.0
 40
7.0
 40
8.0
 40
8.0
 40
8.0
 40
9.0
 40
9.0
 40
9.0
 40
10.0
 40
10.0
 40
10.0
 40
11.0
 40
11.0
 40
11.0
 40
11.0
 10
3.8223179613338
 20
-5.277593014028146
 10
3.818056520632845
 20
-5.279068878014691
 10
3.813957840348557
 20
-5.28061171113101
 10
3.809374269656283
 20
-5.281955332279014
 10
3.809374269656283
 20
-5.281955332279014
 10
3.805847793961838
 20
-5.282864077938736
 10
3.805847793961838
 20
-5.282864077938736
 10
3.784709284847255
 20
-5.287585825443076
 10
3.763646221967481
 20
-5.291743845462607
 10
3.743007014339443
 20
-5.295009226321982
 10
3.761429459000901
 20
-5.308887094974326
 10
3.772145367475293
 20
-5.327735090308528
 10
3.767072667822516
 20
-5.357274410512521
 10
3.757012039567307
 20
-5.41824344534325
 10
3.638277467898471
 20
-5.386428870147938
 10
3.666605409793002
 20
-5.329740773359743
 10
3.675836977175814
 20
-5.327961429012955
 10
3.697503609934061
 20
-5.325971852461305
 10
3.68293316180038
 20
-5.334377749813736
 10
3.675018936539963
 20
-5.439582014136653
 10
3.800924291357672
 20
-5.345531924618423
 10
3.736043072553418
 20
-5.296165503448719
 10
3.713821189415398
 20
-5.299445295386653
 10
3.69220796241887
 20
-5.301483191437
 10
3.671814590836838
 20
-5.301486582279014
 10
3.651381376861144
 20
-5.301486582279014
 10
3.632274829823384
 20
-5.299297793759048
 10
3.614849292714009
 20
-5.294522640492989
 10
3.598750422542568
 20
-5.311597225453927
 10
3.592832555517828
 20
-5.338426415178319
 10
3.601055347401509
 20
-5.370744530412694
 10
3.685896757720519
 20
-5.520206064700889
 10
3.903058995947516
 20
-5.413553063127538
 10
3.8223179613338
 20
-5.277593014028146
 97
        0
 97
        1
330
103
 75
     2
 76
     1
 98
        1
 10
0.0
 20
0.0
450
        0
451
        0
460
0.0
461
0.0
452
        0
462
0.0
453
        0
470

  0
SPLINE
  5
105
330
85
100
AcDbEntity
  8
Deck Box - G5
100
AcDbSpline
210
0.0
220
0.0
230
1.0
 70
     9
 71
     3
 72
    17
 73
    13
 74
     0
 42
0.0000000001
 43
0.0000000001
 40
0.0
 40
0.0
 40
0.0
 40
0.0
 40
1.0
 40
1.0
 40
1.0
 40
2.0
 40
2.0
 40
2.0
 40
3.0
 40
3.0
 40
3.0
 40
4.0
 40
4.0
 40
4.0
 40
4.0
 10
2.884821352175814
 20
-4.77548475800601
 30
0.0
 10
2.884821352175814
 20
-4.77548475800601
 30
0.0
 10
2.884821352175814
 20
-4.850175682756444
 30
0.0
 10
2.884821352175814
 20
-4.850175682756444
 30
0.0
 10
2.915312651275207
 20
-4.874371883657052
 30
0.0
 10
2.909743193267394
 20
-4.920295752472156
 30
0.0
 10
2.884821352175814
 20
-4.936004675812
 30
0.0
 10
2.884821352175814
 20
-4.936004675812
 30
0.0
 10
2.884821352175814
 20
-4.991533104631444
 30
0.0
 10
2.884821352175814
 20
-4.991533104631444
 30
0.0
 10
2.964063634619391
 20
-4.960384829891861
 30
0.0
 10
3.030522442670606
 20
-4.864240047719552
 30
0.0
 10
2.884821352175814
 20
-4.77548475800601
 30
0.0
  0
HATCH
  5
106
330
85
100
AcDbEntity
  8
Deck Box - G5
 62
   250
420
  2301728
440
 33554559
100
AcDbHatch
 10
0.0
 20
0.0
 30
0.0
210
0.0
220
0.0
230
1.0
  2
SOLID
 70
     1
 71
     1
 91
        1
 92
        1
 93
        1
 72
     4
 94
        3
 73
     0
 74
     0
 95
       17
 96
       13
 40
0.0
 40
0.0
 40
0.0
 40
0.0
 40
1.0
 40
1.0
 40
1.0
 40
2.0
 40
2.0
 40
2.0
 40
3.0
 40
3.0
 40
3.0
 40
4.0
 40
4.0
 40
4.0
 40
4.0
 10
2.884821352175814
 20
-4.77548475800601
 10
2.884821352175814
 20
-4.77548475800601
 10
2.884821352175814
 20
-4.850175682756444
 10
2.884821352175814
 20
-4.850175682756444
 10
2.915312651275207
 20
-4.874371883657052
 10
2.909743193267394
 20
-4.920295752472156
 10
2.884821352175814
 20
-4.936004675812
 10
2.884821352175814
 20
-4.936004675812
 10
2.884821352175814
 20
-4.991533104631444
 10
2.884821352175814
 20
-4.991533104631444
 10
2.964063634619391
 20
-4.960384829891861
 10
3.030522442670606
 20
-4.864240047719552
 10
2.884821352175814
 20
-4.77548475800601
 97
        0
 97
        1
330
105
 75
     2
 76
     1
 98
        1
 10
0.0
 20
0.0
450
        0
451
        0
460
0.0
461
0.0
452
        0
462
0.0
453
        0
470

  0
SPLINE
  5
107
330
85
100
AcDbEntity
  8
Deck Box - G5
100
AcDbSpline
210
0.0
220
0.0
230
1.0
 70
     9
 71
     3
 72
    35
 73
    31
 74
     0
 42
0.0000000001
 43
0.0000000001
 40
0.0
 40
0.0
 40
0.0
 40
0.0
 40
1.0
 40
1.0
 40
1.0
 40
2.0
 40
2.0
 40
2.0
 40
3.0
 40
3.0
 40
3.0
 40
4.0
 40
4.0
 40
4.0
 40
5.0
 40
5.0
 40
5.0
 40
6.0
 40
6.0
 40
6.0
 40
7.0
 40
7.0
 40
7.0
 40
8.0
 40
8.0
 40
8.0
 40
9.0
 40
9.0
 40
9.0
 40
10.0
 40
10.0
 40
10.0
 40
10.0
 10
2.951213191097255
 20
-5.255715301354535
 30
0.0
 10
2.953856352447082
 20
-5.251845502906184
 30
0.0
 10
2.951351367909321
 20
-5.244484832604535
 30
0.0
 10
2.950074715891092
 20
-5.240702348338041
 30
0.0
 10
2.947817262820345
 20
-5.234011369334135
 30
0.0
 10
2.944213645470085
 20
-5.227505191219986
 30
0.0
 10
2.939687719092047
 20
-5.222073910024239
 30
0.0
 10
2.932511001969651
 20
-5.213462866729969
 30
0.0
 10
2.92166369836722
 20
-5.202469756920941
 30
0.0
 10
2.90943462664413
 20
-5.20338274113318
 30
0.0
 10
2.899896188059061
 20
-5.204093970245594
 30
0.0
 10
2.892917835194478
 20
-5.203935448381444
 30
0.0
 10
2.884495831342481
 20
-5.202763064755142
 30
0.0
 10
2.884495831342481
 20
-5.202763064755142
 30
0.0
 10
2.884495831342481
 20
-5.368982140275975
 30
0.0
 10
2.884495831342481
 20
-5.368982140275975
 30
0.0
 10
2.887370417659755
 20
-5.371988121721288
 30
0.0
 10
2.890492535444043
 20
-5.374653323544205
 30
0.0
 10
2.893740114382845
 20
-5.376853132300715
 30
0.0
 10
2.898644967355936
 20
-5.380176157474326
 30
0.0
 10
2.905069765261752
 20
-5.38439097409759
 30
0.0
 10
2.911317391672342
 20
-5.383238935523372
 30
0.0
 10
2.916301081722255
 20
-5.382320017337607
 30
0.0
 10
2.919311301720085
 20
-5.377683888594118
 30
0.0
 10
2.918961197282151
 20
-5.372657813019031
 30
0.0
 10
2.917434470665398
 20
-5.350720760610177
 30
0.0
 10
2.919143455040398
 20
-5.332461076365385
 30
0.0
 10
2.924553543473557
 20
-5.31293576033891
 30
0.0
 10
2.930213706505242
 20
-5.292508480336739
 30
0.0
 10
2.939265559261318
 20
-5.273212046146201
 30
0.0
 10
2.951213191097255
 20
-5.255715301354535
 30
0.0
  0
HATCH
  5
108
330
85
100
AcDbEntity
  8
Deck Box - G5
 62
   250
420
  2301728
440
 33554559
100
AcDbHatch
 10
0.0
 20
0.0
 30
0.0
210
0.0
220
0.0
230
1.0
  2
SOLID
 70
     1
 71
     1
 91
        1
 92
        1
 93
        1
 72
     4
 94
        3
 73
     0
 74
     0
 95
       35
 96
       31
 40
0.0
 40
0.0
 40
0.0
 40
0.0
 40
1.0
 40
1.0
 40
1.0
 40
2.0
 40
2.0
 40
2.0
 40
3.0
 40
3.0
 40
3.0
 40
4.0
 40
4.0
 40
4.0
 40
5.0
 40
5.0
 40
5.0
 40
6.0
 40
6.0
 40
6.0
 40
7.0
 40
7.0
 40
7.0
 40
8.0
 40
8.0
 40
8.0
 40
9.0
 40
9.0
 40
9.0
 40
10.0
 40
10.0
 40
10.0
 40
10.0
 10
2.951213191097255
 20
-5.255715301354535
 10
2.953856352447082
 20
-5.251845502906184
 10
2.951351367909321
 20
-5.244484832604535
 10
2.950074715891092
 20
-5.240702348338041
 10
2.947817262820345
 20
-5.234011369334135
 10
2.944213645470085
 20
-5.227505191219986
 10
2.939687719092047
 20
-5.222073910024239
 10
2.932511001969651
 20
-5.213462866729969
 10
2.92166369836722
 20
-5.202469756920941
 10
2.90943462664413
 20
-5.20338274113318
 10
2.899896188059061
 20
-5.204093970245594
 10
2.892917835194478
 20
-5.203935448381444
 10
2.884495831342481
 20
-5.202763064755142
 10
2.884495831342481
 20
-5.202763064755142
 10
2.884495831342481
 20
-5.368982140275975
 10
2.884495831342481
 20
-5.368982140275975
 10
2.887370417659755
 20
-5.371988121721288
 10
2.890492535444043
 20
-5.374653323544205
 10
2.893740114382845
 20
-5.376853132300715
 10
2.898644967355936
 20
-5.380176157474326
 10
2.905069765261752
 20
-5.38439097409759
 10
2.911317391672342
 20
-5.383238935523372
 10
2.916301081722255
 20
-5.382320017337607
 10
2.919311301720085
 20
-5.377683888594118
 10
2.918961197282151
 20
-5.372657813019031
 10
2.917434470665398
 20
-5.350720760610177
 10
2.919143455040398
 20
-5.332461076365385
 10
2.924553543473557
 20
-5.31293576033891
 10
2.930213706505242
 20
-5.292508480336739
 10
2.939265559261318
 20
-5.273212046146201
 10
2.951213191097255
 20
-5.255715301354535
 97
        0
 97
        1
330
107
 75
     2
 76
     1
 98
        1
 10
0.0
 20
0.0
450
        0
451
        0
460
0.0
461
0.0
452
        0
462
0.0
453
        0
470

  0
SPLINE
  5
109
330
85
100
AcDbEntity
  8
Deck Box - G5
100
AcDbSpline
210
0.0
220
0.0
230
1.0
 70
     9
 71
     3
 72
    11
 73
     7
 74
     0
 42
0.0000000001
 43
0.0000000001
 40
0.0
 40
0.0
 40
0.0
 40
0.0
 40
1.0
 40
1.0
 40
1.0
 40
2.0
 40
2.0
 40
2.0
 40
2.0
 10
3.832720216921908
 20
-5.527142032040298
 30
0.0
 10
3.832720216921908
 20
-5.527142032040298
 30
0.0
 10
3.881524606027811
 20
-5.527142032040298
 30
0.0
 10
3.881524606027811
 20
-5.527142032040298
 30
0.0
 10
3.865526613406283
 20
-5.494098276614951
 30
0.0
 10
3.844074451405415
 20
-5.504304711076756
 30
0.0
 10
3.832720216921908
 20
-5.527142032040298
 30
0.0
  0
HATCH
  5
10A
330
85
100
AcDbEntity
  8
Deck Box - G5
 62
   250
420
  2301728
440
 33554559
100
AcDbHatch
 10
0.0
 20
0.0
 30
0.0
210
0.0
220
0.0
230
1.0
  2
SOLID
 70
     1
 71
     1
 91
        1
 92
        1
 93
        1
 72
     4
 94
        3
 73
     0
 74
     0
 95
       11
 96
        7
 40
0.0
 40
0.0
 40
0.0
 40
0.0
 40
1.0
 40
1.0
 40
1.0
 40
2.0
 40
2.0
 40
2.0
 40
2.0
 10
3.832720216921908
 20
-5.527142032040298
 10
3.832720216921908
 20
-5.527142032040298
 10
3.881524606027811
 20
-5.527142032040298
 10
3.881524606027811
 20
-5.527142032040298
 10
3.865526613406283
 20
-5.494098276614951
 10
3.844074451405415
 20
-5.504304711076756
 10
3.832720216921908
 20
-5.527142032040298
 97
        0
 97
        1
330
109
 75
     2
 76
     1
 98
        1
 10
0.0
 20
0.0
450
        0
451
        0
460
0.0
461
0.0
452
        0
462
0.0
453
        0
470

  0
ENDBLK
  5
88
330
85
100
AcDbEntity
  8
0
100
AcDbBlockEnd
  0
ENDSEC
  0
SECTION
  2
ENTITIES
  0
INSERT
  5
7B
330
70
100
AcDbEntity
  8
Deck Box - G5
100
AcDbBlockReference
  2
Block_0
 10
0.0
 20
0.0
 30
0.0
  0
INSERT
  5
86
330
70
100
AcDbEntity
  8
Deck Box - G5
100
AcDbBlockReference
  2
Block_1
 10
0.0
 20
0.0
 30
0.0
  0
LWPOLYLINE
  5
10B
330
70
100
AcDbEntity
  8
Deck Box - G5
 62
   250
420
  2301728
370
    35
100
AcDbPolyline
 90
        4
 70
     1
 43
0.0
 10
5.683785043039531
 20
-5.558015224721505
 10
2.853785043039515
 20
-5.558015224721505
 10
2.853785043039515
 20
-4.558015224721505
 10
5.683785043039531
 20
-4.558015224721505
  0
ENDSEC
  0
SECTION
  2
OBJECTS
  0
DICTIONARY
  5
C
330
0
100
AcDbDictionary
281
     1
  3
ACAD_COLOR
350
63
  3
ACAD_DETAILVIEWSTYLE
350
6A
  3
ACAD_GROUP
350
D
  3
ACAD_LAYOUT
350
62
  3
ACAD_MATERIAL
350
10
  3
ACAD_MLEADERSTYLE
350
66
  3
ACAD_MLINESTYLE
350
5F
  3
ACAD_PLOTSETTINGS
350
61
  3
ACAD_PLOTSTYLENAME
350
E
  3
ACAD_SCALELIST
350
42
  3
ACAD_SECTIONVIEWSTYLE
350
68
  3
ACAD_TABLESTYLE
350
64
  3
ACAD_VISUALSTYLE
350
29
  3
ACDB_RECOMPOSE_DATA
350
117
  3
AcDbVariableDictionary
350
10F
  0
DICTIONARY
  5
63
102
{ACAD_REACTORS
330
C
102
}
330
C
100
AcDbDictionary
281
     1
  0
DICTIONARY
  5
6A
102
{ACAD_REACTORS
330
C
102
}
330
C
100
AcDbDictionary
281
     1
  3
Imperial24
350
6B
  0
DICTIONARY
  5
D
102
{ACAD_REACTORS
330
C
102
}
330
C
100
AcDbDictionary
281
     1
  0
DICTIONARY
  5
62
102
{ACAD_REACTORS
330
C
102
}
330
C
100
AcDbDictionary
281
     1
  3
Layout1
350
6F
  3
Layout2
350
77
  3
Model
350
73
  0
DICTIONARY
  5
10
102
{ACAD_REACTORS
330
C
102
}
330
C
100
AcDbDictionary
281
     1
  3
ByBlock
350
19
  3
ByLayer
350
11
  3
Global
350
21
  0
DICTIONARY
  5
66
102
{ACAD_REACTORS
330
C
102
}
330
C
100
AcDbDictionary
281
     1
  3
Standard
350
67
  0
DICTIONARY
  5
5F
102
{ACAD_REACTORS
330
C
102
}
330
C
100
AcDbDictionary
281
     1
  3
Standard
350
60
  0
DICTIONARY
  5
61
102
{ACAD_REACTORS
330
C
102
}
330
C
100
AcDbDictionary
281
     1
  0
ACDBDICTIONARYWDFLT
  5
E
102
{ACAD_REACTORS
330
C
102
}
330
C
100
AcDbDictionary
281
     1
  3
Normal
350
F
100
AcDbDictionaryWithDefault
340
F
  0
DICTIONARY
  5
42
102
{ACAD_REACTORS
330
C
102
}
330
C
100
AcDbDictionary
281
     1
  3
A0
350
43
  3
A1
350
44
  3
A2
350
45
  3
A3
350
46
  3
A4
350
47
  3
A5
350
48
  3
A6
350
49
  3
A7
350
4A
  3
A8
350
4B
  3
A9
350
4C
  3
B0
350
4D
  3
B1
350
4E
  3
B2
350
4F
  3
B3
350
50
  3
B4
350
51
  3
B5
350
52
  3
B6
350
53
  0
DICTIONARY
  5
68
102
{ACAD_REACTORS
330
C
102
}
330
C
100
AcDbDictionary
281
     1
  3
Imperial24
350
69
  0
DICTIONARY
  5
64
102
{ACAD_REACTORS
330
C
102
}
330
C
100
AcDbDictionary
281
     1
  3
Standard
350
65
  0
DICTIONARY
  5
29
102
{ACAD_REACTORS
330
C
102
}
330
C
100
AcDbDictionary
281
     1
  3
2dWireframe
350
2F
  3
Basic
350
2E
  3
Brighten
350
35
  3
ColorChange
350
39
  3
Conceptual
350
32
  3
Dim
350
34
  3
EdgeColorOff
350
41
  3
Facepattern
350
38
  3
Flat
350
2A
  3
FlatWithEdges
350
2B
  3
Gouraud
350
2C
  3
GouraudWithEdges
350
2D
  3
Hidden
350
31
  3
JitterOff
350
3F
  3
Linepattern
350
37
  3
OverhangOff
350
40
  3
Realistic
350
33
  3
Shaded
350
3E
  3
Shaded with edges
350
3D
  3
Shades of Gray
350
3A
  3
Sketchy
350
3B
  3
Thicken
350
36
  3
Wireframe
350
30
  3
X-Ray
350
3C
  0
XRECORD
  5
117
102
{ACAD_REACTORS
330
C
102
}
330
C
100
AcDbXrecord
280
     1
 90
        1
330
65
  0
DICTIONARY
  5
10F
102
{ACAD_REACTORS
330
C
102
}
330
C
100
AcDbDictionary
281
     1
  3
CANNOSCALE
350
114
  3
CMLEADERSTYLE
350
111
  3
CTABLESTYLE
350
110
  3
CVIEWDETAILSTYLE
350
112
  3
CVIEWSECTIONSTYLE
350
113
  0
ACDBDETAILVIEWSTYLE
  5
6B
102
{ACAD_REACTORS
330
6A
102
}
330
6A
100
AcDbModelDocViewStyle
 70
     0
  3
Imperial24
290
     1
300
Imperial24
 90
        0
100
AcDbDetailViewStyle
 70
     0
 71
     0
 90
        3
 71
     1
340
55
 62
   256
 40
0.24
340
0
 62
   256
 40
0.24
300

 40
0.36
280
     3
 71
     2
340
5D
 90
       25
 62
   256
 71
     3
340
55
 62
   256
 40
0.24
 90
        1
 40
0.75
 90
        1
300
%<\AcVar ViewType \f "%tc1">% %<\AcVar ViewDetailId>%\PSCALE %<\AcVar ViewScale \f "%sn">%
 71
     4
340
5D
 90
       25
 62
   256
340
5D
 90
       25
 62
   256
280
     0
  0
LAYOUT
  5
6F
102
{ACAD_REACTORS
330
62
102
}
330
62
100
AcDbPlotSettings
  1

  2

  4

  6

 40
0.0
 41
0.0
 42
0.0
 43
0.0
 44
0.0
 45
0.0
 46
0.0
 47
0.0
 48
0.0
 49
0.0
140
0.0
141
0.0
142
1.0
143
1.0
 70
   688
 72
     0
 73
     0
 74
     5
  7

 75
    16
147
1.0
 76
     0
 77
     2
 78
   300
148
0.0
149
0.0
100
AcDbLayout
  1
Layout1
 70
     1
 71
     1
 10
0.0
 20
0.0
 11
12.0
 21
9.0
 12
0.0
 22
0.0
 32
0.0
 14
0.0
 24
0.0
 34
0.0
 15
0.0
 25
0.0
 35
0.0
146
0.0
 13
0.0
 23
0.0
 33
0.0
 16
1.0
 26
0.0
 36
0.0
 17
0.0
 27
1.0
 37
0.0
 76
     0
330
6C
  0
LAYOUT
  5
77
102
{ACAD_REACTORS
330
62
102
}
330
62
100
AcDbPlotSettings
  1

  2

  4

  6

 40
0.0
 41
0.0
 42
0.0
 43
0.0
 44
0.0
 45
0.0
 46
0.0
 47
0.0
 48
0.0
 49
0.0
140
0.0
141
0.0
142
1.0
143
1.0
 70
   688
 72
     0
 73
     0
 74
     5
  7

 75
    16
147
1.0
 76
     0
 77
     2
 78
   300
148
0.0
149
0.0
100
AcDbLayout
  1
Layout2
 70
     1
 71
     2
 10
0.0
 20
0.0
 11
12.0
 21
9.0
 12
0.0
 22
0.0
 32
0.0
 14
0.0
 24
0.0
 34
0.0
 15
0.0
 25
0.0
 35
0.0
146
0.0
 13
0.0
 23
0.0
 33
0.0
 16
1.0
 26
0.0
 36
0.0
 17
0.0
 27
1.0
 37
0.0
 76
     0
330
74
  0
LAYOUT
  5
73
102
{ACAD_REACTORS
330
62
102
}
330
62
100
AcDbPlotSettings
  1

  2

  4

  6

 40
0.0
 41
0.0
 42
0.0
 43
0.0
 44
0.0
 45
0.0
 46
0.0
 47
0.0
 48
0.0
 49
0.0
140
0.0
141
0.0
142
1.0
143
1.0
 70
  1712
 72
     0
 73
     0
 74
     0
  7

 75
     0
147
1.0
 76
     0
 77
     2
 78
   300
148
0.0
149
0.0
100
AcDbLayout
  1
Model
 70
     1
 71
     0
 10
0.0
 20
0.0
 11
12.0
 21
9.0
 12
0.0
 22
0.0
 32
0.0
 14
0.0
 24
0.0
 34
0.0
 15
0.0
 25
0.0
 35
0.0
146
0.0
 13
0.0
 23
0.0
 33
0.0
 16
1.0
 26
0.0
 36
0.0
 17
0.0
 27
1.0
 37
0.0
 76
     0
330
70
  0
MATERIAL
  5
19
102
{ACAD_XDICTIONARY
360
1A
102
}
102
{ACAD_REACTORS
330
10
102
}
330
10
100
AcDbMaterial
  1
ByBlock
 72
     0
 43
0.0208333333333333
 43
0.0
 43
0.0
 43
0.0
 43
0.0
 43
0.0208333333333333
 43
0.0
 43
0.0
 43
0.0
 43
0.0
 43
1.0
 43
0.0
 43
0.0
 43
0.0
 43
0.0
 43
1.0
 77
     0
 47
0.0208333333333333
 47
0.0
 47
0.0
 47
0.0
 47
0.0
 47
0.0208333333333333
 47
0.0
 47
0.0
 47
0.0
 47
0.0
 47
1.0
 47
0.0
 47
0.0
 47
0.0
 47
0.0
 47
1.0
171
     0
 49
0.0208333333333333
 49
0.0
 49
0.0
 49
0.0
 49
0.0
 49
0.0208333333333333
 49
0.0
 49
0.0
 49
0.0
 49
0.0
 49
1.0
 49
0.0
 49
0.0
 49
0.0
 49
0.0
 49
1.0
175
     0
142
0.0208333333333333
142
0.0
142
0.0
142
0.0
142
0.0
142
0.0208333333333333
142
0.0
142
0.0
142
0.0
142
0.0
142
1.0
142
0.0
142
0.0
142
0.0
142
0.0
142
1.0
179
     0
144
0.0208333333333333
144
0.0
144
0.0
144
0.0
144
0.0
144
0.0208333333333333
144
0.0
144
0.0
144
0.0
144
0.0
144
1.0
144
0.0
144
0.0
144
0.0
144
0.0
144
1.0
147
0.0208333333333333
147
0.0
147
0.0
147
0.0
147
0.0
147
0.0208333333333333
147
0.0
147
0.0
147
0.0
147
0.0
147
1.0
147
0.0
147
0.0
147
0.0
147
0.0
147
1.0
  0
MATERIAL
  5
11
102
{ACAD_XDICTIONARY
360
12
102
}
102
{ACAD_REACTORS
330
10
102
}
330
10
100
AcDbMaterial
  1
ByLayer
 72
     0
 43
0.0208333333333333
 43
0.0
 43
0.0
 43
0.0
 43
0.0
 43
0.0208333333333333
 43
0.0
 43
0.0
 43
0.0
 43
0.0
 43
1.0
 43
0.0
 43
0.0
 43
0.0
 43
0.0
 43
1.0
 77
     0
 47
0.0208333333333333
 47
0.0
 47
0.0
 47
0.0
 47
0.0
 47
0.0208333333333333
 47
0.0
 47
0.0
 47
0.0
 47
0.0
 47
1.0
 47
0.0
 47
0.0
 47
0.0
 47
0.0
 47
1.0
171
     0
 49
0.0208333333333333
 49
0.0
 49
0.0
 49
0.0
 49
0.0
 49
0.0208333333333333
 49
0.0
 49
0.0
 49
0.0
 49
0.0
 49
1.0
 49
0.0
 49
0.0
 49
0.0
 49
0.0
 49
1.0
175
     0
142
0.0208333333333333
142
0.0
142
0.0
142
0.0
142
0.0
142
0.0208333333333333
142
0.0
142
0.0
142
0.0
142
0.0
142
1.0
142
0.0
142
0.0
142
0.0
142
0.0
142
1.0
179
     0
144
0.0208333333333333
144
0.0
144
0.0
144
0.0
144
0.0
144
0.0208333333333333
144
0.0
144
0.0
144
0.0
144
0.0
144
1.0
144
0.0
144
0.0
144
0.0
144
0.0
144
1.0
147
0.0208333333333333
147
0.0
147
0.0
147
0.0
147
0.0
147
0.0208333333333333
147
0.0
147
0.0
147
0.0
147
0.0
147
1.0
147
0.0
147
0.0
147
0.0
147
0.0
147
1.0
  0
MATERIAL
  5
21
102
{ACAD_XDICTIONARY
360
22
102
}
102
{ACAD_REACTORS
330
10
102
}
330
10
100
AcDbMaterial
  1
Global
 72
     0
 43
0.0208333333333333
 43
0.0
 43
0.0
 43
0.0
 43
0.0
 43
0.0208333333333333
 43
0.0
 43
0.0
 43
0.0
 43
0.0
 43
1.0
 43
0.0
 43
0.0
 43
0.0
 43
0.0
 43
1.0
 77
     0
 47
0.0208333333333333
 47
0.0
 47
0.0
 47
0.0
 47
0.0
 47
0.0208333333333333
 47
0.0
 47
0.0
 47
0.0
 47
0.0
 47
1.0
 47
0.0
 47
0.0
 47
0.0
 47
0.0
 47
1.0
171
     0
 49
0.0208333333333333
 49
0.0
 49
0.0
 49
0.0
 49
0.0
 49
0.0208333333333333
 49
0.0
 49
0.0
 49
0.0
 49
0.0
 49
1.0
 49
0.0
 49
0.0
 49
0.0
 49
0.0
 49
1.0
175
     0
142
0.0208333333333333
142
0.0
142
0.0
142
0.0
142
0.0
142
0.0208333333333333
142
0.0
142
0.0
142
0.0
142
0.0
142
1.0
142
0.0
142
0.0
142
0.0
142
0.0
142
1.0
179
     0
144
0.0208333333333333
144
0.0
144
0.0
144
0.0
144
0.0
144
0.0208333333333333
144
0.0
144
0.0
144
0.0
144
0.0
144
1.0
144
0.0
144
0.0
144
0.0
144
0.0
144
1.0
147
0.0208333333333333
147
0.0
147
0.0
147
0.0
147
0.0
147
0.0208333333333333
147
0.0
147
0.0
147
0.0
147
0.0
147
1.0
147
0.0
147
0.0
147
0.0
147
0.0
147
1.0
  0
MLEADERSTYLE
  5
67
102
{ACAD_REACTORS
330
66
102
}
330
66
100
AcDbMLeaderStyle
179
     2
170
     2
171
     1
172
     0
 90
        2
 40
0.0
 41
0.0
173
     1
 91
-1056964608
340
5B
 92
       -2
290
     1
 42
0.09
291
     1
 43
0.36
  3
Standard
 44
0.18
300

342
55
174
     1
178
     6
175
     1
176
     0
 93
-1056964608
 45
0.18
292
     0
297
     0
 46
0.18
 94
-1056964608
 47
1.0
 49
1.0
140
1.0
293
     1
141
0.0
294
     1
177
     0
142
1.0
295
     1
296
     0
143
0.125
271
     0
272
     9
273
     9
298
     1
  0
MLINESTYLE
  5
60
102
{ACAD_REACTORS
330
5F
102
}
330
5F
100
AcDbMlineStyle
  2
STANDARD
 70
     0
  3

 62
   256
 51
90.0
 52
90.0
 71
     2
 49
0.5
 62
   256
  6
BYLAYER
 49
-0.5
 62
   256
  6
BYLAYER
  0
ACDBPLACEHOLDER
  5
F
102
{ACAD_REACTORS
330
E
102
}
330
E
  0
SCALE
  5
43
102
{ACAD_REACTORS
330
42
102
}
330
42
100
AcDbScale
 70
     0
300
1:1
140
1.0
141
1.0
290
     1
  0
SCALE
  5
44
102
{ACAD_REACTORS
330
42
102
}
330
42
100
AcDbScale
 70
     0
300
1/128" = 1'-0"
140
0.0078125
141
12.0
290
     0
  0
SCALE
  5
45
102
{ACAD_REACTORS
330
42
102
}
330
42
100
AcDbScale
 70
     0
300
1/64" = 1'-0"
140
0.015625
141
12.0
290
     0
  0
SCALE
  5
46
102
{ACAD_REACTORS
330
42
102
}
330
42
100
AcDbScale
 70
     0
300
1/32" = 1'-0"
140
0.03125
141
12.0
290
     0
  0
SCALE
  5
47
102
{ACAD_REACTORS
330
42
102
}
330
42
100
AcDbScale
 70
     0
300
1/16" = 1'-0"
140
0.0625
141
12.0
290
     0
  0
SCALE
  5
48
102
{ACAD_REACTORS
330
42
102
}
330
42
100
AcDbScale
 70
     0
300
3/32" = 1'-0"
140
0.09375
141
12.0
290
     0
  0
SCALE
  5
49
102
{ACAD_REACTORS
330
42
102
}
330
42
100
AcDbScale
 70
     0
300
1/8" = 1'-0"
140
0.125
141
12.0
290
     0
  0
SCALE
  5
4A
102
{ACAD_REACTORS
330
42
102
}
330
42
100
AcDbScale
 70
     0
300
3/16" = 1'-0"
140
0.1875
141
12.0
290
     0
  0
SCALE
  5
4B
102
{ACAD_REACTORS
330
42
102
}
330
42
100
AcDbScale
 70
     0
300
1/4" = 1'-0"
140
0.25
141
12.0
290
     0
  0
SCALE
  5
4C
102
{ACAD_REACTORS
330
42
102
}
330
42
100
AcDbScale
 70
     0
300
3/8" = 1'-0"
140
0.375
141
12.0
290
     0
  0
SCALE
  5
4D
102
{ACAD_REACTORS
330
42
102
}
330
42
100
AcDbScale
 70
     0
300
1/2" = 1'-0"
140
0.5
141
12.0
290
     0
  0
SCALE
  5
4E
102
{ACAD_REACTORS
330
42
102
}
330
42
100
AcDbScale
 70
     0
300
3/4" = 1'-0"
140
0.75
141
12.0
290
     0
  0
SCALE
  5
4F
102
{ACAD_REACTORS
330
42
102
}
330
42
100
AcDbScale
 70
     0
300
1" = 1'-0"
140
1.0
141
12.0
290
     0
  0
SCALE
  5
50
102
{ACAD_REACTORS
330
42
102
}
330
42
100
AcDbScale
 70
     0
300
1-1/2" = 1'-0"
140
1.5
141
12.0
290
     0
  0
SCALE
  5
51
102
{ACAD_REACTORS
330
42
102
}
330
42
100
AcDbScale
 70
     0
300
3" = 1'-0"
140
3.0
141
12.0
290
     0
  0
SCALE
  5
52
102
{ACAD_REACTORS
330
42
102
}
330
42
100
AcDbScale
 70
     0
300
6" = 1'-0"
140
6.0
141
12.0
290
     0
  0
SCALE
  5
53
102
{ACAD_REACTORS
330
42
102
}
330
42
100
AcDbScale
 70
     0
300
1'-0" = 1'-0"
140
12.0
141
12.0
290
     0
  0
ACDBSECTIONVIEWSTYLE
  5
69
102
{ACAD_REACTORS
330
68
102
}
330
68
100
AcDbModelDocViewStyle
 70
     0
  3
Imperial24
290
     1
300
Imperial24
 90
        0
100
AcDbSectionViewStyle
 70
     0
 71
     0
 90
       78
 71
     1
340
55
 62
   256
 40
0.24
340
0
340
0
 62
   256
 40
0.24
300
I, O, Q, S, X, Z
 40
0.48
 90
        3
 40
0.18
 90
        1
 71
     2
340
5D
 90
       25
 62
   256
340
5D
 90
       50
 62
   256
 40
0.24
 40
0.0
 40
0.24
 71
     3
340
55
 62
   256
 40
0.24
 90
        1
 40
0.75
 90
        1
300
%<\AcVar ViewType \f "%tc1">% %<\AcVar ViewSectionStartId>%-%<\AcVar ViewSectionEndId>%\PSCALE %<\AcVar ViewScale \f "%sn">%
 71
     4
 62
   256
 62
   257
300
ANSI31
 40
1.0
 90
        0
290
     0
290
     0
 90
        6
 40
0.0
 40
1.570796326794896
 40
0.2617993877991494
 40
1.308996938995747
 40
-0.2617993877991494
 40
1.832595714594046
  0
TABLESTYLE
  5
65
102
{ACAD_XDICTIONARY
360
115
102
}
102
{ACAD_REACTORS
330
64
102
}
330
64
100
AcDbTableStyle
280
     0
  3
Standard
 70
     0
 71
     0
 40
0.06
 41
0.06
280
     0
281
     0
  7
Standard
140
0.18
170
     2
 62
     0
 63
     7
283
     0
 90
      512
 91
        0
  1

274
    -2
284
     1
 64
     0
275
    -2
285
     1
 65
     0
276
    -2
286
     1
 66
     0
277
    -2
287
     1
 67
     0
278
    -2
288
     1
 68
     0
279
    -2
289
     1
 69
     0
  7
Standard
140
0.25
170
     5
 62
     0
 63
     7
283
     0
 90
      512
 91
        0
  1

274
    -2
284
     1
 64
     0
275
    -2
285
     1
 65
     0
276
    -2
286
     1
 66
     0
277
    -2
287
     1
 67
     0
278
    -2
288
     1
 68
     0
279
    -2
289
     1
 69
     0
  7
Standard
140
0.18
170
     5
 62
     0
 63
     7
283
     0
 90
      512
 91
        0
  1

274
    -2
284
     1
 64
     0
275
    -2
285
     1
 65
     0
276
    -2
286
     1
 66
     0
277
    -2
287
     1
 67
     0
278
    -2
288
     1
 68
     0
279
    -2
289
     1
 69
     0
  0
VISUALSTYLE
  5
2F
102
{ACAD_REACTORS
330
29
102
}
330
29
100
AcDbVisualStyle
  2
2dWireframe
 70
     4
177
     3
291
     0
 70
    58
 90
        0
176
     1
 90
        2
176
     1
 90
        0
176
     1
 90
        0
176
     1
 40
0.6
176
     1
 40
30.0
176
     1
 62
     7
420
 16777215
176
     1
 90
        1
176
     1
 90
        4
176
     1
 62
     7
176
     1
 62
   257
176
     1
 90
        1
176
     1
 90
        1
176
     1
 40
1.0
176
     1
 90
        0
176
     1
 62
   257
176
     1
 40
1.0
176
     1
 90
        1
176
     1
 90
        6
176
     1
 90
        2
176
     1
 62
     7
176
     1
 90
        5
176
     1
 90
        0
176
     1
 90
        0
176
     1
290
     0
176
     1
 90
        1
176
     1
 40
0.0
176
     1
 90
        0
176
     1
290
     1
176
     1
290
     1
176
     1
290
     0
176
     1
290
     0
176
     1
290
     0
176
     1
290
     0
176
     1
290
     0
176
     1
290
     0
176
     1
290
     0
176
     1
 90
       50
176
     1
 40
0.0
176
     1
 40
1.0
176
     1
 90
        0
176
     1
 62
    18
420
        0
176
     1
 90
       50
176
     1
 90
        3
176
     1
 62
     5
420
      255
176
     1
290
     0
176
     1
 90
       50
176
     1
 90
       50
176
     1
 90
       50
176
     1
290
     0
176
     1
 90
       50
176
     1
 62
   256
176
     0
 40
1.0
176
     0
 90
        2
176
     1
  1
strokes_ogs.tif
176
     1
290
     0
176
     1
 40
1.0
176
     1
 40
1.0
176
     1
  0
VISUALSTYLE
  5
2E
102
{ACAD_REACTORS
330
29
102
}
330
29
100
AcDbVisualStyle
  2
Basic
 70
     7
177
     3
291
     1
 70
    58
 90
        1
176
     1
 90
        0
176
     1
 90
        1
176
     1
 90
        0
176
     1
 40
0.6
176
     1
 40
30.0
176
     1
 62
     7
420
 16777215
176
     1
 90
        0
176
     1
 90
        4
176
     1
 62
     7
176
     1
 62
   257
176
     1
 90
        1
176
     1
 90
        1
176
     1
 40
1.0
176
     1
 90
        8
176
     1
 62
     7
176
     1
 40
1.0
176
     1
 90
        1
176
     1
 90
        6
176
     1
 90
        2
176
     1
 62
     7
176
     1
 90
        5
176
     1
 90
        0
176
     1
 90
        0
176
     1
290
     0
176
     1
 90
        1
176
     1
 40
0.0
176
     1
 90
        0
176
     1
290
     0
176
     1
290
     1
176
     1
290
     1
176
     1
290
     0
176
     1
290
     0
176
     1
290
     0
176
     1
290
     0
176
     1
290
     0
176
     1
290
     0
176
     1
 90
       50
176
     1
 40
0.0
176
     1
 40
1.0
176
     1
 90
        0
176
     1
 62
    18
420
        0
176
     1
 90
       50
176
     1
 90
        3
176
     1
 62
     5
420
      255
176
     1
290
     0
176
     1
 90
       50
176
     1
 90
       50
176
     1
 90
       50
176
     1
290
     0
176
     1
 90
       50
176
     1
 62
   256
176
     0
 40
1.0
176
     0
 90
        2
176
     1
  1
strokes_ogs.tif
176
     1
290
     0
176
     1
 40
1.0
176
     1
 40
1.0
176
     1
  0
VISUALSTYLE
  5
35
102
{ACAD_REACTORS
330
29
102
}
330
29
100
AcDbVisualStyle
  2
Brighten
 70
    12
177
     3
291
     1
 70
    58
 90
        2
176
     1
 90
        2
176
     1
 90
        0
176
     1
 90
        0
176
     1
 40
0.6
176
     1
 40
30.0
176
     1
 62
     7
420
 16777215
176
     1
 90
        1
176
     1
 90
        4
176
     1
 62
     7
176
     1
 62
   257
176
     1
 90
        1
176
     1
 90
        1
176
     1
 40
1.0
176
     1
 90
        8
176
     1
 62
     7
176
     1
 40
1.0
176
     1
 90
        1
176
     1
 90
        6
176
     1
 90
        2
176
     1
 62
     7
176
     1
 90
        5
176
     1
 90
        0
176
     1
 90
        0
176
     1
290
     0
176
     1
 90
        1
176
     1
 40
50.0
176
     1
 90
        0
176
     1
290
     0
176
     1
290
     1
176
     1
290
     1
176
     1
290
     0
176
     1
290
     0
176
     1
290
     0
176
     1
290
     0
176
     1
290
     0
176
     1
290
     0
176
     1
 90
       50
176
     1
 40
0.0
176
     1
 40
1.0
176
     1
 90
        0
176
     1
 62
    18
420
        0
176
     1
 90
       50
176
     1
 90
        3
176
     1
 62
     5
420
      255
176
     1
290
     0
176
     1
 90
       50
176
     1
 90
       50
176
     1
 90
       50
176
     1
290
     0
176
     1
 90
       50
176
     1
 62
   256
176
     0
 40
1.0
176
     0
 90
        2
176
     1
  1
strokes_ogs.tif
176
     1
290
     0
176
     1
 40
1.0
176
     1
 40
1.0
176
     1
  0
VISUALSTYLE
  5
39
102
{ACAD_REACTORS
330
29
102
}
330
29
100
AcDbVisualStyle
  2
ColorChange
 70
    16
177
     3
291
     1
 70
    58
 90
        2
176
     1
 90
        2
176
     1
 90
        3
176
     1
 90
        0
176
     1
 40
0.6
176
     1
 40
30.0
176
     1
 62
     8
420
  8421504
176
     1
 90
        1
176
     1
 90
        4
176
     1
 62
     7
176
     1
 62
   257
176
     1
 90
        1
176
     1
 90
        1
176
     1
 40
1.0
176
     1
 90
        8
176
     1
 62
     8
420
  8421504
176
     1
 40
1.0
176
     1
 90
        1
176
     1
 90
        6
176
     1
 90
        2
176
     1
 62
     7
176
     1
 90
        5
176
     1
 90
        0
176
     1
 90
        0
176
     1
290
     0
176
     1
 90
        1
176
     1
 40
0.0
176
     1
 90
        0
176
     1
290
     0
176
     1
290
     1
176
     1
290
     1
176
     1
290
     0
176
     1
290
     0
176
     1
290
     0
176
     1
290
     0
176
     1
290
     0
176
     1
290
     0
176
     1
 90
       50
176
     1
 40
0.0
176
     1
 40
1.0
176
     1
 90
        0
176
     1
 62
    18
420
        0
176
     1
 90
       50
176
     1
 90
        3
176
     1
 62
     5
420
      255
176
     1
290
     0
176
     1
 90
       50
176
     1
 90
       50
176
     1
 90
       50
176
     1
290
     0
176
     1
 90
       50
176
     1
 62
   256
176
     0
 40
1.0
176
     0
 90
        2
176
     1
  1
strokes_ogs.tif
176
     1
290
     0
176
     1
 40
1.0
176
     1
 40
1.0
176
     1
  0
VISUALSTYLE
  5
32
102
{ACAD_REACTORS
330
29
102
}
330
29
100
AcDbVisualStyle
  2
Conceptual
 70
     9
177
     3
291
     0
 70
    58
 90
        3
176
     1
 90
        2
176
     1
 90
        0
176
     1
 90
        0
176
     1
 40
0.6
176
     1
 40
30.0
176
     1
 62
     7
420
 16777215
176
     1
 90
        2
176
     1
 90
        2
176
     1
 62
     7
176
     1
 62
   257
176
     1
 90
        1
176
     1
 90
        1
176
     1
 40
179.0
176
     1
 90
        8
176
     1
 62
     7
176
     1
 40
1.0
176
     1
 90
        1
176
     1
 90
        6
176
     1
 90
        2
176
     1
 62
     7
176
     1
 90
        3
176
     1
 90
        0
176
     1
 90
        0
176
     1
290
     0
176
     1
 90
        1
176
     1
 40
0.0
176
     1
 90
        0
176
     1
290
     0
176
     1
290
     1
176
     1
290
     1
176
     1
290
     0
176
     1
290
     0
176
     1
290
     0
176
     1
290
     0
176
     1
290
     0
176
     1
290
     0
176
     1
 90
       50
176
     1
 40
0.0
176
     1
 40
1.0
176
     1
 90
        0
176
     1
 62
    18
420
        0
176
     1
 90
       50
176
     1
 90
        3
176
     1
 62
     5
420
      255
176
     1
290
     0
176
     1
 90
       50
176
     1
 90
       50
176
     1
 90
       50
176
     1
290
     0
176
     1
 90
       50
176
     1
 62
   256
176
     0
 40
1.0
176
     0
 90
        2
176
     1
  1
strokes_ogs.tif
176
     1
290
     0
176
     1
 40
1.0
176
     1
 40
1.0
176
     1
  0
VISUALSTYLE
  5
34
102
{ACAD_REACTORS
330
29
102
}
330
29
100
AcDbVisualStyle
  2
Dim
 70
    11
177
     3
291
     1
 70
    58
 90
        2
176
     1
 90
        2
176
     1
 90
        0
176
     1
 90
        0
176
     1
 40
0.6
176
     1
 40
30.0
176
     1
 62
     7
420
 16777215
176
     1
 90
        1
176
     1
 90
        4
176
     1
 62
     7
176
     1
 62
   257
176
     1
 90
        1
176
     1
 90
        1
176
     1
 40
1.0
176
     1
 90
        8
176
     1
 62
     7
176
     1
 40
1.0
176
     1
 90
        1
176
     1
 90
        6
176
     1
 90
        2
176
     1
 62
     7
176
     1
 90
        5
176
     1
 90
        0
176
     1
 90
        0
176
     1
290
     0
176
     1
 90
        1
176
     1
 40
-50.0
176
     1
 90
        0
176
     1
290
     0
176
     1
290
     1
176
     1
290
     1
176
     1
290
     0
176
     1
290
     0
176
     1
290
     0
176
     1
290
     0
176
     1
290
     0
176
     1
290
     0
176
     1
 90
       50
176
     1
 40
0.0
176
     1
 40
1.0
176
     1
 90
        0
176
     1
 62
    18
420
        0
176
     1
 90
       50
176
     1
 90
        3
176
     1
 62
     5
420
      255
176
     1
290
     0
176
     1
 90
       50
176
     1
 90
       50
176
     1
 90
       50
176
     1
290
     0
176
     1
 90
       50
176
     1
 62
   256
176
     0
 40
1.0
176
     0
 90
        2
176
     1
  1
strokes_ogs.tif
176
     1
290
     0
176
     1
 40
1.0
176
     1
 40
1.0
176
     1
  0
VISUALSTYLE
  5
41
102
{ACAD_REACTORS
330
29
102
}
330
29
100
AcDbVisualStyle
  2
EdgeColorOff
 70
    22
177
     3
291
     1
 70
    58
 90
        2
176
     0
 90
        2
176
     0
 90
        0
176
     0
 90
        0
176
     0
 40
0.6
176
     0
 40
30.0
176
     0
 62
     7
420
 16777215
176
     0
 90
        1
176
     0
 90
        4
176
     0
 62
     7
176
     0
 62
   257
176
     0
 90
        1
176
     0
 90
        1
176
     0
 40
1.0
176
     0
 90
        8
176
     2
 62
     7
176
     0
 40
1.0
176
     0
 90
        1
176
     0
 90
        6
176
     0
 90
        2
176
     0
 62
     7
176
     0
 90
        5
176
     0
 90
        0
176
     0
 90
        0
176
     0
290
     0
176
     0
 90
        1
176
     0
 40
0.0
176
     0
 90
        0
176
     0
290
     0
176
     0
290
     1
176
     0
290
     1
176
     0
290
     0
176
     0
290
     0
176
     0
290
     0
176
     0
290
     0
176
     0
290
     0
176
     0
290
     0
176
     0
 90
       50
176
     0
 40
0.0
176
     0
 40
1.0
176
     0
 90
        0
176
     0
 62
    18
420
        0
176
     0
 90
       50
176
     0
 90
        3
176
     0
 62
     5
420
      255
176
     0
290
     0
176
     0
 90
       50
176
     0
 90
       50
176
     0
 90
       50
176
     0
290
     0
176
     0
 90
       50
176
     0
 62
   256
176
     0
 40
1.0
176
     0
 90
        2
176
     0
  1
strokes_ogs.tif
176
     0
290
     0
176
     0
 40
1.0
176
     0
 40
1.0
176
     0
  0
VISUALSTYLE
  5
38
102
{ACAD_REACTORS
330
29
102
}
330
29
100
AcDbVisualStyle
  2
Facepattern
 70
    15
177
     3
291
     1
 70
    58
 90
        2
176
     1
 90
        2
176
     1
 90
        0
176
     1
 90
        0
176
     1
 40
0.6
176
     1
 40
30.0
176
     1
 62
     7
420
 16777215
176
     1
 90
        1
176
     1
 90
        4
176
     1
 62
     7
176
     1
 62
   257
176
     1
 90
        1
176
     1
 90
        1
176
     1
 40
1.0
176
     1
 90
        8
176
     1
 62
     7
176
     1
 40
1.0
176
     1
 90
        1
176
     1
 90
        6
176
     1
 90
        2
176
     1
 62
     7
176
     1
 90
        5
176
     1
 90
        0
176
     1
 90
        0
176
     1
290
     0
176
     1
 90
        1
176
     1
 40
0.0
176
     1
 90
        0
176
     1
290
     0
176
     1
290
     1
176
     1
290
     1
176
     1
290
     0
176
     1
290
     0
176
     1
290
     0
176
     1
290
     0
176
     1
290
     0
176
     1
290
     0
176
     1
 90
       50
176
     1
 40
0.0
176
     1
 40
1.0
176
     1
 90
        0
176
     1
 62
    18
420
        0
176
     1
 90
       50
176
     1
 90
        3
176
     1
 62
     5
420
      255
176
     1
290
     0
176
     1
 90
       50
176
     1
 90
       50
176
     1
 90
       50
176
     1
290
     0
176
     1
 90
       50
176
     1
 62
   256
176
     0
 40
1.0
176
     0
 90
        2
176
     1
  1
strokes_ogs.tif
176
     1
290
     0
176
     1
 40
1.0
176
     1
 40
1.0
176
     1
  0
VISUALSTYLE
  5
2A
102
{ACAD_REACTORS
330
29
102
}
330
29
100
AcDbVisualStyle
  2
Flat
 70
     0
177
     3
291
     1
 70
    58
 90
        2
176
     1
 90
        1
176
     1
 90
        1
176
     1
 90
        2
176
     1
 40
0.6
176
     1
 40
30.0
176
     1
 62
     7
420
 16777215
176
     1
 90
        0
176
     1
 90
        0
176
     1
 62
     7
176
     1
 62
   257
176
     1
 90
        1
176
     1
 90
        1
176
     1
 40
1.0
176
     1
 90
        8
176
     1
 62
     7
176
     1
 40
1.0
176
     1
 90
        1
176
     1
 90
        6
176
     1
 90
        2
176
     1
 62
     7
176
     1
 90
        5
176
     1
 90
        0
176
     1
 90
        0
176
     1
290
     0
176
     1
 90
       13
176
     1
 40
0.0
176
     1
 90
        0
176
     1
290
     0
176
     1
290
     1
176
     1
290
     1
176
     1
290
     0
176
     1
290
     0
176
     1
290
     0
176
     1
290
     0
176
     1
290
     0
176
     1
290
     0
176
     1
 90
       50
176
     1
 40
0.0
176
     1
 40
1.0
176
     1
 90
        0
176
     1
 62
    18
420
        0
176
     1
 90
       50
176
     1
 90
        3
176
     1
 62
     5
420
      255
176
     1
290
     0
176
     1
 90
       50
176
     1
 90
       50
176
     1
 90
       50
176
     1
290
     0
176
     1
 90
       50
176
     1
 62
   256
176
     0
 40
1.0
176
     0
 90
        2
176
     1
  1
strokes_ogs.tif
176
     1
290
     0
176
     1
 40
1.0
176
     1
 40
1.0
176
     1
  0
VISUALSTYLE
  5
2B
102
{ACAD_REACTORS
330
29
102
}
330
29
100
AcDbVisualStyle
  2
FlatWithEdges
 70
     1
177
     3
291
     1
 70
    58
 90
        2
176
     1
 90
        1
176
     1
 90
        1
176
     1
 90
        2
176
     1
 40
0.6
176
     1
 40
30.0
176
     1
 62
     7
420
 16777215
176
     1
 90
        1
176
     1
 90
        0
176
     1
 62
     7
176
     1
 62
   257
176
     1
 90
        1
176
     1
 90
        1
176
     1
 40
1.0
176
     1
 90
        0
176
     1
 62
   257
176
     1
 40
1.0
176
     1
 90
        1
176
     1
 90
        6
176
     1
 90
        2
176
     1
 62
     7
176
     1
 90
        5
176
     1
 90
        0
176
     1
 90
        0
176
     1
290
     0
176
     1
 90
       13
176
     1
 40
0.0
176
     1
 90
        0
176
     1
290
     0
176
     1
290
     1
176
     1
290
     1
176
     1
290
     0
176
     1
290
     0
176
     1
290
     0
176
     1
290
     0
176
     1
290
     0
176
     1
290
     0
176
     1
 90
       50
176
     1
 40
0.0
176
     1
 40
1.0
176
     1
 90
        0
176
     1
 62
    18
420
        0
176
     1
 90
       50
176
     1
 90
        3
176
     1
 62
     5
420
      255
176
     1
290
     0
176
     1
 90
       50
176
     1
 90
       50
176
     1
 90
       50
176
     1
290
     0
176
     1
 90
       50
176
     1
 62
   256
176
     0
 40
1.0
176
     0
 90
        2
176
     1
  1
strokes_ogs.tif
176
     1
290
     0
176
     1
 40
1.0
176
     1
 40
1.0
176
     1
  0
VISUALSTYLE
  5
2C
102
{ACAD_REACTORS
330
29
102
}
330
29
100
AcDbVisualStyle
  2
Gouraud
 70
     2
177
     3
291
     1
 70
    58
 90
        2
176
     1
 90
        2
176
     1
 90
        1
176
     1
 90
        2
176
     1
 40
0.6
176
     1
 40
30.0
176
     1
 62
     7
420
 16777215
176
     1
 90
        0
176
     1
 90
        0
176
     1
 62
     7
176
     1
 62
   257
176
     1
 90
        1
176
     1
 90
        1
176
     1
 40
1.0
176
     1
 90
        0
176
     1
 62
     7
176
     1
 40
1.0
176
     1
 90
        1
176
     1
 90
        6
176
     1
 90
        2
176
     1
 62
     7
176
     1
 90
        5
176
     1
 90
        0
176
     1
 90
        0
176
     1
290
     0
176
     1
 90
       13
176
     1
 40
0.0
176
     1
 90
        0
176
     1
290
     0
176
     1
290
     1
176
     1
290
     1
176
     1
290
     0
176
     1
290
     0
176
     1
290
     0
176
     1
290
     0
176
     1
290
     0
176
     1
290
     0
176
     1
 90
       50
176
     1
 40
0.0
176
     1
 40
1.0
176
     1
 90
        0
176
     1
 62
    18
420
        0
176
     1
 90
       50
176
     1
 90
        3
176
     1
 62
     5
420
      255
176
     1
290
     0
176
     1
 90
       50
176
     1
 90
       50
176
     1
 90
       50
176
     1
290
     0
176
     1
 90
       50
176
     1
 62
   256
176
     0
 40
1.0
176
     0
 90
        2
176
     1
  1
strokes_ogs.tif
176
     1
290
     0
176
     1
 40
1.0
176
     1
 40
1.0
176
     1
  0
VISUALSTYLE
  5
2D
102
{ACAD_REACTORS
330
29
102
}
330
29
100
AcDbVisualStyle
  2
GouraudWithEdges
 70
     3
177
     3
291
     1
 70
    58
 90
        2
176
     1
 90
        2
176
     1
 90
        1
176
     1
 90
        2
176
     1
 40
0.6
176
     1
 40
30.0
176
     1
 62
     7
420
 16777215
176
     1
 90
        1
176
     1
 90
        0
176
     1
 62
     7
176
     1
 62
   257
176
     1
 90
        1
176
     1
 90
        1
176
     1
 40
1.0
176
     1
 90
        0
176
     1
 62
   257
176
     1
 40
1.0
176
     1
 90
        1
176
     1
 90
        6
176
     1
 90
        2
176
     1
 62
     7
176
     1
 90
        5
176
     1
 90
        0
176
     1
 90
        0
176
     1
290
     0
176
     1
 90
       13
176
     1
 40
0.0
176
     1
 90
        0
176
     1
290
     0
176
     1
290
     1
176
     1
290
     1
176
     1
290
     0
176
     1
290
     0
176
     1
290
     0
176
     1
290
     0
176
     1
290
     0
176
     1
290
     0
176
     1
 90
       50
176
     1
 40
0.0
176
     1
 40
1.0
176
     1
 90
        0
176
     1
 62
    18
420
        0
176
     1
 90
       50
176
     1
 90
        3
176
     1
 62
     5
420
      255
176
     1
290
     0
176
     1
 90
       50
176
     1
 90
       50
176
     1
 90
       50
176
     1
290
     0
176
     1
 90
       50
176
     1
 62
   256
176
     0
 40
1.0
176
     0
 90
        2
176
     1
  1
strokes_ogs.tif
176
     1
290
     0
176
     1
 40
1.0
176
     1
 40
1.0
176
     1
  0
VISUALSTYLE
  5
31
102
{ACAD_REACTORS
330
29
102
}
330
29
100
AcDbVisualStyle
  2
Hidden
 70
     6
177
     3
291
     0
 70
    58
 90
        1
176
     1
 90
        2
176
     1
 90
        2
176
     1
 90
        0
176
     1
 40
0.6
176
     1
 40
30.0
176
     1
 62
     7
420
 16777215
176
     1
 90
        2
176
     1
 90
        2
176
     1
 62
     7
176
     1
 62
   257
176
     1
 90
        2
176
     1
 90
        1
176
     1
 40
40.0
176
     1
 90
        0
176
     1
 62
   257
176
     1
 40
1.0
176
     1
 90
        1
176
     1
 90
        6
176
     1
 90
        2
176
     1
 62
     7
176
     1
 90
        3
176
     1
 90
        0
176
     1
 90
        0
176
     1
290
     0
176
     1
 90
        1
176
     1
 40
0.0
176
     1
 90
        0
176
     1
290
     0
176
     1
290
     1
176
     1
290
     1
176
     1
290
     0
176
     1
290
     0
176
     1
290
     0
176
     1
290
     0
176
     1
290
     0
176
     1
290
     0
176
     1
 90
       50
176
     1
 40
0.0
176
     1
 40
1.0
176
     1
 90
        0
176
     1
 62
    18
420
        0
176
     1
 90
       50
176
     1
 90
        3
176
     1
 62
     5
420
      255
176
     1
290
     0
176
     1
 90
       50
176
     1
 90
       50
176
     1
 90
       50
176
     1
290
     0
176
     1
 90
       50
176
     1
 62
   256
176
     0
 40
1.0
176
     0
 90
        2
176
     1
  1
strokes_ogs.tif
176
     1
290
     0
176
     1
 40
1.0
176
     1
 40
1.0
176
     1
  0
VISUALSTYLE
  5
3F
102
{ACAD_REACTORS
330
29
102
}
330
29
100
AcDbVisualStyle
  2
JitterOff
 70
    20
177
     3
291
     1
 70
    58
 90
        2
176
     0
 90
        2
176
     0
 90
        0
176
     0
 90
        0
176
     0
 40
0.6
176
     0
 40
30.0
176
     0
 62
     7
420
 16777215
176
     0
 90
        1
176
     0
 90
        4
176
     0
 62
     7
176
     0
 62
   257
176
     0
 90
        1
176
     0
 90
        1
176
     0
 40
1.0
176
     0
 90
       10
176
     2
 62
     7
176
     0
 40
1.0
176
     0
 90
        1
176
     0
 90
        6
176
     0
 90
        2
176
     0
 62
     7
176
     0
 90
        5
176
     0
 90
        0
176
     0
 90
        0
176
     0
290
     0
176
     0
 90
        1
176
     0
 40
0.0
176
     0
 90
        0
176
     0
290
     0
176
     0
290
     1
176
     0
290
     1
176
     0
290
     0
176
     0
290
     0
176
     0
290
     0
176
     0
290
     0
176
     0
290
     0
176
     0
290
     0
176
     0
 90
       50
176
     0
 40
0.0
176
     0
 40
1.0
176
     0
 90
        0
176
     0
 62
    18
420
        0
176
     0
 90
       50
176
     0
 90
        3
176
     0
 62
     5
420
      255
176
     0
290
     0
176
     0
 90
       50
176
     0
 90
       50
176
     0
 90
       50
176
     0
290
     0
176
     0
 90
       50
176
     0
 62
   256
176
     0
 40
1.0
176
     0
 90
        2
176
     0
  1
strokes_ogs.tif
176
     0
290
     0
176
     0
 40
1.0
176
     0
 40
1.0
176
     0
  0
VISUALSTYLE
  5
37
102
{ACAD_REACTORS
330
29
102
}
330
29
100
AcDbVisualStyle
  2
Linepattern
 70
    14
177
     3
291
     1
 70
    58
 90
        2
176
     1
 90
        2
176
     1
 90
        0
176
     1
 90
        0
176
     1
 40
0.6
176
     1
 40
30.0
176
     1
 62
     7
420
 16777215
176
     1
 90
        1
176
     1
 90
        4
176
     1
 62
     7
176
     1
 62
   257
176
     1
 90
        7
176
     1
 90
        7
176
     1
 40
1.0
176
     1
 90
        8
176
     1
 62
     7
176
     1
 40
1.0
176
     1
 90
        1
176
     1
 90
        6
176
     1
 90
        2
176
     1
 62
     7
176
     1
 90
        5
176
     1
 90
        0
176
     1
 90
        0
176
     1
290
     0
176
     1
 90
        1
176
     1
 40
0.0
176
     1
 90
        0
176
     1
290
     0
176
     1
290
     1
176
     1
290
     1
176
     1
290
     0
176
     1
290
     0
176
     1
290
     0
176
     1
290
     0
176
     1
290
     0
176
     1
290
     0
176
     1
 90
       50
176
     1
 40
0.0
176
     1
 40
1.0
176
     1
 90
        0
176
     1
 62
    18
420
        0
176
     1
 90
       50
176
     1
 90
        3
176
     1
 62
     5
420
      255
176
     1
290
     0
176
     1
 90
       50
176
     1
 90
       50
176
     1
 90
       50
176
     1
290
     0
176
     1
 90
       50
176
     1
 62
   256
176
     0
 40
1.0
176
     0
 90
        2
176
     1
  1
strokes_ogs.tif
176
     1
290
     0
176
     1
 40
1.0
176
     1
 40
1.0
176
     1
  0
VISUALSTYLE
  5
40
102
{ACAD_REACTORS
330
29
102
}
330
29
100
AcDbVisualStyle
  2
OverhangOff
 70
    21
177
     3
291
     1
 70
    58
 90
        2
176
     0
 90
        2
176
     0
 90
        0
176
     0
 90
        0
176
     0
 40
0.6
176
     0
 40
30.0
176
     0
 62
     7
420
 16777215
176
     0
 90
        1
176
     0
 90
        4
176
     0
 62
     7
176
     0
 62
   257
176
     0
 90
        1
176
     0
 90
        1
176
     0
 40
1.0
176
     0
 90
        9
176
     2
 62
     7
176
     0
 40
1.0
176
     0
 90
        1
176
     0
 90
        6
176
     0
 90
        2
176
     0
 62
     7
176
     0
 90
        5
176
     0
 90
        0
176
     0
 90
        0
176
     0
290
     0
176
     0
 90
        1
176
     0
 40
0.0
176
     0
 90
        0
176
     0
290
     0
176
     0
290
     1
176
     0
290
     1
176
     0
290
     0
176
     0
290
     0
176
     0
290
     0
176
     0
290
     0
176
     0
290
     0
176
     0
290
     0
176
     0
 90
       50
176
     0
 40
0.0
176
     0
 40
1.0
176
     0
 90
        0
176
     0
 62
    18
420
        0
176
     0
 90
       50
176
     0
 90
        3
176
     0
 62
     5
420
      255
176
     0
290
     0
176
     0
 90
       50
176
     0
 90
       50
176
     0
 90
       50
176
     0
290
     0
176
     0
 90
       50
176
     0
 62
   256
176
     0
 40
1.0
176
     0
 90
        2
176
     0
  1
strokes_ogs.tif
176
     0
290
     0
176
     0
 40
1.0
176
     0
 40
1.0
176
     0
  0
VISUALSTYLE
  5
33
102
{ACAD_REACTORS
330
29
102
}
330
29
100
AcDbVisualStyle
  2
Realistic
 70
     8
177
     3
291
     0
 70
    58
 90
        2
176
     1
 90
        3
176
     1
 90
        0
176
     1
 90
        2
176
     1
 40
0.6
176
     1
 40
30.0
176
     1
 62
     7
420
 16777215
176
     1
 90
        0
176
     1
 90
        0
176
     1
 62
     7
176
     1
 62
   257
176
     1
 90
        1
176
     1
 90
        1
176
     1
 40
1.0
176
     1
 90
        8
176
     1
 62
   257
176
     1
 40
1.0
176
     1
 90
        1
176
     1
 90
        6
176
     1
 90
        2
176
     1
 62
     7
176
     1
 90
        3
176
     1
 90
        0
176
     1
 90
        0
176
     1
290
     0
176
     1
 90
       13
176
     1
 40
0.0
176
     1
 90
        0
176
     1
290
     0
176
     1
290
     1
176
     1
290
     1
176
     1
290
     0
176
     1
290
     0
176
     1
290
     0
176
     1
290
     0
176
     1
290
     0
176
     1
290
     0
176
     1
 90
       50
176
     1
 40
0.0
176
     1
 40
1.0
176
     1
 90
        0
176
     1
 62
    18
420
        0
176
     1
 90
       50
176
     1
 90
        3
176
     1
 62
     5
420
      255
176
     1
290
     0
176
     1
 90
       50
176
     1
 90
       50
176
     1
 90
       50
176
     1
290
     0
176
     1
 90
       50
176
     1
 62
   256
176
     0
 40
1.0
176
     0
 90
        2
176
     1
  1
strokes_ogs.tif
176
     1
290
     0
176
     1
 40
1.0
176
     1
 40
1.0
176
     1
  0
VISUALSTYLE
  5
3E
102
{ACAD_REACTORS
330
29
102
}
330
29
100
AcDbVisualStyle
  2
Shaded
 70
    27
177
     3
291
     0
 70
    58
 90
        2
176
     1
 90
        2
176
     1
 90
        1
176
     1
 90
        2
176
     1
 40
0.6
176
     1
 40
30.0
176
     1
 62
     7
420
 16777215
176
     1
 90
        0
176
     1
 90
        4
176
     1
 62
     7
176
     1
 62
   257
176
     1
 90
        1
176
     1
 90
        1
176
     1
 40
1.0
176
     1
 90
        8
176
     1
 62
   257
176
     1
 40
1.0
176
     1
 90
        1
176
     1
 90
        6
176
     1
 90
        2
176
     1
 62
     8
420
  7895160
176
     1
 90
        3
176
     1
 90
        0
176
     1
 90
        0
176
     1
290
     0
176
     1
 90
        5
176
     1
 40
0.0
176
     1
 90
        0
176
     1
290
     0
176
     1
290
     1
176
     1
290
     1
176
     1
290
     0
176
     1
290
     0
176
     1
290
     0
176
     1
290
     0
176
     1
290
     0
176
     1
290
     0
176
     1
 90
       50
176
     1
 40
0.0
176
     1
 40
1.0
176
     1
 90
        0
176
     1
 62
    18
420
        0
176
     1
 90
       50
176
     1
 90
        3
176
     1
 62
     5
420
      255
176
     1
290
     0
176
     1
 90
       50
176
     1
 90
       50
176
     1
 90
       50
176
     1
290
     0
176
     1
 90
       50
176
     1
 62
   256
176
     0
 40
1.0
176
     0
 90
        2
176
     1
  1
strokes_ogs.tif
176
     1
290
     0
176
     1
 40
1.0
176
     1
 40
1.0
176
     1
  0
VISUALSTYLE
  5
3D
102
{ACAD_REACTORS
330
29
102
}
330
29
100
AcDbVisualStyle
  2
Shaded with edges
 70
    26
177
     3
291
     0
 70
    58
 90
        2
176
     1
 90
        2
176
     1
 90
        1
176
     1
 90
        2
176
     1
 40
0.6
176
     1
 40
30.0
176
     1
 62
     7
420
 16777215
176
     1
 90
        1
176
     1
 90
        2
176
     1
 62
     7
176
     1
 62
   257
176
     1
 90
        2
176
     1
 90
        1
176
     1
 40
1.0
176
     1
 90
        8
176
     1
 62
   257
176
     1
 40
1.0
176
     1
 90
        1
176
     1
 90
        6
176
     1
 90
        2
176
     1
 62
     7
176
     1
 90
        3
176
     1
 90
        0
176
     1
 90
        0
176
     1
290
     0
176
     1
 90
        5
176
     1
 40
0.0
176
     1
 90
        0
176
     1
290
     0
176
     1
290
     1
176
     1
290
     1
176
     1
290
     0
176
     1
290
     0
176
     1
290
     0
176
     1
290
     0
176
     1
290
     0
176
     1
290
     0
176
     1
 90
       50
176
     1
 40
0.0
176
     1
 40
1.0
176
     1
 90
        0
176
     1
 62
    18
420
        0
176
     1
 90
       50
176
     1
 90
        3
176
     1
 62
     5
420
      255
176
     1
290
     0
176
     1
 90
       50
176
     1
 90
       50
176
     1
 90
       50
176
     1
290
     0
176
     1
 90
       50
176
     1
 62
   256
176
     0
 40
1.0
176
     0
 90
        2
176
     1
  1
strokes_ogs.tif
176
     1
290
     0
176
     1
 40
1.0
176
     1
 40
1.0
176
     1
  0
VISUALSTYLE
  5
3A
102
{ACAD_REACTORS
330
29
102
}
330
29
100
AcDbVisualStyle
  2
Shades of Gray
 70
    23
177
     3
291
     0
 70
    58
 90
        2
176
     1
 90
        2
176
     1
 90
        3
176
     1
 90
        0
176
     1
 40
0.6
176
     1
 40
30.0
176
     1
 62
     7
420
 16777215
176
     1
 90
        2
176
     1
 90
        2
176
     1
 62
     7
176
     1
 62
     7
176
     1
 90
        1
176
     1
 90
        1
176
     1
 40
40.0
176
     1
 90
        8
176
     1
 62
     7
176
     1
 40
1.0
176
     1
 90
        1
176
     1
 90
        6
176
     1
 90
        2
176
     1
 62
     7
176
     1
 90
        3
176
     1
 90
        0
176
     1
 90
        0
176
     1
290
     0
176
     1
 90
        1
176
     1
 40
0.0
176
     1
 90
        0
176
     1
290
     0
176
     1
290
     1
176
     1
290
     1
176
     1
290
     0
176
     1
290
     0
176
     1
290
     0
176
     1
290
     0
176
     1
290
     0
176
     1
290
     0
176
     1
 90
       50
176
     1
 40
0.0
176
     1
 40
1.0
176
     1
 90
        0
176
     1
 62
    18
420
        0
176
     1
 90
       50
176
     1
 90
        3
176
     1
 62
     5
420
      255
176
     1
290
     0
176
     1
 90
       50
176
     1
 90
       50
176
     1
 90
       50
176
     1
290
     0
176
     1
 90
       50
176
     1
 62
   256
176
     0
 40
1.0
176
     0
 90
        2
176
     1
  1
strokes_ogs.tif
176
     1
290
     0
176
     1
 40
1.0
176
     1
 40
1.0
176
     1
  0
VISUALSTYLE
  5
3B
102
{ACAD_REACTORS
330
29
102
}
330
29
100
AcDbVisualStyle
  2
Sketchy
 70
    24
177
     3
291
     0
 70
    58
 90
        1
176
     1
 90
        2
176
     1
 90
        2
176
     1
 90
        0
176
     1
 40
0.6
176
     1
 40
30.0
176
     1
 62
     7
420
 16777215
176
     1
 90
        2
176
     1
 90
        2
176
     1
 62
     7
176
     1
 62
     7
176
     1
 90
        1
176
     1
 90
        1
176
     1
 40
40.0
176
     1
 90
       11
176
     1
 62
     7
176
     1
 40
1.0
176
     1
 90
        1
176
     1
 90
        6
176
     1
 90
        2
176
     1
 62
     7
176
     1
 90
        6
176
     1
 90
        0
176
     1
 90
        0
176
     1
290
     0
176
     1
 90
        1
176
     1
 40
0.0
176
     1
 90
        0
176
     1
290
     0
176
     1
290
     1
176
     1
290
     1
176
     1
290
     0
176
     1
290
     0
176
     1
290
     0
176
     1
290
     0
176
     1
290
     0
176
     1
290
     0
176
     1
 90
       50
176
     1
 40
0.0
176
     1
 40
1.0
176
     1
 90
        0
176
     1
 62
    18
420
        0
176
     1
 90
       50
176
     1
 90
        3
176
     1
 62
     5
420
      255
176
     1
290
     0
176
     1
 90
       50
176
     1
 90
       50
176
     1
 90
       50
176
     1
290
     0
176
     1
 90
       50
176
     1
 62
   256
176
     0
 40
1.0
176
     0
 90
        2
176
     1
  1
strokes_ogs.tif
176
     1
290
     0
176
     1
 40
1.0
176
     1
 40
1.0
176
     1
  0
VISUALSTYLE
  5
36
102
{ACAD_REACTORS
330
29
102
}
330
29
100
AcDbVisualStyle
  2
Thicken
 70
    13
177
     3
291
     1
 70
    58
 90
        2
176
     1
 90
        2
176
     1
 90
        0
176
     1
 90
        0
176
     1
 40
0.6
176
     1
 40
30.0
176
     1
 62
     7
420
 16777215
176
     1
 90
        1
176
     1
 90
        4
176
     1
 62
     7
176
     1
 62
   257
176
     1
 90
        1
176
     1
 90
        1
176
     1
 40
1.0
176
     1
 90
       12
176
     1
 62
     7
176
     1
 40
1.0
176
     1
 90
        1
176
     1
 90
        6
176
     1
 90
        2
176
     1
 62
     7
176
     1
 90
        5
176
     1
 90
        0
176
     1
 90
        0
176
     1
290
     0
176
     1
 90
        1
176
     1
 40
0.0
176
     1
 90
        0
176
     1
290
     0
176
     1
290
     1
176
     1
290
     1
176
     1
290
     0
176
     1
290
     0
176
     1
290
     0
176
     1
290
     0
176
     1
290
     0
176
     1
290
     0
176
     1
 90
       50
176
     1
 40
0.0
176
     1
 40
1.0
176
     1
 90
        0
176
     1
 62
    18
420
        0
176
     1
 90
       50
176
     1
 90
        3
176
     1
 62
     5
420
      255
176
     1
290
     0
176
     1
 90
       50
176
     1
 90
       50
176
     1
 90
       50
176
     1
290
     0
176
     1
 90
       50
176
     1
 62
   256
176
     0
 40
1.0
176
     0
 90
        2
176
     1
  1
strokes_ogs.tif
176
     1
290
     0
176
     1
 40
1.0
176
     1
 40
1.0
176
     1
  0
VISUALSTYLE
  5
30
102
{ACAD_REACTORS
330
29
102
}
330
29
100
AcDbVisualStyle
  2
Wireframe
 70
     5
177
     3
291
     0
 70
    58
 90
        0
176
     1
 90
        2
176
     1
 90
        0
176
     1
 90
        0
176
     1
 40
0.6
176
     1
 40
30.0
176
     1
 62
     7
420
 16777215
176
     1
 90
        1
176
     1
 90
        4
176
     1
 62
     7
176
     1
 62
   257
176
     1
 90
        1
176
     1
 90
        1
176
     1
 40
1.0
176
     1
 90
        0
176
     1
 62
   257
176
     1
 40
1.0
176
     1
 90
        1
176
     1
 90
        6
176
     1
 90
        2
176
     1
 62
     7
176
     1
 90
        3
176
     1
 90
        0
176
     1
 90
        0
176
     1
290
     0
176
     1
 90
        1
176
     1
 40
0.0
176
     1
 90
        0
176
     1
290
     0
176
     1
290
     1
176
     1
290
     1
176
     1
290
     0
176
     1
290
     0
176
     1
290
     0
176
     1
290
     0
176
     1
290
     0
176
     1
290
     0
176
     1
 90
       50
176
     1
 40
0.0
176
     1
 40
1.0
176
     1
 90
        0
176
     1
 62
    18
420
        0
176
     1
 90
       50
176
     1
 90
        3
176
     1
 62
     5
420
      255
176
     1
290
     0
176
     1
 90
       50
176
     1
 90
       50
176
     1
 90
       50
176
     1
290
     0
176
     1
 90
       50
176
     1
 62
   256
176
     0
 40
1.0
176
     0
 90
        2
176
     1
  1
strokes_ogs.tif
176
     1
290
     0
176
     1
 40
1.0
176
     1
 40
1.0
176
     1
  0
VISUALSTYLE
  5
3C
102
{ACAD_REACTORS
330
29
102
}
330
29
100
AcDbVisualStyle
  2
X-Ray
 70
    25
177
     3
291
     0
 70
    58
 90
        2
176
     1
 90
        2
176
     1
 90
        1
176
     1
 90
        1
176
     1
 40
0.5
176
     1
 40
30.0
176
     1
 62
     7
420
 16777215
176
     1
 90
        1
176
     1
 90
        0
176
     1
 62
     7
176
     1
 62
   257
176
     1
 90
        1
176
     1
 90
        1
176
     1
 40
1.0
176
     1
 90
        8
176
     1
 62
     7
176
     1
 40
1.0
176
     1
 90
        1
176
     1
 90
        6
176
     1
 90
        2
176
     1
 62
     7
176
     1
 90
        3
176
     1
 90
        0
176
     1
 90
        0
176
     1
290
     0
176
     1
 90
       13
176
     1
 40
0.0
176
     1
 90
        0
176
     1
290
     0
176
     1
290
     1
176
     1
290
     1
176
     1
290
     0
176
     1
290
     0
176
     1
290
     0
176
     1
290
     0
176
     1
290
     0
176
     1
290
     0
176
     1
 90
       50
176
     1
 40
0.0
176
     1
 40
1.0
176
     1
 90
        0
176
     1
 62
    18
420
        0
176
     1
 90
       50
176
     1
 90
        3
176
     1
 62
     5
420
      255
176
     1
290
     0
176
     1
 90
       50
176
     1
 90
       50
176
     1
 90
       50
176
     1
290
     0
176
     1
 90
       50
176
     1
 62
   256
176
     0
 40
1.0
176
     0
 90
        2
176
     1
  1
strokes_ogs.tif
176
     1
290
     0
176
     1
 40
1.0
176
     1
 40
1.0
176
     1
  0
DICTIONARYVAR
  5
114
102
{ACAD_REACTORS
330
10F
102
}
330
10F
100
DictionaryVariables
280
     0
  1
1:1
  0
DICTIONARYVAR
  5
111
102
{ACAD_REACTORS
330
10F
102
}
330
10F
100
DictionaryVariables
280
     0
  1
STANDARD
  0
DICTIONARYVAR
  5
110
102
{ACAD_REACTORS
330
10F
102
}
330
10F
100
DictionaryVariables
280
     0
  1
STANDARD
  0
DICTIONARYVAR
  5
112
102
{ACAD_REACTORS
330
10F
102
}
330
10F
100
DictionaryVariables
280
     0
  1
Imperial24
  0
DICTIONARYVAR
  5
113
102
{ACAD_REACTORS
330
10F
102
}
330
10F
100
DictionaryVariables
280
     0
  1
Imperial24
  0
DICTIONARY
  5
1A
330
19
100
AcDbDictionary
280
     1
281
     1
  3
BUMPTILE
360
1C
  3
DIFFUSETILE
360
1B
  3
OPACITYTILE
360
1F
  3
REFLECTIONTILE
360
1E
  3
REFRACTIONTILE
360
20
  3
SPECULARTILE
360
1D
  0
DICTIONARY
  5
12
330
11
100
AcDbDictionary
280
     1
281
     1
  3
BUMPTILE
360
14
  3
DIFFUSETILE
360
13
  3
OPACITYTILE
360
17
  3
REFLECTIONTILE
360
16
  3
REFRACTIONTILE
360
18
  3
SPECULARTILE
360
15
  0
DICTIONARY
  5
22
330
21
100
AcDbDictionary
280
     1
281
     1
  3
BUMPTILE
360
24
  3
DIFFUSETILE
360
23
  3
OPACITYTILE
360
27
  3
REFLECTIONTILE
360
26
  3
REFRACTIONTILE
360
28
  3
SPECULARTILE
360
25
  0
DICTIONARY
  5
115
330
65
100
AcDbDictionary
280
     1
281
     1
  3
ACAD_ROUNDTRIP_2008_TABLESTYLE_CELLSTYLEMAP
360
116
  0
XRECORD
  5
1C
102
{ACAD_REACTORS
330
1A
102
}
330
1A
100
AcDbXrecord
280
     1
270
     1
271
     1
  0
XRECORD
  5
1B
102
{ACAD_REACTORS
330
1A
102
}
330
1A
100
AcDbXrecord
280
     1
270
     1
271
     1
  0
XRECORD
  5
1F
102
{ACAD_REACTORS
330
1A
102
}
330
1A
100
AcDbXrecord
280
     1
270
     1
271
     1
  0
XRECORD
  5
1E
102
{ACAD_REACTORS
330
1A
102
}
330
1A
100
AcDbXrecord
280
     1
270
     1
271
     1
  0
XRECORD
  5
20
102
{ACAD_REACTORS
330
1A
102
}
330
1A
100
AcDbXrecord
280
     1
270
     1
271
     1
  0
XRECORD
  5
1D
102
{ACAD_REACTORS
330
1A
102
}
330
1A
100
AcDbXrecord
280
     1
270
     1
271
     1
  0
XRECORD
  5
14
102
{ACAD_REACTORS
330
12
102
}
330
12
100
AcDbXrecord
280
     1
270
     1
271
     1
  0
XRECORD
  5
13
102
{ACAD_REACTORS
330
12
102
}
330
12
100
AcDbXrecord
280
     1
270
     1
271
     1
  0
XRECORD
  5
17
102
{ACAD_REACTORS
330
12
102
}
330
12
100
AcDbXrecord
280
     1
270
     1
271
     1
  0
XRECORD
  5
16
102
{ACAD_REACTORS
330
12
102
}
330
12
100
AcDbXrecord
280
     1
270
     1
271
     1
  0
XRECORD
  5
18
102
{ACAD_REACTORS
330
12
102
}
330
12
100
AcDbXrecord
280
     1
270
     1
271
     1
  0
XRECORD
  5
15
102
{ACAD_REACTORS
330
12
102
}
330
12
100
AcDbXrecord
280
     1
270
     1
271
     1
  0
XRECORD
  5
24
102
{ACAD_REACTORS
330
22
102
}
330
22
100
AcDbXrecord
280
     1
270
     1
271
     1
  0
XRECORD
  5
23
102
{ACAD_REACTORS
330
22
102
}
330
22
100
AcDbXrecord
280
     1
270
     1
271
     1
  0
XRECORD
  5
27
102
{ACAD_REACTORS
330
22
102
}
330
22
100
AcDbXrecord
280
     1
270
     1
271
     1
  0
XRECORD
  5
26
102
{ACAD_REACTORS
330
22
102
}
330
22
100
AcDbXrecord
280
     1
270
     1
271
     1
  0
XRECORD
  5
28
102
{ACAD_REACTORS
330
22
102
}
330
22
100
AcDbXrecord
280
     1
270
     1
271
     1
  0
XRECORD
  5
25
102
{ACAD_REACTORS
330
22
102
}
330
22
100
AcDbXrecord
280
     1
270
     1
271
     1
  0
CELLSTYLEMAP
  5
116
102
{ACAD_REACTORS
330
115
102
}
330
115
100
AcDbCellStyleMap
 90
        3
300
CELLSTYLE
  1
TABLEFORMAT_BEGIN
 90
        5
170
     1
 91
        0
 92
    32768
 62
   257
 93
        1
300
CONTENTFORMAT
  1
CONTENTFORMAT_BEGIN
 90
        0
 91
        0
 92
      512
 93
        0
300

 40
0.0
140
1.0
 94
        5
 62
     0
340
55
144
0.25
309
CONTENTFORMAT_END
171
     0
 94
        0
309
TABLEFORMAT_END
  1
CELLSTYLE_BEGIN
 90
        1
 91
        1
300
_TITLE
309
CELLSTYLE_END
300
CELLSTYLE
  1
TABLEFORMAT_BEGIN
 90
        5
170
     1
 91
        0
 92
        0
 62
   257
 93
        1
300
CONTENTFORMAT
  1
CONTENTFORMAT_BEGIN
 90
        0
 91
        0
 92
      512
 93
        0
300

 40
0.0
140
1.0
 94
        5
 62
     0
340
55
144
0.18
309
CONTENTFORMAT_END
171
     0
 94
        0
309
TABLEFORMAT_END
  1
CELLSTYLE_BEGIN
 90
        2
 91
        1
300
_HEADER
309
CELLSTYLE_END
300
CELLSTYLE
  1
TABLEFORMAT_BEGIN
 90
        5
170
     1
 91
        0
 92
        0
 62
   257
 93
        1
300
CONTENTFORMAT
  1
CONTENTFORMAT_BEGIN
 90
        0
 91
        0
 92
      512
 93
        0
300

 40
0.0
140
1.0
 94
        2
 62
     0
340
55
144
0.18
309
CONTENTFORMAT_END
171
     0
 94
        0
309
TABLEFORMAT_END
  1
CELLSTYLE_BEGIN
 90
        3
 91
        2
300
_DATA
309
CELLSTYLE_END
  0
ENDSEC
  0
EOF
