  0
SECTION
  2
HEADER
  9
$ACADVER
  1
AC1032
  9
$ACADMAINTVER
 90
      228
  9
$DWGCODEPAGE
  3
ANSI_1252
  9
$REQUIREDVERSIONS
160
                 0
  9
$INSBASE
 10
0.0
 20
0.0
 30
0.0
  9
$EXTMIN
 10
1.000000000000000E+20
 20
1.000000000000000E+20
 30
1.000000000000000E+20
  9
$EXTMAX
 10
-1.000000000000000E+20
 20
-1.000000000000000E+20
 30
-1.000000000000000E+20
  9
$LIMMIN
 10
0.0
 20
0.0
  9
$LIMMAX
 10
12.0
 20
9.0
  9
$ORTHOMODE
 70
     0
  9
$REGENMODE
 70
     1
  9
$FILLMODE
 70
     1
  9
$QTEXTMODE
 70
     0
  9
$MIRRTEXT
 70
     0
  9
$LTSCALE
 40
1.0
  9
$ATTMODE
 70
     1
  9
$TEXTSIZE
 40
0.2
  9
$TRACEWID
 40
0.05
  9
$TEXTSTYLE
  7
Standard
  9
$CLAYER
  8
0
  9
$CELTYPE
  6
ByLayer
  9
$CECOLOR
 62
   256
  9
$CELTSCALE
 40
1.0
  9
$DISPSILH
 70
     0
  9
$DIMSCALE
 40
1.0
  9
$DIMASZ
 40
0.18
  9
$DIMEXO
 40
0.0625
  9
$DIMDLI
 40
0.38
  9
$DIMRND
 40
0.0
  9
$DIMDLE
 40
0.0
  9
$DIMEXE
 40
0.18
  9
$DIMTP
 40
0.0
  9
$DIMTM
 40
0.0
  9
$DIMTXT
 40
0.18
  9
$DIMCEN
 40
0.09
  9
$DIMTSZ
 40
0.0
  9
$DIMTOL
 70
     0
  9
$DIMLIM
 70
     0
  9
$DIMTIH
 70
     1
  9
$DIMTOH
 70
     1
  9
$DIMSE1
 70
     0
  9
$DIMSE2
 70
     0
  9
$DIMTAD
 70
     0
  9
$DIMZIN
 70
     0
  9
$DIMBLK
  1

  9
$DIMASO
 70
     1
  9
$DIMSHO
 70
     1
  9
$DIMPOST
  1

  9
$DIMAPOST
  1

  9
$DIMALT
 70
     0
  9
$DIMALTD
 70
     2
  9
$DIMALTF
 40
25.4
  9
$DIMLFAC
 40
1.0
  9
$DIMTOFL
 70
     0
  9
$DIMTVP
 40
0.0
  9
$DIMTIX
 70
     0
  9
$DIMSOXD
 70
     0
  9
$DIMSAH
 70
     0
  9
$DIMBLK1
  1

  9
$DIMBLK2
  1

  9
$DIMSTYLE
  2
Standard
  9
$DIMCLRD
 70
     0
  9
$DIMCLRE
 70
     0
  9
$DIMCLRT
 70
     0
  9
$DIMTFAC
 40
1.0
  9
$DIMGAP
 40
0.09
  9
$DIMJUST
 70
     0
  9
$DIMSD1
 70
     0
  9
$DIMSD2
 70
     0
  9
$DIMTOLJ
 70
     1
  9
$DIMTZIN
 70
     0
  9
$DIMALTZ
 70
     0
  9
$DIMALTTZ
 70
     0
  9
$DIMUPT
 70
     0
  9
$DIMDEC
 70
     4
  9
$DIMTDEC
 70
     4
  9
$DIMALTU
 70
     2
  9
$DIMALTTD
 70
     2
  9
$DIMTXSTY
  7
Standard
  9
$DIMAUNIT
 70
     0
  9
$DIMADEC
 70
     0
  9
$DIMALTRND
 40
0.0
  9
$DIMAZIN
 70
     0
  9
$DIMDSEP
 70
    46
  9
$DIMATFIT
 70
     3
  9
$DIMFRAC
 70
     0
  9
$DIMLDRBLK
  1

  9
$DIMLUNIT
 70
     2
  9
$DIMLWD
 70
    -2
  9
$DIMLWE
 70
    -2
  9
$DIMTMOVE
 70
     0
  9
$DIMFXL
 40
1.0
  9
$DIMFXLON
 70
     0
  9
$DIMJOGANG
 40
0.7853981633974483
  9
$DIMTFILL
 70
     0
  9
$DIMTFILLCLR
 70
     0
  9
$DIMARCSYM
 70
     0
  9
$DIMLTYPE
  6

  9
$DIMLTEX1
  6

  9
$DIMLTEX2
  6

  9
$DIMTXTDIRECTION
 70
     0
  9
$LUNITS
 70
     2
  9
$LUPREC
 70
     4
  9
$SKETCHINC
 40
0.1
  9
$FILLETRAD
 40
0.0
  9
$AUNITS
 70
     0
  9
$AUPREC
 70
     0
  9
$MENU
  1
.
  9
$ELEVATION
 40
0.0
  9
$PELEVATION
 40
0.0
  9
$THICKNESS
 40
0.0
  9
$LIMCHECK
 70
     0
  9
$CHAMFERA
 40
0.0
  9
$CHAMFERB
 40
0.0
  9
$CHAMFERC
 40
0.0
  9
$CHAMFERD
 40
0.0
  9
$SKPOLY
 70
     0
  9
$TDCREATE
 40
2460325.734907407
  9
$TDUCREATE
 40
2460326.068240741
  9
$TDUPDATE
 40
2460325.734907407
  9
$TDUUPDATE
 40
2460326.068240741
  9
$TDINDWG
 40
0.0000000000
  9
$TDUSRTIMER
 40
0.0000000000
  9
$USRTIMER
 70
     1
  9
$ANGBASE
 50
0.0
  9
$ANGDIR
 70
     0
  9
$PDMODE
 70
     0
  9
$PDSIZE
 40
0.0
  9
$PLINEWID
 40
0.0
  9
$SPLFRAME
 70
     0
  9
$SPLINETYPE
 70
     6
  9
$SPLINESEGS
 70
     8
  9
$HANDSEED
  5
99
  9
$SURFTAB1
 70
     6
  9
$SURFTAB2
 70
     6
  9
$SURFTYPE
 70
     6
  9
$SURFU
 70
     6
  9
$SURFV
 70
     6
  9
$UCSBASE
  2

  9
$UCSNAME
  2

  9
$UCSORG
 10
0.0
 20
0.0
 30
0.0
  9
$UCSXDIR
 10
1.0
 20
0.0
 30
0.0
  9
$UCSYDIR
 10
0.0
 20
1.0
 30
0.0
  9
$UCSORTHOREF
  2

  9
$UCSORTHOVIEW
 70
     0
  9
$UCSORGTOP
 10
0.0
 20
0.0
 30
0.0
  9
$UCSORGBOTTOM
 10
0.0
 20
0.0
 30
0.0
  9
$UCSORGLEFT
 10
0.0
 20
0.0
 30
0.0
  9
$UCSORGRIGHT
 10
0.0
 20
0.0
 30
0.0
  9
$UCSORGFRONT
 10
0.0
 20
0.0
 30
0.0
  9
$UCSORGBACK
 10
0.0
 20
0.0
 30
0.0
  9
$PUCSBASE
  2

  9
$PUCSNAME
  2

  9
$PUCSORG
 10
0.0
 20
0.0
 30
0.0
  9
$PUCSXDIR
 10
1.0
 20
0.0
 30
0.0
  9
$PUCSYDIR
 10
0.0
 20
1.0
 30
0.0
  9
$PUCSORTHOREF
  2

  9
$PUCSORTHOVIEW
 70
     0
  9
$PUCSORGTOP
 10
0.0
 20
0.0
 30
0.0
  9
$PUCSORGBOTTOM
 10
0.0
 20
0.0
 30
0.0
  9
$PUCSORGLEFT
 10
0.0
 20
0.0
 30
0.0
  9
$PUCSORGRIGHT
 10
0.0
 20
0.0
 30
0.0
  9
$PUCSORGFRONT
 10
0.0
 20
0.0
 30
0.0
  9
$PUCSORGBACK
 10
0.0
 20
0.0
 30
0.0
  9
$USERI1
 70
     0
  9
$USERI2
 70
     0
  9
$USERI3
 70
     0
  9
$USERI4
 70
     0
  9
$USERI5
 70
     0
  9
$USERR1
 40
0.0
  9
$USERR2
 40
0.0
  9
$USERR3
 40
0.0
  9
$USERR4
 40
0.0
  9
$USERR5
 40
0.0
  9
$WORLDVIEW
 70
     1
  9
$SHADEDGE
 70
     3
  9
$SHADEDIF
 70
    70
  9
$TILEMODE
 70
     1
  9
$MAXACTVP
 70
    64
  9
$PINSBASE
 10
0.0
 20
0.0
 30
0.0
  9
$PLIMCHECK
 70
     0
  9
$PEXTMIN
 10
1.000000000000000E+20
 20
1.000000000000000E+20
 30
1.000000000000000E+20
  9
$PEXTMAX
 10
-1.000000000000000E+20
 20
-1.000000000000000E+20
 30
-1.000000000000000E+20
  9
$PLIMMIN
 10
0.0
 20
0.0
  9
$PLIMMAX
 10
12.0
 20
9.0
  9
$UNITMODE
 70
     0
  9
$VISRETAIN
 70
     1
  9
$PLINEGEN
 70
     0
  9
$PSLTSCALE
 70
     1
  9
$TREEDEPTH
 70
  3020
  9
$CMLSTYLE
  2
Standard
  9
$CMLJUST
 70
     0
  9
$CMLSCALE
 40
1.0
  9
$PROXYGRAPHICS
 70
     1
  9
$MEASUREMENT
 70
     0
  9
$CELWEIGHT
370
    -1
  9
$ENDCAPS
280
     0
  9
$JOINSTYLE
280
     0
  9
$LWDISPLAY
290
     1
  9
$INSUNITS
 70
     1
  9
$HYPERLINKBASE
  1

  9
$STYLESHEET
  1

  9
$XEDIT
290
     1
  9
$CEPSNTYPE
380
     0
  9
$PSTYLEMODE
290
     1
  9
$FINGERPRINTGUID
  2
{8F287C92-431B-F74F-AB0E-8EC97E3FDE3B}
  9
$VERSIONGUID
  2
{B276790C-A68B-594E-986C-69A8AEFC2543}
  9
$EXTNAMES
290
     1
  9
$PSVPSCALE
 40
0.0
  9
$OLESTARTUP
290
     0
  9
$SORTENTS
280
   127
  9
$INDEXCTL
280
     0
  9
$HIDETEXT
280
     1
  9
$XCLIPFRAME
280
     2
  9
$HALOGAP
280
     0
  9
$OBSCOLOR
 70
   257
  9
$OBSLTYPE
280
     0
  9
$INTERSECTIONDISPLAY
280
     0
  9
$INTERSECTIONCOLOR
 70
   257
  9
$DIMASSOC
280
     2
  9
$PROJECTNAME
  1

  9
$CAMERADISPLAY
290
     0
  9
$LENSLENGTH
 40
50.0
  9
$CAMERAHEIGHT
 40
0.0
  9
$STEPSPERSEC
 40
2.0
  9
$STEPSIZE
 40
6.0
  9
$3DDWFPREC
 40
2.0
  9
$PSOLWIDTH
 40
0.25
  9
$PSOLHEIGHT
 40
4.0
  9
$LOFTANG1
 40
1.570796326794896
  9
$LOFTANG2
 40
1.570796326794896
  9
$LOFTMAG1
 40
0.0
  9
$LOFTMAG2
 40
0.0
  9
$LOFTPARAM
 70
     7
  9
$LOFTNORMALS
280
     1
  9
$LATITUDE
 40
37.795
  9
$LONGITUDE
 40
-122.394
  9
$NORTHDIRECTION
 40
0.0
  9
$TIMEZONE
 70
 -8000
  9
$LIGHTGLYPHDISPLAY
280
     1
  9
$TILEMODELIGHTSYNCH
280
     1
  9
$CMATERIAL
347
11
  9
$SOLIDHIST
280
     0
  9
$SHOWHIST
280
     1
  9
$DWFFRAME
280
     2
  9
$DGNFRAME
280
     0
  9
$REALWORLDSCALE
290
     1
  9
$INTERFERECOLOR
 62
     1
  9
$INTERFEREOBJVS
345
33
  9
$INTERFEREVPVS
346
30
  9
$CSHADOW
280
     0
  9
$SHADOWPLANELOCATION
 40
0.0
  0
ENDSEC
  0
SECTION
  2
CLASSES
  0
CLASS
  1
ACDBDICTIONARYWDFLT
  2
AcDbDictionaryWithDefault
  3
ObjectDBX Classes
 90
        0
 91
        1
280
     0
281
     0
  0
CLASS
  1
MATERIAL
  2
AcDbMaterial
  3
ObjectDBX Classes
 90
     1153
 91
        3
280
     0
281
     0
  0
CLASS
  1
VISUALSTYLE
  2
AcDbVisualStyle
  3
ObjectDBX Classes
 90
     4095
 91
       24
280
     0
281
     0
  0
CLASS
  1
SCALE
  2
AcDbScale
  3
ObjectDBX Classes
 90
     1153
 91
       17
280
     0
281
     0
  0
CLASS
  1
TABLESTYLE
  2
AcDbTableStyle
  3
ObjectDBX Classes
 90
     4095
 91
        1
280
     0
281
     0
  0
CLASS
  1
MLEADERSTYLE
  2
AcDbMLeaderStyle
  3
ACDB_MLEADERSTYLE_CLASS
 90
     4095
 91
        1
280
     0
281
     0
  0
CLASS
  1
ACDBSECTIONVIEWSTYLE
  2
AcDbSectionViewStyle
  3
ObjectDBX Classes
 90
     1025
 91
        1
280
     0
281
     0
  0
CLASS
  1
ACDBDETAILVIEWSTYLE
  2
AcDbDetailViewStyle
  3
ObjectDBX Classes
 90
     1025
 91
        1
280
     0
281
     0
  0
CLASS
  1
DICTIONARYVAR
  2
AcDbDictionaryVar
  3
ObjectDBX Classes
 90
        0
 91
        5
280
     0
281
     0
  0
CLASS
  1
CELLSTYLEMAP
  2
AcDbCellStyleMap
  3
ObjectDBX Classes
 90
     1152
 91
        1
280
     0
281
     0
  0
ENDSEC
  0
SECTION
  2
TABLES
  0
TABLE
  2
VPORT
  5
8
330
0
100
AcDbSymbolTable
 70
     1
  0
VPORT
  5
57
330
8
100
AcDbSymbolTableRecord
100
AcDbViewportTableRecord
  2
*Active
 70
     0
 10
0.0
 20
0.0
 11
1.0
 21
1.0
 12
0.0
 22
0.0
 13
0.0
 23
0.0
 14
1.0
 24
1.0
 15
0.0
 25
0.0
 16
0.0
 26
0.0
 36
1.0
 17
4.298865264077865
 27
-4.91618177625868
 37
0.0
 40
12.41098917643229
 41
0.7079344395329138
 42
50.0
 43
0.0
 44
0.0
 50
0.0
 51
0.0
 71
     0
 72
   100
 73
     1
 74
     1
 75
     0
 76
     0
 77
     0
 78
     0
281
     0
 65
     1
110
0.0
120
0.0
130
0.0
111
1.0
121
0.0
131
0.0
112
0.0
122
1.0
132
0.0
 79
     0
146
0.0
 60
     3
 61
     5
292
     1
282
     1
141
0.0
142
0.0
 63
   250
421
  3355443
  0
ENDTAB
  0
TABLE
  2
LTYPE
  5
5
330
0
100
AcDbSymbolTable
 70
     1
  0
LTYPE
  5
5B
330
5
100
AcDbSymbolTableRecord
100
AcDbLinetypeTableRecord
  2
ByBlock
 70
     0
  3

 72
    65
 73
     0
 40
0.0
  0
LTYPE
  5
5C
330
5
100
AcDbSymbolTableRecord
100
AcDbLinetypeTableRecord
  2
ByLayer
 70
     0
  3

 72
    65
 73
     0
 40
0.0
  0
LTYPE
  5
5D
330
5
100
AcDbSymbolTableRecord
100
AcDbLinetypeTableRecord
  2
Continuous
 70
     0
  3
Solid line
 72
    65
 73
     0
 40
0.0
  0
ENDTAB
  0
TABLE
  2
LAYER
  5
2
330
0
100
AcDbSymbolTable
 70
     3
  0
LAYER
  5
54
330
2
100
AcDbSymbolTableRecord
100
AcDbLayerTableRecord
  2
0
 70
     0
 62
     7
  6
Continuous
370
    -3
390
F
347
21
348
0
  0
LAYER
  5
78
330
2
100
AcDbSymbolTableRecord
100
AcDbLayerTableRecord
  2
Layer 2
 70
     0
 62
     7
  6
Continuous
370
     0
390
F
347
21
348
0
  0
LAYER
  5
79
330
2
100
AcDbSymbolTableRecord
100
AcDbLayerTableRecord
  2
Layer 1
 70
     0
 62
     7
  6
Continuous
370
     0
390
F
347
21
348
0
  0
ENDTAB
  0
TABLE
  2
STYLE
  5
3
330
0
100
AcDbSymbolTable
 70
     2
  0
STYLE
  5
55
330
3
100
AcDbSymbolTableRecord
100
AcDbTextStyleTableRecord
  2
Standard
 70
     0
 40
0.0
 41
1.0
 50
0.0
 71
     0
 42
0.2
  3
txt
  4

  0
STYLE
  5
5A
330
3
100
AcDbSymbolTableRecord
100
AcDbTextStyleTableRecord
  2
Annotative
 70
     0
 40
0.0
 41
1.0
 50
0.0
 71
     0
 42
0.2
  3
txt
  4

1001
AcadAnnotative
1000
AnnotativeData
1002
{
1070
     1
1070
     1
1002
}
  0
ENDTAB
  0
TABLE
  2
VIEW
  5
6
330
0
100
AcDbSymbolTable
 70
     0
  0
ENDTAB
  0
TABLE
  2
UCS
  5
7
330
0
100
AcDbSymbolTable
 70
     0
  0
ENDTAB
  0
TABLE
  2
APPID
  5
9
330
0
100
AcDbSymbolTable
 70
     2
  0
APPID
  5
56
330
9
100
AcDbSymbolTableRecord
100
AcDbRegAppTableRecord
  2
ACAD
 70
     0
  0
APPID
  5
5E
330
9
100
AcDbSymbolTableRecord
100
AcDbRegAppTableRecord
  2
AcadAnnotative
 70
     0
  0
ENDTAB
  0
TABLE
  2
DIMSTYLE
  5
A
330
0
100
AcDbSymbolTable
 70
     2
100
AcDbDimStyleTable
 71
     0
  0
DIMSTYLE
105
58
330
A
100
AcDbSymbolTableRecord
100
AcDbDimStyleTableRecord
  2
Standard
 70
     0
340
55
  0
DIMSTYLE
105
59
330
A
100
AcDbSymbolTableRecord
100
AcDbDimStyleTableRecord
  2
Annotative
 70
     0
340
55
1001
AcadAnnotative
1000
AnnotativeData
1002
{
1070
     1
1070
     1
1002
}
  0
ENDTAB
  0
TABLE
  2
BLOCK_RECORD
  5
1
330
0
100
AcDbSymbolTable
 70
     2
  0
BLOCK_RECORD
  5
70
330
1
100
AcDbSymbolTableRecord
100
AcDbBlockTableRecord
  2
*Model_Space
340
73
 70
     0
280
     1
281
     0
  0
BLOCK_RECORD
  5
6C
330
1
100
AcDbSymbolTableRecord
100
AcDbBlockTableRecord
  2
*Paper_Space
340
6F
 70
     0
280
     1
281
     0
  0
BLOCK_RECORD
  5
74
330
1
100
AcDbSymbolTableRecord
100
AcDbBlockTableRecord
  2
*Paper_Space0
340
77
 70
     0
280
     1
281
     0
  0
BLOCK_RECORD
  5
7C
330
1
100
AcDbSymbolTableRecord
100
AcDbBlockTableRecord
  2
Block_0
340
0
102
{BLKREFS
331
7D
102
}
 70
     0
280
     1
281
     0
  0
ENDTAB
  0
ENDSEC
  0
SECTION
  2
BLOCKS
  0
BLOCK
  5
71
330
70
100
AcDbEntity
  8
0
100
AcDbBlockBegin
  2
*Model_Space
 70
     0
 10
0.0
 20
0.0
 30
0.0
  3
*Model_Space
  1

  0
ENDBLK
  5
72
330
70
100
AcDbEntity
  8
0
100
AcDbBlockEnd
  0
BLOCK
  5
6D
330
6C
100
AcDbEntity
 67
     1
  8
0
100
AcDbBlockBegin
  2
*Paper_Space
 70
     0
 10
0.0
 20
0.0
 30
0.0
  3
*Paper_Space
  1

  0
ENDBLK
  5
6E
330
6C
100
AcDbEntity
 67
     1
  8
0
100
AcDbBlockEnd
  0
BLOCK
  5
75
330
74
100
AcDbEntity
 67
     1
  8
0
100
AcDbBlockBegin
  2
*Paper_Space0
 70
     0
 10
0.0
 20
0.0
 30
0.0
  3
*Paper_Space0
  1

  0
ENDBLK
  5
76
330
74
100
AcDbEntity
 67
     1
  8
0
100
AcDbBlockEnd
  0
BLOCK
  5
7E
330
7C
100
AcDbEntity
  8
0
100
AcDbBlockBegin
  2
Block_0
 70
     0
 10
0.0
 20
0.0
 30
0.0
  3
Block_0
  1

  0
SPLINE
  5
80
330
7C
100
AcDbEntity
  8
Layer 1
100
AcDbSpline
210
0.0
220
0.0
230
1.0
 70
     9
 71
     3
 72
   179
 73
   175
 74
     0
 42
0.0000000001
 43
0.0000000001
 40
0.0
 40
0.0
 40
0.0
 40
0.0
 40
1.0
 40
1.0
 40
1.0
 40
2.0
 40
2.0
 40
2.0
 40
3.0
 40
3.0
 40
3.0
 40
4.0
 40
4.0
 40
4.0
 40
5.0
 40
5.0
 40
5.0
 40
6.0
 40
6.0
 40
6.0
 40
7.0
 40
7.0
 40
7.0
 40
8.0
 40
8.0
 40
8.0
 40
9.0
 40
9.0
 40
9.0
 40
10.0
 40
10.0
 40
10.0
 40
11.0
 40
11.0
 40
11.0
 40
12.0
 40
12.0
 40
12.0
 40
13.0
 40
13.0
 40
13.0
 40
14.0
 40
14.0
 40
14.0
 40
15.0
 40
15.0
 40
15.0
 40
16.0
 40
16.0
 40
16.0
 40
17.0
 40
17.0
 40
17.0
 40
18.0
 40
18.0
 40
18.0
 40
19.0
 40
19.0
 40
19.0
 40
20.0
 40
20.0
 40
20.0
 40
21.0
 40
21.0
 40
21.0
 40
22.0
 40
22.0
 40
22.0
 40
23.0
 40
23.0
 40
23.0
 40
24.0
 40
24.0
 40
24.0
 40
25.0
 40
25.0
 40
25.0
 40
26.0
 40
26.0
 40
26.0
 40
27.0
 40
27.0
 40
27.0
 40
28.0
 40
28.0
 40
28.0
 40
29.0
 40
29.0
 40
29.0
 40
30.0
 40
30.0
 40
30.0
 40
31.0
 40
31.0
 40
31.0
 40
32.0
 40
32.0
 40
32.0
 40
33.0
 40
33.0
 40
33.0
 40
34.0
 40
34.0
 40
34.0
 40
35.0
 40
35.0
 40
35.0
 40
36.0
 40
36.0
 40
36.0
 40
37.0
 40
37.0
 40
37.0
 40
38.0
 40
38.0
 40
38.0
 40
39.0
 40
39.0
 40
39.0
 40
40.0
 40
40.0
 40
40.0
 40
41.0
 40
41.0
 40
41.0
 40
42.0
 40
42.0
 40
42.0
 40
43.0
 40
43.0
 40
43.0
 40
44.0
 40
44.0
 40
44.0
 40
45.0
 40
45.0
 40
45.0
 40
46.0
 40
46.0
 40
46.0
 40
47.0
 40
47.0
 40
47.0
 40
48.0
 40
48.0
 40
48.0
 40
49.0
 40
49.0
 40
49.0
 40
50.0
 40
50.0
 40
50.0
 40
51.0
 40
51.0
 40
51.0
 40
52.0
 40
52.0
 40
52.0
 40
53.0
 40
53.0
 40
53.0
 40
54.0
 40
54.0
 40
54.0
 40
55.0
 40
55.0
 40
55.0
 40
56.0
 40
56.0
 40
56.0
 40
57.0
 40
57.0
 40
57.0
 40
58.0
 40
58.0
 40
58.0
 40
58.0
 10
2.05110989790555
 20
-5.395012111343779
 30
0.0
 10
2.054458543849566
 20
-5.396320910043262
 30
0.0
 10
2.057710402693083
 20
-5.398017934874688
 30
0.0
 10
2.061170298177898
 20
-5.398880744594659
 30
0.0
 10
2.120061528931185
 20
-5.413566952922337
 30
0.0
 10
2.178682371152073
 20
-5.42957875167705
 30
0.0
 10
2.238069444585322
 20
-5.441889417270759
 30
0.0
 10
2.256015872854795
 20
-5.445609671446567
 30
0.0
 10
2.276143139779037
 20
-5.439334536800439
 30
0.0
 10
2.295187253361556
 20
-5.436962070811609
 30
0.0
 10
2.302254502121046
 20
-5.436081669757968
 30
0.0
 10
2.310016139225315
 20
-5.434705860592909
 30
0.0
 10
2.315779769342081
 20
-5.430965303375892
 30
0.0
 10
2.322997065919695
 20
-5.426281384818239
 30
0.0
 10
2.328834016436947
 20
-5.419232579146712
 30
0.0
 10
2.33455879612811
 20
-5.41259400615695
 30
0.0
 10
2.337161835481677
 20
-5.409575493225298
 30
0.0
 10
2.337501259568966
 20
-5.404671943738245
 30
0.0
 10
2.339925621730306
 20
-5.40140988122592
 30
0.0
 10
2.341691238856747
 20
-5.399034199430009
 30
0.0
 10
2.345437089118338
 20
-5.396372745376184
 30
0.0
 10
2.347843694810017
 20
-5.396750037764225
 30
0.0
 10
2.350030739103266
 20
-5.397092894942816
 30
0.0
 10
2.352136805898693
 20
-5.40114870554612
 30
0.0
 10
2.353277765544854
 20
-5.403972166743793
 30
0.0
 10
2.354216563916009
 20
-5.406295352662582
 30
0.0
 10
2.353794710872092
 20
-5.409211359572029
 30
0.0
 10
2.353794415365491
 20
-5.411864661120463
 30
0.0
 10
2.353789391753416
 20
-5.457039623097316
 30
0.0
 10
2.353758885043399
 20
-5.502214550308685
 30
0.0
 10
2.353720573482771
 20
-5.547389512285563
 30
0.0
 10
2.353718643998553
 20
-5.549666025545446
 30
0.0
 10
2.354282800849672
 20
-5.552273262830921
 30
0.0
 10
2.353380784357909
 20
-5.554147817593628
 30
0.0
 10
2.35167849255601
 20
-5.55768544869511
 30
0.0
 10
2.349099849879128
 20
-5.560801304974979
 30
0.0
 10
2.346885453843305
 20
-5.564092483578077
 30
0.0
 10
2.344439085132168
 20
-5.561249466797057
 30
0.0
 10
2.340634124860634
 20
-5.558765855563857
 30
0.0
 10
2.339771332523405
 20
-5.555503949496166
 30
0.0
 10
2.33491296077956
 20
-5.537136441714715
 30
0.0
 10
2.329868028770622
 20
-5.533673313040101
 30
0.0
 10
2.31046291042815
 20
-5.538125345836129
 30
0.0
 10
2.250227124677659
 20
-5.551945007154523
 30
0.0
 10
2.190040879738325
 20
-5.565980596878589
 30
0.0
 10
2.129834418671495
 20
-5.579928125637959
 30
0.0
 10
2.109890192007355
 20
-5.584548458129953
 30
0.0
 10
2.089925870894894
 20
-5.589084240970931
 30
0.0
 10
2.070009630443349
 20
-5.593822011259413
 30
0.0
 10
2.065381858138342
 20
-5.594922894996746
 30
0.0
 10
2.060912825021874
 20
-5.596691102151553
 30
0.0
 10
2.056370784394238
 20
-5.598152225808235
 30
0.0
 10
2.05610242964249
 20
-5.599390572259431
 30
0.0
 10
2.055834074890766
 20
-5.600628953476112
 30
0.0
 10
2.055565720139043
 20
-5.601867334692794
 30
0.0
 10
2.060224572784502
 20
-5.603933968740824
 30
0.0
 10
2.064710223801145
 20
-5.606629475583809
 30
0.0
 10
2.069569603743944
 20
-5.607968189980131
 30
0.0
 10
2.110156808485005
 20
-5.619149498907163
 30
0.0
 10
2.150793797395547
 20
-5.630152043728306
 30
0.0
 10
2.191453609844769
 20
-5.641067570549239
 30
0.0
 10
2.229522003302577
 20
-5.651287440085221
 30
0.0
 10
2.267691094977547
 20
-5.661135909982324
 30
0.0
 10
2.305709704265849
 20
-5.671536073305433
 30
0.0
 10
2.327408466559227
 20
-5.67747179255563
 30
0.0
 10
2.332037699014449
 20
-5.67523247836094
 30
0.0
 10
2.340274145682403
 20
-5.653547474506896
 30
0.0
 10
2.341263562594665
 20
-5.650942531743212
 30
0.0
 10
2.344594217401979
 20
-5.649226855230962
 30
0.0
 10
2.346839754617841
 20
-5.64709903393547
 30
0.0
 10
2.3484404877569
 20
-5.649752926497082
 30
0.0
 10
2.351314637026626
 20
-5.652347648209191
 30
0.0
 10
2.351441044317337
 20
-5.655069994003926
 30
0.0
 10
2.352478594038744
 20
-5.677414255683717
 30
0.0
 10
2.353246172413504
 20
-5.699780419616899
 30
0.0
 10
2.353411864698361
 20
-5.722145053868896
 30
0.0
 10
2.353435218410582
 20
-5.725296892422091
 30
0.0
 10
2.349760663460187
 20
-5.728475987112814
 30
0.0
 10
2.34779771746072
 20
-5.731642496699249
 30
0.0
 10
2.345249477197398
 20
-5.728956863253011
 30
0.0
 10
2.340890381224817
 20
-5.726536768554498
 30
0.0
 10
2.340451223662474
 20
-5.723541791853827
 30
0.0
 10
2.337884488162962
 20
-5.706037093792322
 30
0.0
 10
2.327983800512621
 20
-5.698383681631967
 30
0.0
 10
2.310882251666056
 20
-5.694203619197777
 30
0.0
 10
2.238320642571946
 20
-5.676467834980712
 30
0.0
 10
2.166127182544199
 20
-5.657230564382997
 30
0.0
 10
2.093748787537593
 20
-5.638739187190922
 30
0.0
 10
2.027997075726097
 20
-5.621940784651693
 30
0.0
 10
1.962150767039436
 20
-5.605512425897586
 30
0.0
 10
1.896410075885531
 20
-5.588671470409003
 30
0.0
 10
1.876973460016857
 20
-5.58369232338244
 30
0.0
 10
1.85780808443485
 20
-5.577661138120017
 30
0.0
 10
1.83840831997654
 20
-5.572527910479417
 30
0.0
 10
1.830424149025134
 20
-5.570415281699322
 30
0.0
 10
1.827612803597793
 20
-5.56587393638132
 30
0.0
 10
1.82738780140149
 20
-5.557815645423361
 30
0.0
 10
1.827155359392147
 20
-5.549493866881044
 30
0.0
 10
1.8314426385713
 20
-5.546283865677271
 30
0.0
 10
1.838399906730008
 20
-5.54452935612216
 30
0.0
 10
1.865252416989442
 20
-5.537757631338232
 30
0.0
 10
1.892029520919512
 20
-5.530675485569948
 30
0.0
 10
1.918951388314541
 20
-5.524193565839848
 30
0.0
 10
1.968353624249465
 20
-5.512299147356189
 30
0.0
 10
2.017816630246076
 20
-5.500654484091657
 30
0.0
 10
2.067296532266722
 20
-5.489086339651925
 30
0.0
 10
2.101258096777137
 20
-5.481146251331083
 30
0.0
 10
2.135310016773966
 20
-5.473592720399058
 30
0.0
 10
2.169273528151342
 20
-5.465660697669918
 30
0.0
 10
2.174980455767745
 20
-5.464327893405449
 30
0.0
 10
2.180442895135469
 20
-5.461948230961929
 30
0.0
 10
2.186018287552605
 20
-5.460052295428087
 30
0.0
 10
2.186095171414952
 20
-5.458951203097866
 30
0.0
 10
2.186172037894556
 20
-5.457850110767645
 30
0.0
 10
2.186248921756903
 20
-5.456749018437423
 30
0.0
 10
2.181691236662585
 20
-5.454988007737306
 30
0.0
 10
2.177261349478322
 20
-5.452711181588053
 30
0.0
 10
2.172556189211452
 20
-5.451545321165793
 30
0.0
 10
2.122501405188674
 20
-5.43914266610803
 30
0.0
 10
2.072344793070556
 20
-5.427147601555412
 30
0.0
 10
2.022331275674319
 20
-5.414582383106132
 30
0.0
 10
1.961646702323087
 20
-5.399336172402374
 30
0.0
 10
1.901016606481372
 20
-5.383860509520697
 30
0.0
 10
1.840555366583341
 20
-5.367761345110971
 30
0.0
 10
1.835609698715428
 20
-5.366444463437068
 30
0.0
 10
1.829834387396923
 20
-5.360187233013927
 30
0.0
 10
1.828507041313047
 20
-5.355154129960055
 30
0.0
 10
1.826305830086072
 20
-5.346807963432461
 30
0.0
 10
1.833038513234302
 20
-5.34218672703797
 30
0.0
 10
1.84072043308951
 20
-5.340247317269485
 30
0.0
 10
1.88192323021158
 20
-5.329844998486527
 30
0.0
 10
1.923124601948895
 20
-5.319434440284465
 30
0.0
 10
1.964380034009928
 20
-5.309243704221949
 30
0.0
 10
2.03729882366104
 20
-5.291231656106143
 30
0.0
 10
2.110244904215164
 20
-5.273329884097645
 30
0.0
 10
2.183201744685738
 20
-5.25547250760903
 30
0.0
 10
2.225861424075762
 20
-5.245030869066517
 30
0.0
 10
2.268530177256416
 20
-5.234621988298916
 30
0.0
 10
2.311262394823554
 20
-5.224483035421118
 30
0.0
 10
2.330951016976301
 20
-5.219811580288578
 30
0.0
 10
2.335208137100266
 20
-5.215739699341434
 30
0.0
 10
2.338986945038325
 20
-5.195365267226431
 30
0.0
 10
2.339471471554045
 20
-5.192752832501481
 30
0.0
 10
2.339190618611723
 20
-5.189579752239069
 30
0.0
 10
2.340607607489636
 20
-5.187655587134233
 30
0.0
 10
2.342818179322484
 20
-5.184653744250959
 30
0.0
 10
2.346178428245934
 20
-5.182498536447408
 30
0.0
 10
2.349051534551171
 20
-5.179984592331593
 30
0.0
 10
2.350656213572379
 20
-5.182935894896116
 30
0.0
 10
2.353641412481377
 20
-5.185878349645589
 30
0.0
 10
2.353660385742904
 20
-5.188839812422075
 30
0.0
 10
2.353993708488196
 20
-5.240845009488262
 30
0.0
 10
2.35405023716113
 20
-5.292852944336118
 30
0.0
 10
2.353792416350302
 20
-5.344858454291599
 30
0.0
 10
2.353777614946529
 20
-5.347845122042195
 30
0.0
 10
2.350559122273921
 20
-5.35081593673322
 30
0.0
 10
2.348831608115195
 20
-5.353794121706313
 30
0.0
 10
2.345877463472548
 20
-5.351803067815049
 30
0.0
 10
2.341831952143125
 20
-5.350479667613348
 30
0.0
 10
2.340141106876052
 20
-5.347715759685519
 30
0.0
 10
2.326077409260215
 20
-5.32472678953392
 30
0.0
 10
2.320604088296792
 20
-5.322423002753794
 30
0.0
 10
2.293573822130396
 20
-5.329152244119313
 30
0.0
 10
2.24355314304498
 20
-5.341604996235951
 30
0.0
 10
2.193523268489684
 20
-5.354020914324918
 30
0.0
 10
2.143493463465359
 20
-5.366437058389515
 30
0.0
 10
2.116258915329694
 20
-5.373196006858986
 30
0.0
 10
2.089000587604648
 20
-5.379860219391376
 30
0.0
 10
2.061796528796258
 20
-5.38673950857507
 30
0.0
 10
2.058035494710629
 20
-5.387690570469859
 30
0.0
 10
2.054526023649145
 20
-5.389636359704202
 30
0.0
 10
2.050900088224668
 20
-5.391121645370528
 30
0.0
 10
2.05097003637344
 20
-5.39241846736162
 30
0.0
 10
2.051039949756753
 20
-5.393715289352686
 30
0.0
 10
2.05110989790555
 20
-5.395012111343779
 30
0.0
  0
HATCH
  5
81
330
7C
100
AcDbEntity
  8
Layer 1
 62
    18
420
        0
440
 33554687
100
AcDbHatch
 10
0.0
 20
0.0
 30
0.0
210
0.0
220
0.0
230
1.0
  2
SOLID
 70
     1
 71
     1
 91
        1
 92
        1
 93
        1
 72
     4
 94
        3
 73
     0
 74
     0
 95
      179
 96
      175
 40
0.0
 40
0.0
 40
0.0
 40
0.0
 40
1.0
 40
1.0
 40
1.0
 40
2.0
 40
2.0
 40
2.0
 40
3.0
 40
3.0
 40
3.0
 40
4.0
 40
4.0
 40
4.0
 40
5.0
 40
5.0
 40
5.0
 40
6.0
 40
6.0
 40
6.0
 40
7.0
 40
7.0
 40
7.0
 40
8.0
 40
8.0
 40
8.0
 40
9.0
 40
9.0
 40
9.0
 40
10.0
 40
10.0
 40
10.0
 40
11.0
 40
11.0
 40
11.0
 40
12.0
 40
12.0
 40
12.0
 40
13.0
 40
13.0
 40
13.0
 40
14.0
 40
14.0
 40
14.0
 40
15.0
 40
15.0
 40
15.0
 40
16.0
 40
16.0
 40
16.0
 40
17.0
 40
17.0
 40
17.0
 40
18.0
 40
18.0
 40
18.0
 40
19.0
 40
19.0
 40
19.0
 40
20.0
 40
20.0
 40
20.0
 40
21.0
 40
21.0
 40
21.0
 40
22.0
 40
22.0
 40
22.0
 40
23.0
 40
23.0
 40
23.0
 40
24.0
 40
24.0
 40
24.0
 40
25.0
 40
25.0
 40
25.0
 40
26.0
 40
26.0
 40
26.0
 40
27.0
 40
27.0
 40
27.0
 40
28.0
 40
28.0
 40
28.0
 40
29.0
 40
29.0
 40
29.0
 40
30.0
 40
30.0
 40
30.0
 40
31.0
 40
31.0
 40
31.0
 40
32.0
 40
32.0
 40
32.0
 40
33.0
 40
33.0
 40
33.0
 40
34.0
 40
34.0
 40
34.0
 40
35.0
 40
35.0
 40
35.0
 40
36.0
 40
36.0
 40
36.0
 40
37.0
 40
37.0
 40
37.0
 40
38.0
 40
38.0
 40
38.0
 40
39.0
 40
39.0
 40
39.0
 40
40.0
 40
40.0
 40
40.0
 40
41.0
 40
41.0
 40
41.0
 40
42.0
 40
42.0
 40
42.0
 40
43.0
 40
43.0
 40
43.0
 40
44.0
 40
44.0
 40
44.0
 40
45.0
 40
45.0
 40
45.0
 40
46.0
 40
46.0
 40
46.0
 40
47.0
 40
47.0
 40
47.0
 40
48.0
 40
48.0
 40
48.0
 40
49.0
 40
49.0
 40
49.0
 40
50.0
 40
50.0
 40
50.0
 40
51.0
 40
51.0
 40
51.0
 40
52.0
 40
52.0
 40
52.0
 40
53.0
 40
53.0
 40
53.0
 40
54.0
 40
54.0
 40
54.0
 40
55.0
 40
55.0
 40
55.0
 40
56.0
 40
56.0
 40
56.0
 40
57.0
 40
57.0
 40
57.0
 40
58.0
 40
58.0
 40
58.0
 40
58.0
 10
2.05110989790555
 20
-5.395012111343779
 10
2.054458543849566
 20
-5.396320910043262
 10
2.057710402693083
 20
-5.398017934874688
 10
2.061170298177898
 20
-5.398880744594659
 10
2.120061528931185
 20
-5.413566952922337
 10
2.178682371152073
 20
-5.42957875167705
 10
2.238069444585322
 20
-5.441889417270759
 10
2.256015872854795
 20
-5.445609671446567
 10
2.276143139779037
 20
-5.439334536800439
 10
2.295187253361556
 20
-5.436962070811609
 10
2.302254502121046
 20
-5.436081669757968
 10
2.310016139225315
 20
-5.434705860592909
 10
2.315779769342081
 20
-5.430965303375892
 10
2.322997065919695
 20
-5.426281384818239
 10
2.328834016436947
 20
-5.419232579146712
 10
2.33455879612811
 20
-5.41259400615695
 10
2.337161835481677
 20
-5.409575493225298
 10
2.337501259568966
 20
-5.404671943738245
 10
2.339925621730306
 20
-5.40140988122592
 10
2.341691238856747
 20
-5.399034199430009
 10
2.345437089118338
 20
-5.396372745376184
 10
2.347843694810017
 20
-5.396750037764225
 10
2.350030739103266
 20
-5.397092894942816
 10
2.352136805898693
 20
-5.40114870554612
 10
2.353277765544854
 20
-5.403972166743793
 10
2.354216563916009
 20
-5.406295352662582
 10
2.353794710872092
 20
-5.409211359572029
 10
2.353794415365491
 20
-5.411864661120463
 10
2.353789391753416
 20
-5.457039623097316
 10
2.353758885043399
 20
-5.502214550308685
 10
2.353720573482771
 20
-5.547389512285563
 10
2.353718643998553
 20
-5.549666025545446
 10
2.354282800849672
 20
-5.552273262830921
 10
2.353380784357909
 20
-5.554147817593628
 10
2.35167849255601
 20
-5.55768544869511
 10
2.349099849879128
 20
-5.560801304974979
 10
2.346885453843305
 20
-5.564092483578077
 10
2.344439085132168
 20
-5.561249466797057
 10
2.340634124860634
 20
-5.558765855563857
 10
2.339771332523405
 20
-5.555503949496166
 10
2.33491296077956
 20
-5.537136441714715
 10
2.329868028770622
 20
-5.533673313040101
 10
2.31046291042815
 20
-5.538125345836129
 10
2.250227124677659
 20
-5.551945007154523
 10
2.190040879738325
 20
-5.565980596878589
 10
2.129834418671495
 20
-5.579928125637959
 10
2.109890192007355
 20
-5.584548458129953
 10
2.089925870894894
 20
-5.589084240970931
 10
2.070009630443349
 20
-5.593822011259413
 10
2.065381858138342
 20
-5.594922894996746
 10
2.060912825021874
 20
-5.596691102151553
 10
2.056370784394238
 20
-5.598152225808235
 10
2.05610242964249
 20
-5.599390572259431
 10
2.055834074890766
 20
-5.600628953476112
 10
2.055565720139043
 20
-5.601867334692794
 10
2.060224572784502
 20
-5.603933968740824
 10
2.064710223801145
 20
-5.606629475583809
 10
2.069569603743944
 20
-5.607968189980131
 10
2.110156808485005
 20
-5.619149498907163
 10
2.150793797395547
 20
-5.630152043728306
 10
2.191453609844769
 20
-5.641067570549239
 10
2.229522003302577
 20
-5.651287440085221
 10
2.267691094977547
 20
-5.661135909982324
 10
2.305709704265849
 20
-5.671536073305433
 10
2.327408466559227
 20
-5.67747179255563
 10
2.332037699014449
 20
-5.67523247836094
 10
2.340274145682403
 20
-5.653547474506896
 10
2.341263562594665
 20
-5.650942531743212
 10
2.344594217401979
 20
-5.649226855230962
 10
2.346839754617841
 20
-5.64709903393547
 10
2.3484404877569
 20
-5.649752926497082
 10
2.351314637026626
 20
-5.652347648209191
 10
2.351441044317337
 20
-5.655069994003926
 10
2.352478594038744
 20
-5.677414255683717
 10
2.353246172413504
 20
-5.699780419616899
 10
2.353411864698361
 20
-5.722145053868896
 10
2.353435218410582
 20
-5.725296892422091
 10
2.349760663460187
 20
-5.728475987112814
 10
2.34779771746072
 20
-5.731642496699249
 10
2.345249477197398
 20
-5.728956863253011
 10
2.340890381224817
 20
-5.726536768554498
 10
2.340451223662474
 20
-5.723541791853827
 10
2.337884488162962
 20
-5.706037093792322
 10
2.327983800512621
 20
-5.698383681631967
 10
2.310882251666056
 20
-5.694203619197777
 10
2.238320642571946
 20
-5.676467834980712
 10
2.166127182544199
 20
-5.657230564382997
 10
2.093748787537593
 20
-5.638739187190922
 10
2.027997075726097
 20
-5.621940784651693
 10
1.962150767039436
 20
-5.605512425897586
 10
1.896410075885531
 20
-5.588671470409003
 10
1.876973460016857
 20
-5.58369232338244
 10
1.85780808443485
 20
-5.577661138120017
 10
1.83840831997654
 20
-5.572527910479417
 10
1.830424149025134
 20
-5.570415281699322
 10
1.827612803597793
 20
-5.56587393638132
 10
1.82738780140149
 20
-5.557815645423361
 10
1.827155359392147
 20
-5.549493866881044
 10
1.8314426385713
 20
-5.546283865677271
 10
1.838399906730008
 20
-5.54452935612216
 10
1.865252416989442
 20
-5.537757631338232
 10
1.892029520919512
 20
-5.530675485569948
 10
1.918951388314541
 20
-5.524193565839848
 10
1.968353624249465
 20
-5.512299147356189
 10
2.017816630246076
 20
-5.500654484091657
 10
2.067296532266722
 20
-5.489086339651925
 10
2.101258096777137
 20
-5.481146251331083
 10
2.135310016773966
 20
-5.473592720399058
 10
2.169273528151342
 20
-5.465660697669918
 10
2.174980455767745
 20
-5.464327893405449
 10
2.180442895135469
 20
-5.461948230961929
 10
2.186018287552605
 20
-5.460052295428087
 10
2.186095171414952
 20
-5.458951203097866
 10
2.186172037894556
 20
-5.457850110767645
 10
2.186248921756903
 20
-5.456749018437423
 10
2.181691236662585
 20
-5.454988007737306
 10
2.177261349478322
 20
-5.452711181588053
 10
2.172556189211452
 20
-5.451545321165793
 10
2.122501405188674
 20
-5.43914266610803
 10
2.072344793070556
 20
-5.427147601555412
 10
2.022331275674319
 20
-5.414582383106132
 10
1.961646702323087
 20
-5.399336172402374
 10
1.901016606481372
 20
-5.383860509520697
 10
1.840555366583341
 20
-5.367761345110971
 10
1.835609698715428
 20
-5.366444463437068
 10
1.829834387396923
 20
-5.360187233013927
 10
1.828507041313047
 20
-5.355154129960055
 10
1.826305830086072
 20
-5.346807963432461
 10
1.833038513234302
 20
-5.34218672703797
 10
1.84072043308951
 20
-5.340247317269485
 10
1.88192323021158
 20
-5.329844998486527
 10
1.923124601948895
 20
-5.319434440284465
 10
1.964380034009928
 20
-5.309243704221949
 10
2.03729882366104
 20
-5.291231656106143
 10
2.110244904215164
 20
-5.273329884097645
 10
2.183201744685738
 20
-5.25547250760903
 10
2.225861424075762
 20
-5.245030869066517
 10
2.268530177256416
 20
-5.234621988298916
 10
2.311262394823554
 20
-5.224483035421118
 10
2.330951016976301
 20
-5.219811580288578
 10
2.335208137100266
 20
-5.215739699341434
 10
2.338986945038325
 20
-5.195365267226431
 10
2.339471471554045
 20
-5.192752832501481
 10
2.339190618611723
 20
-5.189579752239069
 10
2.340607607489636
 20
-5.187655587134233
 10
2.342818179322484
 20
-5.184653744250959
 10
2.346178428245934
 20
-5.182498536447408
 10
2.349051534551171
 20
-5.179984592331593
 10
2.350656213572379
 20
-5.182935894896116
 10
2.353641412481377
 20
-5.185878349645589
 10
2.353660385742904
 20
-5.188839812422075
 10
2.353993708488196
 20
-5.240845009488262
 10
2.35405023716113
 20
-5.292852944336118
 10
2.353792416350302
 20
-5.344858454291599
 10
2.353777614946529
 20
-5.347845122042195
 10
2.350559122273921
 20
-5.35081593673322
 10
2.348831608115195
 20
-5.353794121706313
 10
2.345877463472548
 20
-5.351803067815049
 10
2.341831952143125
 20
-5.350479667613348
 10
2.340141106876052
 20
-5.347715759685519
 10
2.326077409260215
 20
-5.32472678953392
 10
2.320604088296792
 20
-5.322423002753794
 10
2.293573822130396
 20
-5.329152244119313
 10
2.24355314304498
 20
-5.341604996235951
 10
2.193523268489684
 20
-5.354020914324918
 10
2.143493463465359
 20
-5.366437058389515
 10
2.116258915329694
 20
-5.373196006858986
 10
2.089000587604648
 20
-5.379860219391376
 10
2.061796528796258
 20
-5.38673950857507
 10
2.058035494710629
 20
-5.387690570469859
 10
2.054526023649145
 20
-5.389636359704202
 10
2.050900088224668
 20
-5.391121645370528
 10
2.05097003637344
 20
-5.39241846736162
 10
2.051039949756753
 20
-5.393715289352686
 10
2.05110989790555
 20
-5.395012111343779
 97
        0
 97
        1
330
80
 75
     2
 76
     1
 98
        1
 10
0.0
 20
0.0
450
        0
451
        0
460
0.0
461
0.0
452
        0
462
0.0
453
        0
470

  0
SPLINE
  5
82
330
7C
100
AcDbEntity
  8
Layer 1
100
AcDbSpline
210
0.0
220
0.0
230
1.0
 70
     9
 71
     3
 72
    41
 73
    37
 74
     0
 42
0.0000000001
 43
0.0000000001
 40
0.0
 40
0.0
 40
0.0
 40
0.0
 40
1.0
 40
1.0
 40
1.0
 40
2.0
 40
2.0
 40
2.0
 40
3.0
 40
3.0
 40
3.0
 40
4.0
 40
4.0
 40
4.0
 40
5.0
 40
5.0
 40
5.0
 40
6.0
 40
6.0
 40
6.0
 40
7.0
 40
7.0
 40
7.0
 40
8.0
 40
8.0
 40
8.0
 40
9.0
 40
9.0
 40
9.0
 40
10.0
 40
10.0
 40
10.0
 40
11.0
 40
11.0
 40
11.0
 40
12.0
 40
12.0
 40
12.0
 40
12.0
 10
1.96141432984469
 20
-7.34146875601257
 30
0.0
 10
1.961412174384867
 20
-7.34215085475969
 30
0.0
 10
1.961409984159508
 20
-7.342833092568753
 30
0.0
 10
1.961407828699685
 20
-7.343515191315873
 30
0.0
 10
1.934073225508212
 20
-7.343515191315873
 30
0.0
 10
1.906737509821356
 20
-7.343658842285448
 30
0.0
 10
1.879404679669442
 20
-7.343438290070783
 30
0.0
 10
1.8696487207186
 20
-7.343359581020649
 30
0.0
 10
1.863579919205234
 20
-7.347671474160733
 30
0.0
 10
1.860649606300146
 20
-7.356737338303673
 30
0.0
 10
1.854775978199932
 20
-7.374909116424254
 30
0.0
 10
1.858197110172909
 20
-7.392571788833694
 30
0.0
 10
1.870720888168218
 20
-7.40552888379049
 30
0.0
 10
1.882253849940664
 20
-7.417461092352545
 30
0.0
 10
1.896602085639907
 20
-7.429137566032649
 30
0.0
 10
1.911945761371056
 20
-7.434366433512877
 30
0.0
 10
1.937532981931086
 20
-7.443086311583909
 30
0.0
 10
1.964717606835329
 20
-7.447745303291311
 30
0.0
 10
1.991563407356819
 20
-7.452016034101283
 30
0.0
 10
2.048697416847478
 20
-7.461104565338169
 30
0.0
 10
2.106150017210603
 20
-7.464666775635072
 30
0.0
 10
2.163909318651588
 20
-7.457549308137559
 30
0.0
 10
2.207291928846732
 20
-7.452203489577565
 30
0.0
 10
2.250724653483466
 20
-7.447388470389139
 30
0.0
 10
2.289217237963877
 20
-7.423844869128363
 30
0.0
 10
2.313892924981612
 20
-7.408752200173694
 30
0.0
 10
2.333542557646865
 20
-7.390386708790148
 30
0.0
 10
2.333402252854903
 20
-7.358602297793519
 30
0.0
 10
2.333336207131411
 20
-7.343639929863506
 30
0.0
 10
2.329846274270557
 20
-7.339946306046511
 30
0.0
 10
2.314365561702655
 20
-7.340054079039165
 30
0.0
 10
2.290844227732792
 20
-7.340217615864174
 30
0.0
 10
2.267327691399373
 20
-7.341358479905238
 30
0.0
 10
2.24380788711072
 20
-7.341400059421125
 30
0.0
 10
2.149676956302237
 20
-7.341566377484645
 30
0.0
 10
2.055545556159775
 20
-7.34146875601257
 30
0.0
 10
1.96141432984469
 20
-7.34146875601257
 30
0.0
  0
SPLINE
  5
83
330
7C
100
AcDbEntity
  8
Layer 1
100
AcDbSpline
210
0.0
220
0.0
230
1.0
 70
     9
 71
     3
 72
    59
 73
    55
 74
     0
 42
0.0000000001
 43
0.0000000001
 40
0.0
 40
0.0
 40
0.0
 40
0.0
 40
1.0
 40
1.0
 40
1.0
 40
2.0
 40
2.0
 40
2.0
 40
3.0
 40
3.0
 40
3.0
 40
4.0
 40
4.0
 40
4.0
 40
5.0
 40
5.0
 40
5.0
 40
6.0
 40
6.0
 40
6.0
 40
7.0
 40
7.0
 40
7.0
 40
8.0
 40
8.0
 40
8.0
 40
9.0
 40
9.0
 40
9.0
 40
10.0
 40
10.0
 40
10.0
 40
11.0
 40
11.0
 40
11.0
 40
12.0
 40
12.0
 40
12.0
 40
13.0
 40
13.0
 40
13.0
 40
14.0
 40
14.0
 40
14.0
 40
15.0
 40
15.0
 40
15.0
 40
16.0
 40
16.0
 40
16.0
 40
17.0
 40
17.0
 40
17.0
 40
18.0
 40
18.0
 40
18.0
 40
18.0
 10
1.840872914491392
 20
-7.18709458225784
 30
0.0
 10
1.843451261661698
 20
-7.193631466214204
 30
0.0
 10
1.846931773077067
 20
-7.199967266625561
 30
0.0
 10
1.848441637938814
 20
-7.206742224599262
 30
0.0
 10
1.85331777484368
 20
-7.228623062410633
 30
0.0
 10
1.864327168464683
 20
-7.237961766052421
 30
0.0
 10
1.886488042229567
 20
-7.237980261288586
 30
0.0
 10
1.966544254764572
 20
-7.238046593827296
 30
0.0
 10
2.046600849719867
 20
-7.238021562680614
 30
0.0
 10
2.12665654077264
 20
-7.238270622590132
 30
0.0
 10
2.183148501350829
 20
-7.238446257802681
 30
0.0
 10
2.239639071309751
 20
-7.239162704845512
 30
0.0
 10
2.296130701615879
 20
-7.23922222334987
 30
0.0
 10
2.303977236026045
 20
-7.239230567065431
 30
0.0
 10
2.312043488279275
 20
-7.237604376902557
 30
0.0
 10
2.319628221230952
 20
-7.235417628115909
 30
0.0
 10
2.33464151189998
 20
-7.231089186606645
 30
0.0
 10
2.341001065826566
 20
-7.219910137435918
 30
0.0
 10
2.342512686345104
 20
-7.204847227733402
 30
0.0
 10
2.342957354236318
 20
-7.200416158522734
 30
0.0
 10
2.346167225069532
 20
-7.196262795978352
 30
0.0
 10
2.348109798496845
 20
-7.191982052709691
 30
0.0
 10
2.349755691996316
 20
-7.196540919830365
 30
0.0
 10
2.352814167848982
 20
-7.201093668226298
 30
0.0
 10
2.352833819037401
 20
-7.205659627505205
 30
0.0
 10
2.353093691011622
 20
-7.266016814317102
 30
0.0
 10
2.352922514472096
 20
-7.326375669872125
 30
0.0
 10
2.352873512525914
 20
-7.386734247303289
 30
0.0
 10
2.352870122891456
 20
-7.390909581631982
 30
0.0
 10
2.352724099177736
 20
-7.395106748683095
 30
0.0
 10
2.353077446840403
 20
-7.399256912803214
 30
0.0
 10
2.35775730652809
 20
-7.454223224991032
 30
0.0
 10
2.332804321338484
 20
-7.494465799513969
 30
0.0
 10
2.28735650248004
 20
-7.521088370878715
 30
0.0
 10
2.212351575345729
 20
-7.565025264528205
 30
0.0
 10
2.13113447385236
 20
-7.580753724608661
 30
0.0
 10
2.044363934343398
 20
-7.569323390537621
 30
0.0
 10
2.002619699612384
 20
-7.563824325735114
 30
0.0
 10
1.961539068392324
 20
-7.555810743186358
 30
0.0
 10
1.92429115768079
 20
-7.536698906445886
 30
0.0
 10
1.867402801082448
 20
-7.507509530050659
 30
0.0
 10
1.835034399527469
 20
-7.459909467145962
 30
0.0
 10
1.833003052443182
 20
-7.39499967100005
 30
0.0
 10
1.831471772044816
 20
-7.346076155745422
 30
0.0
 10
1.832493390484324
 20
-7.297067395530145
 30
0.0
 10
1.832693431064866
 20
-7.248097711716101
 30
0.0
 10
1.832763101089805
 20
-7.231046216471516
 30
0.0
 10
1.833684177756784
 20
-7.213994582164988
 30
0.0
 10
1.834442273846497
 20
-7.196952960317174
 30
0.0
 10
1.83457785922437
 20
-7.193903332279559
 30
0.0
 10
1.835819821285655
 20
-7.190902793101864
 30
0.0
 10
1.83655100889262
 20
-7.187879586830199
 30
0.0
 10
1.8379916904462
 20
-7.187618011347366
 30
0.0
 10
1.839432302468809
 20
-7.18735629680259
 30
0.0
 10
1.840872914491392
 20
-7.18709458225784
 30
0.0
  0
HATCH
  5
84
330
7C
100
AcDbEntity
  8
Layer 1
 62
    18
420
        0
440
 33554687
100
AcDbHatch
 10
0.0
 20
0.0
 30
0.0
210
0.0
220
0.0
230
1.0
  2
SOLID
 70
     1
 71
     1
 91
        2
 92
        1
 93
        1
 72
     4
 94
        3
 73
     0
 74
     0
 95
       41
 96
       37
 40
0.0
 40
0.0
 40
0.0
 40
0.0
 40
1.0
 40
1.0
 40
1.0
 40
2.0
 40
2.0
 40
2.0
 40
3.0
 40
3.0
 40
3.0
 40
4.0
 40
4.0
 40
4.0
 40
5.0
 40
5.0
 40
5.0
 40
6.0
 40
6.0
 40
6.0
 40
7.0
 40
7.0
 40
7.0
 40
8.0
 40
8.0
 40
8.0
 40
9.0
 40
9.0
 40
9.0
 40
10.0
 40
10.0
 40
10.0
 40
11.0
 40
11.0
 40
11.0
 40
12.0
 40
12.0
 40
12.0
 40
12.0
 10
1.96141432984469
 20
-7.34146875601257
 10
1.961412174384867
 20
-7.34215085475969
 10
1.961409984159508
 20
-7.342833092568753
 10
1.961407828699685
 20
-7.343515191315873
 10
1.934073225508212
 20
-7.343515191315873
 10
1.906737509821356
 20
-7.343658842285448
 10
1.879404679669442
 20
-7.343438290070783
 10
1.8696487207186
 20
-7.343359581020649
 10
1.863579919205234
 20
-7.347671474160733
 10
1.860649606300146
 20
-7.356737338303673
 10
1.854775978199932
 20
-7.374909116424254
 10
1.858197110172909
 20
-7.392571788833694
 10
1.870720888168218
 20
-7.40552888379049
 10
1.882253849940664
 20
-7.417461092352545
 10
1.896602085639907
 20
-7.429137566032649
 10
1.911945761371056
 20
-7.434366433512877
 10
1.937532981931086
 20
-7.443086311583909
 10
1.964717606835329
 20
-7.447745303291311
 10
1.991563407356819
 20
-7.452016034101283
 10
2.048697416847478
 20
-7.461104565338169
 10
2.106150017210603
 20
-7.464666775635072
 10
2.163909318651588
 20
-7.457549308137559
 10
2.207291928846732
 20
-7.452203489577565
 10
2.250724653483466
 20
-7.447388470389139
 10
2.289217237963877
 20
-7.423844869128363
 10
2.313892924981612
 20
-7.408752200173694
 10
2.333542557646865
 20
-7.390386708790148
 10
2.333402252854903
 20
-7.358602297793519
 10
2.333336207131411
 20
-7.343639929863506
 10
2.329846274270557
 20
-7.339946306046511
 10
2.314365561702655
 20
-7.340054079039165
 10
2.290844227732792
 20
-7.340217615864174
 10
2.267327691399373
 20
-7.341358479905238
 10
2.24380788711072
 20
-7.341400059421125
 10
2.149676956302237
 20
-7.341566377484645
 10
2.055545556159775
 20
-7.34146875601257
 10
1.96141432984469
 20
-7.34146875601257
 97
        0
 97
        1
330
82
 92
        1
 93
        1
 72
     4
 94
        3
 73
     0
 74
     0
 95
       59
 96
       55
 40
0.0
 40
0.0
 40
0.0
 40
0.0
 40
1.0
 40
1.0
 40
1.0
 40
2.0
 40
2.0
 40
2.0
 40
3.0
 40
3.0
 40
3.0
 40
4.0
 40
4.0
 40
4.0
 40
5.0
 40
5.0
 40
5.0
 40
6.0
 40
6.0
 40
6.0
 40
7.0
 40
7.0
 40
7.0
 40
8.0
 40
8.0
 40
8.0
 40
9.0
 40
9.0
 40
9.0
 40
10.0
 40
10.0
 40
10.0
 40
11.0
 40
11.0
 40
11.0
 40
12.0
 40
12.0
 40
12.0
 40
13.0
 40
13.0
 40
13.0
 40
14.0
 40
14.0
 40
14.0
 40
15.0
 40
15.0
 40
15.0
 40
16.0
 40
16.0
 40
16.0
 40
17.0
 40
17.0
 40
17.0
 40
18.0
 40
18.0
 40
18.0
 40
18.0
 10
1.840872914491392
 20
-7.18709458225784
 10
1.843451261661698
 20
-7.193631466214204
 10
1.846931773077067
 20
-7.199967266625561
 10
1.848441637938814
 20
-7.206742224599262
 10
1.85331777484368
 20
-7.228623062410633
 10
1.864327168464683
 20
-7.237961766052421
 10
1.886488042229567
 20
-7.237980261288586
 10
1.966544254764572
 20
-7.238046593827296
 10
2.046600849719867
 20
-7.238021562680614
 10
2.12665654077264
 20
-7.238270622590132
 10
2.183148501350829
 20
-7.238446257802681
 10
2.239639071309751
 20
-7.239162704845512
 10
2.296130701615879
 20
-7.23922222334987
 10
2.303977236026045
 20
-7.239230567065431
 10
2.312043488279275
 20
-7.237604376902557
 10
2.319628221230952
 20
-7.235417628115909
 10
2.33464151189998
 20
-7.231089186606645
 10
2.341001065826566
 20
-7.219910137435918
 10
2.342512686345104
 20
-7.204847227733402
 10
2.342957354236318
 20
-7.200416158522734
 10
2.346167225069532
 20
-7.196262795978352
 10
2.348109798496845
 20
-7.191982052709691
 10
2.349755691996316
 20
-7.196540919830365
 10
2.352814167848982
 20
-7.201093668226298
 10
2.352833819037401
 20
-7.205659627505205
 10
2.353093691011622
 20
-7.266016814317102
 10
2.352922514472096
 20
-7.326375669872125
 10
2.352873512525914
 20
-7.386734247303289
 10
2.352870122891456
 20
-7.390909581631982
 10
2.352724099177736
 20
-7.395106748683095
 10
2.353077446840403
 20
-7.399256912803214
 10
2.35775730652809
 20
-7.454223224991032
 10
2.332804321338484
 20
-7.494465799513969
 10
2.28735650248004
 20
-7.521088370878715
 10
2.212351575345729
 20
-7.565025264528205
 10
2.13113447385236
 20
-7.580753724608661
 10
2.044363934343398
 20
-7.569323390537621
 10
2.002619699612384
 20
-7.563824325735114
 10
1.961539068392324
 20
-7.555810743186358
 10
1.92429115768079
 20
-7.536698906445886
 10
1.867402801082448
 20
-7.507509530050659
 10
1.835034399527469
 20
-7.459909467145962
 10
1.833003052443182
 20
-7.39499967100005
 10
1.831471772044816
 20
-7.346076155745422
 10
1.832493390484324
 20
-7.297067395530145
 10
1.832693431064866
 20
-7.248097711716101
 10
1.832763101089805
 20
-7.231046216471516
 10
1.833684177756784
 20
-7.213994582164988
 10
1.834442273846497
 20
-7.196952960317174
 10
1.83457785922437
 20
-7.193903332279559
 10
1.835819821285655
 20
-7.190902793101864
 10
1.83655100889262
 20
-7.187879586830199
 10
1.8379916904462
 20
-7.187618011347366
 10
1.839432302468809
 20
-7.18735629680259
 10
1.840872914491392
 20
-7.18709458225784
 97
        0
 97
        1
330
83
 75
     2
 76
     1
 98
        1
 10
0.0
 20
0.0
450
        0
451
        0
460
0.0
461
0.0
452
        0
462
0.0
453
        0
470

  0
SPLINE
  5
85
330
7C
100
AcDbEntity
  8
Layer 1
100
AcDbSpline
210
0.0
220
0.0
230
1.0
 70
     9
 71
     3
 72
   119
 73
   115
 74
     0
 42
0.0000000001
 43
0.0000000001
 40
0.0
 40
0.0
 40
0.0
 40
0.0
 40
1.0
 40
1.0
 40
1.0
 40
2.0
 40
2.0
 40
2.0
 40
3.0
 40
3.0
 40
3.0
 40
4.0
 40
4.0
 40
4.0
 40
5.0
 40
5.0
 40
5.0
 40
6.0
 40
6.0
 40
6.0
 40
7.0
 40
7.0
 40
7.0
 40
8.0
 40
8.0
 40
8.0
 40
9.0
 40
9.0
 40
9.0
 40
10.0
 40
10.0
 40
10.0
 40
11.0
 40
11.0
 40
11.0
 40
12.0
 40
12.0
 40
12.0
 40
13.0
 40
13.0
 40
13.0
 40
14.0
 40
14.0
 40
14.0
 40
15.0
 40
15.0
 40
15.0
 40
16.0
 40
16.0
 40
16.0
 40
17.0
 40
17.0
 40
17.0
 40
18.0
 40
18.0
 40
18.0
 40
19.0
 40
19.0
 40
19.0
 40
20.0
 40
20.0
 40
20.0
 40
21.0
 40
21.0
 40
21.0
 40
22.0
 40
22.0
 40
22.0
 40
23.0
 40
23.0
 40
23.0
 40
24.0
 40
24.0
 40
24.0
 40
25.0
 40
25.0
 40
25.0
 40
26.0
 40
26.0
 40
26.0
 40
27.0
 40
27.0
 40
27.0
 40
28.0
 40
28.0
 40
28.0
 40
29.0
 40
29.0
 40
29.0
 40
30.0
 40
30.0
 40
30.0
 40
31.0
 40
31.0
 40
31.0
 40
32.0
 40
32.0
 40
32.0
 40
33.0
 40
33.0
 40
33.0
 40
34.0
 40
34.0
 40
34.0
 40
35.0
 40
35.0
 40
35.0
 40
36.0
 40
36.0
 40
36.0
 40
37.0
 40
37.0
 40
37.0
 40
38.0
 40
38.0
 40
38.0
 40
38.0
 10
2.255966401574609
 20
-6.152777842047675
 30
0.0
 10
2.248275008125688
 20
-6.151669240373469
 30
0.0
 10
2.244084446516062
 20
-6.150518085749884
 30
0.0
 10
2.239900577261639
 20
-6.150541934870185
 30
0.0
 10
2.124529936268964
 20
-6.151199419656399
 30
0.0
 10
2.009158287077361
 20
-6.151797246876362
 30
0.0
 10
1.893791365991205
 20
-6.152888674402725
 30
0.0
 10
1.871472309285473
 20
-6.153099839937365
 30
0.0
 10
1.854528587033566
 20
-6.160775223882081
 30
0.0
 10
1.850372929967369
 20
-6.18727854964527
 30
0.0
 10
1.849823426766698
 20
-6.190783049242882
 30
0.0
 10
1.845169858474403
 20
-6.193644039777836
 30
0.0
 10
1.842416988586908
 20
-6.196802970489266
 30
0.0
 10
1.841024561521723
 20
-6.193221917301394
 30
0.0
 10
1.838465543959109
 20
-6.189654631244189
 30
0.0
 10
1.838423060540725
 20
-6.186057655465774
 30
0.0
 10
1.838064837019285
 20
-6.155717541632762
 30
0.0
 10
1.837993081065468
 20
-6.12536984892477
 30
0.0
 10
1.838375014645268
 20
-6.095031195241972
 30
0.0
 10
1.838417219939818
 20
-6.091673962224022
 30
0.0
 10
1.841839186284346
 20
-6.088359282155452
 30
0.0
 10
1.843693716129728
 20
-6.085024924824336
 30
0.0
 10
1.846412307252409
 20
-6.087249846109671
 30
0.0
 10
1.849784698020319
 20
-6.089029352045978
 30
0.0
 10
1.851681780815056
 20
-6.09181406711448
 30
0.0
 10
1.853980057266362
 20
-6.095187778970688
 30
0.0
 10
1.854794403905126
 20
-6.099530265734478
 30
0.0
 10
1.856664717279133
 20
-6.103245374619013
 30
0.0
 10
1.86356907237502
 20
-6.116960218010717
 30
0.0
 10
1.871367039407447
 20
-6.126578575185728
 30
0.0
 10
1.890060995060277
 20
-6.126502647374132
 30
0.0
 10
2.023615234437241
 20
-6.125960027738806
 30
0.0
 10
2.157176600737898
 20
-6.127091505099845
 30
0.0
 10
2.290729588557559
 20
-6.126441182002811
 30
0.0
 10
2.303792752998421
 20
-6.126377561171667
 30
0.0
 10
2.317765225990784
 20
-6.119484191967936
 30
0.0
 10
2.329445975825124
 20
-6.112592213383499
 30
0.0
 10
2.335094401827531
 20
-6.109259455264539
 30
0.0
 10
2.336002284994277
 20
-6.09835289793783
 30
0.0
 10
2.339830720657182
 20
-6.091295505192369
 30
0.0
 10
2.341995854005706
 20
-6.087304358384673
 30
0.0
 10
2.34573054454774
 20
-6.084164687749989
 30
0.0
 10
2.348758287714708
 20
-6.080641553854294
 30
0.0
 10
2.350460961936871
 20
-6.084351586978552
 30
0.0
 10
2.353602518598929
 20
-6.088046253759961
 30
0.0
 10
2.353642577125015
 20
-6.091774156341721
 30
0.0
 10
2.354021825071375
 20
-6.12707002003228
 30
0.0
 10
2.353441102468309
 20
-6.162379372729648
 30
0.0
 10
2.354074242726116
 20
-6.197667935669111
 30
0.0
 10
2.354356199472489
 20
-6.213382628618849
 30
0.0
 10
2.348885894414567
 20
-6.223558206931429
 30
0.0
 10
2.334707609771675
 20
-6.231333645931903
 30
0.0
 10
2.283545788521337
 20
-6.259390988718349
 30
0.0
 10
2.232941031963882
 20
-6.288464039812449
 30
0.0
 10
2.182121511644418
 20
-6.317145701115779
 30
0.0
 10
2.132603384976884
 20
-6.345092837325864
 30
0.0
 10
2.083068553495485
 20
-6.373010492407628
 30
0.0
 10
2.033592579974272
 20
-6.401032026748124
 30
0.0
 10
2.031186669592228
 20
-6.402394694561204
 30
0.0
 10
2.029275645839397
 20
-6.404630949393498
 30
0.0
 10
2.024194044938806
 20
-6.408972184599987
 30
0.0
 10
2.032678491169071
 20
-6.410502004848113
 30
0.0
 10
2.037901378986501
 20
-6.412224843049544
 30
0.0
 10
2.043138033934572
 20
-6.41226795224659
 30
0.0
 10
2.097784121272284
 20
-6.412716566019954
 30
0.0
 10
2.152433302737853
 20
-6.412783593868298
 30
0.0
 10
2.207079824644109
 20
-6.413193270302346
 30
0.0
 10
2.23779371955148
 20
-6.413423417789898
 30
0.0
 10
2.268504363886386
 20
-6.414090358787082
 30
0.0
 10
2.299216311926872
 20
-6.414570539617645
 30
0.0
 10
2.320388611842405
 20
-6.4149016460635
 30
0.0
 10
2.332957758791116
 20
-6.405108905233241
 30
0.0
 10
2.338935379137877
 20
-6.384766787633274
 30
0.0
 10
2.340471674456959
 20
-6.379538754524572
 30
0.0
 10
2.344458162690152
 20
-6.375030645006896
 30
0.0
 10
2.347319014163139
 20
-6.370191846229166
 30
0.0
 10
2.349133641927146
 20
-6.375517083624117
 30
0.0
 10
2.352407263962087
 20
-6.380812144581138
 30
0.0
 10
2.352518487428786
 20
-6.386172703705319
 30
0.0
 10
2.353100539811508
 20
-6.414225805103038
 30
0.0
 10
2.353046288277621
 20
-6.442297540798815
 30
0.0
 10
2.352721674285437
 20
-6.470357039045135
 30
0.0
 10
2.352682797785733
 20
-6.473717331425454
 30
0.0
 10
2.349659417686691
 20
-6.477043275510039
 30
0.0
 10
2.348019347405334
 20
-6.480385072654219
 30
0.0
 10
2.345167847846836
 20
-6.477417630214883
 30
0.0
 10
2.340769545102489
 20
-6.474916601475443
 30
0.0
 10
2.339711770562201
 20
-6.471408347205851
 30
0.0
 10
2.331878577405619
 20
-6.445428659125076
 30
0.0
 10
2.320746731067389
 20
-6.436080082086517
 30
0.0
 10
2.29330207774424
 20
-6.435999704293281
 30
0.0
 10
2.153641542282065
 20
-6.435590166921151
 30
0.0
 10
2.013980155065622
 20
-6.435485036105092
 30
0.0
 10
1.874319045973013
 20
-6.435278390083011
 30
0.0
 10
1.863312085935717
 20
-6.435262119837665
 30
0.0
 10
1.852300745447753
 20
-6.435097748641131
 30
0.0
 10
1.841299695542311
 20
-6.435353900708857
 30
0.0
 10
1.833764416488103
 20
-6.435529396859489
 30
0.0
 10
1.830592205362727
 20
-6.432244476043074
 30
0.0
 10
1.829651034247452
 20
-6.424760580370502
 30
0.0
 10
1.826910610402352
 20
-6.402969437501446
 30
0.0
 10
1.831395635640306
 20
-6.395544782209374
 30
0.0
 10
1.85488973085541
 20
-6.382443897221037
 30
0.0
 10
1.914797295695039
 20
-6.349037746043172
 30
0.0
 10
1.974536282714792
 20
-6.315329552361971
 30
0.0
 10
2.034403345768434
 20
-6.2818506022658
 30
0.0
 10
2.068482904323054
 20
-6.262792582490722
 30
0.0
 10
2.102859325324275
 20
-6.244259382424388
 30
0.0
 10
2.136777954464997
 20
-6.224921361461231
 30
0.0
 10
2.172672827401899
 20
-6.204456591242533
 30
0.0
 10
2.208206626047854
 20
-6.183357281455376
 30
0.0
 10
2.243823044860631
 20
-6.162407463238726
 30
0.0
 10
2.247198164718825
 20
-6.160422215182885
 30
0.0
 10
2.250037583272501
 20
-6.15752611151159
 30
0.0
 10
2.255966401574609
 20
-6.152777842047675
 30
0.0
  0
HATCH
  5
86
330
7C
100
AcDbEntity
  8
Layer 1
 62
    18
420
        0
440
 33554687
100
AcDbHatch
 10
0.0
 20
0.0
 30
0.0
210
0.0
220
0.0
230
1.0
  2
SOLID
 70
     1
 71
     1
 91
        1
 92
        1
 93
        1
 72
     4
 94
        3
 73
     0
 74
     0
 95
      119
 96
      115
 40
0.0
 40
0.0
 40
0.0
 40
0.0
 40
1.0
 40
1.0
 40
1.0
 40
2.0
 40
2.0
 40
2.0
 40
3.0
 40
3.0
 40
3.0
 40
4.0
 40
4.0
 40
4.0
 40
5.0
 40
5.0
 40
5.0
 40
6.0
 40
6.0
 40
6.0
 40
7.0
 40
7.0
 40
7.0
 40
8.0
 40
8.0
 40
8.0
 40
9.0
 40
9.0
 40
9.0
 40
10.0
 40
10.0
 40
10.0
 40
11.0
 40
11.0
 40
11.0
 40
12.0
 40
12.0
 40
12.0
 40
13.0
 40
13.0
 40
13.0
 40
14.0
 40
14.0
 40
14.0
 40
15.0
 40
15.0
 40
15.0
 40
16.0
 40
16.0
 40
16.0
 40
17.0
 40
17.0
 40
17.0
 40
18.0
 40
18.0
 40
18.0
 40
19.0
 40
19.0
 40
19.0
 40
20.0
 40
20.0
 40
20.0
 40
21.0
 40
21.0
 40
21.0
 40
22.0
 40
22.0
 40
22.0
 40
23.0
 40
23.0
 40
23.0
 40
24.0
 40
24.0
 40
24.0
 40
25.0
 40
25.0
 40
25.0
 40
26.0
 40
26.0
 40
26.0
 40
27.0
 40
27.0
 40
27.0
 40
28.0
 40
28.0
 40
28.0
 40
29.0
 40
29.0
 40
29.0
 40
30.0
 40
30.0
 40
30.0
 40
31.0
 40
31.0
 40
31.0
 40
32.0
 40
32.0
 40
32.0
 40
33.0
 40
33.0
 40
33.0
 40
34.0
 40
34.0
 40
34.0
 40
35.0
 40
35.0
 40
35.0
 40
36.0
 40
36.0
 40
36.0
 40
37.0
 40
37.0
 40
37.0
 40
38.0
 40
38.0
 40
38.0
 40
38.0
 10
2.255966401574609
 20
-6.152777842047675
 10
2.248275008125688
 20
-6.151669240373469
 10
2.244084446516062
 20
-6.150518085749884
 10
2.239900577261639
 20
-6.150541934870185
 10
2.124529936268964
 20
-6.151199419656399
 10
2.009158287077361
 20
-6.151797246876362
 10
1.893791365991205
 20
-6.152888674402725
 10
1.871472309285473
 20
-6.153099839937365
 10
1.854528587033566
 20
-6.160775223882081
 10
1.850372929967369
 20
-6.18727854964527
 10
1.849823426766698
 20
-6.190783049242882
 10
1.845169858474403
 20
-6.193644039777836
 10
1.842416988586908
 20
-6.196802970489266
 10
1.841024561521723
 20
-6.193221917301394
 10
1.838465543959109
 20
-6.189654631244189
 10
1.838423060540725
 20
-6.186057655465774
 10
1.838064837019285
 20
-6.155717541632762
 10
1.837993081065468
 20
-6.12536984892477
 10
1.838375014645268
 20
-6.095031195241972
 10
1.838417219939818
 20
-6.091673962224022
 10
1.841839186284346
 20
-6.088359282155452
 10
1.843693716129728
 20
-6.085024924824336
 10
1.846412307252409
 20
-6.087249846109671
 10
1.849784698020319
 20
-6.089029352045978
 10
1.851681780815056
 20
-6.09181406711448
 10
1.853980057266362
 20
-6.095187778970688
 10
1.854794403905126
 20
-6.099530265734478
 10
1.856664717279133
 20
-6.103245374619013
 10
1.86356907237502
 20
-6.116960218010717
 10
1.871367039407447
 20
-6.126578575185728
 10
1.890060995060277
 20
-6.126502647374132
 10
2.023615234437241
 20
-6.125960027738806
 10
2.157176600737898
 20
-6.127091505099845
 10
2.290729588557559
 20
-6.126441182002811
 10
2.303792752998421
 20
-6.126377561171667
 10
2.317765225990784
 20
-6.119484191967936
 10
2.329445975825124
 20
-6.112592213383499
 10
2.335094401827531
 20
-6.109259455264539
 10
2.336002284994277
 20
-6.09835289793783
 10
2.339830720657182
 20
-6.091295505192369
 10
2.341995854005706
 20
-6.087304358384673
 10
2.34573054454774
 20
-6.084164687749989
 10
2.348758287714708
 20
-6.080641553854294
 10
2.350460961936871
 20
-6.084351586978552
 10
2.353602518598929
 20
-6.088046253759961
 10
2.353642577125015
 20
-6.091774156341721
 10
2.354021825071375
 20
-6.12707002003228
 10
2.353441102468309
 20
-6.162379372729648
 10
2.354074242726116
 20
-6.197667935669111
 10
2.354356199472489
 20
-6.213382628618849
 10
2.348885894414567
 20
-6.223558206931429
 10
2.334707609771675
 20
-6.231333645931903
 10
2.283545788521337
 20
-6.259390988718349
 10
2.232941031963882
 20
-6.288464039812449
 10
2.182121511644418
 20
-6.317145701115779
 10
2.132603384976884
 20
-6.345092837325864
 10
2.083068553495485
 20
-6.373010492407628
 10
2.033592579974272
 20
-6.401032026748124
 10
2.031186669592228
 20
-6.402394694561204
 10
2.029275645839397
 20
-6.404630949393498
 10
2.024194044938806
 20
-6.408972184599987
 10
2.032678491169071
 20
-6.410502004848113
 10
2.037901378986501
 20
-6.412224843049544
 10
2.043138033934572
 20
-6.41226795224659
 10
2.097784121272284
 20
-6.412716566019954
 10
2.152433302737853
 20
-6.412783593868298
 10
2.207079824644109
 20
-6.413193270302346
 10
2.23779371955148
 20
-6.413423417789898
 10
2.268504363886386
 20
-6.414090358787082
 10
2.299216311926872
 20
-6.414570539617645
 10
2.320388611842405
 20
-6.4149016460635
 10
2.332957758791116
 20
-6.405108905233241
 10
2.338935379137877
 20
-6.384766787633274
 10
2.340471674456959
 20
-6.379538754524572
 10
2.344458162690152
 20
-6.375030645006896
 10
2.347319014163139
 20
-6.370191846229166
 10
2.349133641927146
 20
-6.375517083624117
 10
2.352407263962087
 20
-6.380812144581138
 10
2.352518487428786
 20
-6.386172703705319
 10
2.353100539811508
 20
-6.414225805103038
 10
2.353046288277621
 20
-6.442297540798815
 10
2.352721674285437
 20
-6.470357039045135
 10
2.352682797785733
 20
-6.473717331425454
 10
2.349659417686691
 20
-6.477043275510039
 10
2.348019347405334
 20
-6.480385072654219
 10
2.345167847846836
 20
-6.477417630214883
 10
2.340769545102489
 20
-6.474916601475443
 10
2.339711770562201
 20
-6.471408347205851
 10
2.331878577405619
 20
-6.445428659125076
 10
2.320746731067389
 20
-6.436080082086517
 10
2.29330207774424
 20
-6.435999704293281
 10
2.153641542282065
 20
-6.435590166921151
 10
2.013980155065622
 20
-6.435485036105092
 10
1.874319045973013
 20
-6.435278390083011
 10
1.863312085935717
 20
-6.435262119837665
 10
1.852300745447753
 20
-6.435097748641131
 10
1.841299695542311
 20
-6.435353900708857
 10
1.833764416488103
 20
-6.435529396859489
 10
1.830592205362727
 20
-6.432244476043074
 10
1.829651034247452
 20
-6.424760580370502
 10
1.826910610402352
 20
-6.402969437501446
 10
1.831395635640306
 20
-6.395544782209374
 10
1.85488973085541
 20
-6.382443897221037
 10
1.914797295695039
 20
-6.349037746043172
 10
1.974536282714792
 20
-6.315329552361971
 10
2.034403345768434
 20
-6.2818506022658
 10
2.068482904323054
 20
-6.262792582490722
 10
2.102859325324275
 20
-6.244259382424388
 10
2.136777954464997
 20
-6.224921361461231
 10
2.172672827401899
 20
-6.204456591242533
 10
2.208206626047854
 20
-6.183357281455376
 10
2.243823044860631
 20
-6.162407463238726
 10
2.247198164718825
 20
-6.160422215182885
 10
2.250037583272501
 20
-6.15752611151159
 10
2.255966401574609
 20
-6.152777842047675
 97
        0
 97
        1
330
85
 75
     2
 76
     1
 98
        1
 10
0.0
 20
0.0
450
        0
451
        0
460
0.0
461
0.0
452
        0
462
0.0
453
        0
470

  0
SPLINE
  5
87
330
7C
100
AcDbEntity
  8
Layer 1
100
AcDbSpline
210
0.0
220
0.0
230
1.0
 70
     9
 71
     3
 72
   149
 73
   145
 74
     0
 42
0.0000000001
 43
0.0000000001
 40
0.0
 40
0.0
 40
0.0
 40
0.0
 40
1.0
 40
1.0
 40
1.0
 40
2.0
 40
2.0
 40
2.0
 40
3.0
 40
3.0
 40
3.0
 40
4.0
 40
4.0
 40
4.0
 40
5.0
 40
5.0
 40
5.0
 40
6.0
 40
6.0
 40
6.0
 40
7.0
 40
7.0
 40
7.0
 40
8.0
 40
8.0
 40
8.0
 40
9.0
 40
9.0
 40
9.0
 40
10.0
 40
10.0
 40
10.0
 40
11.0
 40
11.0
 40
11.0
 40
12.0
 40
12.0
 40
12.0
 40
13.0
 40
13.0
 40
13.0
 40
14.0
 40
14.0
 40
14.0
 40
15.0
 40
15.0
 40
15.0
 40
16.0
 40
16.0
 40
16.0
 40
17.0
 40
17.0
 40
17.0
 40
18.0
 40
18.0
 40
18.0
 40
19.0
 40
19.0
 40
19.0
 40
20.0
 40
20.0
 40
20.0
 40
21.0
 40
21.0
 40
21.0
 40
22.0
 40
22.0
 40
22.0
 40
23.0
 40
23.0
 40
23.0
 40
24.0
 40
24.0
 40
24.0
 40
25.0
 40
25.0
 40
25.0
 40
26.0
 40
26.0
 40
26.0
 40
27.0
 40
27.0
 40
27.0
 40
28.0
 40
28.0
 40
28.0
 40
29.0
 40
29.0
 40
29.0
 40
30.0
 40
30.0
 40
30.0
 40
31.0
 40
31.0
 40
31.0
 40
32.0
 40
32.0
 40
32.0
 40
33.0
 40
33.0
 40
33.0
 40
34.0
 40
34.0
 40
34.0
 40
35.0
 40
35.0
 40
35.0
 40
36.0
 40
36.0
 40
36.0
 40
37.0
 40
37.0
 40
37.0
 40
38.0
 40
38.0
 40
38.0
 40
39.0
 40
39.0
 40
39.0
 40
40.0
 40
40.0
 40
40.0
 40
41.0
 40
41.0
 40
41.0
 40
42.0
 40
42.0
 40
42.0
 40
43.0
 40
43.0
 40
43.0
 40
44.0
 40
44.0
 40
44.0
 40
45.0
 40
45.0
 40
45.0
 40
46.0
 40
46.0
 40
46.0
 40
47.0
 40
47.0
 40
47.0
 40
48.0
 40
48.0
 40
48.0
 40
48.0
 10
1.983224176542825
 20
-7.173083119777957
 30
0.0
 10
1.980382098429812
 20
-7.173421040258189
 30
0.0
 10
1.977483943595125
 20
-7.174302136621437
 30
0.0
 10
1.974706355450317
 20
-7.174015251868038
 30
0.0
 10
1.932814888905151
 20
-7.169690425968862
 30
0.0
 10
1.890937641441887
 20
-7.165226955329444
 30
0.0
 10
1.849061019757312
 20
-7.160759312832245
 30
0.0
 10
1.838594802019353
 20
-7.159642784628228
 30
0.0
 10
1.83351792922426
 20
-7.155401952132351
 30
0.0
 10
1.833685012128386
 20
-7.143209002459014
 30
0.0
 10
1.834948667850097
 20
-7.051002462731022
 30
0.0
 10
1.835385044173929
 20
-6.958784937110875
 30
0.0
 10
1.836234503949033
 20
-6.866572278658117
 30
0.0
 10
1.83629151933869
 20
-6.860374983925086
 30
0.0
 10
1.83761163420239
 20
-6.854189370393846
 30
0.0
 10
1.838344281959621
 20
-6.847998333447472
 30
0.0
 10
1.839541674673619
 20
-6.847771940631925
 30
0.0
 10
1.840739067387618
 20
-6.847545547816353
 30
0.0
 10
1.841936460101566
 20
-6.847319015938889
 30
0.0
 10
1.84367953181326
 20
-6.850983436751397
 30
0.0
 10
1.846075221143754
 20
-6.854481539500384
 30
0.0
 10
1.847057763182028
 20
-6.858339534513939
 30
0.0
 10
1.85267523921454
 20
-6.880397815342929
 30
0.0
 10
1.86164007486823
 20
-6.887884909439763
 30
0.0
 10
1.883418145916253
 20
-6.887875175104959
 30
0.0
 10
2.02423694554299
 20
-6.887811901928595
 30
0.0
 10
2.165055779935212
 20
-6.887724153853291
 30
0.0
 10
2.305874579561898
 20
-6.887643219812338
 30
0.0
 10
2.322444877085608
 20
-6.887633763601392
 30
0.0
 10
2.331379970869862
 20
-6.881459970333859
 30
0.0
 10
2.336243844251144
 20
-6.865699804134262
 30
0.0
 10
2.338241451435667
 20
-6.859226888663871
 30
0.0
 10
2.338410402984423
 20
-6.852184236482571
 30
0.0
 10
2.34046595553525
 20
-6.845737047468496
 30
0.0
 10
2.341357551073909
 20
-6.842940651198179
 30
0.0
 10
2.344912790891776
 20
-6.840993367048136
 30
0.0
 10
2.347258105039562
 20
-6.838660325115319
 30
0.0
 10
2.349372228735331
 20
-6.841194728716977
 30
0.0
 10
2.352049335947248
 20
-6.843462411544578
 30
0.0
 10
2.353418313695189
 20
-6.84635003243837
 30
0.0
 10
2.354470369313743
 20
-6.848569182653792
 30
0.0
 10
2.353980732272235
 20
-6.851568609336077
 30
0.0
 10
2.353997228493211
 20
-6.85422218900837
 30
0.0
 10
2.35457999356831
 20
-6.947957436489105
 30
0.0
 10
2.355157900167354
 20
-7.041692823031755
 30
0.0
 10
2.355688690847589
 20
-7.135428487698264
 30
0.0
 10
2.355769998617473
 20
-7.149786353435855
 30
0.0
 10
2.355515228477631
 20
-7.149906781063791
 30
0.0
 10
2.340927128338749
 20
-7.14994363247418
 30
0.0
 10
2.304489696606158
 20
-7.150035552407289
 30
0.0
 10
2.268052325713129
 20
-7.150156536282944
 30
0.0
 10
2.231614885289129
 20
-7.150249568711437
 30
0.0
 10
2.229339397610968
 20
-7.150255270250403
 30
0.0
 10
2.226840211442031
 20
-7.150694149688913
 30
0.0
 10
2.224839857784457
 20
-7.149916376336705
 30
0.0
 10
2.2217941582463
 20
-7.148731985912793
 30
0.0
 10
2.219093871149589
 20
-7.146659267905483
 30
0.0
 10
2.216246908486444
 20
-7.14496382490347
 30
0.0
 10
2.218850547544522
 20
-7.142178692649141
 30
0.0
 10
2.221071887985279
 20
-7.137557942971398
 30
0.0
 10
2.224123150000511
 20
-7.13692242996947
 30
0.0
 10
2.23821594632438
 20
-7.133987945206627
 30
0.0
 10
2.252611167571848
 20
-7.132540171494863
 30
0.0
 10
2.266766037662932
 20
-7.129861977861663
 30
0.0
 10
2.298334694081366
 20
-7.123888711891443
 30
0.0
 10
2.320072350257166
 20
-7.105683558908594
 30
0.0
 10
2.332059314452597
 20
-7.075900527151234
 30
0.0
 10
2.333325447214886
 20
-7.072754529198896
 30
0.0
 10
2.334775445917469
 20
-7.069377410325538
 30
0.0
 10
2.334813548885209
 20
-7.066092211385239
 30
0.0
 10
2.335046494994015
 20
-7.046009722401144
 30
0.0
 10
2.33501225968612
 20
-7.025921670940028
 30
0.0
 10
2.334820136943929
 20
-7.00583779133669
 30
0.0
 10
2.334736725862474
 20
-6.997117078894133
 30
0.0
 10
2.330465482261653
 20
-6.993158403046132
 30
0.0
 10
2.321190999155545
 20
-6.993262143242948
 30
0.0
 10
2.254036361103405
 20
-6.994012243271905
 30
0.0
 10
2.186877290452343
 20
-6.994355587167243
 30
0.0
 10
2.119721279163678
 20
-6.995001807937442
 30
0.0
 10
2.110011836427133
 20
-6.99509511848982
 30
0.0
 10
2.106718432833241
 20
-7.001619904058593
 30
0.0
 10
2.110805810493742
 20
-7.013074713028648
 30
0.0
 10
2.116725363795024
 20
-7.029664105493035
 30
0.0
 10
2.127638596094192
 20
-7.042626484803045
 30
0.0
 10
2.144556522358811
 20
-7.047693762325252
 30
0.0
 10
2.166953488508586
 20
-7.054402387760243
 30
0.0
 10
2.190006305466959
 20
-7.058911192587578
 30
0.0
 10
2.212740027453353
 20
-7.064516222577695
 30
0.0
 10
2.216446584029464
 20
-7.065429998493552
 30
0.0
 10
2.219961269913142
 20
-7.067121825885502
 30
0.0
 10
2.223564607774644
 20
-7.068454039136743
 30
0.0
 10
2.223269414071195
 20
-7.07029980808079
 30
0.0
 10
2.222974220367746
 20
-7.072145437962944
 30
0.0
 10
2.222679026664296
 20
-7.07399120690699
 30
0.0
 10
2.212410572367856
 20
-7.07399120690699
 30
0.0
 10
2.202142100688698
 20
-7.074005947471126
 30
0.0
 10
2.191873663775027
 20
-7.073988703792312
 30
0.0
 10
2.142939892703364
 20
-7.073906240070199
 30
0.0
 10
2.094005773976846
 20
-7.073680264440402
 30
0.0
 10
2.045072489621929
 20
-7.073796381148642
 30
0.0
 10
2.026565050777422
 20
-7.073840185655322
 30
0.0
 10
2.008059524034416
 20
-7.074671080663291
 30
0.0
 10
1.989552815264977
 20
-7.075129011585659
 30
0.0
 10
1.987657331682397
 20
-7.075176014516677
 30
0.0
 10
1.985442840041501
 20
-7.075754373066981
 30
0.0
 10
1.983927829888481
 20
-7.074991201216966
 30
0.0
 10
1.980661126184372
 20
-7.073345820508317
 30
0.0
 10
1.977753271780342
 20
-7.070988025552676
 30
0.0
 10
1.974698602747935
 20
-7.068921704393964
 30
0.0
 10
1.977581043584968
 20
-7.06703908403953
 30
0.0
 10
1.980242271663213
 20
-7.064119896088514
 30
0.0
 10
1.983383298151655
 20
-7.063449895728959
 30
0.0
 10
1.998568026101376
 20
-7.060211143471986
 30
0.0
 10
2.01430458653902
 20
-7.058931773752596
 30
0.0
 10
2.029027316004999
 20
-7.054336472407308
 30
0.0
 10
2.042925894966439
 20
-7.049998296563241
 30
0.0
 10
2.05722076565155
 20
-7.044261992114948
 30
0.0
 10
2.068647032161265
 20
-7.035590507594204
 30
0.0
 10
2.076522109031694
 20
-7.029614182261613
 30
0.0
 10
2.080807302281969
 20
-7.017993055228063
 30
0.0
 10
2.084807488114885
 20
-7.008128558443988
 30
0.0
 10
2.087750803310036
 20
-7.000870360277353
 30
0.0
 10
2.083222703640495
 20
-6.995609508554151
 30
0.0
 10
2.074987838801929
 20
-6.995406060956383
 30
0.0
 10
2.064749647857158
 20
-6.995153107312944
 30
0.0
 10
2.054500158130912
 20
-6.99527687242711
 30
0.0
 10
2.044256265647176
 20
-6.995346403390132
 30
0.0
 10
1.9892453145811
 20
-6.995719784661483
 30
0.0
 10
1.934233633439854
 20
-6.9960336474285
 30
0.0
 10
1.879224316351395
 20
-6.99658002173583
 30
0.0
 10
1.863144863969674
 20
-6.996739664826892
 30
0.0
 10
1.857030519675504
 20
-7.001241794681769
 30
0.0
 10
1.854250741305362
 20
-7.017107230759342
 30
0.0
 10
1.843989709439243
 20
-7.075670379663657
 30
0.0
 10
1.864973667358766
 20
-7.120268651833334
 30
0.0
 10
1.919584641560163
 20
-7.145680828193992
 30
0.0
 10
1.934584173789883
 20
-7.152660485322813
 30
0.0
 10
1.951228912900849
 20
-7.1560669462626
 30
0.0
 10
1.967023809816421
 20
-7.161394408648346
 30
0.0
 10
1.973017830779111
 20
-7.163416229990742
 30
0.0
 10
1.978744539954492
 20
-7.16623042618759
 30
0.0
 10
1.984593102142563
 20
-7.168683339500653
 30
0.0
 10
1.984136805197787
 20
-7.170150025634357
 30
0.0
 10
1.983680473487576
 20
-7.17161657270617
 30
0.0
 10
1.983224176542825
 20
-7.173083119777957
 30
0.0
  0
HATCH
  5
88
330
7C
100
AcDbEntity
  8
Layer 1
 62
    18
420
        0
440
 33554687
100
AcDbHatch
 10
0.0
 20
0.0
 30
0.0
210
0.0
220
0.0
230
1.0
  2
SOLID
 70
     1
 71
     1
 91
        1
 92
        1
 93
        1
 72
     4
 94
        3
 73
     0
 74
     0
 95
      149
 96
      145
 40
0.0
 40
0.0
 40
0.0
 40
0.0
 40
1.0
 40
1.0
 40
1.0
 40
2.0
 40
2.0
 40
2.0
 40
3.0
 40
3.0
 40
3.0
 40
4.0
 40
4.0
 40
4.0
 40
5.0
 40
5.0
 40
5.0
 40
6.0
 40
6.0
 40
6.0
 40
7.0
 40
7.0
 40
7.0
 40
8.0
 40
8.0
 40
8.0
 40
9.0
 40
9.0
 40
9.0
 40
10.0
 40
10.0
 40
10.0
 40
11.0
 40
11.0
 40
11.0
 40
12.0
 40
12.0
 40
12.0
 40
13.0
 40
13.0
 40
13.0
 40
14.0
 40
14.0
 40
14.0
 40
15.0
 40
15.0
 40
15.0
 40
16.0
 40
16.0
 40
16.0
 40
17.0
 40
17.0
 40
17.0
 40
18.0
 40
18.0
 40
18.0
 40
19.0
 40
19.0
 40
19.0
 40
20.0
 40
20.0
 40
20.0
 40
21.0
 40
21.0
 40
21.0
 40
22.0
 40
22.0
 40
22.0
 40
23.0
 40
23.0
 40
23.0
 40
24.0
 40
24.0
 40
24.0
 40
25.0
 40
25.0
 40
25.0
 40
26.0
 40
26.0
 40
26.0
 40
27.0
 40
27.0
 40
27.0
 40
28.0
 40
28.0
 40
28.0
 40
29.0
 40
29.0
 40
29.0
 40
30.0
 40
30.0
 40
30.0
 40
31.0
 40
31.0
 40
31.0
 40
32.0
 40
32.0
 40
32.0
 40
33.0
 40
33.0
 40
33.0
 40
34.0
 40
34.0
 40
34.0
 40
35.0
 40
35.0
 40
35.0
 40
36.0
 40
36.0
 40
36.0
 40
37.0
 40
37.0
 40
37.0
 40
38.0
 40
38.0
 40
38.0
 40
39.0
 40
39.0
 40
39.0
 40
40.0
 40
40.0
 40
40.0
 40
41.0
 40
41.0
 40
41.0
 40
42.0
 40
42.0
 40
42.0
 40
43.0
 40
43.0
 40
43.0
 40
44.0
 40
44.0
 40
44.0
 40
45.0
 40
45.0
 40
45.0
 40
46.0
 40
46.0
 40
46.0
 40
47.0
 40
47.0
 40
47.0
 40
48.0
 40
48.0
 40
48.0
 40
48.0
 10
1.983224176542825
 20
-7.173083119777957
 10
1.980382098429812
 20
-7.173421040258189
 10
1.977483943595125
 20
-7.174302136621437
 10
1.974706355450317
 20
-7.174015251868038
 10
1.932814888905151
 20
-7.169690425968862
 10
1.890937641441887
 20
-7.165226955329444
 10
1.849061019757312
 20
-7.160759312832245
 10
1.838594802019353
 20
-7.159642784628228
 10
1.83351792922426
 20
-7.155401952132351
 10
1.833685012128386
 20
-7.143209002459014
 10
1.834948667850097
 20
-7.051002462731022
 10
1.835385044173929
 20
-6.958784937110875
 10
1.836234503949033
 20
-6.866572278658117
 10
1.83629151933869
 20
-6.860374983925086
 10
1.83761163420239
 20
-6.854189370393846
 10
1.838344281959621
 20
-6.847998333447472
 10
1.839541674673619
 20
-6.847771940631925
 10
1.840739067387618
 20
-6.847545547816353
 10
1.841936460101566
 20
-6.847319015938889
 10
1.84367953181326
 20
-6.850983436751397
 10
1.846075221143754
 20
-6.854481539500384
 10
1.847057763182028
 20
-6.858339534513939
 10
1.85267523921454
 20
-6.880397815342929
 10
1.86164007486823
 20
-6.887884909439763
 10
1.883418145916253
 20
-6.887875175104959
 10
2.02423694554299
 20
-6.887811901928595
 10
2.165055779935212
 20
-6.887724153853291
 10
2.305874579561898
 20
-6.887643219812338
 10
2.322444877085608
 20
-6.887633763601392
 10
2.331379970869862
 20
-6.881459970333859
 10
2.336243844251144
 20
-6.865699804134262
 10
2.338241451435667
 20
-6.859226888663871
 10
2.338410402984423
 20
-6.852184236482571
 10
2.34046595553525
 20
-6.845737047468496
 10
2.341357551073909
 20
-6.842940651198179
 10
2.344912790891776
 20
-6.840993367048136
 10
2.347258105039562
 20
-6.838660325115319
 10
2.349372228735331
 20
-6.841194728716977
 10
2.352049335947248
 20
-6.843462411544578
 10
2.353418313695189
 20
-6.84635003243837
 10
2.354470369313743
 20
-6.848569182653792
 10
2.353980732272235
 20
-6.851568609336077
 10
2.353997228493211
 20
-6.85422218900837
 10
2.35457999356831
 20
-6.947957436489105
 10
2.355157900167354
 20
-7.041692823031755
 10
2.355688690847589
 20
-7.135428487698264
 10
2.355769998617473
 20
-7.149786353435855
 10
2.355515228477631
 20
-7.149906781063791
 10
2.340927128338749
 20
-7.14994363247418
 10
2.304489696606158
 20
-7.150035552407289
 10
2.268052325713129
 20
-7.150156536282944
 10
2.231614885289129
 20
-7.150249568711437
 10
2.229339397610968
 20
-7.150255270250403
 10
2.226840211442031
 20
-7.150694149688913
 10
2.224839857784457
 20
-7.149916376336705
 10
2.2217941582463
 20
-7.148731985912793
 10
2.219093871149589
 20
-7.146659267905483
 10
2.216246908486444
 20
-7.14496382490347
 10
2.218850547544522
 20
-7.142178692649141
 10
2.221071887985279
 20
-7.137557942971398
 10
2.224123150000511
 20
-7.13692242996947
 10
2.23821594632438
 20
-7.133987945206627
 10
2.252611167571848
 20
-7.132540171494863
 10
2.266766037662932
 20
-7.129861977861663
 10
2.298334694081366
 20
-7.123888711891443
 10
2.320072350257166
 20
-7.105683558908594
 10
2.332059314452597
 20
-7.075900527151234
 10
2.333325447214886
 20
-7.072754529198896
 10
2.334775445917469
 20
-7.069377410325538
 10
2.334813548885209
 20
-7.066092211385239
 10
2.335046494994015
 20
-7.046009722401144
 10
2.33501225968612
 20
-7.025921670940028
 10
2.334820136943929
 20
-7.00583779133669
 10
2.334736725862474
 20
-6.997117078894133
 10
2.330465482261653
 20
-6.993158403046132
 10
2.321190999155545
 20
-6.993262143242948
 10
2.254036361103405
 20
-6.994012243271905
 10
2.186877290452343
 20
-6.994355587167243
 10
2.119721279163678
 20
-6.995001807937442
 10
2.110011836427133
 20
-6.99509511848982
 10
2.106718432833241
 20
-7.001619904058593
 10
2.110805810493742
 20
-7.013074713028648
 10
2.116725363795024
 20
-7.029664105493035
 10
2.127638596094192
 20
-7.042626484803045
 10
2.144556522358811
 20
-7.047693762325252
 10
2.166953488508586
 20
-7.054402387760243
 10
2.190006305466959
 20
-7.058911192587578
 10
2.212740027453353
 20
-7.064516222577695
 10
2.216446584029464
 20
-7.065429998493552
 10
2.219961269913142
 20
-7.067121825885502
 10
2.223564607774644
 20
-7.068454039136743
 10
2.223269414071195
 20
-7.07029980808079
 10
2.222974220367746
 20
-7.072145437962944
 10
2.222679026664296
 20
-7.07399120690699
 10
2.212410572367856
 20
-7.07399120690699
 10
2.202142100688698
 20
-7.074005947471126
 10
2.191873663775027
 20
-7.073988703792312
 10
2.142939892703364
 20
-7.073906240070199
 10
2.094005773976846
 20
-7.073680264440402
 10
2.045072489621929
 20
-7.073796381148642
 10
2.026565050777422
 20
-7.073840185655322
 10
2.008059524034416
 20
-7.074671080663291
 10
1.989552815264977
 20
-7.075129011585659
 10
1.987657331682397
 20
-7.075176014516677
 10
1.985442840041501
 20
-7.075754373066981
 10
1.983927829888481
 20
-7.074991201216966
 10
1.980661126184372
 20
-7.073345820508317
 10
1.977753271780342
 20
-7.070988025552676
 10
1.974698602747935
 20
-7.068921704393964
 10
1.977581043584968
 20
-7.06703908403953
 10
1.980242271663213
 20
-7.064119896088514
 10
1.983383298151655
 20
-7.063449895728959
 10
1.998568026101376
 20
-7.060211143471986
 10
2.01430458653902
 20
-7.058931773752596
 10
2.029027316004999
 20
-7.054336472407308
 10
2.042925894966439
 20
-7.049998296563241
 10
2.05722076565155
 20
-7.044261992114948
 10
2.068647032161265
 20
-7.035590507594204
 10
2.076522109031694
 20
-7.029614182261613
 10
2.080807302281969
 20
-7.017993055228063
 10
2.084807488114885
 20
-7.008128558443988
 10
2.087750803310036
 20
-7.000870360277353
 10
2.083222703640495
 20
-6.995609508554151
 10
2.074987838801929
 20
-6.995406060956383
 10
2.064749647857158
 20
-6.995153107312944
 10
2.054500158130912
 20
-6.99527687242711
 10
2.044256265647176
 20
-6.995346403390132
 10
1.9892453145811
 20
-6.995719784661483
 10
1.934233633439854
 20
-6.9960336474285
 10
1.879224316351395
 20
-6.99658002173583
 10
1.863144863969674
 20
-6.996739664826892
 10
1.857030519675504
 20
-7.001241794681769
 10
1.854250741305362
 20
-7.017107230759342
 10
1.843989709439243
 20
-7.075670379663657
 10
1.864973667358766
 20
-7.120268651833334
 10
1.919584641560163
 20
-7.145680828193992
 10
1.934584173789883
 20
-7.152660485322813
 10
1.951228912900849
 20
-7.1560669462626
 10
1.967023809816421
 20
-7.161394408648346
 10
1.973017830779111
 20
-7.163416229990742
 10
1.978744539954492
 20
-7.16623042618759
 10
1.984593102142563
 20
-7.168683339500653
 10
1.984136805197787
 20
-7.170150025634357
 10
1.983680473487576
 20
-7.17161657270617
 10
1.983224176542825
 20
-7.173083119777957
 97
        0
 97
        1
330
87
 75
     2
 76
     1
 98
        1
 10
0.0
 20
0.0
450
        0
451
        0
460
0.0
461
0.0
452
        0
462
0.0
453
        0
470

  0
SPLINE
  5
89
330
7C
100
AcDbEntity
  8
Layer 1
100
AcDbSpline
210
0.0
220
0.0
230
1.0
 70
     9
 71
     3
 72
    98
 73
    94
 74
     0
 42
0.0000000001
 43
0.0000000001
 40
0.0
 40
0.0
 40
0.0
 40
0.0
 40
1.0
 40
1.0
 40
1.0
 40
2.0
 40
2.0
 40
2.0
 40
3.0
 40
3.0
 40
3.0
 40
4.0
 40
4.0
 40
4.0
 40
5.0
 40
5.0
 40
5.0
 40
6.0
 40
6.0
 40
6.0
 40
7.0
 40
7.0
 40
7.0
 40
8.0
 40
8.0
 40
8.0
 40
9.0
 40
9.0
 40
9.0
 40
10.0
 40
10.0
 40
10.0
 40
11.0
 40
11.0
 40
11.0
 40
12.0
 40
12.0
 40
12.0
 40
13.0
 40
13.0
 40
13.0
 40
14.0
 40
14.0
 40
14.0
 40
15.0
 40
15.0
 40
15.0
 40
16.0
 40
16.0
 40
16.0
 40
17.0
 40
17.0
 40
17.0
 40
18.0
 40
18.0
 40
18.0
 40
19.0
 40
19.0
 40
19.0
 40
20.0
 40
20.0
 40
20.0
 40
21.0
 40
21.0
 40
21.0
 40
22.0
 40
22.0
 40
22.0
 40
23.0
 40
23.0
 40
23.0
 40
24.0
 40
24.0
 40
24.0
 40
25.0
 40
25.0
 40
25.0
 40
26.0
 40
26.0
 40
26.0
 40
27.0
 40
27.0
 40
27.0
 40
28.0
 40
28.0
 40
28.0
 40
29.0
 40
29.0
 40
29.0
 40
30.0
 40
30.0
 40
30.0
 40
31.0
 40
31.0
 40
31.0
 40
31.0
 10
1.841736836706773
 20
-6.562974089578751
 30
0.0
 10
1.843172581561967
 20
-6.56605194718731
 30
0.0
 10
1.845710878897597
 20
-6.569074319087424
 30
0.0
 10
1.845868922776503
 20
-6.572216423305816
 30
0.0
 10
1.847083420107398
 20
-6.596350342442519
 30
0.0
 10
1.86907029263735
 20
-6.604308161158971
 30
0.0
 10
1.888253711504262
 20
-6.607674294140173
 30
0.0
 10
1.890475990613001
 20
-6.608064223780729
 30
0.0
 10
1.892796934158228
 20
-6.607957563283484
 30
0.0
 10
1.895072647812071
 20
-6.607967853866006
 30
0.0
 10
2.033980910402697
 20
-6.608594884090431
 30
0.0
 10
2.172889103462352
 20
-6.609232622083153
 30
0.0
 10
2.311797644176812
 20
-6.609791094778048
 30
0.0
 10
2.325122549236577
 20
-6.609844772681475
 30
0.0
 10
2.328078240943151
 20
-6.607230825658107
 30
0.0
 10
2.328343336430975
 20
-6.594055125353608
 30
0.0
 10
2.328749970885395
 20
-6.573845672831061
 30
0.0
 10
2.328588606903003
 20
-6.553627042221377
 30
0.0
 10
2.314065205325239
 20
-6.5370464106583
 30
0.0
 10
2.300397399630014
 20
-6.521442550063587
 30
0.0
 10
2.282801720303432
 20
-6.513478334498535
 30
0.0
 10
2.262656809897293
 20
-6.510701406897901
 30
0.0
 10
2.253647526575491
 20
-6.509459444836616
 30
0.0
 10
2.244485344666031
 20
-6.509311761071178
 30
0.0
 10
2.235486856026265
 20
-6.508013757053705
 30
0.0
 10
2.231904029798834
 20
-6.507497002936638
 30
0.0
 10
2.228576260526438
 20
-6.505211937368281
 30
0.0
 10
2.225132374545851
 20
-6.503731762227744
 30
0.0
 10
2.225256974031569
 20
-6.502642212037395
 30
0.0
 10
2.225381573517286
 20
-6.501552661847021
 30
0.0
 10
2.225506155620261
 20
-6.500462972594732
 30
0.0
 10
2.228521557041315
 20
-6.499765577035784
 30
0.0
 10
2.231522322194639
 20
-6.498535852423982
 30
0.0
 10
2.234554584874242
 20
-6.498452415268375
 30
0.0
 10
2.267506872691064
 20
-6.497546148696502
 30
0.0
 10
2.300460916164726
 20
-6.496560894950662
 30
0.0
 10
2.333421356486989
 20
-6.496152052888141
 30
0.0
 10
2.350028096926671
 20
-6.49594610217572
 30
0.0
 10
2.351986253981054
 20
-6.497959579802555
 30
0.0
 10
2.352068343974236
 20
-6.514122608401798
 30
0.0
 10
2.352565603347569
 20
-6.612037501130948
 30
0.0
 10
2.35294737179135
 20
-6.70995308916973
 30
0.0
 10
2.35316298730768
 20
-6.807868816270456
 30
0.0
 10
2.353204167020483
 20
-6.826567082842934
 30
0.0
 10
2.352407559468663
 20
-6.827132369572204
 30
0.0
 10
2.334232904504473
 20
-6.827174227211925
 30
0.0
 10
2.301974553081221
 20
-6.827248625342361
 30
0.0
 10
2.269713142295573
 20
-6.827246956599234
 30
0.0
 10
2.237460283818399
 20
-6.826777344475076
 30
0.0
 10
2.233759567843169
 20
-6.826723527509708
 30
0.0
 10
2.23010522902027
 20
-6.823483940881159
 30
0.0
 10
2.226429370364346
 20
-6.821721470030801
 30
0.0
 10
2.230006234311695
 20
-6.819073452835582
 30
0.0
 10
2.233276970811667
 20
-6.814858207734054
 30
0.0
 10
2.237220627971623
 20
-6.814087804663939
 30
0.0
 10
2.246855151095549
 20
-6.812205740557171
 30
0.0
 10
2.256795540925761
 20
-6.811855165441683
 30
0.0
 10
2.266622404076075
 20
-6.810998404915507
 30
0.0
 10
2.301642403670901
 20
-6.807945578453604
 30
0.0
 10
2.325209080520039
 20
-6.785134833542946
 30
0.0
 10
2.329148739649617
 20
-6.74997566772567
 30
0.0
 10
2.33007503113884
 20
-6.741708853409615
 30
0.0
 10
2.329937264227042
 20
-6.733319942722522
 30
0.0
 10
2.330216665710509
 20
-6.724984709938881
 30
0.0
 10
2.330573368242122
 20
-6.714342856988372
 30
0.0
 10
2.325247461611638
 20
-6.710174614817888
 30
0.0
 10
2.314786293559854
 20
-6.710319656406706
 30
0.0
 10
2.236250879630524
 20
-6.711407259730119
 30
0.0
 10
2.157714109847461
 20
-6.712478175622385
 30
0.0
 10
2.079174228553774
 20
-6.713132740108145
 30
0.0
 10
2.022253922477943
 20
-6.7136070803378
 30
0.0
 10
1.96532812345606
 20
-6.713394176529062
 30
0.0
 10
1.908405105672664
 20
-6.713593174145191
 30
0.0
 10
1.898927513932259
 20
-6.713626409945517
 30
0.0
 10
1.8894167559225
 20
-6.713792867070954
 30
0.0
 10
1.879982551503025
 20
-6.714607352771659
 30
0.0
 10
1.860410628380287
 20
-6.716296677048931
 30
0.0
 10
1.85109883322117
 20
-6.725854820409999
 30
0.0
 10
1.84827052223885
 20
-6.745534586056337
 30
0.0
 10
1.847434829594438
 20
-6.751349599554739
 30
0.0
 10
1.849898520206768
 20
-6.761127460758896
 30
0.0
 10
1.840685111360281
 20
-6.76068399227683
 30
0.0
 10
1.830406279567657
 20
-6.76018934900599
 30
0.0
 10
1.834431774671088
 20
-6.750146435770804
 30
0.0
 10
1.834471476850959
 20
-6.744223232093948
 30
0.0
 10
1.834847639360873
 20
-6.688069609181765
 30
0.0
 10
1.835633617366675
 20
-6.631918211260376
 30
0.0
 10
1.836447894474493
 20
-6.575768343020197
 30
0.0
 10
1.836507760633657
 20
-6.571643210046759
 30
0.0
 10
1.837704458037996
 20
-6.567534625442526
 30
0.0
 10
1.838372650592532
 20
-6.56341825337045
 30
0.0
 10
1.839494045963937
 20
-6.563270291481178
 30
0.0
 10
1.840615441335368
 20
-6.563122190529965
 30
0.0
 10
1.841736836706773
 20
-6.562974089578751
 30
0.0
  0
HATCH
  5
8A
330
7C
100
AcDbEntity
  8
Layer 1
 62
    18
420
        0
440
 33554687
100
AcDbHatch
 10
0.0
 20
0.0
 30
0.0
210
0.0
220
0.0
230
1.0
  2
SOLID
 70
     1
 71
     1
 91
        1
 92
        1
 93
        1
 72
     4
 94
        3
 73
     0
 74
     0
 95
       98
 96
       94
 40
0.0
 40
0.0
 40
0.0
 40
0.0
 40
1.0
 40
1.0
 40
1.0
 40
2.0
 40
2.0
 40
2.0
 40
3.0
 40
3.0
 40
3.0
 40
4.0
 40
4.0
 40
4.0
 40
5.0
 40
5.0
 40
5.0
 40
6.0
 40
6.0
 40
6.0
 40
7.0
 40
7.0
 40
7.0
 40
8.0
 40
8.0
 40
8.0
 40
9.0
 40
9.0
 40
9.0
 40
10.0
 40
10.0
 40
10.0
 40
11.0
 40
11.0
 40
11.0
 40
12.0
 40
12.0
 40
12.0
 40
13.0
 40
13.0
 40
13.0
 40
14.0
 40
14.0
 40
14.0
 40
15.0
 40
15.0
 40
15.0
 40
16.0
 40
16.0
 40
16.0
 40
17.0
 40
17.0
 40
17.0
 40
18.0
 40
18.0
 40
18.0
 40
19.0
 40
19.0
 40
19.0
 40
20.0
 40
20.0
 40
20.0
 40
21.0
 40
21.0
 40
21.0
 40
22.0
 40
22.0
 40
22.0
 40
23.0
 40
23.0
 40
23.0
 40
24.0
 40
24.0
 40
24.0
 40
25.0
 40
25.0
 40
25.0
 40
26.0
 40
26.0
 40
26.0
 40
27.0
 40
27.0
 40
27.0
 40
28.0
 40
28.0
 40
28.0
 40
29.0
 40
29.0
 40
29.0
 40
30.0
 40
30.0
 40
30.0
 40
31.0
 40
31.0
 40
31.0
 40
31.0
 10
1.841736836706773
 20
-6.562974089578751
 10
1.843172581561967
 20
-6.56605194718731
 10
1.845710878897597
 20
-6.569074319087424
 10
1.845868922776503
 20
-6.572216423305816
 10
1.847083420107398
 20
-6.596350342442519
 10
1.86907029263735
 20
-6.604308161158971
 10
1.888253711504262
 20
-6.607674294140173
 10
1.890475990613001
 20
-6.608064223780729
 10
1.892796934158228
 20
-6.607957563283484
 10
1.895072647812071
 20
-6.607967853866006
 10
2.033980910402697
 20
-6.608594884090431
 10
2.172889103462352
 20
-6.609232622083153
 10
2.311797644176812
 20
-6.609791094778048
 10
2.325122549236577
 20
-6.609844772681475
 10
2.328078240943151
 20
-6.607230825658107
 10
2.328343336430975
 20
-6.594055125353608
 10
2.328749970885395
 20
-6.573845672831061
 10
2.328588606903003
 20
-6.553627042221377
 10
2.314065205325239
 20
-6.5370464106583
 10
2.300397399630014
 20
-6.521442550063587
 10
2.282801720303432
 20
-6.513478334498535
 10
2.262656809897293
 20
-6.510701406897901
 10
2.253647526575491
 20
-6.509459444836616
 10
2.244485344666031
 20
-6.509311761071178
 10
2.235486856026265
 20
-6.508013757053705
 10
2.231904029798834
 20
-6.507497002936638
 10
2.228576260526438
 20
-6.505211937368281
 10
2.225132374545851
 20
-6.503731762227744
 10
2.225256974031569
 20
-6.502642212037395
 10
2.225381573517286
 20
-6.501552661847021
 10
2.225506155620261
 20
-6.500462972594732
 10
2.228521557041315
 20
-6.499765577035784
 10
2.231522322194639
 20
-6.498535852423982
 10
2.234554584874242
 20
-6.498452415268375
 10
2.267506872691064
 20
-6.497546148696502
 10
2.300460916164726
 20
-6.496560894950662
 10
2.333421356486989
 20
-6.496152052888141
 10
2.350028096926671
 20
-6.49594610217572
 10
2.351986253981054
 20
-6.497959579802555
 10
2.352068343974236
 20
-6.514122608401798
 10
2.352565603347569
 20
-6.612037501130948
 10
2.35294737179135
 20
-6.70995308916973
 10
2.35316298730768
 20
-6.807868816270456
 10
2.353204167020483
 20
-6.826567082842934
 10
2.352407559468663
 20
-6.827132369572204
 10
2.334232904504473
 20
-6.827174227211925
 10
2.301974553081221
 20
-6.827248625342361
 10
2.269713142295573
 20
-6.827246956599234
 10
2.237460283818399
 20
-6.826777344475076
 10
2.233759567843169
 20
-6.826723527509708
 10
2.23010522902027
 20
-6.823483940881159
 10
2.226429370364346
 20
-6.821721470030801
 10
2.230006234311695
 20
-6.819073452835582
 10
2.233276970811667
 20
-6.814858207734054
 10
2.237220627971623
 20
-6.814087804663939
 10
2.246855151095549
 20
-6.812205740557171
 10
2.256795540925761
 20
-6.811855165441683
 10
2.266622404076075
 20
-6.810998404915507
 10
2.301642403670901
 20
-6.807945578453604
 10
2.325209080520039
 20
-6.785134833542946
 10
2.329148739649617
 20
-6.74997566772567
 10
2.33007503113884
 20
-6.741708853409615
 10
2.329937264227042
 20
-6.733319942722522
 10
2.330216665710509
 20
-6.724984709938881
 10
2.330573368242122
 20
-6.714342856988372
 10
2.325247461611638
 20
-6.710174614817888
 10
2.314786293559854
 20
-6.710319656406706
 10
2.236250879630524
 20
-6.711407259730119
 10
2.157714109847461
 20
-6.712478175622385
 10
2.079174228553774
 20
-6.713132740108145
 10
2.022253922477943
 20
-6.7136070803378
 10
1.96532812345606
 20
-6.713394176529062
 10
1.908405105672664
 20
-6.713593174145191
 10
1.898927513932259
 20
-6.713626409945517
 10
1.8894167559225
 20
-6.713792867070954
 10
1.879982551503025
 20
-6.714607352771659
 10
1.860410628380287
 20
-6.716296677048931
 10
1.85109883322117
 20
-6.725854820409999
 10
1.84827052223885
 20
-6.745534586056337
 10
1.847434829594438
 20
-6.751349599554739
 10
1.849898520206768
 20
-6.761127460758896
 10
1.840685111360281
 20
-6.76068399227683
 10
1.830406279567657
 20
-6.76018934900599
 10
1.834431774671088
 20
-6.750146435770804
 10
1.834471476850959
 20
-6.744223232093948
 10
1.834847639360873
 20
-6.688069609181765
 10
1.835633617366675
 20
-6.631918211260376
 10
1.836447894474493
 20
-6.575768343020197
 10
1.836507760633657
 20
-6.571643210046759
 10
1.837704458037996
 20
-6.567534625442526
 10
1.838372650592532
 20
-6.56341825337045
 10
1.839494045963937
 20
-6.563270291481178
 10
1.840615441335368
 20
-6.563122190529965
 10
1.841736836706773
 20
-6.562974089578751
 97
        0
 97
        1
330
89
 75
     2
 76
     1
 98
        1
 10
0.0
 20
0.0
450
        0
451
        0
460
0.0
461
0.0
452
        0
462
0.0
453
        0
470

  0
SPLINE
  5
8B
330
7C
100
AcDbEntity
  8
Layer 1
100
AcDbSpline
210
0.0
220
0.0
230
1.0
 70
     9
 71
     3
 72
    26
 73
    22
 74
     0
 42
0.0000000001
 43
0.0000000001
 40
0.0
 40
0.0
 40
0.0
 40
0.0
 40
1.0
 40
1.0
 40
1.0
 40
2.0
 40
2.0
 40
2.0
 40
3.0
 40
3.0
 40
3.0
 40
4.0
 40
4.0
 40
4.0
 40
5.0
 40
5.0
 40
5.0
 40
6.0
 40
6.0
 40
6.0
 40
7.0
 40
7.0
 40
7.0
 40
7.0
 10
2.186256969965862
 20
-5.841665233203002
 30
0.0
 10
2.182265423355134
 20
-5.839482517212218
 30
0.0
 10
2.181084040145391
 20
-5.838486694759972
 30
0.0
 10
2.179738059763432
 20
-5.838151068801531
 30
0.0
 10
2.132299882323359
 20
-5.826321348878965
 30
0.0
 10
2.084858662903659
 20
-5.814502823441443
 30
0.0
 10
2.037384485807491
 20
-5.802818631824442
 30
0.0
 10
2.027567722029503
 20
-5.800402639452764
 30
0.0
 10
2.025249872612107
 20
-5.806666127662563
 30
0.0
 10
2.025462845951816
 20
-5.814484675860108
 30
0.0
 10
2.026051286491779
 20
-5.836088224190967
 30
0.0
 10
2.026848007031389
 20
-5.857687183478319
 30
0.0
 10
2.027731676040287
 20
-5.879280997474349
 30
0.0
 10
2.028109994010024
 20
-5.888525278068375
 30
0.0
 10
2.034076758835213
 20
-5.88965981479181
 30
0.0
 10
2.041314062947435
 20
-5.887536130588614
 30
0.0
 10
2.085351672196856
 20
-5.874613662051388
 30
0.0
 10
2.129367135834564
 20
-5.861614709454847
 30
0.0
 10
2.173331911400269
 20
-5.848447352865908
 30
0.0
 10
2.177084879894171
 20
-5.847323384848853
 30
0.0
 10
2.180413918106637
 20
-5.844783835955922
 30
0.0
 10
2.186256969965862
 20
-5.841665233203002
 30
0.0
  0
SPLINE
  5
8C
330
7C
100
AcDbEntity
  8
Layer 1
100
AcDbSpline
210
0.0
220
0.0
230
1.0
 70
     9
 71
     3
 72
   101
 73
    97
 74
     0
 42
0.0000000001
 43
0.0000000001
 40
0.0
 40
0.0
 40
0.0
 40
0.0
 40
1.0
 40
1.0
 40
1.0
 40
2.0
 40
2.0
 40
2.0
 40
3.0
 40
3.0
 40
3.0
 40
4.0
 40
4.0
 40
4.0
 40
5.0
 40
5.0
 40
5.0
 40
6.0
 40
6.0
 40
6.0
 40
7.0
 40
7.0
 40
7.0
 40
8.0
 40
8.0
 40
8.0
 40
9.0
 40
9.0
 40
9.0
 40
10.0
 40
10.0
 40
10.0
 40
11.0
 40
11.0
 40
11.0
 40
12.0
 40
12.0
 40
12.0
 40
13.0
 40
13.0
 40
13.0
 40
14.0
 40
14.0
 40
14.0
 40
15.0
 40
15.0
 40
15.0
 40
16.0
 40
16.0
 40
16.0
 40
17.0
 40
17.0
 40
17.0
 40
18.0
 40
18.0
 40
18.0
 40
19.0
 40
19.0
 40
19.0
 40
20.0
 40
20.0
 40
20.0
 40
21.0
 40
21.0
 40
21.0
 40
22.0
 40
22.0
 40
22.0
 40
23.0
 40
23.0
 40
23.0
 40
24.0
 40
24.0
 40
24.0
 40
25.0
 40
25.0
 40
25.0
 40
26.0
 40
26.0
 40
26.0
 40
27.0
 40
27.0
 40
27.0
 40
28.0
 40
28.0
 40
28.0
 40
29.0
 40
29.0
 40
29.0
 40
30.0
 40
30.0
 40
30.0
 40
31.0
 40
31.0
 40
31.0
 40
32.0
 40
32.0
 40
32.0
 40
32.0
 10
1.836177279966465
 20
-5.976018661468793
 30
0.0
 10
1.836177279966465
 20
-5.952122190570737
 30
0.0
 10
1.835978282350336
 20
-5.928222382186478
 30
0.0
 10
1.836382813493135
 20
-5.904332725322799
 30
0.0
 10
1.836446573386195
 20
-5.900566372118519
 30
0.0
 10
1.839240188418001
 20
-5.896846117942711
 30
0.0
 10
1.840771677409255
 20
-5.8931045872922
 30
0.0
 10
1.843465098323336
 20
-5.896385822967582
 30
0.0
 10
1.84678721820497
 20
-5.899344434974586
 30
0.0
 10
1.848681589292166
 20
-5.903035694738845
 30
0.0
 10
1.850725382418873
 20
-5.90701821970712
 30
0.0
 10
1.851407898351769
 20
-5.911693968376614
 30
0.0
 10
1.852728499932191
 20
-5.91605390741213
 30
0.0
 10
1.858482048059297
 20
-5.935048514948978
 30
0.0
 10
1.869682582297615
 20
-5.941576151287259
 30
0.0
 10
1.88901034744371
 20
-5.935850971793064
 30
0.0
 10
1.9210168751017
 20
-5.926370216393857
 30
0.0
 10
1.952811507149931
 20
-5.916175517066449
 30
0.0
 10
1.984722464499238
 20
-5.906369773946102
 30
0.0
 10
1.992578211761976
 20
-5.90395579797233
 30
0.0
 10
1.996883986177294
 20
-5.899075628271575
 30
0.0
 10
1.996922819220129
 20
-5.89067030827722
 30
0.0
 10
1.997056144841697
 20
-5.861829699192488
 30
0.0
 10
1.997154009672145
 20
-5.832988672921929
 30
0.0
 10
1.997429317520186
 20
-5.804149315394497
 30
0.0
 10
1.997513554281858
 20
-5.79532117761409
 30
0.0
 10
1.993237087167434
 20
-5.791696111326624
 30
0.0
 10
1.984760185046689
 20
-5.789846865834457
 30
0.0
 10
1.958477376732654
 20
-5.784113342624676
 30
0.0
 10
1.932460628648603
 20
-5.777155379156334
 30
0.0
 10
1.906164053203901
 20
-5.771492360343042
 30
0.0
 10
1.89627424714931
 20
-5.769362626946076
 30
0.0
 10
1.885864905739089
 20
-5.768470057973924
 30
0.0
 10
1.875755486137791
 20
-5.768822301832541
 30
0.0
 10
1.861985296099558
 20
-5.769302065477303
 30
0.0
 10
1.855947018678926
 20
-5.777002132913872
 30
0.0
 10
1.850482858419897
 20
-5.795317144818252
 30
0.0
 10
1.84891570004461
 20
-5.800569861418781
 30
0.0
 10
1.844748987555312
 20
-5.805047099188893
 30
0.0
 10
1.841774244364879
 20
-5.809879918303825
 30
0.0
 10
1.839920618421994
 20
-5.804681922571161
 30
0.0
 10
1.836577013472821
 20
-5.799515354833803
 30
0.0
 10
1.836466667834517
 20
-5.794280577221721
 30
0.0
 10
1.835938927825294
 20
-5.7692445633709
 30
0.0
 10
1.836070549938249
 20
-5.744185882426133
 30
0.0
 10
1.836550383113982
 20
-5.719146461558137
 30
0.0
 10
1.836625407023057
 20
-5.71523214646456
 30
0.0
 10
1.839702569322007
 20
-5.711375403008357
 30
0.0
 10
1.84139161547542
 20
-5.707492029193316
 30
0.0
 10
1.84482352474764
 20
-5.710603609318948
 30
0.0
 10
1.850541473021684
 20
-5.713240988276866
 30
0.0
 10
1.851301724571246
 20
-5.716906591115781
 30
0.0
 10
1.855110978379709
 20
-5.735273473118568
 30
0.0
 10
1.869262545750075
 20
-5.739855980766656
 30
0.0
 10
1.884292984492844
 20
-5.743843651026205
 30
0.0
 10
1.941102527744596
 20
-5.758915738815832
 30
0.0
 10
1.997821020200275
 20
-5.774341808738149
 30
0.0
 10
2.054741395807076
 20
-5.788982874088079
 30
0.0
 10
2.13333231282762
 20
-5.809198097680564
 30
0.0
 10
2.212093250435436
 20
-5.828751386505195
 30
0.0
 10
2.290738905706613
 20
-5.848755096908184
 30
0.0
 10
2.308366864782745
 20
-5.853238801057841
 30
0.0
 10
2.325787586823644
 20
-5.858531776085984
 30
0.0
 10
2.343367100201311
 20
-5.863214130196941
 30
0.0
 10
2.350649269167471
 20
-5.865153835472028
 30
0.0
 10
2.35428442613593
 20
-5.869164590011323
 30
0.0
 10
2.353946853310503
 20
-5.876975559333863
 30
0.0
 10
2.353604039588756
 20
-5.884908625027466
 30
0.0
 10
2.355007930571509
 20
-5.893057792954095
 30
0.0
 10
2.344584170177831
 20
-5.896394097152172
 30
0.0
 10
2.31790929414616
 20
-5.904932012692976
 30
0.0
 10
2.291476438014001
 20
-5.914235811791361
 30
0.0
 10
2.264739592511495
 20
-5.922568332867436
 30
0.0
 10
2.209718994024279
 20
-5.939715433186165
 30
0.0
 10
2.154569293921503
 20
-5.956448546151123
 30
0.0
 10
2.099461242865559
 20
-5.973314463255443
 30
0.0
 10
2.047273596552448
 20
-5.989286559830285
 30
0.0
 10
1.995059598004382
 20
-6.005172716134817
 30
0.0
 10
1.942880538765178
 20
-6.021172694625798
 30
0.0
 10
1.917876091971581
 20
-6.028840012978762
 30
0.0
 10
1.892793979092314
 20
-6.036295400956507
 30
0.0
 10
1.868035880500643
 20
-6.044698009243297
 30
0.0
 10
1.861201821208384
 20
-6.047017353576418
 30
0.0
 10
1.855450428541126
 20
-6.052468650607301
 30
0.0
 10
1.849113932820159
 20
-6.056338187760704
 30
0.0
 10
1.84608140939944
 20
-6.058189936367575
 30
0.0
 10
1.842842587611522
 20
-6.059703903556131
 30
0.0
 10
1.839697215437872
 20
-6.06137083886334
 30
0.0
 10
1.838566363855471
 20
-6.057965907604739
 30
0.0
 10
1.836493159131413
 20
-6.054571475521596
 30
0.0
 10
1.836454986632727
 20
-6.051154376344507
 30
0.0
 10
1.836175750285304
 20
-6.02611182658317
 30
0.0
 10
1.83630438256686
 20
-6.001064757309247
 30
0.0
 10
1.83630438256686
 20
-5.976019078654568
 30
0.0
 10
1.836262038210368
 20
-5.976018939592651
 30
0.0
 10
1.836219624322956
 20
-5.976018800530734
 30
0.0
 10
1.836177279966465
 20
-5.976018661468793
 30
0.0
  0
HATCH
  5
8D
330
7C
100
AcDbEntity
  8
Layer 1
 62
    18
420
        0
440
 33554687
100
AcDbHatch
 10
0.0
 20
0.0
 30
0.0
210
0.0
220
0.0
230
1.0
  2
SOLID
 70
     1
 71
     1
 91
        2
 92
        1
 93
        1
 72
     4
 94
        3
 73
     0
 74
     0
 95
       26
 96
       22
 40
0.0
 40
0.0
 40
0.0
 40
0.0
 40
1.0
 40
1.0
 40
1.0
 40
2.0
 40
2.0
 40
2.0
 40
3.0
 40
3.0
 40
3.0
 40
4.0
 40
4.0
 40
4.0
 40
5.0
 40
5.0
 40
5.0
 40
6.0
 40
6.0
 40
6.0
 40
7.0
 40
7.0
 40
7.0
 40
7.0
 10
2.186256969965862
 20
-5.841665233203002
 10
2.182265423355134
 20
-5.839482517212218
 10
2.181084040145391
 20
-5.838486694759972
 10
2.179738059763432
 20
-5.838151068801531
 10
2.132299882323359
 20
-5.826321348878965
 10
2.084858662903659
 20
-5.814502823441443
 10
2.037384485807491
 20
-5.802818631824442
 10
2.027567722029503
 20
-5.800402639452764
 10
2.025249872612107
 20
-5.806666127662563
 10
2.025462845951816
 20
-5.814484675860108
 10
2.026051286491779
 20
-5.836088224190967
 10
2.026848007031389
 20
-5.857687183478319
 10
2.027731676040287
 20
-5.879280997474349
 10
2.028109994010024
 20
-5.888525278068375
 10
2.034076758835213
 20
-5.88965981479181
 10
2.041314062947435
 20
-5.887536130588614
 10
2.085351672196856
 20
-5.874613662051388
 10
2.129367135834564
 20
-5.861614709454847
 10
2.173331911400269
 20
-5.848447352865908
 10
2.177084879894171
 20
-5.847323384848853
 10
2.180413918106637
 20
-5.844783835955922
 10
2.186256969965862
 20
-5.841665233203002
 97
        0
 97
        1
330
8B
 92
        1
 93
        1
 72
     4
 94
        3
 73
     0
 74
     0
 95
      101
 96
       97
 40
0.0
 40
0.0
 40
0.0
 40
0.0
 40
1.0
 40
1.0
 40
1.0
 40
2.0
 40
2.0
 40
2.0
 40
3.0
 40
3.0
 40
3.0
 40
4.0
 40
4.0
 40
4.0
 40
5.0
 40
5.0
 40
5.0
 40
6.0
 40
6.0
 40
6.0
 40
7.0
 40
7.0
 40
7.0
 40
8.0
 40
8.0
 40
8.0
 40
9.0
 40
9.0
 40
9.0
 40
10.0
 40
10.0
 40
10.0
 40
11.0
 40
11.0
 40
11.0
 40
12.0
 40
12.0
 40
12.0
 40
13.0
 40
13.0
 40
13.0
 40
14.0
 40
14.0
 40
14.0
 40
15.0
 40
15.0
 40
15.0
 40
16.0
 40
16.0
 40
16.0
 40
17.0
 40
17.0
 40
17.0
 40
18.0
 40
18.0
 40
18.0
 40
19.0
 40
19.0
 40
19.0
 40
20.0
 40
20.0
 40
20.0
 40
21.0
 40
21.0
 40
21.0
 40
22.0
 40
22.0
 40
22.0
 40
23.0
 40
23.0
 40
23.0
 40
24.0
 40
24.0
 40
24.0
 40
25.0
 40
25.0
 40
25.0
 40
26.0
 40
26.0
 40
26.0
 40
27.0
 40
27.0
 40
27.0
 40
28.0
 40
28.0
 40
28.0
 40
29.0
 40
29.0
 40
29.0
 40
30.0
 40
30.0
 40
30.0
 40
31.0
 40
31.0
 40
31.0
 40
32.0
 40
32.0
 40
32.0
 40
32.0
 10
1.836177279966465
 20
-5.976018661468793
 10
1.836177279966465
 20
-5.952122190570737
 10
1.835978282350336
 20
-5.928222382186478
 10
1.836382813493135
 20
-5.904332725322799
 10
1.836446573386195
 20
-5.900566372118519
 10
1.839240188418001
 20
-5.896846117942711
 10
1.840771677409255
 20
-5.8931045872922
 10
1.843465098323336
 20
-5.896385822967582
 10
1.84678721820497
 20
-5.899344434974586
 10
1.848681589292166
 20
-5.903035694738845
 10
1.850725382418873
 20
-5.90701821970712
 10
1.851407898351769
 20
-5.911693968376614
 10
1.852728499932191
 20
-5.91605390741213
 10
1.858482048059297
 20
-5.935048514948978
 10
1.869682582297615
 20
-5.941576151287259
 10
1.88901034744371
 20
-5.935850971793064
 10
1.9210168751017
 20
-5.926370216393857
 10
1.952811507149931
 20
-5.916175517066449
 10
1.984722464499238
 20
-5.906369773946102
 10
1.992578211761976
 20
-5.90395579797233
 10
1.996883986177294
 20
-5.899075628271575
 10
1.996922819220129
 20
-5.89067030827722
 10
1.997056144841697
 20
-5.861829699192488
 10
1.997154009672145
 20
-5.832988672921929
 10
1.997429317520186
 20
-5.804149315394497
 10
1.997513554281858
 20
-5.79532117761409
 10
1.993237087167434
 20
-5.791696111326624
 10
1.984760185046689
 20
-5.789846865834457
 10
1.958477376732654
 20
-5.784113342624676
 10
1.932460628648603
 20
-5.777155379156334
 10
1.906164053203901
 20
-5.771492360343042
 10
1.89627424714931
 20
-5.769362626946076
 10
1.885864905739089
 20
-5.768470057973924
 10
1.875755486137791
 20
-5.768822301832541
 10
1.861985296099558
 20
-5.769302065477303
 10
1.855947018678926
 20
-5.777002132913872
 10
1.850482858419897
 20
-5.795317144818252
 10
1.84891570004461
 20
-5.800569861418781
 10
1.844748987555312
 20
-5.805047099188893
 10
1.841774244364879
 20
-5.809879918303825
 10
1.839920618421994
 20
-5.804681922571161
 10
1.836577013472821
 20
-5.799515354833803
 10
1.836466667834517
 20
-5.794280577221721
 10
1.835938927825294
 20
-5.7692445633709
 10
1.836070549938249
 20
-5.744185882426133
 10
1.836550383113982
 20
-5.719146461558137
 10
1.836625407023057
 20
-5.71523214646456
 10
1.839702569322007
 20
-5.711375403008357
 10
1.84139161547542
 20
-5.707492029193316
 10
1.84482352474764
 20
-5.710603609318948
 10
1.850541473021684
 20
-5.713240988276866
 10
1.851301724571246
 20
-5.716906591115781
 10
1.855110978379709
 20
-5.735273473118568
 10
1.869262545750075
 20
-5.739855980766656
 10
1.884292984492844
 20
-5.743843651026205
 10
1.941102527744596
 20
-5.758915738815832
 10
1.997821020200275
 20
-5.774341808738149
 10
2.054741395807076
 20
-5.788982874088079
 10
2.13333231282762
 20
-5.809198097680564
 10
2.212093250435436
 20
-5.828751386505195
 10
2.290738905706613
 20
-5.848755096908184
 10
2.308366864782745
 20
-5.853238801057841
 10
2.325787586823644
 20
-5.858531776085984
 10
2.343367100201311
 20
-5.863214130196941
 10
2.350649269167471
 20
-5.865153835472028
 10
2.35428442613593
 20
-5.869164590011323
 10
2.353946853310503
 20
-5.876975559333863
 10
2.353604039588756
 20
-5.884908625027466
 10
2.355007930571509
 20
-5.893057792954095
 10
2.344584170177831
 20
-5.896394097152172
 10
2.31790929414616
 20
-5.904932012692976
 10
2.291476438014001
 20
-5.914235811791361
 10
2.264739592511495
 20
-5.922568332867436
 10
2.209718994024279
 20
-5.939715433186165
 10
2.154569293921503
 20
-5.956448546151123
 10
2.099461242865559
 20
-5.973314463255443
 10
2.047273596552448
 20
-5.989286559830285
 10
1.995059598004382
 20
-6.005172716134817
 10
1.942880538765178
 20
-6.021172694625798
 10
1.917876091971581
 20
-6.028840012978762
 10
1.892793979092314
 20
-6.036295400956507
 10
1.868035880500643
 20
-6.044698009243297
 10
1.861201821208384
 20
-6.047017353576418
 10
1.855450428541126
 20
-6.052468650607301
 10
1.849113932820159
 20
-6.056338187760704
 10
1.84608140939944
 20
-6.058189936367575
 10
1.842842587611522
 20
-6.059703903556131
 10
1.839697215437872
 20
-6.06137083886334
 10
1.838566363855471
 20
-6.057965907604739
 10
1.836493159131413
 20
-6.054571475521596
 10
1.836454986632727
 20
-6.051154376344507
 10
1.836175750285304
 20
-6.02611182658317
 10
1.83630438256686
 20
-6.001064757309247
 10
1.83630438256686
 20
-5.976019078654568
 10
1.836262038210368
 20
-5.976018939592651
 10
1.836219624322956
 20
-5.976018800530734
 10
1.836177279966465
 20
-5.976018661468793
 97
        0
 97
        1
330
8C
 75
     2
 76
     1
 98
        1
 10
0.0
 20
0.0
450
        0
451
        0
460
0.0
461
0.0
452
        0
462
0.0
453
        0
470

  0
SPLINE
  5
8E
330
7C
100
AcDbEntity
  8
Layer 1
100
AcDbSpline
210
0.0
220
0.0
230
1.0
 70
     9
 71
     3
 72
    41
 73
    37
 74
     0
 42
0.0000000001
 43
0.0000000001
 40
0.0
 40
0.0
 40
0.0
 40
0.0
 40
1.0
 40
1.0
 40
1.0
 40
2.0
 40
2.0
 40
2.0
 40
3.0
 40
3.0
 40
3.0
 40
4.0
 40
4.0
 40
4.0
 40
5.0
 40
5.0
 40
5.0
 40
6.0
 40
6.0
 40
6.0
 40
7.0
 40
7.0
 40
7.0
 40
8.0
 40
8.0
 40
8.0
 40
9.0
 40
9.0
 40
9.0
 40
10.0
 40
10.0
 40
10.0
 40
11.0
 40
11.0
 40
11.0
 40
12.0
 40
12.0
 40
12.0
 40
12.0
 10
1.96141432984469
 20
-7.34146875601257
 30
0.0
 10
2.055545556159775
 20
-7.34146875601257
 30
0.0
 10
2.149676956302237
 20
-7.341566377484645
 30
0.0
 10
2.24380788711072
 20
-7.341400059421125
 30
0.0
 10
2.267327691399373
 20
-7.341358479905238
 30
0.0
 10
2.290844227732792
 20
-7.340217615864174
 30
0.0
 10
2.314365561702655
 20
-7.340054079039165
 30
0.0
 10
2.329846274270557
 20
-7.339946306046511
 30
0.0
 10
2.333336207131411
 20
-7.343639929863506
 30
0.0
 10
2.333402252854903
 20
-7.358602297793519
 30
0.0
 10
2.333542557646865
 20
-7.390386708790148
 30
0.0
 10
2.313892924981612
 20
-7.408752200173694
 30
0.0
 10
2.289217237963877
 20
-7.423844869128363
 30
0.0
 10
2.250724653483466
 20
-7.447388470389139
 30
0.0
 10
2.207291928846732
 20
-7.452203489577565
 30
0.0
 10
2.163909318651588
 20
-7.457549308137559
 30
0.0
 10
2.106150017210603
 20
-7.464666775635072
 30
0.0
 10
2.048697416847478
 20
-7.461104565338169
 30
0.0
 10
1.991563407356819
 20
-7.452016034101283
 30
0.0
 10
1.964717606835329
 20
-7.447745303291311
 30
0.0
 10
1.937532981931086
 20
-7.443086311583909
 30
0.0
 10
1.911945761371056
 20
-7.434366433512877
 30
0.0
 10
1.896602085639907
 20
-7.429137566032649
 30
0.0
 10
1.882253849940664
 20
-7.417461092352545
 30
0.0
 10
1.870720888168218
 20
-7.40552888379049
 30
0.0
 10
1.858197110172909
 20
-7.392571788833694
 30
0.0
 10
1.854775978199932
 20
-7.374909116424254
 30
0.0
 10
1.860649606300146
 20
-7.356737338303673
 30
0.0
 10
1.863579919205234
 20
-7.347671474160733
 30
0.0
 10
1.8696487207186
 20
-7.343359581020649
 30
0.0
 10
1.879404679669442
 20
-7.343438290070783
 30
0.0
 10
1.906737509821356
 20
-7.343658842285448
 30
0.0
 10
1.934073225508212
 20
-7.343515191315873
 30
0.0
 10
1.961407828699685
 20
-7.343515191315873
 30
0.0
 10
1.961409984159508
 20
-7.342833092568753
 30
0.0
 10
1.961412174384867
 20
-7.34215085475969
 30
0.0
 10
1.96141432984469
 20
-7.34146875601257
 30
0.0
  0
SPLINE
  5
8F
330
7C
100
AcDbEntity
  8
Layer 1
100
AcDbSpline
210
0.0
220
0.0
230
1.0
 70
     9
 71
     3
 72
    26
 73
    22
 74
     0
 42
0.0000000001
 43
0.0000000001
 40
0.0
 40
0.0
 40
0.0
 40
0.0
 40
1.0
 40
1.0
 40
1.0
 40
2.0
 40
2.0
 40
2.0
 40
3.0
 40
3.0
 40
3.0
 40
4.0
 40
4.0
 40
4.0
 40
5.0
 40
5.0
 40
5.0
 40
6.0
 40
6.0
 40
6.0
 40
7.0
 40
7.0
 40
7.0
 40
7.0
 10
2.186256969965862
 20
-5.841665233203002
 30
0.0
 10
2.180413918106637
 20
-5.844783835955922
 30
0.0
 10
2.177084879894171
 20
-5.847323384848853
 30
0.0
 10
2.173331911400269
 20
-5.848447352865908
 30
0.0
 10
2.129367135834564
 20
-5.861614709454847
 30
0.0
 10
2.085351672196856
 20
-5.874613662051388
 30
0.0
 10
2.041314062947435
 20
-5.887536130588614
 30
0.0
 10
2.034076758835213
 20
-5.88965981479181
 30
0.0
 10
2.028109994010024
 20
-5.888525278068375
 30
0.0
 10
2.027731676040287
 20
-5.879280997474349
 30
0.0
 10
2.026848007031389
 20
-5.857687183478319
 30
0.0
 10
2.026051286491779
 20
-5.836088224190967
 30
0.0
 10
2.025462845951816
 20
-5.814484675860108
 30
0.0
 10
2.025249872612107
 20
-5.806666127662563
 30
0.0
 10
2.027567722029503
 20
-5.800402639452764
 30
0.0
 10
2.037384485807491
 20
-5.802818631824442
 30
0.0
 10
2.084858662903659
 20
-5.814502823441443
 30
0.0
 10
2.132299882323359
 20
-5.826321348878965
 30
0.0
 10
2.179738059763432
 20
-5.838151068801531
 30
0.0
 10
2.181084040145391
 20
-5.838486694759972
 30
0.0
 10
2.182265423355134
 20
-5.839482517212218
 30
0.0
 10
2.186256969965862
 20
-5.841665233203002
 30
0.0
  0
ENDBLK
  5
7F
330
7C
100
AcDbEntity
  8
0
100
AcDbBlockEnd
  0
ENDSEC
  0
SECTION
  2
ENTITIES
  0
LWPOLYLINE
  5
7A
330
70
100
AcDbEntity
  8
Layer 1
 62
   250
420
  2301728
370
    35
100
AcDbPolyline
 90
        4
 70
     1
 43
0.0
 10
1.591537767367918
 20
-7.783665978170675
 10
1.591537767367918
 20
-4.953665978170647
 10
2.591537767367917
 20
-4.953665978170647
 10
2.591537767367917
 20
-7.783665978170675
  0
LWPOLYLINE
  5
7B
330
70
100
AcDbEntity
  8
Layer 1
 62
   250
420
  2301728
370
    35
100
AcDbPolyline
 90
        4
 70
     1
 43
0.0
 10
1.49153776736792
 20
-7.88366597817066
 10
1.49153776736792
 20
-4.853665978170662
 10
2.691537767367915
 20
-4.853665978170662
 10
2.691537767367915
 20
-7.88366597817066
  0
INSERT
  5
7D
330
70
100
AcDbEntity
  8
Layer 1
100
AcDbBlockReference
  2
Block_0
 10
0.0
 20
0.0
 30
0.0
  0
ENDSEC
  0
SECTION
  2
OBJECTS
  0
DICTIONARY
  5
C
330
0
100
AcDbDictionary
281
     1
  3
ACAD_COLOR
350
63
  3
ACAD_DETAILVIEWSTYLE
350
6A
  3
ACAD_GROUP
350
D
  3
ACAD_LAYOUT
350
62
  3
ACAD_MATERIAL
350
10
  3
ACAD_MLEADERSTYLE
350
66
  3
ACAD_MLINESTYLE
350
5F
  3
ACAD_PLOTSETTINGS
350
61
  3
ACAD_PLOTSTYLENAME
350
E
  3
ACAD_SCALELIST
350
42
  3
ACAD_SECTIONVIEWSTYLE
350
68
  3
ACAD_TABLESTYLE
350
64
  3
ACAD_VISUALSTYLE
350
29
  3
ACDB_RECOMPOSE_DATA
350
98
  3
AcDbVariableDictionary
350
90
  0
DICTIONARY
  5
63
102
{ACAD_REACTORS
330
C
102
}
330
C
100
AcDbDictionary
281
     1
  0
DICTIONARY
  5
6A
102
{ACAD_REACTORS
330
C
102
}
330
C
100
AcDbDictionary
281
     1
  3
Imperial24
350
6B
  0
DICTIONARY
  5
D
102
{ACAD_REACTORS
330
C
102
}
330
C
100
AcDbDictionary
281
     1
  0
DICTIONARY
  5
62
102
{ACAD_REACTORS
330
C
102
}
330
C
100
AcDbDictionary
281
     1
  3
Layout1
350
6F
  3
Layout2
350
77
  3
Model
350
73
  0
DICTIONARY
  5
10
102
{ACAD_REACTORS
330
C
102
}
330
C
100
AcDbDictionary
281
     1
  3
ByBlock
350
19
  3
ByLayer
350
11
  3
Global
350
21
  0
DICTIONARY
  5
66
102
{ACAD_REACTORS
330
C
102
}
330
C
100
AcDbDictionary
281
     1
  3
Standard
350
67
  0
DICTIONARY
  5
5F
102
{ACAD_REACTORS
330
C
102
}
330
C
100
AcDbDictionary
281
     1
  3
Standard
350
60
  0
DICTIONARY
  5
61
102
{ACAD_REACTORS
330
C
102
}
330
C
100
AcDbDictionary
281
     1
  0
ACDBDICTIONARYWDFLT
  5
E
102
{ACAD_REACTORS
330
C
102
}
330
C
100
AcDbDictionary
281
     1
  3
Normal
350
F
100
AcDbDictionaryWithDefault
340
F
  0
DICTIONARY
  5
42
102
{ACAD_REACTORS
330
C
102
}
330
C
100
AcDbDictionary
281
     1
  3
A0
350
43
  3
A1
350
44
  3
A2
350
45
  3
A3
350
46
  3
A4
350
47
  3
A5
350
48
  3
A6
350
49
  3
A7
350
4A
  3
A8
350
4B
  3
A9
350
4C
  3
B0
350
4D
  3
B1
350
4E
  3
B2
350
4F
  3
B3
350
50
  3
B4
350
51
  3
B5
350
52
  3
B6
350
53
  0
DICTIONARY
  5
68
102
{ACAD_REACTORS
330
C
102
}
330
C
100
AcDbDictionary
281
     1
  3
Imperial24
350
69
  0
DICTIONARY
  5
64
102
{ACAD_REACTORS
330
C
102
}
330
C
100
AcDbDictionary
281
     1
  3
Standard
350
65
  0
DICTIONARY
  5
29
102
{ACAD_REACTORS
330
C
102
}
330
C
100
AcDbDictionary
281
     1
  3
2dWireframe
350
2F
  3
Basic
350
2E
  3
Brighten
350
35
  3
ColorChange
350
39
  3
Conceptual
350
32
  3
Dim
350
34
  3
EdgeColorOff
350
41
  3
Facepattern
350
38
  3
Flat
350
2A
  3
FlatWithEdges
350
2B
  3
Gouraud
350
2C
  3
GouraudWithEdges
350
2D
  3
Hidden
350
31
  3
JitterOff
350
3F
  3
Linepattern
350
37
  3
OverhangOff
350
40
  3
Realistic
350
33
  3
Shaded
350
3E
  3
Shaded with edges
350
3D
  3
Shades of Gray
350
3A
  3
Sketchy
350
3B
  3
Thicken
350
36
  3
Wireframe
350
30
  3
X-Ray
350
3C
  0
XRECORD
  5
98
102
{ACAD_REACTORS
330
C
102
}
330
C
100
AcDbXrecord
280
     1
 90
        1
330
65
  0
DICTIONARY
  5
90
102
{ACAD_REACTORS
330
C
102
}
330
C
100
AcDbDictionary
281
     1
  3
CANNOSCALE
350
95
  3
CMLEADERSTYLE
350
92
  3
CTABLESTYLE
350
91
  3
CVIEWDETAILSTYLE
350
93
  3
CVIEWSECTIONSTYLE
350
94
  0
ACDBDETAILVIEWSTYLE
  5
6B
102
{ACAD_REACTORS
330
6A
102
}
330
6A
100
AcDbModelDocViewStyle
 70
     0
  3
Imperial24
290
     1
300
Imperial24
 90
        0
100
AcDbDetailViewStyle
 70
     0
 71
     0
 90
        3
 71
     1
340
55
 62
   256
 40
0.24
340
0
 62
   256
 40
0.24
300

 40
0.36
280
     3
 71
     2
340
5D
 90
       25
 62
   256
 71
     3
340
55
 62
   256
 40
0.24
 90
        1
 40
0.75
 90
        1
300
%<\AcVar ViewType \f "%tc1">% %<\AcVar ViewDetailId>%\PSCALE %<\AcVar ViewScale \f "%sn">%
 71
     4
340
5D
 90
       25
 62
   256
340
5D
 90
       25
 62
   256
280
     0
  0
LAYOUT
  5
6F
102
{ACAD_REACTORS
330
62
102
}
330
62
100
AcDbPlotSettings
  1

  2

  4

  6

 40
0.0
 41
0.0
 42
0.0
 43
0.0
 44
0.0
 45
0.0
 46
0.0
 47
0.0
 48
0.0
 49
0.0
140
0.0
141
0.0
142
1.0
143
1.0
 70
   688
 72
     0
 73
     0
 74
     5
  7

 75
    16
147
1.0
 76
     0
 77
     2
 78
   300
148
0.0
149
0.0
100
AcDbLayout
  1
Layout1
 70
     1
 71
     1
 10
0.0
 20
0.0
 11
12.0
 21
9.0
 12
0.0
 22
0.0
 32
0.0
 14
0.0
 24
0.0
 34
0.0
 15
0.0
 25
0.0
 35
0.0
146
0.0
 13
0.0
 23
0.0
 33
0.0
 16
1.0
 26
0.0
 36
0.0
 17
0.0
 27
1.0
 37
0.0
 76
     0
330
6C
  0
LAYOUT
  5
77
102
{ACAD_REACTORS
330
62
102
}
330
62
100
AcDbPlotSettings
  1

  2

  4

  6

 40
0.0
 41
0.0
 42
0.0
 43
0.0
 44
0.0
 45
0.0
 46
0.0
 47
0.0
 48
0.0
 49
0.0
140
0.0
141
0.0
142
1.0
143
1.0
 70
   688
 72
     0
 73
     0
 74
     5
  7

 75
    16
147
1.0
 76
     0
 77
     2
 78
   300
148
0.0
149
0.0
100
AcDbLayout
  1
Layout2
 70
     1
 71
     2
 10
0.0
 20
0.0
 11
12.0
 21
9.0
 12
0.0
 22
0.0
 32
0.0
 14
0.0
 24
0.0
 34
0.0
 15
0.0
 25
0.0
 35
0.0
146
0.0
 13
0.0
 23
0.0
 33
0.0
 16
1.0
 26
0.0
 36
0.0
 17
0.0
 27
1.0
 37
0.0
 76
     0
330
74
  0
LAYOUT
  5
73
102
{ACAD_REACTORS
330
62
102
}
330
62
100
AcDbPlotSettings
  1

  2

  4

  6

 40
0.0
 41
0.0
 42
0.0
 43
0.0
 44
0.0
 45
0.0
 46
0.0
 47
0.0
 48
0.0
 49
0.0
140
0.0
141
0.0
142
1.0
143
1.0
 70
  1712
 72
     0
 73
     0
 74
     0
  7

 75
     0
147
1.0
 76
     0
 77
     2
 78
   300
148
0.0
149
0.0
100
AcDbLayout
  1
Model
 70
     1
 71
     0
 10
0.0
 20
0.0
 11
12.0
 21
9.0
 12
0.0
 22
0.0
 32
0.0
 14
0.0
 24
0.0
 34
0.0
 15
0.0
 25
0.0
 35
0.0
146
0.0
 13
0.0
 23
0.0
 33
0.0
 16
1.0
 26
0.0
 36
0.0
 17
0.0
 27
1.0
 37
0.0
 76
     0
330
70
  0
MATERIAL
  5
19
102
{ACAD_XDICTIONARY
360
1A
102
}
102
{ACAD_REACTORS
330
10
102
}
330
10
100
AcDbMaterial
  1
ByBlock
 72
     0
 43
0.0208333333333333
 43
0.0
 43
0.0
 43
0.0
 43
0.0
 43
0.0208333333333333
 43
0.0
 43
0.0
 43
0.0
 43
0.0
 43
1.0
 43
0.0
 43
0.0
 43
0.0
 43
0.0
 43
1.0
 77
     0
 47
0.0208333333333333
 47
0.0
 47
0.0
 47
0.0
 47
0.0
 47
0.0208333333333333
 47
0.0
 47
0.0
 47
0.0
 47
0.0
 47
1.0
 47
0.0
 47
0.0
 47
0.0
 47
0.0
 47
1.0
171
     0
 49
0.0208333333333333
 49
0.0
 49
0.0
 49
0.0
 49
0.0
 49
0.0208333333333333
 49
0.0
 49
0.0
 49
0.0
 49
0.0
 49
1.0
 49
0.0
 49
0.0
 49
0.0
 49
0.0
 49
1.0
175
     0
142
0.0208333333333333
142
0.0
142
0.0
142
0.0
142
0.0
142
0.0208333333333333
142
0.0
142
0.0
142
0.0
142
0.0
142
1.0
142
0.0
142
0.0
142
0.0
142
0.0
142
1.0
179
     0
144
0.0208333333333333
144
0.0
144
0.0
144
0.0
144
0.0
144
0.0208333333333333
144
0.0
144
0.0
144
0.0
144
0.0
144
1.0
144
0.0
144
0.0
144
0.0
144
0.0
144
1.0
147
0.0208333333333333
147
0.0
147
0.0
147
0.0
147
0.0
147
0.0208333333333333
147
0.0
147
0.0
147
0.0
147
0.0
147
1.0
147
0.0
147
0.0
147
0.0
147
0.0
147
1.0
  0
MATERIAL
  5
11
102
{ACAD_XDICTIONARY
360
12
102
}
102
{ACAD_REACTORS
330
10
102
}
330
10
100
AcDbMaterial
  1
ByLayer
 72
     0
 43
0.0208333333333333
 43
0.0
 43
0.0
 43
0.0
 43
0.0
 43
0.0208333333333333
 43
0.0
 43
0.0
 43
0.0
 43
0.0
 43
1.0
 43
0.0
 43
0.0
 43
0.0
 43
0.0
 43
1.0
 77
     0
 47
0.0208333333333333
 47
0.0
 47
0.0
 47
0.0
 47
0.0
 47
0.0208333333333333
 47
0.0
 47
0.0
 47
0.0
 47
0.0
 47
1.0
 47
0.0
 47
0.0
 47
0.0
 47
0.0
 47
1.0
171
     0
 49
0.0208333333333333
 49
0.0
 49
0.0
 49
0.0
 49
0.0
 49
0.0208333333333333
 49
0.0
 49
0.0
 49
0.0
 49
0.0
 49
1.0
 49
0.0
 49
0.0
 49
0.0
 49
0.0
 49
1.0
175
     0
142
0.0208333333333333
142
0.0
142
0.0
142
0.0
142
0.0
142
0.0208333333333333
142
0.0
142
0.0
142
0.0
142
0.0
142
1.0
142
0.0
142
0.0
142
0.0
142
0.0
142
1.0
179
     0
144
0.0208333333333333
144
0.0
144
0.0
144
0.0
144
0.0
144
0.0208333333333333
144
0.0
144
0.0
144
0.0
144
0.0
144
1.0
144
0.0
144
0.0
144
0.0
144
0.0
144
1.0
147
0.0208333333333333
147
0.0
147
0.0
147
0.0
147
0.0
147
0.0208333333333333
147
0.0
147
0.0
147
0.0
147
0.0
147
1.0
147
0.0
147
0.0
147
0.0
147
0.0
147
1.0
  0
MATERIAL
  5
21
102
{ACAD_XDICTIONARY
360
22
102
}
102
{ACAD_REACTORS
330
10
102
}
330
10
100
AcDbMaterial
  1
Global
 72
     0
 43
0.0208333333333333
 43
0.0
 43
0.0
 43
0.0
 43
0.0
 43
0.0208333333333333
 43
0.0
 43
0.0
 43
0.0
 43
0.0
 43
1.0
 43
0.0
 43
0.0
 43
0.0
 43
0.0
 43
1.0
 77
     0
 47
0.0208333333333333
 47
0.0
 47
0.0
 47
0.0
 47
0.0
 47
0.0208333333333333
 47
0.0
 47
0.0
 47
0.0
 47
0.0
 47
1.0
 47
0.0
 47
0.0
 47
0.0
 47
0.0
 47
1.0
171
     0
 49
0.0208333333333333
 49
0.0
 49
0.0
 49
0.0
 49
0.0
 49
0.0208333333333333
 49
0.0
 49
0.0
 49
0.0
 49
0.0
 49
1.0
 49
0.0
 49
0.0
 49
0.0
 49
0.0
 49
1.0
175
     0
142
0.0208333333333333
142
0.0
142
0.0
142
0.0
142
0.0
142
0.0208333333333333
142
0.0
142
0.0
142
0.0
142
0.0
142
1.0
142
0.0
142
0.0
142
0.0
142
0.0
142
1.0
179
     0
144
0.0208333333333333
144
0.0
144
0.0
144
0.0
144
0.0
144
0.0208333333333333
144
0.0
144
0.0
144
0.0
144
0.0
144
1.0
144
0.0
144
0.0
144
0.0
144
0.0
144
1.0
147
0.0208333333333333
147
0.0
147
0.0
147
0.0
147
0.0
147
0.0208333333333333
147
0.0
147
0.0
147
0.0
147
0.0
147
1.0
147
0.0
147
0.0
147
0.0
147
0.0
147
1.0
  0
MLEADERSTYLE
  5
67
102
{ACAD_REACTORS
330
66
102
}
330
66
100
AcDbMLeaderStyle
179
     2
170
     2
171
     1
172
     0
 90
        2
 40
0.0
 41
0.0
173
     1
 91
-1056964608
340
5B
 92
       -2
290
     1
 42
0.09
291
     1
 43
0.36
  3
Standard
 44
0.18
300

342
55
174
     1
178
     6
175
     1
176
     0
 93
-1056964608
 45
0.18
292
     0
297
     0
 46
0.18
 94
-1056964608
 47
1.0
 49
1.0
140
1.0
293
     1
141
0.0
294
     1
177
     0
142
1.0
295
     1
296
     0
143
0.125
271
     0
272
     9
273
     9
298
     1
  0
MLINESTYLE
  5
60
102
{ACAD_REACTORS
330
5F
102
}
330
5F
100
AcDbMlineStyle
  2
STANDARD
 70
     0
  3

 62
   256
 51
90.0
 52
90.0
 71
     2
 49
0.5
 62
   256
  6
BYLAYER
 49
-0.5
 62
   256
  6
BYLAYER
  0
ACDBPLACEHOLDER
  5
F
102
{ACAD_REACTORS
330
E
102
}
330
E
  0
SCALE
  5
43
102
{ACAD_REACTORS
330
42
102
}
330
42
100
AcDbScale
 70
     0
300
1:1
140
1.0
141
1.0
290
     1
  0
SCALE
  5
44
102
{ACAD_REACTORS
330
42
102
}
330
42
100
AcDbScale
 70
     0
300
1/128" = 1'-0"
140
0.0078125
141
12.0
290
     0
  0
SCALE
  5
45
102
{ACAD_REACTORS
330
42
102
}
330
42
100
AcDbScale
 70
     0
300
1/64" = 1'-0"
140
0.015625
141
12.0
290
     0
  0
SCALE
  5
46
102
{ACAD_REACTORS
330
42
102
}
330
42
100
AcDbScale
 70
     0
300
1/32" = 1'-0"
140
0.03125
141
12.0
290
     0
  0
SCALE
  5
47
102
{ACAD_REACTORS
330
42
102
}
330
42
100
AcDbScale
 70
     0
300
1/16" = 1'-0"
140
0.0625
141
12.0
290
     0
  0
SCALE
  5
48
102
{ACAD_REACTORS
330
42
102
}
330
42
100
AcDbScale
 70
     0
300
3/32" = 1'-0"
140
0.09375
141
12.0
290
     0
  0
SCALE
  5
49
102
{ACAD_REACTORS
330
42
102
}
330
42
100
AcDbScale
 70
     0
300
1/8" = 1'-0"
140
0.125
141
12.0
290
     0
  0
SCALE
  5
4A
102
{ACAD_REACTORS
330
42
102
}
330
42
100
AcDbScale
 70
     0
300
3/16" = 1'-0"
140
0.1875
141
12.0
290
     0
  0
SCALE
  5
4B
102
{ACAD_REACTORS
330
42
102
}
330
42
100
AcDbScale
 70
     0
300
1/4" = 1'-0"
140
0.25
141
12.0
290
     0
  0
SCALE
  5
4C
102
{ACAD_REACTORS
330
42
102
}
330
42
100
AcDbScale
 70
     0
300
3/8" = 1'-0"
140
0.375
141
12.0
290
     0
  0
SCALE
  5
4D
102
{ACAD_REACTORS
330
42
102
}
330
42
100
AcDbScale
 70
     0
300
1/2" = 1'-0"
140
0.5
141
12.0
290
     0
  0
SCALE
  5
4E
102
{ACAD_REACTORS
330
42
102
}
330
42
100
AcDbScale
 70
     0
300
3/4" = 1'-0"
140
0.75
141
12.0
290
     0
  0
SCALE
  5
4F
102
{ACAD_REACTORS
330
42
102
}
330
42
100
AcDbScale
 70
     0
300
1" = 1'-0"
140
1.0
141
12.0
290
     0
  0
SCALE
  5
50
102
{ACAD_REACTORS
330
42
102
}
330
42
100
AcDbScale
 70
     0
300
1-1/2" = 1'-0"
140
1.5
141
12.0
290
     0
  0
SCALE
  5
51
102
{ACAD_REACTORS
330
42
102
}
330
42
100
AcDbScale
 70
     0
300
3" = 1'-0"
140
3.0
141
12.0
290
     0
  0
SCALE
  5
52
102
{ACAD_REACTORS
330
42
102
}
330
42
100
AcDbScale
 70
     0
300
6" = 1'-0"
140
6.0
141
12.0
290
     0
  0
SCALE
  5
53
102
{ACAD_REACTORS
330
42
102
}
330
42
100
AcDbScale
 70
     0
300
1'-0" = 1'-0"
140
12.0
141
12.0
290
     0
  0
ACDBSECTIONVIEWSTYLE
  5
69
102
{ACAD_REACTORS
330
68
102
}
330
68
100
AcDbModelDocViewStyle
 70
     0
  3
Imperial24
290
     1
300
Imperial24
 90
        0
100
AcDbSectionViewStyle
 70
     0
 71
     0
 90
       78
 71
     1
340
55
 62
   256
 40
0.24
340
0
340
0
 62
   256
 40
0.24
300
I, O, Q, S, X, Z
 40
0.48
 90
        3
 40
0.18
 90
        1
 71
     2
340
5D
 90
       25
 62
   256
340
5D
 90
       50
 62
   256
 40
0.24
 40
0.0
 40
0.24
 71
     3
340
55
 62
   256
 40
0.24
 90
        1
 40
0.75
 90
        1
300
%<\AcVar ViewType \f "%tc1">% %<\AcVar ViewSectionStartId>%-%<\AcVar ViewSectionEndId>%\PSCALE %<\AcVar ViewScale \f "%sn">%
 71
     4
 62
   256
 62
   257
300
ANSI31
 40
1.0
 90
        0
290
     0
290
     0
 90
        6
 40
0.0
 40
1.570796326794896
 40
0.2617993877991494
 40
1.308996938995747
 40
-0.2617993877991494
 40
1.832595714594046
  0
TABLESTYLE
  5
65
102
{ACAD_XDICTIONARY
360
96
102
}
102
{ACAD_REACTORS
330
64
102
}
330
64
100
AcDbTableStyle
280
     0
  3
Standard
 70
     0
 71
     0
 40
0.06
 41
0.06
280
     0
281
     0
  7
Standard
140
0.18
170
     2
 62
     0
 63
     7
283
     0
 90
      512
 91
        0
  1

274
    -2
284
     1
 64
     0
275
    -2
285
     1
 65
     0
276
    -2
286
     1
 66
     0
277
    -2
287
     1
 67
     0
278
    -2
288
     1
 68
     0
279
    -2
289
     1
 69
     0
  7
Standard
140
0.25
170
     5
 62
     0
 63
     7
283
     0
 90
      512
 91
        0
  1

274
    -2
284
     1
 64
     0
275
    -2
285
     1
 65
     0
276
    -2
286
     1
 66
     0
277
    -2
287
     1
 67
     0
278
    -2
288
     1
 68
     0
279
    -2
289
     1
 69
     0
  7
Standard
140
0.18
170
     5
 62
     0
 63
     7
283
     0
 90
      512
 91
        0
  1

274
    -2
284
     1
 64
     0
275
    -2
285
     1
 65
     0
276
    -2
286
     1
 66
     0
277
    -2
287
     1
 67
     0
278
    -2
288
     1
 68
     0
279
    -2
289
     1
 69
     0
  0
VISUALSTYLE
  5
2F
102
{ACAD_REACTORS
330
29
102
}
330
29
100
AcDbVisualStyle
  2
2dWireframe
 70
     4
177
     3
291
     0
 70
    58
 90
        0
176
     1
 90
        2
176
     1
 90
        0
176
     1
 90
        0
176
     1
 40
0.6
176
     1
 40
30.0
176
     1
 62
     7
420
 16777215
176
     1
 90
        1
176
     1
 90
        4
176
     1
 62
     7
176
     1
 62
   257
176
     1
 90
        1
176
     1
 90
        1
176
     1
 40
1.0
176
     1
 90
        0
176
     1
 62
   257
176
     1
 40
1.0
176
     1
 90
        1
176
     1
 90
        6
176
     1
 90
        2
176
     1
 62
     7
176
     1
 90
        5
176
     1
 90
        0
176
     1
 90
        0
176
     1
290
     0
176
     1
 90
        1
176
     1
 40
0.0
176
     1
 90
        0
176
     1
290
     1
176
     1
290
     1
176
     1
290
     0
176
     1
290
     0
176
     1
290
     0
176
     1
290
     0
176
     1
290
     0
176
     1
290
     0
176
     1
290
     0
176
     1
 90
       50
176
     1
 40
0.0
176
     1
 40
1.0
176
     1
 90
        0
176
     1
 62
    18
420
        0
176
     1
 90
       50
176
     1
 90
        3
176
     1
 62
     5
420
      255
176
     1
290
     0
176
     1
 90
       50
176
     1
 90
       50
176
     1
 90
       50
176
     1
290
     0
176
     1
 90
       50
176
     1
 62
   256
176
     0
 40
1.0
176
     0
 90
        2
176
     1
  1
strokes_ogs.tif
176
     1
290
     0
176
     1
 40
1.0
176
     1
 40
1.0
176
     1
  0
VISUALSTYLE
  5
2E
102
{ACAD_REACTORS
330
29
102
}
330
29
100
AcDbVisualStyle
  2
Basic
 70
     7
177
     3
291
     1
 70
    58
 90
        1
176
     1
 90
        0
176
     1
 90
        1
176
     1
 90
        0
176
     1
 40
0.6
176
     1
 40
30.0
176
     1
 62
     7
420
 16777215
176
     1
 90
        0
176
     1
 90
        4
176
     1
 62
     7
176
     1
 62
   257
176
     1
 90
        1
176
     1
 90
        1
176
     1
 40
1.0
176
     1
 90
        8
176
     1
 62
     7
176
     1
 40
1.0
176
     1
 90
        1
176
     1
 90
        6
176
     1
 90
        2
176
     1
 62
     7
176
     1
 90
        5
176
     1
 90
        0
176
     1
 90
        0
176
     1
290
     0
176
     1
 90
        1
176
     1
 40
0.0
176
     1
 90
        0
176
     1
290
     0
176
     1
290
     1
176
     1
290
     1
176
     1
290
     0
176
     1
290
     0
176
     1
290
     0
176
     1
290
     0
176
     1
290
     0
176
     1
290
     0
176
     1
 90
       50
176
     1
 40
0.0
176
     1
 40
1.0
176
     1
 90
        0
176
     1
 62
    18
420
        0
176
     1
 90
       50
176
     1
 90
        3
176
     1
 62
     5
420
      255
176
     1
290
     0
176
     1
 90
       50
176
     1
 90
       50
176
     1
 90
       50
176
     1
290
     0
176
     1
 90
       50
176
     1
 62
   256
176
     0
 40
1.0
176
     0
 90
        2
176
     1
  1
strokes_ogs.tif
176
     1
290
     0
176
     1
 40
1.0
176
     1
 40
1.0
176
     1
  0
VISUALSTYLE
  5
35
102
{ACAD_REACTORS
330
29
102
}
330
29
100
AcDbVisualStyle
  2
Brighten
 70
    12
177
     3
291
     1
 70
    58
 90
        2
176
     1
 90
        2
176
     1
 90
        0
176
     1
 90
        0
176
     1
 40
0.6
176
     1
 40
30.0
176
     1
 62
     7
420
 16777215
176
     1
 90
        1
176
     1
 90
        4
176
     1
 62
     7
176
     1
 62
   257
176
     1
 90
        1
176
     1
 90
        1
176
     1
 40
1.0
176
     1
 90
        8
176
     1
 62
     7
176
     1
 40
1.0
176
     1
 90
        1
176
     1
 90
        6
176
     1
 90
        2
176
     1
 62
     7
176
     1
 90
        5
176
     1
 90
        0
176
     1
 90
        0
176
     1
290
     0
176
     1
 90
        1
176
     1
 40
50.0
176
     1
 90
        0
176
     1
290
     0
176
     1
290
     1
176
     1
290
     1
176
     1
290
     0
176
     1
290
     0
176
     1
290
     0
176
     1
290
     0
176
     1
290
     0
176
     1
290
     0
176
     1
 90
       50
176
     1
 40
0.0
176
     1
 40
1.0
176
     1
 90
        0
176
     1
 62
    18
420
        0
176
     1
 90
       50
176
     1
 90
        3
176
     1
 62
     5
420
      255
176
     1
290
     0
176
     1
 90
       50
176
     1
 90
       50
176
     1
 90
       50
176
     1
290
     0
176
     1
 90
       50
176
     1
 62
   256
176
     0
 40
1.0
176
     0
 90
        2
176
     1
  1
strokes_ogs.tif
176
     1
290
     0
176
     1
 40
1.0
176
     1
 40
1.0
176
     1
  0
VISUALSTYLE
  5
39
102
{ACAD_REACTORS
330
29
102
}
330
29
100
AcDbVisualStyle
  2
ColorChange
 70
    16
177
     3
291
     1
 70
    58
 90
        2
176
     1
 90
        2
176
     1
 90
        3
176
     1
 90
        0
176
     1
 40
0.6
176
     1
 40
30.0
176
     1
 62
     8
420
  8421504
176
     1
 90
        1
176
     1
 90
        4
176
     1
 62
     7
176
     1
 62
   257
176
     1
 90
        1
176
     1
 90
        1
176
     1
 40
1.0
176
     1
 90
        8
176
     1
 62
     8
420
  8421504
176
     1
 40
1.0
176
     1
 90
        1
176
     1
 90
        6
176
     1
 90
        2
176
     1
 62
     7
176
     1
 90
        5
176
     1
 90
        0
176
     1
 90
        0
176
     1
290
     0
176
     1
 90
        1
176
     1
 40
0.0
176
     1
 90
        0
176
     1
290
     0
176
     1
290
     1
176
     1
290
     1
176
     1
290
     0
176
     1
290
     0
176
     1
290
     0
176
     1
290
     0
176
     1
290
     0
176
     1
290
     0
176
     1
 90
       50
176
     1
 40
0.0
176
     1
 40
1.0
176
     1
 90
        0
176
     1
 62
    18
420
        0
176
     1
 90
       50
176
     1
 90
        3
176
     1
 62
     5
420
      255
176
     1
290
     0
176
     1
 90
       50
176
     1
 90
       50
176
     1
 90
       50
176
     1
290
     0
176
     1
 90
       50
176
     1
 62
   256
176
     0
 40
1.0
176
     0
 90
        2
176
     1
  1
strokes_ogs.tif
176
     1
290
     0
176
     1
 40
1.0
176
     1
 40
1.0
176
     1
  0
VISUALSTYLE
  5
32
102
{ACAD_REACTORS
330
29
102
}
330
29
100
AcDbVisualStyle
  2
Conceptual
 70
     9
177
     3
291
     0
 70
    58
 90
        3
176
     1
 90
        2
176
     1
 90
        0
176
     1
 90
        0
176
     1
 40
0.6
176
     1
 40
30.0
176
     1
 62
     7
420
 16777215
176
     1
 90
        2
176
     1
 90
        2
176
     1
 62
     7
176
     1
 62
   257
176
     1
 90
        1
176
     1
 90
        1
176
     1
 40
179.0
176
     1
 90
        8
176
     1
 62
     7
176
     1
 40
1.0
176
     1
 90
        1
176
     1
 90
        6
176
     1
 90
        2
176
     1
 62
     7
176
     1
 90
        3
176
     1
 90
        0
176
     1
 90
        0
176
     1
290
     0
176
     1
 90
        1
176
     1
 40
0.0
176
     1
 90
        0
176
     1
290
     0
176
     1
290
     1
176
     1
290
     1
176
     1
290
     0
176
     1
290
     0
176
     1
290
     0
176
     1
290
     0
176
     1
290
     0
176
     1
290
     0
176
     1
 90
       50
176
     1
 40
0.0
176
     1
 40
1.0
176
     1
 90
        0
176
     1
 62
    18
420
        0
176
     1
 90
       50
176
     1
 90
        3
176
     1
 62
     5
420
      255
176
     1
290
     0
176
     1
 90
       50
176
     1
 90
       50
176
     1
 90
       50
176
     1
290
     0
176
     1
 90
       50
176
     1
 62
   256
176
     0
 40
1.0
176
     0
 90
        2
176
     1
  1
strokes_ogs.tif
176
     1
290
     0
176
     1
 40
1.0
176
     1
 40
1.0
176
     1
  0
VISUALSTYLE
  5
34
102
{ACAD_REACTORS
330
29
102
}
330
29
100
AcDbVisualStyle
  2
Dim
 70
    11
177
     3
291
     1
 70
    58
 90
        2
176
     1
 90
        2
176
     1
 90
        0
176
     1
 90
        0
176
     1
 40
0.6
176
     1
 40
30.0
176
     1
 62
     7
420
 16777215
176
     1
 90
        1
176
     1
 90
        4
176
     1
 62
     7
176
     1
 62
   257
176
     1
 90
        1
176
     1
 90
        1
176
     1
 40
1.0
176
     1
 90
        8
176
     1
 62
     7
176
     1
 40
1.0
176
     1
 90
        1
176
     1
 90
        6
176
     1
 90
        2
176
     1
 62
     7
176
     1
 90
        5
176
     1
 90
        0
176
     1
 90
        0
176
     1
290
     0
176
     1
 90
        1
176
     1
 40
-50.0
176
     1
 90
        0
176
     1
290
     0
176
     1
290
     1
176
     1
290
     1
176
     1
290
     0
176
     1
290
     0
176
     1
290
     0
176
     1
290
     0
176
     1
290
     0
176
     1
290
     0
176
     1
 90
       50
176
     1
 40
0.0
176
     1
 40
1.0
176
     1
 90
        0
176
     1
 62
    18
420
        0
176
     1
 90
       50
176
     1
 90
        3
176
     1
 62
     5
420
      255
176
     1
290
     0
176
     1
 90
       50
176
     1
 90
       50
176
     1
 90
       50
176
     1
290
     0
176
     1
 90
       50
176
     1
 62
   256
176
     0
 40
1.0
176
     0
 90
        2
176
     1
  1
strokes_ogs.tif
176
     1
290
     0
176
     1
 40
1.0
176
     1
 40
1.0
176
     1
  0
VISUALSTYLE
  5
41
102
{ACAD_REACTORS
330
29
102
}
330
29
100
AcDbVisualStyle
  2
EdgeColorOff
 70
    22
177
     3
291
     1
 70
    58
 90
        2
176
     0
 90
        2
176
     0
 90
        0
176
     0
 90
        0
176
     0
 40
0.6
176
     0
 40
30.0
176
     0
 62
     7
420
 16777215
176
     0
 90
        1
176
     0
 90
        4
176
     0
 62
     7
176
     0
 62
   257
176
     0
 90
        1
176
     0
 90
        1
176
     0
 40
1.0
176
     0
 90
        8
176
     2
 62
     7
176
     0
 40
1.0
176
     0
 90
        1
176
     0
 90
        6
176
     0
 90
        2
176
     0
 62
     7
176
     0
 90
        5
176
     0
 90
        0
176
     0
 90
        0
176
     0
290
     0
176
     0
 90
        1
176
     0
 40
0.0
176
     0
 90
        0
176
     0
290
     0
176
     0
290
     1
176
     0
290
     1
176
     0
290
     0
176
     0
290
     0
176
     0
290
     0
176
     0
290
     0
176
     0
290
     0
176
     0
290
     0
176
     0
 90
       50
176
     0
 40
0.0
176
     0
 40
1.0
176
     0
 90
        0
176
     0
 62
    18
420
        0
176
     0
 90
       50
176
     0
 90
        3
176
     0
 62
     5
420
      255
176
     0
290
     0
176
     0
 90
       50
176
     0
 90
       50
176
     0
 90
       50
176
     0
290
     0
176
     0
 90
       50
176
     0
 62
   256
176
     0
 40
1.0
176
     0
 90
        2
176
     0
  1
strokes_ogs.tif
176
     0
290
     0
176
     0
 40
1.0
176
     0
 40
1.0
176
     0
  0
VISUALSTYLE
  5
38
102
{ACAD_REACTORS
330
29
102
}
330
29
100
AcDbVisualStyle
  2
Facepattern
 70
    15
177
     3
291
     1
 70
    58
 90
        2
176
     1
 90
        2
176
     1
 90
        0
176
     1
 90
        0
176
     1
 40
0.6
176
     1
 40
30.0
176
     1
 62
     7
420
 16777215
176
     1
 90
        1
176
     1
 90
        4
176
     1
 62
     7
176
     1
 62
   257
176
     1
 90
        1
176
     1
 90
        1
176
     1
 40
1.0
176
     1
 90
        8
176
     1
 62
     7
176
     1
 40
1.0
176
     1
 90
        1
176
     1
 90
        6
176
     1
 90
        2
176
     1
 62
     7
176
     1
 90
        5
176
     1
 90
        0
176
     1
 90
        0
176
     1
290
     0
176
     1
 90
        1
176
     1
 40
0.0
176
     1
 90
        0
176
     1
290
     0
176
     1
290
     1
176
     1
290
     1
176
     1
290
     0
176
     1
290
     0
176
     1
290
     0
176
     1
290
     0
176
     1
290
     0
176
     1
290
     0
176
     1
 90
       50
176
     1
 40
0.0
176
     1
 40
1.0
176
     1
 90
        0
176
     1
 62
    18
420
        0
176
     1
 90
       50
176
     1
 90
        3
176
     1
 62
     5
420
      255
176
     1
290
     0
176
     1
 90
       50
176
     1
 90
       50
176
     1
 90
       50
176
     1
290
     0
176
     1
 90
       50
176
     1
 62
   256
176
     0
 40
1.0
176
     0
 90
        2
176
     1
  1
strokes_ogs.tif
176
     1
290
     0
176
     1
 40
1.0
176
     1
 40
1.0
176
     1
  0
VISUALSTYLE
  5
2A
102
{ACAD_REACTORS
330
29
102
}
330
29
100
AcDbVisualStyle
  2
Flat
 70
     0
177
     3
291
     1
 70
    58
 90
        2
176
     1
 90
        1
176
     1
 90
        1
176
     1
 90
        2
176
     1
 40
0.6
176
     1
 40
30.0
176
     1
 62
     7
420
 16777215
176
     1
 90
        0
176
     1
 90
        0
176
     1
 62
     7
176
     1
 62
   257
176
     1
 90
        1
176
     1
 90
        1
176
     1
 40
1.0
176
     1
 90
        8
176
     1
 62
     7
176
     1
 40
1.0
176
     1
 90
        1
176
     1
 90
        6
176
     1
 90
        2
176
     1
 62
     7
176
     1
 90
        5
176
     1
 90
        0
176
     1
 90
        0
176
     1
290
     0
176
     1
 90
       13
176
     1
 40
0.0
176
     1
 90
        0
176
     1
290
     0
176
     1
290
     1
176
     1
290
     1
176
     1
290
     0
176
     1
290
     0
176
     1
290
     0
176
     1
290
     0
176
     1
290
     0
176
     1
290
     0
176
     1
 90
       50
176
     1
 40
0.0
176
     1
 40
1.0
176
     1
 90
        0
176
     1
 62
    18
420
        0
176
     1
 90
       50
176
     1
 90
        3
176
     1
 62
     5
420
      255
176
     1
290
     0
176
     1
 90
       50
176
     1
 90
       50
176
     1
 90
       50
176
     1
290
     0
176
     1
 90
       50
176
     1
 62
   256
176
     0
 40
1.0
176
     0
 90
        2
176
     1
  1
strokes_ogs.tif
176
     1
290
     0
176
     1
 40
1.0
176
     1
 40
1.0
176
     1
  0
VISUALSTYLE
  5
2B
102
{ACAD_REACTORS
330
29
102
}
330
29
100
AcDbVisualStyle
  2
FlatWithEdges
 70
     1
177
     3
291
     1
 70
    58
 90
        2
176
     1
 90
        1
176
     1
 90
        1
176
     1
 90
        2
176
     1
 40
0.6
176
     1
 40
30.0
176
     1
 62
     7
420
 16777215
176
     1
 90
        1
176
     1
 90
        0
176
     1
 62
     7
176
     1
 62
   257
176
     1
 90
        1
176
     1
 90
        1
176
     1
 40
1.0
176
     1
 90
        0
176
     1
 62
   257
176
     1
 40
1.0
176
     1
 90
        1
176
     1
 90
        6
176
     1
 90
        2
176
     1
 62
     7
176
     1
 90
        5
176
     1
 90
        0
176
     1
 90
        0
176
     1
290
     0
176
     1
 90
       13
176
     1
 40
0.0
176
     1
 90
        0
176
     1
290
     0
176
     1
290
     1
176
     1
290
     1
176
     1
290
     0
176
     1
290
     0
176
     1
290
     0
176
     1
290
     0
176
     1
290
     0
176
     1
290
     0
176
     1
 90
       50
176
     1
 40
0.0
176
     1
 40
1.0
176
     1
 90
        0
176
     1
 62
    18
420
        0
176
     1
 90
       50
176
     1
 90
        3
176
     1
 62
     5
420
      255
176
     1
290
     0
176
     1
 90
       50
176
     1
 90
       50
176
     1
 90
       50
176
     1
290
     0
176
     1
 90
       50
176
     1
 62
   256
176
     0
 40
1.0
176
     0
 90
        2
176
     1
  1
strokes_ogs.tif
176
     1
290
     0
176
     1
 40
1.0
176
     1
 40
1.0
176
     1
  0
VISUALSTYLE
  5
2C
102
{ACAD_REACTORS
330
29
102
}
330
29
100
AcDbVisualStyle
  2
Gouraud
 70
     2
177
     3
291
     1
 70
    58
 90
        2
176
     1
 90
        2
176
     1
 90
        1
176
     1
 90
        2
176
     1
 40
0.6
176
     1
 40
30.0
176
     1
 62
     7
420
 16777215
176
     1
 90
        0
176
     1
 90
        0
176
     1
 62
     7
176
     1
 62
   257
176
     1
 90
        1
176
     1
 90
        1
176
     1
 40
1.0
176
     1
 90
        0
176
     1
 62
     7
176
     1
 40
1.0
176
     1
 90
        1
176
     1
 90
        6
176
     1
 90
        2
176
     1
 62
     7
176
     1
 90
        5
176
     1
 90
        0
176
     1
 90
        0
176
     1
290
     0
176
     1
 90
       13
176
     1
 40
0.0
176
     1
 90
        0
176
     1
290
     0
176
     1
290
     1
176
     1
290
     1
176
     1
290
     0
176
     1
290
     0
176
     1
290
     0
176
     1
290
     0
176
     1
290
     0
176
     1
290
     0
176
     1
 90
       50
176
     1
 40
0.0
176
     1
 40
1.0
176
     1
 90
        0
176
     1
 62
    18
420
        0
176
     1
 90
       50
176
     1
 90
        3
176
     1
 62
     5
420
      255
176
     1
290
     0
176
     1
 90
       50
176
     1
 90
       50
176
     1
 90
       50
176
     1
290
     0
176
     1
 90
       50
176
     1
 62
   256
176
     0
 40
1.0
176
     0
 90
        2
176
     1
  1
strokes_ogs.tif
176
     1
290
     0
176
     1
 40
1.0
176
     1
 40
1.0
176
     1
  0
VISUALSTYLE
  5
2D
102
{ACAD_REACTORS
330
29
102
}
330
29
100
AcDbVisualStyle
  2
GouraudWithEdges
 70
     3
177
     3
291
     1
 70
    58
 90
        2
176
     1
 90
        2
176
     1
 90
        1
176
     1
 90
        2
176
     1
 40
0.6
176
     1
 40
30.0
176
     1
 62
     7
420
 16777215
176
     1
 90
        1
176
     1
 90
        0
176
     1
 62
     7
176
     1
 62
   257
176
     1
 90
        1
176
     1
 90
        1
176
     1
 40
1.0
176
     1
 90
        0
176
     1
 62
   257
176
     1
 40
1.0
176
     1
 90
        1
176
     1
 90
        6
176
     1
 90
        2
176
     1
 62
     7
176
     1
 90
        5
176
     1
 90
        0
176
     1
 90
        0
176
     1
290
     0
176
     1
 90
       13
176
     1
 40
0.0
176
     1
 90
        0
176
     1
290
     0
176
     1
290
     1
176
     1
290
     1
176
     1
290
     0
176
     1
290
     0
176
     1
290
     0
176
     1
290
     0
176
     1
290
     0
176
     1
290
     0
176
     1
 90
       50
176
     1
 40
0.0
176
     1
 40
1.0
176
     1
 90
        0
176
     1
 62
    18
420
        0
176
     1
 90
       50
176
     1
 90
        3
176
     1
 62
     5
420
      255
176
     1
290
     0
176
     1
 90
       50
176
     1
 90
       50
176
     1
 90
       50
176
     1
290
     0
176
     1
 90
       50
176
     1
 62
   256
176
     0
 40
1.0
176
     0
 90
        2
176
     1
  1
strokes_ogs.tif
176
     1
290
     0
176
     1
 40
1.0
176
     1
 40
1.0
176
     1
  0
VISUALSTYLE
  5
31
102
{ACAD_REACTORS
330
29
102
}
330
29
100
AcDbVisualStyle
  2
Hidden
 70
     6
177
     3
291
     0
 70
    58
 90
        1
176
     1
 90
        2
176
     1
 90
        2
176
     1
 90
        0
176
     1
 40
0.6
176
     1
 40
30.0
176
     1
 62
     7
420
 16777215
176
     1
 90
        2
176
     1
 90
        2
176
     1
 62
     7
176
     1
 62
   257
176
     1
 90
        2
176
     1
 90
        1
176
     1
 40
40.0
176
     1
 90
        0
176
     1
 62
   257
176
     1
 40
1.0
176
     1
 90
        1
176
     1
 90
        6
176
     1
 90
        2
176
     1
 62
     7
176
     1
 90
        3
176
     1
 90
        0
176
     1
 90
        0
176
     1
290
     0
176
     1
 90
        1
176
     1
 40
0.0
176
     1
 90
        0
176
     1
290
     0
176
     1
290
     1
176
     1
290
     1
176
     1
290
     0
176
     1
290
     0
176
     1
290
     0
176
     1
290
     0
176
     1
290
     0
176
     1
290
     0
176
     1
 90
       50
176
     1
 40
0.0
176
     1
 40
1.0
176
     1
 90
        0
176
     1
 62
    18
420
        0
176
     1
 90
       50
176
     1
 90
        3
176
     1
 62
     5
420
      255
176
     1
290
     0
176
     1
 90
       50
176
     1
 90
       50
176
     1
 90
       50
176
     1
290
     0
176
     1
 90
       50
176
     1
 62
   256
176
     0
 40
1.0
176
     0
 90
        2
176
     1
  1
strokes_ogs.tif
176
     1
290
     0
176
     1
 40
1.0
176
     1
 40
1.0
176
     1
  0
VISUALSTYLE
  5
3F
102
{ACAD_REACTORS
330
29
102
}
330
29
100
AcDbVisualStyle
  2
JitterOff
 70
    20
177
     3
291
     1
 70
    58
 90
        2
176
     0
 90
        2
176
     0
 90
        0
176
     0
 90
        0
176
     0
 40
0.6
176
     0
 40
30.0
176
     0
 62
     7
420
 16777215
176
     0
 90
        1
176
     0
 90
        4
176
     0
 62
     7
176
     0
 62
   257
176
     0
 90
        1
176
     0
 90
        1
176
     0
 40
1.0
176
     0
 90
       10
176
     2
 62
     7
176
     0
 40
1.0
176
     0
 90
        1
176
     0
 90
        6
176
     0
 90
        2
176
     0
 62
     7
176
     0
 90
        5
176
     0
 90
        0
176
     0
 90
        0
176
     0
290
     0
176
     0
 90
        1
176
     0
 40
0.0
176
     0
 90
        0
176
     0
290
     0
176
     0
290
     1
176
     0
290
     1
176
     0
290
     0
176
     0
290
     0
176
     0
290
     0
176
     0
290
     0
176
     0
290
     0
176
     0
290
     0
176
     0
 90
       50
176
     0
 40
0.0
176
     0
 40
1.0
176
     0
 90
        0
176
     0
 62
    18
420
        0
176
     0
 90
       50
176
     0
 90
        3
176
     0
 62
     5
420
      255
176
     0
290
     0
176
     0
 90
       50
176
     0
 90
       50
176
     0
 90
       50
176
     0
290
     0
176
     0
 90
       50
176
     0
 62
   256
176
     0
 40
1.0
176
     0
 90
        2
176
     0
  1
strokes_ogs.tif
176
     0
290
     0
176
     0
 40
1.0
176
     0
 40
1.0
176
     0
  0
VISUALSTYLE
  5
37
102
{ACAD_REACTORS
330
29
102
}
330
29
100
AcDbVisualStyle
  2
Linepattern
 70
    14
177
     3
291
     1
 70
    58
 90
        2
176
     1
 90
        2
176
     1
 90
        0
176
     1
 90
        0
176
     1
 40
0.6
176
     1
 40
30.0
176
     1
 62
     7
420
 16777215
176
     1
 90
        1
176
     1
 90
        4
176
     1
 62
     7
176
     1
 62
   257
176
     1
 90
        7
176
     1
 90
        7
176
     1
 40
1.0
176
     1
 90
        8
176
     1
 62
     7
176
     1
 40
1.0
176
     1
 90
        1
176
     1
 90
        6
176
     1
 90
        2
176
     1
 62
     7
176
     1
 90
        5
176
     1
 90
        0
176
     1
 90
        0
176
     1
290
     0
176
     1
 90
        1
176
     1
 40
0.0
176
     1
 90
        0
176
     1
290
     0
176
     1
290
     1
176
     1
290
     1
176
     1
290
     0
176
     1
290
     0
176
     1
290
     0
176
     1
290
     0
176
     1
290
     0
176
     1
290
     0
176
     1
 90
       50
176
     1
 40
0.0
176
     1
 40
1.0
176
     1
 90
        0
176
     1
 62
    18
420
        0
176
     1
 90
       50
176
     1
 90
        3
176
     1
 62
     5
420
      255
176
     1
290
     0
176
     1
 90
       50
176
     1
 90
       50
176
     1
 90
       50
176
     1
290
     0
176
     1
 90
       50
176
     1
 62
   256
176
     0
 40
1.0
176
     0
 90
        2
176
     1
  1
strokes_ogs.tif
176
     1
290
     0
176
     1
 40
1.0
176
     1
 40
1.0
176
     1
  0
VISUALSTYLE
  5
40
102
{ACAD_REACTORS
330
29
102
}
330
29
100
AcDbVisualStyle
  2
OverhangOff
 70
    21
177
     3
291
     1
 70
    58
 90
        2
176
     0
 90
        2
176
     0
 90
        0
176
     0
 90
        0
176
     0
 40
0.6
176
     0
 40
30.0
176
     0
 62
     7
420
 16777215
176
     0
 90
        1
176
     0
 90
        4
176
     0
 62
     7
176
     0
 62
   257
176
     0
 90
        1
176
     0
 90
        1
176
     0
 40
1.0
176
     0
 90
        9
176
     2
 62
     7
176
     0
 40
1.0
176
     0
 90
        1
176
     0
 90
        6
176
     0
 90
        2
176
     0
 62
     7
176
     0
 90
        5
176
     0
 90
        0
176
     0
 90
        0
176
     0
290
     0
176
     0
 90
        1
176
     0
 40
0.0
176
     0
 90
        0
176
     0
290
     0
176
     0
290
     1
176
     0
290
     1
176
     0
290
     0
176
     0
290
     0
176
     0
290
     0
176
     0
290
     0
176
     0
290
     0
176
     0
290
     0
176
     0
 90
       50
176
     0
 40
0.0
176
     0
 40
1.0
176
     0
 90
        0
176
     0
 62
    18
420
        0
176
     0
 90
       50
176
     0
 90
        3
176
     0
 62
     5
420
      255
176
     0
290
     0
176
     0
 90
       50
176
     0
 90
       50
176
     0
 90
       50
176
     0
290
     0
176
     0
 90
       50
176
     0
 62
   256
176
     0
 40
1.0
176
     0
 90
        2
176
     0
  1
strokes_ogs.tif
176
     0
290
     0
176
     0
 40
1.0
176
     0
 40
1.0
176
     0
  0
VISUALSTYLE
  5
33
102
{ACAD_REACTORS
330
29
102
}
330
29
100
AcDbVisualStyle
  2
Realistic
 70
     8
177
     3
291
     0
 70
    58
 90
        2
176
     1
 90
        3
176
     1
 90
        0
176
     1
 90
        2
176
     1
 40
0.6
176
     1
 40
30.0
176
     1
 62
     7
420
 16777215
176
     1
 90
        0
176
     1
 90
        0
176
     1
 62
     7
176
     1
 62
   257
176
     1
 90
        1
176
     1
 90
        1
176
     1
 40
1.0
176
     1
 90
        8
176
     1
 62
   257
176
     1
 40
1.0
176
     1
 90
        1
176
     1
 90
        6
176
     1
 90
        2
176
     1
 62
     7
176
     1
 90
        3
176
     1
 90
        0
176
     1
 90
        0
176
     1
290
     0
176
     1
 90
       13
176
     1
 40
0.0
176
     1
 90
        0
176
     1
290
     0
176
     1
290
     1
176
     1
290
     1
176
     1
290
     0
176
     1
290
     0
176
     1
290
     0
176
     1
290
     0
176
     1
290
     0
176
     1
290
     0
176
     1
 90
       50
176
     1
 40
0.0
176
     1
 40
1.0
176
     1
 90
        0
176
     1
 62
    18
420
        0
176
     1
 90
       50
176
     1
 90
        3
176
     1
 62
     5
420
      255
176
     1
290
     0
176
     1
 90
       50
176
     1
 90
       50
176
     1
 90
       50
176
     1
290
     0
176
     1
 90
       50
176
     1
 62
   256
176
     0
 40
1.0
176
     0
 90
        2
176
     1
  1
strokes_ogs.tif
176
     1
290
     0
176
     1
 40
1.0
176
     1
 40
1.0
176
     1
  0
VISUALSTYLE
  5
3E
102
{ACAD_REACTORS
330
29
102
}
330
29
100
AcDbVisualStyle
  2
Shaded
 70
    27
177
     3
291
     0
 70
    58
 90
        2
176
     1
 90
        2
176
     1
 90
        1
176
     1
 90
        2
176
     1
 40
0.6
176
     1
 40
30.0
176
     1
 62
     7
420
 16777215
176
     1
 90
        0
176
     1
 90
        4
176
     1
 62
     7
176
     1
 62
   257
176
     1
 90
        1
176
     1
 90
        1
176
     1
 40
1.0
176
     1
 90
        8
176
     1
 62
   257
176
     1
 40
1.0
176
     1
 90
        1
176
     1
 90
        6
176
     1
 90
        2
176
     1
 62
     8
420
  7895160
176
     1
 90
        3
176
     1
 90
        0
176
     1
 90
        0
176
     1
290
     0
176
     1
 90
        5
176
     1
 40
0.0
176
     1
 90
        0
176
     1
290
     0
176
     1
290
     1
176
     1
290
     1
176
     1
290
     0
176
     1
290
     0
176
     1
290
     0
176
     1
290
     0
176
     1
290
     0
176
     1
290
     0
176
     1
 90
       50
176
     1
 40
0.0
176
     1
 40
1.0
176
     1
 90
        0
176
     1
 62
    18
420
        0
176
     1
 90
       50
176
     1
 90
        3
176
     1
 62
     5
420
      255
176
     1
290
     0
176
     1
 90
       50
176
     1
 90
       50
176
     1
 90
       50
176
     1
290
     0
176
     1
 90
       50
176
     1
 62
   256
176
     0
 40
1.0
176
     0
 90
        2
176
     1
  1
strokes_ogs.tif
176
     1
290
     0
176
     1
 40
1.0
176
     1
 40
1.0
176
     1
  0
VISUALSTYLE
  5
3D
102
{ACAD_REACTORS
330
29
102
}
330
29
100
AcDbVisualStyle
  2
Shaded with edges
 70
    26
177
     3
291
     0
 70
    58
 90
        2
176
     1
 90
        2
176
     1
 90
        1
176
     1
 90
        2
176
     1
 40
0.6
176
     1
 40
30.0
176
     1
 62
     7
420
 16777215
176
     1
 90
        1
176
     1
 90
        2
176
     1
 62
     7
176
     1
 62
   257
176
     1
 90
        2
176
     1
 90
        1
176
     1
 40
1.0
176
     1
 90
        8
176
     1
 62
   257
176
     1
 40
1.0
176
     1
 90
        1
176
     1
 90
        6
176
     1
 90
        2
176
     1
 62
     7
176
     1
 90
        3
176
     1
 90
        0
176
     1
 90
        0
176
     1
290
     0
176
     1
 90
        5
176
     1
 40
0.0
176
     1
 90
        0
176
     1
290
     0
176
     1
290
     1
176
     1
290
     1
176
     1
290
     0
176
     1
290
     0
176
     1
290
     0
176
     1
290
     0
176
     1
290
     0
176
     1
290
     0
176
     1
 90
       50
176
     1
 40
0.0
176
     1
 40
1.0
176
     1
 90
        0
176
     1
 62
    18
420
        0
176
     1
 90
       50
176
     1
 90
        3
176
     1
 62
     5
420
      255
176
     1
290
     0
176
     1
 90
       50
176
     1
 90
       50
176
     1
 90
       50
176
     1
290
     0
176
     1
 90
       50
176
     1
 62
   256
176
     0
 40
1.0
176
     0
 90
        2
176
     1
  1
strokes_ogs.tif
176
     1
290
     0
176
     1
 40
1.0
176
     1
 40
1.0
176
     1
  0
VISUALSTYLE
  5
3A
102
{ACAD_REACTORS
330
29
102
}
330
29
100
AcDbVisualStyle
  2
Shades of Gray
 70
    23
177
     3
291
     0
 70
    58
 90
        2
176
     1
 90
        2
176
     1
 90
        3
176
     1
 90
        0
176
     1
 40
0.6
176
     1
 40
30.0
176
     1
 62
     7
420
 16777215
176
     1
 90
        2
176
     1
 90
        2
176
     1
 62
     7
176
     1
 62
     7
176
     1
 90
        1
176
     1
 90
        1
176
     1
 40
40.0
176
     1
 90
        8
176
     1
 62
     7
176
     1
 40
1.0
176
     1
 90
        1
176
     1
 90
        6
176
     1
 90
        2
176
     1
 62
     7
176
     1
 90
        3
176
     1
 90
        0
176
     1
 90
        0
176
     1
290
     0
176
     1
 90
        1
176
     1
 40
0.0
176
     1
 90
        0
176
     1
290
     0
176
     1
290
     1
176
     1
290
     1
176
     1
290
     0
176
     1
290
     0
176
     1
290
     0
176
     1
290
     0
176
     1
290
     0
176
     1
290
     0
176
     1
 90
       50
176
     1
 40
0.0
176
     1
 40
1.0
176
     1
 90
        0
176
     1
 62
    18
420
        0
176
     1
 90
       50
176
     1
 90
        3
176
     1
 62
     5
420
      255
176
     1
290
     0
176
     1
 90
       50
176
     1
 90
       50
176
     1
 90
       50
176
     1
290
     0
176
     1
 90
       50
176
     1
 62
   256
176
     0
 40
1.0
176
     0
 90
        2
176
     1
  1
strokes_ogs.tif
176
     1
290
     0
176
     1
 40
1.0
176
     1
 40
1.0
176
     1
  0
VISUALSTYLE
  5
3B
102
{ACAD_REACTORS
330
29
102
}
330
29
100
AcDbVisualStyle
  2
Sketchy
 70
    24
177
     3
291
     0
 70
    58
 90
        1
176
     1
 90
        2
176
     1
 90
        2
176
     1
 90
        0
176
     1
 40
0.6
176
     1
 40
30.0
176
     1
 62
     7
420
 16777215
176
     1
 90
        2
176
     1
 90
        2
176
     1
 62
     7
176
     1
 62
     7
176
     1
 90
        1
176
     1
 90
        1
176
     1
 40
40.0
176
     1
 90
       11
176
     1
 62
     7
176
     1
 40
1.0
176
     1
 90
        1
176
     1
 90
        6
176
     1
 90
        2
176
     1
 62
     7
176
     1
 90
        6
176
     1
 90
        0
176
     1
 90
        0
176
     1
290
     0
176
     1
 90
        1
176
     1
 40
0.0
176
     1
 90
        0
176
     1
290
     0
176
     1
290
     1
176
     1
290
     1
176
     1
290
     0
176
     1
290
     0
176
     1
290
     0
176
     1
290
     0
176
     1
290
     0
176
     1
290
     0
176
     1
 90
       50
176
     1
 40
0.0
176
     1
 40
1.0
176
     1
 90
        0
176
     1
 62
    18
420
        0
176
     1
 90
       50
176
     1
 90
        3
176
     1
 62
     5
420
      255
176
     1
290
     0
176
     1
 90
       50
176
     1
 90
       50
176
     1
 90
       50
176
     1
290
     0
176
     1
 90
       50
176
     1
 62
   256
176
     0
 40
1.0
176
     0
 90
        2
176
     1
  1
strokes_ogs.tif
176
     1
290
     0
176
     1
 40
1.0
176
     1
 40
1.0
176
     1
  0
VISUALSTYLE
  5
36
102
{ACAD_REACTORS
330
29
102
}
330
29
100
AcDbVisualStyle
  2
Thicken
 70
    13
177
     3
291
     1
 70
    58
 90
        2
176
     1
 90
        2
176
     1
 90
        0
176
     1
 90
        0
176
     1
 40
0.6
176
     1
 40
30.0
176
     1
 62
     7
420
 16777215
176
     1
 90
        1
176
     1
 90
        4
176
     1
 62
     7
176
     1
 62
   257
176
     1
 90
        1
176
     1
 90
        1
176
     1
 40
1.0
176
     1
 90
       12
176
     1
 62
     7
176
     1
 40
1.0
176
     1
 90
        1
176
     1
 90
        6
176
     1
 90
        2
176
     1
 62
     7
176
     1
 90
        5
176
     1
 90
        0
176
     1
 90
        0
176
     1
290
     0
176
     1
 90
        1
176
     1
 40
0.0
176
     1
 90
        0
176
     1
290
     0
176
     1
290
     1
176
     1
290
     1
176
     1
290
     0
176
     1
290
     0
176
     1
290
     0
176
     1
290
     0
176
     1
290
     0
176
     1
290
     0
176
     1
 90
       50
176
     1
 40
0.0
176
     1
 40
1.0
176
     1
 90
        0
176
     1
 62
    18
420
        0
176
     1
 90
       50
176
     1
 90
        3
176
     1
 62
     5
420
      255
176
     1
290
     0
176
     1
 90
       50
176
     1
 90
       50
176
     1
 90
       50
176
     1
290
     0
176
     1
 90
       50
176
     1
 62
   256
176
     0
 40
1.0
176
     0
 90
        2
176
     1
  1
strokes_ogs.tif
176
     1
290
     0
176
     1
 40
1.0
176
     1
 40
1.0
176
     1
  0
VISUALSTYLE
  5
30
102
{ACAD_REACTORS
330
29
102
}
330
29
100
AcDbVisualStyle
  2
Wireframe
 70
     5
177
     3
291
     0
 70
    58
 90
        0
176
     1
 90
        2
176
     1
 90
        0
176
     1
 90
        0
176
     1
 40
0.6
176
     1
 40
30.0
176
     1
 62
     7
420
 16777215
176
     1
 90
        1
176
     1
 90
        4
176
     1
 62
     7
176
     1
 62
   257
176
     1
 90
        1
176
     1
 90
        1
176
     1
 40
1.0
176
     1
 90
        0
176
     1
 62
   257
176
     1
 40
1.0
176
     1
 90
        1
176
     1
 90
        6
176
     1
 90
        2
176
     1
 62
     7
176
     1
 90
        3
176
     1
 90
        0
176
     1
 90
        0
176
     1
290
     0
176
     1
 90
        1
176
     1
 40
0.0
176
     1
 90
        0
176
     1
290
     0
176
     1
290
     1
176
     1
290
     1
176
     1
290
     0
176
     1
290
     0
176
     1
290
     0
176
     1
290
     0
176
     1
290
     0
176
     1
290
     0
176
     1
 90
       50
176
     1
 40
0.0
176
     1
 40
1.0
176
     1
 90
        0
176
     1
 62
    18
420
        0
176
     1
 90
       50
176
     1
 90
        3
176
     1
 62
     5
420
      255
176
     1
290
     0
176
     1
 90
       50
176
     1
 90
       50
176
     1
 90
       50
176
     1
290
     0
176
     1
 90
       50
176
     1
 62
   256
176
     0
 40
1.0
176
     0
 90
        2
176
     1
  1
strokes_ogs.tif
176
     1
290
     0
176
     1
 40
1.0
176
     1
 40
1.0
176
     1
  0
VISUALSTYLE
  5
3C
102
{ACAD_REACTORS
330
29
102
}
330
29
100
AcDbVisualStyle
  2
X-Ray
 70
    25
177
     3
291
     0
 70
    58
 90
        2
176
     1
 90
        2
176
     1
 90
        1
176
     1
 90
        1
176
     1
 40
0.5
176
     1
 40
30.0
176
     1
 62
     7
420
 16777215
176
     1
 90
        1
176
     1
 90
        0
176
     1
 62
     7
176
     1
 62
   257
176
     1
 90
        1
176
     1
 90
        1
176
     1
 40
1.0
176
     1
 90
        8
176
     1
 62
     7
176
     1
 40
1.0
176
     1
 90
        1
176
     1
 90
        6
176
     1
 90
        2
176
     1
 62
     7
176
     1
 90
        3
176
     1
 90
        0
176
     1
 90
        0
176
     1
290
     0
176
     1
 90
       13
176
     1
 40
0.0
176
     1
 90
        0
176
     1
290
     0
176
     1
290
     1
176
     1
290
     1
176
     1
290
     0
176
     1
290
     0
176
     1
290
     0
176
     1
290
     0
176
     1
290
     0
176
     1
290
     0
176
     1
 90
       50
176
     1
 40
0.0
176
     1
 40
1.0
176
     1
 90
        0
176
     1
 62
    18
420
        0
176
     1
 90
       50
176
     1
 90
        3
176
     1
 62
     5
420
      255
176
     1
290
     0
176
     1
 90
       50
176
     1
 90
       50
176
     1
 90
       50
176
     1
290
     0
176
     1
 90
       50
176
     1
 62
   256
176
     0
 40
1.0
176
     0
 90
        2
176
     1
  1
strokes_ogs.tif
176
     1
290
     0
176
     1
 40
1.0
176
     1
 40
1.0
176
     1
  0
DICTIONARYVAR
  5
95
102
{ACAD_REACTORS
330
90
102
}
330
90
100
DictionaryVariables
280
     0
  1
1:1
  0
DICTIONARYVAR
  5
92
102
{ACAD_REACTORS
330
90
102
}
330
90
100
DictionaryVariables
280
     0
  1
STANDARD
  0
DICTIONARYVAR
  5
91
102
{ACAD_REACTORS
330
90
102
}
330
90
100
DictionaryVariables
280
     0
  1
STANDARD
  0
DICTIONARYVAR
  5
93
102
{ACAD_REACTORS
330
90
102
}
330
90
100
DictionaryVariables
280
     0
  1
Imperial24
  0
DICTIONARYVAR
  5
94
102
{ACAD_REACTORS
330
90
102
}
330
90
100
DictionaryVariables
280
     0
  1
Imperial24
  0
DICTIONARY
  5
1A
330
19
100
AcDbDictionary
280
     1
281
     1
  3
BUMPTILE
360
1C
  3
DIFFUSETILE
360
1B
  3
OPACITYTILE
360
1F
  3
REFLECTIONTILE
360
1E
  3
REFRACTIONTILE
360
20
  3
SPECULARTILE
360
1D
  0
DICTIONARY
  5
12
330
11
100
AcDbDictionary
280
     1
281
     1
  3
BUMPTILE
360
14
  3
DIFFUSETILE
360
13
  3
OPACITYTILE
360
17
  3
REFLECTIONTILE
360
16
  3
REFRACTIONTILE
360
18
  3
SPECULARTILE
360
15
  0
DICTIONARY
  5
22
330
21
100
AcDbDictionary
280
     1
281
     1
  3
BUMPTILE
360
24
  3
DIFFUSETILE
360
23
  3
OPACITYTILE
360
27
  3
REFLECTIONTILE
360
26
  3
REFRACTIONTILE
360
28
  3
SPECULARTILE
360
25
  0
DICTIONARY
  5
96
330
65
100
AcDbDictionary
280
     1
281
     1
  3
ACAD_ROUNDTRIP_2008_TABLESTYLE_CELLSTYLEMAP
360
97
  0
XRECORD
  5
1C
102
{ACAD_REACTORS
330
1A
102
}
330
1A
100
AcDbXrecord
280
     1
270
     1
271
     1
  0
XRECORD
  5
1B
102
{ACAD_REACTORS
330
1A
102
}
330
1A
100
AcDbXrecord
280
     1
270
     1
271
     1
  0
XRECORD
  5
1F
102
{ACAD_REACTORS
330
1A
102
}
330
1A
100
AcDbXrecord
280
     1
270
     1
271
     1
  0
XRECORD
  5
1E
102
{ACAD_REACTORS
330
1A
102
}
330
1A
100
AcDbXrecord
280
     1
270
     1
271
     1
  0
XRECORD
  5
20
102
{ACAD_REACTORS
330
1A
102
}
330
1A
100
AcDbXrecord
280
     1
270
     1
271
     1
  0
XRECORD
  5
1D
102
{ACAD_REACTORS
330
1A
102
}
330
1A
100
AcDbXrecord
280
     1
270
     1
271
     1
  0
XRECORD
  5
14
102
{ACAD_REACTORS
330
12
102
}
330
12
100
AcDbXrecord
280
     1
270
     1
271
     1
  0
XRECORD
  5
13
102
{ACAD_REACTORS
330
12
102
}
330
12
100
AcDbXrecord
280
     1
270
     1
271
     1
  0
XRECORD
  5
17
102
{ACAD_REACTORS
330
12
102
}
330
12
100
AcDbXrecord
280
     1
270
     1
271
     1
  0
XRECORD
  5
16
102
{ACAD_REACTORS
330
12
102
}
330
12
100
AcDbXrecord
280
     1
270
     1
271
     1
  0
XRECORD
  5
18
102
{ACAD_REACTORS
330
12
102
}
330
12
100
AcDbXrecord
280
     1
270
     1
271
     1
  0
XRECORD
  5
15
102
{ACAD_REACTORS
330
12
102
}
330
12
100
AcDbXrecord
280
     1
270
     1
271
     1
  0
XRECORD
  5
24
102
{ACAD_REACTORS
330
22
102
}
330
22
100
AcDbXrecord
280
     1
270
     1
271
     1
  0
XRECORD
  5
23
102
{ACAD_REACTORS
330
22
102
}
330
22
100
AcDbXrecord
280
     1
270
     1
271
     1
  0
XRECORD
  5
27
102
{ACAD_REACTORS
330
22
102
}
330
22
100
AcDbXrecord
280
     1
270
     1
271
     1
  0
XRECORD
  5
26
102
{ACAD_REACTORS
330
22
102
}
330
22
100
AcDbXrecord
280
     1
270
     1
271
     1
  0
XRECORD
  5
28
102
{ACAD_REACTORS
330
22
102
}
330
22
100
AcDbXrecord
280
     1
270
     1
271
     1
  0
XRECORD
  5
25
102
{ACAD_REACTORS
330
22
102
}
330
22
100
AcDbXrecord
280
     1
270
     1
271
     1
  0
CELLSTYLEMAP
  5
97
102
{ACAD_REACTORS
330
96
102
}
330
96
100
AcDbCellStyleMap
 90
        3
300
CELLSTYLE
  1
TABLEFORMAT_BEGIN
 90
        5
170
     1
 91
        0
 92
    32768
 62
   257
 93
        1
300
CONTENTFORMAT
  1
CONTENTFORMAT_BEGIN
 90
        0
 91
        0
 92
      512
 93
        0
300

 40
0.0
140
1.0
 94
        5
 62
     0
340
55
144
0.25
309
CONTENTFORMAT_END
171
     0
 94
        0
309
TABLEFORMAT_END
  1
CELLSTYLE_BEGIN
 90
        1
 91
        1
300
_TITLE
309
CELLSTYLE_END
300
CELLSTYLE
  1
TABLEFORMAT_BEGIN
 90
        5
170
     1
 91
        0
 92
        0
 62
   257
 93
        1
300
CONTENTFORMAT
  1
CONTENTFORMAT_BEGIN
 90
        0
 91
        0
 92
      512
 93
        0
300

 40
0.0
140
1.0
 94
        5
 62
     0
340
55
144
0.18
309
CONTENTFORMAT_END
171
     0
 94
        0
309
TABLEFORMAT_END
  1
CELLSTYLE_BEGIN
 90
        2
 91
        1
300
_HEADER
309
CELLSTYLE_END
300
CELLSTYLE
  1
TABLEFORMAT_BEGIN
 90
        5
170
     1
 91
        0
 92
        0
 62
   257
 93
        1
300
CONTENTFORMAT
  1
CONTENTFORMAT_BEGIN
 90
        0
 91
        0
 92
      512
 93
        0
300

 40
0.0
140
1.0
 94
        2
 62
     0
340
55
144
0.18
309
CONTENTFORMAT_END
171
     0
 94
        0
309
TABLEFORMAT_END
  1
CELLSTYLE_BEGIN
 90
        3
 91
        2
300
_DATA
309
CELLSTYLE_END
  0
ENDSEC
  0
EOF
