  0
SECTION
  2
HEADER
  9
$ACADVER
  1
AC1032
  9
$ACADMAINTVER
 90
      228
  9
$DWGCODEPAGE
  3
ANSI_1252
  9
$REQUIREDVERSIONS
160
                 0
  9
$INSBASE
 10
0.0
 20
0.0
 30
0.0
  9
$EXTMIN
 10
1.000000000000000E+20
 20
1.000000000000000E+20
 30
1.000000000000000E+20
  9
$EXTMAX
 10
-1.000000000000000E+20
 20
-1.000000000000000E+20
 30
-1.000000000000000E+20
  9
$LIMMIN
 10
0.0
 20
0.0
  9
$LIMMAX
 10
12.0
 20
9.0
  9
$ORTHOMODE
 70
     0
  9
$REGENMODE
 70
     1
  9
$FILLMODE
 70
     1
  9
$QTEXTMODE
 70
     0
  9
$MIRRTEXT
 70
     0
  9
$LTSCALE
 40
1.0
  9
$ATTMODE
 70
     1
  9
$TEXTSIZE
 40
0.2
  9
$TRACEWID
 40
0.05
  9
$TEXTSTYLE
  7
Standard
  9
$CLAYER
  8
0
  9
$CELTYPE
  6
ByLayer
  9
$CECOLOR
 62
   256
  9
$CELTSCALE
 40
1.0
  9
$DISPSILH
 70
     0
  9
$DIMSCALE
 40
1.0
  9
$DIMASZ
 40
0.18
  9
$DIMEXO
 40
0.0625
  9
$DIMDLI
 40
0.38
  9
$DIMRND
 40
0.0
  9
$DIMDLE
 40
0.0
  9
$DIMEXE
 40
0.18
  9
$DIMTP
 40
0.0
  9
$DIMTM
 40
0.0
  9
$DIMTXT
 40
0.18
  9
$DIMCEN
 40
0.09
  9
$DIMTSZ
 40
0.0
  9
$DIMTOL
 70
     0
  9
$DIMLIM
 70
     0
  9
$DIMTIH
 70
     1
  9
$DIMTOH
 70
     1
  9
$DIMSE1
 70
     0
  9
$DIMSE2
 70
     0
  9
$DIMTAD
 70
     0
  9
$DIMZIN
 70
     0
  9
$DIMBLK
  1

  9
$DIMASO
 70
     1
  9
$DIMSHO
 70
     1
  9
$DIMPOST
  1

  9
$DIMAPOST
  1

  9
$DIMALT
 70
     0
  9
$DIMALTD
 70
     2
  9
$DIMALTF
 40
25.4
  9
$DIMLFAC
 40
1.0
  9
$DIMTOFL
 70
     0
  9
$DIMTVP
 40
0.0
  9
$DIMTIX
 70
     0
  9
$DIMSOXD
 70
     0
  9
$DIMSAH
 70
     0
  9
$DIMBLK1
  1

  9
$DIMBLK2
  1

  9
$DIMSTYLE
  2
Standard
  9
$DIMCLRD
 70
     0
  9
$DIMCLRE
 70
     0
  9
$DIMCLRT
 70
     0
  9
$DIMTFAC
 40
1.0
  9
$DIMGAP
 40
0.09
  9
$DIMJUST
 70
     0
  9
$DIMSD1
 70
     0
  9
$DIMSD2
 70
     0
  9
$DIMTOLJ
 70
     1
  9
$DIMTZIN
 70
     0
  9
$DIMALTZ
 70
     0
  9
$DIMALTTZ
 70
     0
  9
$DIMUPT
 70
     0
  9
$DIMDEC
 70
     4
  9
$DIMTDEC
 70
     4
  9
$DIMALTU
 70
     2
  9
$DIMALTTD
 70
     2
  9
$DIMTXSTY
  7
Standard
  9
$DIMAUNIT
 70
     0
  9
$DIMADEC
 70
     0
  9
$DIMALTRND
 40
0.0
  9
$DIMAZIN
 70
     0
  9
$DIMDSEP
 70
    46
  9
$DIMATFIT
 70
     3
  9
$DIMFRAC
 70
     0
  9
$DIMLDRBLK
  1

  9
$DIMLUNIT
 70
     2
  9
$DIMLWD
 70
    -2
  9
$DIMLWE
 70
    -2
  9
$DIMTMOVE
 70
     0
  9
$DIMFXL
 40
1.0
  9
$DIMFXLON
 70
     0
  9
$DIMJOGANG
 40
0.7853981633974483
  9
$DIMTFILL
 70
     0
  9
$DIMTFILLCLR
 70
     0
  9
$DIMARCSYM
 70
     0
  9
$DIMLTYPE
  6

  9
$DIMLTEX1
  6

  9
$DIMLTEX2
  6

  9
$DIMTXTDIRECTION
 70
     0
  9
$LUNITS
 70
     2
  9
$LUPREC
 70
     4
  9
$SKETCHINC
 40
0.1
  9
$FILLETRAD
 40
0.0
  9
$AUNITS
 70
     0
  9
$AUPREC
 70
     0
  9
$MENU
  1
.
  9
$ELEVATION
 40
0.0
  9
$PELEVATION
 40
0.0
  9
$THICKNESS
 40
0.0
  9
$LIMCHECK
 70
     0
  9
$CHAMFERA
 40
0.0
  9
$CHAMFERB
 40
0.0
  9
$CHAMFERC
 40
0.0
  9
$CHAMFERD
 40
0.0
  9
$SKPOLY
 70
     0
  9
$TDCREATE
 40
2460390.690590278
  9
$TDUCREATE
 40
2460390.982256944
  9
$TDUPDATE
 40
2460390.690590278
  9
$TDUUPDATE
 40
2460390.982256944
  9
$TDINDWG
 40
0.0000000000
  9
$TDUSRTIMER
 40
0.0000000000
  9
$USRTIMER
 70
     1
  9
$ANGBASE
 50
0.0
  9
$ANGDIR
 70
     0
  9
$PDMODE
 70
     0
  9
$PDSIZE
 40
0.0
  9
$PLINEWID
 40
0.0
  9
$SPLFRAME
 70
     0
  9
$SPLINETYPE
 70
     6
  9
$SPLINESEGS
 70
     8
  9
$HANDSEED
  5
10D
  9
$SURFTAB1
 70
     6
  9
$SURFTAB2
 70
     6
  9
$SURFTYPE
 70
     6
  9
$SURFU
 70
     6
  9
$SURFV
 70
     6
  9
$UCSBASE
  2

  9
$UCSNAME
  2

  9
$UCSORG
 10
0.0
 20
0.0
 30
0.0
  9
$UCSXDIR
 10
1.0
 20
0.0
 30
0.0
  9
$UCSYDIR
 10
0.0
 20
1.0
 30
0.0
  9
$UCSORTHOREF
  2

  9
$UCSORTHOVIEW
 70
     0
  9
$UCSORGTOP
 10
0.0
 20
0.0
 30
0.0
  9
$UCSORGBOTTOM
 10
0.0
 20
0.0
 30
0.0
  9
$UCSORGLEFT
 10
0.0
 20
0.0
 30
0.0
  9
$UCSORGRIGHT
 10
0.0
 20
0.0
 30
0.0
  9
$UCSORGFRONT
 10
0.0
 20
0.0
 30
0.0
  9
$UCSORGBACK
 10
0.0
 20
0.0
 30
0.0
  9
$PUCSBASE
  2

  9
$PUCSNAME
  2

  9
$PUCSORG
 10
0.0
 20
0.0
 30
0.0
  9
$PUCSXDIR
 10
1.0
 20
0.0
 30
0.0
  9
$PUCSYDIR
 10
0.0
 20
1.0
 30
0.0
  9
$PUCSORTHOREF
  2

  9
$PUCSORTHOVIEW
 70
     0
  9
$PUCSORGTOP
 10
0.0
 20
0.0
 30
0.0
  9
$PUCSORGBOTTOM
 10
0.0
 20
0.0
 30
0.0
  9
$PUCSORGLEFT
 10
0.0
 20
0.0
 30
0.0
  9
$PUCSORGRIGHT
 10
0.0
 20
0.0
 30
0.0
  9
$PUCSORGFRONT
 10
0.0
 20
0.0
 30
0.0
  9
$PUCSORGBACK
 10
0.0
 20
0.0
 30
0.0
  9
$USERI1
 70
     0
  9
$USERI2
 70
     0
  9
$USERI3
 70
     0
  9
$USERI4
 70
     0
  9
$USERI5
 70
     0
  9
$USERR1
 40
0.0
  9
$USERR2
 40
0.0
  9
$USERR3
 40
0.0
  9
$USERR4
 40
0.0
  9
$USERR5
 40
0.0
  9
$WORLDVIEW
 70
     1
  9
$SHADEDGE
 70
     3
  9
$SHADEDIF
 70
    70
  9
$TILEMODE
 70
     1
  9
$MAXACTVP
 70
    64
  9
$PINSBASE
 10
0.0
 20
0.0
 30
0.0
  9
$PLIMCHECK
 70
     0
  9
$PEXTMIN
 10
1.000000000000000E+20
 20
1.000000000000000E+20
 30
1.000000000000000E+20
  9
$PEXTMAX
 10
-1.000000000000000E+20
 20
-1.000000000000000E+20
 30
-1.000000000000000E+20
  9
$PLIMMIN
 10
0.0
 20
0.0
  9
$PLIMMAX
 10
12.0
 20
9.0
  9
$UNITMODE
 70
     0
  9
$VISRETAIN
 70
     1
  9
$PLINEGEN
 70
     0
  9
$PSLTSCALE
 70
     1
  9
$TREEDEPTH
 70
  3020
  9
$CMLSTYLE
  2
Standard
  9
$CMLJUST
 70
     0
  9
$CMLSCALE
 40
1.0
  9
$PROXYGRAPHICS
 70
     1
  9
$MEASUREMENT
 70
     0
  9
$CELWEIGHT
370
    -1
  9
$ENDCAPS
280
     0
  9
$JOINSTYLE
280
     0
  9
$LWDISPLAY
290
     1
  9
$INSUNITS
 70
     1
  9
$HYPERLINKBASE
  1

  9
$STYLESHEET
  1

  9
$XEDIT
290
     1
  9
$CEPSNTYPE
380
     0
  9
$PSTYLEMODE
290
     1
  9
$FINGERPRINTGUID
  2
{D238067B-3644-1B4E-B805-B8D8538126A2}
  9
$VERSIONGUID
  2
{0731EC37-3A39-E447-B970-72D1C7A8D7E7}
  9
$EXTNAMES
290
     1
  9
$PSVPSCALE
 40
0.0
  9
$OLESTARTUP
290
     0
  9
$SORTENTS
280
   127
  9
$INDEXCTL
280
     0
  9
$HIDETEXT
280
     1
  9
$XCLIPFRAME
280
     2
  9
$HALOGAP
280
     0
  9
$OBSCOLOR
 70
   257
  9
$OBSLTYPE
280
     0
  9
$INTERSECTIONDISPLAY
280
     0
  9
$INTERSECTIONCOLOR
 70
   257
  9
$DIMASSOC
280
     2
  9
$PROJECTNAME
  1

  9
$CAMERADISPLAY
290
     0
  9
$LENSLENGTH
 40
50.0
  9
$CAMERAHEIGHT
 40
0.0
  9
$STEPSPERSEC
 40
2.0
  9
$STEPSIZE
 40
6.0
  9
$3DDWFPREC
 40
2.0
  9
$PSOLWIDTH
 40
0.25
  9
$PSOLHEIGHT
 40
4.0
  9
$LOFTANG1
 40
1.570796326794896
  9
$LOFTANG2
 40
1.570796326794896
  9
$LOFTMAG1
 40
0.0
  9
$LOFTMAG2
 40
0.0
  9
$LOFTPARAM
 70
     7
  9
$LOFTNORMALS
280
     1
  9
$LATITUDE
 40
37.795
  9
$LONGITUDE
 40
-122.394
  9
$NORTHDIRECTION
 40
0.0
  9
$TIMEZONE
 70
 -8000
  9
$LIGHTGLYPHDISPLAY
280
     1
  9
$TILEMODELIGHTSYNCH
280
     1
  9
$CMATERIAL
347
11
  9
$SOLIDHIST
280
     0
  9
$SHOWHIST
280
     1
  9
$DWFFRAME
280
     2
  9
$DGNFRAME
280
     0
  9
$REALWORLDSCALE
290
     1
  9
$INTERFERECOLOR
 62
     1
  9
$INTERFEREOBJVS
345
33
  9
$INTERFEREVPVS
346
30
  9
$CSHADOW
280
     0
  9
$SHADOWPLANELOCATION
 40
0.0
  0
ENDSEC
  0
SECTION
  2
CLASSES
  0
CLASS
  1
ACDBDICTIONARYWDFLT
  2
AcDbDictionaryWithDefault
  3
ObjectDBX Classes
 90
        0
 91
        1
280
     0
281
     0
  0
CLASS
  1
MATERIAL
  2
AcDbMaterial
  3
ObjectDBX Classes
 90
     1153
 91
        3
280
     0
281
     0
  0
CLASS
  1
VISUALSTYLE
  2
AcDbVisualStyle
  3
ObjectDBX Classes
 90
     4095
 91
       24
280
     0
281
     0
  0
CLASS
  1
SCALE
  2
AcDbScale
  3
ObjectDBX Classes
 90
     1153
 91
       17
280
     0
281
     0
  0
CLASS
  1
TABLESTYLE
  2
AcDbTableStyle
  3
ObjectDBX Classes
 90
     4095
 91
        1
280
     0
281
     0
  0
CLASS
  1
MLEADERSTYLE
  2
AcDbMLeaderStyle
  3
ACDB_MLEADERSTYLE_CLASS
 90
     4095
 91
        1
280
     0
281
     0
  0
CLASS
  1
ACDBSECTIONVIEWSTYLE
  2
AcDbSectionViewStyle
  3
ObjectDBX Classes
 90
     1025
 91
        1
280
     0
281
     0
  0
CLASS
  1
ACDBDETAILVIEWSTYLE
  2
AcDbDetailViewStyle
  3
ObjectDBX Classes
 90
     1025
 91
        1
280
     0
281
     0
  0
CLASS
  1
DICTIONARYVAR
  2
AcDbDictionaryVar
  3
ObjectDBX Classes
 90
        0
 91
        5
280
     0
281
     0
  0
CLASS
  1
CELLSTYLEMAP
  2
AcDbCellStyleMap
  3
ObjectDBX Classes
 90
     1152
 91
        1
280
     0
281
     0
  0
ENDSEC
  0
SECTION
  2
TABLES
  0
TABLE
  2
VPORT
  5
8
330
0
100
AcDbSymbolTable
 70
     1
  0
VPORT
  5
57
330
8
100
AcDbSymbolTableRecord
100
AcDbViewportTableRecord
  2
*Active
 70
     0
 10
0.0
 20
0.0
 11
1.0
 21
1.0
 12
0.0
 22
0.0
 13
0.0
 23
0.0
 14
1.0
 24
1.0
 15
0.0
 25
0.0
 16
0.0
 26
0.0
 36
1.0
 17
0.9063715204259157
 27
-9.464948306989613
 37
0.0
 40
28.18769568220836
 41
1.322120462652983
 42
50.0
 43
0.0
 44
0.0
 50
0.0
 51
0.0
 71
     0
 72
   100
 73
     1
 74
     1
 75
     0
 76
     0
 77
     0
 78
     0
281
     0
 65
     1
110
0.0
120
0.0
130
0.0
111
1.0
121
0.0
131
0.0
112
0.0
122
1.0
132
0.0
 79
     0
146
0.0
 60
     3
 61
     5
292
     1
282
     1
141
0.0
142
0.0
 63
   250
421
  3355443
  0
ENDTAB
  0
TABLE
  2
LTYPE
  5
5
330
0
100
AcDbSymbolTable
 70
     1
  0
LTYPE
  5
5B
330
5
100
AcDbSymbolTableRecord
100
AcDbLinetypeTableRecord
  2
ByBlock
 70
     0
  3

 72
    65
 73
     0
 40
0.0
  0
LTYPE
  5
5C
330
5
100
AcDbSymbolTableRecord
100
AcDbLinetypeTableRecord
  2
ByLayer
 70
     0
  3

 72
    65
 73
     0
 40
0.0
  0
LTYPE
  5
5D
330
5
100
AcDbSymbolTableRecord
100
AcDbLinetypeTableRecord
  2
Continuous
 70
     0
  3
Solid line
 72
    65
 73
     0
 40
0.0
  0
ENDTAB
  0
TABLE
  2
LAYER
  5
2
330
0
100
AcDbSymbolTable
 70
     7
  0
LAYER
  5
54
330
2
100
AcDbSymbolTableRecord
100
AcDbLayerTableRecord
  2
0
 70
     0
 62
     7
  6
Continuous
370
    -3
390
F
347
21
348
0
  0
LAYER
  5
78
330
2
100
AcDbSymbolTableRecord
100
AcDbLayerTableRecord
  2
Luffy
 70
     1
 62
     7
  6
Continuous
370
     0
390
F
347
21
348
0
  0
LAYER
  5
79
330
2
100
AcDbSymbolTableRecord
100
AcDbLayerTableRecord
  2
Deck Box - DF
 70
     0
 62
     7
  6
Continuous
370
     0
390
F
347
21
348
0
  0
LAYER
  5
100
330
2
100
AcDbSymbolTableRecord
100
AcDbLayerTableRecord
  2
Deck Box - G5
 70
     1
 62
     7
  6
Continuous
370
     0
390
F
347
21
348
0
  0
LAYER
  5
101
330
2
100
AcDbSymbolTableRecord
100
AcDbLayerTableRecord
  2
Poneglyph
 70
     1
 62
     7
  6
Continuous
370
     0
390
F
347
21
348
0
  0
LAYER
  5
102
330
2
100
AcDbSymbolTableRecord
100
AcDbLayerTableRecord
  2
Crocodile
 70
     1
 62
     7
  6
Continuous
370
     0
390
F
347
21
348
0
  0
LAYER
  5
103
330
2
100
AcDbSymbolTableRecord
100
AcDbLayerTableRecord
  2
Layer 2
 70
     5
 62
     7
  6
Continuous
370
     0
390
F
347
21
348
0
  0
ENDTAB
  0
TABLE
  2
STYLE
  5
3
330
0
100
AcDbSymbolTable
 70
     2
  0
STYLE
  5
55
330
3
100
AcDbSymbolTableRecord
100
AcDbTextStyleTableRecord
  2
Standard
 70
     0
 40
0.0
 41
1.0
 50
0.0
 71
     0
 42
0.2
  3
txt
  4

  0
STYLE
  5
5A
330
3
100
AcDbSymbolTableRecord
100
AcDbTextStyleTableRecord
  2
Annotative
 70
     0
 40
0.0
 41
1.0
 50
0.0
 71
     0
 42
0.2
  3
txt
  4

1001
AcadAnnotative
1000
AnnotativeData
1002
{
1070
     1
1070
     1
1002
}
  0
ENDTAB
  0
TABLE
  2
VIEW
  5
6
330
0
100
AcDbSymbolTable
 70
     0
  0
ENDTAB
  0
TABLE
  2
UCS
  5
7
330
0
100
AcDbSymbolTable
 70
     0
  0
ENDTAB
  0
TABLE
  2
APPID
  5
9
330
0
100
AcDbSymbolTable
 70
     2
  0
APPID
  5
56
330
9
100
AcDbSymbolTableRecord
100
AcDbRegAppTableRecord
  2
ACAD
 70
     0
  0
APPID
  5
5E
330
9
100
AcDbSymbolTableRecord
100
AcDbRegAppTableRecord
  2
AcadAnnotative
 70
     0
  0
ENDTAB
  0
TABLE
  2
DIMSTYLE
  5
A
330
0
100
AcDbSymbolTable
 70
     2
100
AcDbDimStyleTable
 71
     0
  0
DIMSTYLE
105
58
330
A
100
AcDbSymbolTableRecord
100
AcDbDimStyleTableRecord
  2
Standard
 70
     0
340
55
  0
DIMSTYLE
105
59
330
A
100
AcDbSymbolTableRecord
100
AcDbDimStyleTableRecord
  2
Annotative
 70
     0
340
55
1001
AcadAnnotative
1000
AnnotativeData
1002
{
1070
     1
1070
     1
1002
}
  0
ENDTAB
  0
TABLE
  2
BLOCK_RECORD
  5
1
330
0
100
AcDbSymbolTable
 70
     2
  0
BLOCK_RECORD
  5
70
330
1
100
AcDbSymbolTableRecord
100
AcDbBlockTableRecord
  2
*Model_Space
340
73
 70
     0
280
     1
281
     0
  0
BLOCK_RECORD
  5
6C
330
1
100
AcDbSymbolTableRecord
100
AcDbBlockTableRecord
  2
*Paper_Space
340
6F
 70
     0
280
     1
281
     0
  0
BLOCK_RECORD
  5
74
330
1
100
AcDbSymbolTableRecord
100
AcDbBlockTableRecord
  2
*Paper_Space0
340
77
 70
     0
280
     1
281
     0
  0
BLOCK_RECORD
  5
7C
330
1
100
AcDbSymbolTableRecord
100
AcDbBlockTableRecord
  2
Block_0
340
0
102
{BLKREFS
331
7D
102
}
 70
     0
280
     1
281
     0
  0
ENDTAB
  0
ENDSEC
  0
SECTION
  2
BLOCKS
  0
BLOCK
  5
71
330
70
100
AcDbEntity
  8
0
100
AcDbBlockBegin
  2
*Model_Space
 70
     0
 10
0.0
 20
0.0
 30
0.0
  3
*Model_Space
  1

  0
ENDBLK
  5
72
330
70
100
AcDbEntity
  8
0
100
AcDbBlockEnd
  0
BLOCK
  5
6D
330
6C
100
AcDbEntity
 67
     1
  8
0
100
AcDbBlockBegin
  2
*Paper_Space
 70
     0
 10
0.0
 20
0.0
 30
0.0
  3
*Paper_Space
  1

  0
ENDBLK
  5
6E
330
6C
100
AcDbEntity
 67
     1
  8
0
100
AcDbBlockEnd
  0
BLOCK
  5
75
330
74
100
AcDbEntity
 67
     1
  8
0
100
AcDbBlockBegin
  2
*Paper_Space0
 70
     0
 10
0.0
 20
0.0
 30
0.0
  3
*Paper_Space0
  1

  0
ENDBLK
  5
76
330
74
100
AcDbEntity
 67
     1
  8
0
100
AcDbBlockEnd
  0
BLOCK
  5
7E
330
7C
100
AcDbEntity
  8
0
100
AcDbBlockBegin
  2
Block_0
 70
     0
 10
0.0
 20
0.0
 30
0.0
  3
Block_0
  1

  0
SPLINE
  5
80
330
7C
100
AcDbEntity
  8
Deck Box - DF
100
AcDbSpline
210
0.0
220
0.0
230
1.0
 70
     9
 71
     3
 72
    89
 73
    85
 74
     0
 42
0.0000000001
 43
0.0000000001
 40
0.0
 40
0.0
 40
0.0
 40
0.0
 40
1.0
 40
1.0
 40
1.0
 40
2.0
 40
2.0
 40
2.0
 40
3.0
 40
3.0
 40
3.0
 40
4.0
 40
4.0
 40
4.0
 40
5.0
 40
5.0
 40
5.0
 40
6.0
 40
6.0
 40
6.0
 40
7.0
 40
7.0
 40
7.0
 40
8.0
 40
8.0
 40
8.0
 40
9.0
 40
9.0
 40
9.0
 40
10.0
 40
10.0
 40
10.0
 40
11.0
 40
11.0
 40
11.0
 40
12.0
 40
12.0
 40
12.0
 40
13.0
 40
13.0
 40
13.0
 40
14.0
 40
14.0
 40
14.0
 40
15.0
 40
15.0
 40
15.0
 40
16.0
 40
16.0
 40
16.0
 40
17.0
 40
17.0
 40
17.0
 40
18.0
 40
18.0
 40
18.0
 40
19.0
 40
19.0
 40
19.0
 40
20.0
 40
20.0
 40
20.0
 40
21.0
 40
21.0
 40
21.0
 40
22.0
 40
22.0
 40
22.0
 40
23.0
 40
23.0
 40
23.0
 40
24.0
 40
24.0
 40
24.0
 40
25.0
 40
25.0
 40
25.0
 40
26.0
 40
26.0
 40
26.0
 40
27.0
 40
27.0
 40
27.0
 40
28.0
 40
28.0
 40
28.0
 40
28.0
 10
3.460459391276041
 20
-2.211739434136284
 30
0.0
 10
3.505627102322048
 20
-2.187098185221354
 30
0.0
 10
3.470515780978732
 20
-2.091346740722656
 30
0.0
 10
3.43212890625
 20
-2.145072937011718
 30
0.0
 10
3.428585476345485
 20
-2.165397644042968
 30
0.0
 10
3.417599148220485
 20
-2.131713019476996
 30
0.0
 10
3.431438869900173
 20
-2.129915873209635
 30
0.0
 10
3.545794169108072
 20
-2.089203728569878
 30
0.0
 10
3.492222256130641
 20
-2.375914679633246
 30
0.0
 10
3.305528428819444
 20
-2.113524542914496
 30
0.0
 10
3.374226888020833
 20
-2.100890265570746
 30
0.0
 10
3.432427300347221
 20
-2.039509243435329
 30
0.0
 10
3.323464287651909
 20
-1.930357191297742
 30
0.0
 10
3.248563130696614
 20
-1.87936062282986
 30
0.0
 10
3.119837443033854
 20
-1.90531497531467
 30
0.0
 10
3.099979824490017
 20
-1.995201958550347
 30
0.0
 10
3.15793948703342
 20
-2.305703904893662
 30
0.0
 10
2.877000596788194
 20
-2.144125196668836
 30
0.0
 10
3.025661892361111
 20
-2.086229960123697
 30
0.0
 10
3.032580057779947
 20
-2.092947218153211
 30
0.0
 10
3.046445210774739
 20
-2.109594557020399
 30
0.0
 10
3.029662238226996
 20
-2.101336161295572
 30
0.0
 10
2.897724575466579
 20
-2.144039577907986
 30
0.0
 10
3.136082119411891
 20
-2.219641791449652
 30
0.0
 10
3.095472547743055
 20
-2.08797370062934
 30
0.0
 10
3.048446655273437
 20
-2.042361789279513
 30
0.0
 10
3.01171875
 20
-2.025059170193142
 30
0.0
 10
2.984805636935763
 20
-2.025640699598524
 30
0.0
 10
3.026403639051649
 20
-1.970208909776475
 30
0.0
 10
3.001168145073784
 20
-1.865027533637152
 30
0.0
 10
3.043167961968315
 20
-1.796972486707899
 30
0.0
 10
3.096118503146701
 20
-1.76090833875868
 30
0.0
 10
3.17928738064236
 20
-1.831720140245225
 30
0.0
 10
3.099320305718315
 20
-1.861296759711371
 30
0.0
 10
3.088021172417534
 20
-1.871877034505208
 30
0.0
 10
3.070553249782986
 20
-1.847802056206597
 30
0.0
 10
3.0884034898546
 20
-1.853962368435329
 30
0.0
 10
3.156447516547308
 20
-1.846377902560763
 30
0.0
 10
3.109586079915364
 20
-1.774748060438367
 30
0.0
 10
3.058569166395399
 20
-1.800894843207465
 30
0.0
 10
2.897311740451388
 20
-2.006983439127604
 30
0.0
 10
3.36719004313151
 20
-1.905216640896267
 30
0.0
 10
3.132235209147135
 20
-1.738147311740451
 30
0.0
 10
2.872133043077256
 20
-1.699849446614583
 30
0.0
 10
2.943168640136718
 20
-1.852378845214843
 30
0.0
 10
2.934363471137152
 20
-1.946286519368489
 30
0.0
 10
2.933913336859808
 20
-1.938347710503472
 30
0.0
 10
2.931702507866753
 20
-1.929339090983072
 30
0.0
 10
2.927235921223958
 20
-1.919153849283853
 30
0.0
 10
2.922184414333767
 20
-1.911793178982204
 30
0.0
 10
2.917279561360676
 20
-1.905510796440972
 30
0.0
 10
2.912529839409721
 20
-1.900147332085503
 30
0.0
 10
2.912529839409721
 20
-1.900147332085503
 30
0.0
 10
2.912529839409721
 20
-1.986214531792534
 30
0.0
 10
2.912529839409721
 20
-1.986214531792534
 30
0.0
 10
2.920210944281683
 20
-1.981834411621093
 30
0.0
 10
2.926589965820312
 20
-1.975764804416232
 30
0.0
 10
2.930451287163628
 20
-1.967775132921006
 30
0.0
 10
2.927049424913194
 20
-1.979321797688801
 30
0.0
 10
2.921442667643228
 20
-1.989332411024305
 30
0.0
 10
2.912529839409721
 20
-1.997139824761284
 30
0.0
 10
2.912529839409721
 20
-1.997139824761284
 30
0.0
 10
2.912529839409721
 20
-2.073997497558593
 30
0.0
 10
2.912529839409721
 20
-2.073997497558593
 30
0.0
 10
2.97330813937717
 20
-2.143675062391492
 30
0.0
 10
2.928942362467447
 20
-2.356138441297742
 30
0.0
 10
3.176604376898871
 20
-2.174595303005642
 30
0.0
 10
3.184683057996961
 20
-1.810938517252603
 30
0.0
 10
3.391586303710937
 20
-2.0392091539171
 30
0.0
 10
3.278006659613715
 20
-2.057915581597222
 30
0.0
 10
3.26536136203342
 20
-2.067259046766492
 30
0.0
 10
3.249660068088107
 20
-2.037762112087673
 30
0.0
 10
3.267445034450954
 20
-2.047862582736545
 30
0.0
 10
3.338171217176649
 20
-2.052598741319444
 30
0.0
 10
3.296708848741319
 20
-1.965813530815972
 30
0.0
 10
3.241751776801215
 20
-1.984498765733506
 30
0.0
 10
3.147117614746093
 20
-2.083147684733072
 30
0.0
 10
3.229323493109808
 20
-2.125929090711805
 30
0.0
 10
3.302388509114583
 20
-2.114078945583767
 30
0.0
 10
3.257327609592013
 20
-2.290860493977864
 30
0.0
 10
3.499451531304253
 20
-2.427441914876301
 30
0.0
 10
3.545722113715277
 20
-2.195242987738715
 30
0.0
 10
3.523474799262152
 20
-1.862010531955295
 30
0.0
 10
3.21883307562934
 20
-2.195265028211805
 30
0.0
 10
3.460459391276041
 20
-2.211739434136284
 30
0.0
  0
HATCH
  5
81
330
7C
100
AcDbEntity
  8
Deck Box - DF
 62
   250
420
  2301728
440
 33554687
100
AcDbHatch
 10
0.0
 20
0.0
 30
0.0
210
0.0
220
0.0
230
1.0
  2
SOLID
 70
     1
 71
     1
 91
        1
 92
        1
 93
        1
 72
     4
 94
        3
 73
     0
 74
     0
 95
       89
 96
       85
 40
0.0
 40
0.0
 40
0.0
 40
0.0
 40
1.0
 40
1.0
 40
1.0
 40
2.0
 40
2.0
 40
2.0
 40
3.0
 40
3.0
 40
3.0
 40
4.0
 40
4.0
 40
4.0
 40
5.0
 40
5.0
 40
5.0
 40
6.0
 40
6.0
 40
6.0
 40
7.0
 40
7.0
 40
7.0
 40
8.0
 40
8.0
 40
8.0
 40
9.0
 40
9.0
 40
9.0
 40
10.0
 40
10.0
 40
10.0
 40
11.0
 40
11.0
 40
11.0
 40
12.0
 40
12.0
 40
12.0
 40
13.0
 40
13.0
 40
13.0
 40
14.0
 40
14.0
 40
14.0
 40
15.0
 40
15.0
 40
15.0
 40
16.0
 40
16.0
 40
16.0
 40
17.0
 40
17.0
 40
17.0
 40
18.0
 40
18.0
 40
18.0
 40
19.0
 40
19.0
 40
19.0
 40
20.0
 40
20.0
 40
20.0
 40
21.0
 40
21.0
 40
21.0
 40
22.0
 40
22.0
 40
22.0
 40
23.0
 40
23.0
 40
23.0
 40
24.0
 40
24.0
 40
24.0
 40
25.0
 40
25.0
 40
25.0
 40
26.0
 40
26.0
 40
26.0
 40
27.0
 40
27.0
 40
27.0
 40
28.0
 40
28.0
 40
28.0
 40
28.0
 10
3.460459391276041
 20
-2.211739434136284
 10
3.505627102322048
 20
-2.187098185221354
 10
3.470515780978732
 20
-2.091346740722656
 10
3.43212890625
 20
-2.145072937011718
 10
3.428585476345485
 20
-2.165397644042968
 10
3.417599148220485
 20
-2.131713019476996
 10
3.431438869900173
 20
-2.129915873209635
 10
3.545794169108072
 20
-2.089203728569878
 10
3.492222256130641
 20
-2.375914679633246
 10
3.305528428819444
 20
-2.113524542914496
 10
3.374226888020833
 20
-2.100890265570746
 10
3.432427300347221
 20
-2.039509243435329
 10
3.323464287651909
 20
-1.930357191297742
 10
3.248563130696614
 20
-1.87936062282986
 10
3.119837443033854
 20
-1.90531497531467
 10
3.099979824490017
 20
-1.995201958550347
 10
3.15793948703342
 20
-2.305703904893662
 10
2.877000596788194
 20
-2.144125196668836
 10
3.025661892361111
 20
-2.086229960123697
 10
3.032580057779947
 20
-2.092947218153211
 10
3.046445210774739
 20
-2.109594557020399
 10
3.029662238226996
 20
-2.101336161295572
 10
2.897724575466579
 20
-2.144039577907986
 10
3.136082119411891
 20
-2.219641791449652
 10
3.095472547743055
 20
-2.08797370062934
 10
3.048446655273437
 20
-2.042361789279513
 10
3.01171875
 20
-2.025059170193142
 10
2.984805636935763
 20
-2.025640699598524
 10
3.026403639051649
 20
-1.970208909776475
 10
3.001168145073784
 20
-1.865027533637152
 10
3.043167961968315
 20
-1.796972486707899
 10
3.096118503146701
 20
-1.76090833875868
 10
3.17928738064236
 20
-1.831720140245225
 10
3.099320305718315
 20
-1.861296759711371
 10
3.088021172417534
 20
-1.871877034505208
 10
3.070553249782986
 20
-1.847802056206597
 10
3.0884034898546
 20
-1.853962368435329
 10
3.156447516547308
 20
-1.846377902560763
 10
3.109586079915364
 20
-1.774748060438367
 10
3.058569166395399
 20
-1.800894843207465
 10
2.897311740451388
 20
-2.006983439127604
 10
3.36719004313151
 20
-1.905216640896267
 10
3.132235209147135
 20
-1.738147311740451
 10
2.872133043077256
 20
-1.699849446614583
 10
2.943168640136718
 20
-1.852378845214843
 10
2.934363471137152
 20
-1.946286519368489
 10
2.933913336859808
 20
-1.938347710503472
 10
2.931702507866753
 20
-1.929339090983072
 10
2.927235921223958
 20
-1.919153849283853
 10
2.922184414333767
 20
-1.911793178982204
 10
2.917279561360676
 20
-1.905510796440972
 10
2.912529839409721
 20
-1.900147332085503
 10
2.912529839409721
 20
-1.900147332085503
 10
2.912529839409721
 20
-1.986214531792534
 10
2.912529839409721
 20
-1.986214531792534
 10
2.920210944281683
 20
-1.981834411621093
 10
2.926589965820312
 20
-1.975764804416232
 10
2.930451287163628
 20
-1.967775132921006
 10
2.927049424913194
 20
-1.979321797688801
 10
2.921442667643228
 20
-1.989332411024305
 10
2.912529839409721
 20
-1.997139824761284
 10
2.912529839409721
 20
-1.997139824761284
 10
2.912529839409721
 20
-2.073997497558593
 10
2.912529839409721
 20
-2.073997497558593
 10
2.97330813937717
 20
-2.143675062391492
 10
2.928942362467447
 20
-2.356138441297742
 10
3.176604376898871
 20
-2.174595303005642
 10
3.184683057996961
 20
-1.810938517252603
 10
3.391586303710937
 20
-2.0392091539171
 10
3.278006659613715
 20
-2.057915581597222
 10
3.26536136203342
 20
-2.067259046766492
 10
3.249660068088107
 20
-2.037762112087673
 10
3.267445034450954
 20
-2.047862582736545
 10
3.338171217176649
 20
-2.052598741319444
 10
3.296708848741319
 20
-1.965813530815972
 10
3.241751776801215
 20
-1.984498765733506
 10
3.147117614746093
 20
-2.083147684733072
 10
3.229323493109808
 20
-2.125929090711805
 10
3.302388509114583
 20
-2.114078945583767
 10
3.257327609592013
 20
-2.290860493977864
 10
3.499451531304253
 20
-2.427441914876301
 10
3.545722113715277
 20
-2.195242987738715
 10
3.523474799262152
 20
-1.862010531955295
 10
3.21883307562934
 20
-2.195265028211805
 10
3.460459391276041
 20
-2.211739434136284
 97
        0
 97
        1
330
80
 75
     2
 76
     1
 98
        1
 10
0.0
 20
0.0
450
        0
451
        0
460
0.0
461
0.0
452
        0
462
0.0
453
        0
470

  0
SPLINE
  5
82
330
7C
100
AcDbEntity
  8
Deck Box - DF
100
AcDbSpline
210
0.0
220
0.0
230
1.0
 70
     9
 71
     3
 72
    11
 73
     7
 74
     0
 42
0.0000000001
 43
0.0000000001
 40
0.0
 40
0.0
 40
0.0
 40
0.0
 40
1.0
 40
1.0
 40
1.0
 40
2.0
 40
2.0
 40
2.0
 40
2.0
 10
3.211674160427516
 20
-2.310539245605468
 30
0.0
 10
3.307862175835503
 20
-2.266454908582899
 30
0.0
 10
3.185875786675346
 20
-2.257166544596354
 30
0.0
 10
3.147159152560763
 20
-2.289240519205729
 30
0.0
 10
3.190470377604166
 20
-2.214323255750867
 30
0.0
 10
3.325080871582031
 20
-2.299484252929687
 30
0.0
 10
3.211674160427516
 20
-2.310539245605468
 30
0.0
  0
SPLINE
  5
83
330
7C
100
AcDbEntity
  8
Deck Box - DF
100
AcDbSpline
210
0.0
220
0.0
230
1.0
 70
     9
 71
     3
 72
    23
 73
    19
 74
     0
 42
0.0000000001
 43
0.0000000001
 40
0.0
 40
0.0
 40
0.0
 40
0.0
 40
1.0
 40
1.0
 40
1.0
 40
2.0
 40
2.0
 40
2.0
 40
3.0
 40
3.0
 40
3.0
 40
4.0
 40
4.0
 40
4.0
 40
5.0
 40
5.0
 40
5.0
 40
6.0
 40
6.0
 40
6.0
 40
6.0
 10
3.057450188530815
 20
-2.397162543402777
 30
0.0
 10
3.057450188530815
 20
-2.397162543402777
 30
0.0
 10
3.140189276801215
 20
-2.397162543402777
 30
0.0
 10
3.140189276801215
 20
-2.397162543402777
 30
0.0
 10
3.133673773871527
 20
-2.36357201470269
 30
0.0
 10
3.133285522460937
 20
-2.337386237250433
 30
0.0
 10
3.137142605251735
 20
-2.317378573947482
 30
0.0
 10
3.138600667317708
 20
-2.32259284125434
 30
0.0
 10
3.141620212131076
 20
-2.328248765733506
 30
0.0
 10
3.146551344129774
 20
-2.334362453884548
 30
0.0
 10
3.176649305555555
 20
-2.37233649359809
 30
0.0
 10
3.249975416395399
 20
-2.367603725857204
 30
0.0
 10
3.305199517144096
 20
-2.326151529947916
 30
0.0
 10
3.400810241699218
 20
-2.208534240722656
 30
0.0
 10
3.117563883463541
 20
-2.174012078179253
 30
0.0
 10
3.048657735188801
 20
-2.294274224175346
 30
0.0
 10
3.02740732828776
 20
-2.330121358235676
 30
0.0
 10
3.058834499782986
 20
-2.364223904079861
 30
0.0
 10
3.057450188530815
 20
-2.397162543402777
 30
0.0
  0
HATCH
  5
84
330
7C
100
AcDbEntity
  8
Deck Box - DF
 62
   250
420
  2301728
440
 33554687
100
AcDbHatch
 10
0.0
 20
0.0
 30
0.0
210
0.0
220
0.0
230
1.0
  2
SOLID
 70
     1
 71
     1
 91
        2
 92
        1
 93
        1
 72
     4
 94
        3
 73
     0
 74
     0
 95
       11
 96
        7
 40
0.0
 40
0.0
 40
0.0
 40
0.0
 40
1.0
 40
1.0
 40
1.0
 40
2.0
 40
2.0
 40
2.0
 40
2.0
 10
3.211674160427516
 20
-2.310539245605468
 10
3.307862175835503
 20
-2.266454908582899
 10
3.185875786675346
 20
-2.257166544596354
 10
3.147159152560763
 20
-2.289240519205729
 10
3.190470377604166
 20
-2.214323255750867
 10
3.325080871582031
 20
-2.299484252929687
 10
3.211674160427516
 20
-2.310539245605468
 97
        0
 97
        1
330
82
 92
        1
 93
        1
 72
     4
 94
        3
 73
     0
 74
     0
 95
       23
 96
       19
 40
0.0
 40
0.0
 40
0.0
 40
0.0
 40
1.0
 40
1.0
 40
1.0
 40
2.0
 40
2.0
 40
2.0
 40
3.0
 40
3.0
 40
3.0
 40
4.0
 40
4.0
 40
4.0
 40
5.0
 40
5.0
 40
5.0
 40
6.0
 40
6.0
 40
6.0
 40
6.0
 10
3.057450188530815
 20
-2.397162543402777
 10
3.057450188530815
 20
-2.397162543402777
 10
3.140189276801215
 20
-2.397162543402777
 10
3.140189276801215
 20
-2.397162543402777
 10
3.133673773871527
 20
-2.36357201470269
 10
3.133285522460937
 20
-2.337386237250433
 10
3.137142605251735
 20
-2.317378573947482
 10
3.138600667317708
 20
-2.32259284125434
 10
3.141620212131076
 20
-2.328248765733506
 10
3.146551344129774
 20
-2.334362453884548
 10
3.176649305555555
 20
-2.37233649359809
 10
3.249975416395399
 20
-2.367603725857204
 10
3.305199517144096
 20
-2.326151529947916
 10
3.400810241699218
 20
-2.208534240722656
 10
3.117563883463541
 20
-2.174012078179253
 10
3.048657735188801
 20
-2.294274224175346
 10
3.02740732828776
 20
-2.330121358235676
 10
3.058834499782986
 20
-2.364223904079861
 10
3.057450188530815
 20
-2.397162543402777
 97
        0
 97
        1
330
83
 75
     2
 76
     1
 98
        1
 10
0.0
 20
0.0
450
        0
451
        0
460
0.0
461
0.0
452
        0
462
0.0
453
        0
470

  0
SPLINE
  5
85
330
7C
100
AcDbEntity
  8
Deck Box - DF
100
AcDbSpline
210
0.0
220
0.0
230
1.0
 70
     9
 71
     3
 72
    35
 73
    31
 74
     0
 42
0.0000000001
 43
0.0000000001
 40
0.0
 40
0.0
 40
0.0
 40
0.0
 40
1.0
 40
1.0
 40
1.0
 40
2.0
 40
2.0
 40
2.0
 40
3.0
 40
3.0
 40
3.0
 40
4.0
 40
4.0
 40
4.0
 40
5.0
 40
5.0
 40
5.0
 40
6.0
 40
6.0
 40
6.0
 40
7.0
 40
7.0
 40
7.0
 40
8.0
 40
8.0
 40
8.0
 40
9.0
 40
9.0
 40
9.0
 40
10.0
 40
10.0
 40
10.0
 40
10.0
 10
3.537368774414062
 20
-2.397162543402777
 30
0.0
 10
3.537368774414062
 20
-2.397162543402777
 30
0.0
 10
3.60580105251736
 20
-2.397162543402777
 30
0.0
 10
3.60580105251736
 20
-2.397162543402777
 30
0.0
 10
3.607777065700954
 20
-2.359169006347656
 30
0.0
 10
3.611930847167968
 20
-2.323384602864583
 30
0.0
 10
3.643683539496527
 20
-2.302000257703992
 30
0.0
 10
3.694123162163628
 20
-2.275653415256076
 30
0.0
 10
3.751473320855034
 20
-2.374101426866319
 30
0.0
 10
3.679533216688367
 20
-2.386561075846354
 30
0.0
 10
3.668267144097221
 20
-2.395342508951822
 30
0.0
 10
3.657805548773871
 20
-2.364571465386284
 30
0.0
 10
3.671669006347656
 20
-2.375789218478732
 30
0.0
 10
3.7298583984375
 20
-2.384471469455295
 30
0.0
 10
3.703001234266492
 20
-2.294197930230034
 30
0.0
 10
3.655854119194878
 20
-2.310128953721787
 30
0.0
 10
3.622935824924045
 20
-2.346041361490885
 30
0.0
 10
3.611781650119357
 20
-2.375194125705295
 30
0.0
 10
3.613895840115016
 20
-2.397162543402777
 30
0.0
 10
3.613895840115016
 20
-2.397162543402777
 30
0.0
 10
3.763104756673176
 20
-2.397162543402777
 30
0.0
 10
3.763104756673176
 20
-2.397162543402777
 30
0.0
 10
3.776082356770833
 20
-2.36656273735894
 30
0.0
 10
3.770802815755208
 20
-2.321137322319878
 30
0.0
 10
3.72823248969184
 20
-2.259713066948784
 30
0.0
 10
3.67057885064019
 20
-2.203893873426649
 30
0.0
 10
3.561684502495659
 20
-2.223148769802517
 30
0.0
 10
3.537467108832465
 20
-2.313203599717881
 30
0.0
 10
3.540087381998697
 20
-2.346510145399305
 30
0.0
 10
3.53971947564019
 20
-2.374060736762152
 30
0.0
 10
3.537368774414062
 20
-2.397162543402777
 30
0.0
  0
HATCH
  5
86
330
7C
100
AcDbEntity
  8
Deck Box - DF
 62
   250
420
  2301728
440
 33554687
100
AcDbHatch
 10
0.0
 20
0.0
 30
0.0
210
0.0
220
0.0
230
1.0
  2
SOLID
 70
     1
 71
     1
 91
        1
 92
        1
 93
        1
 72
     4
 94
        3
 73
     0
 74
     0
 95
       35
 96
       31
 40
0.0
 40
0.0
 40
0.0
 40
0.0
 40
1.0
 40
1.0
 40
1.0
 40
2.0
 40
2.0
 40
2.0
 40
3.0
 40
3.0
 40
3.0
 40
4.0
 40
4.0
 40
4.0
 40
5.0
 40
5.0
 40
5.0
 40
6.0
 40
6.0
 40
6.0
 40
7.0
 40
7.0
 40
7.0
 40
8.0
 40
8.0
 40
8.0
 40
9.0
 40
9.0
 40
9.0
 40
10.0
 40
10.0
 40
10.0
 40
10.0
 10
3.537368774414062
 20
-2.397162543402777
 10
3.537368774414062
 20
-2.397162543402777
 10
3.60580105251736
 20
-2.397162543402777
 10
3.60580105251736
 20
-2.397162543402777
 10
3.607777065700954
 20
-2.359169006347656
 10
3.611930847167968
 20
-2.323384602864583
 10
3.643683539496527
 20
-2.302000257703992
 10
3.694123162163628
 20
-2.275653415256076
 10
3.751473320855034
 20
-2.374101426866319
 10
3.679533216688367
 20
-2.386561075846354
 10
3.668267144097221
 20
-2.395342508951822
 10
3.657805548773871
 20
-2.364571465386284
 10
3.671669006347656
 20
-2.375789218478732
 10
3.7298583984375
 20
-2.384471469455295
 10
3.703001234266492
 20
-2.294197930230034
 10
3.655854119194878
 20
-2.310128953721787
 10
3.622935824924045
 20
-2.346041361490885
 10
3.611781650119357
 20
-2.375194125705295
 10
3.613895840115016
 20
-2.397162543402777
 10
3.613895840115016
 20
-2.397162543402777
 10
3.763104756673176
 20
-2.397162543402777
 10
3.763104756673176
 20
-2.397162543402777
 10
3.776082356770833
 20
-2.36656273735894
 10
3.770802815755208
 20
-2.321137322319878
 10
3.72823248969184
 20
-2.259713066948784
 10
3.67057885064019
 20
-2.203893873426649
 10
3.561684502495659
 20
-2.223148769802517
 10
3.537467108832465
 20
-2.313203599717881
 10
3.540087381998697
 20
-2.346510145399305
 10
3.53971947564019
 20
-2.374060736762152
 10
3.537368774414062
 20
-2.397162543402777
 97
        0
 97
        1
330
85
 75
     2
 76
     1
 98
        1
 10
0.0
 20
0.0
450
        0
451
        0
460
0.0
461
0.0
452
        0
462
0.0
453
        0
470

  0
SPLINE
  5
87
330
7C
100
AcDbEntity
  8
Deck Box - DF
100
AcDbSpline
210
0.0
220
0.0
230
1.0
 70
     9
 71
     3
 72
    11
 73
     7
 74
     0
 42
0.0000000001
 43
0.0000000001
 40
0.0
 40
0.0
 40
0.0
 40
0.0
 40
1.0
 40
1.0
 40
1.0
 40
2.0
 40
2.0
 40
2.0
 40
2.0
 10
3.523455301920572
 20
-2.397162543402777
 30
0.0
 10
3.500500996907551
 20
-2.308874342176649
 30
0.0
 10
3.414518568250867
 20
-2.340397304958767
 30
0.0
 10
3.383255852593315
 20
-2.397162543402777
 30
0.0
 10
3.383255852593315
 20
-2.397162543402777
 30
0.0
 10
3.523455301920572
 20
-2.397162543402777
 30
0.0
 10
3.523455301920572
 20
-2.397162543402777
 30
0.0
  0
HATCH
  5
88
330
7C
100
AcDbEntity
  8
Deck Box - DF
 62
   250
420
  2301728
440
 33554687
100
AcDbHatch
 10
0.0
 20
0.0
 30
0.0
210
0.0
220
0.0
230
1.0
  2
SOLID
 70
     1
 71
     1
 91
        1
 92
        1
 93
        1
 72
     4
 94
        3
 73
     0
 74
     0
 95
       11
 96
        7
 40
0.0
 40
0.0
 40
0.0
 40
0.0
 40
1.0
 40
1.0
 40
1.0
 40
2.0
 40
2.0
 40
2.0
 40
2.0
 10
3.523455301920572
 20
-2.397162543402777
 10
3.500500996907551
 20
-2.308874342176649
 10
3.414518568250867
 20
-2.340397304958767
 10
3.383255852593315
 20
-2.397162543402777
 10
3.383255852593315
 20
-2.397162543402777
 10
3.523455301920572
 20
-2.397162543402777
 10
3.523455301920572
 20
-2.397162543402777
 97
        0
 97
        1
330
87
 75
     2
 76
     1
 98
        1
 10
0.0
 20
0.0
450
        0
451
        0
460
0.0
461
0.0
452
        0
462
0.0
453
        0
470

  0
SPLINE
  5
89
330
7C
100
AcDbEntity
  8
Deck Box - DF
100
AcDbSpline
210
0.0
220
0.0
230
1.0
 70
     9
 71
     3
 72
    23
 73
    19
 74
     0
 42
0.0000000001
 43
0.0000000001
 40
0.0
 40
0.0
 40
0.0
 40
0.0
 40
1.0
 40
1.0
 40
1.0
 40
2.0
 40
2.0
 40
2.0
 40
3.0
 40
3.0
 40
3.0
 40
4.0
 40
4.0
 40
4.0
 40
5.0
 40
5.0
 40
5.0
 40
6.0
 40
6.0
 40
6.0
 40
6.0
 10
2.912529839409721
 20
-2.370254516601562
 30
0.0
 10
2.912529839409721
 20
-2.370254516601562
 30
0.0
 10
2.912529839409721
 20
-2.397162543402777
 30
0.0
 10
2.912529839409721
 20
-2.397162543402777
 30
0.0
 10
2.912529839409721
 20
-2.397162543402777
 30
0.0
 10
2.961290147569444
 20
-2.397162543402777
 30
0.0
 10
2.961290147569444
 20
-2.397162543402777
 30
0.0
 10
2.962475246853298
 20
-2.396697150336371
 30
0.0
 10
2.963570488823784
 20
-2.396224975585937
 30
0.0
 10
2.964836120605468
 20
-2.395765516493055
 30
0.0
 10
2.971611870659721
 20
-2.390294392903645
 30
0.0
 10
2.981845431857638
 20
-2.3939454820421
 30
0.0
 10
2.984742058648003
 20
-2.397162543402777
 30
0.0
 10
2.984742058648003
 20
-2.397162543402777
 30
0.0
 10
3.042021857367621
 20
-2.397162543402777
 30
0.0
 10
3.042021857367621
 20
-2.397162543402777
 30
0.0
 10
3.064368353949652
 20
-2.3415773179796
 30
0.0
 10
2.974305894639756
 20
-2.343149820963541
 30
0.0
 10
2.912529839409721
 20
-2.370254516601562
 30
0.0
  0
HATCH
  5
8A
330
7C
100
AcDbEntity
  8
Deck Box - DF
 62
   250
420
  2301728
440
 33554687
100
AcDbHatch
 10
0.0
 20
0.0
 30
0.0
210
0.0
220
0.0
230
1.0
  2
SOLID
 70
     1
 71
     1
 91
        1
 92
        1
 93
        1
 72
     4
 94
        3
 73
     0
 74
     0
 95
       23
 96
       19
 40
0.0
 40
0.0
 40
0.0
 40
0.0
 40
1.0
 40
1.0
 40
1.0
 40
2.0
 40
2.0
 40
2.0
 40
3.0
 40
3.0
 40
3.0
 40
4.0
 40
4.0
 40
4.0
 40
5.0
 40
5.0
 40
5.0
 40
6.0
 40
6.0
 40
6.0
 40
6.0
 10
2.912529839409721
 20
-2.370254516601562
 10
2.912529839409721
 20
-2.370254516601562
 10
2.912529839409721
 20
-2.397162543402777
 10
2.912529839409721
 20
-2.397162543402777
 10
2.912529839409721
 20
-2.397162543402777
 10
2.961290147569444
 20
-2.397162543402777
 10
2.961290147569444
 20
-2.397162543402777
 10
2.962475246853298
 20
-2.396697150336371
 10
2.963570488823784
 20
-2.396224975585937
 10
2.964836120605468
 20
-2.395765516493055
 10
2.971611870659721
 20
-2.390294392903645
 10
2.981845431857638
 20
-2.3939454820421
 10
2.984742058648003
 20
-2.397162543402777
 10
2.984742058648003
 20
-2.397162543402777
 10
3.042021857367621
 20
-2.397162543402777
 10
3.042021857367621
 20
-2.397162543402777
 10
3.064368353949652
 20
-2.3415773179796
 10
2.974305894639756
 20
-2.343149820963541
 10
2.912529839409721
 20
-2.370254516601562
 97
        0
 97
        1
330
89
 75
     2
 76
     1
 98
        1
 10
0.0
 20
0.0
450
        0
451
        0
460
0.0
461
0.0
452
        0
462
0.0
453
        0
470

  0
SPLINE
  5
8B
330
7C
100
AcDbEntity
  8
Deck Box - DF
100
AcDbSpline
210
0.0
220
0.0
230
1.0
 70
     9
 71
     3
 72
    29
 73
    25
 74
     0
 42
0.0000000001
 43
0.0000000001
 40
0.0
 40
0.0
 40
0.0
 40
0.0
 40
1.0
 40
1.0
 40
1.0
 40
2.0
 40
2.0
 40
2.0
 40
3.0
 40
3.0
 40
3.0
 40
4.0
 40
4.0
 40
4.0
 40
5.0
 40
5.0
 40
5.0
 40
6.0
 40
6.0
 40
6.0
 40
7.0
 40
7.0
 40
7.0
 40
8.0
 40
8.0
 40
8.0
 40
8.0
 10
3.18324957953559
 20
-1.469857957628038
 30
0.0
 10
3.18324957953559
 20
-1.469857957628038
 30
0.0
 10
3.093845791286892
 20
-1.469857957628038
 30
0.0
 10
3.093845791286892
 20
-1.469857957628038
 30
0.0
 10
3.063736809624565
 20
-1.845493740505642
 30
0.0
 10
2.880283779568142
 20
-1.520115322536892
 30
0.0
 10
3.004543728298611
 20
-1.575241088867187
 30
0.0
 10
2.933793809678819
 20
-1.570531209309895
 30
0.0
 10
2.975255330403645
 20
-1.657316419813367
 30
0.0
 10
3.03021240234375
 20
-1.638631184895833
 30
0.0
 10
3.152502271864149
 20
-1.51115502251519
 30
0.0
 10
2.97951422797309
 20
-1.476938035753038
 30
0.0
 10
2.912529839409721
 20
-1.53341081407335
 30
0.0
 10
2.912529839409721
 20
-1.53341081407335
 30
0.0
 10
2.912529839409721
 20
-1.650215996636284
 30
0.0
 10
2.912529839409721
 20
-1.650215996636284
 30
0.0
 10
2.921623229980468
 20
-1.663494533962673
 30
0.0
 10
2.933414035373263
 20
-1.677661471896701
 30
0.0
 10
2.948499891493055
 20
-1.6927736070421
 30
0.0
 10
3.023401896158854
 20
-1.743770175509982
 30
0.0
 10
3.15212673611111
 20
-1.71781497531467
 30
0.0
 10
3.171985202365451
 20
-1.627928839789496
 30
0.0
 10
3.156578911675346
 20
-1.545441521538628
 30
0.0
 10
3.16520775689019
 20
-1.496504889594183
 30
0.0
 10
3.18324957953559
 20
-1.469857957628038
 30
0.0
  0
HATCH
  5
8C
330
7C
100
AcDbEntity
  8
Deck Box - DF
 62
   250
420
  2301728
440
 33554687
100
AcDbHatch
 10
0.0
 20
0.0
 30
0.0
210
0.0
220
0.0
230
1.0
  2
SOLID
 70
     1
 71
     1
 91
        1
 92
        1
 93
        1
 72
     4
 94
        3
 73
     0
 74
     0
 95
       29
 96
       25
 40
0.0
 40
0.0
 40
0.0
 40
0.0
 40
1.0
 40
1.0
 40
1.0
 40
2.0
 40
2.0
 40
2.0
 40
3.0
 40
3.0
 40
3.0
 40
4.0
 40
4.0
 40
4.0
 40
5.0
 40
5.0
 40
5.0
 40
6.0
 40
6.0
 40
6.0
 40
7.0
 40
7.0
 40
7.0
 40
8.0
 40
8.0
 40
8.0
 40
8.0
 10
3.18324957953559
 20
-1.469857957628038
 10
3.18324957953559
 20
-1.469857957628038
 10
3.093845791286892
 20
-1.469857957628038
 10
3.093845791286892
 20
-1.469857957628038
 10
3.063736809624565
 20
-1.845493740505642
 10
2.880283779568142
 20
-1.520115322536892
 10
3.004543728298611
 20
-1.575241088867187
 10
2.933793809678819
 20
-1.570531209309895
 10
2.975255330403645
 20
-1.657316419813367
 10
3.03021240234375
 20
-1.638631184895833
 10
3.152502271864149
 20
-1.51115502251519
 10
2.97951422797309
 20
-1.476938035753038
 10
2.912529839409721
 20
-1.53341081407335
 10
2.912529839409721
 20
-1.53341081407335
 10
2.912529839409721
 20
-1.650215996636284
 10
2.912529839409721
 20
-1.650215996636284
 10
2.921623229980468
 20
-1.663494533962673
 10
2.933414035373263
 20
-1.677661471896701
 10
2.948499891493055
 20
-1.6927736070421
 10
3.023401896158854
 20
-1.743770175509982
 10
3.15212673611111
 20
-1.71781497531467
 10
3.171985202365451
 20
-1.627928839789496
 10
3.156578911675346
 20
-1.545441521538628
 10
3.16520775689019
 20
-1.496504889594183
 10
3.18324957953559
 20
-1.469857957628038
 97
        0
 97
        1
330
8B
 75
     2
 76
     1
 98
        1
 10
0.0
 20
0.0
450
        0
451
        0
460
0.0
461
0.0
452
        0
462
0.0
453
        0
470

  0
SPLINE
  5
8D
330
7C
100
AcDbEntity
  8
Deck Box - DF
100
AcDbSpline
210
0.0
220
0.0
230
1.0
 70
     9
 71
     3
 72
    26
 73
    22
 74
     0
 42
0.0000000001
 43
0.0000000001
 40
0.0
 40
0.0
 40
0.0
 40
0.0
 40
1.0
 40
1.0
 40
1.0
 40
2.0
 40
2.0
 40
2.0
 40
3.0
 40
3.0
 40
3.0
 40
4.0
 40
4.0
 40
4.0
 40
5.0
 40
5.0
 40
5.0
 40
6.0
 40
6.0
 40
6.0
 40
7.0
 40
7.0
 40
7.0
 40
7.0
 10
3.283295525444878
 20
-1.469857957628038
 30
0.0
 10
3.297237820095485
 20
-1.490612453884548
 30
0.0
 10
3.292702568901909
 20
-1.518788655598958
 30
0.0
 10
3.246302286783854
 20
-1.536900838216145
 30
0.0
 10
3.239384121365016
 20
-1.530182732476128
 30
0.0
 10
3.225518968370225
 20
-1.51353539360894
 30
0.0
 10
3.242302788628471
 20
-1.521793789333767
 30
0.0
 10
3.295494927300346
 20
-1.50457763671875
 30
0.0
 10
3.288469950358072
 20
-1.482030232747395
 30
0.0
 10
3.263832939995659
 20
-1.469857957628038
 30
0.0
 10
3.263832939995659
 20
-1.469857957628038
 30
0.0
 10
3.190853542751735
 20
-1.469857957628038
 30
0.0
 10
3.190853542751735
 20
-1.469857957628038
 30
0.0
 10
3.174593607584635
 20
-1.480132208930121
 30
0.0
 10
3.165756225585937
 20
-1.500350104437933
 30
0.0
 10
3.176491631401909
 20
-1.53515625
 30
0.0
 10
3.313729180230034
 20
-1.66824001736111
 30
0.0
 10
3.363332960340711
 20
-1.56048583984375
 30
0.0
 10
3.336832682291666
 20
-1.469857957628038
 30
0.0
 10
3.336832682291666
 20
-1.469857957628038
 30
0.0
 10
3.283295525444878
 20
-1.469857957628038
 30
0.0
 10
3.283295525444878
 20
-1.469857957628038
 30
0.0
  0
HATCH
  5
8E
330
7C
100
AcDbEntity
  8
Deck Box - DF
 62
   250
420
  2301728
440
 33554687
100
AcDbHatch
 10
0.0
 20
0.0
 30
0.0
210
0.0
220
0.0
230
1.0
  2
SOLID
 70
     1
 71
     1
 91
        1
 92
        1
 93
        1
 72
     4
 94
        3
 73
     0
 74
     0
 95
       26
 96
       22
 40
0.0
 40
0.0
 40
0.0
 40
0.0
 40
1.0
 40
1.0
 40
1.0
 40
2.0
 40
2.0
 40
2.0
 40
3.0
 40
3.0
 40
3.0
 40
4.0
 40
4.0
 40
4.0
 40
5.0
 40
5.0
 40
5.0
 40
6.0
 40
6.0
 40
6.0
 40
7.0
 40
7.0
 40
7.0
 40
7.0
 10
3.283295525444878
 20
-1.469857957628038
 10
3.297237820095485
 20
-1.490612453884548
 10
3.292702568901909
 20
-1.518788655598958
 10
3.246302286783854
 20
-1.536900838216145
 10
3.239384121365016
 20
-1.530182732476128
 10
3.225518968370225
 20
-1.51353539360894
 10
3.242302788628471
 20
-1.521793789333767
 10
3.295494927300346
 20
-1.50457763671875
 10
3.288469950358072
 20
-1.482030232747395
 10
3.263832939995659
 20
-1.469857957628038
 10
3.263832939995659
 20
-1.469857957628038
 10
3.190853542751735
 20
-1.469857957628038
 10
3.190853542751735
 20
-1.469857957628038
 10
3.174593607584635
 20
-1.480132208930121
 10
3.165756225585937
 20
-1.500350104437933
 10
3.176491631401909
 20
-1.53515625
 10
3.313729180230034
 20
-1.66824001736111
 10
3.363332960340711
 20
-1.56048583984375
 10
3.336832682291666
 20
-1.469857957628038
 10
3.336832682291666
 20
-1.469857957628038
 10
3.283295525444878
 20
-1.469857957628038
 10
3.283295525444878
 20
-1.469857957628038
 97
        0
 97
        1
330
8D
 75
     2
 76
     1
 98
        1
 10
0.0
 20
0.0
450
        0
451
        0
460
0.0
461
0.0
452
        0
462
0.0
453
        0
470

  0
SPLINE
  5
8F
330
7C
100
AcDbEntity
  8
Deck Box - DF
100
AcDbSpline
210
0.0
220
0.0
230
1.0
 70
     9
 71
     3
 72
    35
 73
    31
 74
     0
 42
0.0000000001
 43
0.0000000001
 40
0.0
 40
0.0
 40
0.0
 40
0.0
 40
1.0
 40
1.0
 40
1.0
 40
2.0
 40
2.0
 40
2.0
 40
3.0
 40
3.0
 40
3.0
 40
4.0
 40
4.0
 40
4.0
 40
5.0
 40
5.0
 40
5.0
 40
6.0
 40
6.0
 40
6.0
 40
7.0
 40
7.0
 40
7.0
 40
8.0
 40
8.0
 40
8.0
 40
9.0
 40
9.0
 40
9.0
 40
10.0
 40
10.0
 40
10.0
 40
10.0
 10
3.603123135036891
 20
-1.469857957628038
 30
0.0
 10
3.603123135036891
 20
-1.469857957628038
 30
0.0
 10
3.44141133626302
 20
-1.469857957628038
 30
0.0
 10
3.44141133626302
 20
-1.469857957628038
 30
0.0
 10
3.408512539333766
 20
-1.488544040256076
 30
0.0
 10
3.383474561903211
 20
-1.51745859781901
 30
0.0
 10
3.378539191351996
 20
-1.553711785210503
 30
0.0
 10
3.457786560058593
 20
-1.83040534125434
 30
0.0
 10
3.17753431532118
 20
-1.720765007866753
 30
0.0
 10
3.315012613932291
 20
-1.64862060546875
 30
0.0
 10
3.322183397081162
 20
-1.653543260362413
 30
0.0
 10
3.336826748318141
 20
-1.666291130913628
 30
0.0
 10
3.320087856716579
 20
-1.661630418565538
 30
0.0
 10
3.197430928548176
 20
-1.722451951768663
 30
0.0
 10
3.431699117024739
 20
-1.75089857313368
 30
0.0
 10
3.381928337944878
 20
-1.638481140136718
 30
0.0
 10
3.107175191243489
 20
-1.455807156032985
 30
0.0
 10
3.221829732259114
 20
-1.994077894422742
 30
0.0
 10
3.466718037923176
 20
-1.703299628363715
 30
0.0
 10
3.44363064236111
 20
-1.376057942708333
 30
0.0
 10
3.661343892415364
 20
-1.541942172580295
 30
0.0
 10
3.554032219780815
 20
-1.580619812011718
 30
0.0
 10
3.542711046006944
 20
-1.591200934516058
 30
0.0
 10
3.525243971082899
 20
-1.567125108506944
 30
0.0
 10
3.54309336344401
 20
-1.57328626844618
 30
0.0
 10
3.611137390136718
 20
-1.565701802571614
 30
0.0
 10
3.56427510579427
 20
-1.494071960449218
 30
0.0
 10
3.513259039984808
 20
-1.520218743218315
 30
0.0
 10
3.356032477484808
 20
-1.721155802408854
 30
0.0
 10
3.798667907714843
 20
-1.629420810275607
 30
0.0
 10
3.603123135036891
 20
-1.469857957628038
 30
0.0
  0
HATCH
  5
90
330
7C
100
AcDbEntity
  8
Deck Box - DF
 62
   250
420
  2301728
440
 33554687
100
AcDbHatch
 10
0.0
 20
0.0
 30
0.0
210
0.0
220
0.0
230
1.0
  2
SOLID
 70
     1
 71
     1
 91
        1
 92
        1
 93
        1
 72
     4
 94
        3
 73
     0
 74
     0
 95
       35
 96
       31
 40
0.0
 40
0.0
 40
0.0
 40
0.0
 40
1.0
 40
1.0
 40
1.0
 40
2.0
 40
2.0
 40
2.0
 40
3.0
 40
3.0
 40
3.0
 40
4.0
 40
4.0
 40
4.0
 40
5.0
 40
5.0
 40
5.0
 40
6.0
 40
6.0
 40
6.0
 40
7.0
 40
7.0
 40
7.0
 40
8.0
 40
8.0
 40
8.0
 40
9.0
 40
9.0
 40
9.0
 40
10.0
 40
10.0
 40
10.0
 40
10.0
 10
3.603123135036891
 20
-1.469857957628038
 10
3.603123135036891
 20
-1.469857957628038
 10
3.44141133626302
 20
-1.469857957628038
 10
3.44141133626302
 20
-1.469857957628038
 10
3.408512539333766
 20
-1.488544040256076
 10
3.383474561903211
 20
-1.51745859781901
 10
3.378539191351996
 20
-1.553711785210503
 10
3.457786560058593
 20
-1.83040534125434
 10
3.17753431532118
 20
-1.720765007866753
 10
3.315012613932291
 20
-1.64862060546875
 10
3.322183397081162
 20
-1.653543260362413
 10
3.336826748318141
 20
-1.666291130913628
 10
3.320087856716579
 20
-1.661630418565538
 10
3.197430928548176
 20
-1.722451951768663
 10
3.431699117024739
 20
-1.75089857313368
 10
3.381928337944878
 20
-1.638481140136718
 10
3.107175191243489
 20
-1.455807156032985
 10
3.221829732259114
 20
-1.994077894422742
 10
3.466718037923176
 20
-1.703299628363715
 10
3.44363064236111
 20
-1.376057942708333
 10
3.661343892415364
 20
-1.541942172580295
 10
3.554032219780815
 20
-1.580619812011718
 10
3.542711046006944
 20
-1.591200934516058
 10
3.525243971082899
 20
-1.567125108506944
 10
3.54309336344401
 20
-1.57328626844618
 10
3.611137390136718
 20
-1.565701802571614
 10
3.56427510579427
 20
-1.494071960449218
 10
3.513259039984808
 20
-1.520218743218315
 10
3.356032477484808
 20
-1.721155802408854
 10
3.798667907714843
 20
-1.629420810275607
 10
3.603123135036891
 20
-1.469857957628038
 97
        0
 97
        1
330
8F
 75
     2
 76
     1
 98
        1
 10
0.0
 20
0.0
450
        0
451
        0
460
0.0
461
0.0
452
        0
462
0.0
453
        0
470

  0
SPLINE
  5
91
330
7C
100
AcDbEntity
  8
Deck Box - DF
100
AcDbSpline
210
0.0
220
0.0
230
1.0
 70
     9
 71
     3
 72
    17
 73
    13
 74
     0
 42
0.0000000001
 43
0.0000000001
 40
0.0
 40
0.0
 40
0.0
 40
0.0
 40
1.0
 40
1.0
 40
1.0
 40
2.0
 40
2.0
 40
2.0
 40
3.0
 40
3.0
 40
3.0
 40
4.0
 40
4.0
 40
4.0
 40
4.0
 10
3.789647081019703
 20
-1.890021247419213
 30
0.0
 10
3.796452858521294
 20
-1.867498358150808
 30
0.0
 10
3.809439080605405
 20
-1.851220853717412
 30
0.0
 10
3.83497988908079
 20
-1.846776410669905
 30
0.0
 10
3.90481865762562
 20
-1.829555260309954
 30
0.0
 10
3.935710387423593
 20
-1.938531111372463
 30
0.0
 10
3.860494322970465
 20
-1.939240526282724
 30
0.0
 10
3.853604033355572
 20
-1.932534176875909
 30
0.0
 10
3.839739225610161
 20
-1.915886970065811
 30
0.0
 10
3.856522537242097
 20
-1.924145293855392
 30
0.0
 10
3.967825274083148
 20
-1.888121028909596
 30
0.0
 10
3.815605061705481
 20
-1.828685037792474
 30
0.0
 10
3.789647081019703
 20
-1.890021247419213
 30
0.0
  0
SPLINE
  5
92
330
7C
100
AcDbEntity
  8
Deck Box - DF
100
AcDbSpline
210
0.0
220
0.0
230
1.0
 70
     9
 71
     3
 72
    29
 73
    25
 74
     0
 42
0.0000000001
 43
0.0000000001
 40
0.0
 40
0.0
 40
0.0
 40
0.0
 40
1.0
 40
1.0
 40
1.0
 40
2.0
 40
2.0
 40
2.0
 40
3.0
 40
3.0
 40
3.0
 40
4.0
 40
4.0
 40
4.0
 40
5.0
 40
5.0
 40
5.0
 40
6.0
 40
6.0
 40
6.0
 40
7.0
 40
7.0
 40
7.0
 40
8.0
 40
8.0
 40
8.0
 40
8.0
 10
3.562720145650397
 20
-2.095124370021519
 30
0.0
 10
3.82895428884011
 20
-2.185822445819477
 30
0.0
 10
3.767862807621668
 20
-2.003426288074542
 30
0.0
 10
3.786278791187795
 20
-1.904093205715791
 30
0.0
 10
3.78542374413525
 20
-1.913339384597242
 30
0.0
 10
3.786662215272396
 20
-1.924377198073519
 30
0.0
 10
3.790711990367096
 20
-1.937507837241683
 30
0.0
 10
4.049481842205787
 20
-2.188444747362786
 30
0.0
 10
3.996722461287238
 20
-1.583116826660658
 30
0.0
 10
3.709580645176906
 20
-1.85088631184644
 30
0.0
 10
3.669628819794171
 20
-1.91322382028789
 30
0.0
 10
3.729268280810603
 20
-2.00366853361787
 30
0.0
 10
3.65987135747567
 20
-2.048163895119753
 30
0.0
 10
3.602027637068481
 20
-2.077277828018749
 30
0.0
 10
3.523131892513561
 20
-1.984456161086326
 30
0.0
 10
3.608199290122469
 20
-1.967565416067234
 30
0.0
 10
3.620823074351467
 20
-1.958222545794948
 30
0.0
 10
3.636525027969683
 20
-1.987719366260295
 30
0.0
 10
3.61873976567881
 20
-1.977618993915459
 30
0.0
 10
3.548014187139503
 20
-1.972882408430399
 30
0.0
 10
3.589475886654188
 20
-2.059667585297284
 30
0.0
 10
3.644432866116782
 20
-2.040982620352085
 30
0.0
 10
3.829784662893138
 20
-1.847768919358145
 30
0.0
 10
3.336727664688434
 20
-1.868739058644387
 30
0.0
 10
3.562720145650397
 20
-2.095124370021519
 30
0.0
  0
HATCH
  5
93
330
7C
100
AcDbEntity
  8
Deck Box - DF
 62
   250
420
  2301728
440
 33554687
100
AcDbHatch
 10
0.0
 20
0.0
 30
0.0
210
0.0
220
0.0
230
1.0
  2
SOLID
 70
     1
 71
     1
 91
        2
 92
        1
 93
        1
 72
     4
 94
        3
 73
     0
 74
     0
 95
       17
 96
       13
 40
0.0
 40
0.0
 40
0.0
 40
0.0
 40
1.0
 40
1.0
 40
1.0
 40
2.0
 40
2.0
 40
2.0
 40
3.0
 40
3.0
 40
3.0
 40
4.0
 40
4.0
 40
4.0
 40
4.0
 10
3.789647081019703
 20
-1.890021247419213
 10
3.796452858521294
 20
-1.867498358150808
 10
3.809439080605405
 20
-1.851220853717412
 10
3.83497988908079
 20
-1.846776410669905
 10
3.90481865762562
 20
-1.829555260309954
 10
3.935710387423593
 20
-1.938531111372463
 10
3.860494322970465
 20
-1.939240526282724
 10
3.853604033355572
 20
-1.932534176875909
 10
3.839739225610161
 20
-1.915886970065811
 10
3.856522537242097
 20
-1.924145293855392
 10
3.967825274083148
 20
-1.888121028909596
 10
3.815605061705481
 20
-1.828685037792474
 10
3.789647081019703
 20
-1.890021247419213
 97
        0
 97
        1
330
91
 92
        1
 93
        1
 72
     4
 94
        3
 73
     0
 74
     0
 95
       29
 96
       25
 40
0.0
 40
0.0
 40
0.0
 40
0.0
 40
1.0
 40
1.0
 40
1.0
 40
2.0
 40
2.0
 40
2.0
 40
3.0
 40
3.0
 40
3.0
 40
4.0
 40
4.0
 40
4.0
 40
5.0
 40
5.0
 40
5.0
 40
6.0
 40
6.0
 40
6.0
 40
7.0
 40
7.0
 40
7.0
 40
8.0
 40
8.0
 40
8.0
 40
8.0
 10
3.562720145650397
 20
-2.095124370021519
 10
3.82895428884011
 20
-2.185822445819477
 10
3.767862807621668
 20
-2.003426288074542
 10
3.786278791187795
 20
-1.904093205715791
 10
3.78542374413525
 20
-1.913339384597242
 10
3.786662215272396
 20
-1.924377198073519
 10
3.790711990367096
 20
-1.937507837241683
 10
4.049481842205787
 20
-2.188444747362786
 10
3.996722461287238
 20
-1.583116826660658
 10
3.709580645176906
 20
-1.85088631184644
 10
3.669628819794171
 20
-1.91322382028789
 10
3.729268280810603
 20
-2.00366853361787
 10
3.65987135747567
 20
-2.048163895119753
 10
3.602027637068481
 20
-2.077277828018749
 10
3.523131892513561
 20
-1.984456161086326
 10
3.608199290122469
 20
-1.967565416067234
 10
3.620823074351467
 20
-1.958222545794948
 10
3.636525027969683
 20
-1.987719366260295
 10
3.61873976567881
 20
-1.977618993915459
 10
3.548014187139503
 20
-1.972882408430399
 10
3.589475886654188
 20
-2.059667585297284
 10
3.644432866116782
 20
-2.040982620352085
 10
3.829784662893138
 20
-1.847768919358145
 10
3.336727664688434
 20
-1.868739058644387
 10
3.562720145650397
 20
-2.095124370021519
 97
        0
 97
        1
330
92
 75
     2
 76
     1
 98
        1
 10
0.0
 20
0.0
450
        0
451
        0
460
0.0
461
0.0
452
        0
462
0.0
453
        0
470

  0
SPLINE
  5
94
330
7C
100
AcDbEntity
  8
Deck Box - DF
100
AcDbSpline
210
0.0
220
0.0
230
1.0
 70
     9
 71
     3
 72
    14
 73
    10
 74
     0
 42
0.0000000001
 43
0.0000000001
 40
0.0
 40
0.0
 40
0.0
 40
0.0
 40
1.0
 40
1.0
 40
1.0
 40
2.0
 40
2.0
 40
2.0
 40
3.0
 40
3.0
 40
3.0
 40
3.0
 10
4.050913492838541
 20
-1.469857957628038
 30
0.0
 10
4.058769226074218
 20
-1.479585435655381
 30
0.0
 10
4.068094041612413
 20
-1.48974863688151
 30
0.0
 10
4.07908460828993
 20
-1.500357733832465
 30
0.0
 10
4.215682135687933
 20
-1.544286092122395
 30
0.0
 10
4.265763176812066
 20
-1.518673366970485
 30
0.0
 10
4.284278021918402
 20
-1.469857957628038
 30
0.0
 10
4.284278021918402
 20
-1.469857957628038
 30
0.0
 10
4.050913492838541
 20
-1.469857957628038
 30
0.0
 10
4.050913492838541
 20
-1.469857957628038
 30
0.0
  0
HATCH
  5
95
330
7C
100
AcDbEntity
  8
Deck Box - DF
 62
   250
420
  2301728
440
 33554687
100
AcDbHatch
 10
0.0
 20
0.0
 30
0.0
210
0.0
220
0.0
230
1.0
  2
SOLID
 70
     1
 71
     1
 91
        1
 92
        1
 93
        1
 72
     4
 94
        3
 73
     0
 74
     0
 95
       14
 96
       10
 40
0.0
 40
0.0
 40
0.0
 40
0.0
 40
1.0
 40
1.0
 40
1.0
 40
2.0
 40
2.0
 40
2.0
 40
3.0
 40
3.0
 40
3.0
 40
3.0
 10
4.050913492838541
 20
-1.469857957628038
 10
4.058769226074218
 20
-1.479585435655381
 10
4.068094041612413
 20
-1.48974863688151
 10
4.07908460828993
 20
-1.500357733832465
 10
4.215682135687933
 20
-1.544286092122395
 10
4.265763176812066
 20
-1.518673366970485
 10
4.284278021918402
 20
-1.469857957628038
 10
4.284278021918402
 20
-1.469857957628038
 10
4.050913492838541
 20
-1.469857957628038
 10
4.050913492838541
 20
-1.469857957628038
 97
        0
 97
        1
330
94
 75
     2
 76
     1
 98
        1
 10
0.0
 20
0.0
450
        0
451
        0
460
0.0
461
0.0
452
        0
462
0.0
453
        0
470

  0
SPLINE
  5
96
330
7C
100
AcDbEntity
  8
Deck Box - DF
100
AcDbSpline
210
0.0
220
0.0
230
1.0
 70
     9
 71
     3
 72
    11
 73
     7
 74
     0
 42
0.0000000001
 43
0.0000000001
 40
0.0
 40
0.0
 40
0.0
 40
0.0
 40
1.0
 40
1.0
 40
1.0
 40
2.0
 40
2.0
 40
2.0
 40
2.0
 10
4.6004638671875
 20
-1.632166544596354
 30
0.0
 10
4.495370652940537
 20
-1.666858249240451
 30
0.0
 10
4.638913472493489
 20
-1.724188910590277
 30
0.0
 10
4.66359625922309
 20
-1.665303548177083
 30
0.0
 10
4.627762688530816
 20
-1.787979125976562
 30
0.0
 10
4.482394748263888
 20
-1.606930202907985
 30
0.0
 10
4.6004638671875
 20
-1.632166544596354
 30
0.0
  0
SPLINE
  5
97
330
7C
100
AcDbEntity
  8
Deck Box - DF
100
AcDbSpline
210
0.0
220
0.0
230
1.0
 70
     9
 71
     3
 72
    29
 73
    25
 74
     0
 42
0.0000000001
 43
0.0000000001
 40
0.0
 40
0.0
 40
0.0
 40
0.0
 40
1.0
 40
1.0
 40
1.0
 40
2.0
 40
2.0
 40
2.0
 40
3.0
 40
3.0
 40
3.0
 40
4.0
 40
4.0
 40
4.0
 40
5.0
 40
5.0
 40
5.0
 40
6.0
 40
6.0
 40
6.0
 40
7.0
 40
7.0
 40
7.0
 40
8.0
 40
8.0
 40
8.0
 40
8.0
 10
4.706325107150607
 20
-1.469857957628038
 30
0.0
 10
4.686905754937066
 20
-1.484359741210937
 30
0.0
 10
4.672340393066406
 20
-1.504368252224392
 30
0.0
 10
4.66683366563585
 20
-1.529880099826388
 30
0.0
 10
4.673136393229166
 20
-1.585028754340277
 30
0.0
 10
4.672220865885416
 20
-1.624565972222222
 30
0.0
 10
4.666780259874131
 20
-1.652197943793402
 30
0.0
 10
4.667696634928384
 20
-1.643157111273871
 30
0.0
 10
4.666555616590711
 20
-1.632312350802951
 30
0.0
 10
4.662630716959634
 20
-1.619353400336371
 30
0.0
 10
4.418346828884548
 20
-1.377261691623263
 30
0.0
 10
4.467987908257378
 20
-1.960932413736978
 30
0.0
 10
4.739360385470919
 20
-1.702938503689235
 30
0.0
 10
4.760033501519097
 20
-1.312583923339843
 30
0.0
 10
4.945504930284287
 20
-1.630672878689235
 30
0.0
 10
4.825110541449652
 20
-1.580782572428385
 30
0.0
 10
4.891978793674044
 20
-1.585359361436631
 30
0.0
 10
4.852739969889322
 20
-1.501636928982204
 30
0.0
 10
4.800812615288628
 20
-1.519630432128906
 30
0.0
 10
4.626409742567274
 20
-1.705190022786458
 30
0.0
 10
5.088177151150173
 20
-1.686029222276475
 30
0.0
 10
4.8802736070421
 20
-1.469857957628038
 30
0.0
 10
4.8802736070421
 20
-1.469857957628038
 30
0.0
 10
4.706325107150607
 20
-1.469857957628038
 30
0.0
 10
4.706325107150607
 20
-1.469857957628038
 30
0.0
  0
HATCH
  5
98
330
7C
100
AcDbEntity
  8
Deck Box - DF
 62
   250
420
  2301728
440
 33554687
100
AcDbHatch
 10
0.0
 20
0.0
 30
0.0
210
0.0
220
0.0
230
1.0
  2
SOLID
 70
     1
 71
     1
 91
        2
 92
        1
 93
        1
 72
     4
 94
        3
 73
     0
 74
     0
 95
       11
 96
        7
 40
0.0
 40
0.0
 40
0.0
 40
0.0
 40
1.0
 40
1.0
 40
1.0
 40
2.0
 40
2.0
 40
2.0
 40
2.0
 10
4.6004638671875
 20
-1.632166544596354
 10
4.495370652940537
 20
-1.666858249240451
 10
4.638913472493489
 20
-1.724188910590277
 10
4.66359625922309
 20
-1.665303548177083
 10
4.627762688530816
 20
-1.787979125976562
 10
4.482394748263888
 20
-1.606930202907985
 10
4.6004638671875
 20
-1.632166544596354
 97
        0
 97
        1
330
96
 92
        1
 93
        1
 72
     4
 94
        3
 73
     0
 74
     0
 95
       29
 96
       25
 40
0.0
 40
0.0
 40
0.0
 40
0.0
 40
1.0
 40
1.0
 40
1.0
 40
2.0
 40
2.0
 40
2.0
 40
3.0
 40
3.0
 40
3.0
 40
4.0
 40
4.0
 40
4.0
 40
5.0
 40
5.0
 40
5.0
 40
6.0
 40
6.0
 40
6.0
 40
7.0
 40
7.0
 40
7.0
 40
8.0
 40
8.0
 40
8.0
 40
8.0
 10
4.706325107150607
 20
-1.469857957628038
 10
4.686905754937066
 20
-1.484359741210937
 10
4.672340393066406
 20
-1.504368252224392
 10
4.66683366563585
 20
-1.529880099826388
 10
4.673136393229166
 20
-1.585028754340277
 10
4.672220865885416
 20
-1.624565972222222
 10
4.666780259874131
 20
-1.652197943793402
 10
4.667696634928384
 20
-1.643157111273871
 10
4.666555616590711
 20
-1.632312350802951
 10
4.662630716959634
 20
-1.619353400336371
 10
4.418346828884548
 20
-1.377261691623263
 10
4.467987908257378
 20
-1.960932413736978
 10
4.739360385470919
 20
-1.702938503689235
 10
4.760033501519097
 20
-1.312583923339843
 10
4.945504930284287
 20
-1.630672878689235
 10
4.825110541449652
 20
-1.580782572428385
 10
4.891978793674044
 20
-1.585359361436631
 10
4.852739969889322
 20
-1.501636928982204
 10
4.800812615288628
 20
-1.519630432128906
 10
4.626409742567274
 20
-1.705190022786458
 10
5.088177151150173
 20
-1.686029222276475
 10
4.8802736070421
 20
-1.469857957628038
 10
4.8802736070421
 20
-1.469857957628038
 10
4.706325107150607
 20
-1.469857957628038
 10
4.706325107150607
 20
-1.469857957628038
 97
        0
 97
        1
330
97
 75
     2
 76
     1
 98
        1
 10
0.0
 20
0.0
450
        0
451
        0
460
0.0
461
0.0
452
        0
462
0.0
453
        0
470

  0
SPLINE
  5
99
330
7C
100
AcDbEntity
  8
Deck Box - DF
100
AcDbSpline
210
0.0
220
0.0
230
1.0
 70
     9
 71
     3
 72
    14
 73
    10
 74
     0
 42
0.0000000001
 43
0.0000000001
 40
0.0
 40
0.0
 40
0.0
 40
0.0
 40
1.0
 40
1.0
 40
1.0
 40
2.0
 40
2.0
 40
2.0
 40
3.0
 40
3.0
 40
3.0
 40
3.0
 10
5.072134229871961
 20
-1.469857957628038
 30
0.0
 10
5.072134229871961
 20
-1.469857957628038
 30
0.0
 10
5.012724134657117
 20
-1.469857957628038
 30
0.0
 10
5.012724134657117
 20
-1.469857957628038
 30
0.0
 10
5.012590196397568
 20
-1.470857408311631
 30
0.0
 10
5.012430826822916
 20
-1.471900092230902
 30
0.0
 10
5.011956956651475
 20
-1.473469204372829
 30
0.0
 10
5.045279608832465
 20
-1.519631279839409
 30
0.0
 10
5.068637424045138
 20
-1.499357435438368
 30
0.0
 10
5.072134229871961
 20
-1.469857957628038
 30
0.0
  0
HATCH
  5
9A
330
7C
100
AcDbEntity
  8
Deck Box - DF
 62
   250
420
  2301728
440
 33554687
100
AcDbHatch
 10
0.0
 20
0.0
 30
0.0
210
0.0
220
0.0
230
1.0
  2
SOLID
 70
     1
 71
     1
 91
        1
 92
        1
 93
        1
 72
     4
 94
        3
 73
     0
 74
     0
 95
       14
 96
       10
 40
0.0
 40
0.0
 40
0.0
 40
0.0
 40
1.0
 40
1.0
 40
1.0
 40
2.0
 40
2.0
 40
2.0
 40
3.0
 40
3.0
 40
3.0
 40
3.0
 10
5.072134229871961
 20
-1.469857957628038
 10
5.072134229871961
 20
-1.469857957628038
 10
5.012724134657117
 20
-1.469857957628038
 10
5.012724134657117
 20
-1.469857957628038
 10
5.012590196397568
 20
-1.470857408311631
 10
5.012430826822916
 20
-1.471900092230902
 10
5.011956956651475
 20
-1.473469204372829
 10
5.045279608832465
 20
-1.519631279839409
 10
5.068637424045138
 20
-1.499357435438368
 10
5.072134229871961
 20
-1.469857957628038
 97
        0
 97
        1
330
99
 75
     2
 76
     1
 98
        1
 10
0.0
 20
0.0
450
        0
451
        0
460
0.0
461
0.0
452
        0
462
0.0
453
        0
470

  0
SPLINE
  5
9B
330
7C
100
AcDbEntity
  8
Deck Box - DF
100
AcDbSpline
210
0.0
220
0.0
230
1.0
 70
     9
 71
     3
 72
    23
 73
    19
 74
     0
 42
0.0000000001
 43
0.0000000001
 40
0.0
 40
0.0
 40
0.0
 40
0.0
 40
1.0
 40
1.0
 40
1.0
 40
2.0
 40
2.0
 40
2.0
 40
3.0
 40
3.0
 40
3.0
 40
4.0
 40
4.0
 40
4.0
 40
5.0
 40
5.0
 40
5.0
 40
6.0
 40
6.0
 40
6.0
 40
6.0
 10
5.091660393608941
 20
-1.469857957628038
 30
0.0
 10
5.080633375379774
 20
-1.5084474351671
 30
0.0
 10
5.011028713650173
 20
-1.530293782552083
 30
0.0
 10
4.997298346625433
 20
-1.480194939507378
 30
0.0
 10
4.99953375922309
 20
-1.4771728515625
 30
0.0
 10
5.003234015570746
 20
-1.472850375705295
 30
0.0
 10
5.006492614746093
 20
-1.469857957628038
 30
0.0
 10
5.006492614746093
 20
-1.469857957628038
 30
0.0
 10
4.940509372287325
 20
-1.469857957628038
 30
0.0
 10
4.940509372287325
 20
-1.469857957628038
 30
0.0
 10
4.932453579372829
 20
-1.497754414876301
 30
0.0
 10
4.942574395073784
 20
-1.529886033799913
 30
0.0
 10
4.97774929470486
 20
-1.554350111219618
 30
0.0
 10
5.067624409993489
 20
-1.590706719292534
 30
0.0
 10
5.133460998535156
 20
-1.53511725531684
 30
0.0
 10
5.147131178114149
 20
-1.469857957628038
 30
0.0
 10
5.147131178114149
 20
-1.469857957628038
 30
0.0
 10
5.091660393608941
 20
-1.469857957628038
 30
0.0
 10
5.091660393608941
 20
-1.469857957628038
 30
0.0
  0
HATCH
  5
9C
330
7C
100
AcDbEntity
  8
Deck Box - DF
 62
   250
420
  2301728
440
 33554687
100
AcDbHatch
 10
0.0
 20
0.0
 30
0.0
210
0.0
220
0.0
230
1.0
  2
SOLID
 70
     1
 71
     1
 91
        1
 92
        1
 93
        1
 72
     4
 94
        3
 73
     0
 74
     0
 95
       23
 96
       19
 40
0.0
 40
0.0
 40
0.0
 40
0.0
 40
1.0
 40
1.0
 40
1.0
 40
2.0
 40
2.0
 40
2.0
 40
3.0
 40
3.0
 40
3.0
 40
4.0
 40
4.0
 40
4.0
 40
5.0
 40
5.0
 40
5.0
 40
6.0
 40
6.0
 40
6.0
 40
6.0
 10
5.091660393608941
 20
-1.469857957628038
 10
5.080633375379774
 20
-1.5084474351671
 10
5.011028713650173
 20
-1.530293782552083
 10
4.997298346625433
 20
-1.480194939507378
 10
4.99953375922309
 20
-1.4771728515625
 10
5.003234015570746
 20
-1.472850375705295
 10
5.006492614746093
 20
-1.469857957628038
 10
5.006492614746093
 20
-1.469857957628038
 10
4.940509372287325
 20
-1.469857957628038
 10
4.940509372287325
 20
-1.469857957628038
 10
4.932453579372829
 20
-1.497754414876301
 10
4.942574395073784
 20
-1.529886033799913
 10
4.97774929470486
 20
-1.554350111219618
 10
5.067624409993489
 20
-1.590706719292534
 10
5.133460998535156
 20
-1.53511725531684
 10
5.147131178114149
 20
-1.469857957628038
 10
5.147131178114149
 20
-1.469857957628038
 10
5.091660393608941
 20
-1.469857957628038
 10
5.091660393608941
 20
-1.469857957628038
 97
        0
 97
        1
330
9B
 75
     2
 76
     1
 98
        1
 10
0.0
 20
0.0
450
        0
451
        0
460
0.0
461
0.0
452
        0
462
0.0
453
        0
470

  0
SPLINE
  5
9D
330
7C
100
AcDbEntity
  8
Deck Box - DF
100
AcDbSpline
210
0.0
220
0.0
230
1.0
 70
     9
 71
     3
 72
    14
 73
    10
 74
     0
 42
0.0000000001
 43
0.0000000001
 40
0.0
 40
0.0
 40
0.0
 40
0.0
 40
1.0
 40
1.0
 40
1.0
 40
2.0
 40
2.0
 40
2.0
 40
3.0
 40
3.0
 40
3.0
 40
3.0
 10
3.577363429070525
 20
-1.801728822401135
 30
0.0
 10
3.626907946510565
 20
-1.794066417477488
 30
0.0
 10
3.625834529232317
 20
-1.682784709423496
 30
0.0
 10
3.567511812317067
 20
-1.747764684992426
 30
0.0
 10
3.568739223144095
 20
-1.761333279283753
 30
0.0
 10
3.560364583189867
 20
-1.747605428583975
 30
0.0
 10
3.557376314270186
 20
-1.741184758286446
 30
0.0
 10
3.60859887927572
 20
-1.664814588584287
 30
0.0
 10
3.66932139989203
 20
-1.804054844976828
 30
0.0
 10
3.577363429070525
 20
-1.801728822401135
 30
0.0
  0
SPLINE
  5
9E
330
7C
100
AcDbEntity
  8
Deck Box - DF
100
AcDbSpline
210
0.0
220
0.0
230
1.0
 70
     9
 71
     3
 72
    26
 73
    22
 74
     0
 42
0.0000000001
 43
0.0000000001
 40
0.0
 40
0.0
 40
0.0
 40
0.0
 40
1.0
 40
1.0
 40
1.0
 40
2.0
 40
2.0
 40
2.0
 40
3.0
 40
3.0
 40
3.0
 40
4.0
 40
4.0
 40
4.0
 40
5.0
 40
5.0
 40
5.0
 40
6.0
 40
6.0
 40
6.0
 40
7.0
 40
7.0
 40
7.0
 40
7.0
 10
3.417308546751238
 20
-1.862533229378325
 30
0.0
 10
3.387070793239571
 20
-1.895243099590326
 30
0.0
 10
3.43983726410051
 20
-1.945780638886592
 30
0.0
 10
3.457187771123888
 20
-1.896306963422603
 30
0.0
 10
3.454875882708481
 20
-1.881582467504497
 30
0.0
 10
3.472334724051607
 20
-1.899857657437766
 30
0.0
 10
3.461604805234514
 20
-1.906076413360324
 30
0.0
 10
3.408616560975524
 20
-1.977335641604352
 30
0.0
 10
3.310232549967003
 20
-1.778951277999125
 30
0.0
 10
3.578988727464636
 20
-1.866808850291578
 30
0.0
 10
3.716836775819274
 20
-1.841835325478553
 30
0.0
 10
3.689821542923924
 20
-1.633736062426161
 30
0.0
 10
3.553841552590887
 20
-1.67818359529887
 30
0.0
 10
3.494414789846258
 20
-1.713901498484965
 30
0.0
 10
3.500114252736882
 20
-1.780886398481407
 30
0.0
 10
3.559745489420139
 20
-1.800290602595838
 30
0.0
 10
3.478556573897713
 20
-1.787665912764156
 30
0.0
 10
3.3624814550333
 20
-1.700434507713945
 30
0.0
 10
3.352600911314854
 20
-1.904410942933231
 30
0.0
 10
3.455427196628938
 20
-2.116645960475251
 30
0.0
 10
3.616831153186694
 20
-1.785586789328173
 30
0.0
 10
3.417308546751238
 20
-1.862533229378325
 30
0.0
  0
HATCH
  5
9F
330
7C
100
AcDbEntity
  8
Deck Box - DF
 62
   250
420
  2301728
440
 33554687
100
AcDbHatch
 10
0.0
 20
0.0
 30
0.0
210
0.0
220
0.0
230
1.0
  2
SOLID
 70
     1
 71
     1
 91
        2
 92
        1
 93
        1
 72
     4
 94
        3
 73
     0
 74
     0
 95
       14
 96
       10
 40
0.0
 40
0.0
 40
0.0
 40
0.0
 40
1.0
 40
1.0
 40
1.0
 40
2.0
 40
2.0
 40
2.0
 40
3.0
 40
3.0
 40
3.0
 40
3.0
 10
3.577363429070525
 20
-1.801728822401135
 10
3.626907946510565
 20
-1.794066417477488
 10
3.625834529232317
 20
-1.682784709423496
 10
3.567511812317067
 20
-1.747764684992426
 10
3.568739223144095
 20
-1.761333279283753
 10
3.560364583189867
 20
-1.747605428583975
 10
3.557376314270186
 20
-1.741184758286446
 10
3.60859887927572
 20
-1.664814588584287
 10
3.66932139989203
 20
-1.804054844976828
 10
3.577363429070525
 20
-1.801728822401135
 97
        0
 97
        1
330
9D
 92
        1
 93
        1
 72
     4
 94
        3
 73
     0
 74
     0
 95
       26
 96
       22
 40
0.0
 40
0.0
 40
0.0
 40
0.0
 40
1.0
 40
1.0
 40
1.0
 40
2.0
 40
2.0
 40
2.0
 40
3.0
 40
3.0
 40
3.0
 40
4.0
 40
4.0
 40
4.0
 40
5.0
 40
5.0
 40
5.0
 40
6.0
 40
6.0
 40
6.0
 40
7.0
 40
7.0
 40
7.0
 40
7.0
 10
3.417308546751238
 20
-1.862533229378325
 10
3.387070793239571
 20
-1.895243099590326
 10
3.43983726410051
 20
-1.945780638886592
 10
3.457187771123888
 20
-1.896306963422603
 10
3.454875882708481
 20
-1.881582467504497
 10
3.472334724051607
 20
-1.899857657437766
 10
3.461604805234514
 20
-1.906076413360324
 10
3.408616560975524
 20
-1.977335641604352
 10
3.310232549967003
 20
-1.778951277999125
 10
3.578988727464636
 20
-1.866808850291578
 10
3.716836775819274
 20
-1.841835325478553
 10
3.689821542923924
 20
-1.633736062426161
 10
3.553841552590887
 20
-1.67818359529887
 10
3.494414789846258
 20
-1.713901498484965
 10
3.500114252736882
 20
-1.780886398481407
 10
3.559745489420139
 20
-1.800290602595838
 10
3.478556573897713
 20
-1.787665912764156
 10
3.3624814550333
 20
-1.700434507713945
 10
3.352600911314854
 20
-1.904410942933231
 10
3.455427196628938
 20
-2.116645960475251
 10
3.616831153186694
 20
-1.785586789328173
 10
3.417308546751238
 20
-1.862533229378325
 97
        0
 97
        1
330
9E
 75
     2
 76
     1
 98
        1
 10
0.0
 20
0.0
450
        0
451
        0
460
0.0
461
0.0
452
        0
462
0.0
453
        0
470

  0
SPLINE
  5
A0
330
7C
100
AcDbEntity
  8
Deck Box - DF
100
AcDbSpline
210
0.0
220
0.0
230
1.0
 70
     9
 71
     3
 72
    26
 73
    22
 74
     0
 42
0.0000000001
 43
0.0000000001
 40
0.0
 40
0.0
 40
0.0
 40
0.0
 40
1.0
 40
1.0
 40
1.0
 40
2.0
 40
2.0
 40
2.0
 40
3.0
 40
3.0
 40
3.0
 40
4.0
 40
4.0
 40
4.0
 40
5.0
 40
5.0
 40
5.0
 40
6.0
 40
6.0
 40
6.0
 40
7.0
 40
7.0
 40
7.0
 40
7.0
 10
4.119424691104945
 20
-1.617586014826138
 30
0.0
 10
4.126184809377516
 20
-1.94170848354708
 30
0.0
 10
3.929756253802224
 20
-1.729546113814737
 30
0.0
 10
4.048374109606356
 20
-1.73862269496255
 30
0.0
 10
3.988014026845146
 20
-1.750172662570485
 30
0.0
 10
4.027508409144717
 20
-1.810593406381927
 30
0.0
 10
4.073313690966831
 20
-1.783743189574112
 30
0.0
 10
4.221427692308376
 20
-1.589064381329244
 30
0.0
 10
3.803299757688755
 20
-1.712666744253397
 30
0.0
 10
4.006498357455951
 20
-1.844746667061864
 30
0.0
 10
4.072669357002205
 20
-1.869300851137078
 30
0.0
 10
4.18083011497251
 20
-1.820652671958984
 30
0.0
 10
4.193312100353661
 20
-1.744465543713292
 30
0.0
 10
4.132922239834416
 20
-1.466578881529168
 30
0.0
 10
4.389035064862026
 20
-1.630145554308872
 30
0.0
 10
4.247897850432587
 20
-1.644365393556136
 30
0.0
 10
4.357968355285795
 20
-1.581612939440181
 30
0.0
 10
4.151636568176437
 20
-1.572798252353613
 30
0.0
 10
4.1926033897121
 20
-1.669297036001997
 30
0.0
 10
4.429290906974554
 20
-1.814313698130705
 30
0.0
 10
4.34670413841003
 20
-1.341842850827548
 30
0.0
 10
4.119424691104945
 20
-1.617586014826138
 30
0.0
  0
HATCH
  5
A1
330
7C
100
AcDbEntity
  8
Deck Box - DF
 62
   250
420
  2301728
440
 33554687
100
AcDbHatch
 10
0.0
 20
0.0
 30
0.0
210
0.0
220
0.0
230
1.0
  2
SOLID
 70
     1
 71
     1
 91
        1
 92
        1
 93
        1
 72
     4
 94
        3
 73
     0
 74
     0
 95
       26
 96
       22
 40
0.0
 40
0.0
 40
0.0
 40
0.0
 40
1.0
 40
1.0
 40
1.0
 40
2.0
 40
2.0
 40
2.0
 40
3.0
 40
3.0
 40
3.0
 40
4.0
 40
4.0
 40
4.0
 40
5.0
 40
5.0
 40
5.0
 40
6.0
 40
6.0
 40
6.0
 40
7.0
 40
7.0
 40
7.0
 40
7.0
 10
4.119424691104945
 20
-1.617586014826138
 10
4.126184809377516
 20
-1.94170848354708
 10
3.929756253802224
 20
-1.729546113814737
 10
4.048374109606356
 20
-1.73862269496255
 10
3.988014026845146
 20
-1.750172662570485
 10
4.027508409144717
 20
-1.810593406381927
 10
4.073313690966831
 20
-1.783743189574112
 10
4.221427692308376
 20
-1.589064381329244
 10
3.803299757688755
 20
-1.712666744253397
 10
4.006498357455951
 20
-1.844746667061864
 10
4.072669357002205
 20
-1.869300851137078
 10
4.18083011497251
 20
-1.820652671958984
 10
4.193312100353661
 20
-1.744465543713292
 10
4.132922239834416
 20
-1.466578881529168
 10
4.389035064862026
 20
-1.630145554308872
 10
4.247897850432587
 20
-1.644365393556136
 10
4.357968355285795
 20
-1.581612939440181
 10
4.151636568176437
 20
-1.572798252353613
 10
4.1926033897121
 20
-1.669297036001997
 10
4.429290906974554
 20
-1.814313698130705
 10
4.34670413841003
 20
-1.341842850827548
 10
4.119424691104945
 20
-1.617586014826138
 97
        0
 97
        1
330
A0
 75
     2
 76
     1
 98
        1
 10
0.0
 20
0.0
450
        0
451
        0
460
0.0
461
0.0
452
        0
462
0.0
453
        0
470

  0
SPLINE
  5
A2
330
7C
100
AcDbEntity
  8
Deck Box - DF
100
AcDbSpline
210
0.0
220
0.0
230
1.0
 70
     9
 71
     3
 72
    20
 73
    16
 74
     0
 42
0.0000000001
 43
0.0000000001
 40
0.0
 40
0.0
 40
0.0
 40
0.0
 40
1.0
 40
1.0
 40
1.0
 40
2.0
 40
2.0
 40
2.0
 40
3.0
 40
3.0
 40
3.0
 40
4.0
 40
4.0
 40
4.0
 40
5.0
 40
5.0
 40
5.0
 40
5.0
 10
4.487883673773871
 20
-1.469857957628038
 30
0.0
 10
4.472496032714843
 20
-1.591323004828558
 30
0.0
 10
4.32285902235243
 20
-1.527576870388454
 30
0.0
 10
4.390096028645833
 20
-1.469857957628038
 30
0.0
 10
4.390096028645833
 20
-1.469857957628038
 30
0.0
 10
4.31563483344184
 20
-1.469857957628038
 30
0.0
 10
4.31563483344184
 20
-1.469857957628038
 30
0.0
 10
4.273438347710503
 20
-1.590491400824652
 30
0.0
 10
4.493418375651041
 20
-1.647574530707465
 30
0.0
 10
4.563060336642794
 20
-1.510477701822916
 30
0.0
 10
4.569993760850693
 20
-1.497234768337673
 30
0.0
 10
4.572506374782985
 20
-1.483602735731336
 30
0.0
 10
4.572931077745225
 20
-1.469857957628038
 30
0.0
 10
4.572931077745225
 20
-1.469857957628038
 30
0.0
 10
4.487883673773871
 20
-1.469857957628038
 30
0.0
 10
4.487883673773871
 20
-1.469857957628038
 30
0.0
  0
HATCH
  5
A3
330
7C
100
AcDbEntity
  8
Deck Box - DF
 62
   250
420
  2301728
440
 33554687
100
AcDbHatch
 10
0.0
 20
0.0
 30
0.0
210
0.0
220
0.0
230
1.0
  2
SOLID
 70
     1
 71
     1
 91
        1
 92
        1
 93
        1
 72
     4
 94
        3
 73
     0
 74
     0
 95
       20
 96
       16
 40
0.0
 40
0.0
 40
0.0
 40
0.0
 40
1.0
 40
1.0
 40
1.0
 40
2.0
 40
2.0
 40
2.0
 40
3.0
 40
3.0
 40
3.0
 40
4.0
 40
4.0
 40
4.0
 40
5.0
 40
5.0
 40
5.0
 40
5.0
 10
4.487883673773871
 20
-1.469857957628038
 10
4.472496032714843
 20
-1.591323004828558
 10
4.32285902235243
 20
-1.527576870388454
 10
4.390096028645833
 20
-1.469857957628038
 10
4.390096028645833
 20
-1.469857957628038
 10
4.31563483344184
 20
-1.469857957628038
 10
4.31563483344184
 20
-1.469857957628038
 10
4.273438347710503
 20
-1.590491400824652
 10
4.493418375651041
 20
-1.647574530707465
 10
4.563060336642794
 20
-1.510477701822916
 10
4.569993760850693
 20
-1.497234768337673
 10
4.572506374782985
 20
-1.483602735731336
 10
4.572931077745225
 20
-1.469857957628038
 10
4.572931077745225
 20
-1.469857957628038
 10
4.487883673773871
 20
-1.469857957628038
 10
4.487883673773871
 20
-1.469857957628038
 97
        0
 97
        1
330
A2
 75
     2
 76
     1
 98
        1
 10
0.0
 20
0.0
450
        0
451
        0
460
0.0
461
0.0
452
        0
462
0.0
453
        0
470

  0
SPLINE
  5
A4
330
7C
100
AcDbEntity
  8
Deck Box - DF
100
AcDbSpline
210
0.0
220
0.0
230
1.0
 70
     9
 71
     3
 72
    11
 73
     7
 74
     0
 42
0.0000000001
 43
0.0000000001
 40
0.0
 40
0.0
 40
0.0
 40
0.0
 40
1.0
 40
1.0
 40
1.0
 40
2.0
 40
2.0
 40
2.0
 40
2.0
 10
4.484952290852864
 20
-1.469857957628038
 30
0.0
 10
4.484952290852864
 20
-1.469857957628038
 30
0.0
 10
4.414466857910156
 20
-1.469857957628038
 30
0.0
 10
4.414466857910156
 20
-1.469857957628038
 30
0.0
 10
4.306209988064235
 20
-1.525099860297308
 30
0.0
 10
4.492684258355034
 20
-1.552669101291232
 30
0.0
 10
4.484952290852864
 20
-1.469857957628038
 30
0.0
  0
HATCH
  5
A5
330
7C
100
AcDbEntity
  8
Deck Box - DF
 62
   250
420
  2301728
440
 33554687
100
AcDbHatch
 10
0.0
 20
0.0
 30
0.0
210
0.0
220
0.0
230
1.0
  2
SOLID
 70
     1
 71
     1
 91
        1
 92
        1
 93
        1
 72
     4
 94
        3
 73
     0
 74
     0
 95
       11
 96
        7
 40
0.0
 40
0.0
 40
0.0
 40
0.0
 40
1.0
 40
1.0
 40
1.0
 40
2.0
 40
2.0
 40
2.0
 40
2.0
 10
4.484952290852864
 20
-1.469857957628038
 10
4.484952290852864
 20
-1.469857957628038
 10
4.414466857910156
 20
-1.469857957628038
 10
4.414466857910156
 20
-1.469857957628038
 10
4.306209988064235
 20
-1.525099860297308
 10
4.492684258355034
 20
-1.552669101291232
 10
4.484952290852864
 20
-1.469857957628038
 97
        0
 97
        1
330
A4
 75
     2
 76
     1
 98
        1
 10
0.0
 20
0.0
450
        0
451
        0
460
0.0
461
0.0
452
        0
462
0.0
453
        0
470

  0
SPLINE
  5
A6
330
7C
100
AcDbEntity
  8
Deck Box - DF
100
AcDbSpline
210
0.0
220
0.0
230
1.0
 70
     9
 71
     3
 72
    26
 73
    22
 74
     0
 42
0.0000000001
 43
0.0000000001
 40
0.0
 40
0.0
 40
0.0
 40
0.0
 40
1.0
 40
1.0
 40
1.0
 40
2.0
 40
2.0
 40
2.0
 40
3.0
 40
3.0
 40
3.0
 40
4.0
 40
4.0
 40
4.0
 40
5.0
 40
5.0
 40
5.0
 40
6.0
 40
6.0
 40
6.0
 40
7.0
 40
7.0
 40
7.0
 40
7.0
 10
4.417266648274284
 20
-1.809388641993475
 30
0.0
 10
4.462434402476471
 20
-1.784747073720091
 30
0.0
 10
4.427323022564071
 20
-1.688995709352146
 30
0.0
 10
4.388935522070823
 20
-1.742721737747653
 30
0.0
 10
4.385392536058386
 20
-1.763046836873134
 30
0.0
 10
4.374406528522083
 20
-1.729362296758899
 30
0.0
 10
4.388245812474906
 20
-1.727565491501498
 30
0.0
 10
4.449908459452444
 20
-1.680220577834575
 30
0.0
 10
4.467122839581886
 20
-1.807108121248789
 30
0.0
 10
4.413103434101306
 20
-1.825817905374517
 30
0.0
 10
4.349985080151656
 20
-1.839198287546815
 30
0.0
 10
4.310295866235138
 20
-1.742088331577772
 30
0.0
 10
4.25872220728234
 20
-1.708724631078578
 30
0.0
 10
4.266823742655611
 20
-1.76288602926594
 30
0.0
 10
4.254065533118819
 20
-1.789826732669414
 30
0.0
 10
4.270457196333002
 20
-1.836062797739348
 30
0.0
 10
4.325532436034714
 20
-1.961972827386893
 30
0.0
 10
4.486216905238481
 20
-1.936622619802644
 30
0.0
 10
4.502506189684456
 20
-1.792900691591802
 30
0.0
 10
4.480281489064989
 20
-1.45965975935591
 30
0.0
 10
4.175639709945686
 20
-1.792913876781451
 30
0.0
 10
4.417266648274284
 20
-1.809388641993475
 30
0.0
  0
HATCH
  5
A7
330
7C
100
AcDbEntity
  8
Deck Box - DF
 62
   250
420
  2301728
440
 33554687
100
AcDbHatch
 10
0.0
 20
0.0
 30
0.0
210
0.0
220
0.0
230
1.0
  2
SOLID
 70
     1
 71
     1
 91
        1
 92
        1
 93
        1
 72
     4
 94
        3
 73
     0
 74
     0
 95
       26
 96
       22
 40
0.0
 40
0.0
 40
0.0
 40
0.0
 40
1.0
 40
1.0
 40
1.0
 40
2.0
 40
2.0
 40
2.0
 40
3.0
 40
3.0
 40
3.0
 40
4.0
 40
4.0
 40
4.0
 40
5.0
 40
5.0
 40
5.0
 40
6.0
 40
6.0
 40
6.0
 40
7.0
 40
7.0
 40
7.0
 40
7.0
 10
4.417266648274284
 20
-1.809388641993475
 10
4.462434402476471
 20
-1.784747073720091
 10
4.427323022564071
 20
-1.688995709352146
 10
4.388935522070823
 20
-1.742721737747653
 10
4.385392536058386
 20
-1.763046836873134
 10
4.374406528522083
 20
-1.729362296758899
 10
4.388245812474906
 20
-1.727565491501498
 10
4.449908459452444
 20
-1.680220577834575
 10
4.467122839581886
 20
-1.807108121248789
 10
4.413103434101306
 20
-1.825817905374517
 10
4.349985080151656
 20
-1.839198287546815
 10
4.310295866235138
 20
-1.742088331577772
 10
4.25872220728234
 20
-1.708724631078578
 10
4.266823742655611
 20
-1.76288602926594
 10
4.254065533118819
 20
-1.789826732669414
 10
4.270457196333002
 20
-1.836062797739348
 10
4.325532436034714
 20
-1.961972827386893
 10
4.486216905238481
 20
-1.936622619802644
 10
4.502506189684456
 20
-1.792900691591802
 10
4.480281489064989
 20
-1.45965975935591
 10
4.175639709945686
 20
-1.792913876781451
 10
4.417266648274284
 20
-1.809388641993475
 97
        0
 97
        1
330
A6
 75
     2
 76
     1
 98
        1
 10
0.0
 20
0.0
450
        0
451
        0
460
0.0
461
0.0
452
        0
462
0.0
453
        0
470

  0
SPLINE
  5
A8
330
7C
100
AcDbEntity
  8
Deck Box - DF
100
AcDbSpline
210
0.0
220
0.0
230
1.0
 70
     9
 71
     3
 72
    14
 73
    10
 74
     0
 42
0.0000000001
 43
0.0000000001
 40
0.0
 40
0.0
 40
0.0
 40
0.0
 40
1.0
 40
1.0
 40
1.0
 40
2.0
 40
2.0
 40
2.0
 40
3.0
 40
3.0
 40
3.0
 40
3.0
 10
3.767856174045138
 20
-1.469857957628038
 30
0.0
 10
3.761259290907117
 20
-1.494249131944444
 30
0.0
 10
3.754867553710937
 20
-1.51841311984592
 30
0.0
 10
3.756167941623263
 20
-1.538675944010416
 30
0.0
 10
3.789892408582899
 20
-1.506307813856336
 30
0.0
 10
3.816739400227864
 20
-1.494948493109808
 30
0.0
 10
3.841436598036024
 20
-1.469857957628038
 30
0.0
 10
3.841436598036024
 20
-1.469857957628038
 30
0.0
 10
3.767856174045138
 20
-1.469857957628038
 30
0.0
 10
3.767856174045138
 20
-1.469857957628038
 30
0.0
  0
HATCH
  5
A9
330
7C
100
AcDbEntity
  8
Deck Box - DF
 62
   250
420
  2301728
440
 33554687
100
AcDbHatch
 10
0.0
 20
0.0
 30
0.0
210
0.0
220
0.0
230
1.0
  2
SOLID
 70
     1
 71
     1
 91
        1
 92
        1
 93
        1
 72
     4
 94
        3
 73
     0
 74
     0
 95
       14
 96
       10
 40
0.0
 40
0.0
 40
0.0
 40
0.0
 40
1.0
 40
1.0
 40
1.0
 40
2.0
 40
2.0
 40
2.0
 40
3.0
 40
3.0
 40
3.0
 40
3.0
 10
3.767856174045138
 20
-1.469857957628038
 10
3.761259290907117
 20
-1.494249131944444
 10
3.754867553710937
 20
-1.51841311984592
 10
3.756167941623263
 20
-1.538675944010416
 10
3.789892408582899
 20
-1.506307813856336
 10
3.816739400227864
 20
-1.494948493109808
 10
3.841436598036024
 20
-1.469857957628038
 10
3.841436598036024
 20
-1.469857957628038
 10
3.767856174045138
 20
-1.469857957628038
 10
3.767856174045138
 20
-1.469857957628038
 97
        0
 97
        1
330
A8
 75
     2
 76
     1
 98
        1
 10
0.0
 20
0.0
450
        0
451
        0
460
0.0
461
0.0
452
        0
462
0.0
453
        0
470

  0
SPLINE
  5
AA
330
7C
100
AcDbEntity
  8
Deck Box - DF
100
AcDbSpline
210
0.0
220
0.0
230
1.0
 70
     9
 71
     3
 72
    11
 73
     7
 74
     0
 42
0.0000000001
 43
0.0000000001
 40
0.0
 40
0.0
 40
0.0
 40
0.0
 40
1.0
 40
1.0
 40
1.0
 40
2.0
 40
2.0
 40
2.0
 40
2.0
 10
3.607289632161458
 20
-1.469857957628038
 30
0.0
 10
3.639095730251735
 20
-1.498179965549045
 30
0.0
 10
3.708400302463107
 20
-1.49774678548177
 30
0.0
 10
3.744931538899739
 20
-1.469857957628038
 30
0.0
 10
3.744931538899739
 20
-1.469857957628038
 30
0.0
 10
3.607289632161458
 20
-1.469857957628038
 30
0.0
 10
3.607289632161458
 20
-1.469857957628038
 30
0.0
  0
HATCH
  5
AB
330
7C
100
AcDbEntity
  8
Deck Box - DF
 62
   250
420
  2301728
440
 33554687
100
AcDbHatch
 10
0.0
 20
0.0
 30
0.0
210
0.0
220
0.0
230
1.0
  2
SOLID
 70
     1
 71
     1
 91
        1
 92
        1
 93
        1
 72
     4
 94
        3
 73
     0
 74
     0
 95
       11
 96
        7
 40
0.0
 40
0.0
 40
0.0
 40
0.0
 40
1.0
 40
1.0
 40
1.0
 40
2.0
 40
2.0
 40
2.0
 40
2.0
 10
3.607289632161458
 20
-1.469857957628038
 10
3.639095730251735
 20
-1.498179965549045
 10
3.708400302463107
 20
-1.49774678548177
 10
3.744931538899739
 20
-1.469857957628038
 10
3.744931538899739
 20
-1.469857957628038
 10
3.607289632161458
 20
-1.469857957628038
 10
3.607289632161458
 20
-1.469857957628038
 97
        0
 97
        1
330
AA
 75
     2
 76
     1
 98
        1
 10
0.0
 20
0.0
450
        0
451
        0
460
0.0
461
0.0
452
        0
462
0.0
453
        0
470

  0
SPLINE
  5
AC
330
7C
100
AcDbEntity
  8
Deck Box - DF
100
AcDbSpline
210
0.0
220
0.0
230
1.0
 70
     9
 71
     3
 72
    26
 73
    22
 74
     0
 42
0.0000000001
 43
0.0000000001
 40
0.0
 40
0.0
 40
0.0
 40
0.0
 40
1.0
 40
1.0
 40
1.0
 40
2.0
 40
2.0
 40
2.0
 40
3.0
 40
3.0
 40
3.0
 40
4.0
 40
4.0
 40
4.0
 40
5.0
 40
5.0
 40
5.0
 40
6.0
 40
6.0
 40
6.0
 40
7.0
 40
7.0
 40
7.0
 40
7.0
 10
4.863786682601912
 20
-1.657687088707803
 30
0.0
 10
4.823972402101617
 20
-1.668964562396101
 30
0.0
 10
4.813937581236713
 20
-1.687997254401921
 30
0.0
 10
4.777469753545751
 20
-1.711728527522596
 30
0.0
 10
4.874311843882702
 20
-1.681858385216691
 30
0.0
 10
4.905430451837244
 20
-1.682792206884275
 30
0.0
 10
4.932665189349108
 20
-1.718192889919199
 30
0.0
 10
4.951800093073845
 20
-1.75184692312401
 30
0.0
 10
4.869304642967285
 20
-1.802554060153889
 30
0.0
 10
4.862407263410028
 20
-1.752121485308672
 30
0.0
 10
4.855781854042889
 20
-1.744885142984192
 30
0.0
 10
4.881232478451061
 20
-1.734393610012817
 30
0.0
 10
4.871504793890608
 20
-1.745432199088465
 30
0.0
 10
4.861851979121815
 20
-1.788043112601662
 30
0.0
 10
4.936346287439365
 20
-1.760017087116074
 30
0.0
 10
4.925521363394206
 20
-1.727716991916003
 30
0.0
 10
4.782331468843267
 20
-1.623501511386532
 30
0.0
 10
4.759274976182268
 20
-1.91860260206925
 30
0.0
 10
4.963215467521447
 20
-1.774786309265778
 30
0.0
 10
5.037942893144872
 20
-1.702982868781885
 30
0.0
 10
4.949965783177983
 20
-1.637811320163223
 30
0.0
 10
4.863786682601912
 20
-1.657687088707803
 30
0.0
  0
HATCH
  5
AD
330
7C
100
AcDbEntity
  8
Deck Box - DF
 62
   250
420
  2301728
440
 33554687
100
AcDbHatch
 10
0.0
 20
0.0
 30
0.0
210
0.0
220
0.0
230
1.0
  2
SOLID
 70
     1
 71
     1
 91
        1
 92
        1
 93
        1
 72
     4
 94
        3
 73
     0
 74
     0
 95
       26
 96
       22
 40
0.0
 40
0.0
 40
0.0
 40
0.0
 40
1.0
 40
1.0
 40
1.0
 40
2.0
 40
2.0
 40
2.0
 40
3.0
 40
3.0
 40
3.0
 40
4.0
 40
4.0
 40
4.0
 40
5.0
 40
5.0
 40
5.0
 40
6.0
 40
6.0
 40
6.0
 40
7.0
 40
7.0
 40
7.0
 40
7.0
 10
4.863786682601912
 20
-1.657687088707803
 10
4.823972402101617
 20
-1.668964562396101
 10
4.813937581236713
 20
-1.687997254401921
 10
4.777469753545751
 20
-1.711728527522596
 10
4.874311843882702
 20
-1.681858385216691
 10
4.905430451837244
 20
-1.682792206884275
 10
4.932665189349108
 20
-1.718192889919199
 10
4.951800093073845
 20
-1.75184692312401
 10
4.869304642967285
 20
-1.802554060153889
 10
4.862407263410028
 20
-1.752121485308672
 10
4.855781854042889
 20
-1.744885142984192
 10
4.881232478451061
 20
-1.734393610012817
 10
4.871504793890608
 20
-1.745432199088465
 10
4.861851979121815
 20
-1.788043112601662
 10
4.936346287439365
 20
-1.760017087116074
 10
4.925521363394206
 20
-1.727716991916003
 10
4.782331468843267
 20
-1.623501511386532
 10
4.759274976182268
 20
-1.91860260206925
 10
4.963215467521447
 20
-1.774786309265778
 10
5.037942893144872
 20
-1.702982868781885
 10
4.949965783177983
 20
-1.637811320163223
 10
4.863786682601912
 20
-1.657687088707803
 97
        0
 97
        1
330
AC
 75
     2
 76
     1
 98
        1
 10
0.0
 20
0.0
450
        0
451
        0
460
0.0
461
0.0
452
        0
462
0.0
453
        0
470

  0
SPLINE
  5
AE
330
7C
100
AcDbEntity
  8
Deck Box - DF
100
AcDbSpline
210
0.0
220
0.0
230
1.0
 70
     9
 71
     3
 72
    26
 73
    22
 74
     0
 42
0.0000000001
 43
0.0000000001
 40
0.0
 40
0.0
 40
0.0
 40
0.0
 40
1.0
 40
1.0
 40
1.0
 40
2.0
 40
2.0
 40
2.0
 40
3.0
 40
3.0
 40
3.0
 40
4.0
 40
4.0
 40
4.0
 40
5.0
 40
5.0
 40
5.0
 40
6.0
 40
6.0
 40
6.0
 40
7.0
 40
7.0
 40
7.0
 40
7.0
 10
5.198215590810958
 20
-1.631349343853887
 30
0.0
 10
5.229162915624859
 20
-1.632515801472853
 30
0.0
 10
5.241385319267085
 20
-1.62031942641699
 30
0.0
 10
5.273392172214167
 20
-1.611048814004094
 30
0.0
 10
5.197451247539371
 20
-1.610093536835405
 30
0.0
 10
5.175925749266879
 20
-1.60166135492102
 30
0.0
 10
5.166533349710966
 20
-1.567601449816581
 30
0.0
 10
5.162333094527866
 20
-1.536896324236509
 30
0.0
 10
5.23392417025295
 20
-1.518221081870541
 30
0.0
 10
5.22497602893855
 20
-1.558837698173887
 30
0.0
 10
5.227636671380448
 20
-1.566062232102075
 30
0.0
 10
5.206957455419973
 20
-1.5678490219851
 30
0.0
 10
5.216781281877021
 20
-1.561743759329134
 30
0.0
 10
5.235176751980487
 20
-1.531262778825837
 30
0.0
 10
5.175381238230303
 20
-1.534423009518895
 30
0.0
 10
5.17413499341564
 20
-1.562024243719368
 30
0.0
 10
5.24588996018138
 20
-1.677908662405204
 30
0.0
 10
5.34263516984212
 20
-1.455960262755562
 30
0.0
 10
5.160609173283597
 20
-1.516370290319413
 30
0.0
 10
5.088692603115481
 20
-1.553245799394125
 30
0.0
 10
5.132467902935407
 20
-1.625326172757379
 30
0.0
 10
5.198215590810958
 20
-1.631349343853887
 30
0.0
  0
HATCH
  5
AF
330
7C
100
AcDbEntity
  8
Deck Box - DF
 62
   250
420
  2301728
440
 33554687
100
AcDbHatch
 10
0.0
 20
0.0
 30
0.0
210
0.0
220
0.0
230
1.0
  2
SOLID
 70
     1
 71
     1
 91
        1
 92
        1
 93
        1
 72
     4
 94
        3
 73
     0
 74
     0
 95
       26
 96
       22
 40
0.0
 40
0.0
 40
0.0
 40
0.0
 40
1.0
 40
1.0
 40
1.0
 40
2.0
 40
2.0
 40
2.0
 40
3.0
 40
3.0
 40
3.0
 40
4.0
 40
4.0
 40
4.0
 40
5.0
 40
5.0
 40
5.0
 40
6.0
 40
6.0
 40
6.0
 40
7.0
 40
7.0
 40
7.0
 40
7.0
 10
5.198215590810958
 20
-1.631349343853887
 10
5.229162915624859
 20
-1.632515801472853
 10
5.241385319267085
 20
-1.62031942641699
 10
5.273392172214167
 20
-1.611048814004094
 10
5.197451247539371
 20
-1.610093536835405
 10
5.175925749266879
 20
-1.60166135492102
 10
5.166533349710966
 20
-1.567601449816581
 10
5.162333094527866
 20
-1.536896324236509
 10
5.23392417025295
 20
-1.518221081870541
 10
5.22497602893855
 20
-1.558837698173887
 10
5.227636671380448
 20
-1.566062232102075
 10
5.206957455419973
 20
-1.5678490219851
 10
5.216781281877021
 20
-1.561743759329134
 10
5.235176751980487
 20
-1.531262778825837
 10
5.175381238230303
 20
-1.534423009518895
 10
5.17413499341564
 20
-1.562024243719368
 10
5.24588996018138
 20
-1.677908662405204
 10
5.34263516984212
 20
-1.455960262755562
 10
5.160609173283597
 20
-1.516370290319413
 10
5.088692603115481
 20
-1.553245799394125
 10
5.132467902935407
 20
-1.625326172757379
 10
5.198215590810958
 20
-1.631349343853887
 97
        0
 97
        1
330
AE
 75
     2
 76
     1
 98
        1
 10
0.0
 20
0.0
450
        0
451
        0
460
0.0
461
0.0
452
        0
462
0.0
453
        0
470

  0
SPLINE
  5
B0
330
7C
100
AcDbEntity
  8
Deck Box - DF
100
AcDbSpline
210
0.0
220
0.0
230
1.0
 70
     9
 71
     3
 72
    38
 73
    34
 74
     0
 42
0.0000000001
 43
0.0000000001
 40
0.0
 40
0.0
 40
0.0
 40
0.0
 40
1.0
 40
1.0
 40
1.0
 40
2.0
 40
2.0
 40
2.0
 40
3.0
 40
3.0
 40
3.0
 40
4.0
 40
4.0
 40
4.0
 40
5.0
 40
5.0
 40
5.0
 40
6.0
 40
6.0
 40
6.0
 40
7.0
 40
7.0
 40
7.0
 40
8.0
 40
8.0
 40
8.0
 40
9.0
 40
9.0
 40
9.0
 40
10.0
 40
10.0
 40
10.0
 40
11.0
 40
11.0
 40
11.0
 40
11.0
 10
4.01263936360677
 20
-1.469857957628038
 30
0.0
 10
4.01263936360677
 20
-1.469857957628038
 30
0.0
 10
3.915518018934461
 20
-1.469857957628038
 30
0.0
 10
3.915518018934461
 20
-1.469857957628038
 30
0.0
 10
3.897538079155815
 20
-1.479523552788628
 30
0.0
 10
3.878829956054687
 20
-1.494780646430121
 30
0.0
 10
3.859667460123697
 20
-1.517043219672308
 30
0.0
 10
3.90100351969401
 20
-1.870883517795138
 30
0.0
 10
3.680870056152343
 20
-1.632625155978732
 30
0.0
 10
3.782108730740016
 20
-1.62295193142361
 30
0.0
 10
3.792472839355468
 20
-1.61478763156467
 30
0.0
 10
3.810797797309027
 20
-1.644495646158854
 30
0.0
 10
3.793136596679687
 20
-1.633443196614583
 30
0.0
 10
3.727606879340277
 20
-1.623835245768229
 30
0.0
 10
3.777175903320312
 20
-1.710905287000867
 30
0.0
 10
3.825125800238715
 20
-1.696689181857638
 30
0.0
 10
3.969560411241319
 20
-1.522533840603298
 30
0.0
 10
3.5198974609375
 20
-1.50789557562934
 30
0.0
 10
3.757331000434027
 20
-1.743379380967881
 30
0.0
 10
3.832834031846788
 20
-1.798127068413628
 30
0.0
 10
3.947510613335503
 20
-1.782096015082465
 30
0.0
 10
3.953799777560763
 20
-1.696368747287326
 30
0.0
 10
3.859895494249131
 20
-1.385342915852864
 30
0.0
 10
4.139606899685329
 20
-1.573215060763888
 30
0.0
 10
4.009908040364583
 20
-1.613391452365451
 30
0.0
 10
4.002671135796441
 20
-1.606393602159288
 30
0.0
 10
3.987737867567274
 20
-1.589273240831163
 30
0.0
 10
4.004235161675347
 20
-1.598469204372829
 30
0.0
 10
4.119637383355034
 20
-1.566429138183593
 30
0.0
 10
3.89087422688802
 20
-1.47623782687717
 30
0.0
 10
3.945619371202256
 20
-1.60675557454427
 30
0.0
 10
4.149408128526475
 20
-1.792916191948784
 30
0.0
 10
4.122854444715711
 20
-1.533149719238281
 30
0.0
 10
4.01263936360677
 20
-1.469857957628038
 30
0.0
  0
HATCH
  5
B1
330
7C
100
AcDbEntity
  8
Deck Box - DF
 62
   250
420
  2301728
440
 33554687
100
AcDbHatch
 10
0.0
 20
0.0
 30
0.0
210
0.0
220
0.0
230
1.0
  2
SOLID
 70
     1
 71
     1
 91
        1
 92
        1
 93
        1
 72
     4
 94
        3
 73
     0
 74
     0
 95
       38
 96
       34
 40
0.0
 40
0.0
 40
0.0
 40
0.0
 40
1.0
 40
1.0
 40
1.0
 40
2.0
 40
2.0
 40
2.0
 40
3.0
 40
3.0
 40
3.0
 40
4.0
 40
4.0
 40
4.0
 40
5.0
 40
5.0
 40
5.0
 40
6.0
 40
6.0
 40
6.0
 40
7.0
 40
7.0
 40
7.0
 40
8.0
 40
8.0
 40
8.0
 40
9.0
 40
9.0
 40
9.0
 40
10.0
 40
10.0
 40
10.0
 40
11.0
 40
11.0
 40
11.0
 40
11.0
 10
4.01263936360677
 20
-1.469857957628038
 10
4.01263936360677
 20
-1.469857957628038
 10
3.915518018934461
 20
-1.469857957628038
 10
3.915518018934461
 20
-1.469857957628038
 10
3.897538079155815
 20
-1.479523552788628
 10
3.878829956054687
 20
-1.494780646430121
 10
3.859667460123697
 20
-1.517043219672308
 10
3.90100351969401
 20
-1.870883517795138
 10
3.680870056152343
 20
-1.632625155978732
 10
3.782108730740016
 20
-1.62295193142361
 10
3.792472839355468
 20
-1.61478763156467
 10
3.810797797309027
 20
-1.644495646158854
 10
3.793136596679687
 20
-1.633443196614583
 10
3.727606879340277
 20
-1.623835245768229
 10
3.777175903320312
 20
-1.710905287000867
 10
3.825125800238715
 20
-1.696689181857638
 10
3.969560411241319
 20
-1.522533840603298
 10
3.5198974609375
 20
-1.50789557562934
 10
3.757331000434027
 20
-1.743379380967881
 10
3.832834031846788
 20
-1.798127068413628
 10
3.947510613335503
 20
-1.782096015082465
 10
3.953799777560763
 20
-1.696368747287326
 10
3.859895494249131
 20
-1.385342915852864
 10
4.139606899685329
 20
-1.573215060763888
 10
4.009908040364583
 20
-1.613391452365451
 10
4.002671135796441
 20
-1.606393602159288
 10
3.987737867567274
 20
-1.589273240831163
 10
4.004235161675347
 20
-1.598469204372829
 10
4.119637383355034
 20
-1.566429138183593
 10
3.89087422688802
 20
-1.47623782687717
 10
3.945619371202256
 20
-1.60675557454427
 10
4.149408128526475
 20
-1.792916191948784
 10
4.122854444715711
 20
-1.533149719238281
 10
4.01263936360677
 20
-1.469857957628038
 97
        0
 97
        1
330
B0
 75
     2
 76
     1
 98
        1
 10
0.0
 20
0.0
450
        0
451
        0
460
0.0
461
0.0
452
        0
462
0.0
453
        0
470

  0
SPLINE
  5
B2
330
7C
100
AcDbEntity
  8
Deck Box - DF
100
AcDbSpline
210
0.0
220
0.0
230
1.0
 70
     9
 71
     3
 72
    11
 73
     7
 74
     0
 42
0.0000000001
 43
0.0000000001
 40
0.0
 40
0.0
 40
0.0
 40
0.0
 40
1.0
 40
1.0
 40
1.0
 40
2.0
 40
2.0
 40
2.0
 40
2.0
 10
3.99772474500868
 20
-2.397162543402777
 30
0.0
 10
3.970759073893228
 20
-2.340944078233506
 30
0.0
 10
3.905140346950954
 20
-2.307084825303819
 30
0.0
 10
3.800862630208333
 20
-2.397162543402777
 30
0.0
 10
3.800862630208333
 20
-2.397162543402777
 30
0.0
 10
3.99772474500868
 20
-2.397162543402777
 30
0.0
 10
3.99772474500868
 20
-2.397162543402777
 30
0.0
  0
HATCH
  5
B3
330
7C
100
AcDbEntity
  8
Deck Box - DF
 62
   250
420
  2301728
440
 33554687
100
AcDbHatch
 10
0.0
 20
0.0
 30
0.0
210
0.0
220
0.0
230
1.0
  2
SOLID
 70
     1
 71
     1
 91
        1
 92
        1
 93
        1
 72
     4
 94
        3
 73
     0
 74
     0
 95
       11
 96
        7
 40
0.0
 40
0.0
 40
0.0
 40
0.0
 40
1.0
 40
1.0
 40
1.0
 40
2.0
 40
2.0
 40
2.0
 40
2.0
 10
3.99772474500868
 20
-2.397162543402777
 10
3.970759073893228
 20
-2.340944078233506
 10
3.905140346950954
 20
-2.307084825303819
 10
3.800862630208333
 20
-2.397162543402777
 10
3.800862630208333
 20
-2.397162543402777
 10
3.99772474500868
 20
-2.397162543402777
 10
3.99772474500868
 20
-2.397162543402777
 97
        0
 97
        1
330
B2
 75
     2
 76
     1
 98
        1
 10
0.0
 20
0.0
450
        0
451
        0
460
0.0
461
0.0
452
        0
462
0.0
453
        0
470

  0
SPLINE
  5
B4
330
7C
100
AcDbEntity
  8
Deck Box - DF
100
AcDbSpline
210
0.0
220
0.0
230
1.0
 70
     9
 71
     3
 72
    17
 73
    13
 74
     0
 42
0.0000000001
 43
0.0000000001
 40
0.0
 40
0.0
 40
0.0
 40
0.0
 40
1.0
 40
1.0
 40
1.0
 40
2.0
 40
2.0
 40
2.0
 40
3.0
 40
3.0
 40
3.0
 40
4.0
 40
4.0
 40
4.0
 40
4.0
 10
4.840448861026819
 20
-2.086237035125274
 30
0.0
 10
4.827462071747277
 20
-2.106991557780639
 30
0.0
 10
4.806981780554123
 20
-2.113111554047337
 30
0.0
 10
4.782389322773193
 20
-2.111884038743419
 30
0.0
 10
4.8518231138085
 20
-2.108589292527502
 30
0.0
 10
4.844253324114737
 20
-1.957821819442566
 30
0.0
 10
4.770977635095605
 20
-2.042982632650111
 30
0.0
 10
4.773498818610454
 20
-2.060180515028327
 30
0.0
 10
4.761671376711015
 20
-2.042853624617982
 30
0.0
 10
4.757347079046843
 20
-2.034740079381511
 30
0.0
 10
4.783460471269866
 20
-1.969641954171922
 30
0.0
 10
4.881113651016549
 20
-2.031070977192547
 30
0.0
 10
4.840448861026819
 20
-2.086237035125274
 30
0.0
  0
SPLINE
  5
B5
330
7C
100
AcDbEntity
  8
Deck Box - DF
100
AcDbSpline
210
0.0
220
0.0
230
1.0
 70
     9
 71
     3
 72
    29
 73
    25
 74
     0
 42
0.0000000001
 43
0.0000000001
 40
0.0
 40
0.0
 40
0.0
 40
0.0
 40
1.0
 40
1.0
 40
1.0
 40
2.0
 40
2.0
 40
2.0
 40
3.0
 40
3.0
 40
3.0
 40
4.0
 40
4.0
 40
4.0
 40
5.0
 40
5.0
 40
5.0
 40
6.0
 40
6.0
 40
6.0
 40
7.0
 40
7.0
 40
7.0
 40
8.0
 40
8.0
 40
8.0
 40
8.0
 10
4.748457425677239
 20
-1.954866527227093
 30
0.0
 10
4.671566149635534
 20
-2.001410246722406
 30
0.0
 10
4.687896555747429
 20
-2.089024797872133
 30
0.0
 10
4.766742103510219
 20
-2.110266396945474
 30
0.0
 10
4.66198565227915
 20
-2.094423745237691
 30
0.0
 10
4.502027476774123
 20
-1.98405103967074
 30
0.0
 10
4.50212333279526
 20
-2.24387399202241
 30
0.0
 10
4.650333473755659
 20
-2.512005940657268
 30
0.0
 10
4.837699948562329
 20
-2.090453710484755
 30
0.0
 10
4.583442136062355
 20
-2.190081520612377
 30
0.0
 10
4.546343303498385
 20
-2.231877796231161
 30
0.0
 10
4.618415120299206
 20
-2.295442044377093
 30
0.0
 10
4.637610430333122
 20
-2.232514046265464
 30
0.0
 10
4.633600358915852
 20
-2.213861139428457
 30
0.0
 10
4.657552736697576
 20
-2.236863349120944
 30
0.0
 10
4.644020872646933
 20
-2.244860295915524
 30
0.0
 10
4.598530100669322
 20
-2.313376746177406
 30
0.0
 10
4.533116590568346
 20
-2.215386226365656
 30
0.0
 10
4.581534374363273
 20
-2.174393730249789
 30
0.0
 10
4.64911173488253
 20
-2.128251254173114
 30
0.0
 10
4.718673144880969
 20
-2.208763900226257
 30
0.0
 10
4.794022783848782
 20
-2.193829733939272
 30
0.0
 10
4.971600600590414
 20
-2.160780926793108
 30
0.0
 10
4.922285230088542
 20
-1.897106347862303
 30
0.0
 10
4.748457425677239
 20
-1.954866527227093
 30
0.0
  0
HATCH
  5
B6
330
7C
100
AcDbEntity
  8
Deck Box - DF
 62
   250
420
  2301728
440
 33554687
100
AcDbHatch
 10
0.0
 20
0.0
 30
0.0
210
0.0
220
0.0
230
1.0
  2
SOLID
 70
     1
 71
     1
 91
        2
 92
        1
 93
        1
 72
     4
 94
        3
 73
     0
 74
     0
 95
       17
 96
       13
 40
0.0
 40
0.0
 40
0.0
 40
0.0
 40
1.0
 40
1.0
 40
1.0
 40
2.0
 40
2.0
 40
2.0
 40
3.0
 40
3.0
 40
3.0
 40
4.0
 40
4.0
 40
4.0
 40
4.0
 10
4.840448861026819
 20
-2.086237035125274
 10
4.827462071747277
 20
-2.106991557780639
 10
4.806981780554123
 20
-2.113111554047337
 10
4.782389322773193
 20
-2.111884038743419
 10
4.8518231138085
 20
-2.108589292527502
 10
4.844253324114737
 20
-1.957821819442566
 10
4.770977635095605
 20
-2.042982632650111
 10
4.773498818610454
 20
-2.060180515028327
 10
4.761671376711015
 20
-2.042853624617982
 10
4.757347079046843
 20
-2.034740079381511
 10
4.783460471269866
 20
-1.969641954171922
 10
4.881113651016549
 20
-2.031070977192547
 10
4.840448861026819
 20
-2.086237035125274
 97
        0
 97
        1
330
B4
 92
        1
 93
        1
 72
     4
 94
        3
 73
     0
 74
     0
 95
       29
 96
       25
 40
0.0
 40
0.0
 40
0.0
 40
0.0
 40
1.0
 40
1.0
 40
1.0
 40
2.0
 40
2.0
 40
2.0
 40
3.0
 40
3.0
 40
3.0
 40
4.0
 40
4.0
 40
4.0
 40
5.0
 40
5.0
 40
5.0
 40
6.0
 40
6.0
 40
6.0
 40
7.0
 40
7.0
 40
7.0
 40
8.0
 40
8.0
 40
8.0
 40
8.0
 10
4.748457425677239
 20
-1.954866527227093
 10
4.671566149635534
 20
-2.001410246722406
 10
4.687896555747429
 20
-2.089024797872133
 10
4.766742103510219
 20
-2.110266396945474
 10
4.66198565227915
 20
-2.094423745237691
 10
4.502027476774123
 20
-1.98405103967074
 10
4.50212333279526
 20
-2.24387399202241
 10
4.650333473755659
 20
-2.512005940657268
 10
4.837699948562329
 20
-2.090453710484755
 10
4.583442136062355
 20
-2.190081520612377
 10
4.546343303498385
 20
-2.231877796231161
 10
4.618415120299206
 20
-2.295442044377093
 10
4.637610430333122
 20
-2.232514046265464
 10
4.633600358915852
 20
-2.213861139428457
 10
4.657552736697576
 20
-2.236863349120944
 10
4.644020872646933
 20
-2.244860295915524
 10
4.598530100669322
 20
-2.313376746177406
 10
4.533116590568346
 20
-2.215386226365656
 10
4.581534374363273
 20
-2.174393730249789
 10
4.64911173488253
 20
-2.128251254173114
 10
4.718673144880969
 20
-2.208763900226257
 10
4.794022783848782
 20
-2.193829733939272
 10
4.971600600590414
 20
-2.160780926793108
 10
4.922285230088542
 20
-1.897106347862303
 10
4.748457425677239
 20
-1.954866527227093
 97
        0
 97
        1
330
B5
 75
     2
 76
     1
 98
        1
 10
0.0
 20
0.0
450
        0
451
        0
460
0.0
461
0.0
452
        0
462
0.0
453
        0
470

  0
SPLINE
  5
B7
330
7C
100
AcDbEntity
  8
Deck Box - DF
100
AcDbSpline
210
0.0
220
0.0
230
1.0
 70
     9
 71
     3
 72
    14
 73
    10
 74
     0
 42
0.0000000001
 43
0.0000000001
 40
0.0
 40
0.0
 40
0.0
 40
0.0
 40
1.0
 40
1.0
 40
1.0
 40
2.0
 40
2.0
 40
2.0
 40
3.0
 40
3.0
 40
3.0
 40
3.0
 10
4.320807562934027
 20
-2.204170227050781
 30
0.0
 10
4.314620123969183
 20
-2.200288560655381
 30
0.0
 10
4.302018907335069
 20
-2.189979553222656
 30
0.0
 10
4.316690233018663
 20
-2.192948235405816
 30
0.0
 10
4.40507337782118
 20
-2.142572191026475
 30
0.0
 10
4.289484659830728
 20
-2.126979404025607
 30
0.0
 10
4.261698404947916
 20
-2.172738817003037
 30
0.0
 10
4.286127726236978
 20
-2.085091484917534
 30
0.0
 10
4.421492682562933
 20
-2.159579806857638
 30
0.0
 10
4.320807562934027
 20
-2.204170227050781
 30
0.0
  0
SPLINE
  5
B8
330
7C
100
AcDbEntity
  8
Deck Box - DF
100
AcDbSpline
210
0.0
220
0.0
230
1.0
 70
     9
 71
     3
 72
    32
 73
    28
 74
     0
 42
0.0000000001
 43
0.0000000001
 40
0.0
 40
0.0
 40
0.0
 40
0.0
 40
1.0
 40
1.0
 40
1.0
 40
2.0
 40
2.0
 40
2.0
 40
3.0
 40
3.0
 40
3.0
 40
4.0
 40
4.0
 40
4.0
 40
5.0
 40
5.0
 40
5.0
 40
6.0
 40
6.0
 40
6.0
 40
7.0
 40
7.0
 40
7.0
 40
8.0
 40
8.0
 40
8.0
 40
9.0
 40
9.0
 40
9.0
 40
9.0
 10
4.188191731770833
 20
-2.16619873046875
 30
0.0
 10
4.157274881998697
 20
-2.224708557128906
 30
0.0
 10
4.212401496039496
 20
-2.284116956922742
 30
0.0
 10
4.155584547254774
 20
-2.334737989637586
 30
0.0
 10
4.107835557725694
 20
-2.370553758409287
 30
0.0
 10
4.036222669813367
 20
-2.313416375054253
 30
0.0
 10
4.107712639702691
 20
-2.28147718641493
 30
0.0
 10
4.117986891004774
 20
-2.271269904242621
 30
0.0
 10
4.13277859157986
 20
-2.291456434461805
 30
0.0
 10
4.117165459526909
 20
-2.287233140733506
 30
0.0
 10
4.056808471679687
 20
-2.29876963297526
 30
0.0
 10
4.096303304036458
 20
-2.359190199110242
 30
0.0
 10
4.142108493381075
 20
-2.332339816623263
 30
0.0
 10
4.29022216796875
 20
-2.137660556369357
 30
0.0
 10
3.872094048394096
 20
-2.261263529459635
 30
0.0
 10
4.075292799207899
 20
-2.393342759874131
 30
0.0
 10
4.085416158040364
 20
-2.39514414469401
 30
0.0
 10
4.094768100314669
 20
-2.396293640136718
 30
0.0
 10
4.10378180609809
 20
-2.397162543402777
 30
0.0
 10
4.10378180609809
 20
-2.397162543402777
 30
0.0
 10
4.15401373969184
 20
-2.397162543402777
 30
0.0
 10
4.15401373969184
 20
-2.397162543402777
 30
0.0
 10
4.298176235622829
 20
-2.379525926378037
 30
0.0
 10
4.235946655273437
 20
-2.201819525824652
 30
0.0
 10
4.261390686035156
 20
-2.217863294813367
 30
0.0
 10
4.498062981499566
 20
-2.362921820746527
 30
0.0
 10
4.415520562065972
 20
-1.890435112847222
 30
0.0
 10
4.188191731770833
 20
-2.16619873046875
 30
0.0
  0
HATCH
  5
B9
330
7C
100
AcDbEntity
  8
Deck Box - DF
 62
   250
420
  2301728
440
 33554687
100
AcDbHatch
 10
0.0
 20
0.0
 30
0.0
210
0.0
220
0.0
230
1.0
  2
SOLID
 70
     1
 71
     1
 91
        2
 92
        1
 93
        1
 72
     4
 94
        3
 73
     0
 74
     0
 95
       14
 96
       10
 40
0.0
 40
0.0
 40
0.0
 40
0.0
 40
1.0
 40
1.0
 40
1.0
 40
2.0
 40
2.0
 40
2.0
 40
3.0
 40
3.0
 40
3.0
 40
3.0
 10
4.320807562934027
 20
-2.204170227050781
 10
4.314620123969183
 20
-2.200288560655381
 10
4.302018907335069
 20
-2.189979553222656
 10
4.316690233018663
 20
-2.192948235405816
 10
4.40507337782118
 20
-2.142572191026475
 10
4.289484659830728
 20
-2.126979404025607
 10
4.261698404947916
 20
-2.172738817003037
 10
4.286127726236978
 20
-2.085091484917534
 10
4.421492682562933
 20
-2.159579806857638
 10
4.320807562934027
 20
-2.204170227050781
 97
        0
 97
        1
330
B7
 92
        1
 93
        1
 72
     4
 94
        3
 73
     0
 74
     0
 95
       32
 96
       28
 40
0.0
 40
0.0
 40
0.0
 40
0.0
 40
1.0
 40
1.0
 40
1.0
 40
2.0
 40
2.0
 40
2.0
 40
3.0
 40
3.0
 40
3.0
 40
4.0
 40
4.0
 40
4.0
 40
5.0
 40
5.0
 40
5.0
 40
6.0
 40
6.0
 40
6.0
 40
7.0
 40
7.0
 40
7.0
 40
8.0
 40
8.0
 40
8.0
 40
9.0
 40
9.0
 40
9.0
 40
9.0
 10
4.188191731770833
 20
-2.16619873046875
 10
4.157274881998697
 20
-2.224708557128906
 10
4.212401496039496
 20
-2.284116956922742
 10
4.155584547254774
 20
-2.334737989637586
 10
4.107835557725694
 20
-2.370553758409287
 10
4.036222669813367
 20
-2.313416375054253
 10
4.107712639702691
 20
-2.28147718641493
 10
4.117986891004774
 20
-2.271269904242621
 10
4.13277859157986
 20
-2.291456434461805
 10
4.117165459526909
 20
-2.287233140733506
 10
4.056808471679687
 20
-2.29876963297526
 10
4.096303304036458
 20
-2.359190199110242
 10
4.142108493381075
 20
-2.332339816623263
 10
4.29022216796875
 20
-2.137660556369357
 10
3.872094048394096
 20
-2.261263529459635
 10
4.075292799207899
 20
-2.393342759874131
 10
4.085416158040364
 20
-2.39514414469401
 10
4.094768100314669
 20
-2.396293640136718
 10
4.10378180609809
 20
-2.397162543402777
 10
4.10378180609809
 20
-2.397162543402777
 10
4.15401373969184
 20
-2.397162543402777
 10
4.15401373969184
 20
-2.397162543402777
 10
4.298176235622829
 20
-2.379525926378037
 10
4.235946655273437
 20
-2.201819525824652
 10
4.261390686035156
 20
-2.217863294813367
 10
4.498062981499566
 20
-2.362921820746527
 10
4.415520562065972
 20
-1.890435112847222
 10
4.188191731770833
 20
-2.16619873046875
 97
        0
 97
        1
330
B8
 75
     2
 76
     1
 98
        1
 10
0.0
 20
0.0
450
        0
451
        0
460
0.0
461
0.0
452
        0
462
0.0
453
        0
470

  0
SPLINE
  5
BA
330
7C
100
AcDbEntity
  8
Deck Box - DF
100
AcDbSpline
210
0.0
220
0.0
230
1.0
 70
     9
 71
     3
 72
    14
 73
    10
 74
     0
 42
0.0000000001
 43
0.0000000001
 40
0.0
 40
0.0
 40
0.0
 40
0.0
 40
1.0
 40
1.0
 40
1.0
 40
2.0
 40
2.0
 40
2.0
 40
3.0
 40
3.0
 40
3.0
 40
3.0
 10
5.576670073129762
 20
-1.693240407549271
 30
0.0
 10
5.619835089696707
 20
-1.602868953914228
 30
0.0
 10
5.646683766070357
 20
-1.71291801874434
 30
0.0
 10
5.602520279813284
 20
-1.744319416733724
 30
0.0
 10
5.689826705014082
 20
-1.711974380489904
 30
0.0
 10
5.600897233181513
 20
-1.588714245481658
 30
0.0
 10
5.564807509812099
 20
-1.690386191224143
 30
0.0
 10
5.569359929032341
 20
-1.695973073636764
 30
0.0
 10
5.581088875377998
 20
-1.707110461446581
 30
0.0
 10
5.576670073129762
 20
-1.693240407549271
 30
0.0
  0
SPLINE
  5
BB
330
7C
100
AcDbEntity
  8
Deck Box - DF
100
AcDbSpline
210
0.0
220
0.0
230
1.0
 70
     9
 71
     3
 72
    35
 73
    31
 74
     0
 42
0.0000000001
 43
0.0000000001
 40
0.0
 40
0.0
 40
0.0
 40
0.0
 40
1.0
 40
1.0
 40
1.0
 40
2.0
 40
2.0
 40
2.0
 40
3.0
 40
3.0
 40
3.0
 40
4.0
 40
4.0
 40
4.0
 40
5.0
 40
5.0
 40
5.0
 40
6.0
 40
6.0
 40
6.0
 40
7.0
 40
7.0
 40
7.0
 40
8.0
 40
8.0
 40
8.0
 40
9.0
 40
9.0
 40
9.0
 40
10.0
 40
10.0
 40
10.0
 40
10.0
 10
5.400654845917491
 20
-1.953304823541151
 30
0.0
 10
5.396603649599076
 20
-1.9488563107799
 30
0.0
 10
5.393603794379865
 20
-1.943191578037499
 30
0.0
 10
5.392044352666617
 20
-1.937285009325352
 30
0.0
 10
5.333943650196361
 20
-1.717221772305277
 30
0.0
 10
5.577722425883621
 20
-1.77514797527835
 30
0.0
 10
5.556414267383009
 20
-1.749124545178688
 30
0.0
 10
5.386557428659342
 20
-1.536078077207965
 30
0.0
 10
5.872146539506754
 20
-1.567297727050079
 30
0.0
 10
5.619679441160719
 20
-1.811255347245946
 30
0.0
 10
5.617391875165442
 20
-1.813465810153388
 30
0.0
 10
5.614775852534521
 20
-1.8155465442338
 30
0.0
 10
5.612022041826851
 20
-1.81707502247904
 30
0.0
 10
5.556079252193108
 20
-1.848125572430224
 30
0.0
 10
5.492182846666436
 20
-1.804486411804052
 30
0.0
 10
5.446904915633922
 20
-1.862963618168919
 30
0.0
 10
5.414791665919462
 20
-1.91264612531831
 30
0.0
 10
5.479966025095538
 20
-1.97608397720483
 30
0.0
 10
5.505875659908497
 20
-1.903865407850718
 30
0.0
 10
5.515342013916298
 20
-1.892924773989067
 30
0.0
 10
5.493307082564998
 20
-1.880659502158007
 30
0.0
 10
5.499098813839711
 20
-1.895313189766978
 30
0.0
 10
5.494015401878161
 20
-1.944838527710354
 30
0.0
 10
5.447681679846355
 20
-1.930802608016784
 30
0.0
 10
5.445763633061106
 20
-1.897601171204213
 30
0.0
 10
5.44508254617507
 20
-1.885811540532623
 30
0.0
 10
5.451331493136649
 20
-1.874838501006289
 30
0.0
 10
5.460220722354758
 20
-1.867629644973766
 30
0.0
 10
5.630263642800602
 20
-1.729730744769704
 30
0.0
 10
5.548325539627335
 20
-2.115458151547878
 30
0.0
 10
5.400654845917491
 20
-1.953304823541151
 30
0.0
  0
HATCH
  5
BC
330
7C
100
AcDbEntity
  8
Deck Box - DF
 62
   250
420
  2301728
440
 33554687
100
AcDbHatch
 10
0.0
 20
0.0
 30
0.0
210
0.0
220
0.0
230
1.0
  2
SOLID
 70
     1
 71
     1
 91
        2
 92
        1
 93
        1
 72
     4
 94
        3
 73
     0
 74
     0
 95
       14
 96
       10
 40
0.0
 40
0.0
 40
0.0
 40
0.0
 40
1.0
 40
1.0
 40
1.0
 40
2.0
 40
2.0
 40
2.0
 40
3.0
 40
3.0
 40
3.0
 40
3.0
 10
5.576670073129762
 20
-1.693240407549271
 10
5.619835089696707
 20
-1.602868953914228
 10
5.646683766070357
 20
-1.71291801874434
 10
5.602520279813284
 20
-1.744319416733724
 10
5.689826705014082
 20
-1.711974380489904
 10
5.600897233181513
 20
-1.588714245481658
 10
5.564807509812099
 20
-1.690386191224143
 10
5.569359929032341
 20
-1.695973073636764
 10
5.581088875377998
 20
-1.707110461446581
 10
5.576670073129762
 20
-1.693240407549271
 97
        0
 97
        1
330
BA
 92
        1
 93
        1
 72
     4
 94
        3
 73
     0
 74
     0
 95
       35
 96
       31
 40
0.0
 40
0.0
 40
0.0
 40
0.0
 40
1.0
 40
1.0
 40
1.0
 40
2.0
 40
2.0
 40
2.0
 40
3.0
 40
3.0
 40
3.0
 40
4.0
 40
4.0
 40
4.0
 40
5.0
 40
5.0
 40
5.0
 40
6.0
 40
6.0
 40
6.0
 40
7.0
 40
7.0
 40
7.0
 40
8.0
 40
8.0
 40
8.0
 40
9.0
 40
9.0
 40
9.0
 40
10.0
 40
10.0
 40
10.0
 40
10.0
 10
5.400654845917491
 20
-1.953304823541151
 10
5.396603649599076
 20
-1.9488563107799
 10
5.393603794379865
 20
-1.943191578037499
 10
5.392044352666617
 20
-1.937285009325352
 10
5.333943650196361
 20
-1.717221772305277
 10
5.577722425883621
 20
-1.77514797527835
 10
5.556414267383009
 20
-1.749124545178688
 10
5.386557428659342
 20
-1.536078077207965
 10
5.872146539506754
 20
-1.567297727050079
 10
5.619679441160719
 20
-1.811255347245946
 10
5.617391875165442
 20
-1.813465810153388
 10
5.614775852534521
 20
-1.8155465442338
 10
5.612022041826851
 20
-1.81707502247904
 10
5.556079252193108
 20
-1.848125572430224
 10
5.492182846666436
 20
-1.804486411804052
 10
5.446904915633922
 20
-1.862963618168919
 10
5.414791665919462
 20
-1.91264612531831
 10
5.479966025095538
 20
-1.97608397720483
 10
5.505875659908497
 20
-1.903865407850718
 10
5.515342013916298
 20
-1.892924773989067
 10
5.493307082564998
 20
-1.880659502158007
 10
5.499098813839711
 20
-1.895313189766978
 10
5.494015401878161
 20
-1.944838527710354
 10
5.447681679846355
 20
-1.930802608016784
 10
5.445763633061106
 20
-1.897601171204213
 10
5.44508254617507
 20
-1.885811540532623
 10
5.451331493136649
 20
-1.874838501006289
 10
5.460220722354758
 20
-1.867629644973766
 10
5.630263642800602
 20
-1.729730744769704
 10
5.548325539627335
 20
-2.115458151547878
 10
5.400654845917491
 20
-1.953304823541151
 97
        0
 97
        1
330
BB
 75
     2
 76
     1
 98
        1
 10
0.0
 20
0.0
450
        0
451
        0
460
0.0
461
0.0
452
        0
462
0.0
453
        0
470

  0
SPLINE
  5
BD
330
7C
100
AcDbEntity
  8
Deck Box - DF
100
AcDbSpline
210
0.0
220
0.0
230
1.0
 70
     9
 71
     3
 72
    14
 73
    10
 74
     0
 42
0.0000000001
 43
0.0000000001
 40
0.0
 40
0.0
 40
0.0
 40
0.0
 40
1.0
 40
1.0
 40
1.0
 40
2.0
 40
2.0
 40
2.0
 40
3.0
 40
3.0
 40
3.0
 40
3.0
 10
4.530528761595001
 20
-2.000013650751106
 30
0.0
 10
4.508309165734039
 20
-2.10515183602355
 30
0.0
 10
4.342680737901042
 20
-2.004300905655238
 30
0.0
 10
4.460425963595475
 20
-1.963790056761619
 30
0.0
 10
4.467416079599261
 20
-1.968905134749825
 30
0.0
 10
4.481650698739864
 20
-1.982031895921042
 30
0.0
 10
4.465065905494939
 20
-1.976933364053201
 30
0.0
 10
4.361021568077805
 20
-2.025038365123982
 30
0.0
 10
4.50671704827035
 20
-2.05707139560017
 30
0.0
 10
4.530528761595001
 20
-2.000013650751106
 30
0.0
  0
SPLINE
  5
BE
330
7C
100
AcDbEntity
  8
Deck Box - DF
100
AcDbSpline
210
0.0
220
0.0
230
1.0
 70
     9
 71
     3
 72
    26
 73
    22
 74
     0
 42
0.0000000001
 43
0.0000000001
 40
0.0
 40
0.0
 40
0.0
 40
0.0
 40
1.0
 40
1.0
 40
1.0
 40
2.0
 40
2.0
 40
2.0
 40
3.0
 40
3.0
 40
3.0
 40
4.0
 40
4.0
 40
4.0
 40
5.0
 40
5.0
 40
5.0
 40
6.0
 40
6.0
 40
6.0
 40
7.0
 40
7.0
 40
7.0
 40
7.0
 10
4.738242803873238
 20
-1.779864675549396
 30
0.0
 10
4.478478658513393
 20
-1.734604055981069
 30
0.0
 10
4.54606339257273
 20
-1.890196791414862
 30
0.0
 10
4.533755536176739
 20
-1.983709258872131
 30
0.0
 10
4.531985035762444
 20
-1.912014402303106
 30
0.0
 10
4.449303261969841
 20
-1.885112995935476
 30
0.0
 10
4.382650713536299
 20
-1.942552594218378
 30
0.0
 10
4.2783857371119
 20
-2.082255883447727
 30
0.0
 10
4.529817214976471
 20
-2.169594579747152
 30
0.0
 10
4.610285508754082
 20
-2.022453809417735
 30
0.0
 10
4.597580331986415
 20
-1.694723252326651
 30
0.0
 10
4.809961257945183
 20
-1.866254813792781
 30
0.0
 10
4.701472377440975
 20
-1.902098881146608
 30
0.0
 10
4.689821616905924
 20
-1.912378416950938
 30
0.0
 10
4.673122250191909
 20
-1.887854222718829
 30
0.0
 10
4.69077025119802
 20
-1.894481202454547
 30
0.0
 10
4.759025126612337
 20
-1.888686440866106
 30
0.0
 10
4.714446121226475
 20
-1.815855589721384
 30
0.0
 10
4.662624597887593
 20
-1.840652277873118
 30
0.0
 10
4.494923354496651
 20
-2.042420581624279
 30
0.0
 10
4.967821094099715
 20
-1.95303378586454
 30
0.0
 10
4.738242803873238
 20
-1.779864675549396
 30
0.0
  0
HATCH
  5
BF
330
7C
100
AcDbEntity
  8
Deck Box - DF
 62
   250
420
  2301728
440
 33554687
100
AcDbHatch
 10
0.0
 20
0.0
 30
0.0
210
0.0
220
0.0
230
1.0
  2
SOLID
 70
     1
 71
     1
 91
        2
 92
        1
 93
        1
 72
     4
 94
        3
 73
     0
 74
     0
 95
       14
 96
       10
 40
0.0
 40
0.0
 40
0.0
 40
0.0
 40
1.0
 40
1.0
 40
1.0
 40
2.0
 40
2.0
 40
2.0
 40
3.0
 40
3.0
 40
3.0
 40
3.0
 10
4.530528761595001
 20
-2.000013650751106
 10
4.508309165734039
 20
-2.10515183602355
 10
4.342680737901042
 20
-2.004300905655238
 10
4.460425963595475
 20
-1.963790056761619
 10
4.467416079599261
 20
-1.968905134749825
 10
4.481650698739864
 20
-1.982031895921042
 10
4.465065905494939
 20
-1.976933364053201
 10
4.361021568077805
 20
-2.025038365123982
 10
4.50671704827035
 20
-2.05707139560017
 10
4.530528761595001
 20
-2.000013650751106
 97
        0
 97
        1
330
BD
 92
        1
 93
        1
 72
     4
 94
        3
 73
     0
 74
     0
 95
       26
 96
       22
 40
0.0
 40
0.0
 40
0.0
 40
0.0
 40
1.0
 40
1.0
 40
1.0
 40
2.0
 40
2.0
 40
2.0
 40
3.0
 40
3.0
 40
3.0
 40
4.0
 40
4.0
 40
4.0
 40
5.0
 40
5.0
 40
5.0
 40
6.0
 40
6.0
 40
6.0
 40
7.0
 40
7.0
 40
7.0
 40
7.0
 10
4.738242803873238
 20
-1.779864675549396
 10
4.478478658513393
 20
-1.734604055981069
 10
4.54606339257273
 20
-1.890196791414862
 10
4.533755536176739
 20
-1.983709258872131
 10
4.531985035762444
 20
-1.912014402303106
 10
4.449303261969841
 20
-1.885112995935476
 10
4.382650713536299
 20
-1.942552594218378
 10
4.2783857371119
 20
-2.082255883447727
 10
4.529817214976471
 20
-2.169594579747152
 10
4.610285508754082
 20
-2.022453809417735
 10
4.597580331986415
 20
-1.694723252326651
 10
4.809961257945183
 20
-1.866254813792781
 10
4.701472377440975
 20
-1.902098881146608
 10
4.689821616905924
 20
-1.912378416950938
 10
4.673122250191909
 20
-1.887854222718829
 10
4.69077025119802
 20
-1.894481202454547
 10
4.759025126612337
 20
-1.888686440866106
 10
4.714446121226475
 20
-1.815855589721384
 10
4.662624597887593
 20
-1.840652277873118
 10
4.494923354496651
 20
-2.042420581624279
 10
4.967821094099715
 20
-1.95303378586454
 10
4.738242803873238
 20
-1.779864675549396
 97
        0
 97
        1
330
BE
 75
     2
 76
     1
 98
        1
 10
0.0
 20
0.0
450
        0
451
        0
460
0.0
461
0.0
452
        0
462
0.0
453
        0
470

  0
SPLINE
  5
C0
330
7C
100
AcDbEntity
  8
Deck Box - DF
100
AcDbSpline
210
0.0
220
0.0
230
1.0
 70
     9
 71
     3
 72
    14
 73
    10
 74
     0
 42
0.0000000001
 43
0.0000000001
 40
0.0
 40
0.0
 40
0.0
 40
0.0
 40
1.0
 40
1.0
 40
1.0
 40
2.0
 40
2.0
 40
2.0
 40
3.0
 40
3.0
 40
3.0
 40
3.0
 10
5.347779168023003
 20
-1.643574184841579
 30
0.0
 10
5.354408264160156
 20
-1.647579616970485
 30
0.0
 10
5.368238661024305
 20
-1.658273484971788
 30
0.0
 10
5.353365580240884
 20
-1.655355665418836
 30
0.0
 10
5.269799126519097
 20
-1.711994594997829
 30
0.0
 10
5.39890882703993
 20
-1.725695292154947
 30
0.0
 10
5.412433200412325
 20
-1.669640435112847
 30
0.0
 10
5.406126234266492
 20
-1.770511203342013
 30
0.0
 10
5.251514858669704
 20
-1.694637722439235
 30
0.0
 10
5.347779168023003
 20
-1.643574184841579
 30
0.0
  0
SPLINE
  5
C1
330
7C
100
AcDbEntity
  8
Deck Box - DF
100
AcDbSpline
210
0.0
220
0.0
230
1.0
 70
     9
 71
     3
 72
    29
 73
    25
 74
     0
 42
0.0000000001
 43
0.0000000001
 40
0.0
 40
0.0
 40
0.0
 40
0.0
 40
1.0
 40
1.0
 40
1.0
 40
2.0
 40
2.0
 40
2.0
 40
3.0
 40
3.0
 40
3.0
 40
4.0
 40
4.0
 40
4.0
 40
5.0
 40
5.0
 40
5.0
 40
6.0
 40
6.0
 40
6.0
 40
7.0
 40
7.0
 40
7.0
 40
8.0
 40
8.0
 40
8.0
 40
8.0
 10
5.6022220187717
 20
-1.469857957628038
 30
0.0
 10
5.6022220187717
 20
-1.469857957628038
 30
0.0
 10
5.423648410373263
 20
-1.469857957628038
 30
0.0
 10
5.423648410373263
 20
-1.469857957628038
 30
0.0
 10
5.378242492675781
 20
-1.513315836588541
 30
0.0
 10
5.412690056694878
 20
-1.594620598687065
 30
0.0
 10
5.413222418891058
 20
-1.654023064507378
 30
0.0
 10
5.402980380588107
 20
-1.587128533257378
 30
0.0
 10
5.328649732801649
 20
-1.571190728081597
 30
0.0
 10
5.278354220920138
 20
-1.632388644748263
 30
0.0
 10
5.205741034613715
 20
-1.774770100911458
 30
0.0
 10
5.432449340820312
 20
-1.82841322157118
 30
0.0
 10
5.483707004123263
 20
-1.681730482313367
 30
0.0
 10
5.43292236328125
 20
-1.376460605197482
 30
0.0
 10
5.636311848958333
 20
-1.513253953721788
 30
0.0
 10
5.547434488932291
 20
-1.558915879991319
 30
0.0
 10
5.538671705457899
 20
-1.569836934407551
 30
0.0
 10
5.521336873372395
 20
-1.54875267876519
 30
0.0
 10
5.537310282389322
 20
-1.552982754177517
 30
0.0
 10
5.595264858669704
 20
-1.539935641818576
 30
0.0
 10
5.548094007703992
 20
-1.476760864257812
 30
0.0
 10
5.506573994954426
 20
-1.505754258897569
 30
0.0
 10
5.395632425944009
 20
-1.69830576578776
 30
0.0
 10
5.727970547146266
 20
-1.59474860297309
 30
0.0
 10
5.6022220187717
 20
-1.469857957628038
 30
0.0
  0
HATCH
  5
C2
330
7C
100
AcDbEntity
  8
Deck Box - DF
 62
   250
420
  2301728
440
 33554687
100
AcDbHatch
 10
0.0
 20
0.0
 30
0.0
210
0.0
220
0.0
230
1.0
  2
SOLID
 70
     1
 71
     1
 91
        2
 92
        1
 93
        1
 72
     4
 94
        3
 73
     0
 74
     0
 95
       14
 96
       10
 40
0.0
 40
0.0
 40
0.0
 40
0.0
 40
1.0
 40
1.0
 40
1.0
 40
2.0
 40
2.0
 40
2.0
 40
3.0
 40
3.0
 40
3.0
 40
3.0
 10
5.347779168023003
 20
-1.643574184841579
 10
5.354408264160156
 20
-1.647579616970485
 10
5.368238661024305
 20
-1.658273484971788
 10
5.353365580240884
 20
-1.655355665418836
 10
5.269799126519097
 20
-1.711994594997829
 10
5.39890882703993
 20
-1.725695292154947
 10
5.412433200412325
 20
-1.669640435112847
 10
5.406126234266492
 20
-1.770511203342013
 10
5.251514858669704
 20
-1.694637722439235
 10
5.347779168023003
 20
-1.643574184841579
 97
        0
 97
        1
330
C0
 92
        1
 93
        1
 72
     4
 94
        3
 73
     0
 74
     0
 95
       29
 96
       25
 40
0.0
 40
0.0
 40
0.0
 40
0.0
 40
1.0
 40
1.0
 40
1.0
 40
2.0
 40
2.0
 40
2.0
 40
3.0
 40
3.0
 40
3.0
 40
4.0
 40
4.0
 40
4.0
 40
5.0
 40
5.0
 40
5.0
 40
6.0
 40
6.0
 40
6.0
 40
7.0
 40
7.0
 40
7.0
 40
8.0
 40
8.0
 40
8.0
 40
8.0
 10
5.6022220187717
 20
-1.469857957628038
 10
5.6022220187717
 20
-1.469857957628038
 10
5.423648410373263
 20
-1.469857957628038
 10
5.423648410373263
 20
-1.469857957628038
 10
5.378242492675781
 20
-1.513315836588541
 10
5.412690056694878
 20
-1.594620598687065
 10
5.413222418891058
 20
-1.654023064507378
 10
5.402980380588107
 20
-1.587128533257378
 10
5.328649732801649
 20
-1.571190728081597
 10
5.278354220920138
 20
-1.632388644748263
 10
5.205741034613715
 20
-1.774770100911458
 10
5.432449340820312
 20
-1.82841322157118
 10
5.483707004123263
 20
-1.681730482313367
 10
5.43292236328125
 20
-1.376460605197482
 10
5.636311848958333
 20
-1.513253953721788
 10
5.547434488932291
 20
-1.558915879991319
 10
5.538671705457899
 20
-1.569836934407551
 10
5.521336873372395
 20
-1.54875267876519
 10
5.537310282389322
 20
-1.552982754177517
 10
5.595264858669704
 20
-1.539935641818576
 10
5.548094007703992
 20
-1.476760864257812
 10
5.506573994954426
 20
-1.505754258897569
 10
5.395632425944009
 20
-1.69830576578776
 10
5.727970547146266
 20
-1.59474860297309
 10
5.6022220187717
 20
-1.469857957628038
 97
        0
 97
        1
330
C1
 75
     2
 76
     1
 98
        1
 10
0.0
 20
0.0
450
        0
451
        0
460
0.0
461
0.0
452
        0
462
0.0
453
        0
470

  0
SPLINE
  5
C3
330
7C
100
AcDbEntity
  8
Deck Box - DF
100
AcDbSpline
210
0.0
220
0.0
230
1.0
 70
     9
 71
     3
 72
    14
 73
    10
 74
     0
 42
0.0000000001
 43
0.0000000001
 40
0.0
 40
0.0
 40
0.0
 40
0.0
 40
1.0
 40
1.0
 40
1.0
 40
2.0
 40
2.0
 40
2.0
 40
3.0
 40
3.0
 40
3.0
 40
3.0
 10
3.848638237703741
 20
-2.214844082390855
 30
0.0
 10
3.74952509701955
 20
-2.258378217713281
 30
0.0
 10
3.927337449055547
 20
-2.30322285747454
 30
0.0
 10
3.924163707242882
 20
-2.236415569738798
 30
0.0
 10
3.932967714108409
 20
-2.357016880083354
 30
0.0
 10
3.726171677571174
 20
-2.230291954008268
 30
0.0
 10
3.840063944971739
 20
-2.201034276688687
 30
0.0
 10
3.848835905297644
 20
-2.206773970720329
 30
0.0
 10
3.867477349031863
 20
-2.221250274833083
 30
0.0
 10
3.848638237703741
 20
-2.214844082390855
 30
0.0
  0
SPLINE
  5
C4
330
7C
100
AcDbEntity
  8
Deck Box - DF
100
AcDbSpline
210
0.0
220
0.0
230
1.0
 70
     9
 71
     3
 72
    29
 73
    25
 74
     0
 42
0.0000000001
 43
0.0000000001
 40
0.0
 40
0.0
 40
0.0
 40
0.0
 40
1.0
 40
1.0
 40
1.0
 40
2.0
 40
2.0
 40
2.0
 40
3.0
 40
3.0
 40
3.0
 40
4.0
 40
4.0
 40
4.0
 40
5.0
 40
5.0
 40
5.0
 40
6.0
 40
6.0
 40
6.0
 40
7.0
 40
7.0
 40
7.0
 40
8.0
 40
8.0
 40
8.0
 40
8.0
 10
3.752465154330947
 20
-2.173725163574153
 30
0.0
 10
3.682538186902762
 20
-2.309663693356242
 30
0.0
 10
3.970982283631769
 20
-2.417094291897392
 30
0.0
 10
4.013844388567841
 20
-2.27184081342111
 30
0.0
 10
4.033034310245562
 20
-2.210430663319003
 30
0.0
 10
3.946948796909092
 20
-2.1305511649026
 30
0.0
 10
4.000208160565168
 20
-2.083528642049499
 30
0.0
 10
4.04709877076876
 20
-2.051788012543978
 30
0.0
 10
4.15257556014693
 20
-2.132382613599525
 30
0.0
 10
4.075493990051427
 20
-2.15482716732937
 30
0.0
 10
4.066197090390763
 20
-2.164548530104803
 30
0.0
 10
4.041751536216212
 20
-2.138204004100417
 30
0.0
 10
4.062137672974409
 20
-2.146254208719899
 30
0.0
 10
4.132107463654657
 20
-2.145148203987345
 30
0.0
 10
4.064769743188271
 20
-2.067267425203314
 30
0.0
 10
4.017407226419019
 20
-2.089033329465451
 30
0.0
 10
3.898456994115513
 20
-2.284146990435929
 30
0.0
 10
4.369328995378156
 20
-2.225968245932739
 30
0.0
 10
4.079570139731837
 20
-2.032029618040673
 30
0.0
 10
3.78739418092501
 20
-1.96949174642307
 30
0.0
 10
3.913647053892974
 20
-2.140596728223777
 30
0.0
 10
3.923875004788656
 20
-2.233140472040822
 30
0.0
 10
3.910966204875446
 20
-2.160481028361661
 30
0.0
 10
3.807757346269871
 20
-2.11550919030017
 30
0.0
 10
3.752465154330947
 20
-2.173725163574153
 30
0.0
  0
HATCH
  5
C5
330
7C
100
AcDbEntity
  8
Deck Box - DF
 62
   250
420
  2301728
440
 33554687
100
AcDbHatch
 10
0.0
 20
0.0
 30
0.0
210
0.0
220
0.0
230
1.0
  2
SOLID
 70
     1
 71
     1
 91
        2
 92
        1
 93
        1
 72
     4
 94
        3
 73
     0
 74
     0
 95
       14
 96
       10
 40
0.0
 40
0.0
 40
0.0
 40
0.0
 40
1.0
 40
1.0
 40
1.0
 40
2.0
 40
2.0
 40
2.0
 40
3.0
 40
3.0
 40
3.0
 40
3.0
 10
3.848638237703741
 20
-2.214844082390855
 10
3.74952509701955
 20
-2.258378217713281
 10
3.927337449055547
 20
-2.30322285747454
 10
3.924163707242882
 20
-2.236415569738798
 10
3.932967714108409
 20
-2.357016880083354
 10
3.726171677571174
 20
-2.230291954008268
 10
3.840063944971739
 20
-2.201034276688687
 10
3.848835905297644
 20
-2.206773970720329
 10
3.867477349031863
 20
-2.221250274833083
 10
3.848638237703741
 20
-2.214844082390855
 97
        0
 97
        1
330
C3
 92
        1
 93
        1
 72
     4
 94
        3
 73
     0
 74
     0
 95
       29
 96
       25
 40
0.0
 40
0.0
 40
0.0
 40
0.0
 40
1.0
 40
1.0
 40
1.0
 40
2.0
 40
2.0
 40
2.0
 40
3.0
 40
3.0
 40
3.0
 40
4.0
 40
4.0
 40
4.0
 40
5.0
 40
5.0
 40
5.0
 40
6.0
 40
6.0
 40
6.0
 40
7.0
 40
7.0
 40
7.0
 40
8.0
 40
8.0
 40
8.0
 40
8.0
 10
3.752465154330947
 20
-2.173725163574153
 10
3.682538186902762
 20
-2.309663693356242
 10
3.970982283631769
 20
-2.417094291897392
 10
4.013844388567841
 20
-2.27184081342111
 10
4.033034310245562
 20
-2.210430663319003
 10
3.946948796909092
 20
-2.1305511649026
 10
4.000208160565168
 20
-2.083528642049499
 10
4.04709877076876
 20
-2.051788012543978
 10
4.15257556014693
 20
-2.132382613599525
 10
4.075493990051427
 20
-2.15482716732937
 10
4.066197090390763
 20
-2.164548530104803
 10
4.041751536216212
 20
-2.138204004100417
 10
4.062137672974409
 20
-2.146254208719899
 10
4.132107463654657
 20
-2.145148203987345
 10
4.064769743188271
 20
-2.067267425203314
 10
4.017407226419019
 20
-2.089033329465451
 10
3.898456994115513
 20
-2.284146990435929
 10
4.369328995378156
 20
-2.225968245932739
 10
4.079570139731837
 20
-2.032029618040673
 10
3.78739418092501
 20
-1.96949174642307
 10
3.913647053892974
 20
-2.140596728223777
 10
3.923875004788656
 20
-2.233140472040822
 10
3.910966204875446
 20
-2.160481028361661
 10
3.807757346269871
 20
-2.11550919030017
 10
3.752465154330947
 20
-2.173725163574153
 97
        0
 97
        1
330
C4
 75
     2
 76
     1
 98
        1
 10
0.0
 20
0.0
450
        0
451
        0
460
0.0
461
0.0
452
        0
462
0.0
453
        0
470

  0
SPLINE
  5
C6
330
7C
100
AcDbEntity
  8
Deck Box - DF
100
AcDbSpline
210
0.0
220
0.0
230
1.0
 70
     9
 71
     3
 72
    26
 73
    22
 74
     0
 42
0.0000000001
 43
0.0000000001
 40
0.0
 40
0.0
 40
0.0
 40
0.0
 40
1.0
 40
1.0
 40
1.0
 40
2.0
 40
2.0
 40
2.0
 40
3.0
 40
3.0
 40
3.0
 40
4.0
 40
4.0
 40
4.0
 40
5.0
 40
5.0
 40
5.0
 40
6.0
 40
6.0
 40
6.0
 40
7.0
 40
7.0
 40
7.0
 40
7.0
 10
4.817109849717881
 20
-2.407801310221354
 30
0.0
 10
4.817109849717881
 20
-2.407801310221354
 30
0.0
 10
4.94112820095486
 20
-2.407801310221354
 30
0.0
 10
4.94112820095486
 20
-2.407801310221354
 30
0.0
 10
4.943224589029947
 20
-2.402403937445746
 30
0.0
 10
4.9449462890625
 20
-2.396771748860676
 30
0.0
 10
4.946133931477864
 20
-2.390831841362846
 30
0.0
 10
4.88188001844618
 20
-2.081483629014756
 30
0.0
 10
5.166034274631075
 20
-2.238050672743055
 30
0.0
 10
5.018592834472656
 20
-2.29856703016493
 30
0.0
 10
5.011539883083766
 20
-2.291966756184895
 30
0.0
 10
4.9973390367296
 20
-2.27555677625868
 30
0.0
 10
5.01428731282552
 20
-2.28353034125434
 30
0.0
 10
5.145337422688801
 20
-2.23861100938585
 30
0.0
 10
4.905486212836371
 20
-2.167039659288194
 30
0.0
 10
4.948758443196614
 20
-2.297999911838107
 30
0.0
 10
5.212572733561197
 20
-2.544532775878906
 30
0.0
 10
5.147548251681857
 20
-1.940197414822048
 30
0.0
 10
4.865921868218316
 20
-2.212749905056423
 30
0.0
 10
4.865678575303818
 20
-2.330457051595051
 30
0.0
 10
4.843352423773871
 20
-2.386487325032551
 30
0.0
 10
4.817109849717881
 20
-2.407801310221354
 30
0.0
  0
HATCH
  5
C7
330
7C
100
AcDbEntity
  8
Deck Box - DF
 62
   250
420
  2301728
440
 33554687
100
AcDbHatch
 10
0.0
 20
0.0
 30
0.0
210
0.0
220
0.0
230
1.0
  2
SOLID
 70
     1
 71
     1
 91
        1
 92
        1
 93
        1
 72
     4
 94
        3
 73
     0
 74
     0
 95
       26
 96
       22
 40
0.0
 40
0.0
 40
0.0
 40
0.0
 40
1.0
 40
1.0
 40
1.0
 40
2.0
 40
2.0
 40
2.0
 40
3.0
 40
3.0
 40
3.0
 40
4.0
 40
4.0
 40
4.0
 40
5.0
 40
5.0
 40
5.0
 40
6.0
 40
6.0
 40
6.0
 40
7.0
 40
7.0
 40
7.0
 40
7.0
 10
4.817109849717881
 20
-2.407801310221354
 10
4.817109849717881
 20
-2.407801310221354
 10
4.94112820095486
 20
-2.407801310221354
 10
4.94112820095486
 20
-2.407801310221354
 10
4.943224589029947
 20
-2.402403937445746
 10
4.9449462890625
 20
-2.396771748860676
 10
4.946133931477864
 20
-2.390831841362846
 10
4.88188001844618
 20
-2.081483629014756
 10
5.166034274631075
 20
-2.238050672743055
 10
5.018592834472656
 20
-2.29856703016493
 10
5.011539883083766
 20
-2.291966756184895
 10
4.9973390367296
 20
-2.27555677625868
 10
5.01428731282552
 20
-2.28353034125434
 10
5.145337422688801
 20
-2.23861100938585
 10
4.905486212836371
 20
-2.167039659288194
 10
4.948758443196614
 20
-2.297999911838107
 10
5.212572733561197
 20
-2.544532775878906
 10
5.147548251681857
 20
-1.940197414822048
 10
4.865921868218316
 20
-2.212749905056423
 10
4.865678575303818
 20
-2.330457051595051
 10
4.843352423773871
 20
-2.386487325032551
 10
4.817109849717881
 20
-2.407801310221354
 97
        0
 97
        1
330
C6
 75
     2
 76
     1
 98
        1
 10
0.0
 20
0.0
450
        0
451
        0
460
0.0
461
0.0
452
        0
462
0.0
453
        0
470

  0
SPLINE
  5
C8
330
7C
100
AcDbEntity
  8
Deck Box - DF
100
AcDbSpline
210
0.0
220
0.0
230
1.0
 70
     9
 71
     3
 72
    20
 73
    16
 74
     0
 42
0.0000000001
 43
0.0000000001
 40
0.0
 40
0.0
 40
0.0
 40
0.0
 40
1.0
 40
1.0
 40
1.0
 40
2.0
 40
2.0
 40
2.0
 40
3.0
 40
3.0
 40
3.0
 40
4.0
 40
4.0
 40
4.0
 40
5.0
 40
5.0
 40
5.0
 40
5.0
 10
4.758247375488281
 20
-2.407801310221354
 30
0.0
 10
4.729542202419704
 20
-2.386432223849826
 30
0.0
 10
4.718294779459634
 20
-2.340016682942708
 30
0.0
 10
4.766865200466579
 20
-2.331128438313801
 30
0.0
 10
4.779319763183593
 20
-2.321573893229166
 30
0.0
 10
4.795616149902343
 20
-2.350801255967881
 30
0.0
 10
4.777629428439669
 20
-2.341002570258246
 30
0.0
 10
4.706820170084634
 20
-2.337459140353732
 30
0.0
 10
4.750034756130641
 20
-2.423530578613281
 30
0.0
 10
4.804603576660156
 20
-2.403922186957465
 30
0.0
 10
4.970865037706162
 20
-2.22400156656901
 30
0.0
 10
4.571081373426649
 20
-2.233610365125867
 30
0.0
 10
4.680675930447048
 20
-2.407801310221354
 30
0.0
 10
4.680675930447048
 20
-2.407801310221354
 30
0.0
 10
4.758247375488281
 20
-2.407801310221354
 30
0.0
 10
4.758247375488281
 20
-2.407801310221354
 30
0.0
  0
HATCH
  5
C9
330
7C
100
AcDbEntity
  8
Deck Box - DF
 62
   250
420
  2301728
440
 33554687
100
AcDbHatch
 10
0.0
 20
0.0
 30
0.0
210
0.0
220
0.0
230
1.0
  2
SOLID
 70
     1
 71
     1
 91
        1
 92
        1
 93
        1
 72
     4
 94
        3
 73
     0
 74
     0
 95
       20
 96
       16
 40
0.0
 40
0.0
 40
0.0
 40
0.0
 40
1.0
 40
1.0
 40
1.0
 40
2.0
 40
2.0
 40
2.0
 40
3.0
 40
3.0
 40
3.0
 40
4.0
 40
4.0
 40
4.0
 40
5.0
 40
5.0
 40
5.0
 40
5.0
 10
4.758247375488281
 20
-2.407801310221354
 10
4.729542202419704
 20
-2.386432223849826
 10
4.718294779459634
 20
-2.340016682942708
 10
4.766865200466579
 20
-2.331128438313801
 10
4.779319763183593
 20
-2.321573893229166
 10
4.795616149902343
 20
-2.350801255967881
 10
4.777629428439669
 20
-2.341002570258246
 10
4.706820170084634
 20
-2.337459140353732
 10
4.750034756130641
 20
-2.423530578613281
 10
4.804603576660156
 20
-2.403922186957465
 10
4.970865037706162
 20
-2.22400156656901
 10
4.571081373426649
 20
-2.233610365125867
 10
4.680675930447048
 20
-2.407801310221354
 10
4.680675930447048
 20
-2.407801310221354
 10
4.758247375488281
 20
-2.407801310221354
 10
4.758247375488281
 20
-2.407801310221354
 97
        0
 97
        1
330
C8
 75
     2
 76
     1
 98
        1
 10
0.0
 20
0.0
450
        0
451
        0
460
0.0
461
0.0
452
        0
462
0.0
453
        0
470

  0
SPLINE
  5
CA
330
7C
100
AcDbEntity
  8
Deck Box - DF
100
AcDbSpline
210
0.0
220
0.0
230
1.0
 70
     9
 71
     3
 72
    32
 73
    28
 74
     0
 42
0.0000000001
 43
0.0000000001
 40
0.0
 40
0.0
 40
0.0
 40
0.0
 40
1.0
 40
1.0
 40
1.0
 40
2.0
 40
2.0
 40
2.0
 40
3.0
 40
3.0
 40
3.0
 40
4.0
 40
4.0
 40
4.0
 40
5.0
 40
5.0
 40
5.0
 40
6.0
 40
6.0
 40
6.0
 40
7.0
 40
7.0
 40
7.0
 40
8.0
 40
8.0
 40
8.0
 40
9.0
 40
9.0
 40
9.0
 40
9.0
 10
4.303487141927083
 20
-2.397162543402777
 30
0.0
 10
4.318556891547308
 20
-2.397162543402777
 30
0.0
 10
4.330933464898003
 20
-2.401252746582031
 30
0.0
 10
4.340918646918402
 20
-2.407801310221354
 30
0.0
 10
4.340918646918402
 20
-2.407801310221354
 30
0.0
 10
4.407780117458766
 20
-2.407801310221354
 30
0.0
 10
4.407780117458766
 20
-2.407801310221354
 30
0.0
 10
4.41827901204427
 20
-2.386847601996527
 30
0.0
 10
4.415325588650173
 20
-2.35821533203125
 30
0.0
 10
4.388103908962673
 20
-2.322015550401475
 30
0.0
 10
4.338764614529079
 20
-2.305294460720486
 30
0.0
 10
4.278760274251301
 20
-2.390151129828558
 30
0.0
 10
4.348755730523003
 20
-2.383860270182291
 30
0.0
 10
4.213779025607638
 20
-2.419676038953992
 30
0.0
 10
4.449332343207465
 20
-2.180125766330295
 30
0.0
 10
4.420246548122829
 20
-2.407801310221354
 30
0.0
 10
4.420246548122829
 20
-2.407801310221354
 30
0.0
 10
4.499434577094183
 20
-2.407801310221354
 30
0.0
 10
4.499434577094183
 20
-2.407801310221354
 30
0.0
 10
4.551532321506075
 20
-2.307615492078992
 30
0.0
 10
4.491032070583766
 20
-2.188855489095051
 30
0.0
 10
4.320665995279947
 20
-2.271674262152777
 30
0.0
 10
4.254768371582031
 20
-2.326130337185329
 30
0.0
 10
4.233014424641926
 20
-2.367813110351562
 30
0.0
 10
4.235771179199218
 20
-2.397162543402777
 30
0.0
 10
4.235771179199218
 20
-2.397162543402777
 30
0.0
 10
4.303487141927083
 20
-2.397162543402777
 30
0.0
 10
4.303487141927083
 20
-2.397162543402777
 30
0.0
  0
HATCH
  5
CB
330
7C
100
AcDbEntity
  8
Deck Box - DF
 62
   250
420
  2301728
440
 33554687
100
AcDbHatch
 10
0.0
 20
0.0
 30
0.0
210
0.0
220
0.0
230
1.0
  2
SOLID
 70
     1
 71
     1
 91
        1
 92
        1
 93
        1
 72
     4
 94
        3
 73
     0
 74
     0
 95
       32
 96
       28
 40
0.0
 40
0.0
 40
0.0
 40
0.0
 40
1.0
 40
1.0
 40
1.0
 40
2.0
 40
2.0
 40
2.0
 40
3.0
 40
3.0
 40
3.0
 40
4.0
 40
4.0
 40
4.0
 40
5.0
 40
5.0
 40
5.0
 40
6.0
 40
6.0
 40
6.0
 40
7.0
 40
7.0
 40
7.0
 40
8.0
 40
8.0
 40
8.0
 40
9.0
 40
9.0
 40
9.0
 40
9.0
 10
4.303487141927083
 20
-2.397162543402777
 10
4.318556891547308
 20
-2.397162543402777
 10
4.330933464898003
 20
-2.401252746582031
 10
4.340918646918402
 20
-2.407801310221354
 10
4.340918646918402
 20
-2.407801310221354
 10
4.407780117458766
 20
-2.407801310221354
 10
4.407780117458766
 20
-2.407801310221354
 10
4.41827901204427
 20
-2.386847601996527
 10
4.415325588650173
 20
-2.35821533203125
 10
4.388103908962673
 20
-2.322015550401475
 10
4.338764614529079
 20
-2.305294460720486
 10
4.278760274251301
 20
-2.390151129828558
 10
4.348755730523003
 20
-2.383860270182291
 10
4.213779025607638
 20
-2.419676038953992
 10
4.449332343207465
 20
-2.180125766330295
 10
4.420246548122829
 20
-2.407801310221354
 10
4.420246548122829
 20
-2.407801310221354
 10
4.499434577094183
 20
-2.407801310221354
 10
4.499434577094183
 20
-2.407801310221354
 10
4.551532321506075
 20
-2.307615492078992
 10
4.491032070583766
 20
-2.188855489095051
 10
4.320665995279947
 20
-2.271674262152777
 10
4.254768371582031
 20
-2.326130337185329
 10
4.233014424641926
 20
-2.367813110351562
 10
4.235771179199218
 20
-2.397162543402777
 10
4.235771179199218
 20
-2.397162543402777
 10
4.303487141927083
 20
-2.397162543402777
 10
4.303487141927083
 20
-2.397162543402777
 97
        0
 97
        1
330
CA
 75
     2
 76
     1
 98
        1
 10
0.0
 20
0.0
450
        0
451
        0
460
0.0
461
0.0
452
        0
462
0.0
453
        0
470

  0
SPLINE
  5
CC
330
7C
100
AcDbEntity
  8
Deck Box - DF
100
AcDbSpline
210
0.0
220
0.0
230
1.0
 70
     9
 71
     3
 72
    26
 73
    22
 74
     0
 42
0.0000000001
 43
0.0000000001
 40
0.0
 40
0.0
 40
0.0
 40
0.0
 40
1.0
 40
1.0
 40
1.0
 40
2.0
 40
2.0
 40
2.0
 40
3.0
 40
3.0
 40
3.0
 40
4.0
 40
4.0
 40
4.0
 40
5.0
 40
5.0
 40
5.0
 40
6.0
 40
6.0
 40
6.0
 40
7.0
 40
7.0
 40
7.0
 40
7.0
 10
4.225154166029975
 20
-1.992263603096211
 30
0.0
 10
4.29285375715608
 20
-2.030806756333112
 30
0.0
 10
4.264999642276809
 20
-1.931211262846823
 30
0.0
 10
4.209243200910034
 20
-1.921760584259093
 30
0.0
 10
4.002856395847667
 20
-2.009221566729252
 30
0.0
 10
4.482422935265301
 20
-2.228438012929018
 30
0.0
 10
4.295857907546708
 20
-1.911651163254658
 30
0.0
 10
4.230637811074163
 20
-1.828687106057499
 30
0.0
 10
4.12660283238098
 20
-1.804615603337007
 30
0.0
 10
4.094745452429113
 20
-1.87740043558449
 30
0.0
 10
4.050568021380349
 20
-1.946887677751647
 30
0.0
 10
4.108612528956111
 20
-2.006697766308687
 30
0.0
 10
4.146729760845308
 20
-2.072544861997509
 30
0.0
 10
4.121312600965262
 20
-1.94739104175686
 30
0.0
 10
4.130461746226475
 20
-1.914101281733021
 30
0.0
 10
4.195331599544803
 20
-1.907712669543659
 30
0.0
 10
4.255347394703423
 20
-1.909000423066989
 30
0.0
 10
4.318536364479314
 20
-2.032231532415645
 30
0.0
 10
4.233926977148977
 20
-2.006575221604799
 30
0.0
 10
4.220407874994622
 20
-2.009034130209594
 30
0.0
 10
4.209384716160166
 20
-1.974404910036279
 30
0.0
 10
4.225154166029975
 20
-1.992263603096211
 30
0.0
  0
HATCH
  5
CD
330
7C
100
AcDbEntity
  8
Deck Box - DF
 62
   250
420
  2301728
440
 33554687
100
AcDbHatch
 10
0.0
 20
0.0
 30
0.0
210
0.0
220
0.0
230
1.0
  2
SOLID
 70
     1
 71
     1
 91
        1
 92
        1
 93
        1
 72
     4
 94
        3
 73
     0
 74
     0
 95
       26
 96
       22
 40
0.0
 40
0.0
 40
0.0
 40
0.0
 40
1.0
 40
1.0
 40
1.0
 40
2.0
 40
2.0
 40
2.0
 40
3.0
 40
3.0
 40
3.0
 40
4.0
 40
4.0
 40
4.0
 40
5.0
 40
5.0
 40
5.0
 40
6.0
 40
6.0
 40
6.0
 40
7.0
 40
7.0
 40
7.0
 40
7.0
 10
4.225154166029975
 20
-1.992263603096211
 10
4.29285375715608
 20
-2.030806756333112
 10
4.264999642276809
 20
-1.931211262846823
 10
4.209243200910034
 20
-1.921760584259093
 10
4.002856395847667
 20
-2.009221566729252
 10
4.482422935265301
 20
-2.228438012929018
 10
4.295857907546708
 20
-1.911651163254658
 10
4.230637811074163
 20
-1.828687106057499
 10
4.12660283238098
 20
-1.804615603337007
 10
4.094745452429113
 20
-1.87740043558449
 10
4.050568021380349
 20
-1.946887677751647
 10
4.108612528956111
 20
-2.006697766308687
 10
4.146729760845308
 20
-2.072544861997509
 10
4.121312600965262
 20
-1.94739104175686
 10
4.130461746226475
 20
-1.914101281733021
 10
4.195331599544803
 20
-1.907712669543659
 10
4.255347394703423
 20
-1.909000423066989
 10
4.318536364479314
 20
-2.032231532415645
 10
4.233926977148977
 20
-2.006575221604799
 10
4.220407874994622
 20
-2.009034130209594
 10
4.209384716160166
 20
-1.974404910036279
 10
4.225154166029975
 20
-1.992263603096211
 97
        0
 97
        1
330
CC
 75
     2
 76
     1
 98
        1
 10
0.0
 20
0.0
450
        0
451
        0
460
0.0
461
0.0
452
        0
462
0.0
453
        0
470

  0
SPLINE
  5
CE
330
7C
100
AcDbEntity
  8
Deck Box - DF
100
AcDbSpline
210
0.0
220
0.0
230
1.0
 70
     9
 71
     3
 72
    14
 73
    10
 74
     0
 42
0.0000000001
 43
0.0000000001
 40
0.0
 40
0.0
 40
0.0
 40
0.0
 40
1.0
 40
1.0
 40
1.0
 40
2.0
 40
2.0
 40
2.0
 40
3.0
 40
3.0
 40
3.0
 40
3.0
 10
5.205000983344183
 20
-1.469857957628038
 30
0.0
 10
5.209147983127169
 20
-1.474459330240885
 30
0.0
 10
5.213488260904947
 20
-1.479117499457465
 30
0.0
 10
5.218264261881509
 20
-1.483901977539062
 30
0.0
 10
5.276241726345485
 20
-1.52337646484375
 30
0.0
 10
5.366267734103732
 20
-1.516558329264322
 30
0.0
 10
5.413290235731336
 20
-1.469857957628038
 30
0.0
 10
5.413290235731336
 20
-1.469857957628038
 30
0.0
 10
5.205000983344183
 20
-1.469857957628038
 30
0.0
 10
5.205000983344183
 20
-1.469857957628038
 30
0.0
  0
HATCH
  5
CF
330
7C
100
AcDbEntity
  8
Deck Box - DF
 62
   250
420
  2301728
440
 33554687
100
AcDbHatch
 10
0.0
 20
0.0
 30
0.0
210
0.0
220
0.0
230
1.0
  2
SOLID
 70
     1
 71
     1
 91
        1
 92
        1
 93
        1
 72
     4
 94
        3
 73
     0
 74
     0
 95
       14
 96
       10
 40
0.0
 40
0.0
 40
0.0
 40
0.0
 40
1.0
 40
1.0
 40
1.0
 40
2.0
 40
2.0
 40
2.0
 40
3.0
 40
3.0
 40
3.0
 40
3.0
 10
5.205000983344183
 20
-1.469857957628038
 10
5.209147983127169
 20
-1.474459330240885
 10
5.213488260904947
 20
-1.479117499457465
 10
5.218264261881509
 20
-1.483901977539062
 10
5.276241726345485
 20
-1.52337646484375
 10
5.366267734103732
 20
-1.516558329264322
 10
5.413290235731336
 20
-1.469857957628038
 10
5.413290235731336
 20
-1.469857957628038
 10
5.205000983344183
 20
-1.469857957628038
 10
5.205000983344183
 20
-1.469857957628038
 97
        0
 97
        1
330
CE
 75
     2
 76
     1
 98
        1
 10
0.0
 20
0.0
450
        0
451
        0
460
0.0
461
0.0
452
        0
462
0.0
453
        0
470

  0
SPLINE
  5
D0
330
7C
100
AcDbEntity
  8
Deck Box - DF
100
AcDbSpline
210
0.0
220
0.0
230
1.0
 70
     9
 71
     3
 72
    20
 73
    16
 74
     0
 42
0.0000000001
 43
0.0000000001
 40
0.0
 40
0.0
 40
0.0
 40
0.0
 40
1.0
 40
1.0
 40
1.0
 40
2.0
 40
2.0
 40
2.0
 40
3.0
 40
3.0
 40
3.0
 40
4.0
 40
4.0
 40
4.0
 40
5.0
 40
5.0
 40
5.0
 40
5.0
 10
6.478208753797742
 20
-2.407801310221354
 30
0.0
 10
6.481889512803818
 20
-2.402986314561631
 30
0.0
 10
6.486089918348524
 20
-2.398255242241753
 30
0.0
 10
6.491557651095919
 20
-2.393725077311197
 30
0.0
 10
6.507013956705728
 20
-2.383187188042534
 30
0.0
 10
6.524993896484375
 20
-2.381891886393229
 30
0.0
 10
6.540779961480033
 20
-2.385910034179687
 30
0.0
 10
6.540779961480033
 20
-2.385910034179687
 30
0.0
 10
6.540779961480033
 20
-2.330463833279079
 30
0.0
 10
6.540779961480033
 20
-2.330463833279079
 30
0.0
 10
6.426255967881943
 20
-2.321341620551215
 30
0.0
 10
6.391739739312065
 20
-2.358100891113281
 30
0.0
 10
6.382904900444877
 20
-2.407801310221354
 30
0.0
 10
6.382904900444877
 20
-2.407801310221354
 30
0.0
 10
6.478208753797742
 20
-2.407801310221354
 30
0.0
 10
6.478208753797742
 20
-2.407801310221354
 30
0.0
  0
HATCH
  5
D1
330
7C
100
AcDbEntity
  8
Deck Box - DF
 62
   250
420
  2301728
440
 33554687
100
AcDbHatch
 10
0.0
 20
0.0
 30
0.0
210
0.0
220
0.0
230
1.0
  2
SOLID
 70
     1
 71
     1
 91
        1
 92
        1
 93
        1
 72
     4
 94
        3
 73
     0
 74
     0
 95
       20
 96
       16
 40
0.0
 40
0.0
 40
0.0
 40
0.0
 40
1.0
 40
1.0
 40
1.0
 40
2.0
 40
2.0
 40
2.0
 40
3.0
 40
3.0
 40
3.0
 40
4.0
 40
4.0
 40
4.0
 40
5.0
 40
5.0
 40
5.0
 40
5.0
 10
6.478208753797742
 20
-2.407801310221354
 10
6.481889512803818
 20
-2.402986314561631
 10
6.486089918348524
 20
-2.398255242241753
 10
6.491557651095919
 20
-2.393725077311197
 10
6.507013956705728
 20
-2.383187188042534
 10
6.524993896484375
 20
-2.381891886393229
 10
6.540779961480033
 20
-2.385910034179687
 10
6.540779961480033
 20
-2.385910034179687
 10
6.540779961480033
 20
-2.330463833279079
 10
6.540779961480033
 20
-2.330463833279079
 10
6.426255967881943
 20
-2.321341620551215
 10
6.391739739312065
 20
-2.358100891113281
 10
6.382904900444877
 20
-2.407801310221354
 10
6.382904900444877
 20
-2.407801310221354
 10
6.478208753797742
 20
-2.407801310221354
 10
6.478208753797742
 20
-2.407801310221354
 97
        0
 97
        1
330
D0
 75
     2
 76
     1
 98
        1
 10
0.0
 20
0.0
450
        0
451
        0
460
0.0
461
0.0
452
        0
462
0.0
453
        0
470

  0
SPLINE
  5
D2
330
7C
100
AcDbEntity
  8
Deck Box - DF
100
AcDbSpline
210
0.0
220
0.0
230
1.0
 70
     9
 71
     3
 72
    11
 73
     7
 74
     0
 42
0.0000000001
 43
0.0000000001
 40
0.0
 40
0.0
 40
0.0
 40
0.0
 40
1.0
 40
1.0
 40
1.0
 40
2.0
 40
2.0
 40
2.0
 40
2.0
 10
5.847052680121527
 20
-2.407801310221354
 30
0.0
 10
5.810174730088975
 20
-2.329017639160156
 30
0.0
 10
5.738262600368923
 20
-2.358712090386284
 30
0.0
 10
5.706434461805555
 20
-2.407801310221354
 30
0.0
 10
5.706434461805555
 20
-2.407801310221354
 30
0.0
 10
5.847052680121527
 20
-2.407801310221354
 30
0.0
 10
5.847052680121527
 20
-2.407801310221354
 30
0.0
  0
HATCH
  5
D3
330
7C
100
AcDbEntity
  8
Deck Box - DF
 62
   250
420
  2301728
440
 33554687
100
AcDbHatch
 10
0.0
 20
0.0
 30
0.0
210
0.0
220
0.0
230
1.0
  2
SOLID
 70
     1
 71
     1
 91
        1
 92
        1
 93
        1
 72
     4
 94
        3
 73
     0
 74
     0
 95
       11
 96
        7
 40
0.0
 40
0.0
 40
0.0
 40
0.0
 40
1.0
 40
1.0
 40
1.0
 40
2.0
 40
2.0
 40
2.0
 40
2.0
 10
5.847052680121527
 20
-2.407801310221354
 10
5.810174730088975
 20
-2.329017639160156
 10
5.738262600368923
 20
-2.358712090386284
 10
5.706434461805555
 20
-2.407801310221354
 10
5.706434461805555
 20
-2.407801310221354
 10
5.847052680121527
 20
-2.407801310221354
 10
5.847052680121527
 20
-2.407801310221354
 97
        0
 97
        1
330
D2
 75
     2
 76
     1
 98
        1
 10
0.0
 20
0.0
450
        0
451
        0
460
0.0
461
0.0
452
        0
462
0.0
453
        0
470

  0
SPLINE
  5
D4
330
7C
100
AcDbEntity
  8
Deck Box - DF
100
AcDbSpline
210
0.0
220
0.0
230
1.0
 70
     9
 71
     3
 72
    17
 73
    13
 74
     0
 42
0.0000000001
 43
0.0000000001
 40
0.0
 40
0.0
 40
0.0
 40
0.0
 40
1.0
 40
1.0
 40
1.0
 40
2.0
 40
2.0
 40
2.0
 40
3.0
 40
3.0
 40
3.0
 40
4.0
 40
4.0
 40
4.0
 40
4.0
 10
5.537040091671997
 20
-1.966894316809783
 30
0.0
 10
5.443760532175297
 20
-2.127872209781419
 30
0.0
 10
5.806902998623879
 20
-2.171743883362397
 30
0.0
 10
5.612930847715788
 20
-2.01304265036702
 30
0.0
 10
5.567385848341169
 20
-1.995608663363997
 30
0.0
 10
5.564301621035863
 20
-2.059864956137529
 30
0.0
 10
5.61399090244337
 20
-2.060215672665991
 30
0.0
 10
5.517605268090012
 20
-2.071661300684796
 30
0.0
 10
5.610170882121665
 20
-1.87225307339002
 30
0.0
 10
5.710083838656727
 20
-2.156824456449549
 30
0.0
 10
5.805978014907546
 20
-2.105758869835477
 30
0.0
 10
5.655458747460114
 20
-1.89369310138554
 30
0.0
 10
5.537040091671997
 20
-1.966894316809783
 30
0.0
  0
HATCH
  5
D5
330
7C
100
AcDbEntity
  8
Deck Box - DF
 62
   250
420
  2301728
440
 33554687
100
AcDbHatch
 10
0.0
 20
0.0
 30
0.0
210
0.0
220
0.0
230
1.0
  2
SOLID
 70
     1
 71
     1
 91
        1
 92
        1
 93
        1
 72
     4
 94
        3
 73
     0
 74
     0
 95
       17
 96
       13
 40
0.0
 40
0.0
 40
0.0
 40
0.0
 40
1.0
 40
1.0
 40
1.0
 40
2.0
 40
2.0
 40
2.0
 40
3.0
 40
3.0
 40
3.0
 40
4.0
 40
4.0
 40
4.0
 40
4.0
 10
5.537040091671997
 20
-1.966894316809783
 10
5.443760532175297
 20
-2.127872209781419
 10
5.806902998623879
 20
-2.171743883362397
 10
5.612930847715788
 20
-2.01304265036702
 10
5.567385848341169
 20
-1.995608663363997
 10
5.564301621035863
 20
-2.059864956137529
 10
5.61399090244337
 20
-2.060215672665991
 10
5.517605268090012
 20
-2.071661300684796
 10
5.610170882121665
 20
-1.87225307339002
 10
5.710083838656727
 20
-2.156824456449549
 10
5.805978014907546
 20
-2.105758869835477
 10
5.655458747460114
 20
-1.89369310138554
 10
5.537040091671997
 20
-1.966894316809783
 97
        0
 97
        1
330
D4
 75
     2
 76
     1
 98
        1
 10
0.0
 20
0.0
450
        0
451
        0
460
0.0
461
0.0
452
        0
462
0.0
453
        0
470

  0
SPLINE
  5
D6
330
7C
100
AcDbEntity
  8
Deck Box - DF
100
AcDbSpline
210
0.0
220
0.0
230
1.0
 70
     9
 71
     3
 72
    20
 73
    16
 74
     0
 42
0.0000000001
 43
0.0000000001
 40
0.0
 40
0.0
 40
0.0
 40
0.0
 40
1.0
 40
1.0
 40
1.0
 40
2.0
 40
2.0
 40
2.0
 40
3.0
 40
3.0
 40
3.0
 40
4.0
 40
4.0
 40
4.0
 40
5.0
 40
5.0
 40
5.0
 40
5.0
 10
5.934670342339409
 20
-2.407801310221354
 30
0.0
 10
5.9388919406467
 20
-2.397581312391492
 30
0.0
 10
5.951388888888888
 20
-2.393797132703992
 30
0.0
 10
5.97566901312934
 20
-2.404568142361111
 30
0.0
 10
5.965466817220051
 20
-2.403889126247829
 30
0.0
 10
5.957839965820312
 20
-2.405265808105468
 30
0.0
 10
5.952008565266926
 20
-2.407801310221354
 30
0.0
 10
5.952008565266926
 20
-2.407801310221354
 30
0.0
 10
6.041048685709634
 20
-2.407801310221354
 30
0.0
 10
6.041048685709634
 20
-2.407801310221354
 30
0.0
 10
6.069952223036024
 20
-2.312227037217881
 30
0.0
 10
5.867662217881943
 20
-2.313114590115017
 30
0.0
 10
5.859402974446614
 20
-2.407801310221354
 30
0.0
 10
5.859402974446614
 20
-2.407801310221354
 30
0.0
 10
5.934670342339409
 20
-2.407801310221354
 30
0.0
 10
5.934670342339409
 20
-2.407801310221354
 30
0.0
  0
HATCH
  5
D7
330
7C
100
AcDbEntity
  8
Deck Box - DF
 62
   250
420
  2301728
440
 33554687
100
AcDbHatch
 10
0.0
 20
0.0
 30
0.0
210
0.0
220
0.0
230
1.0
  2
SOLID
 70
     1
 71
     1
 91
        1
 92
        1
 93
        1
 72
     4
 94
        3
 73
     0
 74
     0
 95
       20
 96
       16
 40
0.0
 40
0.0
 40
0.0
 40
0.0
 40
1.0
 40
1.0
 40
1.0
 40
2.0
 40
2.0
 40
2.0
 40
3.0
 40
3.0
 40
3.0
 40
4.0
 40
4.0
 40
4.0
 40
5.0
 40
5.0
 40
5.0
 40
5.0
 10
5.934670342339409
 20
-2.407801310221354
 10
5.9388919406467
 20
-2.397581312391492
 10
5.951388888888888
 20
-2.393797132703992
 10
5.97566901312934
 20
-2.404568142361111
 10
5.965466817220051
 20
-2.403889126247829
 10
5.957839965820312
 20
-2.405265808105468
 10
5.952008565266926
 20
-2.407801310221354
 10
5.952008565266926
 20
-2.407801310221354
 10
6.041048685709634
 20
-2.407801310221354
 10
6.041048685709634
 20
-2.407801310221354
 10
6.069952223036024
 20
-2.312227037217881
 10
5.867662217881943
 20
-2.313114590115017
 10
5.859402974446614
 20
-2.407801310221354
 10
5.859402974446614
 20
-2.407801310221354
 10
5.934670342339409
 20
-2.407801310221354
 10
5.934670342339409
 20
-2.407801310221354
 97
        0
 97
        1
330
D6
 75
     2
 76
     1
 98
        1
 10
0.0
 20
0.0
450
        0
451
        0
460
0.0
461
0.0
452
        0
462
0.0
453
        0
470

  0
SPLINE
  5
D8
330
7C
100
AcDbEntity
  8
Deck Box - DF
100
AcDbSpline
210
0.0
220
0.0
230
1.0
 70
     9
 71
     3
 72
   134
 73
   130
 74
     0
 42
0.0000000001
 43
0.0000000001
 40
0.0
 40
0.0
 40
0.0
 40
0.0
 40
1.0
 40
1.0
 40
1.0
 40
2.0
 40
2.0
 40
2.0
 40
3.0
 40
3.0
 40
3.0
 40
4.0
 40
4.0
 40
4.0
 40
5.0
 40
5.0
 40
5.0
 40
6.0
 40
6.0
 40
6.0
 40
7.0
 40
7.0
 40
7.0
 40
8.0
 40
8.0
 40
8.0
 40
9.0
 40
9.0
 40
9.0
 40
10.0
 40
10.0
 40
10.0
 40
11.0
 40
11.0
 40
11.0
 40
12.0
 40
12.0
 40
12.0
 40
13.0
 40
13.0
 40
13.0
 40
14.0
 40
14.0
 40
14.0
 40
15.0
 40
15.0
 40
15.0
 40
16.0
 40
16.0
 40
16.0
 40
17.0
 40
17.0
 40
17.0
 40
18.0
 40
18.0
 40
18.0
 40
19.0
 40
19.0
 40
19.0
 40
20.0
 40
20.0
 40
20.0
 40
21.0
 40
21.0
 40
21.0
 40
22.0
 40
22.0
 40
22.0
 40
23.0
 40
23.0
 40
23.0
 40
24.0
 40
24.0
 40
24.0
 40
25.0
 40
25.0
 40
25.0
 40
26.0
 40
26.0
 40
26.0
 40
27.0
 40
27.0
 40
27.0
 40
28.0
 40
28.0
 40
28.0
 40
29.0
 40
29.0
 40
29.0
 40
30.0
 40
30.0
 40
30.0
 40
31.0
 40
31.0
 40
31.0
 40
32.0
 40
32.0
 40
32.0
 40
33.0
 40
33.0
 40
33.0
 40
34.0
 40
34.0
 40
34.0
 40
35.0
 40
35.0
 40
35.0
 40
36.0
 40
36.0
 40
36.0
 40
37.0
 40
37.0
 40
37.0
 40
38.0
 40
38.0
 40
38.0
 40
39.0
 40
39.0
 40
39.0
 40
40.0
 40
40.0
 40
40.0
 40
41.0
 40
41.0
 40
41.0
 40
42.0
 40
42.0
 40
42.0
 40
43.0
 40
43.0
 40
43.0
 40
43.0
 10
6.138833787706162
 20
-2.407801310221354
 30
0.0
 10
6.137110392252603
 20
-2.372118631998697
 30
0.0
 10
6.139253404405381
 20
-2.344795227050781
 30
0.0
 10
6.144162495930989
 20
-2.324542575412326
 30
0.0
 10
6.144015842013888
 20
-2.325202094184027
 30
0.0
 10
6.143993801540798
 20
-2.325970119900173
 30
0.0
 10
6.143871731228298
 20
-2.326651679144965
 30
0.0
 10
6.143910725911458
 20
-2.326478746202256
 30
0.0
 10
6.143934461805555
 20
-2.326302422417534
 30
0.0
 10
6.143973456488715
 20
-2.326129489474826
 30
0.0
 10
6.144052293565537
 20
-2.325778537326388
 30
0.0
 10
6.144147237141926
 20
-2.325427585177951
 30
0.0
 10
6.144206576877169
 20
-2.3250732421875
 30
0.0
 10
6.144235399034287
 20
-2.324897766113281
 30
0.0
 10
6.144262525770399
 20
-2.324723137749565
 30
0.0
 10
6.144287957085503
 20
-2.324547661675346
 30
0.0
 10
6.144298977322048
 20
-2.324472215440537
 30
0.0
 10
6.14430914984809
 20
-2.324396769205729
 30
0.0
 10
6.144319322374131
 20
-2.32432132297092
 30
0.0
 10
6.14433119032118
 20
-2.324239942762586
 30
0.0
 10
6.144322713216145
 20
-2.324300977918836
 30
0.0
 10
6.144320170084634
 20
-2.324317084418402
 30
0.0
 10
6.144326951768662
 20
-2.324267069498697
 30
0.0
 10
6.144332885742187
 20
-2.324217054578992
 30
0.0
 10
6.144339667426215
 20
-2.324166191948784
 30
0.0
 10
6.144358317057291
 20
-2.32401869032118
 30
0.0
 10
6.144371880425347
 20
-2.323870340983072
 30
0.0
 10
6.144388834635416
 20
-2.323721991644965
 30
0.0
 10
6.144346449110242
 20
-2.32389662000868
 30
0.0
 10
6.144274393717447
 20
-2.324044121636284
 30
0.0
 10
6.144233703613281
 20
-2.324220445421006
 30
0.0
 10
6.144282023111978
 20
-2.324024624294704
 30
0.0
 10
6.144345601399739
 20
-2.323869493272569
 30
0.0
 10
6.144393920898437
 20
-2.32367451985677
 30
0.0
 10
6.14445326063368
 20
-2.323168436686197
 30
0.0
 10
6.144508361816406
 20
-2.322662353515625
 30
0.0
 10
6.144561767578125
 20
-2.322155422634548
 30
0.0
 10
6.144710964626735
 20
-2.320745680067274
 30
0.0
 10
6.144874572753906
 20
-2.319327460394965
 30
0.0
 10
6.145241631401909
 20
-2.317955017089843
 30
0.0
 10
6.145580715603298
 20
-2.316685994466145
 30
0.0
 10
6.146076626247829
 20
-2.315445793999565
 30
0.0
 10
6.146582709418402
 20
-2.314235263400607
 30
0.0
 10
6.14709981282552
 20
-2.312995910644531
 30
0.0
 10
6.147659301757812
 20
-2.311776055230034
 30
0.0
 10
6.148230658637152
 20
-2.310561286078558
 30
0.0
 10
6.148770650227864
 20
-2.309413486056857
 30
0.0
 10
6.149318271213107
 20
-2.308268229166666
 30
0.0
 10
6.14984130859375
 20
-2.307113647460937
 30
0.0
 10
6.15033467610677
 20
-2.305908203125
 30
0.0
 10
6.150805155436197
 20
-2.304641723632812
 30
0.0
 10
6.151323954264322
 20
-2.303509182400173
 30
0.0
 10
6.151335822211371
 20
-2.303475273980034
 30
0.0
 10
6.151351081000433
 20
-2.303442213270399
 30
0.0
 10
6.151362948947482
 20
-2.30340830485026
 30
0.0
 10
6.151363796657985
 20
-2.303406609429253
 30
0.0
 10
6.151365492078992
 20
-2.30340830485026
 30
0.0
 10
6.151366339789496
 20
-2.303406609429253
 30
0.0
 10
6.196152581108941
 20
-2.205912272135416
 30
0.0
 10
6.333421495225693
 20
-2.37333509657118
 30
0.0
 10
6.21340603298611
 20
-2.351164923773871
 30
0.0
 10
6.321636623806423
 20
-2.316104465060763
 30
0.0
 10
6.180766635470919
 20
-2.25895267062717
 30
0.0
 10
6.149006313747829
 20
-2.312173631456162
 30
0.0
 10
6.148761325412325
 20
-2.312700907389322
 30
0.0
 10
6.148518880208333
 20
-2.313229878743489
 30
0.0
 10
6.148284912109375
 20
-2.313761393229166
 30
0.0
 10
6.148012797037759
 20
-2.314380221896701
 30
0.0
 10
6.147820366753472
 20
-2.314835442437065
 30
0.0
 10
6.147564358181423
 20
-2.315485636393229
 30
0.0
 10
6.147079467773437
 20
-2.316714816623263
 30
0.0
 10
6.146625094943575
 20
-2.317967732747395
 30
0.0
 10
6.146360609266492
 20
-2.319264729817708
 30
0.0
 10
6.146291097005208
 20
-2.319602966308593
 30
0.0
 10
6.146231757269965
 20
-2.319944593641492
 30
0.0
 10
6.146180046929253
 20
-2.320286220974392
 30
0.0
 10
6.146166483561197
 20
-2.320374382866753
 30
0.0
 10
6.146152920193141
 20
-2.320463392469617
 30
0.0
 10
6.14614020453559
 20
-2.320552402072482
 30
0.0
 10
6.146133422851562
 20
-2.320602416992187
 30
0.0
 10
6.146125793457031
 20
-2.320653279622395
 30
0.0
 10
6.146119011773003
 20
-2.320704142252604
 30
0.0
 10
6.146121554904513
 20
-2.320687188042534
 30
0.0
 10
6.146129184299044
 20
-2.320627848307291
 30
0.0
 10
6.1461181640625
 20
-2.320709228515625
 30
0.0
 10
6.146096123589409
 20
-2.320873684353298
 30
0.0
 10
6.146075778537325
 20
-2.321038987901475
 30
0.0
 10
6.146056281195746
 20
-2.321203443739149
 30
0.0
 10
6.145976596408419
 20
-2.321874830457899
 30
0.0
 10
6.145911322699652
 20
-2.322547912597656
 30
0.0
 10
6.145838419596353
 20
-2.323219299316406
 30
0.0
 10
6.145760430230034
 20
-2.323937310112846
 30
0.0
 10
6.145674811469183
 20
-2.324654473198784
 30
0.0
 10
6.145557827419704
 20
-2.325367397732204
 30
0.0
 10
6.145441691080728
 20
-2.326076931423611
 30
0.0
 10
6.145247565375433
 20
-2.326779683430989
 30
0.0
 10
6.145091586642794
 20
-2.327481587727864
 30
0.0
 10
6.144483778211805
 20
-2.330225626627604
 30
0.0
 10
6.143937004937066
 20
-2.332995944552951
 30
0.0
 10
6.143541124131943
 20
-2.335778130425346
 30
0.0
 10
6.14349365234375
 20
-2.336109585232204
 30
0.0
 10
6.143463134765625
 20
-2.336336771647135
 30
0.0
 10
6.143418206108941
 20
-2.336710611979166
 30
0.0
 10
6.14337666829427
 20
-2.33705817328559
 30
0.0
 10
6.143338521321614
 20
-2.337405734592013
 30
0.0
 10
6.143305460611978
 20
-2.33775414360894
 30
0.0
 10
6.1432376437717
 20
-2.338450961642795
 30
0.0
 10
6.1431884765625
 20
-2.339150322808159
 30
0.0
 10
6.143161349826388
 20
-2.339850531684027
 30
0.0
 10
6.143116421169704
 20
-2.341015285915798
 30
0.0
 10
6.143179999457465
 20
-2.342180887858072
 30
0.0
 10
6.143274943033853
 20
-2.343342251247829
 30
0.0
 10
6.14385986328125
 20
-2.34971703423394
 30
0.0
 10
6.145220438639322
 20
-2.356713189019096
 30
0.0
 10
6.147616916232638
 20
-2.364484151204426
 30
0.0
 10
6.167435540093316
 20
-2.383702596028645
 30
0.0
 10
6.185406155056423
 20
-2.397850884331596
 30
0.0
 10
6.201605055067274
 20
-2.407801310221354
 30
0.0
 10
6.201605055067274
 20
-2.407801310221354
 30
0.0
 10
6.29689704047309
 20
-2.407801310221354
 30
0.0
 10
6.29689704047309
 20
-2.407801310221354
 30
0.0
 10
6.355170355902777
 20
-2.33519066704644
 30
0.0
 10
6.269332885742187
 20
-2.088706970214843
 30
0.0
 10
6.066523234049478
 20
-2.277851528591579
 30
0.0
 10
6.063086615668402
 20
-2.33451673719618
 30
0.0
 10
6.056422763400607
 20
-2.376786973741319
 30
0.0
 10
6.047843085394965
 20
-2.407801310221354
 30
0.0
 10
6.047843085394965
 20
-2.407801310221354
 30
0.0
 10
6.138833787706162
 20
-2.407801310221354
 30
0.0
 10
6.138833787706162
 20
-2.407801310221354
 30
0.0
  0
HATCH
  5
D9
330
7C
100
AcDbEntity
  8
Deck Box - DF
 62
   250
420
  2301728
440
 33554687
100
AcDbHatch
 10
0.0
 20
0.0
 30
0.0
210
0.0
220
0.0
230
1.0
  2
SOLID
 70
     1
 71
     1
 91
        1
 92
        1
 93
        1
 72
     4
 94
        3
 73
     0
 74
     0
 95
      134
 96
      130
 40
0.0
 40
0.0
 40
0.0
 40
0.0
 40
1.0
 40
1.0
 40
1.0
 40
2.0
 40
2.0
 40
2.0
 40
3.0
 40
3.0
 40
3.0
 40
4.0
 40
4.0
 40
4.0
 40
5.0
 40
5.0
 40
5.0
 40
6.0
 40
6.0
 40
6.0
 40
7.0
 40
7.0
 40
7.0
 40
8.0
 40
8.0
 40
8.0
 40
9.0
 40
9.0
 40
9.0
 40
10.0
 40
10.0
 40
10.0
 40
11.0
 40
11.0
 40
11.0
 40
12.0
 40
12.0
 40
12.0
 40
13.0
 40
13.0
 40
13.0
 40
14.0
 40
14.0
 40
14.0
 40
15.0
 40
15.0
 40
15.0
 40
16.0
 40
16.0
 40
16.0
 40
17.0
 40
17.0
 40
17.0
 40
18.0
 40
18.0
 40
18.0
 40
19.0
 40
19.0
 40
19.0
 40
20.0
 40
20.0
 40
20.0
 40
21.0
 40
21.0
 40
21.0
 40
22.0
 40
22.0
 40
22.0
 40
23.0
 40
23.0
 40
23.0
 40
24.0
 40
24.0
 40
24.0
 40
25.0
 40
25.0
 40
25.0
 40
26.0
 40
26.0
 40
26.0
 40
27.0
 40
27.0
 40
27.0
 40
28.0
 40
28.0
 40
28.0
 40
29.0
 40
29.0
 40
29.0
 40
30.0
 40
30.0
 40
30.0
 40
31.0
 40
31.0
 40
31.0
 40
32.0
 40
32.0
 40
32.0
 40
33.0
 40
33.0
 40
33.0
 40
34.0
 40
34.0
 40
34.0
 40
35.0
 40
35.0
 40
35.0
 40
36.0
 40
36.0
 40
36.0
 40
37.0
 40
37.0
 40
37.0
 40
38.0
 40
38.0
 40
38.0
 40
39.0
 40
39.0
 40
39.0
 40
40.0
 40
40.0
 40
40.0
 40
41.0
 40
41.0
 40
41.0
 40
42.0
 40
42.0
 40
42.0
 40
43.0
 40
43.0
 40
43.0
 40
43.0
 10
6.138833787706162
 20
-2.407801310221354
 10
6.137110392252603
 20
-2.372118631998697
 10
6.139253404405381
 20
-2.344795227050781
 10
6.144162495930989
 20
-2.324542575412326
 10
6.144015842013888
 20
-2.325202094184027
 10
6.143993801540798
 20
-2.325970119900173
 10
6.143871731228298
 20
-2.326651679144965
 10
6.143910725911458
 20
-2.326478746202256
 10
6.143934461805555
 20
-2.326302422417534
 10
6.143973456488715
 20
-2.326129489474826
 10
6.144052293565537
 20
-2.325778537326388
 10
6.144147237141926
 20
-2.325427585177951
 10
6.144206576877169
 20
-2.3250732421875
 10
6.144235399034287
 20
-2.324897766113281
 10
6.144262525770399
 20
-2.324723137749565
 10
6.144287957085503
 20
-2.324547661675346
 10
6.144298977322048
 20
-2.324472215440537
 10
6.14430914984809
 20
-2.324396769205729
 10
6.144319322374131
 20
-2.32432132297092
 10
6.14433119032118
 20
-2.324239942762586
 10
6.144322713216145
 20
-2.324300977918836
 10
6.144320170084634
 20
-2.324317084418402
 10
6.144326951768662
 20
-2.324267069498697
 10
6.144332885742187
 20
-2.324217054578992
 10
6.144339667426215
 20
-2.324166191948784
 10
6.144358317057291
 20
-2.32401869032118
 10
6.144371880425347
 20
-2.323870340983072
 10
6.144388834635416
 20
-2.323721991644965
 10
6.144346449110242
 20
-2.32389662000868
 10
6.144274393717447
 20
-2.324044121636284
 10
6.144233703613281
 20
-2.324220445421006
 10
6.144282023111978
 20
-2.324024624294704
 10
6.144345601399739
 20
-2.323869493272569
 10
6.144393920898437
 20
-2.32367451985677
 10
6.14445326063368
 20
-2.323168436686197
 10
6.144508361816406
 20
-2.322662353515625
 10
6.144561767578125
 20
-2.322155422634548
 10
6.144710964626735
 20
-2.320745680067274
 10
6.144874572753906
 20
-2.319327460394965
 10
6.145241631401909
 20
-2.317955017089843
 10
6.145580715603298
 20
-2.316685994466145
 10
6.146076626247829
 20
-2.315445793999565
 10
6.146582709418402
 20
-2.314235263400607
 10
6.14709981282552
 20
-2.312995910644531
 10
6.147659301757812
 20
-2.311776055230034
 10
6.148230658637152
 20
-2.310561286078558
 10
6.148770650227864
 20
-2.309413486056857
 10
6.149318271213107
 20
-2.308268229166666
 10
6.14984130859375
 20
-2.307113647460937
 10
6.15033467610677
 20
-2.305908203125
 10
6.150805155436197
 20
-2.304641723632812
 10
6.151323954264322
 20
-2.303509182400173
 10
6.151335822211371
 20
-2.303475273980034
 10
6.151351081000433
 20
-2.303442213270399
 10
6.151362948947482
 20
-2.30340830485026
 10
6.151363796657985
 20
-2.303406609429253
 10
6.151365492078992
 20
-2.30340830485026
 10
6.151366339789496
 20
-2.303406609429253
 10
6.196152581108941
 20
-2.205912272135416
 10
6.333421495225693
 20
-2.37333509657118
 10
6.21340603298611
 20
-2.351164923773871
 10
6.321636623806423
 20
-2.316104465060763
 10
6.180766635470919
 20
-2.25895267062717
 10
6.149006313747829
 20
-2.312173631456162
 10
6.148761325412325
 20
-2.312700907389322
 10
6.148518880208333
 20
-2.313229878743489
 10
6.148284912109375
 20
-2.313761393229166
 10
6.148012797037759
 20
-2.314380221896701
 10
6.147820366753472
 20
-2.314835442437065
 10
6.147564358181423
 20
-2.315485636393229
 10
6.147079467773437
 20
-2.316714816623263
 10
6.146625094943575
 20
-2.317967732747395
 10
6.146360609266492
 20
-2.319264729817708
 10
6.146291097005208
 20
-2.319602966308593
 10
6.146231757269965
 20
-2.319944593641492
 10
6.146180046929253
 20
-2.320286220974392
 10
6.146166483561197
 20
-2.320374382866753
 10
6.146152920193141
 20
-2.320463392469617
 10
6.14614020453559
 20
-2.320552402072482
 10
6.146133422851562
 20
-2.320602416992187
 10
6.146125793457031
 20
-2.320653279622395
 10
6.146119011773003
 20
-2.320704142252604
 10
6.146121554904513
 20
-2.320687188042534
 10
6.146129184299044
 20
-2.320627848307291
 10
6.1461181640625
 20
-2.320709228515625
 10
6.146096123589409
 20
-2.320873684353298
 10
6.146075778537325
 20
-2.321038987901475
 10
6.146056281195746
 20
-2.321203443739149
 10
6.145976596408419
 20
-2.321874830457899
 10
6.145911322699652
 20
-2.322547912597656
 10
6.145838419596353
 20
-2.323219299316406
 10
6.145760430230034
 20
-2.323937310112846
 10
6.145674811469183
 20
-2.324654473198784
 10
6.145557827419704
 20
-2.325367397732204
 10
6.145441691080728
 20
-2.326076931423611
 10
6.145247565375433
 20
-2.326779683430989
 10
6.145091586642794
 20
-2.327481587727864
 10
6.144483778211805
 20
-2.330225626627604
 10
6.143937004937066
 20
-2.332995944552951
 10
6.143541124131943
 20
-2.335778130425346
 10
6.14349365234375
 20
-2.336109585232204
 10
6.143463134765625
 20
-2.336336771647135
 10
6.143418206108941
 20
-2.336710611979166
 10
6.14337666829427
 20
-2.33705817328559
 10
6.143338521321614
 20
-2.337405734592013
 10
6.143305460611978
 20
-2.33775414360894
 10
6.1432376437717
 20
-2.338450961642795
 10
6.1431884765625
 20
-2.339150322808159
 10
6.143161349826388
 20
-2.339850531684027
 10
6.143116421169704
 20
-2.341015285915798
 10
6.143179999457465
 20
-2.342180887858072
 10
6.143274943033853
 20
-2.343342251247829
 10
6.14385986328125
 20
-2.34971703423394
 10
6.145220438639322
 20
-2.356713189019096
 10
6.147616916232638
 20
-2.364484151204426
 10
6.167435540093316
 20
-2.383702596028645
 10
6.185406155056423
 20
-2.397850884331596
 10
6.201605055067274
 20
-2.407801310221354
 10
6.201605055067274
 20
-2.407801310221354
 10
6.29689704047309
 20
-2.407801310221354
 10
6.29689704047309
 20
-2.407801310221354
 10
6.355170355902777
 20
-2.33519066704644
 10
6.269332885742187
 20
-2.088706970214843
 10
6.066523234049478
 20
-2.277851528591579
 10
6.063086615668402
 20
-2.33451673719618
 10
6.056422763400607
 20
-2.376786973741319
 10
6.047843085394965
 20
-2.407801310221354
 10
6.047843085394965
 20
-2.407801310221354
 10
6.138833787706162
 20
-2.407801310221354
 10
6.138833787706162
 20
-2.407801310221354
 97
        0
 97
        1
330
D8
 75
     2
 76
     1
 98
        1
 10
0.0
 20
0.0
450
        0
451
        0
460
0.0
461
0.0
452
        0
462
0.0
453
        0
470

  0
SPLINE
  5
DA
330
7C
100
AcDbEntity
  8
Deck Box - DF
100
AcDbSpline
210
0.0
220
0.0
230
1.0
 70
     9
 71
     3
 72
    35
 73
    31
 74
     0
 42
0.0000000001
 43
0.0000000001
 40
0.0
 40
0.0
 40
0.0
 40
0.0
 40
1.0
 40
1.0
 40
1.0
 40
2.0
 40
2.0
 40
2.0
 40
3.0
 40
3.0
 40
3.0
 40
4.0
 40
4.0
 40
4.0
 40
5.0
 40
5.0
 40
5.0
 40
6.0
 40
6.0
 40
6.0
 40
7.0
 40
7.0
 40
7.0
 40
8.0
 40
8.0
 40
8.0
 40
9.0
 40
9.0
 40
9.0
 40
10.0
 40
10.0
 40
10.0
 40
10.0
 10
6.234638104536088
 20
-1.858521829324508
 30
0.0
 10
6.288398585320489
 20
-1.836411817465596
 30
0.0
 10
6.255406247390434
 20
-1.750083727173571
 30
0.0
 10
6.207205132235003
 20
-1.798408739938458
 30
0.0
 10
6.201580255538348
 20
-1.816711851449819
 30
0.0
 10
6.191542031501108
 20
-1.78634480846698
 30
0.0
 10
6.207573809239394
 20
-1.784753278515217
 30
0.0
 10
6.282016502776336
 20
-1.742223027338784
 30
0.0
 10
6.292070891882227
 20
-1.856564992059285
 30
0.0
 10
6.228598891606022
 20
-1.873314319455946
 30
0.0
 10
6.145474421810401
 20
-1.886804319675611
 30
0.0
 10
6.123089204895197
 20
-1.786369886180649
 30
0.0
 10
6.048426439546371
 20
-1.768800750226937
 30
0.0
 10
5.641038633260905
 20
-1.769687260331655
 30
0.0
 10
6.048630062691876
 20
-2.217616591683015
 30
0.0
 10
6.052403330033257
 20
-1.88025929494227
 30
0.0
 10
5.986024169778425
 20
-1.763499011318483
 30
0.0
 10
5.867061459176309
 20
-1.967537235956013
 30
0.0
 10
5.994555922856053
 20
-1.912968906621131
 30
0.0
 10
6.000792236184679
 20
-1.89657609641151
 30
0.0
 10
6.002803227444928
 20
-1.916901454070145
 30
0.0
 10
6.002660577804008
 20
-1.925920899396095
 30
0.0
 10
5.855937339562185
 20
-1.984110760823909
 30
0.0
 10
5.933927556674714
 20
-1.687830500532716
 30
0.0
 10
6.123278648155897
 20
-1.941470891600084
 30
0.0
 10
6.203331187711606
 20
-1.990853304869006
 30
0.0
 10
6.316267730877648
 20
-1.926768629531226
 30
0.0
 10
6.33379066529998
 20
-1.843845937634935
 30
0.0
 10
6.333787262127644
 20
-1.543586593931258
 30
0.0
 10
5.958398351044201
 20
-1.84320684373621
 30
0.0
 10
6.234638104536088
 20
-1.858521829324508
 30
0.0
  0
HATCH
  5
DB
330
7C
100
AcDbEntity
  8
Deck Box - DF
 62
   250
420
  2301728
440
 33554687
100
AcDbHatch
 10
0.0
 20
0.0
 30
0.0
210
0.0
220
0.0
230
1.0
  2
SOLID
 70
     1
 71
     1
 91
        1
 92
        1
 93
        1
 72
     4
 94
        3
 73
     0
 74
     0
 95
       35
 96
       31
 40
0.0
 40
0.0
 40
0.0
 40
0.0
 40
1.0
 40
1.0
 40
1.0
 40
2.0
 40
2.0
 40
2.0
 40
3.0
 40
3.0
 40
3.0
 40
4.0
 40
4.0
 40
4.0
 40
5.0
 40
5.0
 40
5.0
 40
6.0
 40
6.0
 40
6.0
 40
7.0
 40
7.0
 40
7.0
 40
8.0
 40
8.0
 40
8.0
 40
9.0
 40
9.0
 40
9.0
 40
10.0
 40
10.0
 40
10.0
 40
10.0
 10
6.234638104536088
 20
-1.858521829324508
 10
6.288398585320489
 20
-1.836411817465596
 10
6.255406247390434
 20
-1.750083727173571
 10
6.207205132235003
 20
-1.798408739938458
 10
6.201580255538348
 20
-1.816711851449819
 10
6.191542031501108
 20
-1.78634480846698
 10
6.207573809239394
 20
-1.784753278515217
 10
6.282016502776336
 20
-1.742223027338784
 10
6.292070891882227
 20
-1.856564992059285
 10
6.228598891606022
 20
-1.873314319455946
 10
6.145474421810401
 20
-1.886804319675611
 10
6.123089204895197
 20
-1.786369886180649
 10
6.048426439546371
 20
-1.768800750226937
 10
5.641038633260905
 20
-1.769687260331655
 10
6.048630062691876
 20
-2.217616591683015
 10
6.052403330033257
 20
-1.88025929494227
 10
5.986024169778425
 20
-1.763499011318483
 10
5.867061459176309
 20
-1.967537235956013
 10
5.994555922856053
 20
-1.912968906621131
 10
6.000792236184679
 20
-1.89657609641151
 10
6.002803227444928
 20
-1.916901454070145
 10
6.002660577804008
 20
-1.925920899396095
 10
5.855937339562185
 20
-1.984110760823909
 10
5.933927556674714
 20
-1.687830500532716
 10
6.123278648155897
 20
-1.941470891600084
 10
6.203331187711606
 20
-1.990853304869006
 10
6.316267730877648
 20
-1.926768629531226
 10
6.33379066529998
 20
-1.843845937634935
 10
6.333787262127644
 20
-1.543586593931258
 10
5.958398351044201
 20
-1.84320684373621
 10
6.234638104536088
 20
-1.858521829324508
 97
        0
 97
        1
330
DA
 75
     2
 76
     1
 98
        1
 10
0.0
 20
0.0
450
        0
451
        0
460
0.0
461
0.0
452
        0
462
0.0
453
        0
470

  0
SPLINE
  5
DC
330
7C
100
AcDbEntity
  8
Deck Box - DF
100
AcDbSpline
210
0.0
220
0.0
230
1.0
 70
     9
 71
     3
 72
    29
 73
    25
 74
     0
 42
0.0000000001
 43
0.0000000001
 40
0.0
 40
0.0
 40
0.0
 40
0.0
 40
1.0
 40
1.0
 40
1.0
 40
2.0
 40
2.0
 40
2.0
 40
3.0
 40
3.0
 40
3.0
 40
4.0
 40
4.0
 40
4.0
 40
5.0
 40
5.0
 40
5.0
 40
6.0
 40
6.0
 40
6.0
 40
7.0
 40
7.0
 40
7.0
 40
8.0
 40
8.0
 40
8.0
 40
8.0
 10
5.982235588161478
 20
-2.058854757134807
 30
0.0
 10
5.996622782862383
 20
-2.434720822206069
 30
0.0
 10
5.7725944995409
 20
-2.158982828870041
 30
0.0
 10
5.905832383754133
 20
-2.188873653826388
 30
0.0
 10
5.837783967462251
 20
-2.196472201066765
 30
0.0
 10
5.884645367103226
 20
-2.26810216582002
 30
0.0
 10
5.935662040181644
 20
-2.241955159127377
 30
0.0
 10
6.09691909313301
 20
-2.035867025297622
 30
0.0
 10
5.627041385391546
 20
-2.137633680014384
 30
0.0
 10
5.86199583713556
 20
-2.304702959647
 30
0.0
 10
5.937872684219706
 20
-2.338309939822061
 30
0.0
 10
6.058846953277452
 20
-2.29319487440624
 30
0.0
 10
6.070381155159566
 20
-2.208461674996644
 30
0.0
 10
5.991135451048143
 20
-1.931768143210054
 30
0.0
 10
6.271386126750434
 20
-2.04140894148438
 30
0.0
 10
6.1339090241818
 20
-2.113553387167459
 30
0.0
 10
6.126737689250426
 20
-2.108630140762152
 30
0.0
 10
6.112094122232595
 20
-2.095882389160326
 30
0.0
 10
6.128832909026312
 20
-2.100543482971248
 30
0.0
 10
6.251490330408134
 20
-2.039722012807462
 30
0.0
 10
6.017221334294642
 20
-2.011275095385321
 30
0.0
 10
6.066993013488905
 20
-2.123692798015023
 30
0.0
 10
6.341745864262293
 20
-2.306366878875312
 30
0.0
 10
6.227091286255649
 20
-1.768095988913033
 30
0.0
 10
5.982235588161478
 20
-2.058854757134807
 30
0.0
  0
HATCH
  5
DD
330
7C
100
AcDbEntity
  8
Deck Box - DF
 62
   250
420
  2301728
440
 33554687
100
AcDbHatch
 10
0.0
 20
0.0
 30
0.0
210
0.0
220
0.0
230
1.0
  2
SOLID
 70
     1
 71
     1
 91
        1
 92
        1
 93
        1
 72
     4
 94
        3
 73
     0
 74
     0
 95
       29
 96
       25
 40
0.0
 40
0.0
 40
0.0
 40
0.0
 40
1.0
 40
1.0
 40
1.0
 40
2.0
 40
2.0
 40
2.0
 40
3.0
 40
3.0
 40
3.0
 40
4.0
 40
4.0
 40
4.0
 40
5.0
 40
5.0
 40
5.0
 40
6.0
 40
6.0
 40
6.0
 40
7.0
 40
7.0
 40
7.0
 40
8.0
 40
8.0
 40
8.0
 40
8.0
 10
5.982235588161478
 20
-2.058854757134807
 10
5.996622782862383
 20
-2.434720822206069
 10
5.7725944995409
 20
-2.158982828870041
 10
5.905832383754133
 20
-2.188873653826388
 10
5.837783967462251
 20
-2.196472201066765
 10
5.884645367103226
 20
-2.26810216582002
 10
5.935662040181644
 20
-2.241955159127377
 10
6.09691909313301
 20
-2.035867025297622
 10
5.627041385391546
 20
-2.137633680014384
 10
5.86199583713556
 20
-2.304702959647
 10
5.937872684219706
 20
-2.338309939822061
 10
6.058846953277452
 20
-2.29319487440624
 10
6.070381155159566
 20
-2.208461674996644
 10
5.991135451048143
 20
-1.931768143210054
 10
6.271386126750434
 20
-2.04140894148438
 10
6.1339090241818
 20
-2.113553387167459
 10
6.126737689250426
 20
-2.108630140762152
 10
6.112094122232595
 20
-2.095882389160326
 10
6.128832909026312
 20
-2.100543482971248
 10
6.251490330408134
 20
-2.039722012807462
 10
6.017221334294642
 20
-2.011275095385321
 10
6.066993013488905
 20
-2.123692798015023
 10
6.341745864262293
 20
-2.306366878875312
 10
6.227091286255649
 20
-1.768095988913033
 10
5.982235588161478
 20
-2.058854757134807
 97
        0
 97
        1
330
DC
 75
     2
 76
     1
 98
        1
 10
0.0
 20
0.0
450
        0
451
        0
460
0.0
461
0.0
452
        0
462
0.0
453
        0
470

  0
SPLINE
  5
DE
330
7C
100
AcDbEntity
  8
Deck Box - DF
100
AcDbSpline
210
0.0
220
0.0
230
1.0
 70
     9
 71
     3
 72
    29
 73
    25
 74
     0
 42
0.0000000001
 43
0.0000000001
 40
0.0
 40
0.0
 40
0.0
 40
0.0
 40
1.0
 40
1.0
 40
1.0
 40
2.0
 40
2.0
 40
2.0
 40
3.0
 40
3.0
 40
3.0
 40
4.0
 40
4.0
 40
4.0
 40
5.0
 40
5.0
 40
5.0
 40
6.0
 40
6.0
 40
6.0
 40
7.0
 40
7.0
 40
7.0
 40
8.0
 40
8.0
 40
8.0
 40
8.0
 10
5.931561217501742
 20
-1.576111612954908
 30
0.0
 10
5.893833081651033
 20
-1.889074240561954
 30
0.0
 10
5.672280889810786
 20
-1.663632316578248
 30
0.0
 10
5.832686015284252
 20
-1.64504275035823
 30
0.0
 10
5.837315464068979
 20
-1.653233855533863
 30
0.0
 10
5.845634518874854
 20
-1.672711224524227
 30
0.0
 10
5.831982976596615
 20
-1.660570250179855
 30
0.0
 10
5.692254108323999
 20
-1.66861269880543
 30
0.0
 10
5.898687423408469
 20
-1.800963047268434
 30
0.0
 10
5.899289501316464
 20
-1.664191265206517
 30
0.0
 10
5.732757814822585
 20
-1.358171803353886
 30
0.0
 10
5.587107426663654
 20
-1.950035577149391
 30
0.0
 10
5.951215955802681
 20
-1.76779376368342
 30
0.0
 10
6.102666200436512
 20
-1.376779466893051
 30
0.0
 10
6.178859826146763
 20
-1.758880316940967
 30
0.0
 10
6.076702547796862
 20
-1.668678107687444
 30
0.0
 10
6.143315108955321
 20
-1.690915317846588
 30
0.0
 10
6.129581323345291
 20
-1.597087957036276
 30
0.0
 10
6.071108866846694
 20
-1.601301271465078
 30
0.0
 10
5.834692752579081
 20
-1.740703628130467
 30
0.0
 10
6.315120861796231
 20
-1.843935907164387
 30
0.0
 10
6.165986759543228
 20
-1.569689649991725
 30
0.0
 10
6.109320536768614
 20
-1.501906916754364
 30
0.0
 10
5.977724966811264
 20
-1.494648340580687
 30
0.0
 10
5.931561217501742
 20
-1.576111612954908
 30
0.0
  0
HATCH
  5
DF
330
7C
100
AcDbEntity
  8
Deck Box - DF
 62
   250
420
  2301728
440
 33554687
100
AcDbHatch
 10
0.0
 20
0.0
 30
0.0
210
0.0
220
0.0
230
1.0
  2
SOLID
 70
     1
 71
     1
 91
        1
 92
        1
 93
        1
 72
     4
 94
        3
 73
     0
 74
     0
 95
       29
 96
       25
 40
0.0
 40
0.0
 40
0.0
 40
0.0
 40
1.0
 40
1.0
 40
1.0
 40
2.0
 40
2.0
 40
2.0
 40
3.0
 40
3.0
 40
3.0
 40
4.0
 40
4.0
 40
4.0
 40
5.0
 40
5.0
 40
5.0
 40
6.0
 40
6.0
 40
6.0
 40
7.0
 40
7.0
 40
7.0
 40
8.0
 40
8.0
 40
8.0
 40
8.0
 10
5.931561217501742
 20
-1.576111612954908
 10
5.893833081651033
 20
-1.889074240561954
 10
5.672280889810786
 20
-1.663632316578248
 10
5.832686015284252
 20
-1.64504275035823
 10
5.837315464068979
 20
-1.653233855533863
 10
5.845634518874854
 20
-1.672711224524227
 10
5.831982976596615
 20
-1.660570250179855
 10
5.692254108323999
 20
-1.66861269880543
 10
5.898687423408469
 20
-1.800963047268434
 10
5.899289501316464
 20
-1.664191265206517
 10
5.732757814822585
 20
-1.358171803353886
 10
5.587107426663654
 20
-1.950035577149391
 10
5.951215955802681
 20
-1.76779376368342
 10
6.102666200436512
 20
-1.376779466893051
 10
6.178859826146763
 20
-1.758880316940967
 10
6.076702547796862
 20
-1.668678107687444
 10
6.143315108955321
 20
-1.690915317846588
 10
6.129581323345291
 20
-1.597087957036276
 10
6.071108866846694
 20
-1.601301271465078
 10
5.834692752579081
 20
-1.740703628130467
 10
6.315120861796231
 20
-1.843935907164387
 10
6.165986759543228
 20
-1.569689649991725
 10
6.109320536768614
 20
-1.501906916754364
 10
5.977724966811264
 20
-1.494648340580687
 10
5.931561217501742
 20
-1.576111612954908
 97
        0
 97
        1
330
DE
 75
     2
 76
     1
 98
        1
 10
0.0
 20
0.0
450
        0
451
        0
460
0.0
461
0.0
452
        0
462
0.0
453
        0
470

  0
SPLINE
  5
E0
330
7C
100
AcDbEntity
  8
Deck Box - DF
100
AcDbSpline
210
0.0
220
0.0
230
1.0
 70
     9
 71
     3
 72
    41
 73
    37
 74
     0
 42
0.0000000001
 43
0.0000000001
 40
0.0
 40
0.0
 40
0.0
 40
0.0
 40
1.0
 40
1.0
 40
1.0
 40
2.0
 40
2.0
 40
2.0
 40
3.0
 40
3.0
 40
3.0
 40
4.0
 40
4.0
 40
4.0
 40
5.0
 40
5.0
 40
5.0
 40
6.0
 40
6.0
 40
6.0
 40
7.0
 40
7.0
 40
7.0
 40
8.0
 40
8.0
 40
8.0
 40
9.0
 40
9.0
 40
9.0
 40
10.0
 40
10.0
 40
10.0
 40
11.0
 40
11.0
 40
11.0
 40
12.0
 40
12.0
 40
12.0
 40
12.0
 10
5.167986015945567
 20
-1.754484472380163
 30
0.0
 10
5.186765108588006
 20
-1.707478679688304
 30
0.0
 10
5.090511826928958
 20
-1.675990124027053
 30
0.0
 10
5.097848930554264
 20
-1.735349329071785
 30
0.0
 10
5.109445701039501
 20
-1.749925014549401
 30
0.0
 10
5.076681698468266
 20
-1.737867645592599
 30
0.0
 10
5.086524182723855
 20
-1.726870913314302
 30
0.0
 10
5.102421914378661
 20
-1.654585407427336
 30
0.0
 10
5.206422066273741
 20
-1.717351893890016
 30
0.0
 10
5.176316493172558
 20
-1.767199035417396
 30
0.0
 10
5.129726404940229
 20
-1.827379593944581
 30
0.0
 10
5.028914000483811
 20
-1.780731334865511
 30
0.0
 10
4.961888426882548
 20
-1.816856141569221
 30
0.0
 10
4.803041635005456
 20
-1.900170655142321
 30
0.0
 10
4.959815337031841
 20
-2.108503961005415
 30
0.0
 10
5.104816118021491
 20
-2.005393492971974
 30
0.0
 10
5.148020072866302
 20
-1.952553920312046
 30
0.0
 10
5.128363981494733
 20
-1.895154055112533
 30
0.0
 10
5.059180708023808
 20
-1.881717468942888
 30
0.0
 10
4.913826759617045
 20
-1.852715232630834
 30
0.0
 10
5.003833338441457
 20
-2.050416295735241
 30
0.0
 10
5.04655793276917
 20
-1.937651585448166
 30
0.0
 10
5.037007973937584
 20
-1.92384689268729
 30
0.0
 10
5.055651055252559
 20
-1.934863936213623
 30
0.0
 10
5.063201272168018
 20
-1.940400838076773
 30
0.0
 10
5.064714723053561
 20
-2.003754959551277
 30
0.0
 10
4.944494281854505
 20
-1.982040844214326
 30
0.0
 10
4.961216455844426
 20
-1.922582865292067
 30
0.0
 10
4.984655741272768
 20
-1.837119811207066
 30
0.0
 10
5.092620724432713
 20
-1.894822119237018
 30
0.0
 10
5.160587404012933
 20
-1.874267414456009
 30
0.0
 10
5.258368863898769
 20
-1.854006805417194
 30
0.0
 10
5.282858699665236
 20
-1.744607084634266
 30
0.0
 10
5.224759916223344
 20
-1.683555090095309
 30
0.0
 10
4.970088668210008
 20
-1.502206529317605
 30
0.0
 10
4.962145722196232
 20
-1.918150004966264
 30
0.0
 10
5.167986015945567
 20
-1.754484472380163
 30
0.0
  0
HATCH
  5
E1
330
7C
100
AcDbEntity
  8
Deck Box - DF
 62
   250
420
  2301728
440
 33554687
100
AcDbHatch
 10
0.0
 20
0.0
 30
0.0
210
0.0
220
0.0
230
1.0
  2
SOLID
 70
     1
 71
     1
 91
        1
 92
        1
 93
        1
 72
     4
 94
        3
 73
     0
 74
     0
 95
       41
 96
       37
 40
0.0
 40
0.0
 40
0.0
 40
0.0
 40
1.0
 40
1.0
 40
1.0
 40
2.0
 40
2.0
 40
2.0
 40
3.0
 40
3.0
 40
3.0
 40
4.0
 40
4.0
 40
4.0
 40
5.0
 40
5.0
 40
5.0
 40
6.0
 40
6.0
 40
6.0
 40
7.0
 40
7.0
 40
7.0
 40
8.0
 40
8.0
 40
8.0
 40
9.0
 40
9.0
 40
9.0
 40
10.0
 40
10.0
 40
10.0
 40
11.0
 40
11.0
 40
11.0
 40
12.0
 40
12.0
 40
12.0
 40
12.0
 10
5.167986015945567
 20
-1.754484472380163
 10
5.186765108588006
 20
-1.707478679688304
 10
5.090511826928958
 20
-1.675990124027053
 10
5.097848930554264
 20
-1.735349329071785
 10
5.109445701039501
 20
-1.749925014549401
 10
5.076681698468266
 20
-1.737867645592599
 10
5.086524182723855
 20
-1.726870913314302
 10
5.102421914378661
 20
-1.654585407427336
 10
5.206422066273741
 20
-1.717351893890016
 10
5.176316493172558
 20
-1.767199035417396
 10
5.129726404940229
 20
-1.827379593944581
 10
5.028914000483811
 20
-1.780731334865511
 10
4.961888426882548
 20
-1.816856141569221
 10
4.803041635005456
 20
-1.900170655142321
 10
4.959815337031841
 20
-2.108503961005415
 10
5.104816118021491
 20
-2.005393492971974
 10
5.148020072866302
 20
-1.952553920312046
 10
5.128363981494733
 20
-1.895154055112533
 10
5.059180708023808
 20
-1.881717468942888
 10
4.913826759617045
 20
-1.852715232630834
 10
5.003833338441457
 20
-2.050416295735241
 10
5.04655793276917
 20
-1.937651585448166
 10
5.037007973937584
 20
-1.92384689268729
 10
5.055651055252559
 20
-1.934863936213623
 10
5.063201272168018
 20
-1.940400838076773
 10
5.064714723053561
 20
-2.003754959551277
 10
4.944494281854505
 20
-1.982040844214326
 10
4.961216455844426
 20
-1.922582865292067
 10
4.984655741272768
 20
-1.837119811207066
 10
5.092620724432713
 20
-1.894822119237018
 10
5.160587404012933
 20
-1.874267414456009
 10
5.258368863898769
 20
-1.854006805417194
 10
5.282858699665236
 20
-1.744607084634266
 10
5.224759916223344
 20
-1.683555090095309
 10
4.970088668210008
 20
-1.502206529317605
 10
4.962145722196232
 20
-1.918150004966264
 10
5.167986015945567
 20
-1.754484472380163
 97
        0
 97
        1
330
E0
 75
     2
 76
     1
 98
        1
 10
0.0
 20
0.0
450
        0
451
        0
460
0.0
461
0.0
452
        0
462
0.0
453
        0
470

  0
SPLINE
  5
E2
330
7C
100
AcDbEntity
  8
Deck Box - DF
100
AcDbSpline
210
0.0
220
0.0
230
1.0
 70
     9
 71
     3
 72
    26
 73
    22
 74
     0
 42
0.0000000001
 43
0.0000000001
 40
0.0
 40
0.0
 40
0.0
 40
0.0
 40
1.0
 40
1.0
 40
1.0
 40
2.0
 40
2.0
 40
2.0
 40
3.0
 40
3.0
 40
3.0
 40
4.0
 40
4.0
 40
4.0
 40
5.0
 40
5.0
 40
5.0
 40
6.0
 40
6.0
 40
6.0
 40
7.0
 40
7.0
 40
7.0
 40
7.0
 10
5.892439948187933
 20
-1.468676249186197
 30
0.0
 10
5.917013380262586
 20
-1.492879231770833
 30
0.0
 10
5.919381883409287
 20
-1.542967902289496
 30
0.0
 10
5.865538703070746
 20
-1.527026706271701
 30
0.0
 10
5.863360087076822
 20
-1.520200093587239
 30
0.0
 10
5.859998914930555
 20
-1.504581875271267
 30
0.0
 10
5.867862277560763
 20
-1.516278584798176
 30
0.0
 10
5.928046332465277
 20
-1.532991197374131
 30
0.0
 10
5.901601155598958
 20
-1.484079149034288
 30
0.0
 10
5.869320339626735
 20
-1.468676249186197
 30
0.0
 10
5.869320339626735
 20
-1.468676249186197
 30
0.0
 10
5.837348937988281
 20
-1.468676249186197
 30
0.0
 10
5.837348937988281
 20
-1.468676249186197
 30
0.0
 10
5.830513000488281
 20
-1.473575168185763
 30
0.0
 10
5.825083414713541
 20
-1.482818603515625
 30
0.0
 10
5.82243177625868
 20
-1.498146904839409
 30
0.0
 10
5.902521769205728
 20
-1.671954684787326
 30
0.0
 10
5.955947028266058
 20
-1.55314466688368
 30
0.0
 10
5.935094197591145
 20
-1.468676249186197
 30
0.0
 10
5.935094197591145
 20
-1.468676249186197
 30
0.0
 10
5.892439948187933
 20
-1.468676249186197
 30
0.0
 10
5.892439948187933
 20
-1.468676249186197
 30
0.0
  0
HATCH
  5
E3
330
7C
100
AcDbEntity
  8
Deck Box - DF
 62
   250
420
  2301728
440
 33554687
100
AcDbHatch
 10
0.0
 20
0.0
 30
0.0
210
0.0
220
0.0
230
1.0
  2
SOLID
 70
     1
 71
     1
 91
        1
 92
        1
 93
        1
 72
     4
 94
        3
 73
     0
 74
     0
 95
       26
 96
       22
 40
0.0
 40
0.0
 40
0.0
 40
0.0
 40
1.0
 40
1.0
 40
1.0
 40
2.0
 40
2.0
 40
2.0
 40
3.0
 40
3.0
 40
3.0
 40
4.0
 40
4.0
 40
4.0
 40
5.0
 40
5.0
 40
5.0
 40
6.0
 40
6.0
 40
6.0
 40
7.0
 40
7.0
 40
7.0
 40
7.0
 10
5.892439948187933
 20
-1.468676249186197
 10
5.917013380262586
 20
-1.492879231770833
 10
5.919381883409287
 20
-1.542967902289496
 10
5.865538703070746
 20
-1.527026706271701
 10
5.863360087076822
 20
-1.520200093587239
 10
5.859998914930555
 20
-1.504581875271267
 10
5.867862277560763
 20
-1.516278584798176
 10
5.928046332465277
 20
-1.532991197374131
 10
5.901601155598958
 20
-1.484079149034288
 10
5.869320339626735
 20
-1.468676249186197
 10
5.869320339626735
 20
-1.468676249186197
 10
5.837348937988281
 20
-1.468676249186197
 10
5.837348937988281
 20
-1.468676249186197
 10
5.830513000488281
 20
-1.473575168185763
 10
5.825083414713541
 20
-1.482818603515625
 10
5.82243177625868
 20
-1.498146904839409
 10
5.902521769205728
 20
-1.671954684787326
 10
5.955947028266058
 20
-1.55314466688368
 10
5.935094197591145
 20
-1.468676249186197
 10
5.935094197591145
 20
-1.468676249186197
 10
5.892439948187933
 20
-1.468676249186197
 10
5.892439948187933
 20
-1.468676249186197
 97
        0
 97
        1
330
E2
 75
     2
 76
     1
 98
        1
 10
0.0
 20
0.0
450
        0
451
        0
460
0.0
461
0.0
452
        0
462
0.0
453
        0
470

  0
SPLINE
  5
E4
330
7C
100
AcDbEntity
  8
Deck Box - DF
100
AcDbSpline
210
0.0
220
0.0
230
1.0
 70
     9
 71
     3
 72
    38
 73
    34
 74
     0
 42
0.0000000001
 43
0.0000000001
 40
0.0
 40
0.0
 40
0.0
 40
0.0
 40
1.0
 40
1.0
 40
1.0
 40
2.0
 40
2.0
 40
2.0
 40
3.0
 40
3.0
 40
3.0
 40
4.0
 40
4.0
 40
4.0
 40
5.0
 40
5.0
 40
5.0
 40
6.0
 40
6.0
 40
6.0
 40
7.0
 40
7.0
 40
7.0
 40
8.0
 40
8.0
 40
8.0
 40
9.0
 40
9.0
 40
9.0
 40
10.0
 40
10.0
 40
10.0
 40
11.0
 40
11.0
 40
11.0
 40
11.0
 10
5.83629184299045
 20
-1.468676249186197
 30
0.0
 10
5.83629184299045
 20
-1.468676249186197
 30
0.0
 10
5.697689480251735
 20
-1.468676249186197
 30
0.0
 10
5.697689480251735
 20
-1.468676249186197
 30
0.0
 10
5.693566216362847
 20
-1.469374762641058
 30
0.0
 10
5.689289516872829
 20
-1.469857957628038
 30
0.0
 10
5.6846923828125
 20
-1.469857957628038
 30
0.0
 10
5.6846923828125
 20
-1.469857957628038
 30
0.0
 10
5.669342888726128
 20
-1.469857957628038
 30
0.0
 10
5.669342888726128
 20
-1.469857957628038
 30
0.0
 10
5.671463860405816
 20
-1.48324245876736
 30
0.0
 10
5.680898030598958
 20
-1.498107062445746
 30
0.0
 10
5.697912428114149
 20
-1.50256856282552
 30
0.0
 10
5.707749260796441
 20
-1.500172932942708
 30
0.0
 10
5.715993245442708
 20
-1.497326321072048
 30
0.0
 10
5.722956339518228
 20
-1.494161817762586
 30
0.0
 10
5.717188517252603
 20
-1.500136481391058
 30
0.0
 10
5.711306254069009
 20
-1.506412082248263
 30
0.0
 10
5.705273098415798
 20
-1.513089497884114
 30
0.0
 10
5.68345472547743
 20
-1.510487874348958
 30
0.0
 10
5.667691548665364
 20
-1.488958570692274
 30
0.0
 10
5.663536919487847
 20
-1.469857957628038
 30
0.0
 10
5.663536919487847
 20
-1.469857957628038
 30
0.0
 10
5.621657477484808
 20
-1.469857957628038
 30
0.0
 10
5.621657477484808
 20
-1.469857957628038
 30
0.0
 10
5.623291015625
 20
-1.479749891493055
 30
0.0
 10
5.625824822319878
 20
-1.490658230251735
 30
0.0
 10
5.629523383246527
 20
-1.502819485134548
 30
0.0
 10
5.660106235080294
 20
-1.563590155707465
 30
0.0
 10
5.748910692003037
 20
-1.59916517469618
 30
0.0
 10
5.790011935763888
 20
-1.552590264214409
 30
0.0
 10
5.80450439453125
 20
-1.508030361599392
 30
0.0
 10
5.820660061306423
 20
-1.482198927137586
 30
0.0
 10
5.83629184299045
 20
-1.468676249186197
 30
0.0
  0
HATCH
  5
E5
330
7C
100
AcDbEntity
  8
Deck Box - DF
 62
   250
420
  2301728
440
 33554687
100
AcDbHatch
 10
0.0
 20
0.0
 30
0.0
210
0.0
220
0.0
230
1.0
  2
SOLID
 70
     1
 71
     1
 91
        1
 92
        1
 93
        1
 72
     4
 94
        3
 73
     0
 74
     0
 95
       38
 96
       34
 40
0.0
 40
0.0
 40
0.0
 40
0.0
 40
1.0
 40
1.0
 40
1.0
 40
2.0
 40
2.0
 40
2.0
 40
3.0
 40
3.0
 40
3.0
 40
4.0
 40
4.0
 40
4.0
 40
5.0
 40
5.0
 40
5.0
 40
6.0
 40
6.0
 40
6.0
 40
7.0
 40
7.0
 40
7.0
 40
8.0
 40
8.0
 40
8.0
 40
9.0
 40
9.0
 40
9.0
 40
10.0
 40
10.0
 40
10.0
 40
11.0
 40
11.0
 40
11.0
 40
11.0
 10
5.83629184299045
 20
-1.468676249186197
 10
5.83629184299045
 20
-1.468676249186197
 10
5.697689480251735
 20
-1.468676249186197
 10
5.697689480251735
 20
-1.468676249186197
 10
5.693566216362847
 20
-1.469374762641058
 10
5.689289516872829
 20
-1.469857957628038
 10
5.6846923828125
 20
-1.469857957628038
 10
5.6846923828125
 20
-1.469857957628038
 10
5.669342888726128
 20
-1.469857957628038
 10
5.669342888726128
 20
-1.469857957628038
 10
5.671463860405816
 20
-1.48324245876736
 10
5.680898030598958
 20
-1.498107062445746
 10
5.697912428114149
 20
-1.50256856282552
 10
5.707749260796441
 20
-1.500172932942708
 10
5.715993245442708
 20
-1.497326321072048
 10
5.722956339518228
 20
-1.494161817762586
 10
5.717188517252603
 20
-1.500136481391058
 10
5.711306254069009
 20
-1.506412082248263
 10
5.705273098415798
 20
-1.513089497884114
 10
5.68345472547743
 20
-1.510487874348958
 10
5.667691548665364
 20
-1.488958570692274
 10
5.663536919487847
 20
-1.469857957628038
 10
5.663536919487847
 20
-1.469857957628038
 10
5.621657477484808
 20
-1.469857957628038
 10
5.621657477484808
 20
-1.469857957628038
 10
5.623291015625
 20
-1.479749891493055
 10
5.625824822319878
 20
-1.490658230251735
 10
5.629523383246527
 20
-1.502819485134548
 10
5.660106235080294
 20
-1.563590155707465
 10
5.748910692003037
 20
-1.59916517469618
 10
5.790011935763888
 20
-1.552590264214409
 10
5.80450439453125
 20
-1.508030361599392
 10
5.820660061306423
 20
-1.482198927137586
 10
5.83629184299045
 20
-1.468676249186197
 97
        0
 97
        1
330
E4
 75
     2
 76
     1
 98
        1
 10
0.0
 20
0.0
450
        0
451
        0
460
0.0
461
0.0
452
        0
462
0.0
453
        0
470

  0
SPLINE
  5
E6
330
7C
100
AcDbEntity
  8
Deck Box - DF
100
AcDbSpline
210
0.0
220
0.0
230
1.0
 70
     9
 71
     3
 72
    14
 73
    10
 74
     0
 42
0.0000000001
 43
0.0000000001
 40
0.0
 40
0.0
 40
0.0
 40
0.0
 40
1.0
 40
1.0
 40
1.0
 40
2.0
 40
2.0
 40
2.0
 40
3.0
 40
3.0
 40
3.0
 40
3.0
 10
6.2920167711046
 20
-1.468676249186197
 30
0.0
 10
6.2920167711046
 20
-1.468676249186197
 30
0.0
 10
6.226620992024739
 20
-1.468676249186197
 30
0.0
 10
6.226620992024739
 20
-1.468676249186197
 30
0.0
 10
6.139336480034722
 20
-1.573709275987413
 30
0.0
 10
6.199258592393662
 20
-1.733379787868923
 30
0.0
 10
6.387301974826388
 20
-1.634752061631944
 30
0.0
 10
6.41695573594835
 20
-1.474363538953993
 30
0.0
 10
6.243754069010416
 20
-1.743581136067708
 30
0.0
 10
6.2920167711046
 20
-1.468676249186197
 30
0.0
  0
HATCH
  5
E7
330
7C
100
AcDbEntity
  8
Deck Box - DF
 62
   250
420
  2301728
440
 33554687
100
AcDbHatch
 10
0.0
 20
0.0
 30
0.0
210
0.0
220
0.0
230
1.0
  2
SOLID
 70
     1
 71
     1
 91
        1
 92
        1
 93
        1
 72
     4
 94
        3
 73
     0
 74
     0
 95
       14
 96
       10
 40
0.0
 40
0.0
 40
0.0
 40
0.0
 40
1.0
 40
1.0
 40
1.0
 40
2.0
 40
2.0
 40
2.0
 40
3.0
 40
3.0
 40
3.0
 40
3.0
 10
6.2920167711046
 20
-1.468676249186197
 10
6.2920167711046
 20
-1.468676249186197
 10
6.226620992024739
 20
-1.468676249186197
 10
6.226620992024739
 20
-1.468676249186197
 10
6.139336480034722
 20
-1.573709275987413
 10
6.199258592393662
 20
-1.733379787868923
 10
6.387301974826388
 20
-1.634752061631944
 10
6.41695573594835
 20
-1.474363538953993
 10
6.243754069010416
 20
-1.743581136067708
 10
6.2920167711046
 20
-1.468676249186197
 97
        0
 97
        1
330
E6
 75
     2
 76
     1
 98
        1
 10
0.0
 20
0.0
450
        0
451
        0
460
0.0
461
0.0
452
        0
462
0.0
453
        0
470

  0
SPLINE
  5
E8
330
7C
100
AcDbEntity
  8
Deck Box - DF
100
AcDbSpline
210
0.0
220
0.0
230
1.0
 70
     9
 71
     3
 72
    17
 73
    13
 74
     0
 42
0.0000000001
 43
0.0000000001
 40
0.0
 40
0.0
 40
0.0
 40
0.0
 40
1.0
 40
1.0
 40
1.0
 40
2.0
 40
2.0
 40
2.0
 40
3.0
 40
3.0
 40
3.0
 40
4.0
 40
4.0
 40
4.0
 40
4.0
 10
6.3899171617296
 20
-1.468676249186197
 30
0.0
 10
6.3899171617296
 20
-1.468676249186197
 30
0.0
 10
6.315782335069443
 20
-1.468676249186197
 30
0.0
 10
6.315782335069443
 20
-1.468676249186197
 30
0.0
 10
6.289650811089408
 20
-1.484799702962239
 30
0.0
 10
6.275973849826388
 20
-1.519476996527777
 30
0.0
 10
6.315622965494791
 20
-1.579271104600694
 30
0.0
 10
6.358505249023437
 20
-1.597535875108506
 30
0.0
 10
6.428009880913627
 20
-1.514273749457465
 30
0.0
 10
6.354973687065971
 20
-1.517429775661892
 30
0.0
 10
6.392461988661024
 20
-1.49615478515625
 30
0.0
 10
6.3985595703125
 20
-1.479078504774305
 30
0.0
 10
6.3899171617296
 20
-1.468676249186197
 30
0.0
  0
HATCH
  5
E9
330
7C
100
AcDbEntity
  8
Deck Box - DF
 62
   250
420
  2301728
440
 33554687
100
AcDbHatch
 10
0.0
 20
0.0
 30
0.0
210
0.0
220
0.0
230
1.0
  2
SOLID
 70
     1
 71
     1
 91
        1
 92
        1
 93
        1
 72
     4
 94
        3
 73
     0
 74
     0
 95
       17
 96
       13
 40
0.0
 40
0.0
 40
0.0
 40
0.0
 40
1.0
 40
1.0
 40
1.0
 40
2.0
 40
2.0
 40
2.0
 40
3.0
 40
3.0
 40
3.0
 40
4.0
 40
4.0
 40
4.0
 40
4.0
 10
6.3899171617296
 20
-1.468676249186197
 10
6.3899171617296
 20
-1.468676249186197
 10
6.315782335069443
 20
-1.468676249186197
 10
6.315782335069443
 20
-1.468676249186197
 10
6.289650811089408
 20
-1.484799702962239
 10
6.275973849826388
 20
-1.519476996527777
 10
6.315622965494791
 20
-1.579271104600694
 10
6.358505249023437
 20
-1.597535875108506
 10
6.428009880913627
 20
-1.514273749457465
 10
6.354973687065971
 20
-1.517429775661892
 10
6.392461988661024
 20
-1.49615478515625
 10
6.3985595703125
 20
-1.479078504774305
 10
6.3899171617296
 20
-1.468676249186197
 97
        0
 97
        1
330
E8
 75
     2
 76
     1
 98
        1
 10
0.0
 20
0.0
450
        0
451
        0
460
0.0
461
0.0
452
        0
462
0.0
453
        0
470

  0
SPLINE
  5
EA
330
7C
100
AcDbEntity
  8
Deck Box - DF
100
AcDbSpline
210
0.0
220
0.0
230
1.0
 70
     9
 71
     3
 72
    17
 73
    13
 74
     0
 42
0.0000000001
 43
0.0000000001
 40
0.0
 40
0.0
 40
0.0
 40
0.0
 40
1.0
 40
1.0
 40
1.0
 40
2.0
 40
2.0
 40
2.0
 40
3.0
 40
3.0
 40
3.0
 40
4.0
 40
4.0
 40
4.0
 40
4.0
 10
5.833757817304709
 20
-2.001784443882519
 30
0.0
 10
5.853285269500146
 20
-2.009829685805622
 30
0.0
 10
5.867816675150404
 20
-2.021259269343583
 30
0.0
 10
5.873194406278899
 20
-2.03937659793774
 30
0.0
 10
5.891903474735499
 20
-2.091597547001785
 30
0.0
 10
5.795264418295472
 20
-2.098292271319905
 30
0.0
 10
5.791162231341634
 20
-2.04455941552246
 30
0.0
 10
5.796879539979676
 20
-2.04058997092952
 30
0.0
 10
5.811221079372747
 20
-2.033045975451525
 30
0.0
 10
5.804562713992354
 20
-2.043851314480257
 30
0.0
 10
5.841744841303251
 20
-2.127474933327271
 30
0.0
 10
5.887662436993801
 20
-2.030027597633673
 30
0.0
 10
5.833757817304709
 20
-2.001784443882519
 30
0.0
  0
SPLINE
  5
EB
330
7C
100
AcDbEntity
  8
Deck Box - DF
100
AcDbSpline
210
0.0
220
0.0
230
1.0
 70
     9
 71
     3
 72
    26
 73
    22
 74
     0
 42
0.0000000001
 43
0.0000000001
 40
0.0
 40
0.0
 40
0.0
 40
0.0
 40
1.0
 40
1.0
 40
1.0
 40
2.0
 40
2.0
 40
2.0
 40
3.0
 40
3.0
 40
3.0
 40
4.0
 40
4.0
 40
4.0
 40
5.0
 40
5.0
 40
5.0
 40
6.0
 40
6.0
 40
6.0
 40
7.0
 40
7.0
 40
7.0
 40
7.0
 10
5.762556336592094
 20
-2.095758707223075
 30
0.0
 10
5.890017570945625
 20
-2.197650981778502
 30
0.0
 10
6.00086111449208
 20
-2.035821373710973
 30
0.0
 10
5.863728622914195
 20
-1.949409590206881
 30
0.0
 10
5.53934728639092
 20
-1.893631185868823
 30
0.0
 10
5.729449708335575
 20
-1.776305871398347
 30
0.0
 10
5.754056923560558
 20
-1.860658981947065
 30
0.0
 10
5.76304375305699
 20
-1.870990476605419
 30
0.0
 10
5.737224343223361
 20
-1.878036771796397
 30
0.0
 10
5.745494072469884
 20
-1.866776182685031
 30
0.0
 10
5.746498791042439
 20
-1.817011347414929
 30
0.0
 10
5.670314890376681
 20
-1.83436535830458
 30
0.0
 10
5.689659250328127
 20
-1.876181350018378
 30
0.0
 10
5.872058817183338
 20
-2.035531768649522
 30
0.0
 10
5.830481572286619
 20
-1.681005702707693
 30
0.0
 10
5.637176696559182
 20
-1.810298370047386
 30
0.0
 10
5.566993831205359
 20
-1.986384132996565
 30
0.0
 10
5.727029414983866
 20
-1.969005654380276
 30
0.0
 10
5.818002972065944
 20
-1.996262488276859
 30
0.0
 10
5.74715120062769
 20
-1.983345705043638
 30
0.0
 10
5.712494568124333
 20
-2.036925770556636
 30
0.0
 10
5.762556336592094
 20
-2.095758707223075
 30
0.0
  0
HATCH
  5
EC
330
7C
100
AcDbEntity
  8
Deck Box - DF
 62
   250
420
  2301728
440
 33554687
100
AcDbHatch
 10
0.0
 20
0.0
 30
0.0
210
0.0
220
0.0
230
1.0
  2
SOLID
 70
     1
 71
     1
 91
        2
 92
        1
 93
        1
 72
     4
 94
        3
 73
     0
 74
     0
 95
       17
 96
       13
 40
0.0
 40
0.0
 40
0.0
 40
0.0
 40
1.0
 40
1.0
 40
1.0
 40
2.0
 40
2.0
 40
2.0
 40
3.0
 40
3.0
 40
3.0
 40
4.0
 40
4.0
 40
4.0
 40
4.0
 10
5.833757817304709
 20
-2.001784443882519
 10
5.853285269500146
 20
-2.009829685805622
 10
5.867816675150404
 20
-2.021259269343583
 10
5.873194406278899
 20
-2.03937659793774
 10
5.891903474735499
 20
-2.091597547001785
 10
5.795264418295472
 20
-2.098292271319905
 10
5.791162231341634
 20
-2.04455941552246
 10
5.796879539979676
 20
-2.04058997092952
 10
5.811221079372747
 20
-2.033045975451525
 10
5.804562713992354
 20
-2.043851314480257
 10
5.841744841303251
 20
-2.127474933327271
 10
5.887662436993801
 20
-2.030027597633673
 10
5.833757817304709
 20
-2.001784443882519
 97
        0
 97
        1
330
EA
 92
        1
 93
        1
 72
     4
 94
        3
 73
     0
 74
     0
 95
       26
 96
       22
 40
0.0
 40
0.0
 40
0.0
 40
0.0
 40
1.0
 40
1.0
 40
1.0
 40
2.0
 40
2.0
 40
2.0
 40
3.0
 40
3.0
 40
3.0
 40
4.0
 40
4.0
 40
4.0
 40
5.0
 40
5.0
 40
5.0
 40
6.0
 40
6.0
 40
6.0
 40
7.0
 40
7.0
 40
7.0
 40
7.0
 10
5.762556336592094
 20
-2.095758707223075
 10
5.890017570945625
 20
-2.197650981778502
 10
6.00086111449208
 20
-2.035821373710973
 10
5.863728622914195
 20
-1.949409590206881
 10
5.53934728639092
 20
-1.893631185868823
 10
5.729449708335575
 20
-1.776305871398347
 10
5.754056923560558
 20
-1.860658981947065
 10
5.76304375305699
 20
-1.870990476605419
 10
5.737224343223361
 20
-1.878036771796397
 10
5.745494072469884
 20
-1.866776182685031
 10
5.746498791042439
 20
-1.817011347414929
 10
5.670314890376681
 20
-1.83436535830458
 10
5.689659250328127
 20
-1.876181350018378
 10
5.872058817183338
 20
-2.035531768649522
 10
5.830481572286619
 20
-1.681005702707693
 10
5.637176696559182
 20
-1.810298370047386
 10
5.566993831205359
 20
-1.986384132996565
 10
5.727029414983866
 20
-1.969005654380276
 10
5.818002972065944
 20
-1.996262488276859
 10
5.74715120062769
 20
-1.983345705043638
 10
5.712494568124333
 20
-2.036925770556636
 10
5.762556336592094
 20
-2.095758707223075
 97
        0
 97
        1
330
EB
 75
     2
 76
     1
 98
        1
 10
0.0
 20
0.0
450
        0
451
        0
460
0.0
461
0.0
452
        0
462
0.0
453
        0
470

  0
SPLINE
  5
ED
330
7C
100
AcDbEntity
  8
Deck Box - DF
100
AcDbSpline
210
0.0
220
0.0
230
1.0
 70
     9
 71
     3
 72
    17
 73
    13
 74
     0
 42
0.0000000001
 43
0.0000000001
 40
0.0
 40
0.0
 40
0.0
 40
0.0
 40
1.0
 40
1.0
 40
1.0
 40
2.0
 40
2.0
 40
2.0
 40
3.0
 40
3.0
 40
3.0
 40
4.0
 40
4.0
 40
4.0
 40
4.0
 10
5.123628404405381
 20
-2.407801310221354
 30
0.0
 10
5.123207092285156
 20
-2.406756083170572
 30
0.0
 10
5.122930738661024
 20
-2.405785454644096
 30
0.0
 10
5.122459411621093
 20
-2.404714796278211
 30
0.0
 10
5.099291483561197
 20
-2.351123385959201
 30
0.0
 10
5.032334221733941
 20
-2.3481691148546
 30
0.0
 10
4.977809482150607
 20
-2.395658704969617
 30
0.0
 10
4.974945068359375
 20
-2.39976331922743
 30
0.0
 10
4.972445170084634
 20
-2.403802659776475
 30
0.0
 10
4.97015380859375
 20
-2.407801310221354
 30
0.0
 10
4.97015380859375
 20
-2.407801310221354
 30
0.0
 10
5.123628404405381
 20
-2.407801310221354
 30
0.0
 10
5.123628404405381
 20
-2.407801310221354
 30
0.0
  0
HATCH
  5
EE
330
7C
100
AcDbEntity
  8
Deck Box - DF
 62
   250
420
  2301728
440
 33554687
100
AcDbHatch
 10
0.0
 20
0.0
 30
0.0
210
0.0
220
0.0
230
1.0
  2
SOLID
 70
     1
 71
     1
 91
        1
 92
        1
 93
        1
 72
     4
 94
        3
 73
     0
 74
     0
 95
       17
 96
       13
 40
0.0
 40
0.0
 40
0.0
 40
0.0
 40
1.0
 40
1.0
 40
1.0
 40
2.0
 40
2.0
 40
2.0
 40
3.0
 40
3.0
 40
3.0
 40
4.0
 40
4.0
 40
4.0
 40
4.0
 10
5.123628404405381
 20
-2.407801310221354
 10
5.123207092285156
 20
-2.406756083170572
 10
5.122930738661024
 20
-2.405785454644096
 10
5.122459411621093
 20
-2.404714796278211
 10
5.099291483561197
 20
-2.351123385959201
 10
5.032334221733941
 20
-2.3481691148546
 10
4.977809482150607
 20
-2.395658704969617
 10
4.974945068359375
 20
-2.39976331922743
 10
4.972445170084634
 20
-2.403802659776475
 10
4.97015380859375
 20
-2.407801310221354
 10
4.97015380859375
 20
-2.407801310221354
 10
5.123628404405381
 20
-2.407801310221354
 10
5.123628404405381
 20
-2.407801310221354
 97
        0
 97
        1
330
ED
 75
     2
 76
     1
 98
        1
 10
0.0
 20
0.0
450
        0
451
        0
460
0.0
461
0.0
452
        0
462
0.0
453
        0
470

  0
SPLINE
  5
EF
330
7C
100
AcDbEntity
  8
Deck Box - DF
100
AcDbSpline
210
0.0
220
0.0
230
1.0
 70
     9
 71
     3
 72
    20
 73
    16
 74
     0
 42
0.0000000001
 43
0.0000000001
 40
0.0
 40
0.0
 40
0.0
 40
0.0
 40
1.0
 40
1.0
 40
1.0
 40
2.0
 40
2.0
 40
2.0
 40
3.0
 40
3.0
 40
3.0
 40
4.0
 40
4.0
 40
4.0
 40
5.0
 40
5.0
 40
5.0
 40
5.0
 10
5.576259189181857
 20
-2.311091952853732
 30
0.0
 10
5.588204277886284
 20
-2.373942057291666
 30
0.0
 10
5.661882188585068
 20
-2.30126953125
 30
0.0
 10
5.631120469835068
 20
-2.261970520019531
 30
0.0
 10
5.618694729275173
 20
-2.257787916395399
 30
0.0
 10
5.607344733344183
 20
-2.255059983995225
 30
0.0
 10
5.597012837727864
 20
-2.253588358561197
 30
0.0
 10
5.609020657009548
 20
-2.251196119520399
 30
0.0
 10
5.621448940700954
 20
-2.248567369249131
 30
0.0
 10
5.634431627061631
 20
-2.245624118381076
 30
0.0
 10
5.67586686876085
 20
-2.282964918348524
 30
0.0
 10
5.605122036404079
 20
-2.390407138400607
 30
0.0
 10
5.569062127007378
 20
-2.324445088704426
 30
0.0
 10
5.557145012749566
 20
-2.317571851942274
 30
0.0
 10
5.5818116929796
 20
-2.29148695203993
 30
0.0
 10
5.576259189181857
 20
-2.311091952853732
 30
0.0
  0
SPLINE
  5
F0
330
7C
100
AcDbEntity
  8
Deck Box - DF
100
AcDbSpline
210
0.0
220
0.0
230
1.0
 70
     9
 71
     3
 72
    59
 73
    55
 74
     0
 42
0.0000000001
 43
0.0000000001
 40
0.0
 40
0.0
 40
0.0
 40
0.0
 40
1.0
 40
1.0
 40
1.0
 40
2.0
 40
2.0
 40
2.0
 40
3.0
 40
3.0
 40
3.0
 40
4.0
 40
4.0
 40
4.0
 40
5.0
 40
5.0
 40
5.0
 40
6.0
 40
6.0
 40
6.0
 40
7.0
 40
7.0
 40
7.0
 40
8.0
 40
8.0
 40
8.0
 40
9.0
 40
9.0
 40
9.0
 40
10.0
 40
10.0
 40
10.0
 40
11.0
 40
11.0
 40
11.0
 40
12.0
 40
12.0
 40
12.0
 40
13.0
 40
13.0
 40
13.0
 40
14.0
 40
14.0
 40
14.0
 40
15.0
 40
15.0
 40
15.0
 40
16.0
 40
16.0
 40
16.0
 40
17.0
 40
17.0
 40
17.0
 40
18.0
 40
18.0
 40
18.0
 40
18.0
 10
5.133355034722222
 20
-2.407801310221354
 30
0.0
 10
5.133355034722222
 20
-2.407801310221354
 30
0.0
 10
5.215965270996093
 20
-2.407801310221354
 30
0.0
 10
5.215965270996093
 20
-2.407801310221354
 30
0.0
 10
5.211740281846787
 20
-2.362831115722656
 30
0.0
 10
5.195267571343316
 20
-2.318030463324652
 30
0.0
 10
5.237901475694443
 20
-2.282541063096787
 30
0.0
 10
5.290574815538193
 20
-2.24646504720052
 30
0.0
 10
5.373366461859808
 20
-2.317276848687065
 30
0.0
 10
5.29376220703125
 20
-2.346854315863715
 30
0.0
 10
5.282513936360676
 20
-2.357434590657551
 30
0.0
 10
5.265125698513454
 20
-2.333358764648437
 30
0.0
 10
5.282894558376735
 20
-2.339519924587673
 30
0.0
 10
5.35063001844618
 20
-2.331935458713107
 30
0.0
 10
5.303980509440103
 20
-2.260304768880208
 30
0.0
 10
5.253195020887586
 20
-2.286452399359808
 30
0.0
 10
5.103327433268228
 20
-2.478856404622395
 30
0.0
 10
5.500989278157551
 20
-2.402919345431857
 30
0.0
 10
5.364142523871527
 20
-2.256037394205729
 30
0.0
 10
5.395944383409287
 20
-2.271148681640625
 30
0.0
 10
5.450530158148871
 20
-2.276157803005642
 30
0.0
 10
5.536600748697916
 20
-2.263985527886284
 30
0.0
 10
5.490076700846353
 20
-2.295989142523871
 30
0.0
 10
5.508177015516492
 20
-2.383899264865451
 30
0.0
 10
5.557230631510416
 20
-2.407801310221354
 30
0.0
 10
5.557230631510416
 20
-2.407801310221354
 30
0.0
 10
5.611106872558593
 20
-2.407801310221354
 30
0.0
 10
5.611106872558593
 20
-2.407801310221354
 30
0.0
 10
5.638641357421875
 20
-2.39605712890625
 30
0.0
 10
5.669822692871093
 20
-2.366299947102864
 30
0.0
 10
5.702173868815103
 20
-2.309160868326822
 30
0.0
 10
5.733682420518662
 20
-2.222990247938367
 30
0.0
 10
5.678736368815103
 20
-2.123343573676215
 30
0.0
 10
5.587780422634548
 20
-2.144598219129774
 30
0.0
 10
5.296840243869357
 20
-2.328212314181857
 30
0.0
 10
5.397961086697048
 20
-2.014239841037326
 30
0.0
 10
5.483022901746961
 20
-2.119503445095486
 30
0.0
 10
5.478188408745659
 20
-2.128314548068576
 30
0.0
 10
5.465434604220919
 20
-2.1473388671875
 30
0.0
 10
5.469451056586371
 20
-2.129381815592447
 30
0.0
 10
5.39767116970486
 20
-2.034114413791232
 30
0.0
 10
5.380650838216145
 20
-2.271366543240017
 30
0.0
 10
5.497632344563801
 20
-2.180285983615451
 30
0.0
 10
5.620867411295572
 20
-1.869791666666666
 30
0.0
 10
5.27606201171875
 20
-2.122201707628037
 30
0.0
 10
5.333536783854166
 20
-2.228921678331162
 30
0.0
 10
5.331239488389756
 20
-2.227186414930555
 30
0.0
 10
5.328977796766492
 20
-2.225454542371961
 30
0.0
 10
5.326527913411458
 20
-2.223704020182291
 30
0.0
 10
5.250994364420572
 20
-2.190097384982638
 30
0.0
 10
5.130568610297308
 20
-2.23521253797743
 30
0.0
 10
5.119086371527777
 20
-2.319945441351996
 30
0.0
 10
5.129152086046006
 20
-2.355252583821614
 30
0.0
 10
5.133335537380641
 20
-2.384195115831162
 30
0.0
 10
5.133355034722222
 20
-2.407801310221354
 30
0.0
  0
HATCH
  5
F1
330
7C
100
AcDbEntity
  8
Deck Box - DF
 62
   250
420
  2301728
440
 33554687
100
AcDbHatch
 10
0.0
 20
0.0
 30
0.0
210
0.0
220
0.0
230
1.0
  2
SOLID
 70
     1
 71
     1
 91
        2
 92
        1
 93
        1
 72
     4
 94
        3
 73
     0
 74
     0
 95
       20
 96
       16
 40
0.0
 40
0.0
 40
0.0
 40
0.0
 40
1.0
 40
1.0
 40
1.0
 40
2.0
 40
2.0
 40
2.0
 40
3.0
 40
3.0
 40
3.0
 40
4.0
 40
4.0
 40
4.0
 40
5.0
 40
5.0
 40
5.0
 40
5.0
 10
5.576259189181857
 20
-2.311091952853732
 10
5.588204277886284
 20
-2.373942057291666
 10
5.661882188585068
 20
-2.30126953125
 10
5.631120469835068
 20
-2.261970520019531
 10
5.618694729275173
 20
-2.257787916395399
 10
5.607344733344183
 20
-2.255059983995225
 10
5.597012837727864
 20
-2.253588358561197
 10
5.609020657009548
 20
-2.251196119520399
 10
5.621448940700954
 20
-2.248567369249131
 10
5.634431627061631
 20
-2.245624118381076
 10
5.67586686876085
 20
-2.282964918348524
 10
5.605122036404079
 20
-2.390407138400607
 10
5.569062127007378
 20
-2.324445088704426
 10
5.557145012749566
 20
-2.317571851942274
 10
5.5818116929796
 20
-2.29148695203993
 10
5.576259189181857
 20
-2.311091952853732
 97
        0
 97
        1
330
EF
 92
        1
 93
        1
 72
     4
 94
        3
 73
     0
 74
     0
 95
       59
 96
       55
 40
0.0
 40
0.0
 40
0.0
 40
0.0
 40
1.0
 40
1.0
 40
1.0
 40
2.0
 40
2.0
 40
2.0
 40
3.0
 40
3.0
 40
3.0
 40
4.0
 40
4.0
 40
4.0
 40
5.0
 40
5.0
 40
5.0
 40
6.0
 40
6.0
 40
6.0
 40
7.0
 40
7.0
 40
7.0
 40
8.0
 40
8.0
 40
8.0
 40
9.0
 40
9.0
 40
9.0
 40
10.0
 40
10.0
 40
10.0
 40
11.0
 40
11.0
 40
11.0
 40
12.0
 40
12.0
 40
12.0
 40
13.0
 40
13.0
 40
13.0
 40
14.0
 40
14.0
 40
14.0
 40
15.0
 40
15.0
 40
15.0
 40
16.0
 40
16.0
 40
16.0
 40
17.0
 40
17.0
 40
17.0
 40
18.0
 40
18.0
 40
18.0
 40
18.0
 10
5.133355034722222
 20
-2.407801310221354
 10
5.133355034722222
 20
-2.407801310221354
 10
5.215965270996093
 20
-2.407801310221354
 10
5.215965270996093
 20
-2.407801310221354
 10
5.211740281846787
 20
-2.362831115722656
 10
5.195267571343316
 20
-2.318030463324652
 10
5.237901475694443
 20
-2.282541063096787
 10
5.290574815538193
 20
-2.24646504720052
 10
5.373366461859808
 20
-2.317276848687065
 10
5.29376220703125
 20
-2.346854315863715
 10
5.282513936360676
 20
-2.357434590657551
 10
5.265125698513454
 20
-2.333358764648437
 10
5.282894558376735
 20
-2.339519924587673
 10
5.35063001844618
 20
-2.331935458713107
 10
5.303980509440103
 20
-2.260304768880208
 10
5.253195020887586
 20
-2.286452399359808
 10
5.103327433268228
 20
-2.478856404622395
 10
5.500989278157551
 20
-2.402919345431857
 10
5.364142523871527
 20
-2.256037394205729
 10
5.395944383409287
 20
-2.271148681640625
 10
5.450530158148871
 20
-2.276157803005642
 10
5.536600748697916
 20
-2.263985527886284
 10
5.490076700846353
 20
-2.295989142523871
 10
5.508177015516492
 20
-2.383899264865451
 10
5.557230631510416
 20
-2.407801310221354
 10
5.557230631510416
 20
-2.407801310221354
 10
5.611106872558593
 20
-2.407801310221354
 10
5.611106872558593
 20
-2.407801310221354
 10
5.638641357421875
 20
-2.39605712890625
 10
5.669822692871093
 20
-2.366299947102864
 10
5.702173868815103
 20
-2.309160868326822
 10
5.733682420518662
 20
-2.222990247938367
 10
5.678736368815103
 20
-2.123343573676215
 10
5.587780422634548
 20
-2.144598219129774
 10
5.296840243869357
 20
-2.328212314181857
 10
5.397961086697048
 20
-2.014239841037326
 10
5.483022901746961
 20
-2.119503445095486
 10
5.478188408745659
 20
-2.128314548068576
 10
5.465434604220919
 20
-2.1473388671875
 10
5.469451056586371
 20
-2.129381815592447
 10
5.39767116970486
 20
-2.034114413791232
 10
5.380650838216145
 20
-2.271366543240017
 10
5.497632344563801
 20
-2.180285983615451
 10
5.620867411295572
 20
-1.869791666666666
 10
5.27606201171875
 20
-2.122201707628037
 10
5.333536783854166
 20
-2.228921678331162
 10
5.331239488389756
 20
-2.227186414930555
 10
5.328977796766492
 20
-2.225454542371961
 10
5.326527913411458
 20
-2.223704020182291
 10
5.250994364420572
 20
-2.190097384982638
 10
5.130568610297308
 20
-2.23521253797743
 10
5.119086371527777
 20
-2.319945441351996
 10
5.129152086046006
 20
-2.355252583821614
 10
5.133335537380641
 20
-2.384195115831162
 10
5.133355034722222
 20
-2.407801310221354
 97
        0
 97
        1
330
F0
 75
     2
 76
     1
 98
        1
 10
0.0
 20
0.0
450
        0
451
        0
460
0.0
461
0.0
452
        0
462
0.0
453
        0
470

  0
SPLINE
  5
F2
330
7C
100
AcDbEntity
  8
Deck Box - DF
100
AcDbSpline
210
0.0
220
0.0
230
1.0
 70
     9
 71
     3
 72
    41
 73
    37
 74
     0
 42
0.0000000001
 43
0.0000000001
 40
0.0
 40
0.0
 40
0.0
 40
0.0
 40
1.0
 40
1.0
 40
1.0
 40
2.0
 40
2.0
 40
2.0
 40
3.0
 40
3.0
 40
3.0
 40
4.0
 40
4.0
 40
4.0
 40
5.0
 40
5.0
 40
5.0
 40
6.0
 40
6.0
 40
6.0
 40
7.0
 40
7.0
 40
7.0
 40
8.0
 40
8.0
 40
8.0
 40
9.0
 40
9.0
 40
9.0
 40
10.0
 40
10.0
 40
10.0
 40
11.0
 40
11.0
 40
11.0
 40
12.0
 40
12.0
 40
12.0
 40
12.0
 10
5.160605702882876
 20
-2.11923155031401
 30
0.0
 10
5.262692081808861
 20
-1.930805624364969
 30
0.0
 10
4.897413995772719
 20
-2.066292238234824
 30
0.0
 10
5.109700767296518
 20
-2.179273801622305
 30
0.0
 10
5.175490611539745
 20
-2.198888451705013
 30
0.0
 10
5.266963063106206
 20
-2.148322473764399
 30
0.0
 10
5.264748165102724
 20
-2.0768072977211
 30
0.0
 10
5.268917618425019
 20
-2.025072232964084
 30
0.0
 10
5.195838462609041
 20
-1.971171953238606
 30
0.0
 10
5.266411465588058
 20
-1.928798890205535
 30
0.0
 10
5.315425088141712
 20
-1.899042502477085
 30
0.0
 10
5.359276098242717
 20
-1.972375683494495
 30
0.0
 10
5.303079513252188
 20
-1.991197153932653
 30
0.0
 10
5.296644397938885
 20
-1.987897754120404
 30
0.0
 10
5.283096368819593
 20
-1.978919932628438
 30
0.0
 10
5.297235699134463
 20
-1.980964412624934
 30
0.0
 10
5.387930242221576
 20
-1.917191528242634
 30
0.0
 10
5.195045239854127
 20
-1.91908140542705
 30
0.0
 10
5.250488305767172
 20
-2.006885461361472
 30
0.0
 10
5.276553202784245
 20
-2.04879213062702
 30
0.0
 10
5.331224315769532
 20
-2.043926795642935
 30
0.0
 10
5.368959541562642
 20
-1.998591459999892
 30
0.0
 10
5.430127877756578
 20
-1.869670553513805
 30
0.0
 10
5.214147813441564
 20
-1.830386702857834
 30
0.0
 10
5.17328649024873
 20
-1.962339427366044
 30
0.0
 10
5.155189270492554
 20
-2.018321157325683
 30
0.0
 10
5.217047883477865
 20
-2.070914035009928
 30
0.0
 10
5.173532936646274
 20
-2.120803948814113
 30
0.0
 10
5.13574666326796
 20
-2.156472730705407
 30
0.0
 10
5.059014485533603
 20
-2.106800243264021
 30
0.0
 10
5.119512963970287
 20
-2.073578218920374
 30
0.0
 10
5.127191087983874
 20
-2.063576089165141
 30
0.0
 10
5.144558043673618
 20
-2.081639798997596
 30
0.0
 10
5.129318354299382
 20
-2.078472509615077
 30
0.0
 10
5.075449539195207
 20
-2.092161838878395
 30
0.0
 10
5.122998663248254
 20
-2.146461035224332
 30
0.0
 10
5.160605702882876
 20
-2.11923155031401
 30
0.0
  0
HATCH
  5
F3
330
7C
100
AcDbEntity
  8
Deck Box - DF
 62
   250
420
  2301728
440
 33554687
100
AcDbHatch
 10
0.0
 20
0.0
 30
0.0
210
0.0
220
0.0
230
1.0
  2
SOLID
 70
     1
 71
     1
 91
        1
 92
        1
 93
        1
 72
     4
 94
        3
 73
     0
 74
     0
 95
       41
 96
       37
 40
0.0
 40
0.0
 40
0.0
 40
0.0
 40
1.0
 40
1.0
 40
1.0
 40
2.0
 40
2.0
 40
2.0
 40
3.0
 40
3.0
 40
3.0
 40
4.0
 40
4.0
 40
4.0
 40
5.0
 40
5.0
 40
5.0
 40
6.0
 40
6.0
 40
6.0
 40
7.0
 40
7.0
 40
7.0
 40
8.0
 40
8.0
 40
8.0
 40
9.0
 40
9.0
 40
9.0
 40
10.0
 40
10.0
 40
10.0
 40
11.0
 40
11.0
 40
11.0
 40
12.0
 40
12.0
 40
12.0
 40
12.0
 10
5.160605702882876
 20
-2.11923155031401
 10
5.262692081808861
 20
-1.930805624364969
 10
4.897413995772719
 20
-2.066292238234824
 10
5.109700767296518
 20
-2.179273801622305
 10
5.175490611539745
 20
-2.198888451705013
 10
5.266963063106206
 20
-2.148322473764399
 10
5.264748165102724
 20
-2.0768072977211
 10
5.268917618425019
 20
-2.025072232964084
 10
5.195838462609041
 20
-1.971171953238606
 10
5.266411465588058
 20
-1.928798890205535
 10
5.315425088141712
 20
-1.899042502477085
 10
5.359276098242717
 20
-1.972375683494495
 10
5.303079513252188
 20
-1.991197153932653
 10
5.296644397938885
 20
-1.987897754120404
 10
5.283096368819593
 20
-1.978919932628438
 10
5.297235699134463
 20
-1.980964412624934
 10
5.387930242221576
 20
-1.917191528242634
 10
5.195045239854127
 20
-1.91908140542705
 10
5.250488305767172
 20
-2.006885461361472
 10
5.276553202784245
 20
-2.04879213062702
 10
5.331224315769532
 20
-2.043926795642935
 10
5.368959541562642
 20
-1.998591459999892
 10
5.430127877756578
 20
-1.869670553513805
 10
5.214147813441564
 20
-1.830386702857834
 10
5.17328649024873
 20
-1.962339427366044
 10
5.155189270492554
 20
-2.018321157325683
 10
5.217047883477865
 20
-2.070914035009928
 10
5.173532936646274
 20
-2.120803948814113
 10
5.13574666326796
 20
-2.156472730705407
 10
5.059014485533603
 20
-2.106800243264021
 10
5.119512963970287
 20
-2.073578218920374
 10
5.127191087983874
 20
-2.063576089165141
 10
5.144558043673618
 20
-2.081639798997596
 10
5.129318354299382
 20
-2.078472509615077
 10
5.075449539195207
 20
-2.092161838878395
 10
5.122998663248254
 20
-2.146461035224332
 10
5.160605702882876
 20
-2.11923155031401
 97
        0
 97
        1
330
F2
 75
     2
 76
     1
 98
        1
 10
0.0
 20
0.0
450
        0
451
        0
460
0.0
461
0.0
452
        0
462
0.0
453
        0
470

  0
SPLINE
  5
F4
330
7C
100
AcDbEntity
  8
Deck Box - DF
100
AcDbSpline
210
0.0
220
0.0
230
1.0
 70
     9
 71
     3
 72
    14
 73
    10
 74
     0
 42
0.0000000001
 43
0.0000000001
 40
0.0
 40
0.0
 40
0.0
 40
0.0
 40
1.0
 40
1.0
 40
1.0
 40
2.0
 40
2.0
 40
2.0
 40
3.0
 40
3.0
 40
3.0
 40
3.0
 10
2.912529839409721
 20
-1.768463134765625
 30
0.0
 10
2.921514723036024
 20
-1.753632439507378
 30
0.0
 10
2.93001471625434
 20
-1.738655938042534
 30
0.0
 10
2.938309563530815
 20
-1.724149915907117
 30
0.0
 10
2.934933980305989
 20
-1.710919698079426
 30
0.0
 10
2.923006693522135
 20
-1.705963134765625
 30
0.0
 10
2.912529839409721
 20
-1.697833591037326
 30
0.0
 10
2.912529839409721
 20
-1.697833591037326
 30
0.0
 10
2.912529839409721
 20
-1.768463134765625
 30
0.0
 10
2.912529839409721
 20
-1.768463134765625
 30
0.0
  0
HATCH
  5
F5
330
7C
100
AcDbEntity
  8
Deck Box - DF
 62
   250
420
  2301728
440
 33554687
100
AcDbHatch
 10
0.0
 20
0.0
 30
0.0
210
0.0
220
0.0
230
1.0
  2
SOLID
 70
     1
 71
     1
 91
        1
 92
        1
 93
        1
 72
     4
 94
        3
 73
     0
 74
     0
 95
       14
 96
       10
 40
0.0
 40
0.0
 40
0.0
 40
0.0
 40
1.0
 40
1.0
 40
1.0
 40
2.0
 40
2.0
 40
2.0
 40
3.0
 40
3.0
 40
3.0
 40
3.0
 10
2.912529839409721
 20
-1.768463134765625
 10
2.921514723036024
 20
-1.753632439507378
 10
2.93001471625434
 20
-1.738655938042534
 10
2.938309563530815
 20
-1.724149915907117
 10
2.934933980305989
 20
-1.710919698079426
 10
2.923006693522135
 20
-1.705963134765625
 10
2.912529839409721
 20
-1.697833591037326
 10
2.912529839409721
 20
-1.697833591037326
 10
2.912529839409721
 20
-1.768463134765625
 10
2.912529839409721
 20
-1.768463134765625
 97
        0
 97
        1
330
F4
 75
     2
 76
     1
 98
        1
 10
0.0
 20
0.0
450
        0
451
        0
460
0.0
461
0.0
452
        0
462
0.0
453
        0
470

  0
SPLINE
  5
F6
330
7C
100
AcDbEntity
  8
Deck Box - DF
100
AcDbSpline
210
0.0
220
0.0
230
1.0
 70
     9
 71
     3
 72
    26
 73
    22
 74
     0
 42
0.0000000001
 43
0.0000000001
 40
0.0
 40
0.0
 40
0.0
 40
0.0
 40
1.0
 40
1.0
 40
1.0
 40
2.0
 40
2.0
 40
2.0
 40
3.0
 40
3.0
 40
3.0
 40
4.0
 40
4.0
 40
4.0
 40
5.0
 40
5.0
 40
5.0
 40
6.0
 40
6.0
 40
6.0
 40
7.0
 40
7.0
 40
7.0
 40
7.0
 10
6.540779961480033
 20
-1.578459845648871
 30
0.0
 10
6.492841084798176
 20
-1.62923600938585
 30
0.0
 10
6.42070092095269
 20
-1.526571485731336
 30
0.0
 10
6.504047817654079
 20
-1.532948811848958
 30
0.0
 10
6.443687438964843
 20
-1.544498867458767
 30
0.0
 10
6.48318142361111
 20
-1.60491943359375
 30
0.0
 10
6.528987460666232
 20
-1.57806905110677
 30
0.0
 10
6.533426072862412
 20
-1.572235107421875
 30
0.0
 10
6.537326388888888
 20
-1.566704644097222
 30
0.0
 10
6.540779961480033
 20
-1.561433580186631
 30
0.0
 10
6.540779961480033
 20
-1.561433580186631
 30
0.0
 10
6.540779961480033
 20
-1.48022969563802
 30
0.0
 10
6.540779961480033
 20
-1.48022969563802
 30
0.0
 10
6.480928209092881
 20
-1.458997938368055
 30
0.0
 10
6.320452372233072
 20
-1.546954684787326
 30
0.0
 10
6.462171766493055
 20
-1.639072842068142
 30
0.0
 10
6.48523457845052
 20
-1.647630479600694
 30
0.0
 10
6.513361612955728
 20
-1.647206624348958
 30
0.0
 10
6.540779961480033
 20
-1.639870537651909
 30
0.0
 10
6.540779961480033
 20
-1.639870537651909
 30
0.0
 10
6.540779961480033
 20
-1.578459845648871
 30
0.0
 10
6.540779961480033
 20
-1.578459845648871
 30
0.0
  0
HATCH
  5
F7
330
7C
100
AcDbEntity
  8
Deck Box - DF
 62
   250
420
  2301728
440
 33554687
100
AcDbHatch
 10
0.0
 20
0.0
 30
0.0
210
0.0
220
0.0
230
1.0
  2
SOLID
 70
     1
 71
     1
 91
        1
 92
        1
 93
        1
 72
     4
 94
        3
 73
     0
 74
     0
 95
       26
 96
       22
 40
0.0
 40
0.0
 40
0.0
 40
0.0
 40
1.0
 40
1.0
 40
1.0
 40
2.0
 40
2.0
 40
2.0
 40
3.0
 40
3.0
 40
3.0
 40
4.0
 40
4.0
 40
4.0
 40
5.0
 40
5.0
 40
5.0
 40
6.0
 40
6.0
 40
6.0
 40
7.0
 40
7.0
 40
7.0
 40
7.0
 10
6.540779961480033
 20
-1.578459845648871
 10
6.492841084798176
 20
-1.62923600938585
 10
6.42070092095269
 20
-1.526571485731336
 10
6.504047817654079
 20
-1.532948811848958
 10
6.443687438964843
 20
-1.544498867458767
 10
6.48318142361111
 20
-1.60491943359375
 10
6.528987460666232
 20
-1.57806905110677
 10
6.533426072862412
 20
-1.572235107421875
 10
6.537326388888888
 20
-1.566704644097222
 10
6.540779961480033
 20
-1.561433580186631
 10
6.540779961480033
 20
-1.561433580186631
 10
6.540779961480033
 20
-1.48022969563802
 10
6.540779961480033
 20
-1.48022969563802
 10
6.480928209092881
 20
-1.458997938368055
 10
6.320452372233072
 20
-1.546954684787326
 10
6.462171766493055
 20
-1.639072842068142
 10
6.48523457845052
 20
-1.647630479600694
 10
6.513361612955728
 20
-1.647206624348958
 10
6.540779961480033
 20
-1.639870537651909
 10
6.540779961480033
 20
-1.639870537651909
 10
6.540779961480033
 20
-1.578459845648871
 10
6.540779961480033
 20
-1.578459845648871
 97
        0
 97
        1
330
F6
 75
     2
 76
     1
 98
        1
 10
0.0
 20
0.0
450
        0
451
        0
460
0.0
461
0.0
452
        0
462
0.0
453
        0
470

  0
SPLINE
  5
F8
330
7C
100
AcDbEntity
  8
Deck Box - DF
100
AcDbSpline
210
0.0
220
0.0
230
1.0
 70
     9
 71
     3
 72
    14
 73
    10
 74
     0
 42
0.0000000001
 43
0.0000000001
 40
0.0
 40
0.0
 40
0.0
 40
0.0
 40
1.0
 40
1.0
 40
1.0
 40
2.0
 40
2.0
 40
2.0
 40
3.0
 40
3.0
 40
3.0
 40
3.0
 10
6.403797924964211
 20
-2.238381300615754
 30
0.0
 10
6.436607207377037
 20
-2.334676448669445
 30
0.0
 10
6.47371289621881
 20
-2.224100943016158
 30
0.0
 10
6.434012097904415
 20
-2.188185346816996
 30
0.0
 10
6.515482409000291
 20
-2.228701418072104
 30
0.0
 10
6.416808999480381
 20
-2.347594963214747
 30
0.0
 10
6.392000276984238
 20
-2.240308896956776
 30
0.0
 10
6.396978890255947
 20
-2.23496385728817
 30
0.0
 10
6.409478798991661
 20
-2.224532044516131
 30
0.0
 10
6.403797924964211
 20
-2.238381300615754
 30
0.0
  0
SPLINE
  5
F9
330
7C
100
AcDbEntity
  8
Deck Box - DF
100
AcDbSpline
210
0.0
220
0.0
230
1.0
 70
     9
 71
     3
 72
    26
 73
    22
 74
     0
 42
0.0000000001
 43
0.0000000001
 40
0.0
 40
0.0
 40
0.0
 40
0.0
 40
1.0
 40
1.0
 40
1.0
 40
2.0
 40
2.0
 40
2.0
 40
3.0
 40
3.0
 40
3.0
 40
4.0
 40
4.0
 40
4.0
 40
5.0
 40
5.0
 40
5.0
 40
6.0
 40
6.0
 40
6.0
 40
7.0
 40
7.0
 40
7.0
 40
7.0
 10
6.252507727932904
 20
-1.963531736346807
 30
0.0
 10
6.164085597729227
 20
-2.194413598942989
 30
0.0
 10
6.413359670472825
 20
-2.154152039382476
 30
0.0
 10
6.389755157470188
 20
-2.179376067534235
 30
0.0
 10
6.202677197651483
 20
-2.384455952438643
 30
0.0
 10
6.682253198278304
 20
-2.392472678368158
 30
0.0
 10
6.454293367651416
 20
-2.117229755602541
 30
0.0
 10
6.402661967718231
 20
-2.075836841093897
 30
0.0
 10
6.333925544496625
 20
-2.118774637616929
 30
0.0
 10
6.294924787941276
 20
-2.053432263747986
 30
0.0
 10
6.268753143635952
 20
-1.999787254460834
 30
0.0
 10
6.338367252847723
 20
-1.940230805386388
 30
0.0
 10
6.356255740257463
 20
-2.016460275226083
 30
0.0
 10
6.36434271545545
 20
-2.028475142984234
 30
0.0
 10
6.341728987468513
 20
-2.039195570572448
 30
0.0
 10
6.348820804231131
 20
-2.024658443350706
 30
0.0
 10
6.348870375416354
 20
-1.963209133370532
 30
0.0
 10
6.282087379168766
 20
-1.990604298779721
 30
0.0
 10
6.299820293760679
 20
-2.040650294878345
 30
0.0
 10
6.463083571983209
 20
-2.222811481076405
 30
0.0
 10
6.420528635763351
 20
-1.788878504231648
 30
0.0
 10
6.252507727932904
 20
-1.963531736346807
 30
0.0
  0
HATCH
  5
FA
330
7C
100
AcDbEntity
  8
Deck Box - DF
 62
   250
420
  2301728
440
 33554687
100
AcDbHatch
 10
0.0
 20
0.0
 30
0.0
210
0.0
220
0.0
230
1.0
  2
SOLID
 70
     1
 71
     1
 91
        2
 92
        1
 93
        1
 72
     4
 94
        3
 73
     0
 74
     0
 95
       14
 96
       10
 40
0.0
 40
0.0
 40
0.0
 40
0.0
 40
1.0
 40
1.0
 40
1.0
 40
2.0
 40
2.0
 40
2.0
 40
3.0
 40
3.0
 40
3.0
 40
3.0
 10
6.403797924964211
 20
-2.238381300615754
 10
6.436607207377037
 20
-2.334676448669445
 10
6.47371289621881
 20
-2.224100943016158
 10
6.434012097904415
 20
-2.188185346816996
 10
6.515482409000291
 20
-2.228701418072104
 10
6.416808999480381
 20
-2.347594963214747
 10
6.392000276984238
 20
-2.240308896956776
 10
6.396978890255947
 20
-2.23496385728817
 10
6.409478798991661
 20
-2.224532044516131
 10
6.403797924964211
 20
-2.238381300615754
 97
        0
 97
        1
330
F8
 92
        1
 93
        1
 72
     4
 94
        3
 73
     0
 74
     0
 95
       26
 96
       22
 40
0.0
 40
0.0
 40
0.0
 40
0.0
 40
1.0
 40
1.0
 40
1.0
 40
2.0
 40
2.0
 40
2.0
 40
3.0
 40
3.0
 40
3.0
 40
4.0
 40
4.0
 40
4.0
 40
5.0
 40
5.0
 40
5.0
 40
6.0
 40
6.0
 40
6.0
 40
7.0
 40
7.0
 40
7.0
 40
7.0
 10
6.252507727932904
 20
-1.963531736346807
 10
6.164085597729227
 20
-2.194413598942989
 10
6.413359670472825
 20
-2.154152039382476
 10
6.389755157470188
 20
-2.179376067534235
 10
6.202677197651483
 20
-2.384455952438643
 10
6.682253198278304
 20
-2.392472678368158
 10
6.454293367651416
 20
-2.117229755602541
 10
6.402661967718231
 20
-2.075836841093897
 10
6.333925544496625
 20
-2.118774637616929
 10
6.294924787941276
 20
-2.053432263747986
 10
6.268753143635952
 20
-1.999787254460834
 10
6.338367252847723
 20
-1.940230805386388
 10
6.356255740257463
 20
-2.016460275226083
 10
6.36434271545545
 20
-2.028475142984234
 10
6.341728987468513
 20
-2.039195570572448
 10
6.348820804231131
 20
-2.024658443350706
 10
6.348870375416354
 20
-1.963209133370532
 10
6.282087379168766
 20
-1.990604298779721
 10
6.299820293760679
 20
-2.040650294878345
 10
6.463083571983209
 20
-2.222811481076405
 10
6.420528635763351
 20
-1.788878504231648
 10
6.252507727932904
 20
-1.963531736346807
 97
        0
 97
        1
330
F9
 75
     2
 76
     1
 98
        1
 10
0.0
 20
0.0
450
        0
451
        0
460
0.0
461
0.0
452
        0
462
0.0
453
        0
470

  0
SPLINE
  5
FB
330
7C
100
AcDbEntity
  8
Deck Box - DF
100
AcDbSpline
210
0.0
220
0.0
230
1.0
 70
     9
 71
     3
 72
    14
 73
    10
 74
     0
 42
0.0000000001
 43
0.0000000001
 40
0.0
 40
0.0
 40
0.0
 40
0.0
 40
1.0
 40
1.0
 40
1.0
 40
2.0
 40
2.0
 40
2.0
 40
3.0
 40
3.0
 40
3.0
 40
3.0
 10
6.452356974283853
 20
-1.858245001898871
 30
0.0
 10
6.461129082573783
 20
-1.863984002007378
 30
0.0
 10
6.479770236545138
 20
-1.878460354275173
 30
0.0
 10
6.460930718315971
 20
-1.872054206000433
 30
0.0
 10
6.361818101671006
 20
-1.91558837890625
 30
0.0
 10
6.539630466037325
 20
-1.960433112250433
 30
0.0
 10
6.536456637912325
 20
-1.893625895182291
 30
0.0
 10
6.545260111490884
 20
-2.014227125379774
 30
0.0
 10
6.33846452501085
 20
-1.887502034505208
 30
0.0
 10
6.452356974283853
 20
-1.858245001898871
 30
0.0
  0
SPLINE
  5
FC
330
7C
100
AcDbEntity
  8
Deck Box - DF
100
AcDbSpline
210
0.0
220
0.0
230
1.0
 70
     9
 71
     3
 72
    17
 73
    13
 74
     0
 42
0.0000000001
 43
0.0000000001
 40
0.0
 40
0.0
 40
0.0
 40
0.0
 40
1.0
 40
1.0
 40
1.0
 40
2.0
 40
2.0
 40
2.0
 40
3.0
 40
3.0
 40
3.0
 40
4.0
 40
4.0
 40
4.0
 40
4.0
 10
6.540779961480033
 20
-1.682018703884548
 30
0.0
 10
6.456921047634548
 20
-1.709335327148437
 30
0.0
 10
6.528561909993489
 20
-1.821530659993489
 30
0.0
 10
6.536167568630641
 20
-1.890351189507378
 30
0.0
 10
6.523258633083766
 20
-1.817691379123263
 30
0.0
 10
6.420049879286024
 20
-1.772719489203558
 30
0.0
 10
6.364757961697048
 20
-1.83093516031901
 30
0.0
 10
6.315247429741752
 20
-1.927184210883246
 30
0.0
 10
6.445354885525173
 20
-2.009062872992621
 30
0.0
 10
6.540779961480033
 20
-1.997152540418836
 30
0.0
 10
6.540779961480033
 20
-1.997152540418836
 30
0.0
 10
6.540779961480033
 20
-1.682018703884548
 30
0.0
 10
6.540779961480033
 20
-1.682018703884548
 30
0.0
  0
HATCH
  5
FD
330
7C
100
AcDbEntity
  8
Deck Box - DF
 62
   250
420
  2301728
440
 33554687
100
AcDbHatch
 10
0.0
 20
0.0
 30
0.0
210
0.0
220
0.0
230
1.0
  2
SOLID
 70
     1
 71
     1
 91
        2
 92
        1
 93
        1
 72
     4
 94
        3
 73
     0
 74
     0
 95
       14
 96
       10
 40
0.0
 40
0.0
 40
0.0
 40
0.0
 40
1.0
 40
1.0
 40
1.0
 40
2.0
 40
2.0
 40
2.0
 40
3.0
 40
3.0
 40
3.0
 40
3.0
 10
6.452356974283853
 20
-1.858245001898871
 10
6.461129082573783
 20
-1.863984002007378
 10
6.479770236545138
 20
-1.878460354275173
 10
6.460930718315971
 20
-1.872054206000433
 10
6.361818101671006
 20
-1.91558837890625
 10
6.539630466037325
 20
-1.960433112250433
 10
6.536456637912325
 20
-1.893625895182291
 10
6.545260111490884
 20
-2.014227125379774
 10
6.33846452501085
 20
-1.887502034505208
 10
6.452356974283853
 20
-1.858245001898871
 97
        0
 97
        1
330
FB
 92
        1
 93
        1
 72
     4
 94
        3
 73
     0
 74
     0
 95
       17
 96
       13
 40
0.0
 40
0.0
 40
0.0
 40
0.0
 40
1.0
 40
1.0
 40
1.0
 40
2.0
 40
2.0
 40
2.0
 40
3.0
 40
3.0
 40
3.0
 40
4.0
 40
4.0
 40
4.0
 40
4.0
 10
6.540779961480033
 20
-1.682018703884548
 10
6.456921047634548
 20
-1.709335327148437
 10
6.528561909993489
 20
-1.821530659993489
 10
6.536167568630641
 20
-1.890351189507378
 10
6.523258633083766
 20
-1.817691379123263
 10
6.420049879286024
 20
-1.772719489203558
 10
6.364757961697048
 20
-1.83093516031901
 10
6.315247429741752
 20
-1.927184210883246
 10
6.445354885525173
 20
-2.009062872992621
 10
6.540779961480033
 20
-1.997152540418836
 10
6.540779961480033
 20
-1.997152540418836
 10
6.540779961480033
 20
-1.682018703884548
 10
6.540779961480033
 20
-1.682018703884548
 97
        0
 97
        1
330
FC
 75
     2
 76
     1
 98
        1
 10
0.0
 20
0.0
450
        0
451
        0
460
0.0
461
0.0
452
        0
462
0.0
453
        0
470

  0
SPLINE
  5
FE
330
7C
100
AcDbEntity
  8
Deck Box - DF
100
AcDbSpline
210
0.0
220
0.0
230
1.0
 70
     9
 71
     3
 72
    14
 73
    10
 74
     0
 42
0.0000000001
 43
0.0000000001
 40
0.0
 40
0.0
 40
0.0
 40
0.0
 40
1.0
 40
1.0
 40
1.0
 40
2.0
 40
2.0
 40
2.0
 40
3.0
 40
3.0
 40
3.0
 40
3.0
 10
6.540779961480033
 20
-2.011706882052951
 30
0.0
 10
6.526825798882377
 20
-2.018605550130208
 30
0.0
 10
6.515396118164062
 20
-2.030311584472656
 30
0.0
 10
6.507935418023002
 20
-2.047355651855468
 30
0.0
 10
6.470759073893228
 20
-2.105830722384982
 30
0.0
 10
6.50596957736545
 20
-2.157463073730468
 30
0.0
 10
6.540779961480033
 20
-2.211597018771701
 30
0.0
 10
6.540779961480033
 20
-2.211597018771701
 30
0.0
 10
6.540779961480033
 20
-2.011706882052951
 30
0.0
 10
6.540779961480033
 20
-2.011706882052951
 30
0.0
  0
HATCH
  5
FF
330
7C
100
AcDbEntity
  8
Deck Box - DF
 62
   250
420
  2301728
440
 33554687
100
AcDbHatch
 10
0.0
 20
0.0
 30
0.0
210
0.0
220
0.0
230
1.0
  2
SOLID
 70
     1
 71
     1
 91
        1
 92
        1
 93
        1
 72
     4
 94
        3
 73
     0
 74
     0
 95
       14
 96
       10
 40
0.0
 40
0.0
 40
0.0
 40
0.0
 40
1.0
 40
1.0
 40
1.0
 40
2.0
 40
2.0
 40
2.0
 40
3.0
 40
3.0
 40
3.0
 40
3.0
 10
6.540779961480033
 20
-2.011706882052951
 10
6.526825798882377
 20
-2.018605550130208
 10
6.515396118164062
 20
-2.030311584472656
 10
6.507935418023002
 20
-2.047355651855468
 10
6.470759073893228
 20
-2.105830722384982
 10
6.50596957736545
 20
-2.157463073730468
 10
6.540779961480033
 20
-2.211597018771701
 10
6.540779961480033
 20
-2.211597018771701
 10
6.540779961480033
 20
-2.011706882052951
 10
6.540779961480033
 20
-2.011706882052951
 97
        0
 97
        1
330
FE
 75
     2
 76
     1
 98
        1
 10
0.0
 20
0.0
450
        0
451
        0
460
0.0
461
0.0
452
        0
462
0.0
453
        0
470

  0
ENDBLK
  5
7F
330
7C
100
AcDbEntity
  8
0
100
AcDbBlockEnd
  0
ENDSEC
  0
SECTION
  2
ENTITIES
  0
LWPOLYLINE
  5
7A
330
70
100
AcDbEntity
  8
Deck Box - DF
100
AcDbPolyline
 90
        3
 70
     0
 43
0.0
 10
2.762706855792
 20
-1.389775413711567
 10
2.762706855792
 20
-1.321217494089826
 10
2.834810874704531
 20
-1.321217494089826
  0
HATCH
  5
7B
330
70
100
AcDbEntity
  8
Deck Box - DF
 62
   240
420
 15539236
440
 33554687
100
AcDbHatch
 10
0.0
 20
0.0
 30
0.0
210
0.0
220
0.0
230
1.0
  2
SOLID
 70
     1
 71
     1
 91
        1
 92
        3
 72
     0
 73
     1
 93
        3
 10
2.762706855792
 20
-1.389775413711567
 10
2.762706855792
 20
-1.321217494089826
 10
2.834810874704531
 20
-1.321217494089826
 97
        0
 75
     2
 76
     1
 98
        1
 10
0.0
 20
0.0
450
        0
451
        0
460
0.0
461
0.0
452
        0
462
0.0
453
        0
470

  0
INSERT
  5
7D
330
70
100
AcDbEntity
  8
Deck Box - DF
100
AcDbBlockReference
  2
Block_0
 10
0.0
 20
0.0
 30
0.0
  0
ENDSEC
  0
SECTION
  2
OBJECTS
  0
DICTIONARY
  5
C
330
0
100
AcDbDictionary
281
     1
  3
ACAD_COLOR
350
63
  3
ACAD_DETAILVIEWSTYLE
350
6A
  3
ACAD_GROUP
350
D
  3
ACAD_LAYOUT
350
62
  3
ACAD_MATERIAL
350
10
  3
ACAD_MLEADERSTYLE
350
66
  3
ACAD_MLINESTYLE
350
5F
  3
ACAD_PLOTSETTINGS
350
61
  3
ACAD_PLOTSTYLENAME
350
E
  3
ACAD_SCALELIST
350
42
  3
ACAD_SECTIONVIEWSTYLE
350
68
  3
ACAD_TABLESTYLE
350
64
  3
ACAD_VISUALSTYLE
350
29
  3
ACDB_RECOMPOSE_DATA
350
10C
  3
AcDbVariableDictionary
350
104
  0
DICTIONARY
  5
63
102
{ACAD_REACTORS
330
C
102
}
330
C
100
AcDbDictionary
281
     1
  0
DICTIONARY
  5
6A
102
{ACAD_REACTORS
330
C
102
}
330
C
100
AcDbDictionary
281
     1
  3
Imperial24
350
6B
  0
DICTIONARY
  5
D
102
{ACAD_REACTORS
330
C
102
}
330
C
100
AcDbDictionary
281
     1
  0
DICTIONARY
  5
62
102
{ACAD_REACTORS
330
C
102
}
330
C
100
AcDbDictionary
281
     1
  3
Layout1
350
6F
  3
Layout2
350
77
  3
Model
350
73
  0
DICTIONARY
  5
10
102
{ACAD_REACTORS
330
C
102
}
330
C
100
AcDbDictionary
281
     1
  3
ByBlock
350
19
  3
ByLayer
350
11
  3
Global
350
21
  0
DICTIONARY
  5
66
102
{ACAD_REACTORS
330
C
102
}
330
C
100
AcDbDictionary
281
     1
  3
Standard
350
67
  0
DICTIONARY
  5
5F
102
{ACAD_REACTORS
330
C
102
}
330
C
100
AcDbDictionary
281
     1
  3
Standard
350
60
  0
DICTIONARY
  5
61
102
{ACAD_REACTORS
330
C
102
}
330
C
100
AcDbDictionary
281
     1
  0
ACDBDICTIONARYWDFLT
  5
E
102
{ACAD_REACTORS
330
C
102
}
330
C
100
AcDbDictionary
281
     1
  3
Normal
350
F
100
AcDbDictionaryWithDefault
340
F
  0
DICTIONARY
  5
42
102
{ACAD_REACTORS
330
C
102
}
330
C
100
AcDbDictionary
281
     1
  3
A0
350
43
  3
A1
350
44
  3
A2
350
45
  3
A3
350
46
  3
A4
350
47
  3
A5
350
48
  3
A6
350
49
  3
A7
350
4A
  3
A8
350
4B
  3
A9
350
4C
  3
B0
350
4D
  3
B1
350
4E
  3
B2
350
4F
  3
B3
350
50
  3
B4
350
51
  3
B5
350
52
  3
B6
350
53
  0
DICTIONARY
  5
68
102
{ACAD_REACTORS
330
C
102
}
330
C
100
AcDbDictionary
281
     1
  3
Imperial24
350
69
  0
DICTIONARY
  5
64
102
{ACAD_REACTORS
330
C
102
}
330
C
100
AcDbDictionary
281
     1
  3
Standard
350
65
  0
DICTIONARY
  5
29
102
{ACAD_REACTORS
330
C
102
}
330
C
100
AcDbDictionary
281
     1
  3
2dWireframe
350
2F
  3
Basic
350
2E
  3
Brighten
350
35
  3
ColorChange
350
39
  3
Conceptual
350
32
  3
Dim
350
34
  3
EdgeColorOff
350
41
  3
Facepattern
350
38
  3
Flat
350
2A
  3
FlatWithEdges
350
2B
  3
Gouraud
350
2C
  3
GouraudWithEdges
350
2D
  3
Hidden
350
31
  3
JitterOff
350
3F
  3
Linepattern
350
37
  3
OverhangOff
350
40
  3
Realistic
350
33
  3
Shaded
350
3E
  3
Shaded with edges
350
3D
  3
Shades of Gray
350
3A
  3
Sketchy
350
3B
  3
Thicken
350
36
  3
Wireframe
350
30
  3
X-Ray
350
3C
  0
XRECORD
  5
10C
102
{ACAD_REACTORS
330
C
102
}
330
C
100
AcDbXrecord
280
     1
 90
        1
330
65
  0
DICTIONARY
  5
104
102
{ACAD_REACTORS
330
C
102
}
330
C
100
AcDbDictionary
281
     1
  3
CANNOSCALE
350
109
  3
CMLEADERSTYLE
350
106
  3
CTABLESTYLE
350
105
  3
CVIEWDETAILSTYLE
350
107
  3
CVIEWSECTIONSTYLE
350
108
  0
ACDBDETAILVIEWSTYLE
  5
6B
102
{ACAD_REACTORS
330
6A
102
}
330
6A
100
AcDbModelDocViewStyle
 70
     0
  3
Imperial24
290
     1
300
Imperial24
 90
        0
100
AcDbDetailViewStyle
 70
     0
 71
     0
 90
        3
 71
     1
340
55
 62
   256
 40
0.24
340
0
 62
   256
 40
0.24
300

 40
0.36
280
     3
 71
     2
340
5D
 90
       25
 62
   256
 71
     3
340
55
 62
   256
 40
0.24
 90
        1
 40
0.75
 90
        1
300
%<\AcVar ViewType \f "%tc1">% %<\AcVar ViewDetailId>%\PSCALE %<\AcVar ViewScale \f "%sn">%
 71
     4
340
5D
 90
       25
 62
   256
340
5D
 90
       25
 62
   256
280
     0
  0
LAYOUT
  5
6F
102
{ACAD_REACTORS
330
62
102
}
330
62
100
AcDbPlotSettings
  1

  2

  4

  6

 40
0.0
 41
0.0
 42
0.0
 43
0.0
 44
0.0
 45
0.0
 46
0.0
 47
0.0
 48
0.0
 49
0.0
140
0.0
141
0.0
142
1.0
143
1.0
 70
   688
 72
     0
 73
     0
 74
     5
  7

 75
    16
147
1.0
 76
     0
 77
     2
 78
   300
148
0.0
149
0.0
100
AcDbLayout
  1
Layout1
 70
     1
 71
     1
 10
0.0
 20
0.0
 11
12.0
 21
9.0
 12
0.0
 22
0.0
 32
0.0
 14
0.0
 24
0.0
 34
0.0
 15
0.0
 25
0.0
 35
0.0
146
0.0
 13
0.0
 23
0.0
 33
0.0
 16
1.0
 26
0.0
 36
0.0
 17
0.0
 27
1.0
 37
0.0
 76
     0
330
6C
  0
LAYOUT
  5
77
102
{ACAD_REACTORS
330
62
102
}
330
62
100
AcDbPlotSettings
  1

  2

  4

  6

 40
0.0
 41
0.0
 42
0.0
 43
0.0
 44
0.0
 45
0.0
 46
0.0
 47
0.0
 48
0.0
 49
0.0
140
0.0
141
0.0
142
1.0
143
1.0
 70
   688
 72
     0
 73
     0
 74
     5
  7

 75
    16
147
1.0
 76
     0
 77
     2
 78
   300
148
0.0
149
0.0
100
AcDbLayout
  1
Layout2
 70
     1
 71
     2
 10
0.0
 20
0.0
 11
12.0
 21
9.0
 12
0.0
 22
0.0
 32
0.0
 14
0.0
 24
0.0
 34
0.0
 15
0.0
 25
0.0
 35
0.0
146
0.0
 13
0.0
 23
0.0
 33
0.0
 16
1.0
 26
0.0
 36
0.0
 17
0.0
 27
1.0
 37
0.0
 76
     0
330
74
  0
LAYOUT
  5
73
102
{ACAD_REACTORS
330
62
102
}
330
62
100
AcDbPlotSettings
  1

  2

  4

  6

 40
0.0
 41
0.0
 42
0.0
 43
0.0
 44
0.0
 45
0.0
 46
0.0
 47
0.0
 48
0.0
 49
0.0
140
0.0
141
0.0
142
1.0
143
1.0
 70
  1712
 72
     0
 73
     0
 74
     0
  7

 75
     0
147
1.0
 76
     0
 77
     2
 78
   300
148
0.0
149
0.0
100
AcDbLayout
  1
Model
 70
     1
 71
     0
 10
0.0
 20
0.0
 11
12.0
 21
9.0
 12
0.0
 22
0.0
 32
0.0
 14
0.0
 24
0.0
 34
0.0
 15
0.0
 25
0.0
 35
0.0
146
0.0
 13
0.0
 23
0.0
 33
0.0
 16
1.0
 26
0.0
 36
0.0
 17
0.0
 27
1.0
 37
0.0
 76
     0
330
70
  0
MATERIAL
  5
19
102
{ACAD_XDICTIONARY
360
1A
102
}
102
{ACAD_REACTORS
330
10
102
}
330
10
100
AcDbMaterial
  1
ByBlock
 72
     0
 43
0.0208333333333333
 43
0.0
 43
0.0
 43
0.0
 43
0.0
 43
0.0208333333333333
 43
0.0
 43
0.0
 43
0.0
 43
0.0
 43
1.0
 43
0.0
 43
0.0
 43
0.0
 43
0.0
 43
1.0
 77
     0
 47
0.0208333333333333
 47
0.0
 47
0.0
 47
0.0
 47
0.0
 47
0.0208333333333333
 47
0.0
 47
0.0
 47
0.0
 47
0.0
 47
1.0
 47
0.0
 47
0.0
 47
0.0
 47
0.0
 47
1.0
171
     0
 49
0.0208333333333333
 49
0.0
 49
0.0
 49
0.0
 49
0.0
 49
0.0208333333333333
 49
0.0
 49
0.0
 49
0.0
 49
0.0
 49
1.0
 49
0.0
 49
0.0
 49
0.0
 49
0.0
 49
1.0
175
     0
142
0.0208333333333333
142
0.0
142
0.0
142
0.0
142
0.0
142
0.0208333333333333
142
0.0
142
0.0
142
0.0
142
0.0
142
1.0
142
0.0
142
0.0
142
0.0
142
0.0
142
1.0
179
     0
144
0.0208333333333333
144
0.0
144
0.0
144
0.0
144
0.0
144
0.0208333333333333
144
0.0
144
0.0
144
0.0
144
0.0
144
1.0
144
0.0
144
0.0
144
0.0
144
0.0
144
1.0
147
0.0208333333333333
147
0.0
147
0.0
147
0.0
147
0.0
147
0.0208333333333333
147
0.0
147
0.0
147
0.0
147
0.0
147
1.0
147
0.0
147
0.0
147
0.0
147
0.0
147
1.0
  0
MATERIAL
  5
11
102
{ACAD_XDICTIONARY
360
12
102
}
102
{ACAD_REACTORS
330
10
102
}
330
10
100
AcDbMaterial
  1
ByLayer
 72
     0
 43
0.0208333333333333
 43
0.0
 43
0.0
 43
0.0
 43
0.0
 43
0.0208333333333333
 43
0.0
 43
0.0
 43
0.0
 43
0.0
 43
1.0
 43
0.0
 43
0.0
 43
0.0
 43
0.0
 43
1.0
 77
     0
 47
0.0208333333333333
 47
0.0
 47
0.0
 47
0.0
 47
0.0
 47
0.0208333333333333
 47
0.0
 47
0.0
 47
0.0
 47
0.0
 47
1.0
 47
0.0
 47
0.0
 47
0.0
 47
0.0
 47
1.0
171
     0
 49
0.0208333333333333
 49
0.0
 49
0.0
 49
0.0
 49
0.0
 49
0.0208333333333333
 49
0.0
 49
0.0
 49
0.0
 49
0.0
 49
1.0
 49
0.0
 49
0.0
 49
0.0
 49
0.0
 49
1.0
175
     0
142
0.0208333333333333
142
0.0
142
0.0
142
0.0
142
0.0
142
0.0208333333333333
142
0.0
142
0.0
142
0.0
142
0.0
142
1.0
142
0.0
142
0.0
142
0.0
142
0.0
142
1.0
179
     0
144
0.0208333333333333
144
0.0
144
0.0
144
0.0
144
0.0
144
0.0208333333333333
144
0.0
144
0.0
144
0.0
144
0.0
144
1.0
144
0.0
144
0.0
144
0.0
144
0.0
144
1.0
147
0.0208333333333333
147
0.0
147
0.0
147
0.0
147
0.0
147
0.0208333333333333
147
0.0
147
0.0
147
0.0
147
0.0
147
1.0
147
0.0
147
0.0
147
0.0
147
0.0
147
1.0
  0
MATERIAL
  5
21
102
{ACAD_XDICTIONARY
360
22
102
}
102
{ACAD_REACTORS
330
10
102
}
330
10
100
AcDbMaterial
  1
Global
 72
     0
 43
0.0208333333333333
 43
0.0
 43
0.0
 43
0.0
 43
0.0
 43
0.0208333333333333
 43
0.0
 43
0.0
 43
0.0
 43
0.0
 43
1.0
 43
0.0
 43
0.0
 43
0.0
 43
0.0
 43
1.0
 77
     0
 47
0.0208333333333333
 47
0.0
 47
0.0
 47
0.0
 47
0.0
 47
0.0208333333333333
 47
0.0
 47
0.0
 47
0.0
 47
0.0
 47
1.0
 47
0.0
 47
0.0
 47
0.0
 47
0.0
 47
1.0
171
     0
 49
0.0208333333333333
 49
0.0
 49
0.0
 49
0.0
 49
0.0
 49
0.0208333333333333
 49
0.0
 49
0.0
 49
0.0
 49
0.0
 49
1.0
 49
0.0
 49
0.0
 49
0.0
 49
0.0
 49
1.0
175
     0
142
0.0208333333333333
142
0.0
142
0.0
142
0.0
142
0.0
142
0.0208333333333333
142
0.0
142
0.0
142
0.0
142
0.0
142
1.0
142
0.0
142
0.0
142
0.0
142
0.0
142
1.0
179
     0
144
0.0208333333333333
144
0.0
144
0.0
144
0.0
144
0.0
144
0.0208333333333333
144
0.0
144
0.0
144
0.0
144
0.0
144
1.0
144
0.0
144
0.0
144
0.0
144
0.0
144
1.0
147
0.0208333333333333
147
0.0
147
0.0
147
0.0
147
0.0
147
0.0208333333333333
147
0.0
147
0.0
147
0.0
147
0.0
147
1.0
147
0.0
147
0.0
147
0.0
147
0.0
147
1.0
  0
MLEADERSTYLE
  5
67
102
{ACAD_REACTORS
330
66
102
}
330
66
100
AcDbMLeaderStyle
179
     2
170
     2
171
     1
172
     0
 90
        2
 40
0.0
 41
0.0
173
     1
 91
-1056964608
340
5B
 92
       -2
290
     1
 42
0.09
291
     1
 43
0.36
  3
Standard
 44
0.18
300

342
55
174
     1
178
     6
175
     1
176
     0
 93
-1056964608
 45
0.18
292
     0
297
     0
 46
0.18
 94
-1056964608
 47
1.0
 49
1.0
140
1.0
293
     1
141
0.0
294
     1
177
     0
142
1.0
295
     1
296
     0
143
0.125
271
     0
272
     9
273
     9
298
     1
  0
MLINESTYLE
  5
60
102
{ACAD_REACTORS
330
5F
102
}
330
5F
100
AcDbMlineStyle
  2
STANDARD
 70
     0
  3

 62
   256
 51
90.0
 52
90.0
 71
     2
 49
0.5
 62
   256
  6
BYLAYER
 49
-0.5
 62
   256
  6
BYLAYER
  0
ACDBPLACEHOLDER
  5
F
102
{ACAD_REACTORS
330
E
102
}
330
E
  0
SCALE
  5
43
102
{ACAD_REACTORS
330
42
102
}
330
42
100
AcDbScale
 70
     0
300
1:1
140
1.0
141
1.0
290
     1
  0
SCALE
  5
44
102
{ACAD_REACTORS
330
42
102
}
330
42
100
AcDbScale
 70
     0
300
1/128" = 1'-0"
140
0.0078125
141
12.0
290
     0
  0
SCALE
  5
45
102
{ACAD_REACTORS
330
42
102
}
330
42
100
AcDbScale
 70
     0
300
1/64" = 1'-0"
140
0.015625
141
12.0
290
     0
  0
SCALE
  5
46
102
{ACAD_REACTORS
330
42
102
}
330
42
100
AcDbScale
 70
     0
300
1/32" = 1'-0"
140
0.03125
141
12.0
290
     0
  0
SCALE
  5
47
102
{ACAD_REACTORS
330
42
102
}
330
42
100
AcDbScale
 70
     0
300
1/16" = 1'-0"
140
0.0625
141
12.0
290
     0
  0
SCALE
  5
48
102
{ACAD_REACTORS
330
42
102
}
330
42
100
AcDbScale
 70
     0
300
3/32" = 1'-0"
140
0.09375
141
12.0
290
     0
  0
SCALE
  5
49
102
{ACAD_REACTORS
330
42
102
}
330
42
100
AcDbScale
 70
     0
300
1/8" = 1'-0"
140
0.125
141
12.0
290
     0
  0
SCALE
  5
4A
102
{ACAD_REACTORS
330
42
102
}
330
42
100
AcDbScale
 70
     0
300
3/16" = 1'-0"
140
0.1875
141
12.0
290
     0
  0
SCALE
  5
4B
102
{ACAD_REACTORS
330
42
102
}
330
42
100
AcDbScale
 70
     0
300
1/4" = 1'-0"
140
0.25
141
12.0
290
     0
  0
SCALE
  5
4C
102
{ACAD_REACTORS
330
42
102
}
330
42
100
AcDbScale
 70
     0
300
3/8" = 1'-0"
140
0.375
141
12.0
290
     0
  0
SCALE
  5
4D
102
{ACAD_REACTORS
330
42
102
}
330
42
100
AcDbScale
 70
     0
300
1/2" = 1'-0"
140
0.5
141
12.0
290
     0
  0
SCALE
  5
4E
102
{ACAD_REACTORS
330
42
102
}
330
42
100
AcDbScale
 70
     0
300
3/4" = 1'-0"
140
0.75
141
12.0
290
     0
  0
SCALE
  5
4F
102
{ACAD_REACTORS
330
42
102
}
330
42
100
AcDbScale
 70
     0
300
1" = 1'-0"
140
1.0
141
12.0
290
     0
  0
SCALE
  5
50
102
{ACAD_REACTORS
330
42
102
}
330
42
100
AcDbScale
 70
     0
300
1-1/2" = 1'-0"
140
1.5
141
12.0
290
     0
  0
SCALE
  5
51
102
{ACAD_REACTORS
330
42
102
}
330
42
100
AcDbScale
 70
     0
300
3" = 1'-0"
140
3.0
141
12.0
290
     0
  0
SCALE
  5
52
102
{ACAD_REACTORS
330
42
102
}
330
42
100
AcDbScale
 70
     0
300
6" = 1'-0"
140
6.0
141
12.0
290
     0
  0
SCALE
  5
53
102
{ACAD_REACTORS
330
42
102
}
330
42
100
AcDbScale
 70
     0
300
1'-0" = 1'-0"
140
12.0
141
12.0
290
     0
  0
ACDBSECTIONVIEWSTYLE
  5
69
102
{ACAD_REACTORS
330
68
102
}
330
68
100
AcDbModelDocViewStyle
 70
     0
  3
Imperial24
290
     1
300
Imperial24
 90
        0
100
AcDbSectionViewStyle
 70
     0
 71
     0
 90
       78
 71
     1
340
55
 62
   256
 40
0.24
340
0
340
0
 62
   256
 40
0.24
300
I, O, Q, S, X, Z
 40
0.48
 90
        3
 40
0.18
 90
        1
 71
     2
340
5D
 90
       25
 62
   256
340
5D
 90
       50
 62
   256
 40
0.24
 40
0.0
 40
0.24
 71
     3
340
55
 62
   256
 40
0.24
 90
        1
 40
0.75
 90
        1
300
%<\AcVar ViewType \f "%tc1">% %<\AcVar ViewSectionStartId>%-%<\AcVar ViewSectionEndId>%\PSCALE %<\AcVar ViewScale \f "%sn">%
 71
     4
 62
   256
 62
   257
300
ANSI31
 40
1.0
 90
        0
290
     0
290
     0
 90
        6
 40
0.0
 40
1.570796326794896
 40
0.2617993877991494
 40
1.308996938995747
 40
-0.2617993877991494
 40
1.832595714594046
  0
TABLESTYLE
  5
65
102
{ACAD_XDICTIONARY
360
10A
102
}
102
{ACAD_REACTORS
330
64
102
}
330
64
100
AcDbTableStyle
280
     0
  3
Standard
 70
     0
 71
     0
 40
0.06
 41
0.06
280
     0
281
     0
  7
Standard
140
0.18
170
     2
 62
     0
 63
     7
283
     0
 90
      512
 91
        0
  1

274
    -2
284
     1
 64
     0
275
    -2
285
     1
 65
     0
276
    -2
286
     1
 66
     0
277
    -2
287
     1
 67
     0
278
    -2
288
     1
 68
     0
279
    -2
289
     1
 69
     0
  7
Standard
140
0.25
170
     5
 62
     0
 63
     7
283
     0
 90
      512
 91
        0
  1

274
    -2
284
     1
 64
     0
275
    -2
285
     1
 65
     0
276
    -2
286
     1
 66
     0
277
    -2
287
     1
 67
     0
278
    -2
288
     1
 68
     0
279
    -2
289
     1
 69
     0
  7
Standard
140
0.18
170
     5
 62
     0
 63
     7
283
     0
 90
      512
 91
        0
  1

274
    -2
284
     1
 64
     0
275
    -2
285
     1
 65
     0
276
    -2
286
     1
 66
     0
277
    -2
287
     1
 67
     0
278
    -2
288
     1
 68
     0
279
    -2
289
     1
 69
     0
  0
VISUALSTYLE
  5
2F
102
{ACAD_REACTORS
330
29
102
}
330
29
100
AcDbVisualStyle
  2
2dWireframe
 70
     4
177
     3
291
     0
 70
    58
 90
        0
176
     1
 90
        2
176
     1
 90
        0
176
     1
 90
        0
176
     1
 40
0.6
176
     1
 40
30.0
176
     1
 62
     7
420
 16777215
176
     1
 90
        1
176
     1
 90
        4
176
     1
 62
     7
176
     1
 62
   257
176
     1
 90
        1
176
     1
 90
        1
176
     1
 40
1.0
176
     1
 90
        0
176
     1
 62
   257
176
     1
 40
1.0
176
     1
 90
        1
176
     1
 90
        6
176
     1
 90
        2
176
     1
 62
     7
176
     1
 90
        5
176
     1
 90
        0
176
     1
 90
        0
176
     1
290
     0
176
     1
 90
        1
176
     1
 40
0.0
176
     1
 90
        0
176
     1
290
     1
176
     1
290
     1
176
     1
290
     0
176
     1
290
     0
176
     1
290
     0
176
     1
290
     0
176
     1
290
     0
176
     1
290
     0
176
     1
290
     0
176
     1
 90
       50
176
     1
 40
0.0
176
     1
 40
1.0
176
     1
 90
        0
176
     1
 62
    18
420
        0
176
     1
 90
       50
176
     1
 90
        3
176
     1
 62
     5
420
      255
176
     1
290
     0
176
     1
 90
       50
176
     1
 90
       50
176
     1
 90
       50
176
     1
290
     0
176
     1
 90
       50
176
     1
 62
   256
176
     0
 40
1.0
176
     0
 90
        2
176
     1
  1
strokes_ogs.tif
176
     1
290
     0
176
     1
 40
1.0
176
     1
 40
1.0
176
     1
  0
VISUALSTYLE
  5
2E
102
{ACAD_REACTORS
330
29
102
}
330
29
100
AcDbVisualStyle
  2
Basic
 70
     7
177
     3
291
     1
 70
    58
 90
        1
176
     1
 90
        0
176
     1
 90
        1
176
     1
 90
        0
176
     1
 40
0.6
176
     1
 40
30.0
176
     1
 62
     7
420
 16777215
176
     1
 90
        0
176
     1
 90
        4
176
     1
 62
     7
176
     1
 62
   257
176
     1
 90
        1
176
     1
 90
        1
176
     1
 40
1.0
176
     1
 90
        8
176
     1
 62
     7
176
     1
 40
1.0
176
     1
 90
        1
176
     1
 90
        6
176
     1
 90
        2
176
     1
 62
     7
176
     1
 90
        5
176
     1
 90
        0
176
     1
 90
        0
176
     1
290
     0
176
     1
 90
        1
176
     1
 40
0.0
176
     1
 90
        0
176
     1
290
     0
176
     1
290
     1
176
     1
290
     1
176
     1
290
     0
176
     1
290
     0
176
     1
290
     0
176
     1
290
     0
176
     1
290
     0
176
     1
290
     0
176
     1
 90
       50
176
     1
 40
0.0
176
     1
 40
1.0
176
     1
 90
        0
176
     1
 62
    18
420
        0
176
     1
 90
       50
176
     1
 90
        3
176
     1
 62
     5
420
      255
176
     1
290
     0
176
     1
 90
       50
176
     1
 90
       50
176
     1
 90
       50
176
     1
290
     0
176
     1
 90
       50
176
     1
 62
   256
176
     0
 40
1.0
176
     0
 90
        2
176
     1
  1
strokes_ogs.tif
176
     1
290
     0
176
     1
 40
1.0
176
     1
 40
1.0
176
     1
  0
VISUALSTYLE
  5
35
102
{ACAD_REACTORS
330
29
102
}
330
29
100
AcDbVisualStyle
  2
Brighten
 70
    12
177
     3
291
     1
 70
    58
 90
        2
176
     1
 90
        2
176
     1
 90
        0
176
     1
 90
        0
176
     1
 40
0.6
176
     1
 40
30.0
176
     1
 62
     7
420
 16777215
176
     1
 90
        1
176
     1
 90
        4
176
     1
 62
     7
176
     1
 62
   257
176
     1
 90
        1
176
     1
 90
        1
176
     1
 40
1.0
176
     1
 90
        8
176
     1
 62
     7
176
     1
 40
1.0
176
     1
 90
        1
176
     1
 90
        6
176
     1
 90
        2
176
     1
 62
     7
176
     1
 90
        5
176
     1
 90
        0
176
     1
 90
        0
176
     1
290
     0
176
     1
 90
        1
176
     1
 40
50.0
176
     1
 90
        0
176
     1
290
     0
176
     1
290
     1
176
     1
290
     1
176
     1
290
     0
176
     1
290
     0
176
     1
290
     0
176
     1
290
     0
176
     1
290
     0
176
     1
290
     0
176
     1
 90
       50
176
     1
 40
0.0
176
     1
 40
1.0
176
     1
 90
        0
176
     1
 62
    18
420
        0
176
     1
 90
       50
176
     1
 90
        3
176
     1
 62
     5
420
      255
176
     1
290
     0
176
     1
 90
       50
176
     1
 90
       50
176
     1
 90
       50
176
     1
290
     0
176
     1
 90
       50
176
     1
 62
   256
176
     0
 40
1.0
176
     0
 90
        2
176
     1
  1
strokes_ogs.tif
176
     1
290
     0
176
     1
 40
1.0
176
     1
 40
1.0
176
     1
  0
VISUALSTYLE
  5
39
102
{ACAD_REACTORS
330
29
102
}
330
29
100
AcDbVisualStyle
  2
ColorChange
 70
    16
177
     3
291
     1
 70
    58
 90
        2
176
     1
 90
        2
176
     1
 90
        3
176
     1
 90
        0
176
     1
 40
0.6
176
     1
 40
30.0
176
     1
 62
     8
420
  8421504
176
     1
 90
        1
176
     1
 90
        4
176
     1
 62
     7
176
     1
 62
   257
176
     1
 90
        1
176
     1
 90
        1
176
     1
 40
1.0
176
     1
 90
        8
176
     1
 62
     8
420
  8421504
176
     1
 40
1.0
176
     1
 90
        1
176
     1
 90
        6
176
     1
 90
        2
176
     1
 62
     7
176
     1
 90
        5
176
     1
 90
        0
176
     1
 90
        0
176
     1
290
     0
176
     1
 90
        1
176
     1
 40
0.0
176
     1
 90
        0
176
     1
290
     0
176
     1
290
     1
176
     1
290
     1
176
     1
290
     0
176
     1
290
     0
176
     1
290
     0
176
     1
290
     0
176
     1
290
     0
176
     1
290
     0
176
     1
 90
       50
176
     1
 40
0.0
176
     1
 40
1.0
176
     1
 90
        0
176
     1
 62
    18
420
        0
176
     1
 90
       50
176
     1
 90
        3
176
     1
 62
     5
420
      255
176
     1
290
     0
176
     1
 90
       50
176
     1
 90
       50
176
     1
 90
       50
176
     1
290
     0
176
     1
 90
       50
176
     1
 62
   256
176
     0
 40
1.0
176
     0
 90
        2
176
     1
  1
strokes_ogs.tif
176
     1
290
     0
176
     1
 40
1.0
176
     1
 40
1.0
176
     1
  0
VISUALSTYLE
  5
32
102
{ACAD_REACTORS
330
29
102
}
330
29
100
AcDbVisualStyle
  2
Conceptual
 70
     9
177
     3
291
     0
 70
    58
 90
        3
176
     1
 90
        2
176
     1
 90
        0
176
     1
 90
        0
176
     1
 40
0.6
176
     1
 40
30.0
176
     1
 62
     7
420
 16777215
176
     1
 90
        2
176
     1
 90
        2
176
     1
 62
     7
176
     1
 62
   257
176
     1
 90
        1
176
     1
 90
        1
176
     1
 40
179.0
176
     1
 90
        8
176
     1
 62
     7
176
     1
 40
1.0
176
     1
 90
        1
176
     1
 90
        6
176
     1
 90
        2
176
     1
 62
     7
176
     1
 90
        3
176
     1
 90
        0
176
     1
 90
        0
176
     1
290
     0
176
     1
 90
        1
176
     1
 40
0.0
176
     1
 90
        0
176
     1
290
     0
176
     1
290
     1
176
     1
290
     1
176
     1
290
     0
176
     1
290
     0
176
     1
290
     0
176
     1
290
     0
176
     1
290
     0
176
     1
290
     0
176
     1
 90
       50
176
     1
 40
0.0
176
     1
 40
1.0
176
     1
 90
        0
176
     1
 62
    18
420
        0
176
     1
 90
       50
176
     1
 90
        3
176
     1
 62
     5
420
      255
176
     1
290
     0
176
     1
 90
       50
176
     1
 90
       50
176
     1
 90
       50
176
     1
290
     0
176
     1
 90
       50
176
     1
 62
   256
176
     0
 40
1.0
176
     0
 90
        2
176
     1
  1
strokes_ogs.tif
176
     1
290
     0
176
     1
 40
1.0
176
     1
 40
1.0
176
     1
  0
VISUALSTYLE
  5
34
102
{ACAD_REACTORS
330
29
102
}
330
29
100
AcDbVisualStyle
  2
Dim
 70
    11
177
     3
291
     1
 70
    58
 90
        2
176
     1
 90
        2
176
     1
 90
        0
176
     1
 90
        0
176
     1
 40
0.6
176
     1
 40
30.0
176
     1
 62
     7
420
 16777215
176
     1
 90
        1
176
     1
 90
        4
176
     1
 62
     7
176
     1
 62
   257
176
     1
 90
        1
176
     1
 90
        1
176
     1
 40
1.0
176
     1
 90
        8
176
     1
 62
     7
176
     1
 40
1.0
176
     1
 90
        1
176
     1
 90
        6
176
     1
 90
        2
176
     1
 62
     7
176
     1
 90
        5
176
     1
 90
        0
176
     1
 90
        0
176
     1
290
     0
176
     1
 90
        1
176
     1
 40
-50.0
176
     1
 90
        0
176
     1
290
     0
176
     1
290
     1
176
     1
290
     1
176
     1
290
     0
176
     1
290
     0
176
     1
290
     0
176
     1
290
     0
176
     1
290
     0
176
     1
290
     0
176
     1
 90
       50
176
     1
 40
0.0
176
     1
 40
1.0
176
     1
 90
        0
176
     1
 62
    18
420
        0
176
     1
 90
       50
176
     1
 90
        3
176
     1
 62
     5
420
      255
176
     1
290
     0
176
     1
 90
       50
176
     1
 90
       50
176
     1
 90
       50
176
     1
290
     0
176
     1
 90
       50
176
     1
 62
   256
176
     0
 40
1.0
176
     0
 90
        2
176
     1
  1
strokes_ogs.tif
176
     1
290
     0
176
     1
 40
1.0
176
     1
 40
1.0
176
     1
  0
VISUALSTYLE
  5
41
102
{ACAD_REACTORS
330
29
102
}
330
29
100
AcDbVisualStyle
  2
EdgeColorOff
 70
    22
177
     3
291
     1
 70
    58
 90
        2
176
     0
 90
        2
176
     0
 90
        0
176
     0
 90
        0
176
     0
 40
0.6
176
     0
 40
30.0
176
     0
 62
     7
420
 16777215
176
     0
 90
        1
176
     0
 90
        4
176
     0
 62
     7
176
     0
 62
   257
176
     0
 90
        1
176
     0
 90
        1
176
     0
 40
1.0
176
     0
 90
        8
176
     2
 62
     7
176
     0
 40
1.0
176
     0
 90
        1
176
     0
 90
        6
176
     0
 90
        2
176
     0
 62
     7
176
     0
 90
        5
176
     0
 90
        0
176
     0
 90
        0
176
     0
290
     0
176
     0
 90
        1
176
     0
 40
0.0
176
     0
 90
        0
176
     0
290
     0
176
     0
290
     1
176
     0
290
     1
176
     0
290
     0
176
     0
290
     0
176
     0
290
     0
176
     0
290
     0
176
     0
290
     0
176
     0
290
     0
176
     0
 90
       50
176
     0
 40
0.0
176
     0
 40
1.0
176
     0
 90
        0
176
     0
 62
    18
420
        0
176
     0
 90
       50
176
     0
 90
        3
176
     0
 62
     5
420
      255
176
     0
290
     0
176
     0
 90
       50
176
     0
 90
       50
176
     0
 90
       50
176
     0
290
     0
176
     0
 90
       50
176
     0
 62
   256
176
     0
 40
1.0
176
     0
 90
        2
176
     0
  1
strokes_ogs.tif
176
     0
290
     0
176
     0
 40
1.0
176
     0
 40
1.0
176
     0
  0
VISUALSTYLE
  5
38
102
{ACAD_REACTORS
330
29
102
}
330
29
100
AcDbVisualStyle
  2
Facepattern
 70
    15
177
     3
291
     1
 70
    58
 90
        2
176
     1
 90
        2
176
     1
 90
        0
176
     1
 90
        0
176
     1
 40
0.6
176
     1
 40
30.0
176
     1
 62
     7
420
 16777215
176
     1
 90
        1
176
     1
 90
        4
176
     1
 62
     7
176
     1
 62
   257
176
     1
 90
        1
176
     1
 90
        1
176
     1
 40
1.0
176
     1
 90
        8
176
     1
 62
     7
176
     1
 40
1.0
176
     1
 90
        1
176
     1
 90
        6
176
     1
 90
        2
176
     1
 62
     7
176
     1
 90
        5
176
     1
 90
        0
176
     1
 90
        0
176
     1
290
     0
176
     1
 90
        1
176
     1
 40
0.0
176
     1
 90
        0
176
     1
290
     0
176
     1
290
     1
176
     1
290
     1
176
     1
290
     0
176
     1
290
     0
176
     1
290
     0
176
     1
290
     0
176
     1
290
     0
176
     1
290
     0
176
     1
 90
       50
176
     1
 40
0.0
176
     1
 40
1.0
176
     1
 90
        0
176
     1
 62
    18
420
        0
176
     1
 90
       50
176
     1
 90
        3
176
     1
 62
     5
420
      255
176
     1
290
     0
176
     1
 90
       50
176
     1
 90
       50
176
     1
 90
       50
176
     1
290
     0
176
     1
 90
       50
176
     1
 62
   256
176
     0
 40
1.0
176
     0
 90
        2
176
     1
  1
strokes_ogs.tif
176
     1
290
     0
176
     1
 40
1.0
176
     1
 40
1.0
176
     1
  0
VISUALSTYLE
  5
2A
102
{ACAD_REACTORS
330
29
102
}
330
29
100
AcDbVisualStyle
  2
Flat
 70
     0
177
     3
291
     1
 70
    58
 90
        2
176
     1
 90
        1
176
     1
 90
        1
176
     1
 90
        2
176
     1
 40
0.6
176
     1
 40
30.0
176
     1
 62
     7
420
 16777215
176
     1
 90
        0
176
     1
 90
        0
176
     1
 62
     7
176
     1
 62
   257
176
     1
 90
        1
176
     1
 90
        1
176
     1
 40
1.0
176
     1
 90
        8
176
     1
 62
     7
176
     1
 40
1.0
176
     1
 90
        1
176
     1
 90
        6
176
     1
 90
        2
176
     1
 62
     7
176
     1
 90
        5
176
     1
 90
        0
176
     1
 90
        0
176
     1
290
     0
176
     1
 90
       13
176
     1
 40
0.0
176
     1
 90
        0
176
     1
290
     0
176
     1
290
     1
176
     1
290
     1
176
     1
290
     0
176
     1
290
     0
176
     1
290
     0
176
     1
290
     0
176
     1
290
     0
176
     1
290
     0
176
     1
 90
       50
176
     1
 40
0.0
176
     1
 40
1.0
176
     1
 90
        0
176
     1
 62
    18
420
        0
176
     1
 90
       50
176
     1
 90
        3
176
     1
 62
     5
420
      255
176
     1
290
     0
176
     1
 90
       50
176
     1
 90
       50
176
     1
 90
       50
176
     1
290
     0
176
     1
 90
       50
176
     1
 62
   256
176
     0
 40
1.0
176
     0
 90
        2
176
     1
  1
strokes_ogs.tif
176
     1
290
     0
176
     1
 40
1.0
176
     1
 40
1.0
176
     1
  0
VISUALSTYLE
  5
2B
102
{ACAD_REACTORS
330
29
102
}
330
29
100
AcDbVisualStyle
  2
FlatWithEdges
 70
     1
177
     3
291
     1
 70
    58
 90
        2
176
     1
 90
        1
176
     1
 90
        1
176
     1
 90
        2
176
     1
 40
0.6
176
     1
 40
30.0
176
     1
 62
     7
420
 16777215
176
     1
 90
        1
176
     1
 90
        0
176
     1
 62
     7
176
     1
 62
   257
176
     1
 90
        1
176
     1
 90
        1
176
     1
 40
1.0
176
     1
 90
        0
176
     1
 62
   257
176
     1
 40
1.0
176
     1
 90
        1
176
     1
 90
        6
176
     1
 90
        2
176
     1
 62
     7
176
     1
 90
        5
176
     1
 90
        0
176
     1
 90
        0
176
     1
290
     0
176
     1
 90
       13
176
     1
 40
0.0
176
     1
 90
        0
176
     1
290
     0
176
     1
290
     1
176
     1
290
     1
176
     1
290
     0
176
     1
290
     0
176
     1
290
     0
176
     1
290
     0
176
     1
290
     0
176
     1
290
     0
176
     1
 90
       50
176
     1
 40
0.0
176
     1
 40
1.0
176
     1
 90
        0
176
     1
 62
    18
420
        0
176
     1
 90
       50
176
     1
 90
        3
176
     1
 62
     5
420
      255
176
     1
290
     0
176
     1
 90
       50
176
     1
 90
       50
176
     1
 90
       50
176
     1
290
     0
176
     1
 90
       50
176
     1
 62
   256
176
     0
 40
1.0
176
     0
 90
        2
176
     1
  1
strokes_ogs.tif
176
     1
290
     0
176
     1
 40
1.0
176
     1
 40
1.0
176
     1
  0
VISUALSTYLE
  5
2C
102
{ACAD_REACTORS
330
29
102
}
330
29
100
AcDbVisualStyle
  2
Gouraud
 70
     2
177
     3
291
     1
 70
    58
 90
        2
176
     1
 90
        2
176
     1
 90
        1
176
     1
 90
        2
176
     1
 40
0.6
176
     1
 40
30.0
176
     1
 62
     7
420
 16777215
176
     1
 90
        0
176
     1
 90
        0
176
     1
 62
     7
176
     1
 62
   257
176
     1
 90
        1
176
     1
 90
        1
176
     1
 40
1.0
176
     1
 90
        0
176
     1
 62
     7
176
     1
 40
1.0
176
     1
 90
        1
176
     1
 90
        6
176
     1
 90
        2
176
     1
 62
     7
176
     1
 90
        5
176
     1
 90
        0
176
     1
 90
        0
176
     1
290
     0
176
     1
 90
       13
176
     1
 40
0.0
176
     1
 90
        0
176
     1
290
     0
176
     1
290
     1
176
     1
290
     1
176
     1
290
     0
176
     1
290
     0
176
     1
290
     0
176
     1
290
     0
176
     1
290
     0
176
     1
290
     0
176
     1
 90
       50
176
     1
 40
0.0
176
     1
 40
1.0
176
     1
 90
        0
176
     1
 62
    18
420
        0
176
     1
 90
       50
176
     1
 90
        3
176
     1
 62
     5
420
      255
176
     1
290
     0
176
     1
 90
       50
176
     1
 90
       50
176
     1
 90
       50
176
     1
290
     0
176
     1
 90
       50
176
     1
 62
   256
176
     0
 40
1.0
176
     0
 90
        2
176
     1
  1
strokes_ogs.tif
176
     1
290
     0
176
     1
 40
1.0
176
     1
 40
1.0
176
     1
  0
VISUALSTYLE
  5
2D
102
{ACAD_REACTORS
330
29
102
}
330
29
100
AcDbVisualStyle
  2
GouraudWithEdges
 70
     3
177
     3
291
     1
 70
    58
 90
        2
176
     1
 90
        2
176
     1
 90
        1
176
     1
 90
        2
176
     1
 40
0.6
176
     1
 40
30.0
176
     1
 62
     7
420
 16777215
176
     1
 90
        1
176
     1
 90
        0
176
     1
 62
     7
176
     1
 62
   257
176
     1
 90
        1
176
     1
 90
        1
176
     1
 40
1.0
176
     1
 90
        0
176
     1
 62
   257
176
     1
 40
1.0
176
     1
 90
        1
176
     1
 90
        6
176
     1
 90
        2
176
     1
 62
     7
176
     1
 90
        5
176
     1
 90
        0
176
     1
 90
        0
176
     1
290
     0
176
     1
 90
       13
176
     1
 40
0.0
176
     1
 90
        0
176
     1
290
     0
176
     1
290
     1
176
     1
290
     1
176
     1
290
     0
176
     1
290
     0
176
     1
290
     0
176
     1
290
     0
176
     1
290
     0
176
     1
290
     0
176
     1
 90
       50
176
     1
 40
0.0
176
     1
 40
1.0
176
     1
 90
        0
176
     1
 62
    18
420
        0
176
     1
 90
       50
176
     1
 90
        3
176
     1
 62
     5
420
      255
176
     1
290
     0
176
     1
 90
       50
176
     1
 90
       50
176
     1
 90
       50
176
     1
290
     0
176
     1
 90
       50
176
     1
 62
   256
176
     0
 40
1.0
176
     0
 90
        2
176
     1
  1
strokes_ogs.tif
176
     1
290
     0
176
     1
 40
1.0
176
     1
 40
1.0
176
     1
  0
VISUALSTYLE
  5
31
102
{ACAD_REACTORS
330
29
102
}
330
29
100
AcDbVisualStyle
  2
Hidden
 70
     6
177
     3
291
     0
 70
    58
 90
        1
176
     1
 90
        2
176
     1
 90
        2
176
     1
 90
        0
176
     1
 40
0.6
176
     1
 40
30.0
176
     1
 62
     7
420
 16777215
176
     1
 90
        2
176
     1
 90
        2
176
     1
 62
     7
176
     1
 62
   257
176
     1
 90
        2
176
     1
 90
        1
176
     1
 40
40.0
176
     1
 90
        0
176
     1
 62
   257
176
     1
 40
1.0
176
     1
 90
        1
176
     1
 90
        6
176
     1
 90
        2
176
     1
 62
     7
176
     1
 90
        3
176
     1
 90
        0
176
     1
 90
        0
176
     1
290
     0
176
     1
 90
        1
176
     1
 40
0.0
176
     1
 90
        0
176
     1
290
     0
176
     1
290
     1
176
     1
290
     1
176
     1
290
     0
176
     1
290
     0
176
     1
290
     0
176
     1
290
     0
176
     1
290
     0
176
     1
290
     0
176
     1
 90
       50
176
     1
 40
0.0
176
     1
 40
1.0
176
     1
 90
        0
176
     1
 62
    18
420
        0
176
     1
 90
       50
176
     1
 90
        3
176
     1
 62
     5
420
      255
176
     1
290
     0
176
     1
 90
       50
176
     1
 90
       50
176
     1
 90
       50
176
     1
290
     0
176
     1
 90
       50
176
     1
 62
   256
176
     0
 40
1.0
176
     0
 90
        2
176
     1
  1
strokes_ogs.tif
176
     1
290
     0
176
     1
 40
1.0
176
     1
 40
1.0
176
     1
  0
VISUALSTYLE
  5
3F
102
{ACAD_REACTORS
330
29
102
}
330
29
100
AcDbVisualStyle
  2
JitterOff
 70
    20
177
     3
291
     1
 70
    58
 90
        2
176
     0
 90
        2
176
     0
 90
        0
176
     0
 90
        0
176
     0
 40
0.6
176
     0
 40
30.0
176
     0
 62
     7
420
 16777215
176
     0
 90
        1
176
     0
 90
        4
176
     0
 62
     7
176
     0
 62
   257
176
     0
 90
        1
176
     0
 90
        1
176
     0
 40
1.0
176
     0
 90
       10
176
     2
 62
     7
176
     0
 40
1.0
176
     0
 90
        1
176
     0
 90
        6
176
     0
 90
        2
176
     0
 62
     7
176
     0
 90
        5
176
     0
 90
        0
176
     0
 90
        0
176
     0
290
     0
176
     0
 90
        1
176
     0
 40
0.0
176
     0
 90
        0
176
     0
290
     0
176
     0
290
     1
176
     0
290
     1
176
     0
290
     0
176
     0
290
     0
176
     0
290
     0
176
     0
290
     0
176
     0
290
     0
176
     0
290
     0
176
     0
 90
       50
176
     0
 40
0.0
176
     0
 40
1.0
176
     0
 90
        0
176
     0
 62
    18
420
        0
176
     0
 90
       50
176
     0
 90
        3
176
     0
 62
     5
420
      255
176
     0
290
     0
176
     0
 90
       50
176
     0
 90
       50
176
     0
 90
       50
176
     0
290
     0
176
     0
 90
       50
176
     0
 62
   256
176
     0
 40
1.0
176
     0
 90
        2
176
     0
  1
strokes_ogs.tif
176
     0
290
     0
176
     0
 40
1.0
176
     0
 40
1.0
176
     0
  0
VISUALSTYLE
  5
37
102
{ACAD_REACTORS
330
29
102
}
330
29
100
AcDbVisualStyle
  2
Linepattern
 70
    14
177
     3
291
     1
 70
    58
 90
        2
176
     1
 90
        2
176
     1
 90
        0
176
     1
 90
        0
176
     1
 40
0.6
176
     1
 40
30.0
176
     1
 62
     7
420
 16777215
176
     1
 90
        1
176
     1
 90
        4
176
     1
 62
     7
176
     1
 62
   257
176
     1
 90
        7
176
     1
 90
        7
176
     1
 40
1.0
176
     1
 90
        8
176
     1
 62
     7
176
     1
 40
1.0
176
     1
 90
        1
176
     1
 90
        6
176
     1
 90
        2
176
     1
 62
     7
176
     1
 90
        5
176
     1
 90
        0
176
     1
 90
        0
176
     1
290
     0
176
     1
 90
        1
176
     1
 40
0.0
176
     1
 90
        0
176
     1
290
     0
176
     1
290
     1
176
     1
290
     1
176
     1
290
     0
176
     1
290
     0
176
     1
290
     0
176
     1
290
     0
176
     1
290
     0
176
     1
290
     0
176
     1
 90
       50
176
     1
 40
0.0
176
     1
 40
1.0
176
     1
 90
        0
176
     1
 62
    18
420
        0
176
     1
 90
       50
176
     1
 90
        3
176
     1
 62
     5
420
      255
176
     1
290
     0
176
     1
 90
       50
176
     1
 90
       50
176
     1
 90
       50
176
     1
290
     0
176
     1
 90
       50
176
     1
 62
   256
176
     0
 40
1.0
176
     0
 90
        2
176
     1
  1
strokes_ogs.tif
176
     1
290
     0
176
     1
 40
1.0
176
     1
 40
1.0
176
     1
  0
VISUALSTYLE
  5
40
102
{ACAD_REACTORS
330
29
102
}
330
29
100
AcDbVisualStyle
  2
OverhangOff
 70
    21
177
     3
291
     1
 70
    58
 90
        2
176
     0
 90
        2
176
     0
 90
        0
176
     0
 90
        0
176
     0
 40
0.6
176
     0
 40
30.0
176
     0
 62
     7
420
 16777215
176
     0
 90
        1
176
     0
 90
        4
176
     0
 62
     7
176
     0
 62
   257
176
     0
 90
        1
176
     0
 90
        1
176
     0
 40
1.0
176
     0
 90
        9
176
     2
 62
     7
176
     0
 40
1.0
176
     0
 90
        1
176
     0
 90
        6
176
     0
 90
        2
176
     0
 62
     7
176
     0
 90
        5
176
     0
 90
        0
176
     0
 90
        0
176
     0
290
     0
176
     0
 90
        1
176
     0
 40
0.0
176
     0
 90
        0
176
     0
290
     0
176
     0
290
     1
176
     0
290
     1
176
     0
290
     0
176
     0
290
     0
176
     0
290
     0
176
     0
290
     0
176
     0
290
     0
176
     0
290
     0
176
     0
 90
       50
176
     0
 40
0.0
176
     0
 40
1.0
176
     0
 90
        0
176
     0
 62
    18
420
        0
176
     0
 90
       50
176
     0
 90
        3
176
     0
 62
     5
420
      255
176
     0
290
     0
176
     0
 90
       50
176
     0
 90
       50
176
     0
 90
       50
176
     0
290
     0
176
     0
 90
       50
176
     0
 62
   256
176
     0
 40
1.0
176
     0
 90
        2
176
     0
  1
strokes_ogs.tif
176
     0
290
     0
176
     0
 40
1.0
176
     0
 40
1.0
176
     0
  0
VISUALSTYLE
  5
33
102
{ACAD_REACTORS
330
29
102
}
330
29
100
AcDbVisualStyle
  2
Realistic
 70
     8
177
     3
291
     0
 70
    58
 90
        2
176
     1
 90
        3
176
     1
 90
        0
176
     1
 90
        2
176
     1
 40
0.6
176
     1
 40
30.0
176
     1
 62
     7
420
 16777215
176
     1
 90
        0
176
     1
 90
        0
176
     1
 62
     7
176
     1
 62
   257
176
     1
 90
        1
176
     1
 90
        1
176
     1
 40
1.0
176
     1
 90
        8
176
     1
 62
   257
176
     1
 40
1.0
176
     1
 90
        1
176
     1
 90
        6
176
     1
 90
        2
176
     1
 62
     7
176
     1
 90
        3
176
     1
 90
        0
176
     1
 90
        0
176
     1
290
     0
176
     1
 90
       13
176
     1
 40
0.0
176
     1
 90
        0
176
     1
290
     0
176
     1
290
     1
176
     1
290
     1
176
     1
290
     0
176
     1
290
     0
176
     1
290
     0
176
     1
290
     0
176
     1
290
     0
176
     1
290
     0
176
     1
 90
       50
176
     1
 40
0.0
176
     1
 40
1.0
176
     1
 90
        0
176
     1
 62
    18
420
        0
176
     1
 90
       50
176
     1
 90
        3
176
     1
 62
     5
420
      255
176
     1
290
     0
176
     1
 90
       50
176
     1
 90
       50
176
     1
 90
       50
176
     1
290
     0
176
     1
 90
       50
176
     1
 62
   256
176
     0
 40
1.0
176
     0
 90
        2
176
     1
  1
strokes_ogs.tif
176
     1
290
     0
176
     1
 40
1.0
176
     1
 40
1.0
176
     1
  0
VISUALSTYLE
  5
3E
102
{ACAD_REACTORS
330
29
102
}
330
29
100
AcDbVisualStyle
  2
Shaded
 70
    27
177
     3
291
     0
 70
    58
 90
        2
176
     1
 90
        2
176
     1
 90
        1
176
     1
 90
        2
176
     1
 40
0.6
176
     1
 40
30.0
176
     1
 62
     7
420
 16777215
176
     1
 90
        0
176
     1
 90
        4
176
     1
 62
     7
176
     1
 62
   257
176
     1
 90
        1
176
     1
 90
        1
176
     1
 40
1.0
176
     1
 90
        8
176
     1
 62
   257
176
     1
 40
1.0
176
     1
 90
        1
176
     1
 90
        6
176
     1
 90
        2
176
     1
 62
     8
420
  7895160
176
     1
 90
        3
176
     1
 90
        0
176
     1
 90
        0
176
     1
290
     0
176
     1
 90
        5
176
     1
 40
0.0
176
     1
 90
        0
176
     1
290
     0
176
     1
290
     1
176
     1
290
     1
176
     1
290
     0
176
     1
290
     0
176
     1
290
     0
176
     1
290
     0
176
     1
290
     0
176
     1
290
     0
176
     1
 90
       50
176
     1
 40
0.0
176
     1
 40
1.0
176
     1
 90
        0
176
     1
 62
    18
420
        0
176
     1
 90
       50
176
     1
 90
        3
176
     1
 62
     5
420
      255
176
     1
290
     0
176
     1
 90
       50
176
     1
 90
       50
176
     1
 90
       50
176
     1
290
     0
176
     1
 90
       50
176
     1
 62
   256
176
     0
 40
1.0
176
     0
 90
        2
176
     1
  1
strokes_ogs.tif
176
     1
290
     0
176
     1
 40
1.0
176
     1
 40
1.0
176
     1
  0
VISUALSTYLE
  5
3D
102
{ACAD_REACTORS
330
29
102
}
330
29
100
AcDbVisualStyle
  2
Shaded with edges
 70
    26
177
     3
291
     0
 70
    58
 90
        2
176
     1
 90
        2
176
     1
 90
        1
176
     1
 90
        2
176
     1
 40
0.6
176
     1
 40
30.0
176
     1
 62
     7
420
 16777215
176
     1
 90
        1
176
     1
 90
        2
176
     1
 62
     7
176
     1
 62
   257
176
     1
 90
        2
176
     1
 90
        1
176
     1
 40
1.0
176
     1
 90
        8
176
     1
 62
   257
176
     1
 40
1.0
176
     1
 90
        1
176
     1
 90
        6
176
     1
 90
        2
176
     1
 62
     7
176
     1
 90
        3
176
     1
 90
        0
176
     1
 90
        0
176
     1
290
     0
176
     1
 90
        5
176
     1
 40
0.0
176
     1
 90
        0
176
     1
290
     0
176
     1
290
     1
176
     1
290
     1
176
     1
290
     0
176
     1
290
     0
176
     1
290
     0
176
     1
290
     0
176
     1
290
     0
176
     1
290
     0
176
     1
 90
       50
176
     1
 40
0.0
176
     1
 40
1.0
176
     1
 90
        0
176
     1
 62
    18
420
        0
176
     1
 90
       50
176
     1
 90
        3
176
     1
 62
     5
420
      255
176
     1
290
     0
176
     1
 90
       50
176
     1
 90
       50
176
     1
 90
       50
176
     1
290
     0
176
     1
 90
       50
176
     1
 62
   256
176
     0
 40
1.0
176
     0
 90
        2
176
     1
  1
strokes_ogs.tif
176
     1
290
     0
176
     1
 40
1.0
176
     1
 40
1.0
176
     1
  0
VISUALSTYLE
  5
3A
102
{ACAD_REACTORS
330
29
102
}
330
29
100
AcDbVisualStyle
  2
Shades of Gray
 70
    23
177
     3
291
     0
 70
    58
 90
        2
176
     1
 90
        2
176
     1
 90
        3
176
     1
 90
        0
176
     1
 40
0.6
176
     1
 40
30.0
176
     1
 62
     7
420
 16777215
176
     1
 90
        2
176
     1
 90
        2
176
     1
 62
     7
176
     1
 62
     7
176
     1
 90
        1
176
     1
 90
        1
176
     1
 40
40.0
176
     1
 90
        8
176
     1
 62
     7
176
     1
 40
1.0
176
     1
 90
        1
176
     1
 90
        6
176
     1
 90
        2
176
     1
 62
     7
176
     1
 90
        3
176
     1
 90
        0
176
     1
 90
        0
176
     1
290
     0
176
     1
 90
        1
176
     1
 40
0.0
176
     1
 90
        0
176
     1
290
     0
176
     1
290
     1
176
     1
290
     1
176
     1
290
     0
176
     1
290
     0
176
     1
290
     0
176
     1
290
     0
176
     1
290
     0
176
     1
290
     0
176
     1
 90
       50
176
     1
 40
0.0
176
     1
 40
1.0
176
     1
 90
        0
176
     1
 62
    18
420
        0
176
     1
 90
       50
176
     1
 90
        3
176
     1
 62
     5
420
      255
176
     1
290
     0
176
     1
 90
       50
176
     1
 90
       50
176
     1
 90
       50
176
     1
290
     0
176
     1
 90
       50
176
     1
 62
   256
176
     0
 40
1.0
176
     0
 90
        2
176
     1
  1
strokes_ogs.tif
176
     1
290
     0
176
     1
 40
1.0
176
     1
 40
1.0
176
     1
  0
VISUALSTYLE
  5
3B
102
{ACAD_REACTORS
330
29
102
}
330
29
100
AcDbVisualStyle
  2
Sketchy
 70
    24
177
     3
291
     0
 70
    58
 90
        1
176
     1
 90
        2
176
     1
 90
        2
176
     1
 90
        0
176
     1
 40
0.6
176
     1
 40
30.0
176
     1
 62
     7
420
 16777215
176
     1
 90
        2
176
     1
 90
        2
176
     1
 62
     7
176
     1
 62
     7
176
     1
 90
        1
176
     1
 90
        1
176
     1
 40
40.0
176
     1
 90
       11
176
     1
 62
     7
176
     1
 40
1.0
176
     1
 90
        1
176
     1
 90
        6
176
     1
 90
        2
176
     1
 62
     7
176
     1
 90
        6
176
     1
 90
        0
176
     1
 90
        0
176
     1
290
     0
176
     1
 90
        1
176
     1
 40
0.0
176
     1
 90
        0
176
     1
290
     0
176
     1
290
     1
176
     1
290
     1
176
     1
290
     0
176
     1
290
     0
176
     1
290
     0
176
     1
290
     0
176
     1
290
     0
176
     1
290
     0
176
     1
 90
       50
176
     1
 40
0.0
176
     1
 40
1.0
176
     1
 90
        0
176
     1
 62
    18
420
        0
176
     1
 90
       50
176
     1
 90
        3
176
     1
 62
     5
420
      255
176
     1
290
     0
176
     1
 90
       50
176
     1
 90
       50
176
     1
 90
       50
176
     1
290
     0
176
     1
 90
       50
176
     1
 62
   256
176
     0
 40
1.0
176
     0
 90
        2
176
     1
  1
strokes_ogs.tif
176
     1
290
     0
176
     1
 40
1.0
176
     1
 40
1.0
176
     1
  0
VISUALSTYLE
  5
36
102
{ACAD_REACTORS
330
29
102
}
330
29
100
AcDbVisualStyle
  2
Thicken
 70
    13
177
     3
291
     1
 70
    58
 90
        2
176
     1
 90
        2
176
     1
 90
        0
176
     1
 90
        0
176
     1
 40
0.6
176
     1
 40
30.0
176
     1
 62
     7
420
 16777215
176
     1
 90
        1
176
     1
 90
        4
176
     1
 62
     7
176
     1
 62
   257
176
     1
 90
        1
176
     1
 90
        1
176
     1
 40
1.0
176
     1
 90
       12
176
     1
 62
     7
176
     1
 40
1.0
176
     1
 90
        1
176
     1
 90
        6
176
     1
 90
        2
176
     1
 62
     7
176
     1
 90
        5
176
     1
 90
        0
176
     1
 90
        0
176
     1
290
     0
176
     1
 90
        1
176
     1
 40
0.0
176
     1
 90
        0
176
     1
290
     0
176
     1
290
     1
176
     1
290
     1
176
     1
290
     0
176
     1
290
     0
176
     1
290
     0
176
     1
290
     0
176
     1
290
     0
176
     1
290
     0
176
     1
 90
       50
176
     1
 40
0.0
176
     1
 40
1.0
176
     1
 90
        0
176
     1
 62
    18
420
        0
176
     1
 90
       50
176
     1
 90
        3
176
     1
 62
     5
420
      255
176
     1
290
     0
176
     1
 90
       50
176
     1
 90
       50
176
     1
 90
       50
176
     1
290
     0
176
     1
 90
       50
176
     1
 62
   256
176
     0
 40
1.0
176
     0
 90
        2
176
     1
  1
strokes_ogs.tif
176
     1
290
     0
176
     1
 40
1.0
176
     1
 40
1.0
176
     1
  0
VISUALSTYLE
  5
30
102
{ACAD_REACTORS
330
29
102
}
330
29
100
AcDbVisualStyle
  2
Wireframe
 70
     5
177
     3
291
     0
 70
    58
 90
        0
176
     1
 90
        2
176
     1
 90
        0
176
     1
 90
        0
176
     1
 40
0.6
176
     1
 40
30.0
176
     1
 62
     7
420
 16777215
176
     1
 90
        1
176
     1
 90
        4
176
     1
 62
     7
176
     1
 62
   257
176
     1
 90
        1
176
     1
 90
        1
176
     1
 40
1.0
176
     1
 90
        0
176
     1
 62
   257
176
     1
 40
1.0
176
     1
 90
        1
176
     1
 90
        6
176
     1
 90
        2
176
     1
 62
     7
176
     1
 90
        3
176
     1
 90
        0
176
     1
 90
        0
176
     1
290
     0
176
     1
 90
        1
176
     1
 40
0.0
176
     1
 90
        0
176
     1
290
     0
176
     1
290
     1
176
     1
290
     1
176
     1
290
     0
176
     1
290
     0
176
     1
290
     0
176
     1
290
     0
176
     1
290
     0
176
     1
290
     0
176
     1
 90
       50
176
     1
 40
0.0
176
     1
 40
1.0
176
     1
 90
        0
176
     1
 62
    18
420
        0
176
     1
 90
       50
176
     1
 90
        3
176
     1
 62
     5
420
      255
176
     1
290
     0
176
     1
 90
       50
176
     1
 90
       50
176
     1
 90
       50
176
     1
290
     0
176
     1
 90
       50
176
     1
 62
   256
176
     0
 40
1.0
176
     0
 90
        2
176
     1
  1
strokes_ogs.tif
176
     1
290
     0
176
     1
 40
1.0
176
     1
 40
1.0
176
     1
  0
VISUALSTYLE
  5
3C
102
{ACAD_REACTORS
330
29
102
}
330
29
100
AcDbVisualStyle
  2
X-Ray
 70
    25
177
     3
291
     0
 70
    58
 90
        2
176
     1
 90
        2
176
     1
 90
        1
176
     1
 90
        1
176
     1
 40
0.5
176
     1
 40
30.0
176
     1
 62
     7
420
 16777215
176
     1
 90
        1
176
     1
 90
        0
176
     1
 62
     7
176
     1
 62
   257
176
     1
 90
        1
176
     1
 90
        1
176
     1
 40
1.0
176
     1
 90
        8
176
     1
 62
     7
176
     1
 40
1.0
176
     1
 90
        1
176
     1
 90
        6
176
     1
 90
        2
176
     1
 62
     7
176
     1
 90
        3
176
     1
 90
        0
176
     1
 90
        0
176
     1
290
     0
176
     1
 90
       13
176
     1
 40
0.0
176
     1
 90
        0
176
     1
290
     0
176
     1
290
     1
176
     1
290
     1
176
     1
290
     0
176
     1
290
     0
176
     1
290
     0
176
     1
290
     0
176
     1
290
     0
176
     1
290
     0
176
     1
 90
       50
176
     1
 40
0.0
176
     1
 40
1.0
176
     1
 90
        0
176
     1
 62
    18
420
        0
176
     1
 90
       50
176
     1
 90
        3
176
     1
 62
     5
420
      255
176
     1
290
     0
176
     1
 90
       50
176
     1
 90
       50
176
     1
 90
       50
176
     1
290
     0
176
     1
 90
       50
176
     1
 62
   256
176
     0
 40
1.0
176
     0
 90
        2
176
     1
  1
strokes_ogs.tif
176
     1
290
     0
176
     1
 40
1.0
176
     1
 40
1.0
176
     1
  0
DICTIONARYVAR
  5
109
102
{ACAD_REACTORS
330
104
102
}
330
104
100
DictionaryVariables
280
     0
  1
1:1
  0
DICTIONARYVAR
  5
106
102
{ACAD_REACTORS
330
104
102
}
330
104
100
DictionaryVariables
280
     0
  1
STANDARD
  0
DICTIONARYVAR
  5
105
102
{ACAD_REACTORS
330
104
102
}
330
104
100
DictionaryVariables
280
     0
  1
STANDARD
  0
DICTIONARYVAR
  5
107
102
{ACAD_REACTORS
330
104
102
}
330
104
100
DictionaryVariables
280
     0
  1
Imperial24
  0
DICTIONARYVAR
  5
108
102
{ACAD_REACTORS
330
104
102
}
330
104
100
DictionaryVariables
280
     0
  1
Imperial24
  0
DICTIONARY
  5
1A
330
19
100
AcDbDictionary
280
     1
281
     1
  3
BUMPTILE
360
1C
  3
DIFFUSETILE
360
1B
  3
OPACITYTILE
360
1F
  3
REFLECTIONTILE
360
1E
  3
REFRACTIONTILE
360
20
  3
SPECULARTILE
360
1D
  0
DICTIONARY
  5
12
330
11
100
AcDbDictionary
280
     1
281
     1
  3
BUMPTILE
360
14
  3
DIFFUSETILE
360
13
  3
OPACITYTILE
360
17
  3
REFLECTIONTILE
360
16
  3
REFRACTIONTILE
360
18
  3
SPECULARTILE
360
15
  0
DICTIONARY
  5
22
330
21
100
AcDbDictionary
280
     1
281
     1
  3
BUMPTILE
360
24
  3
DIFFUSETILE
360
23
  3
OPACITYTILE
360
27
  3
REFLECTIONTILE
360
26
  3
REFRACTIONTILE
360
28
  3
SPECULARTILE
360
25
  0
DICTIONARY
  5
10A
330
65
100
AcDbDictionary
280
     1
281
     1
  3
ACAD_ROUNDTRIP_2008_TABLESTYLE_CELLSTYLEMAP
360
10B
  0
XRECORD
  5
1C
102
{ACAD_REACTORS
330
1A
102
}
330
1A
100
AcDbXrecord
280
     1
270
     1
271
     1
  0
XRECORD
  5
1B
102
{ACAD_REACTORS
330
1A
102
}
330
1A
100
AcDbXrecord
280
     1
270
     1
271
     1
  0
XRECORD
  5
1F
102
{ACAD_REACTORS
330
1A
102
}
330
1A
100
AcDbXrecord
280
     1
270
     1
271
     1
  0
XRECORD
  5
1E
102
{ACAD_REACTORS
330
1A
102
}
330
1A
100
AcDbXrecord
280
     1
270
     1
271
     1
  0
XRECORD
  5
20
102
{ACAD_REACTORS
330
1A
102
}
330
1A
100
AcDbXrecord
280
     1
270
     1
271
     1
  0
XRECORD
  5
1D
102
{ACAD_REACTORS
330
1A
102
}
330
1A
100
AcDbXrecord
280
     1
270
     1
271
     1
  0
XRECORD
  5
14
102
{ACAD_REACTORS
330
12
102
}
330
12
100
AcDbXrecord
280
     1
270
     1
271
     1
  0
XRECORD
  5
13
102
{ACAD_REACTORS
330
12
102
}
330
12
100
AcDbXrecord
280
     1
270
     1
271
     1
  0
XRECORD
  5
17
102
{ACAD_REACTORS
330
12
102
}
330
12
100
AcDbXrecord
280
     1
270
     1
271
     1
  0
XRECORD
  5
16
102
{ACAD_REACTORS
330
12
102
}
330
12
100
AcDbXrecord
280
     1
270
     1
271
     1
  0
XRECORD
  5
18
102
{ACAD_REACTORS
330
12
102
}
330
12
100
AcDbXrecord
280
     1
270
     1
271
     1
  0
XRECORD
  5
15
102
{ACAD_REACTORS
330
12
102
}
330
12
100
AcDbXrecord
280
     1
270
     1
271
     1
  0
XRECORD
  5
24
102
{ACAD_REACTORS
330
22
102
}
330
22
100
AcDbXrecord
280
     1
270
     1
271
     1
  0
XRECORD
  5
23
102
{ACAD_REACTORS
330
22
102
}
330
22
100
AcDbXrecord
280
     1
270
     1
271
     1
  0
XRECORD
  5
27
102
{ACAD_REACTORS
330
22
102
}
330
22
100
AcDbXrecord
280
     1
270
     1
271
     1
  0
XRECORD
  5
26
102
{ACAD_REACTORS
330
22
102
}
330
22
100
AcDbXrecord
280
     1
270
     1
271
     1
  0
XRECORD
  5
28
102
{ACAD_REACTORS
330
22
102
}
330
22
100
AcDbXrecord
280
     1
270
     1
271
     1
  0
XRECORD
  5
25
102
{ACAD_REACTORS
330
22
102
}
330
22
100
AcDbXrecord
280
     1
270
     1
271
     1
  0
CELLSTYLEMAP
  5
10B
102
{ACAD_REACTORS
330
10A
102
}
330
10A
100
AcDbCellStyleMap
 90
        3
300
CELLSTYLE
  1
TABLEFORMAT_BEGIN
 90
        5
170
     1
 91
        0
 92
    32768
 62
   257
 93
        1
300
CONTENTFORMAT
  1
CONTENTFORMAT_BEGIN
 90
        0
 91
        0
 92
      512
 93
        0
300

 40
0.0
140
1.0
 94
        5
 62
     0
340
55
144
0.25
309
CONTENTFORMAT_END
171
     0
 94
        0
309
TABLEFORMAT_END
  1
CELLSTYLE_BEGIN
 90
        1
 91
        1
300
_TITLE
309
CELLSTYLE_END
300
CELLSTYLE
  1
TABLEFORMAT_BEGIN
 90
        5
170
     1
 91
        0
 92
        0
 62
   257
 93
        1
300
CONTENTFORMAT
  1
CONTENTFORMAT_BEGIN
 90
        0
 91
        0
 92
      512
 93
        0
300

 40
0.0
140
1.0
 94
        5
 62
     0
340
55
144
0.18
309
CONTENTFORMAT_END
171
     0
 94
        0
309
TABLEFORMAT_END
  1
CELLSTYLE_BEGIN
 90
        2
 91
        1
300
_HEADER
309
CELLSTYLE_END
300
CELLSTYLE
  1
TABLEFORMAT_BEGIN
 90
        5
170
     1
 91
        0
 92
        0
 62
   257
 93
        1
300
CONTENTFORMAT
  1
CONTENTFORMAT_BEGIN
 90
        0
 91
        0
 92
      512
 93
        0
300

 40
0.0
140
1.0
 94
        2
 62
     0
340
55
144
0.18
309
CONTENTFORMAT_END
171
     0
 94
        0
309
TABLEFORMAT_END
  1
CELLSTYLE_BEGIN
 90
        3
 91
        2
300
_DATA
309
CELLSTYLE_END
  0
ENDSEC
  0
EOF
