  0
SECTION
  2
HEADER
  9
$ACADVER
  1
AC1032
  9
$ACADMAINTVER
 90
      228
  9
$DWGCODEPAGE
  3
ANSI_1252
  9
$REQUIREDVERSIONS
160
                 0
  9
$INSBASE
 10
0.0
 20
0.0
 30
0.0
  9
$EXTMIN
 10
1.000000000000000E+20
 20
1.000000000000000E+20
 30
1.000000000000000E+20
  9
$EXTMAX
 10
-1.000000000000000E+20
 20
-1.000000000000000E+20
 30
-1.000000000000000E+20
  9
$LIMMIN
 10
0.0
 20
0.0
  9
$LIMMAX
 10
12.0
 20
9.0
  9
$ORTHOMODE
 70
     0
  9
$REGENMODE
 70
     1
  9
$FILLMODE
 70
     1
  9
$QTEXTMODE
 70
     0
  9
$MIRRTEXT
 70
     0
  9
$LTSCALE
 40
1.0
  9
$ATTMODE
 70
     1
  9
$TEXTSIZE
 40
0.2
  9
$TRACEWID
 40
0.05
  9
$TEXTSTYLE
  7
Standard
  9
$CLAYER
  8
0
  9
$CELTYPE
  6
ByLayer
  9
$CECOLOR
 62
   256
  9
$CELTSCALE
 40
1.0
  9
$DISPSILH
 70
     0
  9
$DIMSCALE
 40
1.0
  9
$DIMASZ
 40
0.18
  9
$DIMEXO
 40
0.0625
  9
$DIMDLI
 40
0.38
  9
$DIMRND
 40
0.0
  9
$DIMDLE
 40
0.0
  9
$DIMEXE
 40
0.18
  9
$DIMTP
 40
0.0
  9
$DIMTM
 40
0.0
  9
$DIMTXT
 40
0.18
  9
$DIMCEN
 40
0.09
  9
$DIMTSZ
 40
0.0
  9
$DIMTOL
 70
     0
  9
$DIMLIM
 70
     0
  9
$DIMTIH
 70
     1
  9
$DIMTOH
 70
     1
  9
$DIMSE1
 70
     0
  9
$DIMSE2
 70
     0
  9
$DIMTAD
 70
     0
  9
$DIMZIN
 70
     0
  9
$DIMBLK
  1

  9
$DIMASO
 70
     1
  9
$DIMSHO
 70
     1
  9
$DIMPOST
  1

  9
$DIMAPOST
  1

  9
$DIMALT
 70
     0
  9
$DIMALTD
 70
     2
  9
$DIMALTF
 40
25.4
  9
$DIMLFAC
 40
1.0
  9
$DIMTOFL
 70
     0
  9
$DIMTVP
 40
0.0
  9
$DIMTIX
 70
     0
  9
$DIMSOXD
 70
     0
  9
$DIMSAH
 70
     0
  9
$DIMBLK1
  1

  9
$DIMBLK2
  1

  9
$DIMSTYLE
  2
Standard
  9
$DIMCLRD
 70
     0
  9
$DIMCLRE
 70
     0
  9
$DIMCLRT
 70
     0
  9
$DIMTFAC
 40
1.0
  9
$DIMGAP
 40
0.09
  9
$DIMJUST
 70
     0
  9
$DIMSD1
 70
     0
  9
$DIMSD2
 70
     0
  9
$DIMTOLJ
 70
     1
  9
$DIMTZIN
 70
     0
  9
$DIMALTZ
 70
     0
  9
$DIMALTTZ
 70
     0
  9
$DIMUPT
 70
     0
  9
$DIMDEC
 70
     4
  9
$DIMTDEC
 70
     4
  9
$DIMALTU
 70
     2
  9
$DIMALTTD
 70
     2
  9
$DIMTXSTY
  7
Standard
  9
$DIMAUNIT
 70
     0
  9
$DIMADEC
 70
     0
  9
$DIMALTRND
 40
0.0
  9
$DIMAZIN
 70
     0
  9
$DIMDSEP
 70
    46
  9
$DIMATFIT
 70
     3
  9
$DIMFRAC
 70
     0
  9
$DIMLDRBLK
  1

  9
$DIMLUNIT
 70
     2
  9
$DIMLWD
 70
    -2
  9
$DIMLWE
 70
    -2
  9
$DIMTMOVE
 70
     0
  9
$DIMFXL
 40
1.0
  9
$DIMFXLON
 70
     0
  9
$DIMJOGANG
 40
0.7853981633974483
  9
$DIMTFILL
 70
     0
  9
$DIMTFILLCLR
 70
     0
  9
$DIMARCSYM
 70
     0
  9
$DIMLTYPE
  6

  9
$DIMLTEX1
  6

  9
$DIMLTEX2
  6

  9
$DIMTXTDIRECTION
 70
     0
  9
$LUNITS
 70
     2
  9
$LUPREC
 70
     4
  9
$SKETCHINC
 40
0.1
  9
$FILLETRAD
 40
0.0
  9
$AUNITS
 70
     0
  9
$AUPREC
 70
     0
  9
$MENU
  1
.
  9
$ELEVATION
 40
0.0
  9
$PELEVATION
 40
0.0
  9
$THICKNESS
 40
0.0
  9
$LIMCHECK
 70
     0
  9
$CHAMFERA
 40
0.0
  9
$CHAMFERB
 40
0.0
  9
$CHAMFERC
 40
0.0
  9
$CHAMFERD
 40
0.0
  9
$SKPOLY
 70
     0
  9
$TDCREATE
 40
2460496.818159722
  9
$TDUCREATE
 40
2460497.109826389
  9
$TDUPDATE
 40
2460496.818159722
  9
$TDUUPDATE
 40
2460497.109826389
  9
$TDINDWG
 40
0.0000000000
  9
$TDUSRTIMER
 40
0.0000000000
  9
$USRTIMER
 70
     1
  9
$ANGBASE
 50
0.0
  9
$ANGDIR
 70
     0
  9
$PDMODE
 70
     0
  9
$PDSIZE
 40
0.0
  9
$PLINEWID
 40
0.0
  9
$SPLFRAME
 70
     0
  9
$SPLINETYPE
 70
     6
  9
$SPLINESEGS
 70
     8
  9
$HANDSEED
  5
F8
  9
$SURFTAB1
 70
     6
  9
$SURFTAB2
 70
     6
  9
$SURFTYPE
 70
     6
  9
$SURFU
 70
     6
  9
$SURFV
 70
     6
  9
$UCSBASE
  2

  9
$UCSNAME
  2

  9
$UCSORG
 10
0.0
 20
0.0
 30
0.0
  9
$UCSXDIR
 10
1.0
 20
0.0
 30
0.0
  9
$UCSYDIR
 10
0.0
 20
1.0
 30
0.0
  9
$UCSORTHOREF
  2

  9
$UCSORTHOVIEW
 70
     0
  9
$UCSORGTOP
 10
0.0
 20
0.0
 30
0.0
  9
$UCSORGBOTTOM
 10
0.0
 20
0.0
 30
0.0
  9
$UCSORGLEFT
 10
0.0
 20
0.0
 30
0.0
  9
$UCSORGRIGHT
 10
0.0
 20
0.0
 30
0.0
  9
$UCSORGFRONT
 10
0.0
 20
0.0
 30
0.0
  9
$UCSORGBACK
 10
0.0
 20
0.0
 30
0.0
  9
$PUCSBASE
  2

  9
$PUCSNAME
  2

  9
$PUCSORG
 10
0.0
 20
0.0
 30
0.0
  9
$PUCSXDIR
 10
1.0
 20
0.0
 30
0.0
  9
$PUCSYDIR
 10
0.0
 20
1.0
 30
0.0
  9
$PUCSORTHOREF
  2

  9
$PUCSORTHOVIEW
 70
     0
  9
$PUCSORGTOP
 10
0.0
 20
0.0
 30
0.0
  9
$PUCSORGBOTTOM
 10
0.0
 20
0.0
 30
0.0
  9
$PUCSORGLEFT
 10
0.0
 20
0.0
 30
0.0
  9
$PUCSORGRIGHT
 10
0.0
 20
0.0
 30
0.0
  9
$PUCSORGFRONT
 10
0.0
 20
0.0
 30
0.0
  9
$PUCSORGBACK
 10
0.0
 20
0.0
 30
0.0
  9
$USERI1
 70
     0
  9
$USERI2
 70
     0
  9
$USERI3
 70
     0
  9
$USERI4
 70
     0
  9
$USERI5
 70
     0
  9
$USERR1
 40
0.0
  9
$USERR2
 40
0.0
  9
$USERR3
 40
0.0
  9
$USERR4
 40
0.0
  9
$USERR5
 40
0.0
  9
$WORLDVIEW
 70
     1
  9
$SHADEDGE
 70
     3
  9
$SHADEDIF
 70
    70
  9
$TILEMODE
 70
     1
  9
$MAXACTVP
 70
    64
  9
$PINSBASE
 10
0.0
 20
0.0
 30
0.0
  9
$PLIMCHECK
 70
     0
  9
$PEXTMIN
 10
1.000000000000000E+20
 20
1.000000000000000E+20
 30
1.000000000000000E+20
  9
$PEXTMAX
 10
-1.000000000000000E+20
 20
-1.000000000000000E+20
 30
-1.000000000000000E+20
  9
$PLIMMIN
 10
0.0
 20
0.0
  9
$PLIMMAX
 10
12.0
 20
9.0
  9
$UNITMODE
 70
     0
  9
$VISRETAIN
 70
     1
  9
$PLINEGEN
 70
     0
  9
$PSLTSCALE
 70
     1
  9
$TREEDEPTH
 70
  3020
  9
$CMLSTYLE
  2
Standard
  9
$CMLJUST
 70
     0
  9
$CMLSCALE
 40
1.0
  9
$PROXYGRAPHICS
 70
     1
  9
$MEASUREMENT
 70
     0
  9
$CELWEIGHT
370
    -1
  9
$ENDCAPS
280
     0
  9
$JOINSTYLE
280
     0
  9
$LWDISPLAY
290
     1
  9
$INSUNITS
 70
     1
  9
$HYPERLINKBASE
  1

  9
$STYLESHEET
  1

  9
$XEDIT
290
     1
  9
$CEPSNTYPE
380
     0
  9
$PSTYLEMODE
290
     1
  9
$FINGERPRINTGUID
  2
{ABD0E8A1-5D5D-4C4A-9490-B391BBA891EE}
  9
$VERSIONGUID
  2
{683A28C4-D4AD-AC4B-9FEE-F42822EE0FC5}
  9
$EXTNAMES
290
     1
  9
$PSVPSCALE
 40
0.0
  9
$OLESTARTUP
290
     0
  9
$SORTENTS
280
   127
  9
$INDEXCTL
280
     0
  9
$HIDETEXT
280
     1
  9
$XCLIPFRAME
280
     2
  9
$HALOGAP
280
     0
  9
$OBSCOLOR
 70
   257
  9
$OBSLTYPE
280
     0
  9
$INTERSECTIONDISPLAY
280
     0
  9
$INTERSECTIONCOLOR
 70
   257
  9
$DIMASSOC
280
     2
  9
$PROJECTNAME
  1

  9
$CAMERADISPLAY
290
     0
  9
$LENSLENGTH
 40
50.0
  9
$CAMERAHEIGHT
 40
0.0
  9
$STEPSPERSEC
 40
2.0
  9
$STEPSIZE
 40
6.0
  9
$3DDWFPREC
 40
2.0
  9
$PSOLWIDTH
 40
0.25
  9
$PSOLHEIGHT
 40
4.0
  9
$LOFTANG1
 40
1.570796326794896
  9
$LOFTANG2
 40
1.570796326794896
  9
$LOFTMAG1
 40
0.0
  9
$LOFTMAG2
 40
0.0
  9
$LOFTPARAM
 70
     7
  9
$LOFTNORMALS
280
     1
  9
$LATITUDE
 40
37.795
  9
$LONGITUDE
 40
-122.394
  9
$NORTHDIRECTION
 40
0.0
  9
$TIMEZONE
 70
 -8000
  9
$LIGHTGLYPHDISPLAY
280
     1
  9
$TILEMODELIGHTSYNCH
280
     1
  9
$CMATERIAL
347
11
  9
$SOLIDHIST
280
     0
  9
$SHOWHIST
280
     1
  9
$DWFFRAME
280
     2
  9
$DGNFRAME
280
     0
  9
$REALWORLDSCALE
290
     1
  9
$INTERFERECOLOR
 62
     1
  9
$INTERFEREOBJVS
345
33
  9
$INTERFEREVPVS
346
30
  9
$CSHADOW
280
     0
  9
$SHADOWPLANELOCATION
 40
0.0
  0
ENDSEC
  0
SECTION
  2
CLASSES
  0
CLASS
  1
ACDBDICTIONARYWDFLT
  2
AcDbDictionaryWithDefault
  3
ObjectDBX Classes
 90
        0
 91
        1
280
     0
281
     0
  0
CLASS
  1
MATERIAL
  2
AcDbMaterial
  3
ObjectDBX Classes
 90
     1153
 91
        3
280
     0
281
     0
  0
CLASS
  1
VISUALSTYLE
  2
AcDbVisualStyle
  3
ObjectDBX Classes
 90
     4095
 91
       24
280
     0
281
     0
  0
CLASS
  1
SCALE
  2
AcDbScale
  3
ObjectDBX Classes
 90
     1153
 91
       17
280
     0
281
     0
  0
CLASS
  1
TABLESTYLE
  2
AcDbTableStyle
  3
ObjectDBX Classes
 90
     4095
 91
        1
280
     0
281
     0
  0
CLASS
  1
MLEADERSTYLE
  2
AcDbMLeaderStyle
  3
ACDB_MLEADERSTYLE_CLASS
 90
     4095
 91
        1
280
     0
281
     0
  0
CLASS
  1
ACDBSECTIONVIEWSTYLE
  2
AcDbSectionViewStyle
  3
ObjectDBX Classes
 90
     1025
 91
        1
280
     0
281
     0
  0
CLASS
  1
ACDBDETAILVIEWSTYLE
  2
AcDbDetailViewStyle
  3
ObjectDBX Classes
 90
     1025
 91
        1
280
     0
281
     0
  0
CLASS
  1
DICTIONARYVAR
  2
AcDbDictionaryVar
  3
ObjectDBX Classes
 90
        0
 91
        5
280
     0
281
     0
  0
CLASS
  1
CELLSTYLEMAP
  2
AcDbCellStyleMap
  3
ObjectDBX Classes
 90
     1152
 91
        1
280
     0
281
     0
  0
ENDSEC
  0
SECTION
  2
TABLES
  0
TABLE
  2
VPORT
  5
8
330
0
100
AcDbSymbolTable
 70
     1
  0
VPORT
  5
57
330
8
100
AcDbSymbolTableRecord
100
AcDbViewportTableRecord
  2
*Active
 70
     0
 10
0.0
 20
0.0
 11
1.0
 21
1.0
 12
0.0
 22
0.0
 13
0.0
 23
0.0
 14
1.0
 24
1.0
 15
0.0
 25
0.0
 16
0.0
 26
0.0
 36
1.0
 17
0.9063715204259281
 27
-9.464948306989626
 37
0.0
 40
28.18769568220839
 41
1.322120462652983
 42
50.0
 43
0.0
 44
0.0
 50
0.0
 51
0.0
 71
     0
 72
   100
 73
     1
 74
     1
 75
     0
 76
     0
 77
     0
 78
     0
281
     0
 65
     1
110
0.0
120
0.0
130
0.0
111
1.0
121
0.0
131
0.0
112
0.0
122
1.0
132
0.0
 79
     0
146
0.0
 60
     3
 61
     5
292
     1
282
     1
141
0.0
142
0.0
 63
   250
421
  3355443
  0
ENDTAB
  0
TABLE
  2
LTYPE
  5
5
330
0
100
AcDbSymbolTable
 70
     1
  0
LTYPE
  5
5B
330
5
100
AcDbSymbolTableRecord
100
AcDbLinetypeTableRecord
  2
ByBlock
 70
     0
  3

 72
    65
 73
     0
 40
0.0
  0
LTYPE
  5
5C
330
5
100
AcDbSymbolTableRecord
100
AcDbLinetypeTableRecord
  2
ByLayer
 70
     0
  3

 72
    65
 73
     0
 40
0.0
  0
LTYPE
  5
5D
330
5
100
AcDbSymbolTableRecord
100
AcDbLinetypeTableRecord
  2
Continuous
 70
     0
  3
Solid line
 72
    65
 73
     0
 40
0.0
  0
ENDTAB
  0
TABLE
  2
LAYER
  5
2
330
0
100
AcDbSymbolTable
 70
     8
  0
LAYER
  5
54
330
2
100
AcDbSymbolTableRecord
100
AcDbLayerTableRecord
  2
0
 70
     0
 62
     7
  6
Continuous
370
    -3
390
F
347
21
348
0
  0
LAYER
  5
78
330
2
100
AcDbSymbolTableRecord
100
AcDbLayerTableRecord
  2
Luffy
 70
     1
 62
     7
  6
Continuous
370
     0
390
F
347
21
348
0
  0
LAYER
  5
79
330
2
100
AcDbSymbolTableRecord
100
AcDbLayerTableRecord
  2
Deck Box - DF
 70
     0
 62
     7
  6
Continuous
370
     0
390
F
347
21
348
0
  0
LAYER
  5
EA
330
2
100
AcDbSymbolTableRecord
100
AcDbLayerTableRecord
  2
Deck Box - G5
 70
     1
 62
     7
  6
Continuous
370
     0
390
F
347
21
348
0
  0
LAYER
  5
EB
330
2
100
AcDbSymbolTableRecord
100
AcDbLayerTableRecord
  2
Poneglyph
 70
     1
 62
     7
  6
Continuous
370
     0
390
F
347
21
348
0
  0
LAYER
  5
EC
330
2
100
AcDbSymbolTableRecord
100
AcDbLayerTableRecord
  2
Crocodile
 70
     1
 62
     7
  6
Continuous
370
     0
390
F
347
21
348
0
  0
LAYER
  5
ED
330
2
100
AcDbSymbolTableRecord
100
AcDbLayerTableRecord
  2
Layer 2
 70
     5
 62
     7
  6
Continuous
370
     0
390
F
347
21
348
0
  0
LAYER
  5
EE
330
2
100
AcDbSymbolTableRecord
100
AcDbLayerTableRecord
  2
Lid
 70
     1
 62
     7
  6
Continuous
370
     0
390
F
347
21
348
0
  0
ENDTAB
  0
TABLE
  2
STYLE
  5
3
330
0
100
AcDbSymbolTable
 70
     2
  0
STYLE
  5
55
330
3
100
AcDbSymbolTableRecord
100
AcDbTextStyleTableRecord
  2
Standard
 70
     0
 40
0.0
 41
1.0
 50
0.0
 71
     0
 42
0.2
  3
txt
  4

  0
STYLE
  5
5A
330
3
100
AcDbSymbolTableRecord
100
AcDbTextStyleTableRecord
  2
Annotative
 70
     0
 40
0.0
 41
1.0
 50
0.0
 71
     0
 42
0.2
  3
txt
  4

1001
AcadAnnotative
1000
AnnotativeData
1002
{
1070
     1
1070
     1
1002
}
  0
ENDTAB
  0
TABLE
  2
VIEW
  5
6
330
0
100
AcDbSymbolTable
 70
     0
  0
ENDTAB
  0
TABLE
  2
UCS
  5
7
330
0
100
AcDbSymbolTable
 70
     0
  0
ENDTAB
  0
TABLE
  2
APPID
  5
9
330
0
100
AcDbSymbolTable
 70
     2
  0
APPID
  5
56
330
9
100
AcDbSymbolTableRecord
100
AcDbRegAppTableRecord
  2
ACAD
 70
     0
  0
APPID
  5
5E
330
9
100
AcDbSymbolTableRecord
100
AcDbRegAppTableRecord
  2
AcadAnnotative
 70
     0
  0
ENDTAB
  0
TABLE
  2
DIMSTYLE
  5
A
330
0
100
AcDbSymbolTable
 70
     2
100
AcDbDimStyleTable
 71
     0
  0
DIMSTYLE
105
58
330
A
100
AcDbSymbolTableRecord
100
AcDbDimStyleTableRecord
  2
Standard
 70
     0
340
55
  0
DIMSTYLE
105
59
330
A
100
AcDbSymbolTableRecord
100
AcDbDimStyleTableRecord
  2
Annotative
 70
     0
340
55
1001
AcadAnnotative
1000
AnnotativeData
1002
{
1070
     1
1070
     1
1002
}
  0
ENDTAB
  0
TABLE
  2
BLOCK_RECORD
  5
1
330
0
100
AcDbSymbolTable
 70
     3
  0
BLOCK_RECORD
  5
70
330
1
100
AcDbSymbolTableRecord
100
AcDbBlockTableRecord
  2
*Model_Space
340
73
 70
     0
280
     1
281
     0
  0
BLOCK_RECORD
  5
6C
330
1
100
AcDbSymbolTableRecord
100
AcDbBlockTableRecord
  2
*Paper_Space
340
6F
 70
     0
280
     1
281
     0
  0
BLOCK_RECORD
  5
74
330
1
100
AcDbSymbolTableRecord
100
AcDbBlockTableRecord
  2
*Paper_Space0
340
77
 70
     0
280
     1
281
     0
  0
BLOCK_RECORD
  5
7A
330
1
100
AcDbSymbolTableRecord
100
AcDbBlockTableRecord
  2
Block_0
340
0
102
{BLKREFS
331
7B
102
}
 70
     0
280
     1
281
     0
  0
BLOCK_RECORD
  5
7E
330
1
100
AcDbSymbolTableRecord
100
AcDbBlockTableRecord
  2
Block_1
340
0
102
{BLKREFS
331
7F
102
}
 70
     0
280
     1
281
     0
  0
ENDTAB
  0
ENDSEC
  0
SECTION
  2
BLOCKS
  0
BLOCK
  5
71
330
70
100
AcDbEntity
  8
0
100
AcDbBlockBegin
  2
*Model_Space
 70
     0
 10
0.0
 20
0.0
 30
0.0
  3
*Model_Space
  1

  0
ENDBLK
  5
72
330
70
100
AcDbEntity
  8
0
100
AcDbBlockEnd
  0
BLOCK
  5
6D
330
6C
100
AcDbEntity
 67
     1
  8
0
100
AcDbBlockBegin
  2
*Paper_Space
 70
     0
 10
0.0
 20
0.0
 30
0.0
  3
*Paper_Space
  1

  0
ENDBLK
  5
6E
330
6C
100
AcDbEntity
 67
     1
  8
0
100
AcDbBlockEnd
  0
BLOCK
  5
75
330
74
100
AcDbEntity
 67
     1
  8
0
100
AcDbBlockBegin
  2
*Paper_Space0
 70
     0
 10
0.0
 20
0.0
 30
0.0
  3
*Paper_Space0
  1

  0
ENDBLK
  5
76
330
74
100
AcDbEntity
 67
     1
  8
0
100
AcDbBlockEnd
  0
BLOCK
  5
7C
330
7A
100
AcDbEntity
  8
0
100
AcDbBlockBegin
  2
Block_0
 70
     0
 10
0.0
 20
0.0
 30
0.0
  3
Block_0
  1

  0
INSERT
  5
7F
330
7A
100
AcDbEntity
  8
Deck Box - DF
100
AcDbBlockReference
  2
Block_1
 10
0.0
 20
0.0
 30
0.0
  0
LWPOLYLINE
  5
E8
330
7A
100
AcDbEntity
  8
Deck Box - DF
100
AcDbPolyline
 90
        3
 70
     0
 43
0.0
 10
0.7070930544958856
 20
-0.6557105278893687
 10
0.7070930544958856
 20
-0.5871526082676281
 10
0.7791970734084291
 20
-0.5871526082676281
  0
HATCH
  5
E9
330
7A
100
AcDbEntity
  8
Deck Box - DF
 62
   240
420
 15539236
440
 33554687
100
AcDbHatch
 10
0.0
 20
0.0
 30
0.0
210
0.0
220
0.0
230
1.0
  2
SOLID
 70
     1
 71
     1
 91
        1
 92
        3
 72
     0
 73
     1
 93
        3
 10
0.7070930544958856
 20
-0.6557105278893687
 10
0.7070930544958856
 20
-0.5871526082676281
 10
0.7791970734084291
 20
-0.5871526082676281
 97
        0
 75
     2
 76
     1
 98
        1
 10
0.0
 20
0.0
450
        0
451
        0
460
0.0
461
0.0
452
        0
462
0.0
453
        0
470

  0
ENDBLK
  5
7D
330
7A
100
AcDbEntity
  8
0
100
AcDbBlockEnd
  0
BLOCK
  5
80
330
7E
100
AcDbEntity
  8
0
100
AcDbBlockBegin
  2
Block_1
 70
     0
 10
0.0
 20
0.0
 30
0.0
  3
Block_1
  1

  0
SPLINE
  5
82
330
7E
100
AcDbEntity
  8
Deck Box - DF
100
AcDbSpline
210
0.0
220
0.0
230
1.0
 70
     9
 71
     3
 72
    23
 73
    19
 74
     0
 42
0.0000000001
 43
0.0000000001
 40
0.0
 40
0.0
 40
0.0
 40
0.0
 40
1.0
 40
1.0
 40
1.0
 40
2.0
 40
2.0
 40
2.0
 40
3.0
 40
3.0
 40
3.0
 40
4.0
 40
4.0
 40
4.0
 40
5.0
 40
5.0
 40
5.0
 40
6.0
 40
6.0
 40
6.0
 40
6.0
 10
0.858545210108976
 20
-1.045557657877604
 30
0.0
 10
0.858545210108976
 20
-1.045557657877604
 30
0.0
 10
0.858545210108976
 20
-1.115193684895833
 30
0.0
 10
0.858545210108976
 20
-1.115193684895833
 30
0.0
 10
0.9271492060459346
 20
-1.064538297905313
 30
0.0
 10
0.9997468303878601
 20
-1.191989053701591
 30
0.0
 10
0.9068054553536814
 20
-1.198596297574529
 30
0.0
 10
0.8999168735204344
 20
-1.191885206434461
 30
0.0
 10
0.8860525682361462
 20
-1.175237867567274
 30
0.0
 10
0.9028355407838892
 20
-1.1834962632921
 30
0.0
 10
0.9950427076675698
 20
-1.15365261501736
 30
0.0
 10
0.9064357672921358
 20
-1.107810974121093
 30
0.0
 10
0.858545210108976
 20
-1.127809312608506
 30
0.0
 10
0.858545210108976
 20
-1.127809312608506
 30
0.0
 10
0.858545210108976
 20
-1.216342502170138
 30
0.0
 10
0.858545210108976
 20
-1.216342502170138
 30
0.0
 10
1.060225711411059
 20
-1.386386447482638
 30
0.0
 10
1.045131378186233
 20
-0.9914076063368055
 30
0.0
 10
0.858545210108976
 20
-1.045557657877604
 30
0.0
  0
HATCH
  5
83
330
7E
100
AcDbEntity
  8
Deck Box - DF
 62
   250
420
  2301728
440
 33554687
100
AcDbHatch
 10
0.0
 20
0.0
 30
0.0
210
0.0
220
0.0
230
1.0
  2
SOLID
 70
     1
 71
     1
 91
        1
 92
        1
 93
        1
 72
     4
 94
        3
 73
     0
 74
     0
 95
       23
 96
       19
 40
0.0
 40
0.0
 40
0.0
 40
0.0
 40
1.0
 40
1.0
 40
1.0
 40
2.0
 40
2.0
 40
2.0
 40
3.0
 40
3.0
 40
3.0
 40
4.0
 40
4.0
 40
4.0
 40
5.0
 40
5.0
 40
5.0
 40
6.0
 40
6.0
 40
6.0
 40
6.0
 10
0.858545210108976
 20
-1.045557657877604
 10
0.858545210108976
 20
-1.045557657877604
 10
0.858545210108976
 20
-1.115193684895833
 10
0.858545210108976
 20
-1.115193684895833
 10
0.9271492060459346
 20
-1.064538297905313
 10
0.9997468303878601
 20
-1.191989053701591
 10
0.9068054553536814
 20
-1.198596297574529
 10
0.8999168735204344
 20
-1.191885206434461
 10
0.8860525682361462
 20
-1.175237867567274
 10
0.9028355407838892
 20
-1.1834962632921
 10
0.9950427076675698
 20
-1.15365261501736
 10
0.9064357672921358
 20
-1.107810974121093
 10
0.858545210108976
 20
-1.127809312608506
 10
0.858545210108976
 20
-1.127809312608506
 10
0.858545210108976
 20
-1.216342502170138
 10
0.858545210108976
 20
-1.216342502170138
 10
1.060225711411059
 20
-1.386386447482638
 10
1.045131378186233
 20
-0.9914076063368055
 10
0.858545210108976
 20
-1.045557657877604
 97
        0
 97
        1
330
82
 75
     2
 76
     1
 98
        1
 10
0.0
 20
0.0
450
        0
451
        0
460
0.0
461
0.0
452
        0
462
0.0
453
        0
470

  0
SPLINE
  5
84
330
7E
100
AcDbEntity
  8
Deck Box - DF
100
AcDbSpline
210
0.0
220
0.0
230
1.0
 70
     9
 71
     3
 72
    11
 73
     7
 74
     0
 42
0.0000000001
 43
0.0000000001
 40
0.0
 40
0.0
 40
0.0
 40
0.0
 40
1.0
 40
1.0
 40
1.0
 40
2.0
 40
2.0
 40
2.0
 40
2.0
 10
1.10319954767408
 20
-0.7361111111111111
 30
0.0
 10
1.187739912482723
 20
-0.8148139591056885
 30
0.0
 10
1.324220634282647
 20
-0.7796068722841988
 30
0.0
 10
1.327591908785191
 20
-0.7361111111111111
 30
0.0
 10
1.327591908785191
 20
-0.7361111111111111
 30
0.0
 10
1.10319954767408
 20
-0.7361111111111111
 30
0.0
 10
1.10319954767408
 20
-0.7361111111111111
 30
0.0
  0
HATCH
  5
85
330
7E
100
AcDbEntity
  8
Deck Box - DF
 62
   250
420
  2301728
440
 33554687
100
AcDbHatch
 10
0.0
 20
0.0
 30
0.0
210
0.0
220
0.0
230
1.0
  2
SOLID
 70
     1
 71
     1
 91
        1
 92
        1
 93
        1
 72
     4
 94
        3
 73
     0
 74
     0
 95
       11
 96
        7
 40
0.0
 40
0.0
 40
0.0
 40
0.0
 40
1.0
 40
1.0
 40
1.0
 40
2.0
 40
2.0
 40
2.0
 40
2.0
 10
1.10319954767408
 20
-0.7361111111111111
 10
1.187739912482723
 20
-0.8148139591056885
 10
1.324220634282647
 20
-0.7796068722841988
 10
1.327591908785191
 20
-0.7361111111111111
 10
1.327591908785191
 20
-0.7361111111111111
 10
1.10319954767408
 20
-0.7361111111111111
 10
1.10319954767408
 20
-0.7361111111111111
 97
        0
 97
        1
330
84
 75
     2
 76
     1
 98
        1
 10
0.0
 20
0.0
450
        0
451
        0
460
0.0
461
0.0
452
        0
462
0.0
453
        0
470

  0
SPLINE
  5
86
330
7E
100
AcDbEntity
  8
Deck Box - DF
100
AcDbSpline
210
0.0
220
0.0
230
1.0
 70
     9
 71
     3
 72
    11
 73
     7
 74
     0
 42
0.0000000001
 43
0.0000000001
 40
0.0
 40
0.0
 40
0.0
 40
0.0
 40
1.0
 40
1.0
 40
1.0
 40
2.0
 40
2.0
 40
2.0
 40
2.0
 10
1.646776953815573
 20
-0.8915176391601562
 30
0.0
 10
1.541683739568611
 20
-0.9262093438042533
 30
0.0
 10
1.685226559121562
 20
-0.9835400051540798
 30
0.0
 10
1.709909345851163
 20
-0.9246546427408853
 30
0.0
 10
1.674075775158889
 20
-1.047330220540364
 30
0.0
 10
1.528707834891962
 20
-0.8662812974717882
 30
0.0
 10
1.646776953815573
 20
-0.8915176391601562
 30
0.0
  0
SPLINE
  5
87
330
7E
100
AcDbEntity
  8
Deck Box - DF
100
AcDbSpline
210
0.0
220
0.0
230
1.0
 70
     9
 71
     3
 72
    23
 73
    19
 74
     0
 42
0.0000000001
 43
0.0000000001
 40
0.0
 40
0.0
 40
0.0
 40
0.0
 40
1.0
 40
1.0
 40
1.0
 40
2.0
 40
2.0
 40
2.0
 40
3.0
 40
3.0
 40
3.0
 40
4.0
 40
4.0
 40
4.0
 40
5.0
 40
5.0
 40
5.0
 40
6.0
 40
6.0
 40
6.0
 40
6.0
 10
1.744322153739618
 20
-0.7361111111111111
 30
0.0
 10
1.691441076995185
 20
-0.7735034905575099
 30
0.0
 10
1.728597380476799
 20
-0.8773062694838245
 30
0.0
 10
1.713093346502205
 20
-0.9115490383572048
 30
0.0
 10
1.521492554025371
 20
-0.5774794566182461
 30
0.0
 10
1.462503986031783
 20
-1.234223998989667
 30
0.0
 10
1.785698566540228
 20
-0.9622865516136394
 30
0.0
 10
1.80634658814717
 20
-0.5719350179036458
 30
0.0
 10
1.991818016912361
 20
-0.8900239732530382
 30
0.0
 10
1.871423628077726
 20
-0.8401336669921875
 30
0.0
 10
1.938291880302118
 20
-0.8447104560004339
 30
0.0
 10
1.899053056517396
 20
-0.760988023546007
 30
0.0
 10
1.847125701916701
 20
-0.7789815266927083
 30
0.0
 10
1.674605594223559
 20
-0.9625379774305555
 30
0.0
 10
2.124489796968785
 20
-0.94573974609375
 30
0.0
 10
1.932985212550382
 20
-0.7361111111111111
 30
0.0
 10
1.932985212550382
 20
-0.7361111111111111
 30
0.0
 10
1.744322153739618
 20
-0.7361111111111111
 30
0.0
 10
1.744322153739618
 20
-0.7361111111111111
 30
0.0
  0
HATCH
  5
88
330
7E
100
AcDbEntity
  8
Deck Box - DF
 62
   250
420
  2301728
440
 33554687
100
AcDbHatch
 10
0.0
 20
0.0
 30
0.0
210
0.0
220
0.0
230
1.0
  2
SOLID
 70
     1
 71
     1
 91
        2
 92
        1
 93
        1
 72
     4
 94
        3
 73
     0
 74
     0
 95
       11
 96
        7
 40
0.0
 40
0.0
 40
0.0
 40
0.0
 40
1.0
 40
1.0
 40
1.0
 40
2.0
 40
2.0
 40
2.0
 40
2.0
 10
1.646776953815573
 20
-0.8915176391601562
 10
1.541683739568611
 20
-0.9262093438042533
 10
1.685226559121562
 20
-0.9835400051540798
 10
1.709909345851163
 20
-0.9246546427408853
 10
1.674075775158889
 20
-1.047330220540364
 10
1.528707834891962
 20
-0.8662812974717882
 10
1.646776953815573
 20
-0.8915176391601562
 97
        0
 97
        1
330
86
 92
        1
 93
        1
 72
     4
 94
        3
 73
     0
 74
     0
 95
       23
 96
       19
 40
0.0
 40
0.0
 40
0.0
 40
0.0
 40
1.0
 40
1.0
 40
1.0
 40
2.0
 40
2.0
 40
2.0
 40
3.0
 40
3.0
 40
3.0
 40
4.0
 40
4.0
 40
4.0
 40
5.0
 40
5.0
 40
5.0
 40
6.0
 40
6.0
 40
6.0
 40
6.0
 10
1.744322153739618
 20
-0.7361111111111111
 10
1.691441076995185
 20
-0.7735034905575099
 10
1.728597380476799
 20
-0.8773062694838245
 10
1.713093346502205
 20
-0.9115490383572048
 10
1.521492554025371
 20
-0.5774794566182461
 10
1.462503986031783
 20
-1.234223998989667
 10
1.785698566540228
 20
-0.9622865516136394
 10
1.80634658814717
 20
-0.5719350179036458
 10
1.991818016912361
 20
-0.8900239732530382
 10
1.871423628077726
 20
-0.8401336669921875
 10
1.938291880302118
 20
-0.8447104560004339
 10
1.899053056517396
 20
-0.760988023546007
 10
1.847125701916701
 20
-0.7789815266927083
 10
1.674605594223559
 20
-0.9625379774305555
 10
2.124489796968785
 20
-0.94573974609375
 10
1.932985212550382
 20
-0.7361111111111111
 10
1.932985212550382
 20
-0.7361111111111111
 10
1.744322153739618
 20
-0.7361111111111111
 10
1.744322153739618
 20
-0.7361111111111111
 97
        0
 97
        1
330
87
 75
     2
 76
     1
 98
        1
 10
0.0
 20
0.0
450
        0
451
        0
460
0.0
461
0.0
452
        0
462
0.0
453
        0
470

  0
SPLINE
  5
89
330
7E
100
AcDbEntity
  8
Deck Box - DF
100
AcDbSpline
210
0.0
220
0.0
230
1.0
 70
     9
 71
     3
 72
    11
 73
     7
 74
     0
 42
0.0000000001
 43
0.0000000001
 40
0.0
 40
0.0
 40
0.0
 40
0.0
 40
1.0
 40
1.0
 40
1.0
 40
2.0
 40
2.0
 40
2.0
 40
2.0
 10
2.060825890447517
 20
-0.7361111111111111
 30
0.0
 10
2.090118526895
 20
-0.7742835150824653
 30
0.0
 10
2.111240081799514
 20
-0.7607947455512153
 30
0.0
 10
2.117170664481805
 20
-0.7361111111111111
 30
0.0
 10
2.117170664481805
 20
-0.7361111111111111
 30
0.0
 10
2.060825890447517
 20
-0.7361111111111111
 30
0.0
 10
2.060825890447517
 20
-0.7361111111111111
 30
0.0
  0
HATCH
  5
8A
330
7E
100
AcDbEntity
  8
Deck Box - DF
 62
   250
420
  2301728
440
 33554687
100
AcDbHatch
 10
0.0
 20
0.0
 30
0.0
210
0.0
220
0.0
230
1.0
  2
SOLID
 70
     1
 71
     1
 91
        1
 92
        1
 93
        1
 72
     4
 94
        3
 73
     0
 74
     0
 95
       11
 96
        7
 40
0.0
 40
0.0
 40
0.0
 40
0.0
 40
1.0
 40
1.0
 40
1.0
 40
2.0
 40
2.0
 40
2.0
 40
2.0
 10
2.060825890447517
 20
-0.7361111111111111
 10
2.090118526895
 20
-0.7742835150824653
 10
2.111240081799514
 20
-0.7607947455512153
 10
2.117170664481805
 20
-0.7361111111111111
 10
2.117170664481805
 20
-0.7361111111111111
 10
2.060825890447517
 20
-0.7361111111111111
 10
2.060825890447517
 20
-0.7361111111111111
 97
        0
 97
        1
330
89
 75
     2
 76
     1
 98
        1
 10
0.0
 20
0.0
450
        0
451
        0
460
0.0
461
0.0
452
        0
462
0.0
453
        0
470

  0
SPLINE
  5
8B
330
7E
100
AcDbEntity
  8
Deck Box - DF
100
AcDbSpline
210
0.0
220
0.0
230
1.0
 70
     9
 71
     3
 72
    17
 73
    13
 74
     0
 42
0.0000000001
 43
0.0000000001
 40
0.0
 40
0.0
 40
0.0
 40
0.0
 40
1.0
 40
1.0
 40
1.0
 40
2.0
 40
2.0
 40
2.0
 40
3.0
 40
3.0
 40
3.0
 40
4.0
 40
4.0
 40
4.0
 40
4.0
 10
2.135295562756545
 20
-0.7361111111111111
 30
0.0
 10
2.121682289411271
 20
-0.7722022125417804
 30
0.0
 10
2.043502817718389
 20
-0.785264325507506
 30
0.0
 10
2.046405487072951
 20
-0.7361111111111111
 30
0.0
 10
2.046405487072951
 20
-0.7361111111111111
 30
0.0
 10
1.98542373658467
 20
-0.7361111111111111
 30
0.0
 10
1.98542373658467
 20
-0.7361111111111111
 30
0.0
 10
1.976460013341162
 20
-0.8657075672359091
 30
0.0
 10
2.186489652459575
 20
-0.8364985114412522
 30
0.0
 10
2.191637793659323
 20
-0.7361111111111111
 30
0.0
 10
2.191637793659323
 20
-0.7361111111111111
 30
0.0
 10
2.135295562756545
 20
-0.7361111111111111
 30
0.0
 10
2.135295562756545
 20
-0.7361111111111111
 30
0.0
  0
HATCH
  5
8C
330
7E
100
AcDbEntity
  8
Deck Box - DF
 62
   250
420
  2301728
440
 33554687
100
AcDbHatch
 10
0.0
 20
0.0
 30
0.0
210
0.0
220
0.0
230
1.0
  2
SOLID
 70
     1
 71
     1
 91
        1
 92
        1
 93
        1
 72
     4
 94
        3
 73
     0
 74
     0
 95
       17
 96
       13
 40
0.0
 40
0.0
 40
0.0
 40
0.0
 40
1.0
 40
1.0
 40
1.0
 40
2.0
 40
2.0
 40
2.0
 40
3.0
 40
3.0
 40
3.0
 40
4.0
 40
4.0
 40
4.0
 40
4.0
 10
2.135295562756545
 20
-0.7361111111111111
 10
2.121682289411271
 20
-0.7722022125417804
 10
2.043502817718389
 20
-0.785264325507506
 10
2.046405487072951
 20
-0.7361111111111111
 10
2.046405487072951
 20
-0.7361111111111111
 10
1.98542373658467
 20
-0.7361111111111111
 10
1.98542373658467
 20
-0.7361111111111111
 10
1.976460013341162
 20
-0.8657075672359091
 10
2.186489652459575
 20
-0.8364985114412522
 10
2.191637793659323
 20
-0.7361111111111111
 10
2.191637793659323
 20
-0.7361111111111111
 10
2.135295562756545
 20
-0.7361111111111111
 10
2.135295562756545
 20
-0.7361111111111111
 97
        0
 97
        1
330
8B
 75
     2
 76
     1
 98
        1
 10
0.0
 20
0.0
450
        0
451
        0
460
0.0
461
0.0
452
        0
462
0.0
453
        0
470

  0
SPLINE
  5
8D
330
7E
100
AcDbEntity
  8
Deck Box - DF
100
AcDbSpline
210
0.0
220
0.0
230
1.0
 70
     9
 71
     3
 72
    26
 73
    22
 74
     0
 42
0.0000000001
 43
0.0000000001
 40
0.0
 40
0.0
 40
0.0
 40
0.0
 40
1.0
 40
1.0
 40
1.0
 40
2.0
 40
2.0
 40
2.0
 40
3.0
 40
3.0
 40
3.0
 40
4.0
 40
4.0
 40
4.0
 40
5.0
 40
5.0
 40
5.0
 40
6.0
 40
6.0
 40
6.0
 40
7.0
 40
7.0
 40
7.0
 40
7.0
 10
1.165737784120804
 20
-0.876937312872403
 30
0.0
 10
1.172497902393375
 20
-1.201059781593345
 30
0.0
 10
0.9760693468180836
 20
-0.988897411861002
 30
0.0
 10
1.094687202622215
 20
-0.9979739930088145
 30
0.0
 10
1.034327119861005
 20
-1.009523960616749
 30
0.0
 10
1.073821502160563
 20
-1.069944704428192
 30
0.0
 10
1.119626783982703
 20
-1.043094487620376
 30
0.0
 10
1.267740785324235
 20
-0.8484156793755094
 30
0.0
 10
0.8496128507046023
 20
-0.9720180422996614
 30
0.0
 10
1.052811450471823
 20
-1.104097965108129
 30
0.0
 10
1.118982450018077
 20
-1.128652149183343
 30
0.0
 10
1.227143207988357
 20
-1.080003970005249
 30
0.0
 10
1.239625193369533
 20
-1.003816841759556
 30
0.0
 10
1.179235332850276
 20
-0.7259301795754329
 30
0.0
 10
1.435348157877885
 20
-0.8894968523551369
 30
0.0
 10
1.294210943448446
 20
-0.9037166916024009
 30
0.0
 10
1.404281448301655
 20
-0.8409642374864461
 30
0.0
 10
1.197949661192309
 20
-0.8321495503998777
 30
0.0
 10
1.23891648272796
 20
-0.9286483340482618
 30
0.0
 10
1.475603999990413
 20
-1.073664996176969
 30
0.0
 10
1.393017231425889
 20
-0.6011941488738128
 30
0.0
 10
1.165737784120804
 20
-0.876937312872403
 30
0.0
  0
HATCH
  5
8E
330
7E
100
AcDbEntity
  8
Deck Box - DF
 62
   250
420
  2301728
440
 33554687
100
AcDbHatch
 10
0.0
 20
0.0
 30
0.0
210
0.0
220
0.0
230
1.0
  2
SOLID
 70
     1
 71
     1
 91
        1
 92
        1
 93
        1
 72
     4
 94
        3
 73
     0
 74
     0
 95
       26
 96
       22
 40
0.0
 40
0.0
 40
0.0
 40
0.0
 40
1.0
 40
1.0
 40
1.0
 40
2.0
 40
2.0
 40
2.0
 40
3.0
 40
3.0
 40
3.0
 40
4.0
 40
4.0
 40
4.0
 40
5.0
 40
5.0
 40
5.0
 40
6.0
 40
6.0
 40
6.0
 40
7.0
 40
7.0
 40
7.0
 40
7.0
 10
1.165737784120804
 20
-0.876937312872403
 10
1.172497902393375
 20
-1.201059781593345
 10
0.9760693468180836
 20
-0.988897411861002
 10
1.094687202622215
 20
-0.9979739930088145
 10
1.034327119861005
 20
-1.009523960616749
 10
1.073821502160563
 20
-1.069944704428192
 10
1.119626783982703
 20
-1.043094487620376
 10
1.267740785324235
 20
-0.8484156793755094
 10
0.8496128507046023
 20
-0.9720180422996614
 10
1.052811450471823
 20
-1.104097965108129
 10
1.118982450018077
 20
-1.128652149183343
 10
1.227143207988357
 20
-1.080003970005249
 10
1.239625193369533
 20
-1.003816841759556
 10
1.179235332850276
 20
-0.7259301795754329
 10
1.435348157877885
 20
-0.8894968523551369
 10
1.294210943448446
 20
-0.9037166916024009
 10
1.404281448301655
 20
-0.8409642374864461
 10
1.197949661192309
 20
-0.8321495503998777
 10
1.23891648272796
 20
-0.9286483340482618
 10
1.475603999990413
 20
-1.073664996176969
 10
1.393017231425889
 20
-0.6011941488738128
 10
1.165737784120804
 20
-0.876937312872403
 97
        0
 97
        1
330
8D
 75
     2
 76
     1
 98
        1
 10
0.0
 20
0.0
450
        0
451
        0
460
0.0
461
0.0
452
        0
462
0.0
453
        0
470

  0
SPLINE
  5
8F
330
7E
100
AcDbEntity
  8
Deck Box - DF
100
AcDbSpline
210
0.0
220
0.0
230
1.0
 70
     9
 71
     3
 72
    17
 73
    13
 74
     0
 42
0.0000000001
 43
0.0000000001
 40
0.0
 40
0.0
 40
0.0
 40
0.0
 40
1.0
 40
1.0
 40
1.0
 40
2.0
 40
2.0
 40
2.0
 40
3.0
 40
3.0
 40
3.0
 40
4.0
 40
4.0
 40
4.0
 40
4.0
 10
1.533035397012187
 20
-0.7361111111111111
 30
0.0
 10
1.513677079954896
 20
-0.8434778849283853
 30
0.0
 10
1.381984405529983
 20
-0.7905536227756076
 30
0.0
 10
1.429510447196649
 20
-0.7361111111111111
 30
0.0
 10
1.429510447196649
 20
-0.7361111111111111
 30
0.0
 10
1.359961734360278
 20
-0.7361111111111111
 30
0.0
 10
1.359961734360278
 20
-0.7361111111111111
 30
0.0
 10
1.322864004122682
 20
-0.8714405381292761
 30
0.0
 10
1.594927812939532
 20
-0.8985967480154561
 30
0.0
 10
1.618743167465746
 20
-0.7361111111111111
 30
0.0
 10
1.618743167465746
 20
-0.7361111111111111
 30
0.0
 10
1.533035397012187
 20
-0.7361111111111111
 30
0.0
 10
1.533035397012187
 20
-0.7361111111111111
 30
0.0
  0
HATCH
  5
90
330
7E
100
AcDbEntity
  8
Deck Box - DF
 62
   250
420
  2301728
440
 33554687
100
AcDbHatch
 10
0.0
 20
0.0
 30
0.0
210
0.0
220
0.0
230
1.0
  2
SOLID
 70
     1
 71
     1
 91
        1
 92
        1
 93
        1
 72
     4
 94
        3
 73
     0
 74
     0
 95
       17
 96
       13
 40
0.0
 40
0.0
 40
0.0
 40
0.0
 40
1.0
 40
1.0
 40
1.0
 40
2.0
 40
2.0
 40
2.0
 40
3.0
 40
3.0
 40
3.0
 40
4.0
 40
4.0
 40
4.0
 40
4.0
 10
1.533035397012187
 20
-0.7361111111111111
 10
1.513677079954896
 20
-0.8434778849283853
 10
1.381984405529983
 20
-0.7905536227756076
 10
1.429510447196649
 20
-0.7361111111111111
 10
1.429510447196649
 20
-0.7361111111111111
 10
1.359961734360278
 20
-0.7361111111111111
 10
1.359961734360278
 20
-0.7361111111111111
 10
1.322864004122682
 20
-0.8714405381292761
 10
1.594927812939532
 20
-0.8985967480154561
 10
1.618743167465746
 20
-0.7361111111111111
 10
1.618743167465746
 20
-0.7361111111111111
 10
1.533035397012187
 20
-0.7361111111111111
 10
1.533035397012187
 20
-0.7361111111111111
 97
        0
 97
        1
330
8F
 75
     2
 76
     1
 98
        1
 10
0.0
 20
0.0
450
        0
451
        0
460
0.0
461
0.0
452
        0
462
0.0
453
        0
470

  0
SPLINE
  5
91
330
7E
100
AcDbEntity
  8
Deck Box - DF
100
AcDbSpline
210
0.0
220
0.0
230
1.0
 70
     9
 71
     3
 72
    11
 73
     7
 74
     0
 42
0.0000000001
 43
0.0000000001
 40
0.0
 40
0.0
 40
0.0
 40
0.0
 40
1.0
 40
1.0
 40
1.0
 40
2.0
 40
2.0
 40
2.0
 40
2.0
 10
1.448664466022604
 20
-0.7361111111111111
 30
0.0
 10
1.370722571491354
 20
-0.7850562201605902
 30
0.0
 10
1.528533206528246
 20
-0.8071094089084201
 30
0.0
 10
1.531423899345087
 20
-0.7361111111111111
 30
0.0
 10
1.531423899345087
 20
-0.7361111111111111
 30
0.0
 10
1.448664466022604
 20
-0.7361111111111111
 30
0.0
 10
1.448664466022604
 20
-0.7361111111111111
 30
0.0
  0
HATCH
  5
92
330
7E
100
AcDbEntity
  8
Deck Box - DF
 62
   250
420
  2301728
440
 33554687
100
AcDbHatch
 10
0.0
 20
0.0
 30
0.0
210
0.0
220
0.0
230
1.0
  2
SOLID
 70
     1
 71
     1
 91
        1
 92
        1
 93
        1
 72
     4
 94
        3
 73
     0
 74
     0
 95
       11
 96
        7
 40
0.0
 40
0.0
 40
0.0
 40
0.0
 40
1.0
 40
1.0
 40
1.0
 40
2.0
 40
2.0
 40
2.0
 40
2.0
 10
1.448664466022604
 20
-0.7361111111111111
 10
1.370722571491354
 20
-0.7850562201605902
 10
1.528533206528246
 20
-0.8071094089084201
 10
1.531423899345087
 20
-0.7361111111111111
 10
1.531423899345087
 20
-0.7361111111111111
 10
1.448664466022604
 20
-0.7361111111111111
 10
1.448664466022604
 20
-0.7361111111111111
 97
        0
 97
        1
330
91
 75
     2
 76
     1
 98
        1
 10
0.0
 20
0.0
450
        0
451
        0
460
0.0
461
0.0
452
        0
462
0.0
453
        0
470

  0
SPLINE
  5
93
330
7E
100
AcDbEntity
  8
Deck Box - DF
100
AcDbSpline
210
0.0
220
0.0
230
1.0
 70
     9
 71
     3
 72
    20
 73
    16
 74
     0
 42
0.0000000001
 43
0.0000000001
 40
0.0
 40
0.0
 40
0.0
 40
0.0
 40
1.0
 40
1.0
 40
1.0
 40
2.0
 40
2.0
 40
2.0
 40
3.0
 40
3.0
 40
3.0
 40
4.0
 40
4.0
 40
4.0
 40
5.0
 40
5.0
 40
5.0
 40
5.0
 10
1.463579741290143
 20
-1.06873994003974
 30
0.0
 10
1.508747495492331
 20
-1.044098371766355
 30
0.0
 10
1.47363611557993
 20
-0.9483470073984234
 30
0.0
 10
1.435248615086682
 20
-1.002073035793917
 30
0.0
 10
1.431705629074245
 20
-1.022398134919399
 30
0.0
 10
1.420719621537942
 20
-0.9887135948051637
 30
0.0
 10
1.434558905490765
 20
-0.986916789547763
 30
0.0
 10
1.525028173663839
 20
-0.9199269611887705
 30
0.0
 10
1.528745823844095
 20
-1.249974354153272
 30
0.0
 10
1.305035300298224
 20
-0.9680759291248426
 30
0.0
 10
1.266558878499292
 20
-1.159240859643975
 30
0.0
 10
1.499390102657116
 20
-1.28175353723778
 30
0.0
 10
1.548842097749204
 20
-1.052247233580083
 30
0.0
 10
1.526594582080848
 20
-0.7190110574021749
 30
0.0
 10
1.221952802961557
 20
-1.052265174827728
 30
0.0
 10
1.463579741290143
 20
-1.06873994003974
 30
0.0
  0
HATCH
  5
94
330
7E
100
AcDbEntity
  8
Deck Box - DF
 62
   250
420
  2301728
440
 33554687
100
AcDbHatch
 10
0.0
 20
0.0
 30
0.0
210
0.0
220
0.0
230
1.0
  2
SOLID
 70
     1
 71
     1
 91
        1
 92
        1
 93
        1
 72
     4
 94
        3
 73
     0
 74
     0
 95
       20
 96
       16
 40
0.0
 40
0.0
 40
0.0
 40
0.0
 40
1.0
 40
1.0
 40
1.0
 40
2.0
 40
2.0
 40
2.0
 40
3.0
 40
3.0
 40
3.0
 40
4.0
 40
4.0
 40
4.0
 40
5.0
 40
5.0
 40
5.0
 40
5.0
 10
1.463579741290143
 20
-1.06873994003974
 10
1.508747495492331
 20
-1.044098371766355
 10
1.47363611557993
 20
-0.9483470073984234
 10
1.435248615086682
 20
-1.002073035793917
 10
1.431705629074245
 20
-1.022398134919399
 10
1.420719621537942
 20
-0.9887135948051637
 10
1.434558905490765
 20
-0.986916789547763
 10
1.525028173663839
 20
-0.9199269611887705
 10
1.528745823844095
 20
-1.249974354153272
 10
1.305035300298224
 20
-0.9680759291248426
 10
1.266558878499292
 20
-1.159240859643975
 10
1.499390102657116
 20
-1.28175353723778
 10
1.548842097749204
 20
-1.052247233580083
 10
1.526594582080848
 20
-0.7190110574021749
 10
1.221952802961557
 20
-1.052265174827728
 10
1.463579741290143
 20
-1.06873994003974
 97
        0
 97
        1
330
93
 75
     2
 76
     1
 98
        1
 10
0.0
 20
0.0
450
        0
451
        0
460
0.0
461
0.0
452
        0
462
0.0
453
        0
470

  0
SPLINE
  5
95
330
7E
100
AcDbEntity
  8
Deck Box - DF
100
AcDbSpline
210
0.0
220
0.0
230
1.0
 70
     9
 71
     3
 72
    23
 73
    19
 74
     0
 42
0.0000000001
 43
0.0000000001
 40
0.0
 40
0.0
 40
0.0
 40
0.0
 40
1.0
 40
1.0
 40
1.0
 40
2.0
 40
2.0
 40
2.0
 40
3.0
 40
3.0
 40
3.0
 40
4.0
 40
4.0
 40
4.0
 40
5.0
 40
5.0
 40
5.0
 40
6.0
 40
6.0
 40
6.0
 40
6.0
 10
1.910099775617772
 20
-0.9170383867540673
 30
0.0
 10
1.870285495117476
 20
-0.9283158604423659
 30
0.0
 10
1.860250674252572
 20
-0.9473485524481853
 30
0.0
 10
1.823782846561609
 20
-0.9710798255688612
 30
0.0
 10
2.065475261825415
 20
-0.8836174420210909
 30
0.0
 10
1.96526708800785
 20
-1.09731642779132
 30
0.0
 10
1.908711146836063
 20
-1.011483769761689
 30
0.0
 10
1.902094947058748
 20
-1.004236441030457
 30
0.0
 10
1.92754557146692
 20
-0.993744908059082
 30
0.0
 10
1.917817886906466
 20
-1.00478349713473
 30
0.0
 10
1.908165072137674
 20
-1.047394410647926
 30
0.0
 10
1.982659380455225
 20
-1.019368385162339
 30
0.0
 10
1.971834456410066
 20
-0.987068289962268
 30
0.0
 10
1.828644561859126
 20
-0.8828528094327969
 30
0.0
 10
1.805588069198127
 20
-1.177953900115514
 30
0.0
 10
2.009528560537306
 20
-1.034137607312042
 30
0.0
 10
2.084255986160731
 20
-0.9623341668281504
 30
0.0
 10
1.996278876193842
 20
-0.8971626182094874
 30
0.0
 10
1.910099775617772
 20
-0.9170383867540673
 30
0.0
  0
HATCH
  5
96
330
7E
100
AcDbEntity
  8
Deck Box - DF
 62
   250
420
  2301728
440
 33554687
100
AcDbHatch
 10
0.0
 20
0.0
 30
0.0
210
0.0
220
0.0
230
1.0
  2
SOLID
 70
     1
 71
     1
 91
        1
 92
        1
 93
        1
 72
     4
 94
        3
 73
     0
 74
     0
 95
       23
 96
       19
 40
0.0
 40
0.0
 40
0.0
 40
0.0
 40
1.0
 40
1.0
 40
1.0
 40
2.0
 40
2.0
 40
2.0
 40
3.0
 40
3.0
 40
3.0
 40
4.0
 40
4.0
 40
4.0
 40
5.0
 40
5.0
 40
5.0
 40
6.0
 40
6.0
 40
6.0
 40
6.0
 10
1.910099775617772
 20
-0.9170383867540673
 10
1.870285495117476
 20
-0.9283158604423659
 10
1.860250674252572
 20
-0.9473485524481853
 10
1.823782846561609
 20
-0.9710798255688612
 10
2.065475261825415
 20
-0.8836174420210909
 10
1.96526708800785
 20
-1.09731642779132
 10
1.908711146836063
 20
-1.011483769761689
 10
1.902094947058748
 20
-1.004236441030457
 10
1.92754557146692
 20
-0.993744908059082
 10
1.917817886906466
 20
-1.00478349713473
 10
1.908165072137674
 20
-1.047394410647926
 10
1.982659380455225
 20
-1.019368385162339
 10
1.971834456410066
 20
-0.987068289962268
 10
1.828644561859126
 20
-0.8828528094327969
 10
1.805588069198127
 20
-1.177953900115514
 10
2.009528560537306
 20
-1.034137607312042
 10
2.084255986160731
 20
-0.9623341668281504
 10
1.996278876193842
 20
-0.8971626182094874
 10
1.910099775617772
 20
-0.9170383867540673
 97
        0
 97
        1
330
95
 75
     2
 76
     1
 98
        1
 10
0.0
 20
0.0
450
        0
451
        0
460
0.0
461
0.0
452
        0
462
0.0
453
        0
470

  0
SPLINE
  5
97
330
7E
100
AcDbEntity
  8
Deck Box - DF
100
AcDbSpline
210
0.0
220
0.0
230
1.0
 70
     9
 71
     3
 72
    23
 73
    19
 74
     0
 42
0.0000000001
 43
0.0000000001
 40
0.0
 40
0.0
 40
0.0
 40
0.0
 40
1.0
 40
1.0
 40
1.0
 40
2.0
 40
2.0
 40
2.0
 40
3.0
 40
3.0
 40
3.0
 40
4.0
 40
4.0
 40
4.0
 40
5.0
 40
5.0
 40
5.0
 40
6.0
 40
6.0
 40
6.0
 40
6.0
 10
2.244528683826817
 20
-0.8907006419001517
 30
0.0
 10
2.275476008640718
 20
-0.8918670995191178
 30
0.0
 10
2.287698412282944
 20
-0.8796707244632544
 30
0.0
 10
2.319705265230027
 20
-0.8704001120503587
 30
0.0
 10
2.129603571724689
 20
-0.879500725437184
 30
0.0
 10
2.252241356644149
 20
-0.7379007667755483
 30
0.0
 10
2.271300086795842
 20
-0.8181818401638262
 30
0.0
 10
2.273949764396307
 20
-0.8254135301483277
 30
0.0
 10
2.253270548435832
 20
-0.8272003200313646
 30
0.0
 10
2.26309437489288
 20
-0.8210950573753986
 30
0.0
 10
2.281489844996346
 20
-0.7906140768721014
 30
0.0
 10
2.221694331246163
 20
-0.7937743075651471
 30
0.0
 10
2.220448086431499
 20
-0.8213755417656456
 30
0.0
 10
2.292203053197239
 20
-0.9372599604514688
 30
0.0
 10
2.388948262857979
 20
-0.7153115608018399
 30
0.0
 10
2.206922266299455
 20
-0.7757215883656778
 30
0.0
 10
2.135005696131341
 20
-0.81259709744039
 30
0.0
 10
2.178780995951266
 20
-0.884677470803644
 30
0.0
 10
2.244528683826817
 20
-0.8907006419001517
 30
0.0
  0
HATCH
  5
98
330
7E
100
AcDbEntity
  8
Deck Box - DF
 62
   250
420
  2301728
440
 33554687
100
AcDbHatch
 10
0.0
 20
0.0
 30
0.0
210
0.0
220
0.0
230
1.0
  2
SOLID
 70
     1
 71
     1
 91
        1
 92
        1
 93
        1
 72
     4
 94
        3
 73
     0
 74
     0
 95
       23
 96
       19
 40
0.0
 40
0.0
 40
0.0
 40
0.0
 40
1.0
 40
1.0
 40
1.0
 40
2.0
 40
2.0
 40
2.0
 40
3.0
 40
3.0
 40
3.0
 40
4.0
 40
4.0
 40
4.0
 40
5.0
 40
5.0
 40
5.0
 40
6.0
 40
6.0
 40
6.0
 40
6.0
 10
2.244528683826817
 20
-0.8907006419001517
 10
2.275476008640718
 20
-0.8918670995191178
 10
2.287698412282944
 20
-0.8796707244632544
 10
2.319705265230027
 20
-0.8704001120503587
 10
2.129603571724689
 20
-0.879500725437184
 10
2.252241356644149
 20
-0.7379007667755483
 10
2.271300086795842
 20
-0.8181818401638262
 10
2.273949764396307
 20
-0.8254135301483277
 10
2.253270548435832
 20
-0.8272003200313646
 10
2.26309437489288
 20
-0.8210950573753986
 10
2.281489844996346
 20
-0.7906140768721014
 10
2.221694331246163
 20
-0.7937743075651471
 10
2.220448086431499
 20
-0.8213755417656456
 10
2.292203053197239
 20
-0.9372599604514688
 10
2.388948262857979
 20
-0.7153115608018399
 10
2.206922266299455
 20
-0.7757215883656778
 10
2.135005696131341
 20
-0.81259709744039
 10
2.178780995951266
 20
-0.884677470803644
 10
2.244528683826817
 20
-0.8907006419001517
 97
        0
 97
        1
330
97
 75
     2
 76
     1
 98
        1
 10
0.0
 20
0.0
450
        0
451
        0
460
0.0
461
0.0
452
        0
462
0.0
453
        0
470

  0
SPLINE
  5
99
330
7E
100
AcDbEntity
  8
Deck Box - DF
100
AcDbSpline
210
0.0
220
0.0
230
1.0
 70
     9
 71
     3
 72
    11
 73
     7
 74
     0
 42
0.0000000001
 43
0.0000000001
 40
0.0
 40
0.0
 40
0.0
 40
0.0
 40
1.0
 40
1.0
 40
1.0
 40
2.0
 40
2.0
 40
2.0
 40
2.0
 10
0.858545210108976
 20
-0.9573203192816839
 30
0.0
 10
0.926391207657414
 20
-0.9272129811920295
 30
0.0
 10
0.9011077929041624
 20
-0.8441051638936995
 30
0.0
 10
0.858545210108976
 20
-0.8352211846245658
 30
0.0
 10
0.858545210108976
 20
-0.8352211846245658
 30
0.0
 10
0.858545210108976
 20
-0.9573203192816839
 30
0.0
 10
0.858545210108976
 20
-0.9573203192816839
 30
0.0
  0
HATCH
  5
9A
330
7E
100
AcDbEntity
  8
Deck Box - DF
 62
   250
420
  2301728
440
 33554687
100
AcDbHatch
 10
0.0
 20
0.0
 30
0.0
210
0.0
220
0.0
230
1.0
  2
SOLID
 70
     1
 71
     1
 91
        1
 92
        1
 93
        1
 72
     4
 94
        3
 73
     0
 74
     0
 95
       11
 96
        7
 40
0.0
 40
0.0
 40
0.0
 40
0.0
 40
1.0
 40
1.0
 40
1.0
 40
2.0
 40
2.0
 40
2.0
 40
2.0
 10
0.858545210108976
 20
-0.9573203192816839
 10
0.926391207657414
 20
-0.9272129811920295
 10
0.9011077929041624
 20
-0.8441051638936995
 10
0.858545210108976
 20
-0.8352211846245658
 10
0.858545210108976
 20
-0.8352211846245658
 10
0.858545210108976
 20
-0.9573203192816839
 10
0.858545210108976
 20
-0.9573203192816839
 97
        0
 97
        1
330
99
 75
     2
 76
     1
 98
        1
 10
0.0
 20
0.0
450
        0
451
        0
460
0.0
461
0.0
452
        0
462
0.0
453
        0
470

  0
SPLINE
  5
9B
330
7E
100
AcDbEntity
  8
Deck Box - DF
100
AcDbSpline
210
0.0
220
0.0
230
1.0
 70
     9
 71
     3
 72
    26
 73
    22
 74
     0
 42
0.0000000001
 43
0.0000000001
 40
0.0
 40
0.0
 40
0.0
 40
0.0
 40
1.0
 40
1.0
 40
1.0
 40
2.0
 40
2.0
 40
2.0
 40
3.0
 40
3.0
 40
3.0
 40
4.0
 40
4.0
 40
4.0
 40
5.0
 40
5.0
 40
5.0
 40
6.0
 40
6.0
 40
6.0
 40
7.0
 40
7.0
 40
7.0
 40
7.0
 10
1.069559851764792
 20
-0.7361111111111111
 30
0.0
 10
0.7756818926887819
 20
-0.6974482450830363
 30
0.0
 10
0.9968696047579264
 20
-0.9422839438994843
 30
0.0
 10
0.858545210108976
 20
-0.9694900512695312
 30
0.0
 10
0.858545210108976
 20
-0.9694900512695312
 30
0.0
 10
0.858545210108976
 20
-1.028651767306857
 30
0.0
 10
0.858545210108976
 20
-1.028651767306857
 30
0.0
 10
0.9250362311593233
 20
-1.046620686848958
 30
0.0
 10
0.9952300516888373
 20
-1.022275288899739
 30
0.0
 10
1.000112864188837
 20
-0.9557198418511283
 30
0.0
 10
0.9062085808772053
 20
-0.6446940104166666
 30
0.0
 10
1.185919986313403
 20
-0.8325661553276908
 30
0.0
 10
1.056221126992656
 20
-0.8727425469292533
 30
0.0
 10
1.048984222424514
 20
-0.8657446967230901
 30
0.0
 10
1.034050954195347
 20
-0.8486243353949651
 30
0.0
 10
1.05054824830342
 20
-0.8578202989366319
 30
0.0
 10
1.165950469983108
 20
-0.8257802327473957
 30
0.0
 10
0.9371873135160942
 20
-0.7355889214409723
 30
0.0
 10
0.9919324578303303
 20
-0.8661066691080728
 30
0.0
 10
1.189003109414531
 20
-1.046130710177951
 30
0.0
 10
1.170653567856371
 20
-0.8091676500108507
 30
0.0
 10
1.069559851764792
 20
-0.7361111111111111
 30
0.0
  0
HATCH
  5
9C
330
7E
100
AcDbEntity
  8
Deck Box - DF
 62
   250
420
  2301728
440
 33554687
100
AcDbHatch
 10
0.0
 20
0.0
 30
0.0
210
0.0
220
0.0
230
1.0
  2
SOLID
 70
     1
 71
     1
 91
        1
 92
        1
 93
        1
 72
     4
 94
        3
 73
     0
 74
     0
 95
       26
 96
       22
 40
0.0
 40
0.0
 40
0.0
 40
0.0
 40
1.0
 40
1.0
 40
1.0
 40
2.0
 40
2.0
 40
2.0
 40
3.0
 40
3.0
 40
3.0
 40
4.0
 40
4.0
 40
4.0
 40
5.0
 40
5.0
 40
5.0
 40
6.0
 40
6.0
 40
6.0
 40
7.0
 40
7.0
 40
7.0
 40
7.0
 10
1.069559851764792
 20
-0.7361111111111111
 10
0.7756818926887819
 20
-0.6974482450830363
 10
0.9968696047579264
 20
-0.9422839438994843
 10
0.858545210108976
 20
-0.9694900512695312
 10
0.858545210108976
 20
-0.9694900512695312
 10
0.858545210108976
 20
-1.028651767306857
 10
0.858545210108976
 20
-1.028651767306857
 10
0.9250362311593233
 20
-1.046620686848958
 10
0.9952300516888373
 20
-1.022275288899739
 10
1.000112864188837
 20
-0.9557198418511283
 10
0.9062085808772053
 20
-0.6446940104166666
 10
1.185919986313403
 20
-0.8325661553276908
 10
1.056221126992656
 20
-0.8727425469292533
 10
1.048984222424514
 20
-0.8657446967230901
 10
1.034050954195347
 20
-0.8486243353949651
 10
1.05054824830342
 20
-0.8578202989366319
 10
1.165950469983108
 20
-0.8257802327473957
 10
0.9371873135160942
 20
-0.7355889214409723
 10
0.9919324578303303
 20
-0.8661066691080728
 10
1.189003109414531
 20
-1.046130710177951
 10
1.170653567856371
 20
-0.8091676500108507
 10
1.069559851764792
 20
-0.7361111111111111
 97
        0
 97
        1
330
9B
 75
     2
 76
     1
 98
        1
 10
0.0
 20
0.0
450
        0
451
        0
460
0.0
461
0.0
452
        0
462
0.0
453
        0
470

  0
SPLINE
  5
9D
330
7E
100
AcDbEntity
  8
Deck Box - DF
100
AcDbSpline
210
0.0
220
0.0
230
1.0
 70
     9
 71
     3
 72
    11
 73
     7
 74
     0
 42
0.0000000001
 43
0.0000000001
 40
0.0
 40
0.0
 40
0.0
 40
0.0
 40
1.0
 40
1.0
 40
1.0
 40
2.0
 40
2.0
 40
2.0
 40
2.0
 10
0.858545210108976
 20
-1.656513637966579
 30
0.0
 10
0.858545210108976
 20
-1.656513637966579
 30
0.0
 10
1.044037831636754
 20
-1.656513637966579
 30
0.0
 10
1.044037831636754
 20
-1.656513637966579
 30
0.0
 10
1.026799110135192
 20
-1.603025835848206
 30
0.0
 10
0.9285691774304925
 20
-1.564738758847119
 30
0.0
 10
0.858545210108976
 20
-1.656513637966579
 30
0.0
  0
HATCH
  5
9E
330
7E
100
AcDbEntity
  8
Deck Box - DF
 62
   250
420
  2301728
440
 33554687
100
AcDbHatch
 10
0.0
 20
0.0
 30
0.0
210
0.0
220
0.0
230
1.0
  2
SOLID
 70
     1
 71
     1
 91
        1
 92
        1
 93
        1
 72
     4
 94
        3
 73
     0
 74
     0
 95
       11
 96
        7
 40
0.0
 40
0.0
 40
0.0
 40
0.0
 40
1.0
 40
1.0
 40
1.0
 40
2.0
 40
2.0
 40
2.0
 40
2.0
 10
0.858545210108976
 20
-1.656513637966579
 10
0.858545210108976
 20
-1.656513637966579
 10
1.044037831636754
 20
-1.656513637966579
 10
1.044037831636754
 20
-1.656513637966579
 10
1.026799110135192
 20
-1.603025835848206
 10
0.9285691774304925
 20
-1.564738758847119
 10
0.858545210108976
 20
-1.656513637966579
 97
        0
 97
        1
330
9D
 75
     2
 76
     1
 98
        1
 10
0.0
 20
0.0
450
        0
451
        0
460
0.0
461
0.0
452
        0
462
0.0
453
        0
470

  0
SPLINE
  5
9F
330
7E
100
AcDbEntity
  8
Deck Box - DF
100
AcDbSpline
210
0.0
220
0.0
230
1.0
 70
     9
 71
     3
 72
    17
 73
    13
 74
     0
 42
0.0000000001
 43
0.0000000001
 40
0.0
 40
0.0
 40
0.0
 40
0.0
 40
1.0
 40
1.0
 40
1.0
 40
2.0
 40
2.0
 40
2.0
 40
3.0
 40
3.0
 40
3.0
 40
4.0
 40
4.0
 40
4.0
 40
4.0
 10
1.886761954042678
 20
-1.345588333171538
 30
0.0
 10
1.873775164763135
 20
-1.366342855826903
 30
0.0
 10
1.853294873569982
 20
-1.372462852093601
 30
0.0
 10
1.828702415789052
 20
-1.371235336789684
 30
0.0
 10
1.898136206824359
 20
-1.367940590573766
 30
0.0
 10
1.890566417130596
 20
-1.217173117488831
 30
0.0
 10
1.817290728111465
 20
-1.302333930696376
 30
0.0
 10
1.819811911626313
 20
-1.319531813074591
 30
0.0
 10
1.807984469726875
 20
-1.302204922664246
 30
0.0
 10
1.803660172062702
 20
-1.294091377427776
 30
0.0
 10
1.829773564285725
 20
-1.228993252218187
 30
0.0
 10
1.927426744032408
 20
-1.290422275238799
 30
0.0
 10
1.886761954042678
 20
-1.345588333171538
 30
0.0
  0
SPLINE
  5
A0
330
7E
100
AcDbEntity
  8
Deck Box - DF
100
AcDbSpline
210
0.0
220
0.0
230
1.0
 70
     9
 71
     3
 72
    29
 73
    25
 74
     0
 42
0.0000000001
 43
0.0000000001
 40
0.0
 40
0.0
 40
0.0
 40
0.0
 40
1.0
 40
1.0
 40
1.0
 40
2.0
 40
2.0
 40
2.0
 40
3.0
 40
3.0
 40
3.0
 40
4.0
 40
4.0
 40
4.0
 40
5.0
 40
5.0
 40
5.0
 40
6.0
 40
6.0
 40
6.0
 40
7.0
 40
7.0
 40
7.0
 40
8.0
 40
8.0
 40
8.0
 40
8.0
 10
1.794770518693098
 20
-1.214217825273357
 30
0.0
 10
1.717879242651393
 20
-1.260761544768671
 30
0.0
 10
1.734209648763289
 20
-1.348376095918398
 30
0.0
 10
1.813055196526079
 20
-1.369617694991739
 30
0.0
 10
1.708298745295008
 20
-1.353775043283955
 30
0.0
 10
1.548340569789982
 20
-1.243402337717005
 30
0.0
 10
1.54843642581112
 20
-1.503225290068687
 30
0.0
 10
1.696646566771518
 20
-1.771357238703533
 30
0.0
 10
1.884013041578188
 20
-1.349805008531019
 30
0.0
 10
1.629755229078215
 20
-1.449432818658642
 30
0.0
 10
1.592656396514245
 20
-1.491229094277425
 30
0.0
 10
1.664728213315066
 20
-1.554793342423358
 30
0.0
 10
1.683923523348981
 20
-1.491865344311715
 30
0.0
 10
1.679913451931712
 20
-1.473212437474722
 30
0.0
 10
1.703865829713436
 20
-1.496214647167208
 30
0.0
 10
1.690333965662792
 20
-1.504211593961789
 30
0.0
 10
1.644843193685182
 20
-1.57272804422367
 30
0.0
 10
1.579429683584205
 20
-1.474737524411921
 30
0.0
 10
1.627847467379132
 20
-1.433745028296053
 30
0.0
 10
1.695424827898389
 20
-1.387602552219378
 30
0.0
 10
1.764986237896828
 20
-1.468115198272521
 30
0.0
 10
1.84033587686464
 20
-1.453181031985536
 30
0.0
 10
2.017913693606272
 20
-1.420132224839373
 30
0.0
 10
1.968598323104401
 20
-1.156457645908567
 30
0.0
 10
1.794770518693098
 20
-1.214217825273357
 30
0.0
  0
HATCH
  5
A1
330
7E
100
AcDbEntity
  8
Deck Box - DF
 62
   250
420
  2301728
440
 33554687
100
AcDbHatch
 10
0.0
 20
0.0
 30
0.0
210
0.0
220
0.0
230
1.0
  2
SOLID
 70
     1
 71
     1
 91
        2
 92
        1
 93
        1
 72
     4
 94
        3
 73
     0
 74
     0
 95
       17
 96
       13
 40
0.0
 40
0.0
 40
0.0
 40
0.0
 40
1.0
 40
1.0
 40
1.0
 40
2.0
 40
2.0
 40
2.0
 40
3.0
 40
3.0
 40
3.0
 40
4.0
 40
4.0
 40
4.0
 40
4.0
 10
1.886761954042678
 20
-1.345588333171538
 10
1.873775164763135
 20
-1.366342855826903
 10
1.853294873569982
 20
-1.372462852093601
 10
1.828702415789052
 20
-1.371235336789684
 10
1.898136206824359
 20
-1.367940590573766
 10
1.890566417130596
 20
-1.217173117488831
 10
1.817290728111465
 20
-1.302333930696376
 10
1.819811911626313
 20
-1.319531813074591
 10
1.807984469726875
 20
-1.302204922664246
 10
1.803660172062702
 20
-1.294091377427776
 10
1.829773564285725
 20
-1.228993252218187
 10
1.927426744032408
 20
-1.290422275238799
 10
1.886761954042678
 20
-1.345588333171538
 97
        0
 97
        1
330
9F
 92
        1
 93
        1
 72
     4
 94
        3
 73
     0
 74
     0
 95
       29
 96
       25
 40
0.0
 40
0.0
 40
0.0
 40
0.0
 40
1.0
 40
1.0
 40
1.0
 40
2.0
 40
2.0
 40
2.0
 40
3.0
 40
3.0
 40
3.0
 40
4.0
 40
4.0
 40
4.0
 40
5.0
 40
5.0
 40
5.0
 40
6.0
 40
6.0
 40
6.0
 40
7.0
 40
7.0
 40
7.0
 40
8.0
 40
8.0
 40
8.0
 40
8.0
 10
1.794770518693098
 20
-1.214217825273357
 10
1.717879242651393
 20
-1.260761544768671
 10
1.734209648763289
 20
-1.348376095918398
 10
1.813055196526079
 20
-1.369617694991739
 10
1.708298745295008
 20
-1.353775043283955
 10
1.548340569789982
 20
-1.243402337717005
 10
1.54843642581112
 20
-1.503225290068687
 10
1.696646566771518
 20
-1.771357238703533
 10
1.884013041578188
 20
-1.349805008531019
 10
1.629755229078215
 20
-1.449432818658642
 10
1.592656396514245
 20
-1.491229094277425
 10
1.664728213315066
 20
-1.554793342423358
 10
1.683923523348981
 20
-1.491865344311715
 10
1.679913451931712
 20
-1.473212437474722
 10
1.703865829713436
 20
-1.496214647167208
 10
1.690333965662792
 20
-1.504211593961789
 10
1.644843193685182
 20
-1.57272804422367
 10
1.579429683584205
 20
-1.474737524411921
 10
1.627847467379132
 20
-1.433745028296053
 10
1.695424827898389
 20
-1.387602552219378
 10
1.764986237896828
 20
-1.468115198272521
 10
1.84033587686464
 20
-1.453181031985536
 10
2.017913693606272
 20
-1.420132224839373
 10
1.968598323104401
 20
-1.156457645908567
 10
1.794770518693098
 20
-1.214217825273357
 97
        0
 97
        1
330
A0
 75
     2
 76
     1
 98
        1
 10
0.0
 20
0.0
450
        0
451
        0
460
0.0
461
0.0
452
        0
462
0.0
453
        0
470

  0
SPLINE
  5
A2
330
7E
100
AcDbEntity
  8
Deck Box - DF
100
AcDbSpline
210
0.0
220
0.0
230
1.0
 70
     9
 71
     3
 72
    14
 73
    10
 74
     0
 42
0.0000000001
 43
0.0000000001
 40
0.0
 40
0.0
 40
0.0
 40
0.0
 40
1.0
 40
1.0
 40
1.0
 40
2.0
 40
2.0
 40
2.0
 40
3.0
 40
3.0
 40
3.0
 40
3.0
 10
1.367120655949886
 20
-1.463521525097045
 30
0.0
 10
1.360933216985042
 20
-1.459639858701658
 30
0.0
 10
1.348332000350928
 20
-1.44933085126892
 30
0.0
 10
1.363003326034522
 20
-1.45229953345208
 30
0.0
 10
1.451386470837039
 20
-1.401923489072739
 30
0.0
 10
1.335797752846588
 20
-1.386330702071872
 30
0.0
 10
1.308011497963775
 20
-1.432090115049302
 30
0.0
 10
1.332440819252838
 20
-1.344442782963811
 30
0.0
 10
1.467805775578792
 20
-1.418931104903903
 30
0.0
 10
1.367120655949886
 20
-1.463521525097045
 30
0.0
  0
SPLINE
  5
A3
330
7E
100
AcDbEntity
  8
Deck Box - DF
100
AcDbSpline
210
0.0
220
0.0
230
1.0
 70
     9
 71
     3
 72
    26
 73
    22
 74
     0
 42
0.0000000001
 43
0.0000000001
 40
0.0
 40
0.0
 40
0.0
 40
0.0
 40
1.0
 40
1.0
 40
1.0
 40
2.0
 40
2.0
 40
2.0
 40
3.0
 40
3.0
 40
3.0
 40
4.0
 40
4.0
 40
4.0
 40
5.0
 40
5.0
 40
5.0
 40
6.0
 40
6.0
 40
6.0
 40
7.0
 40
7.0
 40
7.0
 40
7.0
 10
1.234504824786692
 20
-1.425550028515014
 30
0.0
 10
1.203587975014556
 20
-1.48405985517517
 30
0.0
 10
1.258714589055355
 20
-1.543468254969019
 30
0.0
 10
1.201897640270633
 20
-1.594089287683851
 30
0.0
 10
1.154148650741553
 20
-1.629905056455552
 30
0.0
 10
1.082535762829226
 20
-1.572767673100517
 30
0.0
 10
1.154025732718549
 20
-1.540828484461194
 30
0.0
 10
1.164299984020633
 20
-1.530621202288885
 30
0.0
 10
1.17909168459572
 20
-1.550807732508069
 30
0.0
 10
1.163478552542768
 20
-1.546584438779783
 30
0.0
 10
1.103121564695546
 20
-1.558120931021524
 30
0.0
 10
1.142616397052317
 20
-1.618541497156519
 30
0.0
 10
1.188421586396935
 20
-1.591691114669528
 30
0.0
 10
1.335829533886036
 20
-1.362923346546873
 30
0.0
 10
0.8813307145065891
 20
-1.575024953363468
 30
0.0
 10
1.150101822818884
 20
-1.65652812813745
 30
0.0
 10
1.336824012764433
 20
-1.682981962709353
 30
0.0
 10
1.286436308263559
 20
-1.484993070869399
 30
0.0
 10
1.307691084630985
 20
-1.477203568354512
 30
0.0
 10
1.544376074515424
 20
-1.622273118792792
 30
0.0
 10
1.461833655081831
 20
-1.149786410893486
 30
0.0
 10
1.234504824786692
 20
-1.425550028515014
 30
0.0
  0
HATCH
  5
A4
330
7E
100
AcDbEntity
  8
Deck Box - DF
 62
   250
420
  2301728
440
 33554687
100
AcDbHatch
 10
0.0
 20
0.0
 30
0.0
210
0.0
220
0.0
230
1.0
  2
SOLID
 70
     1
 71
     1
 91
        2
 92
        1
 93
        1
 72
     4
 94
        3
 73
     0
 74
     0
 95
       14
 96
       10
 40
0.0
 40
0.0
 40
0.0
 40
0.0
 40
1.0
 40
1.0
 40
1.0
 40
2.0
 40
2.0
 40
2.0
 40
3.0
 40
3.0
 40
3.0
 40
3.0
 10
1.367120655949886
 20
-1.463521525097045
 10
1.360933216985042
 20
-1.459639858701658
 10
1.348332000350928
 20
-1.44933085126892
 10
1.363003326034522
 20
-1.45229953345208
 10
1.451386470837039
 20
-1.401923489072739
 10
1.335797752846588
 20
-1.386330702071872
 10
1.308011497963775
 20
-1.432090115049302
 10
1.332440819252838
 20
-1.344442782963811
 10
1.467805775578792
 20
-1.418931104903903
 10
1.367120655949886
 20
-1.463521525097045
 97
        0
 97
        1
330
A2
 92
        1
 93
        1
 72
     4
 94
        3
 73
     0
 74
     0
 95
       26
 96
       22
 40
0.0
 40
0.0
 40
0.0
 40
0.0
 40
1.0
 40
1.0
 40
1.0
 40
2.0
 40
2.0
 40
2.0
 40
3.0
 40
3.0
 40
3.0
 40
4.0
 40
4.0
 40
4.0
 40
5.0
 40
5.0
 40
5.0
 40
6.0
 40
6.0
 40
6.0
 40
7.0
 40
7.0
 40
7.0
 40
7.0
 10
1.234504824786692
 20
-1.425550028515014
 10
1.203587975014556
 20
-1.48405985517517
 10
1.258714589055355
 20
-1.543468254969019
 10
1.201897640270633
 20
-1.594089287683851
 10
1.154148650741553
 20
-1.629905056455552
 10
1.082535762829226
 20
-1.572767673100517
 10
1.154025732718549
 20
-1.540828484461194
 10
1.164299984020633
 20
-1.530621202288885
 10
1.17909168459572
 20
-1.550807732508069
 10
1.163478552542768
 20
-1.546584438779783
 10
1.103121564695546
 20
-1.558120931021524
 10
1.142616397052317
 20
-1.618541497156519
 10
1.188421586396935
 20
-1.591691114669528
 10
1.335829533886036
 20
-1.362923346546873
 10
0.8813307145065891
 20
-1.575024953363468
 10
1.150101822818884
 20
-1.65652812813745
 10
1.336824012764433
 20
-1.682981962709353
 10
1.286436308263559
 20
-1.484993070869399
 10
1.307691084630985
 20
-1.477203568354512
 10
1.544376074515424
 20
-1.622273118792792
 10
1.461833655081831
 20
-1.149786410893486
 10
1.234504824786692
 20
-1.425550028515014
 97
        0
 97
        1
330
A3
 75
     2
 76
     1
 98
        1
 10
0.0
 20
0.0
450
        0
451
        0
460
0.0
461
0.0
452
        0
462
0.0
453
        0
470

  0
SPLINE
  5
A5
330
7E
100
AcDbEntity
  8
Deck Box - DF
100
AcDbSpline
210
0.0
220
0.0
230
1.0
 70
     9
 71
     3
 72
    14
 73
    10
 74
     0
 42
0.0000000001
 43
0.0000000001
 40
0.0
 40
0.0
 40
0.0
 40
0.0
 40
1.0
 40
1.0
 40
1.0
 40
2.0
 40
2.0
 40
2.0
 40
3.0
 40
3.0
 40
3.0
 40
3.0
 10
2.622983166145622
 20
-0.9525917055955359
 30
0.0
 10
2.666148182712567
 20
-0.8622202519604924
 30
0.0
 10
2.692996859086216
 20
-0.9722693167906173
 30
0.0
 10
2.648833372829143
 20
-1.003670714779989
 30
0.0
 10
2.736139798029941
 20
-0.9713256785361686
 30
0.0
 10
2.647210326197371
 20
-0.8480655435279231
 30
0.0
 10
2.611120602827958
 20
-0.9497374892704076
 30
0.0
 10
2.6156730220482
 20
-0.9553243716830289
 30
0.0
 10
2.627401968393857
 20
-0.966461759492846
 30
0.0
 10
2.622983166145622
 20
-0.9525917055955359
 30
0.0
  0
SPLINE
  5
A6
330
7E
100
AcDbEntity
  8
Deck Box - DF
100
AcDbSpline
210
0.0
220
0.0
230
1.0
 70
     9
 71
     3
 72
    26
 73
    22
 74
     0
 42
0.0000000001
 43
0.0000000001
 40
0.0
 40
0.0
 40
0.0
 40
0.0
 40
1.0
 40
1.0
 40
1.0
 40
2.0
 40
2.0
 40
2.0
 40
3.0
 40
3.0
 40
3.0
 40
4.0
 40
4.0
 40
4.0
 40
5.0
 40
5.0
 40
5.0
 40
6.0
 40
6.0
 40
6.0
 40
7.0
 40
7.0
 40
7.0
 40
7.0
 10
2.44696793893335
 20
-1.212656121587416
 30
0.0
 10
2.35261949573866
 20
-1.003036958736869
 30
0.0
 10
2.623486233846329
 20
-1.022284004922236
 30
0.0
 10
2.602731473364883
 20
-1.008489211287206
 30
0.0
 10
2.433857423016181
 20
-0.783445471824368
 30
0.0
 10
2.927706458734822
 20
-0.8408588304443911
 30
0.0
 10
2.658329747031833
 20
-1.076430513228046
 30
0.0
 10
2.602392345208967
 20
-1.107476870476489
 30
0.0
 10
2.538495939682295
 20
-1.063837709850316
 30
0.0
 10
2.493218008649781
 20
-1.122314916215183
 30
0.0
 10
2.461104758935321
 20
-1.171997423364574
 30
0.0
 10
2.526279118111397
 20
-1.235435275251095
 30
0.0
 10
2.552188752924355
 20
-1.163216705896982
 30
0.0
 10
2.561655106932157
 20
-1.152276072035331
 30
0.0
 10
2.539620175580858
 20
-1.140010800204284
 30
0.0
 10
2.54541190685557
 20
-1.15466448781323
 30
0.0
 10
2.533597453054325
 20
-1.228381861364052
 30
0.0
 10
2.461616486287046
 20
-1.158249675860588
 30
0.0
 10
2.506538102361092
 20
-1.12698040333713
 30
0.0
 10
2.676576735816461
 20
-0.9890820428159688
 30
0.0
 10
2.594638632643194
 20
-1.374809449594143
 30
0.0
 10
2.44696793893335
 20
-1.212656121587416
 30
0.0
  0
HATCH
  5
A7
330
7E
100
AcDbEntity
  8
Deck Box - DF
 62
   250
420
  2301728
440
 33554687
100
AcDbHatch
 10
0.0
 20
0.0
 30
0.0
210
0.0
220
0.0
230
1.0
  2
SOLID
 70
     1
 71
     1
 91
        2
 92
        1
 93
        1
 72
     4
 94
        3
 73
     0
 74
     0
 95
       14
 96
       10
 40
0.0
 40
0.0
 40
0.0
 40
0.0
 40
1.0
 40
1.0
 40
1.0
 40
2.0
 40
2.0
 40
2.0
 40
3.0
 40
3.0
 40
3.0
 40
3.0
 10
2.622983166145622
 20
-0.9525917055955359
 10
2.666148182712567
 20
-0.8622202519604924
 10
2.692996859086216
 20
-0.9722693167906173
 10
2.648833372829143
 20
-1.003670714779989
 10
2.736139798029941
 20
-0.9713256785361686
 10
2.647210326197371
 20
-0.8480655435279231
 10
2.611120602827958
 20
-0.9497374892704076
 10
2.6156730220482
 20
-0.9553243716830289
 10
2.627401968393857
 20
-0.966461759492846
 10
2.622983166145622
 20
-0.9525917055955359
 97
        0
 97
        1
330
A5
 92
        1
 93
        1
 72
     4
 94
        3
 73
     0
 74
     0
 95
       26
 96
       22
 40
0.0
 40
0.0
 40
0.0
 40
0.0
 40
1.0
 40
1.0
 40
1.0
 40
2.0
 40
2.0
 40
2.0
 40
3.0
 40
3.0
 40
3.0
 40
4.0
 40
4.0
 40
4.0
 40
5.0
 40
5.0
 40
5.0
 40
6.0
 40
6.0
 40
6.0
 40
7.0
 40
7.0
 40
7.0
 40
7.0
 10
2.44696793893335
 20
-1.212656121587416
 10
2.35261949573866
 20
-1.003036958736869
 10
2.623486233846329
 20
-1.022284004922236
 10
2.602731473364883
 20
-1.008489211287206
 10
2.433857423016181
 20
-0.783445471824368
 10
2.927706458734822
 20
-0.8408588304443911
 10
2.658329747031833
 20
-1.076430513228046
 10
2.602392345208967
 20
-1.107476870476489
 10
2.538495939682295
 20
-1.063837709850316
 10
2.493218008649781
 20
-1.122314916215183
 10
2.461104758935321
 20
-1.171997423364574
 10
2.526279118111397
 20
-1.235435275251095
 10
2.552188752924355
 20
-1.163216705896982
 10
2.561655106932157
 20
-1.152276072035331
 10
2.539620175580858
 20
-1.140010800204284
 10
2.54541190685557
 20
-1.15466448781323
 10
2.533597453054325
 20
-1.228381861364052
 10
2.461616486287046
 20
-1.158249675860588
 10
2.506538102361092
 20
-1.12698040333713
 10
2.676576735816461
 20
-0.9890820428159688
 10
2.594638632643194
 20
-1.374809449594143
 10
2.44696793893335
 20
-1.212656121587416
 97
        0
 97
        1
330
A6
 75
     2
 76
     1
 98
        1
 10
0.0
 20
0.0
450
        0
451
        0
460
0.0
461
0.0
452
        0
462
0.0
453
        0
470

  0
SPLINE
  5
A8
330
7E
100
AcDbEntity
  8
Deck Box - DF
100
AcDbSpline
210
0.0
220
0.0
230
1.0
 70
     9
 71
     3
 72
    14
 73
    10
 74
     0
 42
0.0000000001
 43
0.0000000001
 40
0.0
 40
0.0
 40
0.0
 40
0.0
 40
1.0
 40
1.0
 40
1.0
 40
2.0
 40
2.0
 40
2.0
 40
3.0
 40
3.0
 40
3.0
 40
3.0
 10
1.57684185461086
 20
-1.25936494879737
 30
0.0
 10
1.554622258749898
 20
-1.364503134069814
 30
0.0
 10
1.3889938309169
 20
-1.263652203701503
 30
0.0
 10
1.506739056611334
 20
-1.223141354807883
 30
0.0
 10
1.51372917261512
 20
-1.22825643279609
 30
0.0
 10
1.527963791755723
 20
-1.241383193967307
 30
0.0
 10
1.511378998510799
 20
-1.236284662099478
 30
0.0
 10
1.407334661093664
 20
-1.284389663170246
 30
0.0
 10
1.553030141286209
 20
-1.316422693646434
 30
0.0
 10
1.57684185461086
 20
-1.25936494879737
 30
0.0
  0
SPLINE
  5
A9
330
7E
100
AcDbEntity
  8
Deck Box - DF
100
AcDbSpline
210
0.0
220
0.0
230
1.0
 70
     9
 71
     3
 72
    26
 73
    22
 74
     0
 42
0.0000000001
 43
0.0000000001
 40
0.0
 40
0.0
 40
0.0
 40
0.0
 40
1.0
 40
1.0
 40
1.0
 40
2.0
 40
2.0
 40
2.0
 40
3.0
 40
3.0
 40
3.0
 40
4.0
 40
4.0
 40
4.0
 40
5.0
 40
5.0
 40
5.0
 40
6.0
 40
6.0
 40
6.0
 40
7.0
 40
7.0
 40
7.0
 40
7.0
 10
1.784555896889097
 20
-1.039215973595661
 30
0.0
 10
1.524791751529253
 20
-0.9939553540273335
 30
0.0
 10
1.592376485588589
 20
-1.149548089461126
 30
0.0
 10
1.580068629192598
 20
-1.243060556918395
 30
0.0
 10
1.578298128778303
 20
-1.17136570034937
 30
0.0
 10
1.495616354985701
 20
-1.144464293981741
 30
0.0
 10
1.428963806552158
 20
-1.201903892264643
 30
0.0
 10
1.324698830127759
 20
-1.341607181493991
 30
0.0
 10
1.576130307992331
 20
-1.428945877793416
 30
0.0
 10
1.656598601769941
 20
-1.281805107463999
 30
0.0
 10
1.643893425002273
 20
-0.9540745503729162
 30
0.0
 10
1.856274350961042
 20
-1.125606111839046
 30
0.0
 10
1.747785470456834
 20
-1.161450179192873
 30
0.0
 10
1.736134709921783
 20
-1.171729714997203
 30
0.0
 10
1.719435343207767
 20
-1.147205520765093
 30
0.0
 10
1.737083344213879
 20
-1.153832500500811
 30
0.0
 10
1.805338219628197
 20
-1.14803773891237
 30
0.0
 10
1.760759214242334
 20
-1.075206887767649
 30
0.0
 10
1.708937690903452
 20
-1.100003575919395
 30
0.0
 10
1.54123644751251
 20
-1.301771879670544
 30
0.0
 10
2.014134187115574
 20
-1.212385083910804
 30
0.0
 10
1.784555896889097
 20
-1.039215973595661
 30
0.0
  0
HATCH
  5
AA
330
7E
100
AcDbEntity
  8
Deck Box - DF
 62
   250
420
  2301728
440
 33554687
100
AcDbHatch
 10
0.0
 20
0.0
 30
0.0
210
0.0
220
0.0
230
1.0
  2
SOLID
 70
     1
 71
     1
 91
        2
 92
        1
 93
        1
 72
     4
 94
        3
 73
     0
 74
     0
 95
       14
 96
       10
 40
0.0
 40
0.0
 40
0.0
 40
0.0
 40
1.0
 40
1.0
 40
1.0
 40
2.0
 40
2.0
 40
2.0
 40
3.0
 40
3.0
 40
3.0
 40
3.0
 10
1.57684185461086
 20
-1.25936494879737
 10
1.554622258749898
 20
-1.364503134069814
 10
1.3889938309169
 20
-1.263652203701503
 10
1.506739056611334
 20
-1.223141354807883
 10
1.51372917261512
 20
-1.22825643279609
 10
1.527963791755723
 20
-1.241383193967307
 10
1.511378998510799
 20
-1.236284662099478
 10
1.407334661093664
 20
-1.284389663170246
 10
1.553030141286209
 20
-1.316422693646434
 10
1.57684185461086
 20
-1.25936494879737
 97
        0
 97
        1
330
A8
 92
        1
 93
        1
 72
     4
 94
        3
 73
     0
 74
     0
 95
       26
 96
       22
 40
0.0
 40
0.0
 40
0.0
 40
0.0
 40
1.0
 40
1.0
 40
1.0
 40
2.0
 40
2.0
 40
2.0
 40
3.0
 40
3.0
 40
3.0
 40
4.0
 40
4.0
 40
4.0
 40
5.0
 40
5.0
 40
5.0
 40
6.0
 40
6.0
 40
6.0
 40
7.0
 40
7.0
 40
7.0
 40
7.0
 10
1.784555896889097
 20
-1.039215973595661
 10
1.524791751529253
 20
-0.9939553540273335
 10
1.592376485588589
 20
-1.149548089461126
 10
1.580068629192598
 20
-1.243060556918395
 10
1.578298128778303
 20
-1.17136570034937
 10
1.495616354985701
 20
-1.144464293981741
 10
1.428963806552158
 20
-1.201903892264643
 10
1.324698830127759
 20
-1.341607181493991
 10
1.576130307992331
 20
-1.428945877793416
 10
1.656598601769941
 20
-1.281805107463999
 10
1.643893425002273
 20
-0.9540745503729162
 10
1.856274350961042
 20
-1.125606111839046
 10
1.747785470456834
 20
-1.161450179192873
 10
1.736134709921783
 20
-1.171729714997203
 10
1.719435343207767
 20
-1.147205520765093
 10
1.737083344213879
 20
-1.153832500500811
 10
1.805338219628197
 20
-1.14803773891237
 10
1.760759214242334
 20
-1.075206887767649
 10
1.708937690903452
 20
-1.100003575919395
 10
1.54123644751251
 20
-1.301771879670544
 10
2.014134187115574
 20
-1.212385083910804
 10
1.784555896889097
 20
-1.039215973595661
 97
        0
 97
        1
330
A9
 75
     2
 76
     1
 98
        1
 10
0.0
 20
0.0
450
        0
451
        0
460
0.0
461
0.0
452
        0
462
0.0
453
        0
470

  0
SPLINE
  5
AB
330
7E
100
AcDbEntity
  8
Deck Box - DF
100
AcDbSpline
210
0.0
220
0.0
230
1.0
 70
     9
 71
     3
 72
    14
 73
    10
 74
     0
 42
0.0000000001
 43
0.0000000001
 40
0.0
 40
0.0
 40
0.0
 40
0.0
 40
1.0
 40
1.0
 40
1.0
 40
2.0
 40
2.0
 40
2.0
 40
3.0
 40
3.0
 40
3.0
 40
3.0
 10
2.394092254651076
 20
-0.9029252794053819
 30
0.0
 10
2.400721350788229
 20
-0.9069307115342882
 30
0.0
 10
2.414551747652379
 20
-0.9176245795355901
 30
0.0
 10
2.399678666868958
 20
-0.9147067599826389
 30
0.0
 10
2.31611221314717
 20
-0.9713456895616319
 30
0.0
 10
2.445221913668004
 20
-0.98504638671875
 30
0.0
 10
2.458746287040399
 20
-0.9289915296766492
 30
0.0
 10
2.452439320894566
 20
-1.029862297905815
 30
0.0
 10
2.297827945297778
 20
-0.9539888170030382
 30
0.0
 10
2.394092254651076
 20
-0.9029252794053819
 30
0.0
  0
SPLINE
  5
AC
330
7E
100
AcDbEntity
  8
Deck Box - DF
100
AcDbSpline
210
0.0
220
0.0
230
1.0
 70
     9
 71
     3
 72
    29
 73
    25
 74
     0
 42
0.0000000001
 43
0.0000000001
 40
0.0
 40
0.0
 40
0.0
 40
0.0
 40
1.0
 40
1.0
 40
1.0
 40
2.0
 40
2.0
 40
2.0
 40
3.0
 40
3.0
 40
3.0
 40
4.0
 40
4.0
 40
4.0
 40
5.0
 40
5.0
 40
5.0
 40
6.0
 40
6.0
 40
6.0
 40
7.0
 40
7.0
 40
7.0
 40
8.0
 40
8.0
 40
8.0
 40
8.0
 10
2.463841027166267
 20
-0.7361111111111111
 30
0.0
 10
2.428074425603767
 20
-0.7808558146158854
 30
0.0
 10
2.459030270059062
 20
-0.8569590250651041
 30
0.0
 10
2.459535505519132
 20
-0.9133741590711805
 30
0.0
 10
2.44929346721618
 20
-0.8464796278211805
 30
0.0
 10
2.374962819429722
 20
-0.8305418226453992
 30
0.0
 10
2.324667307548212
 20
-0.8917397393120658
 30
0.0
 10
2.252054121241788
 20
-1.03412119547526
 30
0.0
 10
2.478762427448385
 20
-1.087764316134982
 30
0.0
 10
2.530020090751337
 20
-0.9410815768771701
 30
0.0
 10
2.479235449909323
 20
-0.6358116997612848
 30
0.0
 10
2.682624935586406
 20
-0.7726050482855903
 30
0.0
 10
2.593747575560364
 20
-0.8182669745551214
 30
0.0
 10
2.584984792085972
 20
-0.8291880289713541
 30
0.0
 10
2.567649960000469
 20
-0.808103773328993
 30
0.0
 10
2.583623369017395
 20
-0.8123338487413194
 30
0.0
 10
2.641577945297778
 20
-0.7992867363823785
 30
0.0
 10
2.594407094332066
 20
-0.7361119588216145
 30
0.0
 10
2.5528870815825
 20
-0.7651053534613716
 30
0.0
 10
2.444002058253507
 20
-0.9540879991319444
 30
0.0
 10
2.761802792031719
 20
-0.8578177558051214
 30
0.0
 10
2.654747127969219
 20
-0.7361111111111111
 30
0.0
 10
2.654747127969219
 20
-0.7361111111111111
 30
0.0
 10
2.463841027166267
 20
-0.7361111111111111
 30
0.0
 10
2.463841027166267
 20
-0.7361111111111111
 30
0.0
  0
HATCH
  5
AD
330
7E
100
AcDbEntity
  8
Deck Box - DF
 62
   250
420
  2301728
440
 33554687
100
AcDbHatch
 10
0.0
 20
0.0
 30
0.0
210
0.0
220
0.0
230
1.0
  2
SOLID
 70
     1
 71
     1
 91
        2
 92
        1
 93
        1
 72
     4
 94
        3
 73
     0
 74
     0
 95
       14
 96
       10
 40
0.0
 40
0.0
 40
0.0
 40
0.0
 40
1.0
 40
1.0
 40
1.0
 40
2.0
 40
2.0
 40
2.0
 40
3.0
 40
3.0
 40
3.0
 40
3.0
 10
2.394092254651076
 20
-0.9029252794053819
 10
2.400721350788229
 20
-0.9069307115342882
 10
2.414551747652379
 20
-0.9176245795355901
 10
2.399678666868958
 20
-0.9147067599826389
 10
2.31611221314717
 20
-0.9713456895616319
 10
2.445221913668004
 20
-0.98504638671875
 10
2.458746287040399
 20
-0.9289915296766492
 10
2.452439320894566
 20
-1.029862297905815
 10
2.297827945297778
 20
-0.9539888170030382
 10
2.394092254651076
 20
-0.9029252794053819
 97
        0
 97
        1
330
AB
 92
        1
 93
        1
 72
     4
 94
        3
 73
     0
 74
     0
 95
       29
 96
       25
 40
0.0
 40
0.0
 40
0.0
 40
0.0
 40
1.0
 40
1.0
 40
1.0
 40
2.0
 40
2.0
 40
2.0
 40
3.0
 40
3.0
 40
3.0
 40
4.0
 40
4.0
 40
4.0
 40
5.0
 40
5.0
 40
5.0
 40
6.0
 40
6.0
 40
6.0
 40
7.0
 40
7.0
 40
7.0
 40
8.0
 40
8.0
 40
8.0
 40
8.0
 10
2.463841027166267
 20
-0.7361111111111111
 10
2.428074425603767
 20
-0.7808558146158854
 10
2.459030270059062
 20
-0.8569590250651041
 10
2.459535505519132
 20
-0.9133741590711805
 10
2.44929346721618
 20
-0.8464796278211805
 10
2.374962819429722
 20
-0.8305418226453992
 10
2.324667307548212
 20
-0.8917397393120658
 10
2.252054121241788
 20
-1.03412119547526
 10
2.478762427448385
 20
-1.087764316134982
 10
2.530020090751337
 20
-0.9410815768771701
 10
2.479235449909323
 20
-0.6358116997612848
 10
2.682624935586406
 20
-0.7726050482855903
 10
2.593747575560364
 20
-0.8182669745551214
 10
2.584984792085972
 20
-0.8291880289713541
 10
2.567649960000469
 20
-0.808103773328993
 10
2.583623369017395
 20
-0.8123338487413194
 10
2.641577945297778
 20
-0.7992867363823785
 10
2.594407094332066
 20
-0.7361119588216145
 10
2.5528870815825
 20
-0.7651053534613716
 10
2.444002058253507
 20
-0.9540879991319444
 10
2.761802792031719
 20
-0.8578177558051214
 10
2.654747127969219
 20
-0.7361111111111111
 10
2.654747127969219
 20
-0.7361111111111111
 10
2.463841027166267
 20
-0.7361111111111111
 10
2.463841027166267
 20
-0.7361111111111111
 97
        0
 97
        1
330
AC
 75
     2
 76
     1
 98
        1
 10
0.0
 20
0.0
450
        0
451
        0
460
0.0
461
0.0
452
        0
462
0.0
453
        0
470

  0
SPLINE
  5
AE
330
7E
100
AcDbEntity
  8
Deck Box - DF
100
AcDbSpline
210
0.0
220
0.0
230
1.0
 70
     9
 71
     3
 72
    41
 73
    37
 74
     0
 42
0.0000000001
 43
0.0000000001
 40
0.0
 40
0.0
 40
0.0
 40
0.0
 40
1.0
 40
1.0
 40
1.0
 40
2.0
 40
2.0
 40
2.0
 40
3.0
 40
3.0
 40
3.0
 40
4.0
 40
4.0
 40
4.0
 40
5.0
 40
5.0
 40
5.0
 40
6.0
 40
6.0
 40
6.0
 40
7.0
 40
7.0
 40
7.0
 40
8.0
 40
8.0
 40
8.0
 40
9.0
 40
9.0
 40
9.0
 40
10.0
 40
10.0
 40
10.0
 40
11.0
 40
11.0
 40
11.0
 40
12.0
 40
12.0
 40
12.0
 40
12.0
 10
1.125883433036493
 20
-1.291380988226996
 30
0.0
 10
0.8337072923572399
 20
-1.22884284125434
 30
0.0
 10
0.9599602084813719
 20
-1.399948120117187
 30
0.0
 10
0.9701878357057642
 20
-1.492491828070746
 30
0.0
 10
0.9611987135269448
 20
-1.441896226671006
 30
0.0
 10
0.9084363640803303
 20
-1.404841105143229
 30
0.0
 10
0.858545210108976
 20
-1.406589084201388
 30
0.0
 10
0.858545210108976
 20
-1.406589084201388
 30
0.0
 10
0.858545210108976
 20
-1.474427117241753
 30
0.0
 10
0.858545210108976
 20
-1.474427117241753
 30
0.0
 10
0.878842339873131
 20
-1.445854804967969
 30
0.0
 10
0.9177878863346222
 20
-1.479552998664884
 30
0.0
 10
0.8949532113466096
 20
-1.474201066155577
 30
0.0
 10
0.795838368746129
 20
-1.517729017469618
 30
0.0
 10
0.9736507331124483
 20
-1.562573750813801
 30
0.0
 10
0.9704769049874483
 20
-1.495766533745659
 30
0.0
 10
0.9764269850113198
 20
-1.577273898654513
 30
0.0
 10
0.8840002611072399
 20
-1.5458009507921
 30
0.0
 10
0.858545210108976
 20
-1.507808261447482
 30
0.0
 10
0.8257891817238613
 20
-1.629694595266793
 30
0.0
 10
1.039861532730444
 20
-1.628683352291886
 30
0.0
 10
1.060156896288289
 20
-1.531195719197525
 30
0.0
 10
1.079347517237882
 20
-1.469781663682725
 30
0.0
 10
0.9932616678997748
 20
-1.389901902940538
 30
0.0
 10
1.046521623411927
 20
-1.342879401312933
 30
0.0
 10
1.093411882200989
 20
-1.311139424641927
 30
0.0
 10
1.198888261595521
 20
-1.391733805338541
 30
0.0
 10
1.121806793225295
 20
-1.414178636338975
 30
0.0
 10
1.112509952133715
 20
-1.423899332682291
 30
0.0
 10
1.088064524345087
 20
-1.397555033365885
 30
0.0
 10
1.10845111424309
 20
-1.405604892306857
 30
0.0
 10
1.178420291489184
 20
-1.404499477810329
 30
0.0
 10
1.111083255356371
 20
-1.326618618435329
 30
0.0
 10
1.063719974106371
 20
-1.348384433322482
 30
0.0
 10
0.9447700839696532
 20
-1.543497721354166
 30
0.0
 10
1.415641903359844
 20
-1.485319349500868
 30
0.0
 10
1.125883433036493
 20
-1.291380988226996
 30
0.0
  0
HATCH
  5
AF
330
7E
100
AcDbEntity
  8
Deck Box - DF
 62
   250
420
  2301728
440
 33554687
100
AcDbHatch
 10
0.0
 20
0.0
 30
0.0
210
0.0
220
0.0
230
1.0
  2
SOLID
 70
     1
 71
     1
 91
        1
 92
        1
 93
        1
 72
     4
 94
        3
 73
     0
 74
     0
 95
       41
 96
       37
 40
0.0
 40
0.0
 40
0.0
 40
0.0
 40
1.0
 40
1.0
 40
1.0
 40
2.0
 40
2.0
 40
2.0
 40
3.0
 40
3.0
 40
3.0
 40
4.0
 40
4.0
 40
4.0
 40
5.0
 40
5.0
 40
5.0
 40
6.0
 40
6.0
 40
6.0
 40
7.0
 40
7.0
 40
7.0
 40
8.0
 40
8.0
 40
8.0
 40
9.0
 40
9.0
 40
9.0
 40
10.0
 40
10.0
 40
10.0
 40
11.0
 40
11.0
 40
11.0
 40
12.0
 40
12.0
 40
12.0
 40
12.0
 10
1.125883433036493
 20
-1.291380988226996
 10
0.8337072923572399
 20
-1.22884284125434
 10
0.9599602084813719
 20
-1.399948120117187
 10
0.9701878357057642
 20
-1.492491828070746
 10
0.9611987135269448
 20
-1.441896226671006
 10
0.9084363640803303
 20
-1.404841105143229
 10
0.858545210108976
 20
-1.406589084201388
 10
0.858545210108976
 20
-1.406589084201388
 10
0.858545210108976
 20
-1.474427117241753
 10
0.858545210108976
 20
-1.474427117241753
 10
0.878842339873131
 20
-1.445854804967969
 10
0.9177878863346222
 20
-1.479552998664884
 10
0.8949532113466096
 20
-1.474201066155577
 10
0.795838368746129
 20
-1.517729017469618
 10
0.9736507331124483
 20
-1.562573750813801
 10
0.9704769049874483
 20
-1.495766533745659
 10
0.9764269850113198
 20
-1.577273898654513
 10
0.8840002611072399
 20
-1.5458009507921
 10
0.858545210108976
 20
-1.507808261447482
 10
0.8257891817238613
 20
-1.629694595266793
 10
1.039861532730444
 20
-1.628683352291886
 10
1.060156896288289
 20
-1.531195719197525
 10
1.079347517237882
 20
-1.469781663682725
 10
0.9932616678997748
 20
-1.389901902940538
 10
1.046521623411927
 20
-1.342879401312933
 10
1.093411882200989
 20
-1.311139424641927
 10
1.198888261595521
 20
-1.391733805338541
 10
1.121806793225295
 20
-1.414178636338975
 10
1.112509952133715
 20
-1.423899332682291
 10
1.088064524345087
 20
-1.397555033365885
 10
1.10845111424309
 20
-1.405604892306857
 10
1.178420291489184
 20
-1.404499477810329
 10
1.111083255356371
 20
-1.326618618435329
 10
1.063719974106371
 20
-1.348384433322482
 10
0.9447700839696532
 20
-1.543497721354166
 10
1.415641903359844
 20
-1.485319349500868
 10
1.125883433036493
 20
-1.291380988226996
 97
        0
 97
        1
330
AE
 75
     2
 76
     1
 98
        1
 10
0.0
 20
0.0
450
        0
451
        0
460
0.0
461
0.0
452
        0
462
0.0
453
        0
470

  0
SPLINE
  5
B0
330
7E
100
AcDbEntity
  8
Deck Box - DF
100
AcDbSpline
210
0.0
220
0.0
230
1.0
 70
     9
 71
     3
 72
    23
 73
    19
 74
     0
 42
0.0000000001
 43
0.0000000001
 40
0.0
 40
0.0
 40
0.0
 40
0.0
 40
1.0
 40
1.0
 40
1.0
 40
2.0
 40
2.0
 40
2.0
 40
3.0
 40
3.0
 40
3.0
 40
4.0
 40
4.0
 40
4.0
 40
5.0
 40
5.0
 40
5.0
 40
6.0
 40
6.0
 40
6.0
 40
6.0
 10
1.86342294273374
 20
-1.667152608267631
 30
0.0
 10
1.874170258691694
 20
-1.660516109626352
 30
0.0
 10
2.00407477857622
 20
-1.68360485816149
 30
0.0
 10
1.99244326765558
 20
-1.65018953330131
 30
0.0
 10
1.928193111462039
 20
-1.340834927061033
 30
0.0
 10
2.212347367646935
 20
-1.497401970789319
 30
0.0
 10
2.064905927488514
 20
-1.557918328211194
 30
0.0
 10
2.057852976099626
 20
-1.551318054231172
 30
0.0
 10
2.043652129745459
 20
-1.534908074304944
 30
0.0
 10
2.060600405841379
 20
-1.542881639300617
 30
0.0
 10
2.19165051570466
 20
-1.497962307432114
 30
0.0
 10
1.95179930585223
 20
-1.426390957334458
 30
0.0
 10
1.995071536212473
 20
-1.557351209884371
 30
0.0
 10
2.258885826577056
 20
-1.80388407392517
 30
0.0
 10
2.193861344697716
 20
-1.199548712868325
 30
0.0
 10
1.912234961234174
 20
-1.4721012031027
 30
0.0
 10
1.911991668319678
 20
-1.589808349641316
 30
0.0
 10
1.88966551678973
 20
-1.645838623078816
 30
0.0
 10
1.86342294273374
 20
-1.667152608267631
 30
0.0
  0
HATCH
  5
B1
330
7E
100
AcDbEntity
  8
Deck Box - DF
 62
   250
420
  2301728
440
 33554687
100
AcDbHatch
 10
0.0
 20
0.0
 30
0.0
210
0.0
220
0.0
230
1.0
  2
SOLID
 70
     1
 71
     1
 91
        1
 92
        1
 93
        1
 72
     4
 94
        3
 73
     0
 74
     0
 95
       23
 96
       19
 40
0.0
 40
0.0
 40
0.0
 40
0.0
 40
1.0
 40
1.0
 40
1.0
 40
2.0
 40
2.0
 40
2.0
 40
3.0
 40
3.0
 40
3.0
 40
4.0
 40
4.0
 40
4.0
 40
5.0
 40
5.0
 40
5.0
 40
6.0
 40
6.0
 40
6.0
 40
6.0
 10
1.86342294273374
 20
-1.667152608267631
 10
1.874170258691694
 20
-1.660516109626352
 10
2.00407477857622
 20
-1.68360485816149
 10
1.99244326765558
 20
-1.65018953330131
 10
1.928193111462039
 20
-1.340834927061033
 10
2.212347367646935
 20
-1.497401970789319
 10
2.064905927488514
 20
-1.557918328211194
 10
2.057852976099626
 20
-1.551318054231172
 10
2.043652129745459
 20
-1.534908074304944
 10
2.060600405841379
 20
-1.542881639300617
 10
2.19165051570466
 20
-1.497962307432114
 10
1.95179930585223
 20
-1.426390957334458
 10
1.995071536212473
 20
-1.557351209884371
 10
2.258885826577056
 20
-1.80388407392517
 10
2.193861344697716
 20
-1.199548712868325
 10
1.912234961234174
 20
-1.4721012031027
 10
1.911991668319678
 20
-1.589808349641316
 10
1.88966551678973
 20
-1.645838623078816
 10
1.86342294273374
 20
-1.667152608267631
 97
        0
 97
        1
330
B0
 75
     2
 76
     1
 98
        1
 10
0.0
 20
0.0
450
        0
451
        0
460
0.0
461
0.0
452
        0
462
0.0
453
        0
470

  0
SPLINE
  5
B2
330
7E
100
AcDbEntity
  8
Deck Box - DF
100
AcDbSpline
210
0.0
220
0.0
230
1.0
 70
     9
 71
     3
 72
    20
 73
    16
 74
     0
 42
0.0000000001
 43
0.0000000001
 40
0.0
 40
0.0
 40
0.0
 40
0.0
 40
1.0
 40
1.0
 40
1.0
 40
2.0
 40
2.0
 40
2.0
 40
3.0
 40
3.0
 40
3.0
 40
4.0
 40
4.0
 40
4.0
 40
5.0
 40
5.0
 40
5.0
 40
5.0
 10
1.80456046850414
 20
-1.667152608267631
 30
0.0
 10
1.775855295435563
 20
-1.645783521896103
 30
0.0
 10
1.764607872475494
 20
-1.599367980988972
 30
0.0
 10
1.813178293482438
 20
-1.590479736360066
 30
0.0
 10
1.825632856199452
 20
-1.58092519127543
 30
0.0
 10
1.841929242918202
 20
-1.610152554014158
 30
0.0
 10
1.823942521455528
 20
-1.60035386830451
 30
0.0
 10
1.753133263100494
 20
-1.596810438399996
 30
0.0
 10
1.796347849146501
 20
-1.682881876659545
 30
0.0
 10
1.850916669676015
 20
-1.663273485003742
 30
0.0
 10
2.017178130722022
 20
-1.483352864615274
 30
0.0
 10
1.617394466442508
 20
-1.492961663172144
 30
0.0
 10
1.726989023462907
 20
-1.667152608267631
 30
0.0
 10
1.726989023462907
 20
-1.667152608267631
 30
0.0
 10
1.80456046850414
 20
-1.667152608267631
 30
0.0
 10
1.80456046850414
 20
-1.667152608267631
 30
0.0
  0
HATCH
  5
B3
330
7E
100
AcDbEntity
  8
Deck Box - DF
 62
   250
420
  2301728
440
 33554687
100
AcDbHatch
 10
0.0
 20
0.0
 30
0.0
210
0.0
220
0.0
230
1.0
  2
SOLID
 70
     1
 71
     1
 91
        1
 92
        1
 93
        1
 72
     4
 94
        3
 73
     0
 74
     0
 95
       20
 96
       16
 40
0.0
 40
0.0
 40
0.0
 40
0.0
 40
1.0
 40
1.0
 40
1.0
 40
2.0
 40
2.0
 40
2.0
 40
3.0
 40
3.0
 40
3.0
 40
4.0
 40
4.0
 40
4.0
 40
5.0
 40
5.0
 40
5.0
 40
5.0
 10
1.80456046850414
 20
-1.667152608267631
 10
1.775855295435563
 20
-1.645783521896103
 10
1.764607872475494
 20
-1.599367980988972
 10
1.813178293482438
 20
-1.590479736360066
 10
1.825632856199452
 20
-1.58092519127543
 10
1.841929242918202
 20
-1.610152554014158
 10
1.823942521455528
 20
-1.60035386830451
 10
1.753133263100494
 20
-1.596810438399996
 10
1.796347849146501
 20
-1.682881876659545
 10
1.850916669676015
 20
-1.663273485003742
 10
2.017178130722022
 20
-1.483352864615274
 10
1.617394466442508
 20
-1.492961663172144
 10
1.726989023462907
 20
-1.667152608267631
 10
1.726989023462907
 20
-1.667152608267631
 10
1.80456046850414
 20
-1.667152608267631
 10
1.80456046850414
 20
-1.667152608267631
 97
        0
 97
        1
330
B2
 75
     2
 76
     1
 98
        1
 10
0.0
 20
0.0
450
        0
451
        0
460
0.0
461
0.0
452
        0
462
0.0
453
        0
470

  0
SPLINE
  5
B4
330
7E
100
AcDbEntity
  8
Deck Box - DF
100
AcDbSpline
210
0.0
220
0.0
230
1.0
 70
     9
 71
     3
 72
    23
 73
    19
 74
     0
 42
0.0000000001
 43
0.0000000001
 40
0.0
 40
0.0
 40
0.0
 40
0.0
 40
1.0
 40
1.0
 40
1.0
 40
2.0
 40
2.0
 40
2.0
 40
3.0
 40
3.0
 40
3.0
 40
4.0
 40
4.0
 40
4.0
 40
5.0
 40
5.0
 40
5.0
 40
6.0
 40
6.0
 40
6.0
 40
6.0
 10
1.349800234942942
 20
-1.656513841449042
 30
0.0
 10
1.419535940895166
 20
-1.673925104426946
 30
0.0
 10
1.505368683104911
 20
-1.686304641278285
 30
0.0
 10
1.434415279869603
 20
-1.581359976118442
 30
0.0
 10
1.385077707544938
 20
-1.56464575876675
 30
0.0
 10
1.32507336726716
 20
-1.649502427874823
 30
0.0
 10
1.395068823538862
 20
-1.643211568228555
 30
0.0
 10
1.260092118623497
 20
-1.679027337000269
 30
0.0
 10
1.495645436223323
 20
-1.439477064376559
 30
0.0
 10
1.466559641138688
 20
-1.667152608267631
 30
0.0
 10
1.466559641138688
 20
-1.667152608267631
 30
0.0
 10
1.545747670110042
 20
-1.667152608267631
 30
0.0
 10
1.545747670110042
 20
-1.667152608267631
 30
0.0
 10
1.652084845439882
 20
-1.436099336035037
 30
0.0
 10
1.294864069264728
 20
-1.475378492609277
 30
0.0
 10
1.282084272215077
 20
-1.656513841449042
 30
0.0
 10
1.282084272215077
 20
-1.656513841449042
 30
0.0
 10
1.349800234942942
 20
-1.656513841449042
 30
0.0
 10
1.349800234942942
 20
-1.656513841449042
 30
0.0
  0
HATCH
  5
B5
330
7E
100
AcDbEntity
  8
Deck Box - DF
 62
   250
420
  2301728
440
 33554687
100
AcDbHatch
 10
0.0
 20
0.0
 30
0.0
210
0.0
220
0.0
230
1.0
  2
SOLID
 70
     1
 71
     1
 91
        1
 92
        1
 93
        1
 72
     4
 94
        3
 73
     0
 74
     0
 95
       23
 96
       19
 40
0.0
 40
0.0
 40
0.0
 40
0.0
 40
1.0
 40
1.0
 40
1.0
 40
2.0
 40
2.0
 40
2.0
 40
3.0
 40
3.0
 40
3.0
 40
4.0
 40
4.0
 40
4.0
 40
5.0
 40
5.0
 40
5.0
 40
6.0
 40
6.0
 40
6.0
 40
6.0
 10
1.349800234942942
 20
-1.656513841449042
 10
1.419535940895166
 20
-1.673925104426946
 10
1.505368683104911
 20
-1.686304641278285
 10
1.434415279869603
 20
-1.581359976118442
 10
1.385077707544938
 20
-1.56464575876675
 10
1.32507336726716
 20
-1.649502427874823
 10
1.395068823538862
 20
-1.643211568228555
 10
1.260092118623497
 20
-1.679027337000269
 10
1.495645436223323
 20
-1.439477064376559
 10
1.466559641138688
 20
-1.667152608267631
 10
1.466559641138688
 20
-1.667152608267631
 10
1.545747670110042
 20
-1.667152608267631
 10
1.545747670110042
 20
-1.667152608267631
 10
1.652084845439882
 20
-1.436099336035037
 10
1.294864069264728
 20
-1.475378492609277
 10
1.282084272215077
 20
-1.656513841449042
 10
1.282084272215077
 20
-1.656513841449042
 10
1.349800234942942
 20
-1.656513841449042
 10
1.349800234942942
 20
-1.656513841449042
 97
        0
 97
        1
330
B4
 75
     2
 76
     1
 98
        1
 10
0.0
 20
0.0
450
        0
451
        0
460
0.0
461
0.0
452
        0
462
0.0
453
        0
470

  0
SPLINE
  5
B6
330
7E
100
AcDbEntity
  8
Deck Box - DF
100
AcDbSpline
210
0.0
220
0.0
230
1.0
 70
     9
 71
     3
 72
    23
 73
    19
 74
     0
 42
0.0000000001
 43
0.0000000001
 40
0.0
 40
0.0
 40
0.0
 40
0.0
 40
1.0
 40
1.0
 40
1.0
 40
2.0
 40
2.0
 40
2.0
 40
3.0
 40
3.0
 40
3.0
 40
4.0
 40
4.0
 40
4.0
 40
5.0
 40
5.0
 40
5.0
 40
6.0
 40
6.0
 40
6.0
 40
6.0
 10
1.271467259045834
 20
-1.251614901142475
 30
0.0
 10
1.339166850171939
 20
-1.290158054379377
 30
0.0
 10
1.311312735292669
 20
-1.190562560893087
 30
0.0
 10
1.255556293925906
 20
-1.181111882305357
 30
0.0
 10
1.049169488863539
 20
-1.268572864775516
 30
0.0
 10
1.52873602828116
 20
-1.487789310975282
 30
0.0
 10
1.342171000562567
 20
-1.171002461300923
 30
0.0
 10
1.170420943784519
 20
-0.9780970957481384
 30
0.0
 10
1.051948958640082
 20
-1.188164914598966
 30
0.0
 10
1.193042853861179
 20
-1.331896160043773
 30
0.0
 10
1.16762569398112
 20
-1.206742339803124
 30
0.0
 10
1.176774839242334
 20
-1.173452579779286
 30
0.0
 10
1.241644692560675
 20
-1.167063967589911
 30
0.0
 10
1.301660487719282
 20
-1.168351721113253
 30
0.0
 10
1.364849457495173
 20
-1.291582830461922
 30
0.0
 10
1.280240070164824
 20
-1.265926519651076
 30
0.0
 10
1.266720968010493
 20
-1.268385428255858
 30
0.0
 10
1.255697809176012
 20
-1.233756208082543
 30
0.0
 10
1.271467259045834
 20
-1.251614901142475
 30
0.0
  0
HATCH
  5
B7
330
7E
100
AcDbEntity
  8
Deck Box - DF
 62
   250
420
  2301728
440
 33554687
100
AcDbHatch
 10
0.0
 20
0.0
 30
0.0
210
0.0
220
0.0
230
1.0
  2
SOLID
 70
     1
 71
     1
 91
        1
 92
        1
 93
        1
 72
     4
 94
        3
 73
     0
 74
     0
 95
       23
 96
       19
 40
0.0
 40
0.0
 40
0.0
 40
0.0
 40
1.0
 40
1.0
 40
1.0
 40
2.0
 40
2.0
 40
2.0
 40
3.0
 40
3.0
 40
3.0
 40
4.0
 40
4.0
 40
4.0
 40
5.0
 40
5.0
 40
5.0
 40
6.0
 40
6.0
 40
6.0
 40
6.0
 10
1.271467259045834
 20
-1.251614901142475
 10
1.339166850171939
 20
-1.290158054379377
 10
1.311312735292669
 20
-1.190562560893087
 10
1.255556293925906
 20
-1.181111882305357
 10
1.049169488863539
 20
-1.268572864775516
 10
1.52873602828116
 20
-1.487789310975282
 10
1.342171000562567
 20
-1.171002461300923
 10
1.170420943784519
 20
-0.9780970957481384
 10
1.051948958640082
 20
-1.188164914598966
 10
1.193042853861179
 20
-1.331896160043773
 10
1.16762569398112
 20
-1.206742339803124
 10
1.176774839242334
 20
-1.173452579779286
 10
1.241644692560675
 20
-1.167063967589911
 10
1.301660487719282
 20
-1.168351721113253
 10
1.364849457495173
 20
-1.291582830461922
 10
1.280240070164824
 20
-1.265926519651076
 10
1.266720968010493
 20
-1.268385428255858
 10
1.255697809176012
 20
-1.233756208082543
 10
1.271467259045834
 20
-1.251614901142475
 97
        0
 97
        1
330
B6
 75
     2
 76
     1
 98
        1
 10
0.0
 20
0.0
450
        0
451
        0
460
0.0
461
0.0
452
        0
462
0.0
453
        0
470

  0
SPLINE
  5
B8
330
7E
100
AcDbEntity
  8
Deck Box - DF
100
AcDbSpline
210
0.0
220
0.0
230
1.0
 70
     9
 71
     3
 72
    11
 73
     7
 74
     0
 42
0.0000000001
 43
0.0000000001
 40
0.0
 40
0.0
 40
0.0
 40
0.0
 40
1.0
 40
1.0
 40
1.0
 40
2.0
 40
2.0
 40
2.0
 40
2.0
 10
2.257832116033455
 20
-0.7361111111111111
 30
0.0
 10
2.308798816796777
 20
-0.7833342246936152
 30
0.0
 10
2.402197392091946
 20
-0.7770760833209604
 30
0.0
 10
2.451856096068177
 20
-0.7361111111111111
 30
0.0
 10
2.451856096068177
 20
-0.7361111111111111
 30
0.0
 10
2.257832116033455
 20
-0.7361111111111111
 30
0.0
 10
2.257832116033455
 20
-0.7361111111111111
 30
0.0
  0
HATCH
  5
B9
330
7E
100
AcDbEntity
  8
Deck Box - DF
 62
   250
420
  2301728
440
 33554687
100
AcDbHatch
 10
0.0
 20
0.0
 30
0.0
210
0.0
220
0.0
230
1.0
  2
SOLID
 70
     1
 71
     1
 91
        1
 92
        1
 93
        1
 72
     4
 94
        3
 73
     0
 74
     0
 95
       11
 96
        7
 40
0.0
 40
0.0
 40
0.0
 40
0.0
 40
1.0
 40
1.0
 40
1.0
 40
2.0
 40
2.0
 40
2.0
 40
2.0
 10
2.257832116033455
 20
-0.7361111111111111
 10
2.308798816796777
 20
-0.7833342246936152
 10
2.402197392091946
 20
-0.7770760833209604
 10
2.451856096068177
 20
-0.7361111111111111
 10
2.451856096068177
 20
-0.7361111111111111
 10
2.257832116033455
 20
-0.7361111111111111
 10
2.257832116033455
 20
-0.7361111111111111
 97
        0
 97
        1
330
B8
 75
     2
 76
     1
 98
        1
 10
0.0
 20
0.0
450
        0
451
        0
460
0.0
461
0.0
452
        0
462
0.0
453
        0
470

  0
SPLINE
  5
BA
330
7E
100
AcDbEntity
  8
Deck Box - DF
100
AcDbSpline
210
0.0
220
0.0
230
1.0
 70
     9
 71
     3
 72
    17
 73
    13
 74
     0
 42
0.0000000001
 43
0.0000000001
 40
0.0
 40
0.0
 40
0.0
 40
0.0
 40
1.0
 40
1.0
 40
1.0
 40
2.0
 40
2.0
 40
2.0
 40
3.0
 40
3.0
 40
3.0
 40
4.0
 40
4.0
 40
4.0
 40
4.0
 10
3.524521846813601
 20
-1.667152608267631
 30
0.0
 10
3.537330404525151
 20
-1.646741544582204
 30
0.0
 10
3.565840395260579
 20
-1.63876077560312
 30
0.0
 10
3.587093054495893
 20
-1.645261332225964
 30
0.0
 10
3.587093054495893
 20
-1.645261332225964
 30
0.0
 10
3.587093054495893
 20
-1.589815131325344
 30
0.0
 10
3.587093054495893
 20
-1.589815131325344
 30
0.0
 10
3.472569060897803
 20
-1.580692918597492
 30
0.0
 10
3.438052832327924
 20
-1.617452189159545
 30
0.0
 10
3.429217993460737
 20
-1.667152608267631
 30
0.0
 10
3.429217993460737
 20
-1.667152608267631
 30
0.0
 10
3.524521846813601
 20
-1.667152608267631
 30
0.0
 10
3.524521846813601
 20
-1.667152608267631
 30
0.0
  0
HATCH
  5
BB
330
7E
100
AcDbEntity
  8
Deck Box - DF
 62
   250
420
  2301728
440
 33554687
100
AcDbHatch
 10
0.0
 20
0.0
 30
0.0
210
0.0
220
0.0
230
1.0
  2
SOLID
 70
     1
 71
     1
 91
        1
 92
        1
 93
        1
 72
     4
 94
        3
 73
     0
 74
     0
 95
       17
 96
       13
 40
0.0
 40
0.0
 40
0.0
 40
0.0
 40
1.0
 40
1.0
 40
1.0
 40
2.0
 40
2.0
 40
2.0
 40
3.0
 40
3.0
 40
3.0
 40
4.0
 40
4.0
 40
4.0
 40
4.0
 10
3.524521846813601
 20
-1.667152608267631
 10
3.537330404525151
 20
-1.646741544582204
 10
3.565840395260579
 20
-1.63876077560312
 10
3.587093054495893
 20
-1.645261332225964
 10
3.587093054495893
 20
-1.645261332225964
 10
3.587093054495893
 20
-1.589815131325344
 10
3.587093054495893
 20
-1.589815131325344
 10
3.472569060897803
 20
-1.580692918597492
 10
3.438052832327924
 20
-1.617452189159545
 10
3.429217993460737
 20
-1.667152608267631
 10
3.429217993460737
 20
-1.667152608267631
 10
3.524521846813601
 20
-1.667152608267631
 10
3.524521846813601
 20
-1.667152608267631
 97
        0
 97
        1
330
BA
 75
     2
 76
     1
 98
        1
 10
0.0
 20
0.0
450
        0
451
        0
460
0.0
461
0.0
452
        0
462
0.0
453
        0
470

  0
SPLINE
  5
BC
330
7E
100
AcDbEntity
  8
Deck Box - DF
100
AcDbSpline
210
0.0
220
0.0
230
1.0
 70
     9
 71
     3
 72
    11
 73
     7
 74
     0
 42
0.0000000001
 43
0.0000000001
 40
0.0
 40
0.0
 40
0.0
 40
0.0
 40
1.0
 40
1.0
 40
1.0
 40
2.0
 40
2.0
 40
2.0
 40
2.0
 10
2.893365773137386
 20
-1.667152608267631
 30
0.0
 10
2.856487823104834
 20
-1.58836893720642
 30
0.0
 10
2.784575693384782
 20
-1.618063388432561
 30
0.0
 10
2.752747554821414
 20
-1.667152608267631
 30
0.0
 10
2.752747554821414
 20
-1.667152608267631
 30
0.0
 10
2.893365773137386
 20
-1.667152608267631
 30
0.0
 10
2.893365773137386
 20
-1.667152608267631
 30
0.0
  0
HATCH
  5
BD
330
7E
100
AcDbEntity
  8
Deck Box - DF
 62
   250
420
  2301728
440
 33554687
100
AcDbHatch
 10
0.0
 20
0.0
 30
0.0
210
0.0
220
0.0
230
1.0
  2
SOLID
 70
     1
 71
     1
 91
        1
 92
        1
 93
        1
 72
     4
 94
        3
 73
     0
 74
     0
 95
       11
 96
        7
 40
0.0
 40
0.0
 40
0.0
 40
0.0
 40
1.0
 40
1.0
 40
1.0
 40
2.0
 40
2.0
 40
2.0
 40
2.0
 10
2.893365773137386
 20
-1.667152608267631
 10
2.856487823104834
 20
-1.58836893720642
 10
2.784575693384782
 20
-1.618063388432561
 10
2.752747554821414
 20
-1.667152608267631
 10
2.752747554821414
 20
-1.667152608267631
 10
2.893365773137386
 20
-1.667152608267631
 10
2.893365773137386
 20
-1.667152608267631
 97
        0
 97
        1
330
BC
 75
     2
 76
     1
 98
        1
 10
0.0
 20
0.0
450
        0
451
        0
460
0.0
461
0.0
452
        0
462
0.0
453
        0
470

  0
SPLINE
  5
BE
330
7E
100
AcDbEntity
  8
Deck Box - DF
100
AcDbSpline
210
0.0
220
0.0
230
1.0
 70
     9
 71
     3
 72
    17
 73
    13
 74
     0
 42
0.0000000001
 43
0.0000000001
 40
0.0
 40
0.0
 40
0.0
 40
0.0
 40
1.0
 40
1.0
 40
1.0
 40
2.0
 40
2.0
 40
2.0
 40
3.0
 40
3.0
 40
3.0
 40
4.0
 40
4.0
 40
4.0
 40
4.0
 10
2.583353184687855
 20
-1.226245614856048
 30
0.0
 10
2.490073625191156
 20
-1.387223507827684
 30
0.0
 10
2.853216091639738
 20
-1.431095181408661
 30
0.0
 10
2.659243940731648
 20
-1.272393948413284
 30
0.0
 10
2.613698941357029
 20
-1.254959961410261
 30
0.0
 10
2.610614714051722
 20
-1.319216254183793
 30
0.0
 10
2.66030399545923
 20
-1.319566970712255
 30
0.0
 10
2.563918361105872
 20
-1.33101259873106
 30
0.0
 10
2.656483975137525
 20
-1.131604371436297
 30
0.0
 10
2.756396931672586
 20
-1.416175754495813
 30
0.0
 10
2.852291107923406
 20
-1.365110167881741
 30
0.0
 10
2.701771840475973
 20
-1.153044399431804
 30
0.0
 10
2.583353184687855
 20
-1.226245614856048
 30
0.0
  0
HATCH
  5
BF
330
7E
100
AcDbEntity
  8
Deck Box - DF
 62
   250
420
  2301728
440
 33554687
100
AcDbHatch
 10
0.0
 20
0.0
 30
0.0
210
0.0
220
0.0
230
1.0
  2
SOLID
 70
     1
 71
     1
 91
        1
 92
        1
 93
        1
 72
     4
 94
        3
 73
     0
 74
     0
 95
       17
 96
       13
 40
0.0
 40
0.0
 40
0.0
 40
0.0
 40
1.0
 40
1.0
 40
1.0
 40
2.0
 40
2.0
 40
2.0
 40
3.0
 40
3.0
 40
3.0
 40
4.0
 40
4.0
 40
4.0
 40
4.0
 10
2.583353184687855
 20
-1.226245614856048
 10
2.490073625191156
 20
-1.387223507827684
 10
2.853216091639738
 20
-1.431095181408661
 10
2.659243940731648
 20
-1.272393948413284
 10
2.613698941357029
 20
-1.254959961410261
 10
2.610614714051722
 20
-1.319216254183793
 10
2.66030399545923
 20
-1.319566970712255
 10
2.563918361105872
 20
-1.33101259873106
 10
2.656483975137525
 20
-1.131604371436297
 10
2.756396931672586
 20
-1.416175754495813
 10
2.852291107923406
 20
-1.365110167881741
 10
2.701771840475973
 20
-1.153044399431804
 10
2.583353184687855
 20
-1.226245614856048
 97
        0
 97
        1
330
BE
 75
     2
 76
     1
 98
        1
 10
0.0
 20
0.0
450
        0
451
        0
460
0.0
461
0.0
452
        0
462
0.0
453
        0
470

  0
SPLINE
  5
C0
330
7E
100
AcDbEntity
  8
Deck Box - DF
100
AcDbSpline
210
0.0
220
0.0
230
1.0
 70
     9
 71
     3
 72
    20
 73
    16
 74
     0
 42
0.0000000001
 43
0.0000000001
 40
0.0
 40
0.0
 40
0.0
 40
0.0
 40
1.0
 40
1.0
 40
1.0
 40
2.0
 40
2.0
 40
2.0
 40
3.0
 40
3.0
 40
3.0
 40
4.0
 40
4.0
 40
4.0
 40
5.0
 40
5.0
 40
5.0
 40
5.0
 10
2.980983435355268
 20
-1.667152608267631
 30
0.0
 10
2.985205033662559
 20
-1.656932610437769
 30
0.0
 10
2.997701981904747
 20
-1.653148430750269
 30
0.0
 10
3.021982106145199
 20
-1.663919440407375
 30
0.0
 10
3.01177991023591
 20
-1.663240424294094
 30
0.0
 10
3.004153058836171
 20
-1.664617106151732
 30
0.0
 10
2.998321658282785
 20
-1.667152608267631
 30
0.0
 10
2.998321658282785
 20
-1.667152608267631
 30
0.0
 10
3.087361778725494
 20
-1.667152608267631
 30
0.0
 10
3.087361778725494
 20
-1.667152608267631
 30
0.0
 10
3.116265316051883
 20
-1.571578335264158
 30
0.0
 10
2.913975310897803
 20
-1.572465888161281
 30
0.0
 10
2.905716067462473
 20
-1.667152608267631
 30
0.0
 10
2.905716067462473
 20
-1.667152608267631
 30
0.0
 10
2.980983435355268
 20
-1.667152608267631
 30
0.0
 10
2.980983435355268
 20
-1.667152608267631
 30
0.0
  0
HATCH
  5
C1
330
7E
100
AcDbEntity
  8
Deck Box - DF
 62
   250
420
  2301728
440
 33554687
100
AcDbHatch
 10
0.0
 20
0.0
 30
0.0
210
0.0
220
0.0
230
1.0
  2
SOLID
 70
     1
 71
     1
 91
        1
 92
        1
 93
        1
 72
     4
 94
        3
 73
     0
 74
     0
 95
       20
 96
       16
 40
0.0
 40
0.0
 40
0.0
 40
0.0
 40
1.0
 40
1.0
 40
1.0
 40
2.0
 40
2.0
 40
2.0
 40
3.0
 40
3.0
 40
3.0
 40
4.0
 40
4.0
 40
4.0
 40
5.0
 40
5.0
 40
5.0
 40
5.0
 10
2.980983435355268
 20
-1.667152608267631
 10
2.985205033662559
 20
-1.656932610437769
 10
2.997701981904747
 20
-1.653148430750269
 10
3.021982106145199
 20
-1.663919440407375
 10
3.01177991023591
 20
-1.663240424294094
 10
3.004153058836171
 20
-1.664617106151732
 10
2.998321658282785
 20
-1.667152608267631
 10
2.998321658282785
 20
-1.667152608267631
 10
3.087361778725494
 20
-1.667152608267631
 10
3.087361778725494
 20
-1.667152608267631
 10
3.116265316051883
 20
-1.571578335264158
 10
2.913975310897803
 20
-1.572465888161281
 10
2.905716067462473
 20
-1.667152608267631
 10
2.905716067462473
 20
-1.667152608267631
 10
2.980983435355268
 20
-1.667152608267631
 10
2.980983435355268
 20
-1.667152608267631
 97
        0
 97
        1
330
C0
 75
     2
 76
     1
 98
        1
 10
0.0
 20
0.0
450
        0
451
        0
460
0.0
461
0.0
452
        0
462
0.0
453
        0
470

  0
SPLINE
  5
C2
330
7E
100
AcDbEntity
  8
Deck Box - DF
100
AcDbSpline
210
0.0
220
0.0
230
1.0
 70
     9
 71
     3
 72
    38
 73
    34
 74
     0
 42
0.0000000001
 43
0.0000000001
 40
0.0
 40
0.0
 40
0.0
 40
0.0
 40
1.0
 40
1.0
 40
1.0
 40
2.0
 40
2.0
 40
2.0
 40
3.0
 40
3.0
 40
3.0
 40
4.0
 40
4.0
 40
4.0
 40
5.0
 40
5.0
 40
5.0
 40
6.0
 40
6.0
 40
6.0
 40
7.0
 40
7.0
 40
7.0
 40
8.0
 40
8.0
 40
8.0
 40
9.0
 40
9.0
 40
9.0
 40
10.0
 40
10.0
 40
10.0
 40
11.0
 40
11.0
 40
11.0
 40
11.0
 10
3.185146880722022
 20
-1.667152608267631
 30
0.0
 10
3.183423485268463
 20
-1.631469930044962
 30
0.0
 10
3.18556649742124
 20
-1.604146525097045
 30
0.0
 10
3.190475588946848
 20
-1.583893873458603
 30
0.0
 10
3.190328935029747
 20
-1.584553392230292
 30
0.0
 10
3.190306894556657
 20
-1.58532141794645
 30
0.0
 10
3.190184824244157
 20
-1.586002977191242
 30
0.0
 10
3.190329581570621
 20
-1.585257465425709
 30
0.0
 10
3.190575948138012
 20
-1.584282493057735
 30
0.0
 10
3.190633263100494
 20
-1.583668382464667
 30
0.0
 10
3.190660512870749
 20
-1.583471316181367
 30
0.0
 10
3.190680057689935
 20
-1.583272089471178
 30
0.0
 10
3.190701927651275
 20
-1.583073289691242
 30
0.0
 10
3.190659542126101
 20
-1.583247918054944
 30
0.0
 10
3.190587486733306
 20
-1.583395419682561
 30
0.0
 10
3.190546796629139
 20
-1.583571743467283
 30
0.0
 10
3.20916631827529
 20
-1.45085810301695
 30
0.0
 10
3.394431314582927
 20
-1.624353562914304
 30
0.0
 10
3.259719126001969
 20
-1.610516221820135
 30
0.0
 10
3.374421842933972
 20
-1.573293284644389
 30
0.0
 10
3.210092215803506
 20
-1.512938170187011
 30
0.0
 10
3.192432104788862
 20
-1.580055440298881
 30
0.0
 10
3.175242422468083
 20
-1.620891038390835
 30
0.0
 10
3.222912995907942
 20
-1.651621390946022
 30
0.0
 10
3.24792245008128
 20
-1.667151734191596
 30
0.0
 10
3.247918148083133
 20
-1.667152608267631
 30
0.0
 10
3.343210133488948
 20
-1.667152608267631
 30
0.0
 10
3.343210133488948
 20
-1.667152608267631
 30
0.0
 10
3.449256788394071
 20
-1.468183384222255
 30
0.0
 10
3.099440136084164
 20
-1.350417631024608
 30
0.0
 10
3.094156178410824
 20
-1.667152608267631
 30
0.0
 10
3.094156178410824
 20
-1.667152608267631
 30
0.0
 10
3.185146880722022
 20
-1.667152608267631
 30
0.0
 10
3.185146880722022
 20
-1.667152608267631
 30
0.0
  0
HATCH
  5
C3
330
7E
100
AcDbEntity
  8
Deck Box - DF
 62
   250
420
  2301728
440
 33554687
100
AcDbHatch
 10
0.0
 20
0.0
 30
0.0
210
0.0
220
0.0
230
1.0
  2
SOLID
 70
     1
 71
     1
 91
        1
 92
        1
 93
        1
 72
     4
 94
        3
 73
     0
 74
     0
 95
       38
 96
       34
 40
0.0
 40
0.0
 40
0.0
 40
0.0
 40
1.0
 40
1.0
 40
1.0
 40
2.0
 40
2.0
 40
2.0
 40
3.0
 40
3.0
 40
3.0
 40
4.0
 40
4.0
 40
4.0
 40
5.0
 40
5.0
 40
5.0
 40
6.0
 40
6.0
 40
6.0
 40
7.0
 40
7.0
 40
7.0
 40
8.0
 40
8.0
 40
8.0
 40
9.0
 40
9.0
 40
9.0
 40
10.0
 40
10.0
 40
10.0
 40
11.0
 40
11.0
 40
11.0
 40
11.0
 10
3.185146880722022
 20
-1.667152608267631
 10
3.183423485268463
 20
-1.631469930044962
 10
3.18556649742124
 20
-1.604146525097045
 10
3.190475588946848
 20
-1.583893873458603
 10
3.190328935029747
 20
-1.584553392230292
 10
3.190306894556657
 20
-1.58532141794645
 10
3.190184824244157
 20
-1.586002977191242
 10
3.190329581570621
 20
-1.585257465425709
 10
3.190575948138012
 20
-1.584282493057735
 10
3.190633263100494
 20
-1.583668382464667
 10
3.190660512870749
 20
-1.583471316181367
 10
3.190680057689935
 20
-1.583272089471178
 10
3.190701927651275
 20
-1.583073289691242
 10
3.190659542126101
 20
-1.583247918054944
 10
3.190587486733306
 20
-1.583395419682561
 10
3.190546796629139
 20
-1.583571743467283
 10
3.20916631827529
 20
-1.45085810301695
 10
3.394431314582927
 20
-1.624353562914304
 10
3.259719126001969
 20
-1.610516221820135
 10
3.374421842933972
 20
-1.573293284644389
 10
3.210092215803506
 20
-1.512938170187011
 10
3.192432104788862
 20
-1.580055440298881
 10
3.175242422468083
 20
-1.620891038390835
 10
3.222912995907942
 20
-1.651621390946022
 10
3.24792245008128
 20
-1.667151734191596
 10
3.247918148083133
 20
-1.667152608267631
 10
3.343210133488948
 20
-1.667152608267631
 10
3.343210133488948
 20
-1.667152608267631
 10
3.449256788394071
 20
-1.468183384222255
 10
3.099440136084164
 20
-1.350417631024608
 10
3.094156178410824
 20
-1.667152608267631
 10
3.094156178410824
 20
-1.667152608267631
 10
3.185146880722022
 20
-1.667152608267631
 10
3.185146880722022
 20
-1.667152608267631
 97
        0
 97
        1
330
C2
 75
     2
 76
     1
 98
        1
 10
0.0
 20
0.0
450
        0
451
        0
460
0.0
461
0.0
452
        0
462
0.0
453
        0
470

  0
SPLINE
  5
C4
330
7E
100
AcDbEntity
  8
Deck Box - DF
100
AcDbSpline
210
0.0
220
0.0
230
1.0
 70
     9
 71
     3
 72
    35
 73
    31
 74
     0
 42
0.0000000001
 43
0.0000000001
 40
0.0
 40
0.0
 40
0.0
 40
0.0
 40
1.0
 40
1.0
 40
1.0
 40
2.0
 40
2.0
 40
2.0
 40
3.0
 40
3.0
 40
3.0
 40
4.0
 40
4.0
 40
4.0
 40
5.0
 40
5.0
 40
5.0
 40
6.0
 40
6.0
 40
6.0
 40
7.0
 40
7.0
 40
7.0
 40
8.0
 40
8.0
 40
8.0
 40
9.0
 40
9.0
 40
9.0
 40
10.0
 40
10.0
 40
10.0
 40
10.0
 10
3.280951197551947
 20
-1.117873127370772
 30
0.0
 10
3.334711678336348
 20
-1.09576311551186
 30
0.0
 10
3.301719340406293
 20
-1.009435025219835
 30
0.0
 10
3.253518225250862
 20
-1.057760037984722
 30
0.0
 10
3.247893348554207
 20
-1.076063149496083
 30
0.0
 10
3.237855124516967
 20
-1.045696106513256
 30
0.0
 10
3.253886902255253
 20
-1.044104576561481
 30
0.0
 10
3.328329595792196
 20
-1.001574325385035
 30
0.0
 10
3.338383984898086
 20
-1.115916290105549
 30
0.0
 10
3.274911984621881
 20
-1.13266561750221
 30
0.0
 10
3.19178751482626
 20
-1.146155617721875
 30
0.0
 10
3.169402297911056
 20
-1.045721184226913
 30
0.0
 10
3.09473953256223
 20
-1.028152048273214
 30
0.0
 10
2.687351726276763
 20
-1.029038558377919
 30
0.0
 10
3.094943155707735
 20
-1.47696788972928
 30
0.0
 10
3.098716423049116
 20
-1.139610592988548
 30
0.0
 10
3.032337262794284
 20
-1.022850309364748
 30
0.0
 10
2.913374552192168
 20
-1.226888534002278
 30
0.0
 10
3.040869015871912
 20
-1.172320204667382
 30
0.0
 10
3.047105329200538
 20
-1.155927394457775
 30
0.0
 10
3.049116320460787
 20
-1.176252752116397
 30
0.0
 10
3.048973670819868
 20
-1.18527219744236
 30
0.0
 10
2.902250432578044
 20
-1.243462058870186
 30
0.0
 10
2.980240649690573
 20
-0.9471817985789812
 30
0.0
 10
3.169591741171757
 20
-1.200822189646348
 30
0.0
 10
3.249644280727466
 20
-1.25020460291527
 30
0.0
 10
3.362580823893507
 20
-1.18611992757749
 30
0.0
 10
3.38010375831584
 20
-1.103197235681199
 30
0.0
 10
3.380100355143503
 20
-0.8029378919775227
 30
0.0
 10
3.00471144406006
 20
-1.102558141782474
 30
0.0
 10
3.280951197551947
 20
-1.117873127370772
 30
0.0
  0
HATCH
  5
C5
330
7E
100
AcDbEntity
  8
Deck Box - DF
 62
   250
420
  2301728
440
 33554687
100
AcDbHatch
 10
0.0
 20
0.0
 30
0.0
210
0.0
220
0.0
230
1.0
  2
SOLID
 70
     1
 71
     1
 91
        1
 92
        1
 93
        1
 72
     4
 94
        3
 73
     0
 74
     0
 95
       35
 96
       31
 40
0.0
 40
0.0
 40
0.0
 40
0.0
 40
1.0
 40
1.0
 40
1.0
 40
2.0
 40
2.0
 40
2.0
 40
3.0
 40
3.0
 40
3.0
 40
4.0
 40
4.0
 40
4.0
 40
5.0
 40
5.0
 40
5.0
 40
6.0
 40
6.0
 40
6.0
 40
7.0
 40
7.0
 40
7.0
 40
8.0
 40
8.0
 40
8.0
 40
9.0
 40
9.0
 40
9.0
 40
10.0
 40
10.0
 40
10.0
 40
10.0
 10
3.280951197551947
 20
-1.117873127370772
 10
3.334711678336348
 20
-1.09576311551186
 10
3.301719340406293
 20
-1.009435025219835
 10
3.253518225250862
 20
-1.057760037984722
 10
3.247893348554207
 20
-1.076063149496083
 10
3.237855124516967
 20
-1.045696106513256
 10
3.253886902255253
 20
-1.044104576561481
 10
3.328329595792196
 20
-1.001574325385035
 10
3.338383984898086
 20
-1.115916290105549
 10
3.274911984621881
 20
-1.13266561750221
 10
3.19178751482626
 20
-1.146155617721875
 10
3.169402297911056
 20
-1.045721184226913
 10
3.09473953256223
 20
-1.028152048273214
 10
2.687351726276763
 20
-1.029038558377919
 10
3.094943155707735
 20
-1.47696788972928
 10
3.098716423049116
 20
-1.139610592988548
 10
3.032337262794284
 20
-1.022850309364748
 10
2.913374552192168
 20
-1.226888534002278
 10
3.040869015871912
 20
-1.172320204667382
 10
3.047105329200538
 20
-1.155927394457775
 10
3.049116320460787
 20
-1.176252752116397
 10
3.048973670819868
 20
-1.18527219744236
 10
2.902250432578044
 20
-1.243462058870186
 10
2.980240649690573
 20
-0.9471817985789812
 10
3.169591741171757
 20
-1.200822189646348
 10
3.249644280727466
 20
-1.25020460291527
 10
3.362580823893507
 20
-1.18611992757749
 10
3.38010375831584
 20
-1.103197235681199
 10
3.380100355143503
 20
-0.8029378919775227
 10
3.00471144406006
 20
-1.102558141782474
 10
3.280951197551947
 20
-1.117873127370772
 97
        0
 97
        1
330
C4
 75
     2
 76
     1
 98
        1
 10
0.0
 20
0.0
450
        0
451
        0
460
0.0
461
0.0
452
        0
462
0.0
453
        0
470

  0
SPLINE
  5
C6
330
7E
100
AcDbEntity
  8
Deck Box - DF
100
AcDbSpline
210
0.0
220
0.0
230
1.0
 70
     9
 71
     3
 72
    29
 73
    25
 74
     0
 42
0.0000000001
 43
0.0000000001
 40
0.0
 40
0.0
 40
0.0
 40
0.0
 40
1.0
 40
1.0
 40
1.0
 40
2.0
 40
2.0
 40
2.0
 40
3.0
 40
3.0
 40
3.0
 40
4.0
 40
4.0
 40
4.0
 40
5.0
 40
5.0
 40
5.0
 40
6.0
 40
6.0
 40
6.0
 40
7.0
 40
7.0
 40
7.0
 40
8.0
 40
8.0
 40
8.0
 40
8.0
 10
3.028548681177337
 20
-1.318206055181071
 30
0.0
 10
3.042935875878242
 20
-1.694072120252333
 30
0.0
 10
2.818907592556759
 20
-1.418334126916306
 30
0.0
 10
2.952145476769992
 20
-1.448224951872652
 30
0.0
 10
2.88409706047811
 20
-1.455823499113029
 30
0.0
 10
2.930958460119086
 20
-1.527453463866272
 30
0.0
 10
2.981975133197503
 20
-1.501306457173642
 30
0.0
 10
3.143232186148869
 20
-1.295218323343887
 30
0.0
 10
2.673354478407405
 20
-1.396984978060648
 30
0.0
 10
2.908308930151418
 20
-1.564054257693265
 30
0.0
 10
2.984185777235564
 20
-1.597661237868325
 30
0.0
 10
3.105160046293311
 20
-1.552546172452505
 30
0.0
 10
3.116694248175424
 20
-1.467812973042908
 30
0.0
 10
3.037448544064002
 20
-1.191119441256319
 30
0.0
 10
3.317699219766293
 20
-1.300760239530644
 30
0.0
 10
3.180222117197659
 20
-1.372904685213724
 30
0.0
 10
3.173050782266285
 20
-1.367981438808417
 30
0.0
 10
3.158407215248454
 20
-1.355233687206603
 30
0.0
 10
3.175146002042172
 20
-1.359894781017512
 30
0.0
 10
3.297803423423993
 20
-1.299073310853726
 30
0.0
 10
3.063534427310501
 20
-1.270626393431585
 30
0.0
 10
3.113306106504763
 20
-1.383044096061287
 30
0.0
 10
3.388058957278151
 20
-1.565718176921564
 30
0.0
 10
3.273404379271507
 20
-1.027447286959298
 30
0.0
 10
3.028548681177337
 20
-1.318206055181071
 30
0.0
  0
HATCH
  5
C7
330
7E
100
AcDbEntity
  8
Deck Box - DF
 62
   250
420
  2301728
440
 33554687
100
AcDbHatch
 10
0.0
 20
0.0
 30
0.0
210
0.0
220
0.0
230
1.0
  2
SOLID
 70
     1
 71
     1
 91
        1
 92
        1
 93
        1
 72
     4
 94
        3
 73
     0
 74
     0
 95
       29
 96
       25
 40
0.0
 40
0.0
 40
0.0
 40
0.0
 40
1.0
 40
1.0
 40
1.0
 40
2.0
 40
2.0
 40
2.0
 40
3.0
 40
3.0
 40
3.0
 40
4.0
 40
4.0
 40
4.0
 40
5.0
 40
5.0
 40
5.0
 40
6.0
 40
6.0
 40
6.0
 40
7.0
 40
7.0
 40
7.0
 40
8.0
 40
8.0
 40
8.0
 40
8.0
 10
3.028548681177337
 20
-1.318206055181071
 10
3.042935875878242
 20
-1.694072120252333
 10
2.818907592556759
 20
-1.418334126916306
 10
2.952145476769992
 20
-1.448224951872652
 10
2.88409706047811
 20
-1.455823499113029
 10
2.930958460119086
 20
-1.527453463866272
 10
2.981975133197503
 20
-1.501306457173642
 10
3.143232186148869
 20
-1.295218323343887
 10
2.673354478407405
 20
-1.396984978060648
 10
2.908308930151418
 20
-1.564054257693265
 10
2.984185777235564
 20
-1.597661237868325
 10
3.105160046293311
 20
-1.552546172452505
 10
3.116694248175424
 20
-1.467812973042908
 10
3.037448544064002
 20
-1.191119441256319
 10
3.317699219766293
 20
-1.300760239530644
 10
3.180222117197659
 20
-1.372904685213724
 10
3.173050782266285
 20
-1.367981438808417
 10
3.158407215248454
 20
-1.355233687206603
 10
3.175146002042172
 20
-1.359894781017512
 10
3.297803423423993
 20
-1.299073310853726
 10
3.063534427310501
 20
-1.270626393431585
 10
3.113306106504763
 20
-1.383044096061287
 10
3.388058957278151
 20
-1.565718176921564
 10
3.273404379271507
 20
-1.027447286959298
 10
3.028548681177337
 20
-1.318206055181071
 97
        0
 97
        1
330
C6
 75
     2
 76
     1
 98
        1
 10
0.0
 20
0.0
450
        0
451
        0
460
0.0
461
0.0
452
        0
462
0.0
453
        0
470

  0
SPLINE
  5
C8
330
7E
100
AcDbEntity
  8
Deck Box - DF
100
AcDbSpline
210
0.0
220
0.0
230
1.0
 70
     9
 71
     3
 72
    29
 73
    25
 74
     0
 42
0.0000000001
 43
0.0000000001
 40
0.0
 40
0.0
 40
0.0
 40
0.0
 40
1.0
 40
1.0
 40
1.0
 40
2.0
 40
2.0
 40
2.0
 40
3.0
 40
3.0
 40
3.0
 40
4.0
 40
4.0
 40
4.0
 40
5.0
 40
5.0
 40
5.0
 40
6.0
 40
6.0
 40
6.0
 40
7.0
 40
7.0
 40
7.0
 40
8.0
 40
8.0
 40
8.0
 40
8.0
 10
2.977874310517601
 20
-0.8354629110011728
 30
0.0
 10
2.940146174666892
 20
-1.148425538608219
 30
0.0
 10
2.718593982826645
 20
-0.9229836146245133
 30
0.0
 10
2.878999108300111
 20
-0.9043940484044949
 30
0.0
 10
2.883628557084837
 20
-0.9125851535801277
 30
0.0
 10
2.891947611890714
 20
-0.9320625225704917
 30
0.0
 10
2.878296069612474
 20
-0.91992154822612
 30
0.0
 10
2.738567201339858
 20
-0.9279639968516953
 30
0.0
 10
2.945000516424329
 20
-1.060314345314698
 30
0.0
 10
2.945602594332323
 20
-0.9235425632527823
 30
0.0
 10
2.779070907838445
 20
-0.6175231014001509
 30
0.0
 10
2.633420519679513
 20
-1.209386875195655
 30
0.0
 10
2.997529048818541
 20
-1.027145061729685
 30
0.0
 10
3.148979293452371
 20
-0.6361307649393161
 30
0.0
 10
3.225172919162623
 20
-1.018231614987232
 30
0.0
 10
3.12301564081272
 20
-0.9280294057337085
 30
0.0
 10
3.189628201971181
 20
-0.9502666158928528
 30
0.0
 10
3.17589441636115
 20
-0.8564392550825408
 30
0.0
 10
3.117421959862554
 20
-0.8606525695113431
 30
0.0
 10
2.881005845594939
 20
-1.000054926176731
 30
0.0
 10
3.361433954812089
 20
-1.103287205210651
 30
0.0
 10
3.212299852559087
 20
-0.8290409480379896
 30
0.0
 10
3.155633629784473
 20
-0.7612582148006292
 30
0.0
 10
3.024038059827123
 20
-0.753999638626965
 30
0.0
 10
2.977874310517601
 20
-0.8354629110011728
 30
0.0
  0
HATCH
  5
C9
330
7E
100
AcDbEntity
  8
Deck Box - DF
 62
   250
420
  2301728
440
 33554687
100
AcDbHatch
 10
0.0
 20
0.0
 30
0.0
210
0.0
220
0.0
230
1.0
  2
SOLID
 70
     1
 71
     1
 91
        1
 92
        1
 93
        1
 72
     4
 94
        3
 73
     0
 74
     0
 95
       29
 96
       25
 40
0.0
 40
0.0
 40
0.0
 40
0.0
 40
1.0
 40
1.0
 40
1.0
 40
2.0
 40
2.0
 40
2.0
 40
3.0
 40
3.0
 40
3.0
 40
4.0
 40
4.0
 40
4.0
 40
5.0
 40
5.0
 40
5.0
 40
6.0
 40
6.0
 40
6.0
 40
7.0
 40
7.0
 40
7.0
 40
8.0
 40
8.0
 40
8.0
 40
8.0
 10
2.977874310517601
 20
-0.8354629110011728
 10
2.940146174666892
 20
-1.148425538608219
 10
2.718593982826645
 20
-0.9229836146245133
 10
2.878999108300111
 20
-0.9043940484044949
 10
2.883628557084837
 20
-0.9125851535801277
 10
2.891947611890714
 20
-0.9320625225704917
 10
2.878296069612474
 20
-0.91992154822612
 10
2.738567201339858
 20
-0.9279639968516953
 10
2.945000516424329
 20
-1.060314345314698
 10
2.945602594332323
 20
-0.9235425632527823
 10
2.779070907838445
 20
-0.6175231014001509
 10
2.633420519679513
 20
-1.209386875195655
 10
2.997529048818541
 20
-1.027145061729685
 10
3.148979293452371
 20
-0.6361307649393161
 10
3.225172919162623
 20
-1.018231614987232
 10
3.12301564081272
 20
-0.9280294057337085
 10
3.189628201971181
 20
-0.9502666158928528
 10
3.17589441636115
 20
-0.8564392550825408
 10
3.117421959862554
 20
-0.8606525695113431
 10
2.881005845594939
 20
-1.000054926176731
 10
3.361433954812089
 20
-1.103287205210651
 10
3.212299852559087
 20
-0.8290409480379896
 10
3.155633629784473
 20
-0.7612582148006292
 10
3.024038059827123
 20
-0.753999638626965
 10
2.977874310517601
 20
-0.8354629110011728
 97
        0
 97
        1
330
C8
 75
     2
 76
     1
 98
        1
 10
0.0
 20
0.0
450
        0
451
        0
460
0.0
461
0.0
452
        0
462
0.0
453
        0
470

  0
SPLINE
  5
CA
330
7E
100
AcDbEntity
  8
Deck Box - DF
100
AcDbSpline
210
0.0
220
0.0
230
1.0
 70
     9
 71
     3
 72
    41
 73
    37
 74
     0
 42
0.0000000001
 43
0.0000000001
 40
0.0
 40
0.0
 40
0.0
 40
0.0
 40
1.0
 40
1.0
 40
1.0
 40
2.0
 40
2.0
 40
2.0
 40
3.0
 40
3.0
 40
3.0
 40
4.0
 40
4.0
 40
4.0
 40
5.0
 40
5.0
 40
5.0
 40
6.0
 40
6.0
 40
6.0
 40
7.0
 40
7.0
 40
7.0
 40
8.0
 40
8.0
 40
8.0
 40
9.0
 40
9.0
 40
9.0
 40
10.0
 40
10.0
 40
10.0
 40
11.0
 40
11.0
 40
11.0
 40
12.0
 40
12.0
 40
12.0
 40
12.0
 10
2.214299108961427
 20
-1.013835770426428
 30
0.0
 10
2.233078201603865
 20
-0.9668299777345685
 30
0.0
 10
2.136824919944817
 20
-0.9353414220733181
 30
0.0
 10
2.144162023570124
 20
-0.9947006271180498
 30
0.0
 10
2.15575879405536
 20
-1.009276312595665
 30
0.0
 10
2.122994791484125
 20
-0.9972189436388639
 30
0.0
 10
2.132837275739714
 20
-0.9862222113605664
 30
0.0
 10
2.14873500739452
 20
-0.9139367054736011
 30
0.0
 10
2.2527351592896
 20
-0.9767031919362807
 30
0.0
 10
2.222629586188418
 20
-1.026550333463673
 30
0.0
 10
2.176039497956089
 20
-1.086730891990845
 30
0.0
 10
2.075227093499671
 20
-1.040082632911776
 30
0.0
 10
2.008201519898408
 20
-1.076207439615485
 30
0.0
 10
1.849354728021315
 20
-1.159521953188585
 30
0.0
 10
2.0061284300477
 20
-1.36785525905168
 30
0.0
 10
2.151129211037351
 20
-1.264744791018238
 30
0.0
 10
2.19433316588216
 20
-1.21190521835831
 30
0.0
 10
2.174677074510592
 20
-1.154505353158785
 30
0.0
 10
2.105493801039667
 20
-1.141068766989153
 30
0.0
 10
1.960139852632904
 20
-1.112066530677098
 30
0.0
 10
2.050146431457316
 20
-1.309767593781505
 30
0.0
 10
2.092871025785029
 20
-1.197002883494431
 30
0.0
 10
2.083321066953443
 20
-1.183198190733555
 30
0.0
 10
2.101964148268419
 20
-1.194215234259887
 30
0.0
 10
2.109514365183877
 20
-1.199752136123038
 30
0.0
 10
2.11102781606942
 20
-1.263106257597542
 30
0.0
 10
1.990807374870365
 20
-1.241392142260603
 30
0.0
 10
2.007529548860285
 20
-1.181934163338332
 30
0.0
 10
2.030968834288627
 20
-1.09647110925333
 30
0.0
 10
2.138933817448572
 20
-1.154173417283282
 30
0.0
 10
2.206900497028792
 20
-1.133618712502273
 30
0.0
 10
2.304681956914628
 20
-1.113358103463459
 30
0.0
 10
2.329171792681095
 20
-1.00395838268053
 30
0.0
 10
2.271073009239203
 20
-0.9429063881415736
 30
0.0
 10
2.016401761225867
 20
-0.7615578273638701
 30
0.0
 10
2.008458815212091
 20
-1.177501303012528
 30
0.0
 10
2.214299108961427
 20
-1.013835770426428
 30
0.0
  0
HATCH
  5
CB
330
7E
100
AcDbEntity
  8
Deck Box - DF
 62
   250
420
  2301728
440
 33554687
100
AcDbHatch
 10
0.0
 20
0.0
 30
0.0
210
0.0
220
0.0
230
1.0
  2
SOLID
 70
     1
 71
     1
 91
        1
 92
        1
 93
        1
 72
     4
 94
        3
 73
     0
 74
     0
 95
       41
 96
       37
 40
0.0
 40
0.0
 40
0.0
 40
0.0
 40
1.0
 40
1.0
 40
1.0
 40
2.0
 40
2.0
 40
2.0
 40
3.0
 40
3.0
 40
3.0
 40
4.0
 40
4.0
 40
4.0
 40
5.0
 40
5.0
 40
5.0
 40
6.0
 40
6.0
 40
6.0
 40
7.0
 40
7.0
 40
7.0
 40
8.0
 40
8.0
 40
8.0
 40
9.0
 40
9.0
 40
9.0
 40
10.0
 40
10.0
 40
10.0
 40
11.0
 40
11.0
 40
11.0
 40
12.0
 40
12.0
 40
12.0
 40
12.0
 10
2.214299108961427
 20
-1.013835770426428
 10
2.233078201603865
 20
-0.9668299777345685
 10
2.136824919944817
 20
-0.9353414220733181
 10
2.144162023570124
 20
-0.9947006271180498
 10
2.15575879405536
 20
-1.009276312595665
 10
2.122994791484125
 20
-0.9972189436388639
 10
2.132837275739714
 20
-0.9862222113605664
 10
2.14873500739452
 20
-0.9139367054736011
 10
2.2527351592896
 20
-0.9767031919362807
 10
2.222629586188418
 20
-1.026550333463673
 10
2.176039497956089
 20
-1.086730891990845
 10
2.075227093499671
 20
-1.040082632911776
 10
2.008201519898408
 20
-1.076207439615485
 10
1.849354728021315
 20
-1.159521953188585
 10
2.0061284300477
 20
-1.36785525905168
 10
2.151129211037351
 20
-1.264744791018238
 10
2.19433316588216
 20
-1.21190521835831
 10
2.174677074510592
 20
-1.154505353158785
 10
2.105493801039667
 20
-1.141068766989153
 10
1.960139852632904
 20
-1.112066530677098
 10
2.050146431457316
 20
-1.309767593781505
 10
2.092871025785029
 20
-1.197002883494431
 10
2.083321066953443
 20
-1.183198190733555
 10
2.101964148268419
 20
-1.194215234259887
 10
2.109514365183877
 20
-1.199752136123038
 10
2.11102781606942
 20
-1.263106257597542
 10
1.990807374870365
 20
-1.241392142260603
 10
2.007529548860285
 20
-1.181934163338332
 10
2.030968834288627
 20
-1.09647110925333
 10
2.138933817448572
 20
-1.154173417283282
 10
2.206900497028792
 20
-1.133618712502273
 10
2.304681956914628
 20
-1.113358103463459
 10
2.329171792681095
 20
-1.00395838268053
 10
2.271073009239203
 20
-0.9429063881415736
 10
2.016401761225867
 20
-0.7615578273638701
 10
2.008458815212091
 20
-1.177501303012528
 10
2.214299108961427
 20
-1.013835770426428
 97
        0
 97
        1
330
CA
 75
     2
 76
     1
 98
        1
 10
0.0
 20
0.0
450
        0
451
        0
460
0.0
461
0.0
452
        0
462
0.0
453
        0
470

  0
SPLINE
  5
CC
330
7E
100
AcDbEntity
  8
Deck Box - DF
100
AcDbSpline
210
0.0
220
0.0
230
1.0
 70
     9
 71
     3
 72
    23
 73
    19
 74
     0
 42
0.0000000001
 43
0.0000000001
 40
0.0
 40
0.0
 40
0.0
 40
0.0
 40
1.0
 40
1.0
 40
1.0
 40
2.0
 40
2.0
 40
2.0
 40
3.0
 40
3.0
 40
3.0
 40
4.0
 40
4.0
 40
4.0
 40
5.0
 40
5.0
 40
5.0
 40
6.0
 40
6.0
 40
6.0
 40
6.0
 10
2.945416887083802
 20
-0.7361111111111111
 30
0.0
 10
2.963159467921475
 20
-0.7617280748155383
 30
0.0
 10
2.960253516315573
 20
-0.8007074991861978
 30
0.0
 10
2.911851789698819
 20
-0.7863778008355035
 30
0.0
 10
2.909673173704895
 20
-0.7795511881510416
 30
0.0
 10
2.906312001558628
 20
-0.7639329698350695
 30
0.0
 10
2.914175364188837
 20
-0.7756296793619791
 30
0.0
 10
2.981302702351955
 20
-0.7939295314727512
 30
0.0
 10
2.948829763867832
 20
-0.7203073118436502
 30
0.0
 10
2.876453819180331
 20
-0.7361182216573702
 30
0.0
 10
2.873090226927552
 20
-0.7413245307074653
 30
0.0
 10
2.870358903685364
 20
-0.7481689453125
 30
0.0
 10
2.868744862886753
 20
-0.7574979994032117
 30
0.0
 10
2.946309526243958
 20
-0.9258244832356769
 30
0.0
 10
2.998861643485712
 20
-0.819698757595486
 30
0.0
 10
2.983157806408889
 20
-0.7361111111111111
 30
0.0
 10
2.983157806408889
 20
-0.7361111111111111
 30
0.0
 10
2.945416887083802
 20
-0.7361111111111111
 30
0.0
 10
2.945416887083802
 20
-0.7361111111111111
 30
0.0
  0
HATCH
  5
CD
330
7E
100
AcDbEntity
  8
Deck Box - DF
 62
   250
420
  2301728
440
 33554687
100
AcDbHatch
 10
0.0
 20
0.0
 30
0.0
210
0.0
220
0.0
230
1.0
  2
SOLID
 70
     1
 71
     1
 91
        1
 92
        1
 93
        1
 72
     4
 94
        3
 73
     0
 74
     0
 95
       23
 96
       19
 40
0.0
 40
0.0
 40
0.0
 40
0.0
 40
1.0
 40
1.0
 40
1.0
 40
2.0
 40
2.0
 40
2.0
 40
3.0
 40
3.0
 40
3.0
 40
4.0
 40
4.0
 40
4.0
 40
5.0
 40
5.0
 40
5.0
 40
6.0
 40
6.0
 40
6.0
 40
6.0
 10
2.945416887083802
 20
-0.7361111111111111
 10
2.963159467921475
 20
-0.7617280748155383
 10
2.960253516315573
 20
-0.8007074991861978
 10
2.911851789698819
 20
-0.7863778008355035
 10
2.909673173704895
 20
-0.7795511881510416
 10
2.906312001558628
 20
-0.7639329698350695
 10
2.914175364188837
 20
-0.7756296793619791
 10
2.981302702351955
 20
-0.7939295314727512
 10
2.948829763867832
 20
-0.7203073118436502
 10
2.876453819180331
 20
-0.7361182216573702
 10
2.873090226927552
 20
-0.7413245307074653
 10
2.870358903685364
 20
-0.7481689453125
 10
2.868744862886753
 20
-0.7574979994032117
 10
2.946309526243958
 20
-0.9258244832356769
 10
2.998861643485712
 20
-0.819698757595486
 10
2.983157806408889
 20
-0.7361111111111111
 10
2.983157806408889
 20
-0.7361111111111111
 10
2.945416887083802
 20
-0.7361111111111111
 10
2.945416887083802
 20
-0.7361111111111111
 97
        0
 97
        1
330
CC
 75
     2
 76
     1
 98
        1
 10
0.0
 20
0.0
450
        0
451
        0
460
0.0
461
0.0
452
        0
462
0.0
453
        0
470

  0
SPLINE
  5
CE
330
7E
100
AcDbEntity
  8
Deck Box - DF
100
AcDbSpline
210
0.0
220
0.0
230
1.0
 70
     9
 71
     3
 72
    20
 73
    16
 74
     0
 42
0.0000000001
 43
0.0000000001
 40
0.0
 40
0.0
 40
0.0
 40
0.0
 40
1.0
 40
1.0
 40
1.0
 40
2.0
 40
2.0
 40
2.0
 40
3.0
 40
3.0
 40
3.0
 40
4.0
 40
4.0
 40
4.0
 40
5.0
 40
5.0
 40
5.0
 40
5.0
 10
2.71745736017408
 20
-0.7361111111111111
 30
0.0
 10
2.722908314948413
 20
-0.759452558208232
 30
0.0
 10
2.750601001281729
 20
-0.7668038381174888
 30
0.0
 10
2.769269426146302
 20
-0.7535129123263889
 30
0.0
 10
2.725863037953078
 20
-0.8072910027956494
 30
0.0
 10
2.734892048362389
 20
-0.7195609939381913
 30
0.0
 10
2.669365047891094
 20
-0.7361111111111111
 30
0.0
 10
2.677575557222553
 20
-0.810663999584133
 30
0.0
 10
2.790791380305917
 20
-0.8651410069653341
 30
0.0
 10
2.836324456375172
 20
-0.8119410809369785
 30
0.0
 10
2.848368445514791
 20
-0.7749108208550348
 30
0.0
 10
2.861559668659323
 20
-0.750958760579427
 30
0.0
 10
2.87464492799092
 20
-0.7361111111111111
 30
0.0
 10
2.87464492799092
 20
-0.7361111111111111
 30
0.0
 10
2.71745736017408
 20
-0.7361111111111111
 30
0.0
 10
2.71745736017408
 20
-0.7361111111111111
 30
0.0
  0
HATCH
  5
CF
330
7E
100
AcDbEntity
  8
Deck Box - DF
 62
   250
420
  2301728
440
 33554687
100
AcDbHatch
 10
0.0
 20
0.0
 30
0.0
210
0.0
220
0.0
230
1.0
  2
SOLID
 70
     1
 71
     1
 91
        1
 92
        1
 93
        1
 72
     4
 94
        3
 73
     0
 74
     0
 95
       20
 96
       16
 40
0.0
 40
0.0
 40
0.0
 40
0.0
 40
1.0
 40
1.0
 40
1.0
 40
2.0
 40
2.0
 40
2.0
 40
3.0
 40
3.0
 40
3.0
 40
4.0
 40
4.0
 40
4.0
 40
5.0
 40
5.0
 40
5.0
 40
5.0
 10
2.71745736017408
 20
-0.7361111111111111
 10
2.722908314948413
 20
-0.759452558208232
 10
2.750601001281729
 20
-0.7668038381174888
 10
2.769269426146302
 20
-0.7535129123263889
 10
2.725863037953078
 20
-0.8072910027956494
 10
2.734892048362389
 20
-0.7195609939381913
 10
2.669365047891094
 20
-0.7361111111111111
 10
2.677575557222553
 20
-0.810663999584133
 10
2.790791380305917
 20
-0.8651410069653341
 10
2.836324456375172
 20
-0.8119410809369785
 10
2.848368445514791
 20
-0.7749108208550348
 10
2.861559668659323
 20
-0.750958760579427
 10
2.87464492799092
 20
-0.7361111111111111
 10
2.87464492799092
 20
-0.7361111111111111
 10
2.71745736017408
 20
-0.7361111111111111
 10
2.71745736017408
 20
-0.7361111111111111
 97
        0
 97
        1
330
CE
 75
     2
 76
     1
 98
        1
 10
0.0
 20
0.0
450
        0
451
        0
460
0.0
461
0.0
452
        0
462
0.0
453
        0
470

  0
SPLINE
  5
D0
330
7E
100
AcDbEntity
  8
Deck Box - DF
100
AcDbSpline
210
0.0
220
0.0
230
1.0
 70
     9
 71
     3
 72
    11
 73
     7
 74
     0
 42
0.0000000001
 43
0.0000000001
 40
0.0
 40
0.0
 40
0.0
 40
0.0
 40
1.0
 40
1.0
 40
1.0
 40
2.0
 40
2.0
 40
2.0
 40
2.0
 10
3.336970130085104
 20
-0.7361111111111111
 30
0.0
 10
3.158483195577344
 20
-0.7099951315530007
 30
0.0
 10
3.215840087256664
 20
-1.027103826051251
 30
0.0
 10
3.433610059569673
 20
-0.8940901435100714
 30
0.0
 10
3.462968733058194
 20
-0.7353363037109375
 30
0.0
 10
3.293586849648906
 20
-0.9974416097005207
 30
0.0
 10
3.336970130085104
 20
-0.7361111111111111
 30
0.0
  0
HATCH
  5
D1
330
7E
100
AcDbEntity
  8
Deck Box - DF
 62
   250
420
  2301728
440
 33554687
100
AcDbHatch
 10
0.0
 20
0.0
 30
0.0
210
0.0
220
0.0
230
1.0
  2
SOLID
 70
     1
 71
     1
 91
        1
 92
        1
 93
        1
 72
     4
 94
        3
 73
     0
 74
     0
 95
       11
 96
        7
 40
0.0
 40
0.0
 40
0.0
 40
0.0
 40
1.0
 40
1.0
 40
1.0
 40
2.0
 40
2.0
 40
2.0
 40
2.0
 10
3.336970130085104
 20
-0.7361111111111111
 10
3.158483195577344
 20
-0.7099951315530007
 10
3.215840087256664
 20
-1.027103826051251
 10
3.433610059569673
 20
-0.8940901435100714
 10
3.462968733058194
 20
-0.7353363037109375
 10
3.293586849648906
 20
-0.9974416097005207
 10
3.336970130085104
 20
-0.7361111111111111
 97
        0
 97
        1
330
D0
 75
     2
 76
     1
 98
        1
 10
0.0
 20
0.0
450
        0
451
        0
460
0.0
461
0.0
452
        0
462
0.0
453
        0
470

  0
SPLINE
  5
D2
330
7E
100
AcDbEntity
  8
Deck Box - DF
100
AcDbSpline
210
0.0
220
0.0
230
1.0
 70
     9
 71
     3
 72
    14
 73
    10
 74
     0
 42
0.0000000001
 43
0.0000000001
 40
0.0
 40
0.0
 40
0.0
 40
0.0
 40
1.0
 40
1.0
 40
1.0
 40
2.0
 40
2.0
 40
2.0
 40
3.0
 40
3.0
 40
3.0
 40
3.0
 10
3.43950580174309
 20
-0.7361111111111111
 30
0.0
 10
3.366913753450426
 20
-0.7308873556470417
 30
0.0
 10
3.296183283451518
 20
-0.7311935181414811
 30
0.0
 10
3.361938919163321
 20
-0.8386302620481778
 30
0.0
 10
3.40481833565151
 20
-0.8568869696723089
 30
0.0
 10
3.474322967541701
 20
-0.7736248440212674
 30
0.0
 10
3.401286773694045
 20
-0.7767808702256945
 30
0.0
 10
3.430310685911927
 20
-0.7603098551432291
 30
0.0
 10
3.440386572956198
 20
-0.7463997734917535
 30
0.0
 10
3.43950580174309
 20
-0.7361111111111111
 30
0.0
  0
HATCH
  5
D3
330
7E
100
AcDbEntity
  8
Deck Box - DF
 62
   250
420
  2301728
440
 33554687
100
AcDbHatch
 10
0.0
 20
0.0
 30
0.0
210
0.0
220
0.0
230
1.0
  2
SOLID
 70
     1
 71
     1
 91
        1
 92
        1
 93
        1
 72
     4
 94
        3
 73
     0
 74
     0
 95
       14
 96
       10
 40
0.0
 40
0.0
 40
0.0
 40
0.0
 40
1.0
 40
1.0
 40
1.0
 40
2.0
 40
2.0
 40
2.0
 40
3.0
 40
3.0
 40
3.0
 40
3.0
 10
3.43950580174309
 20
-0.7361111111111111
 10
3.366913753450426
 20
-0.7308873556470417
 10
3.296183283451518
 20
-0.7311935181414811
 10
3.361938919163321
 20
-0.8386302620481778
 10
3.40481833565151
 20
-0.8568869696723089
 10
3.474322967541701
 20
-0.7736248440212674
 10
3.401286773694045
 20
-0.7767808702256945
 10
3.430310685911927
 20
-0.7603098551432291
 10
3.440386572956198
 20
-0.7463997734917535
 10
3.43950580174309
 20
-0.7361111111111111
 97
        0
 97
        1
330
D2
 75
     2
 76
     1
 98
        1
 10
0.0
 20
0.0
450
        0
451
        0
460
0.0
461
0.0
452
        0
462
0.0
453
        0
470

  0
SPLINE
  5
D4
330
7E
100
AcDbEntity
  8
Deck Box - DF
100
AcDbSpline
210
0.0
220
0.0
230
1.0
 70
     9
 71
     3
 72
    14
 73
    10
 74
     0
 42
0.0000000001
 43
0.0000000001
 40
0.0
 40
0.0
 40
0.0
 40
0.0
 40
1.0
 40
1.0
 40
1.0
 40
2.0
 40
2.0
 40
2.0
 40
3.0
 40
3.0
 40
3.0
 40
3.0
 10
2.880070910320569
 20
-1.261135741928784
 30
0.0
 10
2.980799652627107
 20
-1.29878970442553
 30
0.0
 10
2.868585628050709
 20
-1.396628830008744
 30
0.0
 10
2.837465288119725
 20
-1.303911836539315
 30
0.0
 10
2.843192632995535
 20
-1.299941268975771
 30
0.0
 10
2.857534172388606
 20
-1.292397273497789
 30
0.0
 10
2.850875807008214
 20
-1.303202612526522
 30
0.0
 10
2.88805793431911
 20
-1.386826231373536
 30
0.0
 10
2.933975530009661
 20
-1.289378895679924
 30
0.0
 10
2.880070910320569
 20
-1.261135741928784
 30
0.0
  0
SPLINE
  5
D5
330
7E
100
AcDbEntity
  8
Deck Box - DF
100
AcDbSpline
210
0.0
220
0.0
230
1.0
 70
     9
 71
     3
 72
    26
 73
    22
 74
     0
 42
0.0000000001
 43
0.0000000001
 40
0.0
 40
0.0
 40
0.0
 40
0.0
 40
1.0
 40
1.0
 40
1.0
 40
2.0
 40
2.0
 40
2.0
 40
3.0
 40
3.0
 40
3.0
 40
4.0
 40
4.0
 40
4.0
 40
5.0
 40
5.0
 40
5.0
 40
6.0
 40
6.0
 40
6.0
 40
7.0
 40
7.0
 40
7.0
 40
7.0
 10
2.808869429607953
 20
-1.355110005269327
 30
0.0
 10
2.936330663961484
 20
-1.457002279824766
 30
0.0
 10
3.047174207507939
 20
-1.295172671757237
 30
0.0
 10
2.910041715930055
 20
-1.208760888253158
 30
0.0
 10
2.585660379406779
 20
-1.152982483915088
 30
0.0
 10
2.775762801351434
 20
-1.035657169444612
 30
0.0
 10
2.800370016576417
 20
-1.120010279993329
 30
0.0
 10
2.809356846072849
 20
-1.130341774651684
 30
0.0
 10
2.78353743623922
 20
-1.137388069842662
 30
0.0
 10
2.791807165485743
 20
-1.126127480731295
 30
0.0
 10
2.792811884058298
 20
-1.076362645461194
 30
0.0
 10
2.716627983392539
 20
-1.093716656350844
 30
0.0
 10
2.735972343343986
 20
-1.135532648064642
 30
0.0
 10
2.918371910199198
 20
-1.294883066695787
 30
0.0
 10
2.876794665302478
 20
-0.9403570007539579
 30
0.0
 10
2.683489789575042
 20
-1.06964966809365
 30
0.0
 10
2.613306924221218
 20
-1.245735431042829
 30
0.0
 10
2.773342507999725
 20
-1.22835695242654
 30
0.0
 10
2.864316065081803
 20
-1.255613786323124
 30
0.0
 10
2.793464293643549
 20
-1.242697003089902
 30
0.0
 10
2.758807661140192
 20
-1.296277068602901
 30
0.0
 10
2.808869429607953
 20
-1.355110005269327
 30
0.0
  0
HATCH
  5
D6
330
7E
100
AcDbEntity
  8
Deck Box - DF
 62
   250
420
  2301728
440
 33554687
100
AcDbHatch
 10
0.0
 20
0.0
 30
0.0
210
0.0
220
0.0
230
1.0
  2
SOLID
 70
     1
 71
     1
 91
        2
 92
        1
 93
        1
 72
     4
 94
        3
 73
     0
 74
     0
 95
       14
 96
       10
 40
0.0
 40
0.0
 40
0.0
 40
0.0
 40
1.0
 40
1.0
 40
1.0
 40
2.0
 40
2.0
 40
2.0
 40
3.0
 40
3.0
 40
3.0
 40
3.0
 10
2.880070910320569
 20
-1.261135741928784
 10
2.980799652627107
 20
-1.29878970442553
 10
2.868585628050709
 20
-1.396628830008744
 10
2.837465288119725
 20
-1.303911836539315
 10
2.843192632995535
 20
-1.299941268975771
 10
2.857534172388606
 20
-1.292397273497789
 10
2.850875807008214
 20
-1.303202612526522
 10
2.88805793431911
 20
-1.386826231373536
 10
2.933975530009661
 20
-1.289378895679924
 10
2.880070910320569
 20
-1.261135741928784
 97
        0
 97
        1
330
D4
 92
        1
 93
        1
 72
     4
 94
        3
 73
     0
 74
     0
 95
       26
 96
       22
 40
0.0
 40
0.0
 40
0.0
 40
0.0
 40
1.0
 40
1.0
 40
1.0
 40
2.0
 40
2.0
 40
2.0
 40
3.0
 40
3.0
 40
3.0
 40
4.0
 40
4.0
 40
4.0
 40
5.0
 40
5.0
 40
5.0
 40
6.0
 40
6.0
 40
6.0
 40
7.0
 40
7.0
 40
7.0
 40
7.0
 10
2.808869429607953
 20
-1.355110005269327
 10
2.936330663961484
 20
-1.457002279824766
 10
3.047174207507939
 20
-1.295172671757237
 10
2.910041715930055
 20
-1.208760888253158
 10
2.585660379406779
 20
-1.152982483915088
 10
2.775762801351434
 20
-1.035657169444612
 10
2.800370016576417
 20
-1.120010279993329
 10
2.809356846072849
 20
-1.130341774651684
 10
2.78353743623922
 20
-1.137388069842662
 10
2.791807165485743
 20
-1.126127480731295
 10
2.792811884058298
 20
-1.076362645461194
 10
2.716627983392539
 20
-1.093716656350844
 10
2.735972343343986
 20
-1.135532648064642
 10
2.918371910199198
 20
-1.294883066695787
 10
2.876794665302478
 20
-0.9403570007539579
 10
2.683489789575042
 20
-1.06964966809365
 10
2.613306924221218
 20
-1.245735431042829
 10
2.773342507999725
 20
-1.22835695242654
 10
2.864316065081803
 20
-1.255613786323124
 10
2.793464293643549
 20
-1.242697003089902
 10
2.758807661140192
 20
-1.296277068602901
 10
2.808869429607953
 20
-1.355110005269327
 97
        0
 97
        1
330
D5
 75
     2
 76
     1
 98
        1
 10
0.0
 20
0.0
450
        0
451
        0
460
0.0
461
0.0
452
        0
462
0.0
453
        0
470

  0
SPLINE
  5
D7
330
7E
100
AcDbEntity
  8
Deck Box - DF
100
AcDbSpline
210
0.0
220
0.0
230
1.0
 70
     9
 71
     3
 72
    11
 73
     7
 74
     0
 42
0.0000000001
 43
0.0000000001
 40
0.0
 40
0.0
 40
0.0
 40
0.0
 40
1.0
 40
1.0
 40
1.0
 40
2.0
 40
2.0
 40
2.0
 40
2.0
 10
2.16994149742124
 20
-1.667152608267631
 30
0.0
 10
2.150494855833395
 20
-1.606749507945816
 30
0.0
 10
2.058718250540512
 20
-1.606360666134555
 30
0.0
 10
2.016466901609608
 20
-1.667152608267631
 30
0.0
 10
2.016466901609608
 20
-1.667152608267631
 30
0.0
 10
2.16994149742124
 20
-1.667152608267631
 30
0.0
 10
2.16994149742124
 20
-1.667152608267631
 30
0.0
  0
HATCH
  5
D8
330
7E
100
AcDbEntity
  8
Deck Box - DF
 62
   250
420
  2301728
440
 33554687
100
AcDbHatch
 10
0.0
 20
0.0
 30
0.0
210
0.0
220
0.0
230
1.0
  2
SOLID
 70
     1
 71
     1
 91
        1
 92
        1
 93
        1
 72
     4
 94
        3
 73
     0
 74
     0
 95
       11
 96
        7
 40
0.0
 40
0.0
 40
0.0
 40
0.0
 40
1.0
 40
1.0
 40
1.0
 40
2.0
 40
2.0
 40
2.0
 40
2.0
 10
2.16994149742124
 20
-1.667152608267631
 10
2.150494855833395
 20
-1.606749507945816
 10
2.058718250540512
 20
-1.606360666134555
 10
2.016466901609608
 20
-1.667152608267631
 10
2.016466901609608
 20
-1.667152608267631
 10
2.16994149742124
 20
-1.667152608267631
 10
2.16994149742124
 20
-1.667152608267631
 97
        0
 97
        1
330
D7
 75
     2
 76
     1
 98
        1
 10
0.0
 20
0.0
450
        0
451
        0
460
0.0
461
0.0
452
        0
462
0.0
453
        0
470

  0
SPLINE
  5
D9
330
7E
100
AcDbEntity
  8
Deck Box - DF
100
AcDbSpline
210
0.0
220
0.0
230
1.0
 70
     9
 71
     3
 72
    14
 73
    10
 74
     0
 42
0.0000000001
 43
0.0000000001
 40
0.0
 40
0.0
 40
0.0
 40
0.0
 40
1.0
 40
1.0
 40
1.0
 40
2.0
 40
2.0
 40
2.0
 40
3.0
 40
3.0
 40
3.0
 40
3.0
 10
2.622572282197716
 20
-1.570443250899996
 30
0.0
 10
2.647900709085762
 20
-1.652403220945416
 30
0.0
 10
2.733240082070374
 20
-1.50543836932075
 30
0.0
 10
2.643325930743723
 20
-1.512939656607462
 30
0.0
 10
2.745087351084217
 20
-1.468084488089162
 30
0.0
 10
2.667050198963074
 20
-1.669624708152077
 30
0.0
 10
2.615374100789242
 20
-1.583796929968469
 30
0.0
 10
2.603458105765424
 20
-1.576923149988538
 30
0.0
 10
2.628124785995459
 20
-1.550838250086194
 30
0.0
 10
2.622572282197716
 20
-1.570443250899996
 30
0.0
  0
SPLINE
  5
DA
330
7E
100
AcDbEntity
  8
Deck Box - DF
100
AcDbSpline
210
0.0
220
0.0
230
1.0
 70
     9
 71
     3
 72
    44
 73
    40
 74
     0
 42
0.0000000001
 43
0.0000000001
 40
0.0
 40
0.0
 40
0.0
 40
0.0
 40
1.0
 40
1.0
 40
1.0
 40
2.0
 40
2.0
 40
2.0
 40
3.0
 40
3.0
 40
3.0
 40
4.0
 40
4.0
 40
4.0
 40
5.0
 40
5.0
 40
5.0
 40
6.0
 40
6.0
 40
6.0
 40
7.0
 40
7.0
 40
7.0
 40
8.0
 40
8.0
 40
8.0
 40
9.0
 40
9.0
 40
9.0
 40
10.0
 40
10.0
 40
10.0
 40
11.0
 40
11.0
 40
11.0
 40
12.0
 40
12.0
 40
12.0
 40
13.0
 40
13.0
 40
13.0
 40
13.0
 10
2.17966812773808
 20
-1.667152608267631
 30
0.0
 10
2.17966812773808
 20
-1.667152608267631
 30
0.0
 10
2.262278364011952
 20
-1.667152608267631
 30
0.0
 10
2.262278364011952
 20
-1.667152608267631
 30
0.0
 10
2.203800329887295
 20
-1.462418358002486
 30
0.0
 10
2.458465876892445
 20
-1.53682553659976
 30
0.0
 10
2.340090237358973
 20
-1.606213428153649
 30
0.0
 10
2.328827029376535
 20
-1.616785888703816
 30
0.0
 10
2.311438791529313
 20
-1.592710062694714
 30
0.0
 10
2.329207651392594
 20
-1.59887122263395
 30
0.0
 10
2.396943111462039
 20
-1.591286756759371
 30
0.0
 10
2.350293602455963
 20
-1.519656066926472
 30
0.0
 10
2.299508113903445
 20
-1.545803697406073
 30
0.0
 10
2.149640526284088
 20
-1.738207702668672
 30
0.0
 10
2.54730237117341
 20
-1.662270643478121
 30
0.0
 10
2.410455616887386
 20
-1.515388692252006
 30
0.0
 10
2.442257476425147
 20
-1.530499979686889
 30
0.0
 10
2.49684325116473
 20
-1.535509101051906
 30
0.0
 10
2.582913841713775
 20
-1.523336825932561
 30
0.0
 10
2.519578541918715
 20
-1.573892417809512
 30
0.0
 10
2.574419963391088
 20
-1.692653112001494
 30
0.0
 10
2.65742074440493
 20
-1.667141156761342
 30
0.0
 10
2.768753694600743
 20
-1.635968165413499
 30
0.0
 10
2.805638175919663
 20
-1.372747874118721
 30
0.0
 10
2.63407491799934
 20
-1.403946222663307
 30
0.0
 10
2.343153336885216
 20
-1.587563612228121
 30
0.0
 10
2.444274179712907
 20
-1.273591139083603
 30
0.0
 10
2.52933599476282
 20
-1.37885474314175
 30
0.0
 10
2.524501501761518
 20
-1.387665846114853
 30
0.0
 10
2.511747697236778
 20
-1.406690165233764
 30
0.0
 10
2.51576414960223
 20
-1.388733113638712
 30
0.0
 10
2.443984262720719
 20
-1.293465711837497
 30
0.0
 10
2.426963931232004
 20
-1.530717841286281
 30
0.0
 10
2.54394543757966
 20
-1.439637281661728
 30
0.0
 10
2.667180504311431
 20
-1.12914296471293
 30
0.0
 10
2.322375104734608
 20
-1.381553005674302
 30
0.0
 10
2.379849876870025
 20
-1.488272976377427
 30
0.0
 10
2.252008743891085
 20
-1.426802298364047
 30
0.0
 10
2.129465807463475
 20
-1.540117751613694
 30
0.0
 10
2.17966812773808
 20
-1.667152608267631
 30
0.0
  0
HATCH
  5
DB
330
7E
100
AcDbEntity
  8
Deck Box - DF
 62
   250
420
  2301728
440
 33554687
100
AcDbHatch
 10
0.0
 20
0.0
 30
0.0
210
0.0
220
0.0
230
1.0
  2
SOLID
 70
     1
 71
     1
 91
        2
 92
        1
 93
        1
 72
     4
 94
        3
 73
     0
 74
     0
 95
       14
 96
       10
 40
0.0
 40
0.0
 40
0.0
 40
0.0
 40
1.0
 40
1.0
 40
1.0
 40
2.0
 40
2.0
 40
2.0
 40
3.0
 40
3.0
 40
3.0
 40
3.0
 10
2.622572282197716
 20
-1.570443250899996
 10
2.647900709085762
 20
-1.652403220945416
 10
2.733240082070374
 20
-1.50543836932075
 10
2.643325930743723
 20
-1.512939656607462
 10
2.745087351084217
 20
-1.468084488089162
 10
2.667050198963074
 20
-1.669624708152077
 10
2.615374100789242
 20
-1.583796929968469
 10
2.603458105765424
 20
-1.576923149988538
 10
2.628124785995459
 20
-1.550838250086194
 10
2.622572282197716
 20
-1.570443250899996
 97
        0
 97
        1
330
D9
 92
        1
 93
        1
 72
     4
 94
        3
 73
     0
 74
     0
 95
       44
 96
       40
 40
0.0
 40
0.0
 40
0.0
 40
0.0
 40
1.0
 40
1.0
 40
1.0
 40
2.0
 40
2.0
 40
2.0
 40
3.0
 40
3.0
 40
3.0
 40
4.0
 40
4.0
 40
4.0
 40
5.0
 40
5.0
 40
5.0
 40
6.0
 40
6.0
 40
6.0
 40
7.0
 40
7.0
 40
7.0
 40
8.0
 40
8.0
 40
8.0
 40
9.0
 40
9.0
 40
9.0
 40
10.0
 40
10.0
 40
10.0
 40
11.0
 40
11.0
 40
11.0
 40
12.0
 40
12.0
 40
12.0
 40
13.0
 40
13.0
 40
13.0
 40
13.0
 10
2.17966812773808
 20
-1.667152608267631
 10
2.17966812773808
 20
-1.667152608267631
 10
2.262278364011952
 20
-1.667152608267631
 10
2.262278364011952
 20
-1.667152608267631
 10
2.203800329887295
 20
-1.462418358002486
 10
2.458465876892445
 20
-1.53682553659976
 10
2.340090237358973
 20
-1.606213428153649
 10
2.328827029376535
 20
-1.616785888703816
 10
2.311438791529313
 20
-1.592710062694714
 10
2.329207651392594
 20
-1.59887122263395
 10
2.396943111462039
 20
-1.591286756759371
 10
2.350293602455963
 20
-1.519656066926472
 10
2.299508113903445
 20
-1.545803697406073
 10
2.149640526284088
 20
-1.738207702668672
 10
2.54730237117341
 20
-1.662270643478121
 10
2.410455616887386
 20
-1.515388692252006
 10
2.442257476425147
 20
-1.530499979686889
 10
2.49684325116473
 20
-1.535509101051906
 10
2.582913841713775
 20
-1.523336825932561
 10
2.519578541918715
 20
-1.573892417809512
 10
2.574419963391088
 20
-1.692653112001494
 10
2.65742074440493
 20
-1.667141156761342
 10
2.768753694600743
 20
-1.635968165413499
 10
2.805638175919663
 20
-1.372747874118721
 10
2.63407491799934
 20
-1.403946222663307
 10
2.343153336885216
 20
-1.587563612228121
 10
2.444274179712907
 20
-1.273591139083603
 10
2.52933599476282
 20
-1.37885474314175
 10
2.524501501761518
 20
-1.387665846114853
 10
2.511747697236778
 20
-1.406690165233764
 10
2.51576414960223
 20
-1.388733113638712
 10
2.443984262720719
 20
-1.293465711837497
 10
2.426963931232004
 20
-1.530717841286281
 10
2.54394543757966
 20
-1.439637281661728
 10
2.667180504311431
 20
-1.12914296471293
 10
2.322375104734608
 20
-1.381553005674302
 10
2.379849876870025
 20
-1.488272976377427
 10
2.252008743891085
 20
-1.426802298364047
 10
2.129465807463475
 20
-1.540117751613694
 10
2.17966812773808
 20
-1.667152608267631
 97
        0
 97
        1
330
DA
 75
     2
 76
     1
 98
        1
 10
0.0
 20
0.0
450
        0
451
        0
460
0.0
461
0.0
452
        0
462
0.0
453
        0
470

  0
SPLINE
  5
DC
330
7E
100
AcDbEntity
  8
Deck Box - DF
100
AcDbSpline
210
0.0
220
0.0
230
1.0
 70
     9
 71
     3
 72
    41
 73
    37
 74
     0
 42
0.0000000001
 43
0.0000000001
 40
0.0
 40
0.0
 40
0.0
 40
0.0
 40
1.0
 40
1.0
 40
1.0
 40
2.0
 40
2.0
 40
2.0
 40
3.0
 40
3.0
 40
3.0
 40
4.0
 40
4.0
 40
4.0
 40
5.0
 40
5.0
 40
5.0
 40
6.0
 40
6.0
 40
6.0
 40
7.0
 40
7.0
 40
7.0
 40
8.0
 40
8.0
 40
8.0
 40
9.0
 40
9.0
 40
9.0
 40
10.0
 40
10.0
 40
10.0
 40
11.0
 40
11.0
 40
11.0
 40
12.0
 40
12.0
 40
12.0
 40
12.0
 10
2.206918795898736
 20
-1.378582848360274
 30
0.0
 10
2.30900517482472
 20
-1.190156922411233
 30
0.0
 10
1.943727088788578
 20
-1.325643536281088
 30
0.0
 10
2.156013860312378
 20
-1.43862509966857
 30
0.0
 10
2.221803704555605
 20
-1.458239749751277
 30
0.0
 10
2.313276156122065
 20
-1.407673771810664
 30
0.0
 10
2.311061258118582
 20
-1.336158595767364
 30
0.0
 10
2.315230711440878
 20
-1.284423531010348
 30
0.0
 10
2.2421515556249
 20
-1.23052325128487
 30
0.0
 10
2.312724558603918
 20
-1.188150188251812
 30
0.0
 10
2.361738181157571
 20
-1.158393800523349
 30
0.0
 10
2.405589191258576
 20
-1.231726981540759
 30
0.0
 10
2.349392606268047
 20
-1.250548451978918
 30
0.0
 10
2.342957490954745
 20
-1.247249052166668
 30
0.0
 10
2.329409461835451
 20
-1.238271230674702
 30
0.0
 10
2.343548792150322
 20
-1.240315710671198
 30
0.0
 10
2.434243335237435
 20
-1.176542826288899
 30
0.0
 10
2.241358332869986
 20
-1.178432703473314
 30
0.0
 10
2.296801398783031
 20
-1.266236759407737
 30
0.0
 10
2.322866295800104
 20
-1.308143428673297
 30
0.0
 10
2.37753740878539
 20
-1.303278093689199
 30
0.0
 10
2.415272634578501
 20
-1.257942758046157
 30
0.0
 10
2.476440970772437
 20
-1.12902185156007
 30
0.0
 10
2.260460906457423
 20
-1.089738000904099
 30
0.0
 10
2.21959958326459
 20
-1.221690725412309
 30
0.0
 10
2.201502363508413
 20
-1.277672455371948
 30
0.0
 10
2.263360976493724
 20
-1.330265333056192
 30
0.0
 10
2.219846029662133
 20
-1.380155246860378
 30
0.0
 10
2.18205975628382
 20
-1.415824028751671
 30
0.0
 10
2.105327578549463
 20
-1.366151541310298
 30
0.0
 10
2.165826056986146
 20
-1.332929516966638
 30
0.0
 10
2.173504180999732
 20
-1.322927387211406
 30
0.0
 10
2.190871136689477
 20
-1.34099109704386
 30
0.0
 10
2.175631447315241
 20
-1.337823807661341
 30
0.0
 10
2.121762632211066
 20
-1.351513136924646
 30
0.0
 10
2.169311756264113
 20
-1.405812333270596
 30
0.0
 10
2.206918795898736
 20
-1.378582848360274
 30
0.0
  0
HATCH
  5
DD
330
7E
100
AcDbEntity
  8
Deck Box - DF
 62
   250
420
  2301728
440
 33554687
100
AcDbHatch
 10
0.0
 20
0.0
 30
0.0
210
0.0
220
0.0
230
1.0
  2
SOLID
 70
     1
 71
     1
 91
        1
 92
        1
 93
        1
 72
     4
 94
        3
 73
     0
 74
     0
 95
       41
 96
       37
 40
0.0
 40
0.0
 40
0.0
 40
0.0
 40
1.0
 40
1.0
 40
1.0
 40
2.0
 40
2.0
 40
2.0
 40
3.0
 40
3.0
 40
3.0
 40
4.0
 40
4.0
 40
4.0
 40
5.0
 40
5.0
 40
5.0
 40
6.0
 40
6.0
 40
6.0
 40
7.0
 40
7.0
 40
7.0
 40
8.0
 40
8.0
 40
8.0
 40
9.0
 40
9.0
 40
9.0
 40
10.0
 40
10.0
 40
10.0
 40
11.0
 40
11.0
 40
11.0
 40
12.0
 40
12.0
 40
12.0
 40
12.0
 10
2.206918795898736
 20
-1.378582848360274
 10
2.30900517482472
 20
-1.190156922411233
 10
1.943727088788578
 20
-1.325643536281088
 10
2.156013860312378
 20
-1.43862509966857
 10
2.221803704555605
 20
-1.458239749751277
 10
2.313276156122065
 20
-1.407673771810664
 10
2.311061258118582
 20
-1.336158595767364
 10
2.315230711440878
 20
-1.284423531010348
 10
2.2421515556249
 20
-1.23052325128487
 10
2.312724558603918
 20
-1.188150188251812
 10
2.361738181157571
 20
-1.158393800523349
 10
2.405589191258576
 20
-1.231726981540759
 10
2.349392606268047
 20
-1.250548451978918
 10
2.342957490954745
 20
-1.247249052166668
 10
2.329409461835451
 20
-1.238271230674702
 10
2.343548792150322
 20
-1.240315710671198
 10
2.434243335237435
 20
-1.176542826288899
 10
2.241358332869986
 20
-1.178432703473314
 10
2.296801398783031
 20
-1.266236759407737
 10
2.322866295800104
 20
-1.308143428673297
 10
2.37753740878539
 20
-1.303278093689199
 10
2.415272634578501
 20
-1.257942758046157
 10
2.476440970772437
 20
-1.12902185156007
 10
2.260460906457423
 20
-1.089738000904099
 10
2.21959958326459
 20
-1.221690725412309
 10
2.201502363508413
 20
-1.277672455371948
 10
2.263360976493724
 20
-1.330265333056192
 10
2.219846029662133
 20
-1.380155246860378
 10
2.18205975628382
 20
-1.415824028751671
 10
2.105327578549463
 20
-1.366151541310298
 10
2.165826056986146
 20
-1.332929516966638
 10
2.173504180999732
 20
-1.322927387211406
 10
2.190871136689477
 20
-1.34099109704386
 10
2.175631447315241
 20
-1.337823807661341
 10
2.121762632211066
 20
-1.351513136924646
 10
2.169311756264113
 20
-1.405812333270596
 10
2.206918795898736
 20
-1.378582848360274
 97
        0
 97
        1
330
DC
 75
     2
 76
     1
 98
        1
 10
0.0
 20
0.0
450
        0
451
        0
460
0.0
461
0.0
452
        0
462
0.0
453
        0
470

  0
SPLINE
  5
DE
330
7E
100
AcDbEntity
  8
Deck Box - DF
100
AcDbSpline
210
0.0
220
0.0
230
1.0
 70
     9
 71
     3
 72
    20
 73
    16
 74
     0
 42
0.0000000001
 43
0.0000000001
 40
0.0
 40
0.0
 40
0.0
 40
0.0
 40
1.0
 40
1.0
 40
1.0
 40
2.0
 40
2.0
 40
2.0
 40
3.0
 40
3.0
 40
3.0
 40
4.0
 40
4.0
 40
4.0
 40
5.0
 40
5.0
 40
5.0
 40
5.0
 10
3.587093054495893
 20
-0.8378111436951359
 30
0.0
 10
3.539154177814035
 20
-0.888587307432115
 30
0.0
 10
3.467014013968549
 20
-0.7859227837776012
 30
0.0
 10
3.550360910669938
 20
-0.7923001098952227
 30
0.0
 10
3.490000531980702
 20
-0.8038501655050316
 30
0.0
 10
3.529494516626969
 20
-0.8642707316400143
 30
0.0
 10
3.575300553682091
 20
-0.8374203491530478
 30
0.0
 10
3.594322761853795
 20
-0.8278802327369399
 30
0.0
 10
3.585212264986365
 20
-0.7554044247900215
 30
0.0
 10
3.587093547124204
 20
-0.7395777141547216
 30
0.0
 10
3.446657730702149
 20
-0.7040798024948774
 30
0.0
 10
3.380267396729499
 20
-0.9282795480576925
 30
0.0
 10
3.587093054495893
 20
-0.8992218356981867
 30
0.0
 10
3.587093054495893
 20
-0.8992218356981867
 30
0.0
 10
3.587093054495893
 20
-0.8378111436951359
 30
0.0
 10
3.587093054495893
 20
-0.8378111436951359
 30
0.0
  0
HATCH
  5
DF
330
7E
100
AcDbEntity
  8
Deck Box - DF
 62
   250
420
  2301728
440
 33554687
100
AcDbHatch
 10
0.0
 20
0.0
 30
0.0
210
0.0
220
0.0
230
1.0
  2
SOLID
 70
     1
 71
     1
 91
        1
 92
        1
 93
        1
 72
     4
 94
        3
 73
     0
 74
     0
 95
       20
 96
       16
 40
0.0
 40
0.0
 40
0.0
 40
0.0
 40
1.0
 40
1.0
 40
1.0
 40
2.0
 40
2.0
 40
2.0
 40
3.0
 40
3.0
 40
3.0
 40
4.0
 40
4.0
 40
4.0
 40
5.0
 40
5.0
 40
5.0
 40
5.0
 10
3.587093054495893
 20
-0.8378111436951359
 10
3.539154177814035
 20
-0.888587307432115
 10
3.467014013968549
 20
-0.7859227837776012
 10
3.550360910669938
 20
-0.7923001098952227
 10
3.490000531980702
 20
-0.8038501655050316
 10
3.529494516626969
 20
-0.8642707316400143
 10
3.575300553682091
 20
-0.8374203491530478
 10
3.594322761853795
 20
-0.8278802327369399
 10
3.585212264986365
 20
-0.7554044247900215
 10
3.587093547124204
 20
-0.7395777141547216
 10
3.446657730702149
 20
-0.7040798024948774
 10
3.380267396729499
 20
-0.9282795480576925
 10
3.587093054495893
 20
-0.8992218356981867
 10
3.587093054495893
 20
-0.8992218356981867
 10
3.587093054495893
 20
-0.8378111436951359
 10
3.587093054495893
 20
-0.8378111436951359
 97
        0
 97
        1
330
DE
 75
     2
 76
     1
 98
        1
 10
0.0
 20
0.0
450
        0
451
        0
460
0.0
461
0.0
452
        0
462
0.0
453
        0
470

  0
SPLINE
  5
E0
330
7E
100
AcDbEntity
  8
Deck Box - DF
100
AcDbSpline
210
0.0
220
0.0
230
1.0
 70
     9
 71
     3
 72
    14
 73
    10
 74
     0
 42
0.0000000001
 43
0.0000000001
 40
0.0
 40
0.0
 40
0.0
 40
0.0
 40
1.0
 40
1.0
 40
1.0
 40
2.0
 40
2.0
 40
2.0
 40
3.0
 40
3.0
 40
3.0
 40
3.0
 10
3.45011101798007
 20
-1.497732598662019
 30
0.0
 10
3.482920300392897
 20
-1.59402774671571
 30
0.0
 10
3.520025989234669
 20
-1.483452241062423
 30
0.0
 10
3.480325190920274
 20
-1.447536644863261
 30
0.0
 10
3.561795502016151
 20
-1.488052716118381
 30
0.0
 10
3.463122092496241
 20
-1.606946261261011
 30
0.0
 10
3.438313370000097
 20
-1.49966019500304
 30
0.0
 10
3.443291983271806
 20
-1.494315155334435
 30
0.0
 10
3.45579189200752
 20
-1.483883342562408
 30
0.0
 10
3.45011101798007
 20
-1.497732598662019
 30
0.0
  0
SPLINE
  5
E1
330
7E
100
AcDbEntity
  8
Deck Box - DF
100
AcDbSpline
210
0.0
220
0.0
230
1.0
 70
     9
 71
     3
 72
    26
 73
    22
 74
     0
 42
0.0000000001
 43
0.0000000001
 40
0.0
 40
0.0
 40
0.0
 40
0.0
 40
1.0
 40
1.0
 40
1.0
 40
2.0
 40
2.0
 40
2.0
 40
3.0
 40
3.0
 40
3.0
 40
4.0
 40
4.0
 40
4.0
 40
5.0
 40
5.0
 40
5.0
 40
6.0
 40
6.0
 40
6.0
 40
7.0
 40
7.0
 40
7.0
 40
7.0
 10
3.298820820948763
 20
-1.222883034393071
 30
0.0
 10
3.210398690745086
 20
-1.453764896989254
 30
0.0
 10
3.459672763488684
 20
-1.41350333742874
 30
0.0
 10
3.436068250486048
 20
-1.438727365580499
 30
0.0
 10
3.248990290667342
 20
-1.643807250484908
 30
0.0
 10
3.728566291294138
 20
-1.651823976414422
 30
0.0
 10
3.500606460667275
 20
-1.376581053648806
 30
0.0
 10
3.448975060734091
 20
-1.335188139140162
 30
0.0
 10
3.380238637512484
 20
-1.378125935663193
 30
0.0
 10
3.341237880957136
 20
-1.312783561794251
 30
0.0
 10
3.315066236651811
 20
-1.259138552507099
 30
0.0
 10
3.384680345863582
 20
-1.199582103432653
 30
0.0
 10
3.402568833273322
 20
-1.275811573272348
 30
0.0
 10
3.410655808471308
 20
-1.287826441030498
 30
0.0
 10
3.388042080484372
 20
-1.298546868618713
 30
0.0
 10
3.39513389724699
 20
-1.284009741396971
 30
0.0
 10
3.395183468432214
 20
-1.222560431416796
 30
0.0
 10
3.328400472184625
 20
-1.249955596825985
 30
0.0
 10
3.346133386776538
 20
-1.300001592924609
 30
0.0
 10
3.509396664999068
 20
-1.482162779122669
 30
0.0
 10
3.46684172877921
 20
-1.048229802277913
 30
0.0
 10
3.298820820948763
 20
-1.222883034393071
 30
0.0
  0
HATCH
  5
E2
330
7E
100
AcDbEntity
  8
Deck Box - DF
 62
   250
420
  2301728
440
 33554687
100
AcDbHatch
 10
0.0
 20
0.0
 30
0.0
210
0.0
220
0.0
230
1.0
  2
SOLID
 70
     1
 71
     1
 91
        2
 92
        1
 93
        1
 72
     4
 94
        3
 73
     0
 74
     0
 95
       14
 96
       10
 40
0.0
 40
0.0
 40
0.0
 40
0.0
 40
1.0
 40
1.0
 40
1.0
 40
2.0
 40
2.0
 40
2.0
 40
3.0
 40
3.0
 40
3.0
 40
3.0
 10
3.45011101798007
 20
-1.497732598662019
 10
3.482920300392897
 20
-1.59402774671571
 10
3.520025989234669
 20
-1.483452241062423
 10
3.480325190920274
 20
-1.447536644863261
 10
3.561795502016151
 20
-1.488052716118381
 10
3.463122092496241
 20
-1.606946261261011
 10
3.438313370000097
 20
-1.49966019500304
 10
3.443291983271806
 20
-1.494315155334435
 10
3.45579189200752
 20
-1.483883342562408
 10
3.45011101798007
 20
-1.497732598662019
 97
        0
 97
        1
330
E0
 92
        1
 93
        1
 72
     4
 94
        3
 73
     0
 74
     0
 95
       26
 96
       22
 40
0.0
 40
0.0
 40
0.0
 40
0.0
 40
1.0
 40
1.0
 40
1.0
 40
2.0
 40
2.0
 40
2.0
 40
3.0
 40
3.0
 40
3.0
 40
4.0
 40
4.0
 40
4.0
 40
5.0
 40
5.0
 40
5.0
 40
6.0
 40
6.0
 40
6.0
 40
7.0
 40
7.0
 40
7.0
 40
7.0
 10
3.298820820948763
 20
-1.222883034393071
 10
3.210398690745086
 20
-1.453764896989254
 10
3.459672763488684
 20
-1.41350333742874
 10
3.436068250486048
 20
-1.438727365580499
 10
3.248990290667342
 20
-1.643807250484908
 10
3.728566291294138
 20
-1.651823976414422
 10
3.500606460667275
 20
-1.376581053648806
 10
3.448975060734091
 20
-1.335188139140162
 10
3.380238637512484
 20
-1.378125935663193
 10
3.341237880957136
 20
-1.312783561794251
 10
3.315066236651811
 20
-1.259138552507099
 10
3.384680345863582
 20
-1.199582103432653
 10
3.402568833273322
 20
-1.275811573272348
 10
3.410655808471308
 20
-1.287826441030498
 10
3.388042080484372
 20
-1.298546868618713
 10
3.39513389724699
 20
-1.284009741396971
 10
3.395183468432214
 20
-1.222560431416796
 10
3.328400472184625
 20
-1.249955596825985
 10
3.346133386776538
 20
-1.300001592924609
 10
3.509396664999068
 20
-1.482162779122669
 10
3.46684172877921
 20
-1.048229802277913
 10
3.298820820948763
 20
-1.222883034393071
 97
        0
 97
        1
330
E1
 75
     2
 76
     1
 98
        1
 10
0.0
 20
0.0
450
        0
451
        0
460
0.0
461
0.0
452
        0
462
0.0
453
        0
470

  0
SPLINE
  5
E3
330
7E
100
AcDbEntity
  8
Deck Box - DF
100
AcDbSpline
210
0.0
220
0.0
230
1.0
 70
     9
 71
     3
 72
    14
 73
    10
 74
     0
 42
0.0000000001
 43
0.0000000001
 40
0.0
 40
0.0
 40
0.0
 40
0.0
 40
1.0
 40
1.0
 40
1.0
 40
2.0
 40
2.0
 40
2.0
 40
3.0
 40
3.0
 40
3.0
 40
3.0
 10
3.498670067299713
 20
-1.117596299945135
 30
0.0
 10
3.507442175589643
 20
-1.123335300053642
 30
0.0
 10
3.526083329560997
 20
-1.13781165232145
 30
0.0
 10
3.50724381133183
 20
-1.131405504046698
 30
0.0
 10
3.408131194686865
 20
-1.174939676952514
 30
0.0
 10
3.585943559053184
 20
-1.219784410296698
 30
0.0
 10
3.582769730928184
 20
-1.152977193228555
 30
0.0
 10
3.591573204506744
 20
-1.273578423426038
 30
0.0
 10
3.384777618026709
 20
-1.146853332551472
 30
0.0
 10
3.498670067299713
 20
-1.117596299945135
 30
0.0
  0
SPLINE
  5
E4
330
7E
100
AcDbEntity
  8
Deck Box - DF
100
AcDbSpline
210
0.0
220
0.0
230
1.0
 70
     9
 71
     3
 72
    14
 73
    10
 74
     0
 42
0.0000000001
 43
0.0000000001
 40
0.0
 40
0.0
 40
0.0
 40
0.0
 40
1.0
 40
1.0
 40
1.0
 40
2.0
 40
2.0
 40
2.0
 40
3.0
 40
3.0
 40
3.0
 40
3.0
 10
3.587093054495893
 20
-0.9413700019308254
 30
0.0
 10
3.503234140650407
 20
-0.9686866251947144
 30
0.0
 10
3.574875003009348
 20
-1.080881958039753
 30
0.0
 10
3.582480661646501
 20
-1.149702487553642
 30
0.0
 10
3.443074952655554
 20
-0.8959524862065739
 30
0.0
 10
3.257683862916855
 20
-1.254001723678142
 30
0.0
 10
3.587093054495893
 20
-1.256503838465101
 30
0.0
 10
3.587093054495893
 20
-1.256503838465101
 30
0.0
 10
3.587093054495893
 20
-0.9413700019308254
 30
0.0
 10
3.587093054495893
 20
-0.9413700019308254
 30
0.0
  0
HATCH
  5
E5
330
7E
100
AcDbEntity
  8
Deck Box - DF
 62
   250
420
  2301728
440
 33554687
100
AcDbHatch
 10
0.0
 20
0.0
 30
0.0
210
0.0
220
0.0
230
1.0
  2
SOLID
 70
     1
 71
     1
 91
        2
 92
        1
 93
        1
 72
     4
 94
        3
 73
     0
 74
     0
 95
       14
 96
       10
 40
0.0
 40
0.0
 40
0.0
 40
0.0
 40
1.0
 40
1.0
 40
1.0
 40
2.0
 40
2.0
 40
2.0
 40
3.0
 40
3.0
 40
3.0
 40
3.0
 10
3.498670067299713
 20
-1.117596299945135
 10
3.507442175589643
 20
-1.123335300053642
 10
3.526083329560997
 20
-1.13781165232145
 10
3.50724381133183
 20
-1.131405504046698
 10
3.408131194686865
 20
-1.174939676952514
 10
3.585943559053184
 20
-1.219784410296698
 10
3.582769730928184
 20
-1.152977193228555
 10
3.591573204506744
 20
-1.273578423426038
 10
3.384777618026709
 20
-1.146853332551472
 10
3.498670067299713
 20
-1.117596299945135
 97
        0
 97
        1
330
E3
 92
        1
 93
        1
 72
     4
 94
        3
 73
     0
 74
     0
 95
       14
 96
       10
 40
0.0
 40
0.0
 40
0.0
 40
0.0
 40
1.0
 40
1.0
 40
1.0
 40
2.0
 40
2.0
 40
2.0
 40
3.0
 40
3.0
 40
3.0
 40
3.0
 10
3.587093054495893
 20
-0.9413700019308254
 10
3.503234140650407
 20
-0.9686866251947144
 10
3.574875003009348
 20
-1.080881958039753
 10
3.582480661646501
 20
-1.149702487553642
 10
3.443074952655554
 20
-0.8959524862065739
 10
3.257683862916855
 20
-1.254001723678142
 10
3.587093054495893
 20
-1.256503838465101
 10
3.587093054495893
 20
-1.256503838465101
 10
3.587093054495893
 20
-0.9413700019308254
 10
3.587093054495893
 20
-0.9413700019308254
 97
        0
 97
        1
330
E4
 75
     2
 76
     1
 98
        1
 10
0.0
 20
0.0
450
        0
451
        0
460
0.0
461
0.0
452
        0
462
0.0
453
        0
470

  0
SPLINE
  5
E6
330
7E
100
AcDbEntity
  8
Deck Box - DF
100
AcDbSpline
210
0.0
220
0.0
230
1.0
 70
     9
 71
     3
 72
    11
 73
     7
 74
     0
 42
0.0000000001
 43
0.0000000001
 40
0.0
 40
0.0
 40
0.0
 40
0.0
 40
1.0
 40
1.0
 40
1.0
 40
2.0
 40
2.0
 40
2.0
 40
2.0
 10
3.587093054495893
 20
-1.271058180099228
 30
0.0
 10
3.511462814702478
 20
-1.319240496091841
 30
0.0
 10
3.538272280764595
 20
-1.408435278309159
 30
0.0
 10
3.587093054495893
 20
-1.470948316817978
 30
0.0
 10
3.587093054495893
 20
-1.470948316817978
 30
0.0
 10
3.587093054495893
 20
-1.271058180099228
 30
0.0
 10
3.587093054495893
 20
-1.271058180099228
 30
0.0
  0
HATCH
  5
E7
330
7E
100
AcDbEntity
  8
Deck Box - DF
 62
   250
420
  2301728
440
 33554687
100
AcDbHatch
 10
0.0
 20
0.0
 30
0.0
210
0.0
220
0.0
230
1.0
  2
SOLID
 70
     1
 71
     1
 91
        1
 92
        1
 93
        1
 72
     4
 94
        3
 73
     0
 74
     0
 95
       11
 96
        7
 40
0.0
 40
0.0
 40
0.0
 40
0.0
 40
1.0
 40
1.0
 40
1.0
 40
2.0
 40
2.0
 40
2.0
 40
2.0
 10
3.587093054495893
 20
-1.271058180099228
 10
3.511462814702478
 20
-1.319240496091841
 10
3.538272280764595
 20
-1.408435278309159
 10
3.587093054495893
 20
-1.470948316817978
 10
3.587093054495893
 20
-1.470948316817978
 10
3.587093054495893
 20
-1.271058180099228
 10
3.587093054495893
 20
-1.271058180099228
 97
        0
 97
        1
330
E6
 75
     2
 76
     1
 98
        1
 10
0.0
 20
0.0
450
        0
451
        0
460
0.0
461
0.0
452
        0
462
0.0
453
        0
470

  0
ENDBLK
  5
81
330
7E
100
AcDbEntity
  8
0
100
AcDbBlockEnd
  0
ENDSEC
  0
SECTION
  2
ENTITIES
  0
INSERT
  5
7B
330
70
100
AcDbEntity
  8
Deck Box - DF
100
AcDbBlockReference
  2
Block_0
 10
0.0
 20
0.0
 30
0.0
  0
ENDSEC
  0
SECTION
  2
OBJECTS
  0
DICTIONARY
  5
C
330
0
100
AcDbDictionary
281
     1
  3
ACAD_COLOR
350
63
  3
ACAD_DETAILVIEWSTYLE
350
6A
  3
ACAD_GROUP
350
D
  3
ACAD_LAYOUT
350
62
  3
ACAD_MATERIAL
350
10
  3
ACAD_MLEADERSTYLE
350
66
  3
ACAD_MLINESTYLE
350
5F
  3
ACAD_PLOTSETTINGS
350
61
  3
ACAD_PLOTSTYLENAME
350
E
  3
ACAD_SCALELIST
350
42
  3
ACAD_SECTIONVIEWSTYLE
350
68
  3
ACAD_TABLESTYLE
350
64
  3
ACAD_VISUALSTYLE
350
29
  3
ACDB_RECOMPOSE_DATA
350
F7
  3
AcDbVariableDictionary
350
EF
  0
DICTIONARY
  5
63
102
{ACAD_REACTORS
330
C
102
}
330
C
100
AcDbDictionary
281
     1
  0
DICTIONARY
  5
6A
102
{ACAD_REACTORS
330
C
102
}
330
C
100
AcDbDictionary
281
     1
  3
Imperial24
350
6B
  0
DICTIONARY
  5
D
102
{ACAD_REACTORS
330
C
102
}
330
C
100
AcDbDictionary
281
     1
  0
DICTIONARY
  5
62
102
{ACAD_REACTORS
330
C
102
}
330
C
100
AcDbDictionary
281
     1
  3
Layout1
350
6F
  3
Layout2
350
77
  3
Model
350
73
  0
DICTIONARY
  5
10
102
{ACAD_REACTORS
330
C
102
}
330
C
100
AcDbDictionary
281
     1
  3
ByBlock
350
19
  3
ByLayer
350
11
  3
Global
350
21
  0
DICTIONARY
  5
66
102
{ACAD_REACTORS
330
C
102
}
330
C
100
AcDbDictionary
281
     1
  3
Standard
350
67
  0
DICTIONARY
  5
5F
102
{ACAD_REACTORS
330
C
102
}
330
C
100
AcDbDictionary
281
     1
  3
Standard
350
60
  0
DICTIONARY
  5
61
102
{ACAD_REACTORS
330
C
102
}
330
C
100
AcDbDictionary
281
     1
  0
ACDBDICTIONARYWDFLT
  5
E
102
{ACAD_REACTORS
330
C
102
}
330
C
100
AcDbDictionary
281
     1
  3
Normal
350
F
100
AcDbDictionaryWithDefault
340
F
  0
DICTIONARY
  5
42
102
{ACAD_REACTORS
330
C
102
}
330
C
100
AcDbDictionary
281
     1
  3
A0
350
43
  3
A1
350
44
  3
A2
350
45
  3
A3
350
46
  3
A4
350
47
  3
A5
350
48
  3
A6
350
49
  3
A7
350
4A
  3
A8
350
4B
  3
A9
350
4C
  3
B0
350
4D
  3
B1
350
4E
  3
B2
350
4F
  3
B3
350
50
  3
B4
350
51
  3
B5
350
52
  3
B6
350
53
  0
DICTIONARY
  5
68
102
{ACAD_REACTORS
330
C
102
}
330
C
100
AcDbDictionary
281
     1
  3
Imperial24
350
69
  0
DICTIONARY
  5
64
102
{ACAD_REACTORS
330
C
102
}
330
C
100
AcDbDictionary
281
     1
  3
Standard
350
65
  0
DICTIONARY
  5
29
102
{ACAD_REACTORS
330
C
102
}
330
C
100
AcDbDictionary
281
     1
  3
2dWireframe
350
2F
  3
Basic
350
2E
  3
Brighten
350
35
  3
ColorChange
350
39
  3
Conceptual
350
32
  3
Dim
350
34
  3
EdgeColorOff
350
41
  3
Facepattern
350
38
  3
Flat
350
2A
  3
FlatWithEdges
350
2B
  3
Gouraud
350
2C
  3
GouraudWithEdges
350
2D
  3
Hidden
350
31
  3
JitterOff
350
3F
  3
Linepattern
350
37
  3
OverhangOff
350
40
  3
Realistic
350
33
  3
Shaded
350
3E
  3
Shaded with edges
350
3D
  3
Shades of Gray
350
3A
  3
Sketchy
350
3B
  3
Thicken
350
36
  3
Wireframe
350
30
  3
X-Ray
350
3C
  0
XRECORD
  5
F7
102
{ACAD_REACTORS
330
C
102
}
330
C
100
AcDbXrecord
280
     1
 90
        1
330
65
  0
DICTIONARY
  5
EF
102
{ACAD_REACTORS
330
C
102
}
330
C
100
AcDbDictionary
281
     1
  3
CANNOSCALE
350
F4
  3
CMLEADERSTYLE
350
F1
  3
CTABLESTYLE
350
F0
  3
CVIEWDETAILSTYLE
350
F2
  3
CVIEWSECTIONSTYLE
350
F3
  0
ACDBDETAILVIEWSTYLE
  5
6B
102
{ACAD_REACTORS
330
6A
102
}
330
6A
100
AcDbModelDocViewStyle
 70
     0
  3
Imperial24
290
     1
300
Imperial24
 90
        0
100
AcDbDetailViewStyle
 70
     0
 71
     0
 90
        3
 71
     1
340
55
 62
   256
 40
0.24
340
0
 62
   256
 40
0.24
300

 40
0.36
280
     3
 71
     2
340
5D
 90
       25
 62
   256
 71
     3
340
55
 62
   256
 40
0.24
 90
        1
 40
0.75
 90
        1
300
%<\AcVar ViewType \f "%tc1">% %<\AcVar ViewDetailId>%\PSCALE %<\AcVar ViewScale \f "%sn">%
 71
     4
340
5D
 90
       25
 62
   256
340
5D
 90
       25
 62
   256
280
     0
  0
LAYOUT
  5
6F
102
{ACAD_REACTORS
330
62
102
}
330
62
100
AcDbPlotSettings
  1

  2

  4

  6

 40
0.0
 41
0.0
 42
0.0
 43
0.0
 44
0.0
 45
0.0
 46
0.0
 47
0.0
 48
0.0
 49
0.0
140
0.0
141
0.0
142
1.0
143
1.0
 70
   688
 72
     0
 73
     0
 74
     5
  7

 75
    16
147
1.0
 76
     0
 77
     2
 78
   300
148
0.0
149
0.0
100
AcDbLayout
  1
Layout1
 70
     1
 71
     1
 10
0.0
 20
0.0
 11
12.0
 21
9.0
 12
0.0
 22
0.0
 32
0.0
 14
0.0
 24
0.0
 34
0.0
 15
0.0
 25
0.0
 35
0.0
146
0.0
 13
0.0
 23
0.0
 33
0.0
 16
1.0
 26
0.0
 36
0.0
 17
0.0
 27
1.0
 37
0.0
 76
     0
330
6C
  0
LAYOUT
  5
77
102
{ACAD_REACTORS
330
62
102
}
330
62
100
AcDbPlotSettings
  1

  2

  4

  6

 40
0.0
 41
0.0
 42
0.0
 43
0.0
 44
0.0
 45
0.0
 46
0.0
 47
0.0
 48
0.0
 49
0.0
140
0.0
141
0.0
142
1.0
143
1.0
 70
   688
 72
     0
 73
     0
 74
     5
  7

 75
    16
147
1.0
 76
     0
 77
     2
 78
   300
148
0.0
149
0.0
100
AcDbLayout
  1
Layout2
 70
     1
 71
     2
 10
0.0
 20
0.0
 11
12.0
 21
9.0
 12
0.0
 22
0.0
 32
0.0
 14
0.0
 24
0.0
 34
0.0
 15
0.0
 25
0.0
 35
0.0
146
0.0
 13
0.0
 23
0.0
 33
0.0
 16
1.0
 26
0.0
 36
0.0
 17
0.0
 27
1.0
 37
0.0
 76
     0
330
74
  0
LAYOUT
  5
73
102
{ACAD_REACTORS
330
62
102
}
330
62
100
AcDbPlotSettings
  1

  2

  4

  6

 40
0.0
 41
0.0
 42
0.0
 43
0.0
 44
0.0
 45
0.0
 46
0.0
 47
0.0
 48
0.0
 49
0.0
140
0.0
141
0.0
142
1.0
143
1.0
 70
  1712
 72
     0
 73
     0
 74
     0
  7

 75
     0
147
1.0
 76
     0
 77
     2
 78
   300
148
0.0
149
0.0
100
AcDbLayout
  1
Model
 70
     1
 71
     0
 10
0.0
 20
0.0
 11
12.0
 21
9.0
 12
0.0
 22
0.0
 32
0.0
 14
0.0
 24
0.0
 34
0.0
 15
0.0
 25
0.0
 35
0.0
146
0.0
 13
0.0
 23
0.0
 33
0.0
 16
1.0
 26
0.0
 36
0.0
 17
0.0
 27
1.0
 37
0.0
 76
     0
330
70
  0
MATERIAL
  5
19
102
{ACAD_XDICTIONARY
360
1A
102
}
102
{ACAD_REACTORS
330
10
102
}
330
10
100
AcDbMaterial
  1
ByBlock
 72
     0
 43
0.0208333333333333
 43
0.0
 43
0.0
 43
0.0
 43
0.0
 43
0.0208333333333333
 43
0.0
 43
0.0
 43
0.0
 43
0.0
 43
1.0
 43
0.0
 43
0.0
 43
0.0
 43
0.0
 43
1.0
 77
     0
 47
0.0208333333333333
 47
0.0
 47
0.0
 47
0.0
 47
0.0
 47
0.0208333333333333
 47
0.0
 47
0.0
 47
0.0
 47
0.0
 47
1.0
 47
0.0
 47
0.0
 47
0.0
 47
0.0
 47
1.0
171
     0
 49
0.0208333333333333
 49
0.0
 49
0.0
 49
0.0
 49
0.0
 49
0.0208333333333333
 49
0.0
 49
0.0
 49
0.0
 49
0.0
 49
1.0
 49
0.0
 49
0.0
 49
0.0
 49
0.0
 49
1.0
175
     0
142
0.0208333333333333
142
0.0
142
0.0
142
0.0
142
0.0
142
0.0208333333333333
142
0.0
142
0.0
142
0.0
142
0.0
142
1.0
142
0.0
142
0.0
142
0.0
142
0.0
142
1.0
179
     0
144
0.0208333333333333
144
0.0
144
0.0
144
0.0
144
0.0
144
0.0208333333333333
144
0.0
144
0.0
144
0.0
144
0.0
144
1.0
144
0.0
144
0.0
144
0.0
144
0.0
144
1.0
147
0.0208333333333333
147
0.0
147
0.0
147
0.0
147
0.0
147
0.0208333333333333
147
0.0
147
0.0
147
0.0
147
0.0
147
1.0
147
0.0
147
0.0
147
0.0
147
0.0
147
1.0
  0
MATERIAL
  5
11
102
{ACAD_XDICTIONARY
360
12
102
}
102
{ACAD_REACTORS
330
10
102
}
330
10
100
AcDbMaterial
  1
ByLayer
 72
     0
 43
0.0208333333333333
 43
0.0
 43
0.0
 43
0.0
 43
0.0
 43
0.0208333333333333
 43
0.0
 43
0.0
 43
0.0
 43
0.0
 43
1.0
 43
0.0
 43
0.0
 43
0.0
 43
0.0
 43
1.0
 77
     0
 47
0.0208333333333333
 47
0.0
 47
0.0
 47
0.0
 47
0.0
 47
0.0208333333333333
 47
0.0
 47
0.0
 47
0.0
 47
0.0
 47
1.0
 47
0.0
 47
0.0
 47
0.0
 47
0.0
 47
1.0
171
     0
 49
0.0208333333333333
 49
0.0
 49
0.0
 49
0.0
 49
0.0
 49
0.0208333333333333
 49
0.0
 49
0.0
 49
0.0
 49
0.0
 49
1.0
 49
0.0
 49
0.0
 49
0.0
 49
0.0
 49
1.0
175
     0
142
0.0208333333333333
142
0.0
142
0.0
142
0.0
142
0.0
142
0.0208333333333333
142
0.0
142
0.0
142
0.0
142
0.0
142
1.0
142
0.0
142
0.0
142
0.0
142
0.0
142
1.0
179
     0
144
0.0208333333333333
144
0.0
144
0.0
144
0.0
144
0.0
144
0.0208333333333333
144
0.0
144
0.0
144
0.0
144
0.0
144
1.0
144
0.0
144
0.0
144
0.0
144
0.0
144
1.0
147
0.0208333333333333
147
0.0
147
0.0
147
0.0
147
0.0
147
0.0208333333333333
147
0.0
147
0.0
147
0.0
147
0.0
147
1.0
147
0.0
147
0.0
147
0.0
147
0.0
147
1.0
  0
MATERIAL
  5
21
102
{ACAD_XDICTIONARY
360
22
102
}
102
{ACAD_REACTORS
330
10
102
}
330
10
100
AcDbMaterial
  1
Global
 72
     0
 43
0.0208333333333333
 43
0.0
 43
0.0
 43
0.0
 43
0.0
 43
0.0208333333333333
 43
0.0
 43
0.0
 43
0.0
 43
0.0
 43
1.0
 43
0.0
 43
0.0
 43
0.0
 43
0.0
 43
1.0
 77
     0
 47
0.0208333333333333
 47
0.0
 47
0.0
 47
0.0
 47
0.0
 47
0.0208333333333333
 47
0.0
 47
0.0
 47
0.0
 47
0.0
 47
1.0
 47
0.0
 47
0.0
 47
0.0
 47
0.0
 47
1.0
171
     0
 49
0.0208333333333333
 49
0.0
 49
0.0
 49
0.0
 49
0.0
 49
0.0208333333333333
 49
0.0
 49
0.0
 49
0.0
 49
0.0
 49
1.0
 49
0.0
 49
0.0
 49
0.0
 49
0.0
 49
1.0
175
     0
142
0.0208333333333333
142
0.0
142
0.0
142
0.0
142
0.0
142
0.0208333333333333
142
0.0
142
0.0
142
0.0
142
0.0
142
1.0
142
0.0
142
0.0
142
0.0
142
0.0
142
1.0
179
     0
144
0.0208333333333333
144
0.0
144
0.0
144
0.0
144
0.0
144
0.0208333333333333
144
0.0
144
0.0
144
0.0
144
0.0
144
1.0
144
0.0
144
0.0
144
0.0
144
0.0
144
1.0
147
0.0208333333333333
147
0.0
147
0.0
147
0.0
147
0.0
147
0.0208333333333333
147
0.0
147
0.0
147
0.0
147
0.0
147
1.0
147
0.0
147
0.0
147
0.0
147
0.0
147
1.0
  0
MLEADERSTYLE
  5
67
102
{ACAD_REACTORS
330
66
102
}
330
66
100
AcDbMLeaderStyle
179
     2
170
     2
171
     1
172
     0
 90
        2
 40
0.0
 41
0.0
173
     1
 91
-1056964608
340
5B
 92
       -2
290
     1
 42
0.09
291
     1
 43
0.36
  3
Standard
 44
0.18
300

342
55
174
     1
178
     6
175
     1
176
     0
 93
-1056964608
 45
0.18
292
     0
297
     0
 46
0.18
 94
-1056964608
 47
1.0
 49
1.0
140
1.0
293
     1
141
0.0
294
     1
177
     0
142
1.0
295
     1
296
     0
143
0.125
271
     0
272
     9
273
     9
298
     1
  0
MLINESTYLE
  5
60
102
{ACAD_REACTORS
330
5F
102
}
330
5F
100
AcDbMlineStyle
  2
STANDARD
 70
     0
  3

 62
   256
 51
90.0
 52
90.0
 71
     2
 49
0.5
 62
   256
  6
BYLAYER
 49
-0.5
 62
   256
  6
BYLAYER
  0
ACDBPLACEHOLDER
  5
F
102
{ACAD_REACTORS
330
E
102
}
330
E
  0
SCALE
  5
43
102
{ACAD_REACTORS
330
42
102
}
330
42
100
AcDbScale
 70
     0
300
1:1
140
1.0
141
1.0
290
     1
  0
SCALE
  5
44
102
{ACAD_REACTORS
330
42
102
}
330
42
100
AcDbScale
 70
     0
300
1/128" = 1'-0"
140
0.0078125
141
12.0
290
     0
  0
SCALE
  5
45
102
{ACAD_REACTORS
330
42
102
}
330
42
100
AcDbScale
 70
     0
300
1/64" = 1'-0"
140
0.015625
141
12.0
290
     0
  0
SCALE
  5
46
102
{ACAD_REACTORS
330
42
102
}
330
42
100
AcDbScale
 70
     0
300
1/32" = 1'-0"
140
0.03125
141
12.0
290
     0
  0
SCALE
  5
47
102
{ACAD_REACTORS
330
42
102
}
330
42
100
AcDbScale
 70
     0
300
1/16" = 1'-0"
140
0.0625
141
12.0
290
     0
  0
SCALE
  5
48
102
{ACAD_REACTORS
330
42
102
}
330
42
100
AcDbScale
 70
     0
300
3/32" = 1'-0"
140
0.09375
141
12.0
290
     0
  0
SCALE
  5
49
102
{ACAD_REACTORS
330
42
102
}
330
42
100
AcDbScale
 70
     0
300
1/8" = 1'-0"
140
0.125
141
12.0
290
     0
  0
SCALE
  5
4A
102
{ACAD_REACTORS
330
42
102
}
330
42
100
AcDbScale
 70
     0
300
3/16" = 1'-0"
140
0.1875
141
12.0
290
     0
  0
SCALE
  5
4B
102
{ACAD_REACTORS
330
42
102
}
330
42
100
AcDbScale
 70
     0
300
1/4" = 1'-0"
140
0.25
141
12.0
290
     0
  0
SCALE
  5
4C
102
{ACAD_REACTORS
330
42
102
}
330
42
100
AcDbScale
 70
     0
300
3/8" = 1'-0"
140
0.375
141
12.0
290
     0
  0
SCALE
  5
4D
102
{ACAD_REACTORS
330
42
102
}
330
42
100
AcDbScale
 70
     0
300
1/2" = 1'-0"
140
0.5
141
12.0
290
     0
  0
SCALE
  5
4E
102
{ACAD_REACTORS
330
42
102
}
330
42
100
AcDbScale
 70
     0
300
3/4" = 1'-0"
140
0.75
141
12.0
290
     0
  0
SCALE
  5
4F
102
{ACAD_REACTORS
330
42
102
}
330
42
100
AcDbScale
 70
     0
300
1" = 1'-0"
140
1.0
141
12.0
290
     0
  0
SCALE
  5
50
102
{ACAD_REACTORS
330
42
102
}
330
42
100
AcDbScale
 70
     0
300
1-1/2" = 1'-0"
140
1.5
141
12.0
290
     0
  0
SCALE
  5
51
102
{ACAD_REACTORS
330
42
102
}
330
42
100
AcDbScale
 70
     0
300
3" = 1'-0"
140
3.0
141
12.0
290
     0
  0
SCALE
  5
52
102
{ACAD_REACTORS
330
42
102
}
330
42
100
AcDbScale
 70
     0
300
6" = 1'-0"
140
6.0
141
12.0
290
     0
  0
SCALE
  5
53
102
{ACAD_REACTORS
330
42
102
}
330
42
100
AcDbScale
 70
     0
300
1'-0" = 1'-0"
140
12.0
141
12.0
290
     0
  0
ACDBSECTIONVIEWSTYLE
  5
69
102
{ACAD_REACTORS
330
68
102
}
330
68
100
AcDbModelDocViewStyle
 70
     0
  3
Imperial24
290
     1
300
Imperial24
 90
        0
100
AcDbSectionViewStyle
 70
     0
 71
     0
 90
       78
 71
     1
340
55
 62
   256
 40
0.24
340
0
340
0
 62
   256
 40
0.24
300
I, O, Q, S, X, Z
 40
0.48
 90
        3
 40
0.18
 90
        1
 71
     2
340
5D
 90
       25
 62
   256
340
5D
 90
       50
 62
   256
 40
0.24
 40
0.0
 40
0.24
 71
     3
340
55
 62
   256
 40
0.24
 90
        1
 40
0.75
 90
        1
300
%<\AcVar ViewType \f "%tc1">% %<\AcVar ViewSectionStartId>%-%<\AcVar ViewSectionEndId>%\PSCALE %<\AcVar ViewScale \f "%sn">%
 71
     4
 62
   256
 62
   257
300
ANSI31
 40
1.0
 90
        0
290
     0
290
     0
 90
        6
 40
0.0
 40
1.570796326794896
 40
0.2617993877991494
 40
1.308996938995747
 40
-0.2617993877991494
 40
1.832595714594046
  0
TABLESTYLE
  5
65
102
{ACAD_XDICTIONARY
360
F5
102
}
102
{ACAD_REACTORS
330
64
102
}
330
64
100
AcDbTableStyle
280
     0
  3
Standard
 70
     0
 71
     0
 40
0.06
 41
0.06
280
     0
281
     0
  7
Standard
140
0.18
170
     2
 62
     0
 63
     7
283
     0
 90
      512
 91
        0
  1

274
    -2
284
     1
 64
     0
275
    -2
285
     1
 65
     0
276
    -2
286
     1
 66
     0
277
    -2
287
     1
 67
     0
278
    -2
288
     1
 68
     0
279
    -2
289
     1
 69
     0
  7
Standard
140
0.25
170
     5
 62
     0
 63
     7
283
     0
 90
      512
 91
        0
  1

274
    -2
284
     1
 64
     0
275
    -2
285
     1
 65
     0
276
    -2
286
     1
 66
     0
277
    -2
287
     1
 67
     0
278
    -2
288
     1
 68
     0
279
    -2
289
     1
 69
     0
  7
Standard
140
0.18
170
     5
 62
     0
 63
     7
283
     0
 90
      512
 91
        0
  1

274
    -2
284
     1
 64
     0
275
    -2
285
     1
 65
     0
276
    -2
286
     1
 66
     0
277
    -2
287
     1
 67
     0
278
    -2
288
     1
 68
     0
279
    -2
289
     1
 69
     0
  0
VISUALSTYLE
  5
2F
102
{ACAD_REACTORS
330
29
102
}
330
29
100
AcDbVisualStyle
  2
2dWireframe
 70
     4
177
     3
291
     0
 70
    58
 90
        0
176
     1
 90
        2
176
     1
 90
        0
176
     1
 90
        0
176
     1
 40
0.6
176
     1
 40
30.0
176
     1
 62
     7
420
 16777215
176
     1
 90
        1
176
     1
 90
        4
176
     1
 62
     7
176
     1
 62
   257
176
     1
 90
        1
176
     1
 90
        1
176
     1
 40
1.0
176
     1
 90
        0
176
     1
 62
   257
176
     1
 40
1.0
176
     1
 90
        1
176
     1
 90
        6
176
     1
 90
        2
176
     1
 62
     7
176
     1
 90
        5
176
     1
 90
        0
176
     1
 90
        0
176
     1
290
     0
176
     1
 90
        1
176
     1
 40
0.0
176
     1
 90
        0
176
     1
290
     1
176
     1
290
     1
176
     1
290
     0
176
     1
290
     0
176
     1
290
     0
176
     1
290
     0
176
     1
290
     0
176
     1
290
     0
176
     1
290
     0
176
     1
 90
       50
176
     1
 40
0.0
176
     1
 40
1.0
176
     1
 90
        0
176
     1
 62
    18
420
        0
176
     1
 90
       50
176
     1
 90
        3
176
     1
 62
     5
420
      255
176
     1
290
     0
176
     1
 90
       50
176
     1
 90
       50
176
     1
 90
       50
176
     1
290
     0
176
     1
 90
       50
176
     1
 62
   256
176
     0
 40
1.0
176
     0
 90
        2
176
     1
  1
strokes_ogs.tif
176
     1
290
     0
176
     1
 40
1.0
176
     1
 40
1.0
176
     1
  0
VISUALSTYLE
  5
2E
102
{ACAD_REACTORS
330
29
102
}
330
29
100
AcDbVisualStyle
  2
Basic
 70
     7
177
     3
291
     1
 70
    58
 90
        1
176
     1
 90
        0
176
     1
 90
        1
176
     1
 90
        0
176
     1
 40
0.6
176
     1
 40
30.0
176
     1
 62
     7
420
 16777215
176
     1
 90
        0
176
     1
 90
        4
176
     1
 62
     7
176
     1
 62
   257
176
     1
 90
        1
176
     1
 90
        1
176
     1
 40
1.0
176
     1
 90
        8
176
     1
 62
     7
176
     1
 40
1.0
176
     1
 90
        1
176
     1
 90
        6
176
     1
 90
        2
176
     1
 62
     7
176
     1
 90
        5
176
     1
 90
        0
176
     1
 90
        0
176
     1
290
     0
176
     1
 90
        1
176
     1
 40
0.0
176
     1
 90
        0
176
     1
290
     0
176
     1
290
     1
176
     1
290
     1
176
     1
290
     0
176
     1
290
     0
176
     1
290
     0
176
     1
290
     0
176
     1
290
     0
176
     1
290
     0
176
     1
 90
       50
176
     1
 40
0.0
176
     1
 40
1.0
176
     1
 90
        0
176
     1
 62
    18
420
        0
176
     1
 90
       50
176
     1
 90
        3
176
     1
 62
     5
420
      255
176
     1
290
     0
176
     1
 90
       50
176
     1
 90
       50
176
     1
 90
       50
176
     1
290
     0
176
     1
 90
       50
176
     1
 62
   256
176
     0
 40
1.0
176
     0
 90
        2
176
     1
  1
strokes_ogs.tif
176
     1
290
     0
176
     1
 40
1.0
176
     1
 40
1.0
176
     1
  0
VISUALSTYLE
  5
35
102
{ACAD_REACTORS
330
29
102
}
330
29
100
AcDbVisualStyle
  2
Brighten
 70
    12
177
     3
291
     1
 70
    58
 90
        2
176
     1
 90
        2
176
     1
 90
        0
176
     1
 90
        0
176
     1
 40
0.6
176
     1
 40
30.0
176
     1
 62
     7
420
 16777215
176
     1
 90
        1
176
     1
 90
        4
176
     1
 62
     7
176
     1
 62
   257
176
     1
 90
        1
176
     1
 90
        1
176
     1
 40
1.0
176
     1
 90
        8
176
     1
 62
     7
176
     1
 40
1.0
176
     1
 90
        1
176
     1
 90
        6
176
     1
 90
        2
176
     1
 62
     7
176
     1
 90
        5
176
     1
 90
        0
176
     1
 90
        0
176
     1
290
     0
176
     1
 90
        1
176
     1
 40
50.0
176
     1
 90
        0
176
     1
290
     0
176
     1
290
     1
176
     1
290
     1
176
     1
290
     0
176
     1
290
     0
176
     1
290
     0
176
     1
290
     0
176
     1
290
     0
176
     1
290
     0
176
     1
 90
       50
176
     1
 40
0.0
176
     1
 40
1.0
176
     1
 90
        0
176
     1
 62
    18
420
        0
176
     1
 90
       50
176
     1
 90
        3
176
     1
 62
     5
420
      255
176
     1
290
     0
176
     1
 90
       50
176
     1
 90
       50
176
     1
 90
       50
176
     1
290
     0
176
     1
 90
       50
176
     1
 62
   256
176
     0
 40
1.0
176
     0
 90
        2
176
     1
  1
strokes_ogs.tif
176
     1
290
     0
176
     1
 40
1.0
176
     1
 40
1.0
176
     1
  0
VISUALSTYLE
  5
39
102
{ACAD_REACTORS
330
29
102
}
330
29
100
AcDbVisualStyle
  2
ColorChange
 70
    16
177
     3
291
     1
 70
    58
 90
        2
176
     1
 90
        2
176
     1
 90
        3
176
     1
 90
        0
176
     1
 40
0.6
176
     1
 40
30.0
176
     1
 62
     8
420
  8421504
176
     1
 90
        1
176
     1
 90
        4
176
     1
 62
     7
176
     1
 62
   257
176
     1
 90
        1
176
     1
 90
        1
176
     1
 40
1.0
176
     1
 90
        8
176
     1
 62
     8
420
  8421504
176
     1
 40
1.0
176
     1
 90
        1
176
     1
 90
        6
176
     1
 90
        2
176
     1
 62
     7
176
     1
 90
        5
176
     1
 90
        0
176
     1
 90
        0
176
     1
290
     0
176
     1
 90
        1
176
     1
 40
0.0
176
     1
 90
        0
176
     1
290
     0
176
     1
290
     1
176
     1
290
     1
176
     1
290
     0
176
     1
290
     0
176
     1
290
     0
176
     1
290
     0
176
     1
290
     0
176
     1
290
     0
176
     1
 90
       50
176
     1
 40
0.0
176
     1
 40
1.0
176
     1
 90
        0
176
     1
 62
    18
420
        0
176
     1
 90
       50
176
     1
 90
        3
176
     1
 62
     5
420
      255
176
     1
290
     0
176
     1
 90
       50
176
     1
 90
       50
176
     1
 90
       50
176
     1
290
     0
176
     1
 90
       50
176
     1
 62
   256
176
     0
 40
1.0
176
     0
 90
        2
176
     1
  1
strokes_ogs.tif
176
     1
290
     0
176
     1
 40
1.0
176
     1
 40
1.0
176
     1
  0
VISUALSTYLE
  5
32
102
{ACAD_REACTORS
330
29
102
}
330
29
100
AcDbVisualStyle
  2
Conceptual
 70
     9
177
     3
291
     0
 70
    58
 90
        3
176
     1
 90
        2
176
     1
 90
        0
176
     1
 90
        0
176
     1
 40
0.6
176
     1
 40
30.0
176
     1
 62
     7
420
 16777215
176
     1
 90
        2
176
     1
 90
        2
176
     1
 62
     7
176
     1
 62
   257
176
     1
 90
        1
176
     1
 90
        1
176
     1
 40
179.0
176
     1
 90
        8
176
     1
 62
     7
176
     1
 40
1.0
176
     1
 90
        1
176
     1
 90
        6
176
     1
 90
        2
176
     1
 62
     7
176
     1
 90
        3
176
     1
 90
        0
176
     1
 90
        0
176
     1
290
     0
176
     1
 90
        1
176
     1
 40
0.0
176
     1
 90
        0
176
     1
290
     0
176
     1
290
     1
176
     1
290
     1
176
     1
290
     0
176
     1
290
     0
176
     1
290
     0
176
     1
290
     0
176
     1
290
     0
176
     1
290
     0
176
     1
 90
       50
176
     1
 40
0.0
176
     1
 40
1.0
176
     1
 90
        0
176
     1
 62
    18
420
        0
176
     1
 90
       50
176
     1
 90
        3
176
     1
 62
     5
420
      255
176
     1
290
     0
176
     1
 90
       50
176
     1
 90
       50
176
     1
 90
       50
176
     1
290
     0
176
     1
 90
       50
176
     1
 62
   256
176
     0
 40
1.0
176
     0
 90
        2
176
     1
  1
strokes_ogs.tif
176
     1
290
     0
176
     1
 40
1.0
176
     1
 40
1.0
176
     1
  0
VISUALSTYLE
  5
34
102
{ACAD_REACTORS
330
29
102
}
330
29
100
AcDbVisualStyle
  2
Dim
 70
    11
177
     3
291
     1
 70
    58
 90
        2
176
     1
 90
        2
176
     1
 90
        0
176
     1
 90
        0
176
     1
 40
0.6
176
     1
 40
30.0
176
     1
 62
     7
420
 16777215
176
     1
 90
        1
176
     1
 90
        4
176
     1
 62
     7
176
     1
 62
   257
176
     1
 90
        1
176
     1
 90
        1
176
     1
 40
1.0
176
     1
 90
        8
176
     1
 62
     7
176
     1
 40
1.0
176
     1
 90
        1
176
     1
 90
        6
176
     1
 90
        2
176
     1
 62
     7
176
     1
 90
        5
176
     1
 90
        0
176
     1
 90
        0
176
     1
290
     0
176
     1
 90
        1
176
     1
 40
-50.0
176
     1
 90
        0
176
     1
290
     0
176
     1
290
     1
176
     1
290
     1
176
     1
290
     0
176
     1
290
     0
176
     1
290
     0
176
     1
290
     0
176
     1
290
     0
176
     1
290
     0
176
     1
 90
       50
176
     1
 40
0.0
176
     1
 40
1.0
176
     1
 90
        0
176
     1
 62
    18
420
        0
176
     1
 90
       50
176
     1
 90
        3
176
     1
 62
     5
420
      255
176
     1
290
     0
176
     1
 90
       50
176
     1
 90
       50
176
     1
 90
       50
176
     1
290
     0
176
     1
 90
       50
176
     1
 62
   256
176
     0
 40
1.0
176
     0
 90
        2
176
     1
  1
strokes_ogs.tif
176
     1
290
     0
176
     1
 40
1.0
176
     1
 40
1.0
176
     1
  0
VISUALSTYLE
  5
41
102
{ACAD_REACTORS
330
29
102
}
330
29
100
AcDbVisualStyle
  2
EdgeColorOff
 70
    22
177
     3
291
     1
 70
    58
 90
        2
176
     0
 90
        2
176
     0
 90
        0
176
     0
 90
        0
176
     0
 40
0.6
176
     0
 40
30.0
176
     0
 62
     7
420
 16777215
176
     0
 90
        1
176
     0
 90
        4
176
     0
 62
     7
176
     0
 62
   257
176
     0
 90
        1
176
     0
 90
        1
176
     0
 40
1.0
176
     0
 90
        8
176
     2
 62
     7
176
     0
 40
1.0
176
     0
 90
        1
176
     0
 90
        6
176
     0
 90
        2
176
     0
 62
     7
176
     0
 90
        5
176
     0
 90
        0
176
     0
 90
        0
176
     0
290
     0
176
     0
 90
        1
176
     0
 40
0.0
176
     0
 90
        0
176
     0
290
     0
176
     0
290
     1
176
     0
290
     1
176
     0
290
     0
176
     0
290
     0
176
     0
290
     0
176
     0
290
     0
176
     0
290
     0
176
     0
290
     0
176
     0
 90
       50
176
     0
 40
0.0
176
     0
 40
1.0
176
     0
 90
        0
176
     0
 62
    18
420
        0
176
     0
 90
       50
176
     0
 90
        3
176
     0
 62
     5
420
      255
176
     0
290
     0
176
     0
 90
       50
176
     0
 90
       50
176
     0
 90
       50
176
     0
290
     0
176
     0
 90
       50
176
     0
 62
   256
176
     0
 40
1.0
176
     0
 90
        2
176
     0
  1
strokes_ogs.tif
176
     0
290
     0
176
     0
 40
1.0
176
     0
 40
1.0
176
     0
  0
VISUALSTYLE
  5
38
102
{ACAD_REACTORS
330
29
102
}
330
29
100
AcDbVisualStyle
  2
Facepattern
 70
    15
177
     3
291
     1
 70
    58
 90
        2
176
     1
 90
        2
176
     1
 90
        0
176
     1
 90
        0
176
     1
 40
0.6
176
     1
 40
30.0
176
     1
 62
     7
420
 16777215
176
     1
 90
        1
176
     1
 90
        4
176
     1
 62
     7
176
     1
 62
   257
176
     1
 90
        1
176
     1
 90
        1
176
     1
 40
1.0
176
     1
 90
        8
176
     1
 62
     7
176
     1
 40
1.0
176
     1
 90
        1
176
     1
 90
        6
176
     1
 90
        2
176
     1
 62
     7
176
     1
 90
        5
176
     1
 90
        0
176
     1
 90
        0
176
     1
290
     0
176
     1
 90
        1
176
     1
 40
0.0
176
     1
 90
        0
176
     1
290
     0
176
     1
290
     1
176
     1
290
     1
176
     1
290
     0
176
     1
290
     0
176
     1
290
     0
176
     1
290
     0
176
     1
290
     0
176
     1
290
     0
176
     1
 90
       50
176
     1
 40
0.0
176
     1
 40
1.0
176
     1
 90
        0
176
     1
 62
    18
420
        0
176
     1
 90
       50
176
     1
 90
        3
176
     1
 62
     5
420
      255
176
     1
290
     0
176
     1
 90
       50
176
     1
 90
       50
176
     1
 90
       50
176
     1
290
     0
176
     1
 90
       50
176
     1
 62
   256
176
     0
 40
1.0
176
     0
 90
        2
176
     1
  1
strokes_ogs.tif
176
     1
290
     0
176
     1
 40
1.0
176
     1
 40
1.0
176
     1
  0
VISUALSTYLE
  5
2A
102
{ACAD_REACTORS
330
29
102
}
330
29
100
AcDbVisualStyle
  2
Flat
 70
     0
177
     3
291
     1
 70
    58
 90
        2
176
     1
 90
        1
176
     1
 90
        1
176
     1
 90
        2
176
     1
 40
0.6
176
     1
 40
30.0
176
     1
 62
     7
420
 16777215
176
     1
 90
        0
176
     1
 90
        0
176
     1
 62
     7
176
     1
 62
   257
176
     1
 90
        1
176
     1
 90
        1
176
     1
 40
1.0
176
     1
 90
        8
176
     1
 62
     7
176
     1
 40
1.0
176
     1
 90
        1
176
     1
 90
        6
176
     1
 90
        2
176
     1
 62
     7
176
     1
 90
        5
176
     1
 90
        0
176
     1
 90
        0
176
     1
290
     0
176
     1
 90
       13
176
     1
 40
0.0
176
     1
 90
        0
176
     1
290
     0
176
     1
290
     1
176
     1
290
     1
176
     1
290
     0
176
     1
290
     0
176
     1
290
     0
176
     1
290
     0
176
     1
290
     0
176
     1
290
     0
176
     1
 90
       50
176
     1
 40
0.0
176
     1
 40
1.0
176
     1
 90
        0
176
     1
 62
    18
420
        0
176
     1
 90
       50
176
     1
 90
        3
176
     1
 62
     5
420
      255
176
     1
290
     0
176
     1
 90
       50
176
     1
 90
       50
176
     1
 90
       50
176
     1
290
     0
176
     1
 90
       50
176
     1
 62
   256
176
     0
 40
1.0
176
     0
 90
        2
176
     1
  1
strokes_ogs.tif
176
     1
290
     0
176
     1
 40
1.0
176
     1
 40
1.0
176
     1
  0
VISUALSTYLE
  5
2B
102
{ACAD_REACTORS
330
29
102
}
330
29
100
AcDbVisualStyle
  2
FlatWithEdges
 70
     1
177
     3
291
     1
 70
    58
 90
        2
176
     1
 90
        1
176
     1
 90
        1
176
     1
 90
        2
176
     1
 40
0.6
176
     1
 40
30.0
176
     1
 62
     7
420
 16777215
176
     1
 90
        1
176
     1
 90
        0
176
     1
 62
     7
176
     1
 62
   257
176
     1
 90
        1
176
     1
 90
        1
176
     1
 40
1.0
176
     1
 90
        0
176
     1
 62
   257
176
     1
 40
1.0
176
     1
 90
        1
176
     1
 90
        6
176
     1
 90
        2
176
     1
 62
     7
176
     1
 90
        5
176
     1
 90
        0
176
     1
 90
        0
176
     1
290
     0
176
     1
 90
       13
176
     1
 40
0.0
176
     1
 90
        0
176
     1
290
     0
176
     1
290
     1
176
     1
290
     1
176
     1
290
     0
176
     1
290
     0
176
     1
290
     0
176
     1
290
     0
176
     1
290
     0
176
     1
290
     0
176
     1
 90
       50
176
     1
 40
0.0
176
     1
 40
1.0
176
     1
 90
        0
176
     1
 62
    18
420
        0
176
     1
 90
       50
176
     1
 90
        3
176
     1
 62
     5
420
      255
176
     1
290
     0
176
     1
 90
       50
176
     1
 90
       50
176
     1
 90
       50
176
     1
290
     0
176
     1
 90
       50
176
     1
 62
   256
176
     0
 40
1.0
176
     0
 90
        2
176
     1
  1
strokes_ogs.tif
176
     1
290
     0
176
     1
 40
1.0
176
     1
 40
1.0
176
     1
  0
VISUALSTYLE
  5
2C
102
{ACAD_REACTORS
330
29
102
}
330
29
100
AcDbVisualStyle
  2
Gouraud
 70
     2
177
     3
291
     1
 70
    58
 90
        2
176
     1
 90
        2
176
     1
 90
        1
176
     1
 90
        2
176
     1
 40
0.6
176
     1
 40
30.0
176
     1
 62
     7
420
 16777215
176
     1
 90
        0
176
     1
 90
        0
176
     1
 62
     7
176
     1
 62
   257
176
     1
 90
        1
176
     1
 90
        1
176
     1
 40
1.0
176
     1
 90
        0
176
     1
 62
     7
176
     1
 40
1.0
176
     1
 90
        1
176
     1
 90
        6
176
     1
 90
        2
176
     1
 62
     7
176
     1
 90
        5
176
     1
 90
        0
176
     1
 90
        0
176
     1
290
     0
176
     1
 90
       13
176
     1
 40
0.0
176
     1
 90
        0
176
     1
290
     0
176
     1
290
     1
176
     1
290
     1
176
     1
290
     0
176
     1
290
     0
176
     1
290
     0
176
     1
290
     0
176
     1
290
     0
176
     1
290
     0
176
     1
 90
       50
176
     1
 40
0.0
176
     1
 40
1.0
176
     1
 90
        0
176
     1
 62
    18
420
        0
176
     1
 90
       50
176
     1
 90
        3
176
     1
 62
     5
420
      255
176
     1
290
     0
176
     1
 90
       50
176
     1
 90
       50
176
     1
 90
       50
176
     1
290
     0
176
     1
 90
       50
176
     1
 62
   256
176
     0
 40
1.0
176
     0
 90
        2
176
     1
  1
strokes_ogs.tif
176
     1
290
     0
176
     1
 40
1.0
176
     1
 40
1.0
176
     1
  0
VISUALSTYLE
  5
2D
102
{ACAD_REACTORS
330
29
102
}
330
29
100
AcDbVisualStyle
  2
GouraudWithEdges
 70
     3
177
     3
291
     1
 70
    58
 90
        2
176
     1
 90
        2
176
     1
 90
        1
176
     1
 90
        2
176
     1
 40
0.6
176
     1
 40
30.0
176
     1
 62
     7
420
 16777215
176
     1
 90
        1
176
     1
 90
        0
176
     1
 62
     7
176
     1
 62
   257
176
     1
 90
        1
176
     1
 90
        1
176
     1
 40
1.0
176
     1
 90
        0
176
     1
 62
   257
176
     1
 40
1.0
176
     1
 90
        1
176
     1
 90
        6
176
     1
 90
        2
176
     1
 62
     7
176
     1
 90
        5
176
     1
 90
        0
176
     1
 90
        0
176
     1
290
     0
176
     1
 90
       13
176
     1
 40
0.0
176
     1
 90
        0
176
     1
290
     0
176
     1
290
     1
176
     1
290
     1
176
     1
290
     0
176
     1
290
     0
176
     1
290
     0
176
     1
290
     0
176
     1
290
     0
176
     1
290
     0
176
     1
 90
       50
176
     1
 40
0.0
176
     1
 40
1.0
176
     1
 90
        0
176
     1
 62
    18
420
        0
176
     1
 90
       50
176
     1
 90
        3
176
     1
 62
     5
420
      255
176
     1
290
     0
176
     1
 90
       50
176
     1
 90
       50
176
     1
 90
       50
176
     1
290
     0
176
     1
 90
       50
176
     1
 62
   256
176
     0
 40
1.0
176
     0
 90
        2
176
     1
  1
strokes_ogs.tif
176
     1
290
     0
176
     1
 40
1.0
176
     1
 40
1.0
176
     1
  0
VISUALSTYLE
  5
31
102
{ACAD_REACTORS
330
29
102
}
330
29
100
AcDbVisualStyle
  2
Hidden
 70
     6
177
     3
291
     0
 70
    58
 90
        1
176
     1
 90
        2
176
     1
 90
        2
176
     1
 90
        0
176
     1
 40
0.6
176
     1
 40
30.0
176
     1
 62
     7
420
 16777215
176
     1
 90
        2
176
     1
 90
        2
176
     1
 62
     7
176
     1
 62
   257
176
     1
 90
        2
176
     1
 90
        1
176
     1
 40
40.0
176
     1
 90
        0
176
     1
 62
   257
176
     1
 40
1.0
176
     1
 90
        1
176
     1
 90
        6
176
     1
 90
        2
176
     1
 62
     7
176
     1
 90
        3
176
     1
 90
        0
176
     1
 90
        0
176
     1
290
     0
176
     1
 90
        1
176
     1
 40
0.0
176
     1
 90
        0
176
     1
290
     0
176
     1
290
     1
176
     1
290
     1
176
     1
290
     0
176
     1
290
     0
176
     1
290
     0
176
     1
290
     0
176
     1
290
     0
176
     1
290
     0
176
     1
 90
       50
176
     1
 40
0.0
176
     1
 40
1.0
176
     1
 90
        0
176
     1
 62
    18
420
        0
176
     1
 90
       50
176
     1
 90
        3
176
     1
 62
     5
420
      255
176
     1
290
     0
176
     1
 90
       50
176
     1
 90
       50
176
     1
 90
       50
176
     1
290
     0
176
     1
 90
       50
176
     1
 62
   256
176
     0
 40
1.0
176
     0
 90
        2
176
     1
  1
strokes_ogs.tif
176
     1
290
     0
176
     1
 40
1.0
176
     1
 40
1.0
176
     1
  0
VISUALSTYLE
  5
3F
102
{ACAD_REACTORS
330
29
102
}
330
29
100
AcDbVisualStyle
  2
JitterOff
 70
    20
177
     3
291
     1
 70
    58
 90
        2
176
     0
 90
        2
176
     0
 90
        0
176
     0
 90
        0
176
     0
 40
0.6
176
     0
 40
30.0
176
     0
 62
     7
420
 16777215
176
     0
 90
        1
176
     0
 90
        4
176
     0
 62
     7
176
     0
 62
   257
176
     0
 90
        1
176
     0
 90
        1
176
     0
 40
1.0
176
     0
 90
       10
176
     2
 62
     7
176
     0
 40
1.0
176
     0
 90
        1
176
     0
 90
        6
176
     0
 90
        2
176
     0
 62
     7
176
     0
 90
        5
176
     0
 90
        0
176
     0
 90
        0
176
     0
290
     0
176
     0
 90
        1
176
     0
 40
0.0
176
     0
 90
        0
176
     0
290
     0
176
     0
290
     1
176
     0
290
     1
176
     0
290
     0
176
     0
290
     0
176
     0
290
     0
176
     0
290
     0
176
     0
290
     0
176
     0
290
     0
176
     0
 90
       50
176
     0
 40
0.0
176
     0
 40
1.0
176
     0
 90
        0
176
     0
 62
    18
420
        0
176
     0
 90
       50
176
     0
 90
        3
176
     0
 62
     5
420
      255
176
     0
290
     0
176
     0
 90
       50
176
     0
 90
       50
176
     0
 90
       50
176
     0
290
     0
176
     0
 90
       50
176
     0
 62
   256
176
     0
 40
1.0
176
     0
 90
        2
176
     0
  1
strokes_ogs.tif
176
     0
290
     0
176
     0
 40
1.0
176
     0
 40
1.0
176
     0
  0
VISUALSTYLE
  5
37
102
{ACAD_REACTORS
330
29
102
}
330
29
100
AcDbVisualStyle
  2
Linepattern
 70
    14
177
     3
291
     1
 70
    58
 90
        2
176
     1
 90
        2
176
     1
 90
        0
176
     1
 90
        0
176
     1
 40
0.6
176
     1
 40
30.0
176
     1
 62
     7
420
 16777215
176
     1
 90
        1
176
     1
 90
        4
176
     1
 62
     7
176
     1
 62
   257
176
     1
 90
        7
176
     1
 90
        7
176
     1
 40
1.0
176
     1
 90
        8
176
     1
 62
     7
176
     1
 40
1.0
176
     1
 90
        1
176
     1
 90
        6
176
     1
 90
        2
176
     1
 62
     7
176
     1
 90
        5
176
     1
 90
        0
176
     1
 90
        0
176
     1
290
     0
176
     1
 90
        1
176
     1
 40
0.0
176
     1
 90
        0
176
     1
290
     0
176
     1
290
     1
176
     1
290
     1
176
     1
290
     0
176
     1
290
     0
176
     1
290
     0
176
     1
290
     0
176
     1
290
     0
176
     1
290
     0
176
     1
 90
       50
176
     1
 40
0.0
176
     1
 40
1.0
176
     1
 90
        0
176
     1
 62
    18
420
        0
176
     1
 90
       50
176
     1
 90
        3
176
     1
 62
     5
420
      255
176
     1
290
     0
176
     1
 90
       50
176
     1
 90
       50
176
     1
 90
       50
176
     1
290
     0
176
     1
 90
       50
176
     1
 62
   256
176
     0
 40
1.0
176
     0
 90
        2
176
     1
  1
strokes_ogs.tif
176
     1
290
     0
176
     1
 40
1.0
176
     1
 40
1.0
176
     1
  0
VISUALSTYLE
  5
40
102
{ACAD_REACTORS
330
29
102
}
330
29
100
AcDbVisualStyle
  2
OverhangOff
 70
    21
177
     3
291
     1
 70
    58
 90
        2
176
     0
 90
        2
176
     0
 90
        0
176
     0
 90
        0
176
     0
 40
0.6
176
     0
 40
30.0
176
     0
 62
     7
420
 16777215
176
     0
 90
        1
176
     0
 90
        4
176
     0
 62
     7
176
     0
 62
   257
176
     0
 90
        1
176
     0
 90
        1
176
     0
 40
1.0
176
     0
 90
        9
176
     2
 62
     7
176
     0
 40
1.0
176
     0
 90
        1
176
     0
 90
        6
176
     0
 90
        2
176
     0
 62
     7
176
     0
 90
        5
176
     0
 90
        0
176
     0
 90
        0
176
     0
290
     0
176
     0
 90
        1
176
     0
 40
0.0
176
     0
 90
        0
176
     0
290
     0
176
     0
290
     1
176
     0
290
     1
176
     0
290
     0
176
     0
290
     0
176
     0
290
     0
176
     0
290
     0
176
     0
290
     0
176
     0
290
     0
176
     0
 90
       50
176
     0
 40
0.0
176
     0
 40
1.0
176
     0
 90
        0
176
     0
 62
    18
420
        0
176
     0
 90
       50
176
     0
 90
        3
176
     0
 62
     5
420
      255
176
     0
290
     0
176
     0
 90
       50
176
     0
 90
       50
176
     0
 90
       50
176
     0
290
     0
176
     0
 90
       50
176
     0
 62
   256
176
     0
 40
1.0
176
     0
 90
        2
176
     0
  1
strokes_ogs.tif
176
     0
290
     0
176
     0
 40
1.0
176
     0
 40
1.0
176
     0
  0
VISUALSTYLE
  5
33
102
{ACAD_REACTORS
330
29
102
}
330
29
100
AcDbVisualStyle
  2
Realistic
 70
     8
177
     3
291
     0
 70
    58
 90
        2
176
     1
 90
        3
176
     1
 90
        0
176
     1
 90
        2
176
     1
 40
0.6
176
     1
 40
30.0
176
     1
 62
     7
420
 16777215
176
     1
 90
        0
176
     1
 90
        0
176
     1
 62
     7
176
     1
 62
   257
176
     1
 90
        1
176
     1
 90
        1
176
     1
 40
1.0
176
     1
 90
        8
176
     1
 62
   257
176
     1
 40
1.0
176
     1
 90
        1
176
     1
 90
        6
176
     1
 90
        2
176
     1
 62
     7
176
     1
 90
        3
176
     1
 90
        0
176
     1
 90
        0
176
     1
290
     0
176
     1
 90
       13
176
     1
 40
0.0
176
     1
 90
        0
176
     1
290
     0
176
     1
290
     1
176
     1
290
     1
176
     1
290
     0
176
     1
290
     0
176
     1
290
     0
176
     1
290
     0
176
     1
290
     0
176
     1
290
     0
176
     1
 90
       50
176
     1
 40
0.0
176
     1
 40
1.0
176
     1
 90
        0
176
     1
 62
    18
420
        0
176
     1
 90
       50
176
     1
 90
        3
176
     1
 62
     5
420
      255
176
     1
290
     0
176
     1
 90
       50
176
     1
 90
       50
176
     1
 90
       50
176
     1
290
     0
176
     1
 90
       50
176
     1
 62
   256
176
     0
 40
1.0
176
     0
 90
        2
176
     1
  1
strokes_ogs.tif
176
     1
290
     0
176
     1
 40
1.0
176
     1
 40
1.0
176
     1
  0
VISUALSTYLE
  5
3E
102
{ACAD_REACTORS
330
29
102
}
330
29
100
AcDbVisualStyle
  2
Shaded
 70
    27
177
     3
291
     0
 70
    58
 90
        2
176
     1
 90
        2
176
     1
 90
        1
176
     1
 90
        2
176
     1
 40
0.6
176
     1
 40
30.0
176
     1
 62
     7
420
 16777215
176
     1
 90
        0
176
     1
 90
        4
176
     1
 62
     7
176
     1
 62
   257
176
     1
 90
        1
176
     1
 90
        1
176
     1
 40
1.0
176
     1
 90
        8
176
     1
 62
   257
176
     1
 40
1.0
176
     1
 90
        1
176
     1
 90
        6
176
     1
 90
        2
176
     1
 62
     8
420
  7895160
176
     1
 90
        3
176
     1
 90
        0
176
     1
 90
        0
176
     1
290
     0
176
     1
 90
        5
176
     1
 40
0.0
176
     1
 90
        0
176
     1
290
     0
176
     1
290
     1
176
     1
290
     1
176
     1
290
     0
176
     1
290
     0
176
     1
290
     0
176
     1
290
     0
176
     1
290
     0
176
     1
290
     0
176
     1
 90
       50
176
     1
 40
0.0
176
     1
 40
1.0
176
     1
 90
        0
176
     1
 62
    18
420
        0
176
     1
 90
       50
176
     1
 90
        3
176
     1
 62
     5
420
      255
176
     1
290
     0
176
     1
 90
       50
176
     1
 90
       50
176
     1
 90
       50
176
     1
290
     0
176
     1
 90
       50
176
     1
 62
   256
176
     0
 40
1.0
176
     0
 90
        2
176
     1
  1
strokes_ogs.tif
176
     1
290
     0
176
     1
 40
1.0
176
     1
 40
1.0
176
     1
  0
VISUALSTYLE
  5
3D
102
{ACAD_REACTORS
330
29
102
}
330
29
100
AcDbVisualStyle
  2
Shaded with edges
 70
    26
177
     3
291
     0
 70
    58
 90
        2
176
     1
 90
        2
176
     1
 90
        1
176
     1
 90
        2
176
     1
 40
0.6
176
     1
 40
30.0
176
     1
 62
     7
420
 16777215
176
     1
 90
        1
176
     1
 90
        2
176
     1
 62
     7
176
     1
 62
   257
176
     1
 90
        2
176
     1
 90
        1
176
     1
 40
1.0
176
     1
 90
        8
176
     1
 62
   257
176
     1
 40
1.0
176
     1
 90
        1
176
     1
 90
        6
176
     1
 90
        2
176
     1
 62
     7
176
     1
 90
        3
176
     1
 90
        0
176
     1
 90
        0
176
     1
290
     0
176
     1
 90
        5
176
     1
 40
0.0
176
     1
 90
        0
176
     1
290
     0
176
     1
290
     1
176
     1
290
     1
176
     1
290
     0
176
     1
290
     0
176
     1
290
     0
176
     1
290
     0
176
     1
290
     0
176
     1
290
     0
176
     1
 90
       50
176
     1
 40
0.0
176
     1
 40
1.0
176
     1
 90
        0
176
     1
 62
    18
420
        0
176
     1
 90
       50
176
     1
 90
        3
176
     1
 62
     5
420
      255
176
     1
290
     0
176
     1
 90
       50
176
     1
 90
       50
176
     1
 90
       50
176
     1
290
     0
176
     1
 90
       50
176
     1
 62
   256
176
     0
 40
1.0
176
     0
 90
        2
176
     1
  1
strokes_ogs.tif
176
     1
290
     0
176
     1
 40
1.0
176
     1
 40
1.0
176
     1
  0
VISUALSTYLE
  5
3A
102
{ACAD_REACTORS
330
29
102
}
330
29
100
AcDbVisualStyle
  2
Shades of Gray
 70
    23
177
     3
291
     0
 70
    58
 90
        2
176
     1
 90
        2
176
     1
 90
        3
176
     1
 90
        0
176
     1
 40
0.6
176
     1
 40
30.0
176
     1
 62
     7
420
 16777215
176
     1
 90
        2
176
     1
 90
        2
176
     1
 62
     7
176
     1
 62
     7
176
     1
 90
        1
176
     1
 90
        1
176
     1
 40
40.0
176
     1
 90
        8
176
     1
 62
     7
176
     1
 40
1.0
176
     1
 90
        1
176
     1
 90
        6
176
     1
 90
        2
176
     1
 62
     7
176
     1
 90
        3
176
     1
 90
        0
176
     1
 90
        0
176
     1
290
     0
176
     1
 90
        1
176
     1
 40
0.0
176
     1
 90
        0
176
     1
290
     0
176
     1
290
     1
176
     1
290
     1
176
     1
290
     0
176
     1
290
     0
176
     1
290
     0
176
     1
290
     0
176
     1
290
     0
176
     1
290
     0
176
     1
 90
       50
176
     1
 40
0.0
176
     1
 40
1.0
176
     1
 90
        0
176
     1
 62
    18
420
        0
176
     1
 90
       50
176
     1
 90
        3
176
     1
 62
     5
420
      255
176
     1
290
     0
176
     1
 90
       50
176
     1
 90
       50
176
     1
 90
       50
176
     1
290
     0
176
     1
 90
       50
176
     1
 62
   256
176
     0
 40
1.0
176
     0
 90
        2
176
     1
  1
strokes_ogs.tif
176
     1
290
     0
176
     1
 40
1.0
176
     1
 40
1.0
176
     1
  0
VISUALSTYLE
  5
3B
102
{ACAD_REACTORS
330
29
102
}
330
29
100
AcDbVisualStyle
  2
Sketchy
 70
    24
177
     3
291
     0
 70
    58
 90
        1
176
     1
 90
        2
176
     1
 90
        2
176
     1
 90
        0
176
     1
 40
0.6
176
     1
 40
30.0
176
     1
 62
     7
420
 16777215
176
     1
 90
        2
176
     1
 90
        2
176
     1
 62
     7
176
     1
 62
     7
176
     1
 90
        1
176
     1
 90
        1
176
     1
 40
40.0
176
     1
 90
       11
176
     1
 62
     7
176
     1
 40
1.0
176
     1
 90
        1
176
     1
 90
        6
176
     1
 90
        2
176
     1
 62
     7
176
     1
 90
        6
176
     1
 90
        0
176
     1
 90
        0
176
     1
290
     0
176
     1
 90
        1
176
     1
 40
0.0
176
     1
 90
        0
176
     1
290
     0
176
     1
290
     1
176
     1
290
     1
176
     1
290
     0
176
     1
290
     0
176
     1
290
     0
176
     1
290
     0
176
     1
290
     0
176
     1
290
     0
176
     1
 90
       50
176
     1
 40
0.0
176
     1
 40
1.0
176
     1
 90
        0
176
     1
 62
    18
420
        0
176
     1
 90
       50
176
     1
 90
        3
176
     1
 62
     5
420
      255
176
     1
290
     0
176
     1
 90
       50
176
     1
 90
       50
176
     1
 90
       50
176
     1
290
     0
176
     1
 90
       50
176
     1
 62
   256
176
     0
 40
1.0
176
     0
 90
        2
176
     1
  1
strokes_ogs.tif
176
     1
290
     0
176
     1
 40
1.0
176
     1
 40
1.0
176
     1
  0
VISUALSTYLE
  5
36
102
{ACAD_REACTORS
330
29
102
}
330
29
100
AcDbVisualStyle
  2
Thicken
 70
    13
177
     3
291
     1
 70
    58
 90
        2
176
     1
 90
        2
176
     1
 90
        0
176
     1
 90
        0
176
     1
 40
0.6
176
     1
 40
30.0
176
     1
 62
     7
420
 16777215
176
     1
 90
        1
176
     1
 90
        4
176
     1
 62
     7
176
     1
 62
   257
176
     1
 90
        1
176
     1
 90
        1
176
     1
 40
1.0
176
     1
 90
       12
176
     1
 62
     7
176
     1
 40
1.0
176
     1
 90
        1
176
     1
 90
        6
176
     1
 90
        2
176
     1
 62
     7
176
     1
 90
        5
176
     1
 90
        0
176
     1
 90
        0
176
     1
290
     0
176
     1
 90
        1
176
     1
 40
0.0
176
     1
 90
        0
176
     1
290
     0
176
     1
290
     1
176
     1
290
     1
176
     1
290
     0
176
     1
290
     0
176
     1
290
     0
176
     1
290
     0
176
     1
290
     0
176
     1
290
     0
176
     1
 90
       50
176
     1
 40
0.0
176
     1
 40
1.0
176
     1
 90
        0
176
     1
 62
    18
420
        0
176
     1
 90
       50
176
     1
 90
        3
176
     1
 62
     5
420
      255
176
     1
290
     0
176
     1
 90
       50
176
     1
 90
       50
176
     1
 90
       50
176
     1
290
     0
176
     1
 90
       50
176
     1
 62
   256
176
     0
 40
1.0
176
     0
 90
        2
176
     1
  1
strokes_ogs.tif
176
     1
290
     0
176
     1
 40
1.0
176
     1
 40
1.0
176
     1
  0
VISUALSTYLE
  5
30
102
{ACAD_REACTORS
330
29
102
}
330
29
100
AcDbVisualStyle
  2
Wireframe
 70
     5
177
     3
291
     0
 70
    58
 90
        0
176
     1
 90
        2
176
     1
 90
        0
176
     1
 90
        0
176
     1
 40
0.6
176
     1
 40
30.0
176
     1
 62
     7
420
 16777215
176
     1
 90
        1
176
     1
 90
        4
176
     1
 62
     7
176
     1
 62
   257
176
     1
 90
        1
176
     1
 90
        1
176
     1
 40
1.0
176
     1
 90
        0
176
     1
 62
   257
176
     1
 40
1.0
176
     1
 90
        1
176
     1
 90
        6
176
     1
 90
        2
176
     1
 62
     7
176
     1
 90
        3
176
     1
 90
        0
176
     1
 90
        0
176
     1
290
     0
176
     1
 90
        1
176
     1
 40
0.0
176
     1
 90
        0
176
     1
290
     0
176
     1
290
     1
176
     1
290
     1
176
     1
290
     0
176
     1
290
     0
176
     1
290
     0
176
     1
290
     0
176
     1
290
     0
176
     1
290
     0
176
     1
 90
       50
176
     1
 40
0.0
176
     1
 40
1.0
176
     1
 90
        0
176
     1
 62
    18
420
        0
176
     1
 90
       50
176
     1
 90
        3
176
     1
 62
     5
420
      255
176
     1
290
     0
176
     1
 90
       50
176
     1
 90
       50
176
     1
 90
       50
176
     1
290
     0
176
     1
 90
       50
176
     1
 62
   256
176
     0
 40
1.0
176
     0
 90
        2
176
     1
  1
strokes_ogs.tif
176
     1
290
     0
176
     1
 40
1.0
176
     1
 40
1.0
176
     1
  0
VISUALSTYLE
  5
3C
102
{ACAD_REACTORS
330
29
102
}
330
29
100
AcDbVisualStyle
  2
X-Ray
 70
    25
177
     3
291
     0
 70
    58
 90
        2
176
     1
 90
        2
176
     1
 90
        1
176
     1
 90
        1
176
     1
 40
0.5
176
     1
 40
30.0
176
     1
 62
     7
420
 16777215
176
     1
 90
        1
176
     1
 90
        0
176
     1
 62
     7
176
     1
 62
   257
176
     1
 90
        1
176
     1
 90
        1
176
     1
 40
1.0
176
     1
 90
        8
176
     1
 62
     7
176
     1
 40
1.0
176
     1
 90
        1
176
     1
 90
        6
176
     1
 90
        2
176
     1
 62
     7
176
     1
 90
        3
176
     1
 90
        0
176
     1
 90
        0
176
     1
290
     0
176
     1
 90
       13
176
     1
 40
0.0
176
     1
 90
        0
176
     1
290
     0
176
     1
290
     1
176
     1
290
     1
176
     1
290
     0
176
     1
290
     0
176
     1
290
     0
176
     1
290
     0
176
     1
290
     0
176
     1
290
     0
176
     1
 90
       50
176
     1
 40
0.0
176
     1
 40
1.0
176
     1
 90
        0
176
     1
 62
    18
420
        0
176
     1
 90
       50
176
     1
 90
        3
176
     1
 62
     5
420
      255
176
     1
290
     0
176
     1
 90
       50
176
     1
 90
       50
176
     1
 90
       50
176
     1
290
     0
176
     1
 90
       50
176
     1
 62
   256
176
     0
 40
1.0
176
     0
 90
        2
176
     1
  1
strokes_ogs.tif
176
     1
290
     0
176
     1
 40
1.0
176
     1
 40
1.0
176
     1
  0
DICTIONARYVAR
  5
F4
102
{ACAD_REACTORS
330
EF
102
}
330
EF
100
DictionaryVariables
280
     0
  1
1:1
  0
DICTIONARYVAR
  5
F1
102
{ACAD_REACTORS
330
EF
102
}
330
EF
100
DictionaryVariables
280
     0
  1
STANDARD
  0
DICTIONARYVAR
  5
F0
102
{ACAD_REACTORS
330
EF
102
}
330
EF
100
DictionaryVariables
280
     0
  1
STANDARD
  0
DICTIONARYVAR
  5
F2
102
{ACAD_REACTORS
330
EF
102
}
330
EF
100
DictionaryVariables
280
     0
  1
Imperial24
  0
DICTIONARYVAR
  5
F3
102
{ACAD_REACTORS
330
EF
102
}
330
EF
100
DictionaryVariables
280
     0
  1
Imperial24
  0
DICTIONARY
  5
1A
330
19
100
AcDbDictionary
280
     1
281
     1
  3
BUMPTILE
360
1C
  3
DIFFUSETILE
360
1B
  3
OPACITYTILE
360
1F
  3
REFLECTIONTILE
360
1E
  3
REFRACTIONTILE
360
20
  3
SPECULARTILE
360
1D
  0
DICTIONARY
  5
12
330
11
100
AcDbDictionary
280
     1
281
     1
  3
BUMPTILE
360
14
  3
DIFFUSETILE
360
13
  3
OPACITYTILE
360
17
  3
REFLECTIONTILE
360
16
  3
REFRACTIONTILE
360
18
  3
SPECULARTILE
360
15
  0
DICTIONARY
  5
22
330
21
100
AcDbDictionary
280
     1
281
     1
  3
BUMPTILE
360
24
  3
DIFFUSETILE
360
23
  3
OPACITYTILE
360
27
  3
REFLECTIONTILE
360
26
  3
REFRACTIONTILE
360
28
  3
SPECULARTILE
360
25
  0
DICTIONARY
  5
F5
330
65
100
AcDbDictionary
280
     1
281
     1
  3
ACAD_ROUNDTRIP_2008_TABLESTYLE_CELLSTYLEMAP
360
F6
  0
XRECORD
  5
1C
102
{ACAD_REACTORS
330
1A
102
}
330
1A
100
AcDbXrecord
280
     1
270
     1
271
     1
  0
XRECORD
  5
1B
102
{ACAD_REACTORS
330
1A
102
}
330
1A
100
AcDbXrecord
280
     1
270
     1
271
     1
  0
XRECORD
  5
1F
102
{ACAD_REACTORS
330
1A
102
}
330
1A
100
AcDbXrecord
280
     1
270
     1
271
     1
  0
XRECORD
  5
1E
102
{ACAD_REACTORS
330
1A
102
}
330
1A
100
AcDbXrecord
280
     1
270
     1
271
     1
  0
XRECORD
  5
20
102
{ACAD_REACTORS
330
1A
102
}
330
1A
100
AcDbXrecord
280
     1
270
     1
271
     1
  0
XRECORD
  5
1D
102
{ACAD_REACTORS
330
1A
102
}
330
1A
100
AcDbXrecord
280
     1
270
     1
271
     1
  0
XRECORD
  5
14
102
{ACAD_REACTORS
330
12
102
}
330
12
100
AcDbXrecord
280
     1
270
     1
271
     1
  0
XRECORD
  5
13
102
{ACAD_REACTORS
330
12
102
}
330
12
100
AcDbXrecord
280
     1
270
     1
271
     1
  0
XRECORD
  5
17
102
{ACAD_REACTORS
330
12
102
}
330
12
100
AcDbXrecord
280
     1
270
     1
271
     1
  0
XRECORD
  5
16
102
{ACAD_REACTORS
330
12
102
}
330
12
100
AcDbXrecord
280
     1
270
     1
271
     1
  0
XRECORD
  5
18
102
{ACAD_REACTORS
330
12
102
}
330
12
100
AcDbXrecord
280
     1
270
     1
271
     1
  0
XRECORD
  5
15
102
{ACAD_REACTORS
330
12
102
}
330
12
100
AcDbXrecord
280
     1
270
     1
271
     1
  0
XRECORD
  5
24
102
{ACAD_REACTORS
330
22
102
}
330
22
100
AcDbXrecord
280
     1
270
     1
271
     1
  0
XRECORD
  5
23
102
{ACAD_REACTORS
330
22
102
}
330
22
100
AcDbXrecord
280
     1
270
     1
271
     1
  0
XRECORD
  5
27
102
{ACAD_REACTORS
330
22
102
}
330
22
100
AcDbXrecord
280
     1
270
     1
271
     1
  0
XRECORD
  5
26
102
{ACAD_REACTORS
330
22
102
}
330
22
100
AcDbXrecord
280
     1
270
     1
271
     1
  0
XRECORD
  5
28
102
{ACAD_REACTORS
330
22
102
}
330
22
100
AcDbXrecord
280
     1
270
     1
271
     1
  0
XRECORD
  5
25
102
{ACAD_REACTORS
330
22
102
}
330
22
100
AcDbXrecord
280
     1
270
     1
271
     1
  0
CELLSTYLEMAP
  5
F6
102
{ACAD_REACTORS
330
F5
102
}
330
F5
100
AcDbCellStyleMap
 90
        3
300
CELLSTYLE
  1
TABLEFORMAT_BEGIN
 90
        5
170
     1
 91
        0
 92
    32768
 62
   257
 93
        1
300
CONTENTFORMAT
  1
CONTENTFORMAT_BEGIN
 90
        0
 91
        0
 92
      512
 93
        0
300

 40
0.0
140
1.0
 94
        5
 62
     0
340
55
144
0.25
309
CONTENTFORMAT_END
171
     0
 94
        0
309
TABLEFORMAT_END
  1
CELLSTYLE_BEGIN
 90
        1
 91
        1
300
_TITLE
309
CELLSTYLE_END
300
CELLSTYLE
  1
TABLEFORMAT_BEGIN
 90
        5
170
     1
 91
        0
 92
        0
 62
   257
 93
        1
300
CONTENTFORMAT
  1
CONTENTFORMAT_BEGIN
 90
        0
 91
        0
 92
      512
 93
        0
300

 40
0.0
140
1.0
 94
        5
 62
     0
340
55
144
0.18
309
CONTENTFORMAT_END
171
     0
 94
        0
309
TABLEFORMAT_END
  1
CELLSTYLE_BEGIN
 90
        2
 91
        1
300
_HEADER
309
CELLSTYLE_END
300
CELLSTYLE
  1
TABLEFORMAT_BEGIN
 90
        5
170
     1
 91
        0
 92
        0
 62
   257
 93
        1
300
CONTENTFORMAT
  1
CONTENTFORMAT_BEGIN
 90
        0
 91
        0
 92
      512
 93
        0
300

 40
0.0
140
1.0
 94
        2
 62
     0
340
55
144
0.18
309
CONTENTFORMAT_END
171
     0
 94
        0
309
TABLEFORMAT_END
  1
CELLSTYLE_BEGIN
 90
        3
 91
        2
300
_DATA
309
CELLSTYLE_END
  0
ENDSEC
  0
EOF
