  0
SECTION
  2
HEADER
  9
$ACADVER
  1
AC1032
  9
$ACADMAINTVER
 90
      228
  9
$DWGCODEPAGE
  3
ANSI_1252
  9
$REQUIREDVERSIONS
160
                 0
  9
$INSBASE
 10
0.0
 20
0.0
 30
0.0
  9
$EXTMIN
 10
1.000000000000000E+20
 20
1.000000000000000E+20
 30
1.000000000000000E+20
  9
$EXTMAX
 10
-1.000000000000000E+20
 20
-1.000000000000000E+20
 30
-1.000000000000000E+20
  9
$LIMMIN
 10
0.0
 20
0.0
  9
$LIMMAX
 10
12.0
 20
9.0
  9
$ORTHOMODE
 70
     0
  9
$REGENMODE
 70
     1
  9
$FILLMODE
 70
     1
  9
$QTEXTMODE
 70
     0
  9
$MIRRTEXT
 70
     0
  9
$LTSCALE
 40
1.0
  9
$ATTMODE
 70
     1
  9
$TEXTSIZE
 40
0.2
  9
$TRACEWID
 40
0.05
  9
$TEXTSTYLE
  7
Standard
  9
$CLAYER
  8
0
  9
$CELTYPE
  6
ByLayer
  9
$CECOLOR
 62
   256
  9
$CELTSCALE
 40
1.0
  9
$DISPSILH
 70
     0
  9
$DIMSCALE
 40
1.0
  9
$DIMASZ
 40
0.18
  9
$DIMEXO
 40
0.0625
  9
$DIMDLI
 40
0.38
  9
$DIMRND
 40
0.0
  9
$DIMDLE
 40
0.0
  9
$DIMEXE
 40
0.18
  9
$DIMTP
 40
0.0
  9
$DIMTM
 40
0.0
  9
$DIMTXT
 40
0.18
  9
$DIMCEN
 40
0.09
  9
$DIMTSZ
 40
0.0
  9
$DIMTOL
 70
     0
  9
$DIMLIM
 70
     0
  9
$DIMTIH
 70
     1
  9
$DIMTOH
 70
     1
  9
$DIMSE1
 70
     0
  9
$DIMSE2
 70
     0
  9
$DIMTAD
 70
     0
  9
$DIMZIN
 70
     0
  9
$DIMBLK
  1

  9
$DIMASO
 70
     1
  9
$DIMSHO
 70
     1
  9
$DIMPOST
  1

  9
$DIMAPOST
  1

  9
$DIMALT
 70
     0
  9
$DIMALTD
 70
     2
  9
$DIMALTF
 40
25.4
  9
$DIMLFAC
 40
1.0
  9
$DIMTOFL
 70
     0
  9
$DIMTVP
 40
0.0
  9
$DIMTIX
 70
     0
  9
$DIMSOXD
 70
     0
  9
$DIMSAH
 70
     0
  9
$DIMBLK1
  1

  9
$DIMBLK2
  1

  9
$DIMSTYLE
  2
Standard
  9
$DIMCLRD
 70
     0
  9
$DIMCLRE
 70
     0
  9
$DIMCLRT
 70
     0
  9
$DIMTFAC
 40
1.0
  9
$DIMGAP
 40
0.09
  9
$DIMJUST
 70
     0
  9
$DIMSD1
 70
     0
  9
$DIMSD2
 70
     0
  9
$DIMTOLJ
 70
     1
  9
$DIMTZIN
 70
     0
  9
$DIMALTZ
 70
     0
  9
$DIMALTTZ
 70
     0
  9
$DIMUPT
 70
     0
  9
$DIMDEC
 70
     4
  9
$DIMTDEC
 70
     4
  9
$DIMALTU
 70
     2
  9
$DIMALTTD
 70
     2
  9
$DIMTXSTY
  7
Standard
  9
$DIMAUNIT
 70
     0
  9
$DIMADEC
 70
     0
  9
$DIMALTRND
 40
0.0
  9
$DIMAZIN
 70
     0
  9
$DIMDSEP
 70
    46
  9
$DIMATFIT
 70
     3
  9
$DIMFRAC
 70
     0
  9
$DIMLDRBLK
  1

  9
$DIMLUNIT
 70
     2
  9
$DIMLWD
 70
    -2
  9
$DIMLWE
 70
    -2
  9
$DIMTMOVE
 70
     0
  9
$DIMFXL
 40
1.0
  9
$DIMFXLON
 70
     0
  9
$DIMJOGANG
 40
0.7853981633974483
  9
$DIMTFILL
 70
     0
  9
$DIMTFILLCLR
 70
     0
  9
$DIMARCSYM
 70
     0
  9
$DIMLTYPE
  6

  9
$DIMLTEX1
  6

  9
$DIMLTEX2
  6

  9
$DIMTXTDIRECTION
 70
     0
  9
$LUNITS
 70
     2
  9
$LUPREC
 70
     4
  9
$SKETCHINC
 40
0.1
  9
$FILLETRAD
 40
0.0
  9
$AUNITS
 70
     0
  9
$AUPREC
 70
     0
  9
$MENU
  1
.
  9
$ELEVATION
 40
0.0
  9
$PELEVATION
 40
0.0
  9
$THICKNESS
 40
0.0
  9
$LIMCHECK
 70
     0
  9
$CHAMFERA
 40
0.0
  9
$CHAMFERB
 40
0.0
  9
$CHAMFERC
 40
0.0
  9
$CHAMFERD
 40
0.0
  9
$SKPOLY
 70
     0
  9
$TDCREATE
 40
2460414.065914352
  9
$TDUCREATE
 40
2460414.357581019
  9
$TDUPDATE
 40
2460414.065914352
  9
$TDUUPDATE
 40
2460414.357581019
  9
$TDINDWG
 40
0.0000000000
  9
$TDUSRTIMER
 40
0.0000000000
  9
$USRTIMER
 70
     1
  9
$ANGBASE
 50
0.0
  9
$ANGDIR
 70
     0
  9
$PDMODE
 70
     0
  9
$PDSIZE
 40
0.0
  9
$PLINEWID
 40
0.0
  9
$SPLFRAME
 70
     0
  9
$SPLINETYPE
 70
     6
  9
$SPLINESEGS
 70
     8
  9
$HANDSEED
  5
14E
  9
$SURFTAB1
 70
     6
  9
$SURFTAB2
 70
     6
  9
$SURFTYPE
 70
     6
  9
$SURFU
 70
     6
  9
$SURFV
 70
     6
  9
$UCSBASE
  2

  9
$UCSNAME
  2

  9
$UCSORG
 10
0.0
 20
0.0
 30
0.0
  9
$UCSXDIR
 10
1.0
 20
0.0
 30
0.0
  9
$UCSYDIR
 10
0.0
 20
1.0
 30
0.0
  9
$UCSORTHOREF
  2

  9
$UCSORTHOVIEW
 70
     0
  9
$UCSORGTOP
 10
0.0
 20
0.0
 30
0.0
  9
$UCSORGBOTTOM
 10
0.0
 20
0.0
 30
0.0
  9
$UCSORGLEFT
 10
0.0
 20
0.0
 30
0.0
  9
$UCSORGRIGHT
 10
0.0
 20
0.0
 30
0.0
  9
$UCSORGFRONT
 10
0.0
 20
0.0
 30
0.0
  9
$UCSORGBACK
 10
0.0
 20
0.0
 30
0.0
  9
$PUCSBASE
  2

  9
$PUCSNAME
  2

  9
$PUCSORG
 10
0.0
 20
0.0
 30
0.0
  9
$PUCSXDIR
 10
1.0
 20
0.0
 30
0.0
  9
$PUCSYDIR
 10
0.0
 20
1.0
 30
0.0
  9
$PUCSORTHOREF
  2

  9
$PUCSORTHOVIEW
 70
     0
  9
$PUCSORGTOP
 10
0.0
 20
0.0
 30
0.0
  9
$PUCSORGBOTTOM
 10
0.0
 20
0.0
 30
0.0
  9
$PUCSORGLEFT
 10
0.0
 20
0.0
 30
0.0
  9
$PUCSORGRIGHT
 10
0.0
 20
0.0
 30
0.0
  9
$PUCSORGFRONT
 10
0.0
 20
0.0
 30
0.0
  9
$PUCSORGBACK
 10
0.0
 20
0.0
 30
0.0
  9
$USERI1
 70
     0
  9
$USERI2
 70
     0
  9
$USERI3
 70
     0
  9
$USERI4
 70
     0
  9
$USERI5
 70
     0
  9
$USERR1
 40
0.0
  9
$USERR2
 40
0.0
  9
$USERR3
 40
0.0
  9
$USERR4
 40
0.0
  9
$USERR5
 40
0.0
  9
$WORLDVIEW
 70
     1
  9
$SHADEDGE
 70
     3
  9
$SHADEDIF
 70
    70
  9
$TILEMODE
 70
     1
  9
$MAXACTVP
 70
    64
  9
$PINSBASE
 10
0.0
 20
0.0
 30
0.0
  9
$PLIMCHECK
 70
     0
  9
$PEXTMIN
 10
1.000000000000000E+20
 20
1.000000000000000E+20
 30
1.000000000000000E+20
  9
$PEXTMAX
 10
-1.000000000000000E+20
 20
-1.000000000000000E+20
 30
-1.000000000000000E+20
  9
$PLIMMIN
 10
0.0
 20
0.0
  9
$PLIMMAX
 10
12.0
 20
9.0
  9
$UNITMODE
 70
     0
  9
$VISRETAIN
 70
     1
  9
$PLINEGEN
 70
     0
  9
$PSLTSCALE
 70
     1
  9
$TREEDEPTH
 70
  3020
  9
$CMLSTYLE
  2
Standard
  9
$CMLJUST
 70
     0
  9
$CMLSCALE
 40
1.0
  9
$PROXYGRAPHICS
 70
     1
  9
$MEASUREMENT
 70
     0
  9
$CELWEIGHT
370
    -1
  9
$ENDCAPS
280
     0
  9
$JOINSTYLE
280
     0
  9
$LWDISPLAY
290
     1
  9
$INSUNITS
 70
     1
  9
$HYPERLINKBASE
  1

  9
$STYLESHEET
  1

  9
$XEDIT
290
     1
  9
$CEPSNTYPE
380
     0
  9
$PSTYLEMODE
290
     1
  9
$FINGERPRINTGUID
  2
{FF6E56DA-5552-E34E-8F80-490DCB0E8717}
  9
$VERSIONGUID
  2
{19138DA9-4C7E-7F4C-ABC8-0CED689480DD}
  9
$EXTNAMES
290
     1
  9
$PSVPSCALE
 40
0.0
  9
$OLESTARTUP
290
     0
  9
$SORTENTS
280
   127
  9
$INDEXCTL
280
     0
  9
$HIDETEXT
280
     1
  9
$XCLIPFRAME
280
     2
  9
$HALOGAP
280
     0
  9
$OBSCOLOR
 70
   257
  9
$OBSLTYPE
280
     0
  9
$INTERSECTIONDISPLAY
280
     0
  9
$INTERSECTIONCOLOR
 70
   257
  9
$DIMASSOC
280
     2
  9
$PROJECTNAME
  1

  9
$CAMERADISPLAY
290
     0
  9
$LENSLENGTH
 40
50.0
  9
$CAMERAHEIGHT
 40
0.0
  9
$STEPSPERSEC
 40
2.0
  9
$STEPSIZE
 40
6.0
  9
$3DDWFPREC
 40
2.0
  9
$PSOLWIDTH
 40
0.25
  9
$PSOLHEIGHT
 40
4.0
  9
$LOFTANG1
 40
1.570796326794896
  9
$LOFTANG2
 40
1.570796326794896
  9
$LOFTMAG1
 40
0.0
  9
$LOFTMAG2
 40
0.0
  9
$LOFTPARAM
 70
     7
  9
$LOFTNORMALS
280
     1
  9
$LATITUDE
 40
37.795
  9
$LONGITUDE
 40
-122.394
  9
$NORTHDIRECTION
 40
0.0
  9
$TIMEZONE
 70
 -8000
  9
$LIGHTGLYPHDISPLAY
280
     1
  9
$TILEMODELIGHTSYNCH
280
     1
  9
$CMATERIAL
347
11
  9
$SOLIDHIST
280
     0
  9
$SHOWHIST
280
     1
  9
$DWFFRAME
280
     2
  9
$DGNFRAME
280
     0
  9
$REALWORLDSCALE
290
     1
  9
$INTERFERECOLOR
 62
     1
  9
$INTERFEREOBJVS
345
33
  9
$INTERFEREVPVS
346
30
  9
$CSHADOW
280
     0
  9
$SHADOWPLANELOCATION
 40
0.0
  0
ENDSEC
  0
SECTION
  2
CLASSES
  0
CLASS
  1
ACDBDICTIONARYWDFLT
  2
AcDbDictionaryWithDefault
  3
ObjectDBX Classes
 90
        0
 91
        1
280
     0
281
     0
  0
CLASS
  1
MATERIAL
  2
AcDbMaterial
  3
ObjectDBX Classes
 90
     1153
 91
        3
280
     0
281
     0
  0
CLASS
  1
VISUALSTYLE
  2
AcDbVisualStyle
  3
ObjectDBX Classes
 90
     4095
 91
       24
280
     0
281
     0
  0
CLASS
  1
SCALE
  2
AcDbScale
  3
ObjectDBX Classes
 90
     1153
 91
       17
280
     0
281
     0
  0
CLASS
  1
TABLESTYLE
  2
AcDbTableStyle
  3
ObjectDBX Classes
 90
     4095
 91
        1
280
     0
281
     0
  0
CLASS
  1
MLEADERSTYLE
  2
AcDbMLeaderStyle
  3
ACDB_MLEADERSTYLE_CLASS
 90
     4095
 91
        1
280
     0
281
     0
  0
CLASS
  1
ACDBSECTIONVIEWSTYLE
  2
AcDbSectionViewStyle
  3
ObjectDBX Classes
 90
     1025
 91
        1
280
     0
281
     0
  0
CLASS
  1
ACDBDETAILVIEWSTYLE
  2
AcDbDetailViewStyle
  3
ObjectDBX Classes
 90
     1025
 91
        1
280
     0
281
     0
  0
CLASS
  1
DICTIONARYVAR
  2
AcDbDictionaryVar
  3
ObjectDBX Classes
 90
        0
 91
        5
280
     0
281
     0
  0
CLASS
  1
CELLSTYLEMAP
  2
AcDbCellStyleMap
  3
ObjectDBX Classes
 90
     1152
 91
        1
280
     0
281
     0
  0
ENDSEC
  0
SECTION
  2
TABLES
  0
TABLE
  2
VPORT
  5
8
330
0
100
AcDbSymbolTable
 70
     1
  0
VPORT
  5
57
330
8
100
AcDbSymbolTableRecord
100
AcDbViewportTableRecord
  2
*Active
 70
     0
 10
0.0
 20
0.0
 11
1.0
 21
1.0
 12
0.0
 22
0.0
 13
0.0
 23
0.0
 14
1.0
 24
1.0
 15
0.0
 25
0.0
 16
0.0
 26
0.0
 36
1.0
 17
0.9063715204259281
 27
-9.464948306989626
 37
0.0
 40
28.18769568220839
 41
1.322120462652983
 42
50.0
 43
0.0
 44
0.0
 50
0.0
 51
0.0
 71
     0
 72
   100
 73
     1
 74
     1
 75
     0
 76
     0
 77
     0
 78
     0
281
     0
 65
     1
110
0.0
120
0.0
130
0.0
111
1.0
121
0.0
131
0.0
112
0.0
122
1.0
132
0.0
 79
     0
146
0.0
 60
     3
 61
     5
292
     1
282
     1
141
0.0
142
0.0
 63
   250
421
  3355443
  0
ENDTAB
  0
TABLE
  2
LTYPE
  5
5
330
0
100
AcDbSymbolTable
 70
     1
  0
LTYPE
  5
5B
330
5
100
AcDbSymbolTableRecord
100
AcDbLinetypeTableRecord
  2
ByBlock
 70
     0
  3

 72
    65
 73
     0
 40
0.0
  0
LTYPE
  5
5C
330
5
100
AcDbSymbolTableRecord
100
AcDbLinetypeTableRecord
  2
ByLayer
 70
     0
  3

 72
    65
 73
     0
 40
0.0
  0
LTYPE
  5
5D
330
5
100
AcDbSymbolTableRecord
100
AcDbLinetypeTableRecord
  2
Continuous
 70
     0
  3
Solid line
 72
    65
 73
     0
 40
0.0
  0
ENDTAB
  0
TABLE
  2
LAYER
  5
2
330
0
100
AcDbSymbolTable
 70
     8
  0
LAYER
  5
54
330
2
100
AcDbSymbolTableRecord
100
AcDbLayerTableRecord
  2
0
 70
     0
 62
     7
  6
Continuous
370
    -3
390
F
347
21
348
0
  0
LAYER
  5
78
330
2
100
AcDbSymbolTableRecord
100
AcDbLayerTableRecord
  2
Luffy
 70
     1
 62
     7
  6
Continuous
370
     0
390
F
347
21
348
0
  0
LAYER
  5
79
330
2
100
AcDbSymbolTableRecord
100
AcDbLayerTableRecord
  2
Deck Box - DF
 70
     1
 62
     7
  6
Continuous
370
     0
390
F
347
21
348
0
  0
LAYER
  5
7A
330
2
100
AcDbSymbolTableRecord
100
AcDbLayerTableRecord
  2
Deck Box - G5
 70
     1
 62
     7
  6
Continuous
370
     0
390
F
347
21
348
0
  0
LAYER
  5
7B
330
2
100
AcDbSymbolTableRecord
100
AcDbLayerTableRecord
  2
Poneglyph
 70
     0
 62
     7
  6
Continuous
370
     0
390
F
347
21
348
0
  0
LAYER
  5
142
330
2
100
AcDbSymbolTableRecord
100
AcDbLayerTableRecord
  2
Crocodile
 70
     1
 62
     7
  6
Continuous
370
     0
390
F
347
21
348
0
  0
LAYER
  5
143
330
2
100
AcDbSymbolTableRecord
100
AcDbLayerTableRecord
  2
Layer 2
 70
     5
 62
     7
  6
Continuous
370
     0
390
F
347
21
348
0
  0
LAYER
  5
144
330
2
100
AcDbSymbolTableRecord
100
AcDbLayerTableRecord
  2
Lid
 70
     1
 62
     7
  6
Continuous
370
     0
390
F
347
21
348
0
  0
ENDTAB
  0
TABLE
  2
STYLE
  5
3
330
0
100
AcDbSymbolTable
 70
     2
  0
STYLE
  5
55
330
3
100
AcDbSymbolTableRecord
100
AcDbTextStyleTableRecord
  2
Standard
 70
     0
 40
0.0
 41
1.0
 50
0.0
 71
     0
 42
0.2
  3
txt
  4

  0
STYLE
  5
5A
330
3
100
AcDbSymbolTableRecord
100
AcDbTextStyleTableRecord
  2
Annotative
 70
     0
 40
0.0
 41
1.0
 50
0.0
 71
     0
 42
0.2
  3
txt
  4

1001
AcadAnnotative
1000
AnnotativeData
1002
{
1070
     1
1070
     1
1002
}
  0
ENDTAB
  0
TABLE
  2
VIEW
  5
6
330
0
100
AcDbSymbolTable
 70
     0
  0
ENDTAB
  0
TABLE
  2
UCS
  5
7
330
0
100
AcDbSymbolTable
 70
     0
  0
ENDTAB
  0
TABLE
  2
APPID
  5
9
330
0
100
AcDbSymbolTable
 70
     2
  0
APPID
  5
56
330
9
100
AcDbSymbolTableRecord
100
AcDbRegAppTableRecord
  2
ACAD
 70
     0
  0
APPID
  5
5E
330
9
100
AcDbSymbolTableRecord
100
AcDbRegAppTableRecord
  2
AcadAnnotative
 70
     0
  0
ENDTAB
  0
TABLE
  2
DIMSTYLE
  5
A
330
0
100
AcDbSymbolTable
 70
     2
100
AcDbDimStyleTable
 71
     0
  0
DIMSTYLE
105
58
330
A
100
AcDbSymbolTableRecord
100
AcDbDimStyleTableRecord
  2
Standard
 70
     0
340
55
  0
DIMSTYLE
105
59
330
A
100
AcDbSymbolTableRecord
100
AcDbDimStyleTableRecord
  2
Annotative
 70
     0
340
55
1001
AcadAnnotative
1000
AnnotativeData
1002
{
1070
     1
1070
     1
1002
}
  0
ENDTAB
  0
TABLE
  2
BLOCK_RECORD
  5
1
330
0
100
AcDbSymbolTable
 70
     1
  0
BLOCK_RECORD
  5
70
330
1
100
AcDbSymbolTableRecord
100
AcDbBlockTableRecord
  2
*Model_Space
340
73
 70
     0
280
     1
281
     0
  0
BLOCK_RECORD
  5
6C
330
1
100
AcDbSymbolTableRecord
100
AcDbBlockTableRecord
  2
*Paper_Space
340
6F
 70
     0
280
     1
281
     0
  0
BLOCK_RECORD
  5
74
330
1
100
AcDbSymbolTableRecord
100
AcDbBlockTableRecord
  2
*Paper_Space0
340
77
 70
     0
280
     1
281
     0
  0
ENDTAB
  0
ENDSEC
  0
SECTION
  2
BLOCKS
  0
BLOCK
  5
71
330
70
100
AcDbEntity
  8
0
100
AcDbBlockBegin
  2
*Model_Space
 70
     0
 10
0.0
 20
0.0
 30
0.0
  3
*Model_Space
  1

  0
ENDBLK
  5
72
330
70
100
AcDbEntity
  8
0
100
AcDbBlockEnd
  0
BLOCK
  5
6D
330
6C
100
AcDbEntity
 67
     1
  8
0
100
AcDbBlockBegin
  2
*Paper_Space
 70
     0
 10
0.0
 20
0.0
 30
0.0
  3
*Paper_Space
  1

  0
ENDBLK
  5
6E
330
6C
100
AcDbEntity
 67
     1
  8
0
100
AcDbBlockEnd
  0
BLOCK
  5
75
330
74
100
AcDbEntity
 67
     1
  8
0
100
AcDbBlockBegin
  2
*Paper_Space0
 70
     0
 10
0.0
 20
0.0
 30
0.0
  3
*Paper_Space0
  1

  0
ENDBLK
  5
76
330
74
100
AcDbEntity
 67
     1
  8
0
100
AcDbBlockEnd
  0
ENDSEC
  0
SECTION
  2
ENTITIES
  0
SPLINE
  5
7C
330
70
100
AcDbEntity
  8
Poneglyph
100
AcDbSpline
210
0.0
220
0.0
230
1.0
 70
     9
 71
     3
 72
    11
 73
     7
 74
     0
 42
0.0000000001
 43
0.0000000001
 40
0.0
 40
0.0
 40
0.0
 40
0.0
 40
1.0
 40
1.0
 40
1.0
 40
2.0
 40
2.0
 40
2.0
 40
2.0
 10
3.648799206365942
 20
-2.675668261482782
 30
0.0
 10
3.61934672878245
 20
-2.712683851646071
 30
0.0
 10
3.624150417922338
 20
-2.585299945604358
 30
0.0
 10
3.635658168056882
 20
-2.577091455915188
 30
0.0
 10
3.664487516623883
 20
-2.591269975836426
 30
0.0
 10
3.642097852235514
 20
-2.647750817964669
 30
0.0
 10
3.648799206365942
 20
-2.675668261482782
 30
0.0
  0
SPLINE
  5
7D
330
70
100
AcDbEntity
  8
Poneglyph
100
AcDbSpline
210
0.0
220
0.0
230
1.0
 70
     9
 71
     3
 72
    20
 73
    16
 74
     0
 42
0.0000000001
 43
0.0000000001
 40
0.0
 40
0.0
 40
0.0
 40
0.0
 40
1.0
 40
1.0
 40
1.0
 40
2.0
 40
2.0
 40
2.0
 40
3.0
 40
3.0
 40
3.0
 40
4.0
 40
4.0
 40
4.0
 40
5.0
 40
5.0
 40
5.0
 40
5.0
 10
3.642383733275664
 20
-2.54441554880917
 30
0.0
 10
3.715899776023598
 20
-2.528687946834515
 30
0.0
 10
3.678319701851894
 20
-2.620529733651071
 30
0.0
 10
3.688181732033601
 20
-2.668957106728372
 30
0.0
 10
3.696162485382918
 20
-2.733678777047531
 30
0.0
 10
3.676926381001054
 20
-2.721615943794972
 30
0.0
 10
3.622540033020337
 20
-2.721452827828935
 30
0.0
 10
3.573446963410863
 20
-2.688009210144211
 30
0.0
 10
3.680641061454366
 20
-2.718071580846412
 30
0.0
 10
3.670957289536229
 20
-2.69127714615278
 30
0.0
 10
3.656047790140039
 20
-2.655372407207765
 30
0.0
 10
3.687842775834458
 20
-2.558194077708334
 30
0.0
 10
3.648816253149801
 20
-2.563949665924016
 30
0.0
 10
3.58348307394077
 20
-2.584894719469742
 30
0.0
 10
3.639537561134842
 20
-2.427462085478901
 30
0.0
 10
3.642383733275664
 20
-2.54441554880917
 30
0.0
  0
SPLINE
  5
7E
330
70
100
AcDbEntity
  8
Poneglyph
100
AcDbSpline
210
0.0
220
0.0
230
1.0
 70
     9
 71
     3
 72
    11
 73
     7
 74
     0
 42
0.0000000001
 43
0.0000000001
 40
0.0
 40
0.0
 40
0.0
 40
0.0
 40
1.0
 40
1.0
 40
1.0
 40
2.0
 40
2.0
 40
2.0
 40
2.0
 10
3.596295408622886
 20
-2.701913378670282
 30
0.0
 10
3.595970090802034
 20
-2.718709856540789
 30
0.0
 10
3.570365369042721
 20
-2.718708577667775
 30
0.0
 10
3.570050324181667
 20
-2.701911825666317
 30
0.0
 10
3.570379338046109
 20
-2.685138206461197
 30
0.0
 10
3.595963033771681
 20
-2.685134310153026
 30
0.0
 10
3.596295408622886
 20
-2.701913378670282
 30
0.0
  0
SPLINE
  5
7F
330
70
100
AcDbEntity
  8
Poneglyph
100
AcDbSpline
210
0.0
220
0.0
230
1.0
 70
     9
 71
     3
 72
    11
 73
     7
 74
     0
 42
0.0000000001
 43
0.0000000001
 40
0.0
 40
0.0
 40
0.0
 40
0.0
 40
1.0
 40
1.0
 40
1.0
 40
2.0
 40
2.0
 40
2.0
 40
2.0
 10
3.583172850029136
 20
-2.629579936830004
 30
0.0
 10
3.599958687313598
 20
-2.629917191177772
 30
0.0
 10
3.599959995328061
 20
-2.655504815053252
 30
0.0
 10
3.583171296576816
 20
-2.655838584189306
 30
0.0
 10
3.56638350257208
 20
-2.655503206420626
 30
0.0
 10
3.566382202670915
 20
-2.62991191257514
 30
0.0
 10
3.583172850029136
 20
-2.629579936830004
 30
0.0
  0
SPLINE
  5
80
330
70
100
AcDbEntity
  8
Poneglyph
100
AcDbSpline
210
0.0
220
0.0
230
1.0
 70
     9
 71
     3
 72
    11
 73
     7
 74
     0
 42
0.0000000001
 43
0.0000000001
 40
0.0
 40
0.0
 40
0.0
 40
0.0
 40
1.0
 40
1.0
 40
1.0
 40
2.0
 40
2.0
 40
2.0
 40
2.0
 10
3.570050291435386
 20
-2.51817043162167
 30
0.0
 10
3.620437745511632
 20
-2.447313677478821
 30
0.0
 10
3.58672239944254
 20
-2.710334372084806
 30
0.0
 10
3.57675179470041
 20
-2.583785838893504
 30
0.0
 10
3.566055409367448
 20
-2.566168993222782
 30
0.0
 10
3.570993183490334
 20
-2.538505603624861
 30
0.0
 10
3.570050291435386
 20
-2.51817043162167
 30
0.0
  0
SPLINE
  5
81
330
70
100
AcDbEntity
  8
Poneglyph
100
AcDbSpline
210
0.0
220
0.0
230
1.0
 70
     9
 71
     3
 72
    35
 73
    31
 74
     0
 42
0.0000000001
 43
0.0000000001
 40
0.0
 40
0.0
 40
0.0
 40
0.0
 40
1.0
 40
1.0
 40
1.0
 40
2.0
 40
2.0
 40
2.0
 40
3.0
 40
3.0
 40
3.0
 40
4.0
 40
4.0
 40
4.0
 40
5.0
 40
5.0
 40
5.0
 40
6.0
 40
6.0
 40
6.0
 40
7.0
 40
7.0
 40
7.0
 40
8.0
 40
8.0
 40
8.0
 40
9.0
 40
9.0
 40
9.0
 40
10.0
 40
10.0
 40
10.0
 40
10.0
 10
3.471756563136775
 20
-2.695213074850837
 30
0.0
 10
3.475581003354603
 20
-2.634325862031232
 30
0.0
 10
3.464291072645904
 20
-2.562618465658778
 30
0.0
 10
3.475829508650955
 20
-2.505772512492323
 30
0.0
 10
3.493936413221477
 20
-2.50787768067788
 30
0.0
 10
3.532819973712093
 20
-2.496876060996492
 30
0.0
 10
3.543801260223062
 20
-2.511447765165851
 30
0.0
 10
3.539812346613454
 20
-2.544518023585914
 30
0.0
 10
3.474068394030622
 20
-2.499757713573027
 30
0.0
 10
3.491303218169238
 20
-2.544416110635425
 30
0.0
 10
3.487823693187124
 20
-2.586450822924171
 30
0.0
 10
3.487134307553206
 20
-2.593677134221163
 30
0.0
 10
3.526746343709621
 20
-2.595737856524932
 30
0.0
 10
3.54339611447243
 20
-2.586688476157594
 30
0.0
 10
3.51705601410299
 20
-2.554212028242305
 30
0.0
 10
3.543797966151398
 20
-2.557544709108911
 30
0.0
 10
3.560829044828399
 20
-2.575986411560089
 30
0.0
 10
3.545566403300401
 20
-2.623091869814503
 30
0.0
 10
3.550514650563968
 20
-2.649420570804131
 30
0.0
 10
3.545368644691077
 20
-2.666775647323687
 30
0.0
 10
3.564684622863132
 20
-2.721036667615951
 30
0.0
 10
3.534764127663063
 20
-2.714163916476927
 30
0.0
 10
3.518941828395794
 20
-2.689473678531877
 30
0.0
 10
3.543243843958609
 20
-2.635532659969473
 30
0.0
 10
3.526740607022752
 20
-2.613831557920636
 30
0.0
 10
3.485840366041075
 20
-2.611843951194954
 30
0.0
 10
3.489702062348897
 20
-2.626483244342011
 30
0.0
 10
3.496998423223026
 20
-2.659927765702693
 30
0.0
 10
3.497985848430668
 20
-2.683073814925705
 30
0.0
 10
3.483704460118069
 20
-2.761138386313114
 30
0.0
 10
3.471756563136775
 20
-2.695213074850837
 30
0.0
  0
HATCH
  5
82
330
70
100
AcDbEntity
  8
Poneglyph
 62
   250
420
  2301728
440
 33554687
100
AcDbHatch
 10
0.0
 20
0.0
 30
0.0
210
0.0
220
0.0
230
1.0
  2
SOLID
 70
     1
 71
     1
 91
        6
 92
        1
 93
        1
 72
     4
 94
        3
 73
     0
 74
     0
 95
       11
 96
        7
 40
0.0
 40
0.0
 40
0.0
 40
0.0
 40
1.0
 40
1.0
 40
1.0
 40
2.0
 40
2.0
 40
2.0
 40
2.0
 10
3.648799206365942
 20
-2.675668261482782
 10
3.61934672878245
 20
-2.712683851646071
 10
3.624150417922338
 20
-2.585299945604358
 10
3.635658168056882
 20
-2.577091455915188
 10
3.664487516623883
 20
-2.591269975836426
 10
3.642097852235514
 20
-2.647750817964669
 10
3.648799206365942
 20
-2.675668261482782
 97
        0
 97
        1
330
7C
 92
        1
 93
        1
 72
     4
 94
        3
 73
     0
 74
     0
 95
       20
 96
       16
 40
0.0
 40
0.0
 40
0.0
 40
0.0
 40
1.0
 40
1.0
 40
1.0
 40
2.0
 40
2.0
 40
2.0
 40
3.0
 40
3.0
 40
3.0
 40
4.0
 40
4.0
 40
4.0
 40
5.0
 40
5.0
 40
5.0
 40
5.0
 10
3.642383733275664
 20
-2.54441554880917
 10
3.715899776023598
 20
-2.528687946834515
 10
3.678319701851894
 20
-2.620529733651071
 10
3.688181732033601
 20
-2.668957106728372
 10
3.696162485382918
 20
-2.733678777047531
 10
3.676926381001054
 20
-2.721615943794972
 10
3.622540033020337
 20
-2.721452827828935
 10
3.573446963410863
 20
-2.688009210144211
 10
3.680641061454366
 20
-2.718071580846412
 10
3.670957289536229
 20
-2.69127714615278
 10
3.656047790140039
 20
-2.655372407207765
 10
3.687842775834458
 20
-2.558194077708334
 10
3.648816253149801
 20
-2.563949665924016
 10
3.58348307394077
 20
-2.584894719469742
 10
3.639537561134842
 20
-2.427462085478901
 10
3.642383733275664
 20
-2.54441554880917
 97
        0
 97
        1
330
7D
 92
        1
 93
        1
 72
     4
 94
        3
 73
     0
 74
     0
 95
       11
 96
        7
 40
0.0
 40
0.0
 40
0.0
 40
0.0
 40
1.0
 40
1.0
 40
1.0
 40
2.0
 40
2.0
 40
2.0
 40
2.0
 10
3.596295408622886
 20
-2.701913378670282
 10
3.595970090802034
 20
-2.718709856540789
 10
3.570365369042721
 20
-2.718708577667775
 10
3.570050324181667
 20
-2.701911825666317
 10
3.570379338046109
 20
-2.685138206461197
 10
3.595963033771681
 20
-2.685134310153026
 10
3.596295408622886
 20
-2.701913378670282
 97
        0
 97
        1
330
7E
 92
        1
 93
        1
 72
     4
 94
        3
 73
     0
 74
     0
 95
       11
 96
        7
 40
0.0
 40
0.0
 40
0.0
 40
0.0
 40
1.0
 40
1.0
 40
1.0
 40
2.0
 40
2.0
 40
2.0
 40
2.0
 10
3.583172850029136
 20
-2.629579936830004
 10
3.599958687313598
 20
-2.629917191177772
 10
3.599959995328061
 20
-2.655504815053252
 10
3.583171296576816
 20
-2.655838584189306
 10
3.56638350257208
 20
-2.655503206420626
 10
3.566382202670915
 20
-2.62991191257514
 10
3.583172850029136
 20
-2.629579936830004
 97
        0
 97
        1
330
7F
 92
        1
 93
        1
 72
     4
 94
        3
 73
     0
 74
     0
 95
       11
 96
        7
 40
0.0
 40
0.0
 40
0.0
 40
0.0
 40
1.0
 40
1.0
 40
1.0
 40
2.0
 40
2.0
 40
2.0
 40
2.0
 10
3.570050291435386
 20
-2.51817043162167
 10
3.620437745511632
 20
-2.447313677478821
 10
3.58672239944254
 20
-2.710334372084806
 10
3.57675179470041
 20
-2.583785838893504
 10
3.566055409367448
 20
-2.566168993222782
 10
3.570993183490334
 20
-2.538505603624861
 10
3.570050291435386
 20
-2.51817043162167
 97
        0
 97
        1
330
80
 92
        1
 93
        1
 72
     4
 94
        3
 73
     0
 74
     0
 95
       35
 96
       31
 40
0.0
 40
0.0
 40
0.0
 40
0.0
 40
1.0
 40
1.0
 40
1.0
 40
2.0
 40
2.0
 40
2.0
 40
3.0
 40
3.0
 40
3.0
 40
4.0
 40
4.0
 40
4.0
 40
5.0
 40
5.0
 40
5.0
 40
6.0
 40
6.0
 40
6.0
 40
7.0
 40
7.0
 40
7.0
 40
8.0
 40
8.0
 40
8.0
 40
9.0
 40
9.0
 40
9.0
 40
10.0
 40
10.0
 40
10.0
 40
10.0
 10
3.471756563136775
 20
-2.695213074850837
 10
3.475581003354603
 20
-2.634325862031232
 10
3.464291072645904
 20
-2.562618465658778
 10
3.475829508650955
 20
-2.505772512492323
 10
3.493936413221477
 20
-2.50787768067788
 10
3.532819973712093
 20
-2.496876060996492
 10
3.543801260223062
 20
-2.511447765165851
 10
3.539812346613454
 20
-2.544518023585914
 10
3.474068394030622
 20
-2.499757713573027
 10
3.491303218169238
 20
-2.544416110635425
 10
3.487823693187124
 20
-2.586450822924171
 10
3.487134307553206
 20
-2.593677134221163
 10
3.526746343709621
 20
-2.595737856524932
 10
3.54339611447243
 20
-2.586688476157594
 10
3.51705601410299
 20
-2.554212028242305
 10
3.543797966151398
 20
-2.557544709108911
 10
3.560829044828399
 20
-2.575986411560089
 10
3.545566403300401
 20
-2.623091869814503
 10
3.550514650563968
 20
-2.649420570804131
 10
3.545368644691077
 20
-2.666775647323687
 10
3.564684622863132
 20
-2.721036667615951
 10
3.534764127663063
 20
-2.714163916476927
 10
3.518941828395794
 20
-2.689473678531877
 10
3.543243843958609
 20
-2.635532659969473
 10
3.526740607022752
 20
-2.613831557920636
 10
3.485840366041075
 20
-2.611843951194954
 10
3.489702062348897
 20
-2.626483244342011
 10
3.496998423223026
 20
-2.659927765702693
 10
3.497985848430668
 20
-2.683073814925705
 10
3.483704460118069
 20
-2.761138386313114
 10
3.471756563136775
 20
-2.695213074850837
 97
        0
 97
        1
330
81
 75
     2
 76
     1
 98
        1
 10
0.0
 20
0.0
450
        0
451
        0
460
0.0
461
0.0
452
        0
462
0.0
453
        0
470

  0
SPLINE
  5
83
330
70
100
AcDbEntity
  8
Poneglyph
100
AcDbSpline
210
0.0
220
0.0
230
1.0
 70
     9
 71
     3
 72
    11
 73
     7
 74
     0
 42
0.0000000001
 43
0.0000000001
 40
0.0
 40
0.0
 40
0.0
 40
0.0
 40
1.0
 40
1.0
 40
1.0
 40
2.0
 40
2.0
 40
2.0
 40
2.0
 10
3.895252385619414
 20
-2.548667008151444
 30
0.0
 10
3.895113712863475
 20
-2.565005960487724
 30
0.0
 10
3.869979249498593
 20
-2.564941875909577
 30
0.0
 10
3.869875362613596
 20
-2.548665649578727
 30
0.0
 10
3.86999236683107
 20
-2.532412093076143
 30
0.0
 10
3.895106457813325
 20
-2.53234562716668
 30
0.0
 10
3.895252385619414
 20
-2.548667008151444
 30
0.0
  0
SPLINE
  5
84
330
70
100
AcDbEntity
  8
Poneglyph
100
AcDbSpline
210
0.0
220
0.0
230
1.0
 70
     9
 71
     3
 72
    20
 73
    16
 74
     0
 42
0.0000000001
 43
0.0000000001
 40
0.0
 40
0.0
 40
0.0
 40
0.0
 40
1.0
 40
1.0
 40
1.0
 40
2.0
 40
2.0
 40
2.0
 40
3.0
 40
3.0
 40
3.0
 40
4.0
 40
4.0
 40
4.0
 40
5.0
 40
5.0
 40
5.0
 40
5.0
 10
3.92694319508122
 20
-2.510608197387556
 30
0.0
 10
3.953952526388724
 20
-2.519209947219375
 30
0.0
 10
3.933619515724103
 20
-2.569858560297764
 30
0.0
 10
3.939593064501726
 20
-2.593151751692478
 30
0.0
 10
3.92078291907751
 20
-2.616938045378598
 30
0.0
 10
3.805455812169687
 20
-2.587163687234452
 30
0.0
 10
3.888827798729051
 20
-2.580600275230532
 30
0.0
 10
3.899351457210109
 20
-2.577195728533246
 30
0.0
 10
3.922957950602014
 20
-2.59101148460829
 30
0.0
 10
3.922922841164538
 20
-2.574154590375251
 30
0.0
 10
3.912518889100283
 20
-2.56212181930674
 30
0.0
 10
3.935964926710312
 20
-2.519822036708192
 30
0.0
 10
3.908959621668827
 20
-2.528686269179236
 30
0.0
 10
3.818133593325266
 20
-2.534227607234091
 30
0.0
 10
3.872496984839876
 20
-2.499421439683778
 30
0.0
 10
3.92694319508122
 20
-2.510608197387556
 30
0.0
  0
SPLINE
  5
85
330
70
100
AcDbEntity
  8
Poneglyph
100
AcDbSpline
210
0.0
220
0.0
230
1.0
 70
     9
 71
     3
 72
    17
 73
    13
 74
     0
 42
0.0000000001
 43
0.0000000001
 40
0.0
 40
0.0
 40
0.0
 40
0.0
 40
1.0
 40
1.0
 40
1.0
 40
2.0
 40
2.0
 40
2.0
 40
3.0
 40
3.0
 40
3.0
 40
4.0
 40
4.0
 40
4.0
 40
4.0
 10
3.92694319508122
 20
-2.625530614922278
 30
0.0
 10
3.963271927260443
 20
-2.635900378708305
 30
0.0
 10
3.925690369744516
 20
-2.777077018085467
 30
0.0
 10
3.920617246402722
 20
-2.688818366466673
 30
0.0
 10
3.924774296880842
 20
-2.645629050642077
 30
0.0
 10
3.924484923538632
 20
-2.642905072736033
 30
0.0
 10
3.882698021063561
 20
-2.65062264507848
 30
0.0
 10
3.863861419322486
 20
-2.633509656242671
 30
0.0
 10
3.800186151140147
 20
-2.667750684460947
 30
0.0
 10
3.816346805779529
 20
-2.629429312937872
 30
0.0
 10
3.850769955111925
 20
-2.612799065622033
 30
0.0
 10
3.893149837499625
 20
-2.64435896197142
 30
0.0
 10
3.92694319508122
 20
-2.625530614922278
 30
0.0
  0
SPLINE
  5
86
330
70
100
AcDbEntity
  8
Poneglyph
100
AcDbSpline
210
0.0
220
0.0
230
1.0
 70
     9
 71
     3
 72
    11
 73
     7
 74
     0
 42
0.0000000001
 43
0.0000000001
 40
0.0
 40
0.0
 40
0.0
 40
0.0
 40
1.0
 40
1.0
 40
1.0
 40
2.0
 40
2.0
 40
2.0
 40
2.0
 10
3.83166731617497
 20
-2.548816205200056
 30
0.0
 10
3.84288116161253
 20
-2.555820908556647
 30
0.0
 10
3.842558060927494
 20
-2.605527790881827
 30
0.0
 10
3.831680501354437
 20
-2.612401817490586
 30
0.0
 10
3.787958606500915
 20
-2.608158049525501
 30
0.0
 10
3.784820302806135
 20
-2.550997795834746
 30
0.0
 10
3.83166731617497
 20
-2.548816205200056
 30
0.0
  0
SPLINE
  5
87
330
70
100
AcDbEntity
  8
Poneglyph
100
AcDbSpline
210
0.0
220
0.0
230
1.0
 70
     9
 71
     3
 72
    29
 73
    25
 74
     0
 42
0.0000000001
 43
0.0000000001
 40
0.0
 40
0.0
 40
0.0
 40
0.0
 40
1.0
 40
1.0
 40
1.0
 40
2.0
 40
2.0
 40
2.0
 40
3.0
 40
3.0
 40
3.0
 40
4.0
 40
4.0
 40
4.0
 40
5.0
 40
5.0
 40
5.0
 40
6.0
 40
6.0
 40
6.0
 40
7.0
 40
7.0
 40
7.0
 40
8.0
 40
8.0
 40
8.0
 40
8.0
 10
3.888830130845109
 20
-2.675986344088944
 30
0.0
 10
3.900143283586885
 20
-2.674421643864358
 30
0.0
 10
3.898660412091278
 20
-2.719534647491703
 30
0.0
 10
3.888838402317989
 20
-2.720610601554476
 30
0.0
 10
3.879551179372078
 20
-2.701162470192002
 30
0.0
 10
3.838436325125725
 20
-2.729119588492671
 30
0.0
 10
3.818692465118551
 20
-2.714184970741851
 30
0.0
 10
3.789195246536488
 20
-2.707491760070095
 30
0.0
 10
3.774699602226923
 20
-2.652601878898975
 30
0.0
 10
3.755250660498985
 20
-2.626682374803269
 30
0.0
 10
3.730969114803643
 20
-2.622893049078508
 30
0.0
 10
3.756846500331448
 20
-2.672082780484591
 30
0.0
 10
3.748824770034477
 20
-2.68890830289216
 30
0.0
 10
3.755773337085947
 20
-2.727086453835176
 30
0.0
 10
3.722506571679698
 20
-2.727381795434944
 30
0.0
 10
3.729876029693791
 20
-2.688812629357042
 30
0.0
 10
3.727886280232117
 20
-2.641805879664717
 30
0.0
 10
3.726943797515648
 20
-2.406854592116259
 30
0.0
 10
3.752633767816316
 20
-2.569376984332646
 30
0.0
 10
3.823126082804492
 20
-2.45252449208341
 30
0.0
 10
3.856090362459793
 20
-2.509088383163013
 30
0.0
 10
3.75290433709007
 20
-2.586636453678794
 30
0.0
 10
3.764091516010214
 20
-2.638616237956865
 30
0.0
 10
3.84806096666629
 20
-2.74918207621484
 30
0.0
 10
3.888830130845109
 20
-2.675986344088944
 30
0.0
  0
HATCH
  5
88
330
70
100
AcDbEntity
  8
Poneglyph
 62
   250
420
  2301728
440
 33554687
100
AcDbHatch
 10
0.0
 20
0.0
 30
0.0
210
0.0
220
0.0
230
1.0
  2
SOLID
 70
     1
 71
     1
 91
        5
 92
        1
 93
        1
 72
     4
 94
        3
 73
     0
 74
     0
 95
       11
 96
        7
 40
0.0
 40
0.0
 40
0.0
 40
0.0
 40
1.0
 40
1.0
 40
1.0
 40
2.0
 40
2.0
 40
2.0
 40
2.0
 10
3.895252385619414
 20
-2.548667008151444
 10
3.895113712863475
 20
-2.565005960487724
 10
3.869979249498593
 20
-2.564941875909577
 10
3.869875362613596
 20
-2.548665649578727
 10
3.86999236683107
 20
-2.532412093076143
 10
3.895106457813325
 20
-2.53234562716668
 10
3.895252385619414
 20
-2.548667008151444
 97
        0
 97
        1
330
83
 92
        1
 93
        1
 72
     4
 94
        3
 73
     0
 74
     0
 95
       20
 96
       16
 40
0.0
 40
0.0
 40
0.0
 40
0.0
 40
1.0
 40
1.0
 40
1.0
 40
2.0
 40
2.0
 40
2.0
 40
3.0
 40
3.0
 40
3.0
 40
4.0
 40
4.0
 40
4.0
 40
5.0
 40
5.0
 40
5.0
 40
5.0
 10
3.92694319508122
 20
-2.510608197387556
 10
3.953952526388724
 20
-2.519209947219375
 10
3.933619515724103
 20
-2.569858560297764
 10
3.939593064501726
 20
-2.593151751692478
 10
3.92078291907751
 20
-2.616938045378598
 10
3.805455812169687
 20
-2.587163687234452
 10
3.888827798729051
 20
-2.580600275230532
 10
3.899351457210109
 20
-2.577195728533246
 10
3.922957950602014
 20
-2.59101148460829
 10
3.922922841164538
 20
-2.574154590375251
 10
3.912518889100283
 20
-2.56212181930674
 10
3.935964926710312
 20
-2.519822036708192
 10
3.908959621668827
 20
-2.528686269179236
 10
3.818133593325266
 20
-2.534227607234091
 10
3.872496984839876
 20
-2.499421439683778
 10
3.92694319508122
 20
-2.510608197387556
 97
        0
 97
        1
330
84
 92
        1
 93
        1
 72
     4
 94
        3
 73
     0
 74
     0
 95
       17
 96
       13
 40
0.0
 40
0.0
 40
0.0
 40
0.0
 40
1.0
 40
1.0
 40
1.0
 40
2.0
 40
2.0
 40
2.0
 40
3.0
 40
3.0
 40
3.0
 40
4.0
 40
4.0
 40
4.0
 40
4.0
 10
3.92694319508122
 20
-2.625530614922278
 10
3.963271927260443
 20
-2.635900378708305
 10
3.925690369744516
 20
-2.777077018085467
 10
3.920617246402722
 20
-2.688818366466673
 10
3.924774296880842
 20
-2.645629050642077
 10
3.924484923538632
 20
-2.642905072736033
 10
3.882698021063561
 20
-2.65062264507848
 10
3.863861419322486
 20
-2.633509656242671
 10
3.800186151140147
 20
-2.667750684460947
 10
3.816346805779529
 20
-2.629429312937872
 10
3.850769955111925
 20
-2.612799065622033
 10
3.893149837499625
 20
-2.64435896197142
 10
3.92694319508122
 20
-2.625530614922278
 97
        0
 97
        1
330
85
 92
        1
 93
        1
 72
     4
 94
        3
 73
     0
 74
     0
 95
       11
 96
        7
 40
0.0
 40
0.0
 40
0.0
 40
0.0
 40
1.0
 40
1.0
 40
1.0
 40
2.0
 40
2.0
 40
2.0
 40
2.0
 10
3.83166731617497
 20
-2.548816205200056
 10
3.84288116161253
 20
-2.555820908556647
 10
3.842558060927494
 20
-2.605527790881827
 10
3.831680501354437
 20
-2.612401817490586
 10
3.787958606500915
 20
-2.608158049525501
 10
3.784820302806135
 20
-2.550997795834746
 10
3.83166731617497
 20
-2.548816205200056
 97
        0
 97
        1
330
86
 92
        1
 93
        1
 72
     4
 94
        3
 73
     0
 74
     0
 95
       29
 96
       25
 40
0.0
 40
0.0
 40
0.0
 40
0.0
 40
1.0
 40
1.0
 40
1.0
 40
2.0
 40
2.0
 40
2.0
 40
3.0
 40
3.0
 40
3.0
 40
4.0
 40
4.0
 40
4.0
 40
5.0
 40
5.0
 40
5.0
 40
6.0
 40
6.0
 40
6.0
 40
7.0
 40
7.0
 40
7.0
 40
8.0
 40
8.0
 40
8.0
 40
8.0
 10
3.888830130845109
 20
-2.675986344088944
 10
3.900143283586885
 20
-2.674421643864358
 10
3.898660412091278
 20
-2.719534647491703
 10
3.888838402317989
 20
-2.720610601554476
 10
3.879551179372078
 20
-2.701162470192002
 10
3.838436325125725
 20
-2.729119588492671
 10
3.818692465118551
 20
-2.714184970741851
 10
3.789195246536488
 20
-2.707491760070095
 10
3.774699602226923
 20
-2.652601878898975
 10
3.755250660498985
 20
-2.626682374803269
 10
3.730969114803643
 20
-2.622893049078508
 10
3.756846500331448
 20
-2.672082780484591
 10
3.748824770034477
 20
-2.68890830289216
 10
3.755773337085947
 20
-2.727086453835176
 10
3.722506571679698
 20
-2.727381795434944
 10
3.729876029693791
 20
-2.688812629357042
 10
3.727886280232117
 20
-2.641805879664717
 10
3.726943797515648
 20
-2.406854592116259
 10
3.752633767816316
 20
-2.569376984332646
 10
3.823126082804492
 20
-2.45252449208341
 10
3.856090362459793
 20
-2.509088383163013
 10
3.75290433709007
 20
-2.586636453678794
 10
3.764091516010214
 20
-2.638616237956865
 10
3.84806096666629
 20
-2.74918207621484
 10
3.888830130845109
 20
-2.675986344088944
 97
        0
 97
        1
330
87
 75
     2
 76
     1
 98
        1
 10
0.0
 20
0.0
450
        0
451
        0
460
0.0
461
0.0
452
        0
462
0.0
453
        0
470

  0
SPLINE
  5
89
330
70
100
AcDbEntity
  8
Poneglyph
100
AcDbSpline
210
0.0
220
0.0
230
1.0
 70
     9
 71
     3
 72
    20
 73
    16
 74
     0
 42
0.0000000001
 43
0.0000000001
 40
0.0
 40
0.0
 40
0.0
 40
0.0
 40
1.0
 40
1.0
 40
1.0
 40
2.0
 40
2.0
 40
2.0
 40
3.0
 40
3.0
 40
3.0
 40
4.0
 40
4.0
 40
4.0
 40
5.0
 40
5.0
 40
5.0
 40
5.0
 10
4.153085230671497
 20
-2.697831629008785
 30
0.0
 10
4.190941453070611
 20
-2.712060425734155
 30
0.0
 10
4.180881347724329
 20
-2.670359394941872
 30
0.0
 10
4.179042110726236
 20
-2.646788952323377
 30
0.0
 10
4.170862526233248
 20
-2.64215844711412
 30
0.0
 10
4.142285589145759
 20
-2.653393340487557
 30
0.0
 10
4.157310146845424
 20
-2.631705017167582
 30
0.0
 10
4.201934682678484
 20
-2.631926413799116
 30
0.0
 10
4.168043061359008
 20
-2.570042093501822
 30
0.0
 10
4.181670773115785
 20
-2.536995272988532
 30
0.0
 10
4.146063296510797
 20
-2.5116355007222
 30
0.0
 10
4.149851282523842
 20
-2.548766027414886
 30
0.0
 10
4.153096307490082
 20
-2.576790766598327
 30
0.0
 10
4.156271597433159
 20
-2.615030512738106
 30
0.0
 10
4.134395938871167
 20
-2.661692578544337
 30
0.0
 10
4.153085230671497
 20
-2.697831629008785
 30
0.0
  0
SPLINE
  5
8A
330
70
100
AcDbEntity
  8
Poneglyph
100
AcDbSpline
210
0.0
220
0.0
230
1.0
 70
     9
 71
     3
 72
    14
 73
    10
 74
     0
 42
0.0000000001
 43
0.0000000001
 40
0.0
 40
0.0
 40
0.0
 40
0.0
 40
1.0
 40
1.0
 40
1.0
 40
2.0
 40
2.0
 40
2.0
 40
3.0
 40
3.0
 40
3.0
 40
3.0
 10
4.19155772416108
 20
-2.513207063036563
 30
0.0
 10
4.210118260724685
 20
-2.562218281978958
 30
0.0
 10
4.194595278734216
 20
-2.629180260103465
 30
0.0
 10
4.198006859237188
 20
-2.684998796001334
 30
0.0
 10
4.224891815886293
 20
-2.732105337733501
 30
0.0
 10
4.140606428988348
 20
-2.725234131026581
 30
0.0
 10
4.128687978907565
 20
-2.694635278551787
 30
0.0
 10
4.140781713515303
 20
-2.633990095606299
 30
0.0
 10
4.091890980143615
 20
-2.495686625486844
 30
0.0
 10
4.19155772416108
 20
-2.513207063036563
 30
0.0
  0
SPLINE
  5
8B
330
70
100
AcDbEntity
  8
Poneglyph
100
AcDbSpline
210
0.0
220
0.0
230
1.0
 70
     9
 71
     3
 72
    11
 73
     7
 74
     0
 42
0.0000000001
 43
0.0000000001
 40
0.0
 40
0.0
 40
0.0
 40
0.0
 40
1.0
 40
1.0
 40
1.0
 40
2.0
 40
2.0
 40
2.0
 40
2.0
 10
4.096112303154137
 20
-2.60858466720323
 30
0.0
 10
4.074839324474067
 20
-2.584135809759193
 30
0.0
 10
4.098148448331635
 20
-2.446119001384532
 30
0.0
 10
4.108757392028033
 20
-2.532165736562066
 30
0.0
 10
4.103506224589056
 20
-2.553424198247916
 30
0.0
 10
4.121890640932355
 20
-2.600158210671729
 30
0.0
 10
4.096112303154137
 20
-2.60858466720323
 30
0.0
  0
SPLINE
  5
8C
330
70
100
AcDbEntity
  8
Poneglyph
100
AcDbSpline
210
0.0
220
0.0
230
1.0
 70
     9
 71
     3
 72
    11
 73
     7
 74
     0
 42
0.0000000001
 43
0.0000000001
 40
0.0
 40
0.0
 40
0.0
 40
0.0
 40
1.0
 40
1.0
 40
1.0
 40
2.0
 40
2.0
 40
2.0
 40
2.0
 10
4.096207246730525
 20
-2.68500068282823
 30
0.0
 10
4.122165088147008
 20
-2.682269506590121
 30
0.0
 10
4.12009473100415
 20
-2.719004056674293
 30
0.0
 10
4.0962059701243
 20
-2.716793139811645
 30
0.0
 10
4.080426324186039
 20
-2.716388203146228
 30
0.0
 10
4.078077459227011
 20
-2.685184172121378
 30
0.0
 10
4.096207246730525
 20
-2.68500068282823
 30
0.0
  0
SPLINE
  5
8D
330
70
100
AcDbEntity
  8
Poneglyph
100
AcDbSpline
210
0.0
220
0.0
230
1.0
 70
     9
 71
     3
 72
    26
 73
    22
 74
     0
 42
0.0000000001
 43
0.0000000001
 40
0.0
 40
0.0
 40
0.0
 40
0.0
 40
1.0
 40
1.0
 40
1.0
 40
2.0
 40
2.0
 40
2.0
 40
3.0
 40
3.0
 40
3.0
 40
4.0
 40
4.0
 40
4.0
 40
5.0
 40
5.0
 40
5.0
 40
6.0
 40
6.0
 40
6.0
 40
7.0
 40
7.0
 40
7.0
 40
7.0
 10
4.096207246730525
 20
-2.64679267501573
 30
0.0
 10
4.091169532413181
 20
-2.665986482306025
 30
0.0
 10
4.007200963503186
 20
-2.722813509290467
 30
0.0
 10
3.994421049665182
 20
-2.70398387844466
 30
0.0
 10
3.997746115644051
 20
-2.663460906309208
 30
0.0
 10
3.970549784705301
 20
-2.511862153909052
 30
0.0
 10
4.006210623997781
 20
-2.507513877173727
 30
0.0
 10
4.005986458030418
 20
-2.592647781955141
 30
0.0
 10
4.03265814355604
 20
-2.512472653618083
 30
0.0
 10
4.058016062008769
 20
-2.544979332955689
 30
0.0
 10
4.027836182101054
 20
-2.565361758893181
 30
0.0
 10
3.973710424185633
 20
-2.618246220210115
 30
0.0
 10
4.049991262679516
 20
-2.588773112990237
 30
0.0
 10
4.088507212056381
 20
-2.584021546140825
 30
0.0
 10
4.041726046555595
 20
-2.633183117953826
 30
0.0
 10
4.019792448608237
 20
-2.621405296877128
 30
0.0
 10
3.99185681221378
 20
-2.616997196518418
 30
0.0
 10
4.022564746160671
 20
-2.64043158059826
 30
0.0
 10
4.010165665425372
 20
-2.653208639281046
 30
0.0
 10
3.983986318379391
 20
-2.73882424324438
 30
0.0
 10
4.090775245032773
 20
-2.604541276713007
 30
0.0
 10
4.096207246730525
 20
-2.64679267501573
 30
0.0
  0
HATCH
  5
8E
330
70
100
AcDbEntity
  8
Poneglyph
 62
   250
420
  2301728
440
 33554687
100
AcDbHatch
 10
0.0
 20
0.0
 30
0.0
210
0.0
220
0.0
230
1.0
  2
SOLID
 70
     1
 71
     1
 91
        5
 92
        1
 93
        1
 72
     4
 94
        3
 73
     0
 74
     0
 95
       20
 96
       16
 40
0.0
 40
0.0
 40
0.0
 40
0.0
 40
1.0
 40
1.0
 40
1.0
 40
2.0
 40
2.0
 40
2.0
 40
3.0
 40
3.0
 40
3.0
 40
4.0
 40
4.0
 40
4.0
 40
5.0
 40
5.0
 40
5.0
 40
5.0
 10
4.153085230671497
 20
-2.697831629008785
 10
4.190941453070611
 20
-2.712060425734155
 10
4.180881347724329
 20
-2.670359394941872
 10
4.179042110726236
 20
-2.646788952323377
 10
4.170862526233248
 20
-2.64215844711412
 10
4.142285589145759
 20
-2.653393340487557
 10
4.157310146845424
 20
-2.631705017167582
 10
4.201934682678484
 20
-2.631926413799116
 10
4.168043061359008
 20
-2.570042093501822
 10
4.181670773115785
 20
-2.536995272988532
 10
4.146063296510797
 20
-2.5116355007222
 10
4.149851282523842
 20
-2.548766027414886
 10
4.153096307490082
 20
-2.576790766598327
 10
4.156271597433159
 20
-2.615030512738106
 10
4.134395938871167
 20
-2.661692578544337
 10
4.153085230671497
 20
-2.697831629008785
 97
        0
 97
        1
330
89
 92
        1
 93
        1
 72
     4
 94
        3
 73
     0
 74
     0
 95
       14
 96
       10
 40
0.0
 40
0.0
 40
0.0
 40
0.0
 40
1.0
 40
1.0
 40
1.0
 40
2.0
 40
2.0
 40
2.0
 40
3.0
 40
3.0
 40
3.0
 40
3.0
 10
4.19155772416108
 20
-2.513207063036563
 10
4.210118260724685
 20
-2.562218281978958
 10
4.194595278734216
 20
-2.629180260103465
 10
4.198006859237188
 20
-2.684998796001334
 10
4.224891815886293
 20
-2.732105337733501
 10
4.140606428988348
 20
-2.725234131026581
 10
4.128687978907565
 20
-2.694635278551787
 10
4.140781713515303
 20
-2.633990095606299
 10
4.091890980143615
 20
-2.495686625486844
 10
4.19155772416108
 20
-2.513207063036563
 97
        0
 97
        1
330
8A
 92
        1
 93
        1
 72
     4
 94
        3
 73
     0
 74
     0
 95
       11
 96
        7
 40
0.0
 40
0.0
 40
0.0
 40
0.0
 40
1.0
 40
1.0
 40
1.0
 40
2.0
 40
2.0
 40
2.0
 40
2.0
 10
4.096112303154137
 20
-2.60858466720323
 10
4.074839324474067
 20
-2.584135809759193
 10
4.098148448331635
 20
-2.446119001384532
 10
4.108757392028033
 20
-2.532165736562066
 10
4.103506224589056
 20
-2.553424198247916
 10
4.121890640932355
 20
-2.600158210671729
 10
4.096112303154137
 20
-2.60858466720323
 97
        0
 97
        1
330
8B
 92
        1
 93
        1
 72
     4
 94
        3
 73
     0
 74
     0
 95
       11
 96
        7
 40
0.0
 40
0.0
 40
0.0
 40
0.0
 40
1.0
 40
1.0
 40
1.0
 40
2.0
 40
2.0
 40
2.0
 40
2.0
 10
4.096207246730525
 20
-2.68500068282823
 10
4.122165088147008
 20
-2.682269506590121
 10
4.12009473100415
 20
-2.719004056674293
 10
4.0962059701243
 20
-2.716793139811645
 10
4.080426324186039
 20
-2.716388203146228
 10
4.078077459227011
 20
-2.685184172121378
 10
4.096207246730525
 20
-2.68500068282823
 97
        0
 97
        1
330
8C
 92
        1
 93
        1
 72
     4
 94
        3
 73
     0
 74
     0
 95
       26
 96
       22
 40
0.0
 40
0.0
 40
0.0
 40
0.0
 40
1.0
 40
1.0
 40
1.0
 40
2.0
 40
2.0
 40
2.0
 40
3.0
 40
3.0
 40
3.0
 40
4.0
 40
4.0
 40
4.0
 40
5.0
 40
5.0
 40
5.0
 40
6.0
 40
6.0
 40
6.0
 40
7.0
 40
7.0
 40
7.0
 40
7.0
 10
4.096207246730525
 20
-2.64679267501573
 10
4.091169532413181
 20
-2.665986482306025
 10
4.007200963503186
 20
-2.722813509290467
 10
3.994421049665182
 20
-2.70398387844466
 10
3.997746115644051
 20
-2.663460906309208
 10
3.970549784705301
 20
-2.511862153909052
 10
4.006210623997781
 20
-2.507513877173727
 10
4.005986458030418
 20
-2.592647781955141
 10
4.03265814355604
 20
-2.512472653618083
 10
4.058016062008769
 20
-2.544979332955689
 10
4.027836182101054
 20
-2.565361758893181
 10
3.973710424185633
 20
-2.618246220210115
 10
4.049991262679516
 20
-2.588773112990237
 10
4.088507212056381
 20
-2.584021546140825
 10
4.041726046555595
 20
-2.633183117953826
 10
4.019792448608237
 20
-2.621405296877128
 10
3.99185681221378
 20
-2.616997196518418
 10
4.022564746160671
 20
-2.64043158059826
 10
4.010165665425372
 20
-2.653208639281046
 10
3.983986318379391
 20
-2.73882424324438
 10
4.090775245032773
 20
-2.604541276713007
 10
4.096207246730525
 20
-2.64679267501573
 97
        0
 97
        1
330
8D
 75
     2
 76
     1
 98
        1
 10
0.0
 20
0.0
450
        0
451
        0
460
0.0
461
0.0
452
        0
462
0.0
453
        0
470

  0
SPLINE
  5
8F
330
70
100
AcDbEntity
  8
Poneglyph
100
AcDbSpline
210
0.0
220
0.0
230
1.0
 70
     9
 71
     3
 72
    11
 73
     7
 74
     0
 42
0.0000000001
 43
0.0000000001
 40
0.0
 40
0.0
 40
0.0
 40
0.0
 40
1.0
 40
1.0
 40
1.0
 40
2.0
 40
2.0
 40
2.0
 40
2.0
 10
4.41207774369233
 20
-2.70362543796629
 30
0.0
 10
4.458797855949594
 20
-2.695341359965039
 30
0.0
 10
4.432884587304189
 20
-2.633570064132577
 30
0.0
 10
4.392530031672878
 20
-2.658721583214451
 30
0.0
 10
4.391944868448186
 20
-2.675772542117833
 30
0.0
 10
4.389203717904743
 20
-2.70153420304579
 30
0.0
 10
4.41207774369233
 20
-2.70362543796629
 30
0.0
  0
SPLINE
  5
90
330
70
100
AcDbEntity
  8
Poneglyph
100
AcDbSpline
210
0.0
220
0.0
230
1.0
 70
     9
 71
     3
 72
    11
 73
     7
 74
     0
 42
0.0000000001
 43
0.0000000001
 40
0.0
 40
0.0
 40
0.0
 40
0.0
 40
1.0
 40
1.0
 40
1.0
 40
2.0
 40
2.0
 40
2.0
 40
2.0
 10
4.398948403414553
 20
-2.601547529980178
 30
0.0
 10
4.414022255878585
 20
-2.596093319529068
 30
0.0
 10
4.477438730159822
 20
-2.607931740092074
 30
0.0
 10
4.437450959378085
 20
-2.620520977056129
 30
0.0
 10
4.405107795314026
 20
-2.629341484413796
 30
0.0
 10
4.319492505306723
 20
-2.607154202279136
 30
0.0
 10
4.398948403414553
 20
-2.601547529980178
 30
0.0
  0
SPLINE
  5
91
330
70
100
AcDbEntity
  8
Poneglyph
100
AcDbSpline
210
0.0
220
0.0
230
1.0
 70
     9
 71
     3
 72
    56
 73
    52
 74
     0
 42
0.0000000001
 43
0.0000000001
 40
0.0
 40
0.0
 40
0.0
 40
0.0
 40
1.0
 40
1.0
 40
1.0
 40
2.0
 40
2.0
 40
2.0
 40
3.0
 40
3.0
 40
3.0
 40
4.0
 40
4.0
 40
4.0
 40
5.0
 40
5.0
 40
5.0
 40
6.0
 40
6.0
 40
6.0
 40
7.0
 40
7.0
 40
7.0
 40
8.0
 40
8.0
 40
8.0
 40
9.0
 40
9.0
 40
9.0
 40
10.0
 40
10.0
 40
10.0
 40
11.0
 40
11.0
 40
11.0
 40
12.0
 40
12.0
 40
12.0
 40
13.0
 40
13.0
 40
13.0
 40
14.0
 40
14.0
 40
14.0
 40
15.0
 40
15.0
 40
15.0
 40
16.0
 40
16.0
 40
16.0
 40
17.0
 40
17.0
 40
17.0
 40
17.0
 10
4.41207774369233
 20
-2.639755537792678
 30
0.0
 10
4.458528385554927
 20
-2.624603485681164
 30
0.0
 10
4.473131847224067
 20
-2.695358277865731
 30
0.0
 10
4.43744605236591
 20
-2.716170129656575
 30
0.0
 10
4.377545817146129
 20
-2.719456630275216
 30
0.0
 10
4.318397202826544
 20
-2.650223282055245
 30
0.0
 10
4.265076418305473
 20
-2.716181247472225
 30
0.0
 10
4.225425815262875
 20
-2.730382890076018
 30
0.0
 10
4.254536808399481
 20
-2.608158336325307
 30
0.0
 10
4.246104306793212
 20
-2.576178431126031
 30
0.0
 10
4.250901627882133
 20
-2.556361372970387
 30
0.0
 10
4.233632961732281
 20
-2.512828176517081
 30
0.0
 10
4.258940808699182
 20
-2.505882361702232
 30
0.0
 10
4.273308101960158
 20
-2.522465211083221
 30
0.0
 10
4.255240562558936
 20
-2.567177002446821
 30
0.0
 10
4.29687465685116
 20
-2.563331817620665
 30
0.0
 10
4.313685237732847
 20
-2.550502918350199
 30
0.0
 10
4.349324731023317
 20
-2.489682226006733
 30
0.0
 10
4.367169508460165
 20
-2.531249592893699
 30
0.0
 10
4.374120099103972
 20
-2.539637448255866
 30
0.0
 10
4.394194957932439
 20
-2.517699314696781
 30
0.0
 10
4.41207896794794
 20
-2.524842176914641
 30
0.0
 10
4.485916335280307
 20
-2.511362946396729
 30
0.0
 10
4.425033428097448
 20
-2.642937581698788
 30
0.0
 10
4.418183880786803
 20
-2.57618547085278
 30
0.0
 10
4.463136967835882
 20
-2.537005496978483
 30
0.0
 10
4.374154708809884
 20
-2.530615696441221
 30
0.0
 10
4.366285056828347
 20
-2.572959209541775
 30
0.0
 10
4.347034844247092
 20
-2.586328288665754
 30
0.0
 10
4.358618419027607
 20
-2.546404945301547
 30
0.0
 10
4.348199126421528
 20
-2.53766829756882
 30
0.0
 10
4.321661558391219
 20
-2.557486670636308
 30
0.0
 10
4.312533596149275
 20
-2.601148278187615
 30
0.0
 10
4.265069713744878
 20
-2.576152093609178
 30
0.0
 10
4.253850248976428
 20
-2.630895502003113
 30
0.0
 10
4.280382752229621
 20
-2.623012856703553
 30
0.0
 10
4.324292442251614
 20
-2.62953724175635
 30
0.0
 10
4.332106380922015
 20
-2.620993108968554
 30
0.0
 10
4.321331422562606
 20
-2.568957256405458
 30
0.0
 10
4.348219966028636
 20
-2.607960888564598
 30
0.0
 10
4.358571460384711
 20
-2.660643819375536
 30
0.0
 10
4.316669216055439
 20
-2.639394097080336
 30
0.0
 10
4.283010879007052
 20
-2.638869727105252
 30
0.0
 10
4.25584995001562
 20
-2.622916038965664
 30
0.0
 10
4.256500442773332
 20
-2.692068665686974
 30
0.0
 10
4.272500399694182
 20
-2.692398555388914
 30
0.0
 10
4.283994604951987
 20
-2.678456200444416
 30
0.0
 10
4.291694043696375
 20
-2.673175683119425
 30
0.0
 10
4.309996178540763
 20
-2.671835745867484
 30
0.0
 10
4.376100254314147
 20
-2.687200093721255
 30
0.0
 10
4.363273814855675
 20
-2.639696325562757
 30
0.0
 10
4.41207774369233
 20
-2.639755537792678
 30
0.0
  0
HATCH
  5
92
330
70
100
AcDbEntity
  8
Poneglyph
 62
   250
420
  2301728
440
 33554687
100
AcDbHatch
 10
0.0
 20
0.0
 30
0.0
210
0.0
220
0.0
230
1.0
  2
SOLID
 70
     1
 71
     1
 91
        3
 92
        1
 93
        1
 72
     4
 94
        3
 73
     0
 74
     0
 95
       11
 96
        7
 40
0.0
 40
0.0
 40
0.0
 40
0.0
 40
1.0
 40
1.0
 40
1.0
 40
2.0
 40
2.0
 40
2.0
 40
2.0
 10
4.41207774369233
 20
-2.70362543796629
 10
4.458797855949594
 20
-2.695341359965039
 10
4.432884587304189
 20
-2.633570064132577
 10
4.392530031672878
 20
-2.658721583214451
 10
4.391944868448186
 20
-2.675772542117833
 10
4.389203717904743
 20
-2.70153420304579
 10
4.41207774369233
 20
-2.70362543796629
 97
        0
 97
        1
330
8F
 92
        1
 93
        1
 72
     4
 94
        3
 73
     0
 74
     0
 95
       11
 96
        7
 40
0.0
 40
0.0
 40
0.0
 40
0.0
 40
1.0
 40
1.0
 40
1.0
 40
2.0
 40
2.0
 40
2.0
 40
2.0
 10
4.398948403414553
 20
-2.601547529980178
 10
4.414022255878585
 20
-2.596093319529068
 10
4.477438730159822
 20
-2.607931740092074
 10
4.437450959378085
 20
-2.620520977056129
 10
4.405107795314026
 20
-2.629341484413796
 10
4.319492505306723
 20
-2.607154202279136
 10
4.398948403414553
 20
-2.601547529980178
 97
        0
 97
        1
330
90
 92
        1
 93
        1
 72
     4
 94
        3
 73
     0
 74
     0
 95
       56
 96
       52
 40
0.0
 40
0.0
 40
0.0
 40
0.0
 40
1.0
 40
1.0
 40
1.0
 40
2.0
 40
2.0
 40
2.0
 40
3.0
 40
3.0
 40
3.0
 40
4.0
 40
4.0
 40
4.0
 40
5.0
 40
5.0
 40
5.0
 40
6.0
 40
6.0
 40
6.0
 40
7.0
 40
7.0
 40
7.0
 40
8.0
 40
8.0
 40
8.0
 40
9.0
 40
9.0
 40
9.0
 40
10.0
 40
10.0
 40
10.0
 40
11.0
 40
11.0
 40
11.0
 40
12.0
 40
12.0
 40
12.0
 40
13.0
 40
13.0
 40
13.0
 40
14.0
 40
14.0
 40
14.0
 40
15.0
 40
15.0
 40
15.0
 40
16.0
 40
16.0
 40
16.0
 40
17.0
 40
17.0
 40
17.0
 40
17.0
 10
4.41207774369233
 20
-2.639755537792678
 10
4.458528385554927
 20
-2.624603485681164
 10
4.473131847224067
 20
-2.695358277865731
 10
4.43744605236591
 20
-2.716170129656575
 10
4.377545817146129
 20
-2.719456630275216
 10
4.318397202826544
 20
-2.650223282055245
 10
4.265076418305473
 20
-2.716181247472225
 10
4.225425815262875
 20
-2.730382890076018
 10
4.254536808399481
 20
-2.608158336325307
 10
4.246104306793212
 20
-2.576178431126031
 10
4.250901627882133
 20
-2.556361372970387
 10
4.233632961732281
 20
-2.512828176517081
 10
4.258940808699182
 20
-2.505882361702232
 10
4.273308101960158
 20
-2.522465211083221
 10
4.255240562558936
 20
-2.567177002446821
 10
4.29687465685116
 20
-2.563331817620665
 10
4.313685237732847
 20
-2.550502918350199
 10
4.349324731023317
 20
-2.489682226006733
 10
4.367169508460165
 20
-2.531249592893699
 10
4.374120099103972
 20
-2.539637448255866
 10
4.394194957932439
 20
-2.517699314696781
 10
4.41207896794794
 20
-2.524842176914641
 10
4.485916335280307
 20
-2.511362946396729
 10
4.425033428097448
 20
-2.642937581698788
 10
4.418183880786803
 20
-2.57618547085278
 10
4.463136967835882
 20
-2.537005496978483
 10
4.374154708809884
 20
-2.530615696441221
 10
4.366285056828347
 20
-2.572959209541775
 10
4.347034844247092
 20
-2.586328288665754
 10
4.358618419027607
 20
-2.546404945301547
 10
4.348199126421528
 20
-2.53766829756882
 10
4.321661558391219
 20
-2.557486670636308
 10
4.312533596149275
 20
-2.601148278187615
 10
4.265069713744878
 20
-2.576152093609178
 10
4.253850248976428
 20
-2.630895502003113
 10
4.280382752229621
 20
-2.623012856703553
 10
4.324292442251614
 20
-2.62953724175635
 10
4.332106380922015
 20
-2.620993108968554
 10
4.321331422562606
 20
-2.568957256405458
 10
4.348219966028636
 20
-2.607960888564598
 10
4.358571460384711
 20
-2.660643819375536
 10
4.316669216055439
 20
-2.639394097080336
 10
4.283010879007052
 20
-2.638869727105252
 10
4.25584995001562
 20
-2.622916038965664
 10
4.256500442773332
 20
-2.692068665686974
 10
4.272500399694182
 20
-2.692398555388914
 10
4.283994604951987
 20
-2.678456200444416
 10
4.291694043696375
 20
-2.673175683119425
 10
4.309996178540763
 20
-2.671835745867484
 10
4.376100254314147
 20
-2.687200093721255
 10
4.363273814855675
 20
-2.639696325562757
 10
4.41207774369233
 20
-2.639755537792678
 97
        0
 97
        1
330
91
 75
     2
 76
     1
 98
        1
 10
0.0
 20
0.0
450
        0
451
        0
460
0.0
461
0.0
452
        0
462
0.0
453
        0
470

  0
SPLINE
  5
93
330
70
100
AcDbEntity
  8
Poneglyph
100
AcDbSpline
210
0.0
220
0.0
230
1.0
 70
     9
 71
     3
 72
    11
 73
     7
 74
     0
 42
0.0000000001
 43
0.0000000001
 40
0.0
 40
0.0
 40
0.0
 40
0.0
 40
1.0
 40
1.0
 40
1.0
 40
2.0
 40
2.0
 40
2.0
 40
2.0
 10
4.606033906886775
 20
-2.518550915267042
 30
0.0
 10
4.636139586862277
 20
-2.487579354094754
 30
0.0
 10
4.625755736356823
 20
-2.602166079050347
 30
0.0
 10
4.627629638551474
 20
-2.616406954198257
 30
0.0
 10
4.586277869902687
 20
-2.630903084346603
 30
0.0
 10
4.61331492825252
 20
-2.542067319011923
 30
0.0
 10
4.606033906886775
 20
-2.518550915267042
 30
0.0
  0
SPLINE
  5
94
330
70
100
AcDbEntity
  8
Poneglyph
100
AcDbSpline
210
0.0
220
0.0
230
1.0
 70
     9
 71
     3
 72
    29
 73
    25
 74
     0
 42
0.0000000001
 43
0.0000000001
 40
0.0
 40
0.0
 40
0.0
 40
0.0
 40
1.0
 40
1.0
 40
1.0
 40
2.0
 40
2.0
 40
2.0
 40
3.0
 40
3.0
 40
3.0
 40
4.0
 40
4.0
 40
4.0
 40
5.0
 40
5.0
 40
5.0
 40
6.0
 40
6.0
 40
6.0
 40
7.0
 40
7.0
 40
7.0
 40
8.0
 40
8.0
 40
8.0
 40
8.0
 10
4.701404729369414
 20
-2.505719969086486
 30
0.0
 10
4.723355393419574
 20
-2.498107071034584
 30
0.0
 10
4.71966701702614
 20
-2.709812066593788
 30
0.0
 10
4.706094803803479
 20
-2.714839813964519
 30
0.0
 10
4.66957513735474
 20
-2.719560902696507
 30
0.0
 10
4.707696183288261
 20
-2.653627241509361
 30
0.0
 10
4.690474249826744
 20
-2.644270295021922
 30
0.0
 10
4.669465184830313
 20
-2.656484454467368
 30
0.0
 10
4.63273737263714
 20
-2.655168208430243
 30
0.0
 10
4.609966670540416
 20
-2.648008063609217
 30
0.0
 10
4.593770862028905
 20
-2.623809931948951
 30
0.0
 10
4.644697349150166
 20
-2.636445323665005
 30
0.0
 10
4.656775763875
 20
-2.626467787085857
 30
0.0
 10
4.688496723230046
 20
-2.629808310654804
 30
0.0
 10
4.701974549259501
 20
-2.631221731219233
 30
0.0
 10
4.695272362997557
 20
-2.594674471904605
 30
0.0
 10
4.703481220772244
 20
-2.552843796797105
 30
0.0
 10
4.689463497423022
 20
-2.561021008228003
 30
0.0
 10
4.663472983723774
 20
-2.550077385910956
 30
0.0
 10
4.718188860608708
 20
-2.529236481231161
 30
0.0
 10
4.691385099876115
 20
-2.525012803152447
 30
0.0
 10
4.648167628907154
 20
-2.520895197573887
 30
0.0
 10
4.630690519849925
 20
-2.494497271114672
 30
0.0
 10
4.688851289447155
 20
-2.509332397532766
 30
0.0
 10
4.701404729369414
 20
-2.505719969086486
 30
0.0
  0
SPLINE
  5
95
330
70
100
AcDbEntity
  8
Poneglyph
100
AcDbSpline
210
0.0
220
0.0
230
1.0
 70
     9
 71
     3
 72
    11
 73
     7
 74
     0
 42
0.0000000001
 43
0.0000000001
 40
0.0
 40
0.0
 40
0.0
 40
0.0
 40
1.0
 40
1.0
 40
1.0
 40
2.0
 40
2.0
 40
2.0
 40
2.0
 10
4.561410425983997
 20
-2.677513588878153
 30
0.0
 10
4.545163677560645
 20
-2.677383385626019
 30
0.0
 10
4.545429863924381
 20
-2.652392083392138
 30
0.0
 10
4.561411745265104
 20
-2.652136510765709
 30
0.0
 10
4.577692574179031
 20
-2.652427890528592
 30
0.0
 10
4.577961700686828
 20
-2.67736010019717
 30
0.0
 10
4.561410425983997
 20
-2.677513588878153
 30
0.0
  0
SPLINE
  5
96
330
70
100
AcDbEntity
  8
Poneglyph
100
AcDbSpline
210
0.0
220
0.0
230
1.0
 70
     9
 71
     3
 72
    11
 73
     7
 74
     0
 42
0.0000000001
 43
0.0000000001
 40
0.0
 40
0.0
 40
0.0
 40
0.0
 40
1.0
 40
1.0
 40
1.0
 40
2.0
 40
2.0
 40
2.0
 40
2.0
 10
4.574241372164553
 20
-2.607662243392042
 30
0.0
 10
4.574041979081989
 20
-2.62386291563247
 30
0.0
 10
4.548908270664242
 20
-2.624059443001745
 30
0.0
 10
4.548864406560849
 20
-2.607660821636121
 30
0.0
 10
4.548904356218776
 20
-2.591254520417553
 30
0.0
 10
4.574051939818698
 20
-2.591448600166409
 30
0.0
 10
4.574241372164553
 20
-2.607662243392042
 30
0.0
  0
SPLINE
  5
97
330
70
100
AcDbEntity
  8
Poneglyph
100
AcDbSpline
210
0.0
220
0.0
230
1.0
 70
     9
 71
     3
 72
    29
 73
    25
 74
     0
 42
0.0000000001
 43
0.0000000001
 40
0.0
 40
0.0
 40
0.0
 40
0.0
 40
1.0
 40
1.0
 40
1.0
 40
2.0
 40
2.0
 40
2.0
 40
3.0
 40
3.0
 40
3.0
 40
4.0
 40
4.0
 40
4.0
 40
5.0
 40
5.0
 40
5.0
 40
6.0
 40
6.0
 40
6.0
 40
7.0
 40
7.0
 40
7.0
 40
8.0
 40
8.0
 40
8.0
 40
8.0
 10
4.51687510697358
 20
-2.505719969086486
 30
0.0
 10
4.537935879511223
 20
-2.516721591776306
 30
0.0
 10
4.516103738097424
 20
-2.557491241224119
 30
0.0
 10
4.528148241372238
 20
-2.564641279788752
 30
0.0
 10
4.554483412856092
 20
-2.549787982520633
 30
0.0
 10
4.563899232831342
 20
-2.498559087236496
 30
0.0
 10
4.593480037880125
 20
-2.50571019101868
 30
0.0
 10
4.599349163897664
 20
-2.546522878110256
 30
0.0
 10
4.528062009180403
 20
-2.562048571237482
 30
0.0
 10
4.527284312347218
 20
-2.601746623772113
 30
0.0
 10
4.536085538575737
 20
-2.643169800802247
 30
0.0
 10
4.494902398006994
 20
-2.714576328997635
 30
0.0
 10
4.568119043759578
 20
-2.696752915288874
 30
0.0
 10
4.589111496066252
 20
-2.694919449951435
 30
0.0
 10
4.608181425195551
 20
-2.704778712781692
 30
0.0
 10
4.609958791201657
 20
-2.681513001462563
 30
0.0
 10
4.648765654500366
 20
-2.666654166905901
 30
0.0
 10
4.626406623647577
 20
-2.732399318474815
 30
0.0
 10
4.593278554069532
 20
-2.715708168029626
 30
0.0
 10
4.56627543491211
 20
-2.709039273819522
 30
0.0
 10
4.496674519970711
 20
-2.735696848984237
 30
0.0
 10
4.504239172913281
 20
-2.690350961860657
 30
0.0
 10
4.513752902858337
 20
-2.634381382977279
 30
0.0
 10
4.484474929093695
 20
-2.547881926356947
 30
0.0
 10
4.51687510697358
 20
-2.505719969086486
 30
0.0
  0
HATCH
  5
98
330
70
100
AcDbEntity
  8
Poneglyph
 62
   250
420
  2301728
440
 33554687
100
AcDbHatch
 10
0.0
 20
0.0
 30
0.0
210
0.0
220
0.0
230
1.0
  2
SOLID
 70
     1
 71
     1
 91
        5
 92
        1
 93
        1
 72
     4
 94
        3
 73
     0
 74
     0
 95
       11
 96
        7
 40
0.0
 40
0.0
 40
0.0
 40
0.0
 40
1.0
 40
1.0
 40
1.0
 40
2.0
 40
2.0
 40
2.0
 40
2.0
 10
4.606033906886775
 20
-2.518550915267042
 10
4.636139586862277
 20
-2.487579354094754
 10
4.625755736356823
 20
-2.602166079050347
 10
4.627629638551474
 20
-2.616406954198257
 10
4.586277869902687
 20
-2.630903084346603
 10
4.61331492825252
 20
-2.542067319011923
 10
4.606033906886775
 20
-2.518550915267042
 97
        0
 97
        1
330
93
 92
        1
 93
        1
 72
     4
 94
        3
 73
     0
 74
     0
 95
       29
 96
       25
 40
0.0
 40
0.0
 40
0.0
 40
0.0
 40
1.0
 40
1.0
 40
1.0
 40
2.0
 40
2.0
 40
2.0
 40
3.0
 40
3.0
 40
3.0
 40
4.0
 40
4.0
 40
4.0
 40
5.0
 40
5.0
 40
5.0
 40
6.0
 40
6.0
 40
6.0
 40
7.0
 40
7.0
 40
7.0
 40
8.0
 40
8.0
 40
8.0
 40
8.0
 10
4.701404729369414
 20
-2.505719969086486
 10
4.723355393419574
 20
-2.498107071034584
 10
4.71966701702614
 20
-2.709812066593788
 10
4.706094803803479
 20
-2.714839813964519
 10
4.66957513735474
 20
-2.719560902696507
 10
4.707696183288261
 20
-2.653627241509361
 10
4.690474249826744
 20
-2.644270295021922
 10
4.669465184830313
 20
-2.656484454467368
 10
4.63273737263714
 20
-2.655168208430243
 10
4.609966670540416
 20
-2.648008063609217
 10
4.593770862028905
 20
-2.623809931948951
 10
4.644697349150166
 20
-2.636445323665005
 10
4.656775763875
 20
-2.626467787085857
 10
4.688496723230046
 20
-2.629808310654804
 10
4.701974549259501
 20
-2.631221731219233
 10
4.695272362997557
 20
-2.594674471904605
 10
4.703481220772244
 20
-2.552843796797105
 10
4.689463497423022
 20
-2.561021008228003
 10
4.663472983723774
 20
-2.550077385910956
 10
4.718188860608708
 20
-2.529236481231161
 10
4.691385099876115
 20
-2.525012803152447
 10
4.648167628907154
 20
-2.520895197573887
 10
4.630690519849925
 20
-2.494497271114672
 10
4.688851289447155
 20
-2.509332397532766
 10
4.701404729369414
 20
-2.505719969086486
 97
        0
 97
        1
330
94
 92
        1
 93
        1
 72
     4
 94
        3
 73
     0
 74
     0
 95
       11
 96
        7
 40
0.0
 40
0.0
 40
0.0
 40
0.0
 40
1.0
 40
1.0
 40
1.0
 40
2.0
 40
2.0
 40
2.0
 40
2.0
 10
4.561410425983997
 20
-2.677513588878153
 10
4.545163677560645
 20
-2.677383385626019
 10
4.545429863924381
 20
-2.652392083392138
 10
4.561411745265104
 20
-2.652136510765709
 10
4.577692574179031
 20
-2.652427890528592
 10
4.577961700686828
 20
-2.67736010019717
 10
4.561410425983997
 20
-2.677513588878153
 97
        0
 97
        1
330
95
 92
        1
 93
        1
 72
     4
 94
        3
 73
     0
 74
     0
 95
       11
 96
        7
 40
0.0
 40
0.0
 40
0.0
 40
0.0
 40
1.0
 40
1.0
 40
1.0
 40
2.0
 40
2.0
 40
2.0
 40
2.0
 10
4.574241372164553
 20
-2.607662243392042
 10
4.574041979081989
 20
-2.62386291563247
 10
4.548908270664242
 20
-2.624059443001745
 10
4.548864406560849
 20
-2.607660821636121
 10
4.548904356218776
 20
-2.591254520417553
 10
4.574051939818698
 20
-2.591448600166409
 10
4.574241372164553
 20
-2.607662243392042
 97
        0
 97
        1
330
96
 92
        1
 93
        1
 72
     4
 94
        3
 73
     0
 74
     0
 95
       29
 96
       25
 40
0.0
 40
0.0
 40
0.0
 40
0.0
 40
1.0
 40
1.0
 40
1.0
 40
2.0
 40
2.0
 40
2.0
 40
3.0
 40
3.0
 40
3.0
 40
4.0
 40
4.0
 40
4.0
 40
5.0
 40
5.0
 40
5.0
 40
6.0
 40
6.0
 40
6.0
 40
7.0
 40
7.0
 40
7.0
 40
8.0
 40
8.0
 40
8.0
 40
8.0
 10
4.51687510697358
 20
-2.505719969086486
 10
4.537935879511223
 20
-2.516721591776306
 10
4.516103738097424
 20
-2.557491241224119
 10
4.528148241372238
 20
-2.564641279788752
 10
4.554483412856092
 20
-2.549787982520633
 10
4.563899232831342
 20
-2.498559087236496
 10
4.593480037880125
 20
-2.50571019101868
 10
4.599349163897664
 20
-2.546522878110256
 10
4.528062009180403
 20
-2.562048571237482
 10
4.527284312347218
 20
-2.601746623772113
 10
4.536085538575737
 20
-2.643169800802247
 10
4.494902398006994
 20
-2.714576328997635
 10
4.568119043759578
 20
-2.696752915288874
 10
4.589111496066252
 20
-2.694919449951435
 10
4.608181425195551
 20
-2.704778712781692
 10
4.609958791201657
 20
-2.681513001462563
 10
4.648765654500366
 20
-2.666654166905901
 10
4.626406623647577
 20
-2.732399318474815
 10
4.593278554069532
 20
-2.715708168029626
 10
4.56627543491211
 20
-2.709039273819522
 10
4.496674519970711
 20
-2.735696848984237
 10
4.504239172913281
 20
-2.690350961860657
 10
4.513752902858337
 20
-2.634381382977279
 10
4.484474929093695
 20
-2.547881926356947
 10
4.51687510697358
 20
-2.505719969086486
 97
        0
 97
        1
330
97
 75
     2
 76
     1
 98
        1
 10
0.0
 20
0.0
450
        0
451
        0
460
0.0
461
0.0
452
        0
462
0.0
453
        0
470

  0
SPLINE
  5
99
330
70
100
AcDbEntity
  8
Poneglyph
100
AcDbSpline
210
0.0
220
0.0
230
1.0
 70
     9
 71
     3
 72
    11
 73
     7
 74
     0
 42
0.0000000001
 43
0.0000000001
 40
0.0
 40
0.0
 40
0.0
 40
0.0
 40
1.0
 40
1.0
 40
1.0
 40
2.0
 40
2.0
 40
2.0
 40
2.0
 10
4.67797944438861
 20
-3.167632338740531
 30
0.0
 10
4.677569357687969
 20
-3.183411407283806
 30
0.0
 10
4.646367975822941
 20
-3.185758161869923
 30
0.0
 10
4.646186969996935
 20
-3.167631723096241
 30
0.0
 10
4.6435731529968
 20
-3.141830120988995
 30
0.0
 10
4.680161645866999
 20
-3.143639554547487
 30
0.0
 10
4.67797944438861
 20
-3.167632338740531
 30
0.0
  0
SPLINE
  5
9A
330
70
100
AcDbEntity
  8
Poneglyph
100
AcDbSpline
210
0.0
220
0.0
230
1.0
 70
     9
 71
     3
 72
    11
 73
     7
 74
     0
 42
0.0000000001
 43
0.0000000001
 40
0.0
 40
0.0
 40
0.0
 40
0.0
 40
1.0
 40
1.0
 40
1.0
 40
2.0
 40
2.0
 40
2.0
 40
2.0
 10
4.576186367131665
 20
-3.199614760615531
 30
0.0
 10
4.592288762357207
 20
-3.178455729584053
 30
0.0
 10
4.748785904653837
 20
-3.200522837655524
 30
0.0
 10
4.652602285201206
 20
-3.212262862018708
 30
0.0
 10
4.631392599496924
 20
-3.20701903059085
 30
0.0
 10
4.584578483103541
 20
-3.225398776436476
 30
0.0
 10
4.576186367131665
 20
-3.199614760615531
 30
0.0
  0
SPLINE
  5
9B
330
70
100
AcDbEntity
  8
Poneglyph
100
AcDbSpline
210
0.0
220
0.0
230
1.0
 70
     9
 71
     3
 72
    11
 73
     7
 74
     0
 42
0.0000000001
 43
0.0000000001
 40
0.0
 40
0.0
 40
0.0
 40
0.0
 40
1.0
 40
1.0
 40
1.0
 40
2.0
 40
2.0
 40
2.0
 40
2.0
 10
4.569770894041387
 20
-3.110462742386364
 30
0.0
 10
4.597558636239303
 20
-3.115681207078093
 30
0.0
 10
4.573164895364343
 20
-3.148000840530509
 30
0.0
 10
4.555622990354069
 20
-3.131902965096363
 30
0.0
 10
4.543629606243004
 20
-3.122054816671758
 30
0.0
 10
4.556358958563451
 20
-3.109155408065842
 30
0.0
 10
4.569770894041387
 20
-3.110462742386364
 30
0.0
  0
SPLINE
  5
9C
330
70
100
AcDbEntity
  8
Poneglyph
100
AcDbSpline
210
0.0
220
0.0
230
1.0
 70
     9
 71
     3
 72
    11
 73
     7
 74
     0
 42
0.0000000001
 43
0.0000000001
 40
0.0
 40
0.0
 40
0.0
 40
0.0
 40
1.0
 40
1.0
 40
1.0
 40
2.0
 40
2.0
 40
2.0
 40
2.0
 10
4.569770894041387
 20
-3.155086223289142
 30
0.0
 10
4.608387412175361
 20
-3.158247106956296
 30
0.0
 10
4.615418608104619
 20
-3.09963886769295
 30
0.0
 10
4.579399660357315
 20
-3.091948815726532
 30
0.0
 10
4.528568307818406
 20
-3.076629772271997
 30
0.0
 10
4.516849454081667
 20
-3.154486763322261
 30
0.0
 10
4.569770894041387
 20
-3.155086223289142
 30
0.0
  0
SPLINE
  5
9D
330
70
100
AcDbEntity
  8
Poneglyph
100
AcDbSpline
210
0.0
220
0.0
230
1.0
 70
     9
 71
     3
 72
    32
 73
    28
 74
     0
 42
0.0000000001
 43
0.0000000001
 40
0.0
 40
0.0
 40
0.0
 40
0.0
 40
1.0
 40
1.0
 40
1.0
 40
2.0
 40
2.0
 40
2.0
 40
3.0
 40
3.0
 40
3.0
 40
4.0
 40
4.0
 40
4.0
 40
5.0
 40
5.0
 40
5.0
 40
6.0
 40
6.0
 40
6.0
 40
7.0
 40
7.0
 40
7.0
 40
8.0
 40
8.0
 40
8.0
 40
9.0
 40
9.0
 40
9.0
 40
9.0
 10
4.709771979110832
 20
-3.116878215476642
 30
0.0
 10
4.735628751965628
 20
-3.128104875486289
 30
0.0
 10
4.699587603778935
 20
-3.370583018753778
 30
0.0
 10
4.696193836389157
 20
-3.251777711623541
 30
0.0
 10
4.67826731495087
 20
-3.231314632003002
 30
0.0
 10
4.621383685075291
 20
-3.250245341230639
 30
0.0
 10
4.601565222382658
 20
-3.250446108377041
 30
0.0
 10
4.59293869971192
 20
-3.268794281747507
 30
0.0
 10
4.581298669637716
 20
-3.306238217561915
 30
0.0
 10
4.576168835685241
 20
-3.256871941355787
 30
0.0
 10
4.561611947735324
 20
-3.177559484096011
 30
0.0
 10
4.705377044489725
 20
-3.271629808971435
 30
0.0
 10
4.69621286273021
 20
-3.204934497231912
 30
0.0
 10
4.696183354966478
 20
-3.115479884277697
 30
0.0
 10
4.686806168021727
 20
-3.162850544970776
 30
0.0
 10
4.626926287722451
 20
-3.123022190969625
 30
0.0
 10
4.619714664863699
 20
-3.182163841658039
 30
0.0
 10
4.546263103466444
 20
-3.190010121545633
 30
0.0
 10
4.514496325656586
 20
-3.147065519579326
 30
0.0
 10
4.493402223886808
 20
-3.076653397235683
 30
0.0
 10
4.59086249899542
 20
-3.038631955809731
 30
0.0
 10
4.620528664631692
 20
-3.104055069608976
 30
0.0
 10
4.620766523808015
 20
-3.085304350681604
 30
0.0
 10
4.624362447368993
 20
-3.056469308129357
 30
0.0
 10
4.646198983845427
 20
-3.078669919103958
 30
0.0
 10
4.625423348741807
 20
-3.141522594618133
 30
0.0
 10
4.684518056102584
 20
-3.110654059133973
 30
0.0
 10
4.709771979110832
 20
-3.116878215476642
 30
0.0
  0
SPLINE
  5
9E
330
70
100
AcDbEntity
  8
Poneglyph
100
AcDbSpline
210
0.0
220
0.0
230
1.0
 70
     9
 71
     3
 72
    17
 73
    13
 74
     0
 42
0.0000000001
 43
0.0000000001
 40
0.0
 40
0.0
 40
0.0
 40
0.0
 40
1.0
 40
1.0
 40
1.0
 40
2.0
 40
2.0
 40
2.0
 40
3.0
 40
3.0
 40
3.0
 40
4.0
 40
4.0
 40
4.0
 40
4.0
 10
4.55080930549972
 20
-3.180463284921087
 30
0.0
 10
4.577738598268145
 20
-3.189108126150206
 30
0.0
 10
4.55735866820353
 20
-3.239991812673274
 30
0.0
 10
4.563364340775302
 20
-3.263291582235499
 30
0.0
 10
4.563005472464459
 20
-3.283765145714874
 30
0.0
 10
4.490139526700684
 20
-3.28352918352852
 30
0.0
 10
4.508952386942685
 20
-3.25790193728105
 30
0.0
 10
4.555900252630332
 20
-3.270640299320625
 30
0.0
 10
4.545944896966728
 20
-3.231320425726178
 30
0.0
 10
4.544394678109281
 20
-3.199416223906129
 30
0.0
 10
4.488019089009664
 20
-3.20227501368855
 30
0.0
 10
4.503706186583005
 20
-3.17270146882452
 30
0.0
 10
4.55080930549972
 20
-3.180463284921087
 30
0.0
  0
HATCH
  5
9F
330
70
100
AcDbEntity
  8
Poneglyph
 62
   250
420
  2301728
440
 33554687
100
AcDbHatch
 10
0.0
 20
0.0
 30
0.0
210
0.0
220
0.0
230
1.0
  2
SOLID
 70
     1
 71
     1
 91
        6
 92
        1
 93
        1
 72
     4
 94
        3
 73
     0
 74
     0
 95
       11
 96
        7
 40
0.0
 40
0.0
 40
0.0
 40
0.0
 40
1.0
 40
1.0
 40
1.0
 40
2.0
 40
2.0
 40
2.0
 40
2.0
 10
4.67797944438861
 20
-3.167632338740531
 10
4.677569357687969
 20
-3.183411407283806
 10
4.646367975822941
 20
-3.185758161869923
 10
4.646186969996935
 20
-3.167631723096241
 10
4.6435731529968
 20
-3.141830120988995
 10
4.680161645866999
 20
-3.143639554547487
 10
4.67797944438861
 20
-3.167632338740531
 97
        0
 97
        1
330
99
 92
        1
 93
        1
 72
     4
 94
        3
 73
     0
 74
     0
 95
       11
 96
        7
 40
0.0
 40
0.0
 40
0.0
 40
0.0
 40
1.0
 40
1.0
 40
1.0
 40
2.0
 40
2.0
 40
2.0
 40
2.0
 10
4.576186367131665
 20
-3.199614760615531
 10
4.592288762357207
 20
-3.178455729584053
 10
4.748785904653837
 20
-3.200522837655524
 10
4.652602285201206
 20
-3.212262862018708
 10
4.631392599496924
 20
-3.20701903059085
 10
4.584578483103541
 20
-3.225398776436476
 10
4.576186367131665
 20
-3.199614760615531
 97
        0
 97
        1
330
9A
 92
        1
 93
        1
 72
     4
 94
        3
 73
     0
 74
     0
 95
       11
 96
        7
 40
0.0
 40
0.0
 40
0.0
 40
0.0
 40
1.0
 40
1.0
 40
1.0
 40
2.0
 40
2.0
 40
2.0
 40
2.0
 10
4.569770894041387
 20
-3.110462742386364
 10
4.597558636239303
 20
-3.115681207078093
 10
4.573164895364343
 20
-3.148000840530509
 10
4.555622990354069
 20
-3.131902965096363
 10
4.543629606243004
 20
-3.122054816671758
 10
4.556358958563451
 20
-3.109155408065842
 10
4.569770894041387
 20
-3.110462742386364
 97
        0
 97
        1
330
9B
 92
        1
 93
        1
 72
     4
 94
        3
 73
     0
 74
     0
 95
       11
 96
        7
 40
0.0
 40
0.0
 40
0.0
 40
0.0
 40
1.0
 40
1.0
 40
1.0
 40
2.0
 40
2.0
 40
2.0
 40
2.0
 10
4.569770894041387
 20
-3.155086223289142
 10
4.608387412175361
 20
-3.158247106956296
 10
4.615418608104619
 20
-3.09963886769295
 10
4.579399660357315
 20
-3.091948815726532
 10
4.528568307818406
 20
-3.076629772271997
 10
4.516849454081667
 20
-3.154486763322261
 10
4.569770894041387
 20
-3.155086223289142
 97
        0
 97
        1
330
9C
 92
        1
 93
        1
 72
     4
 94
        3
 73
     0
 74
     0
 95
       32
 96
       28
 40
0.0
 40
0.0
 40
0.0
 40
0.0
 40
1.0
 40
1.0
 40
1.0
 40
2.0
 40
2.0
 40
2.0
 40
3.0
 40
3.0
 40
3.0
 40
4.0
 40
4.0
 40
4.0
 40
5.0
 40
5.0
 40
5.0
 40
6.0
 40
6.0
 40
6.0
 40
7.0
 40
7.0
 40
7.0
 40
8.0
 40
8.0
 40
8.0
 40
9.0
 40
9.0
 40
9.0
 40
9.0
 10
4.709771979110832
 20
-3.116878215476642
 10
4.735628751965628
 20
-3.128104875486289
 10
4.699587603778935
 20
-3.370583018753778
 10
4.696193836389157
 20
-3.251777711623541
 10
4.67826731495087
 20
-3.231314632003002
 10
4.621383685075291
 20
-3.250245341230639
 10
4.601565222382658
 20
-3.250446108377041
 10
4.59293869971192
 20
-3.268794281747507
 10
4.581298669637716
 20
-3.306238217561915
 10
4.576168835685241
 20
-3.256871941355787
 10
4.561611947735324
 20
-3.177559484096011
 10
4.705377044489725
 20
-3.271629808971435
 10
4.69621286273021
 20
-3.204934497231912
 10
4.696183354966478
 20
-3.115479884277697
 10
4.686806168021727
 20
-3.162850544970776
 10
4.626926287722451
 20
-3.123022190969625
 10
4.619714664863699
 20
-3.182163841658039
 10
4.546263103466444
 20
-3.190010121545633
 10
4.514496325656586
 20
-3.147065519579326
 10
4.493402223886808
 20
-3.076653397235683
 10
4.59086249899542
 20
-3.038631955809731
 10
4.620528664631692
 20
-3.104055069608976
 10
4.620766523808015
 20
-3.085304350681604
 10
4.624362447368993
 20
-3.056469308129357
 10
4.646198983845427
 20
-3.078669919103958
 10
4.625423348741807
 20
-3.141522594618133
 10
4.684518056102584
 20
-3.110654059133973
 10
4.709771979110832
 20
-3.116878215476642
 97
        0
 97
        1
330
9D
 92
        1
 93
        1
 72
     4
 94
        3
 73
     0
 74
     0
 95
       17
 96
       13
 40
0.0
 40
0.0
 40
0.0
 40
0.0
 40
1.0
 40
1.0
 40
1.0
 40
2.0
 40
2.0
 40
2.0
 40
3.0
 40
3.0
 40
3.0
 40
4.0
 40
4.0
 40
4.0
 40
4.0
 10
4.55080930549972
 20
-3.180463284921087
 10
4.577738598268145
 20
-3.189108126150206
 10
4.55735866820353
 20
-3.239991812673274
 10
4.563364340775302
 20
-3.263291582235499
 10
4.563005472464459
 20
-3.283765145714874
 10
4.490139526700684
 20
-3.28352918352852
 10
4.508952386942685
 20
-3.25790193728105
 10
4.555900252630332
 20
-3.270640299320625
 10
4.545944896966728
 20
-3.231320425726178
 10
4.544394678109281
 20
-3.199416223906129
 10
4.488019089009664
 20
-3.20227501368855
 10
4.503706186583005
 20
-3.17270146882452
 10
4.55080930549972
 20
-3.180463284921087
 97
        0
 97
        1
330
9E
 75
     2
 76
     1
 98
        1
 10
0.0
 20
0.0
450
        0
451
        0
460
0.0
461
0.0
452
        0
462
0.0
453
        0
470

  0
SPLINE
  5
A0
330
70
100
AcDbEntity
  8
Poneglyph
100
AcDbSpline
210
0.0
220
0.0
230
1.0
 70
     9
 71
     3
 72
    11
 73
     7
 74
     0
 42
0.0000000001
 43
0.0000000001
 40
0.0
 40
0.0
 40
0.0
 40
0.0
 40
1.0
 40
1.0
 40
1.0
 40
2.0
 40
2.0
 40
2.0
 40
2.0
 10
3.589879935532608
 20
-2.944809846505715
 30
0.0
 10
3.529580452753204
 20
-2.90684692420421
 30
0.0
 10
3.57609700780463
 20
-2.905982003638491
 30
0.0
 10
3.618623732770426
 20
-2.899754538051878
 30
0.0
 10
3.632256542577894
 20
-2.913449663786764
 30
0.0
 10
3.609980626353035
 20
-2.949891788350631
 30
0.0
 10
3.589879935532608
 20
-2.944809846505715
 30
0.0
  0
SPLINE
  5
A1
330
70
100
AcDbEntity
  8
Poneglyph
100
AcDbSpline
210
0.0
220
0.0
230
1.0
 70
     9
 71
     3
 72
    11
 73
     7
 74
     0
 42
0.0000000001
 43
0.0000000001
 40
0.0
 40
0.0
 40
0.0
 40
0.0
 40
1.0
 40
1.0
 40
1.0
 40
2.0
 40
2.0
 40
2.0
 40
2.0
 10
3.642383733275664
 20
-2.878891877755715
 30
0.0
 10
3.627105669682123
 20
-2.885099832237162
 30
0.0
 10
3.505324160003535
 20
-2.90864425929073
 30
0.0
 10
3.518420381758965
 20
-2.873229088271336
 30
0.0
 10
3.551476359010166
 20
-2.868557869553885
 30
0.0
 10
3.620256828504882
 20
-2.850212282929545
 30
0.0
 10
3.642383733275664
 20
-2.878891877755715
 30
0.0
  0
SPLINE
  5
A2
330
70
100
AcDbEntity
  8
Poneglyph
100
AcDbSpline
210
0.0
220
0.0
230
1.0
 70
     9
 71
     3
 72
    26
 73
    22
 74
     0
 42
0.0000000001
 43
0.0000000001
 40
0.0
 40
0.0
 40
0.0
 40
0.0
 40
1.0
 40
1.0
 40
1.0
 40
2.0
 40
2.0
 40
2.0
 40
3.0
 40
3.0
 40
3.0
 40
4.0
 40
4.0
 40
4.0
 40
5.0
 40
5.0
 40
5.0
 40
6.0
 40
6.0
 40
6.0
 40
7.0
 40
7.0
 40
7.0
 40
7.0
 10
3.681758190740942
 20
-2.826686474109881
 30
0.0
 10
3.700666179690225
 20
-2.821357494185134
 30
0.0
 10
3.671892348539952
 20
-2.895692451785066
 30
0.0
 10
3.681773224766377
 20
-2.925265183119197
 30
0.0
 10
3.694415667338792
 20
-2.985190810337762
 30
0.0
 10
3.658828772289641
 20
-3.014855315235649
 30
0.0
 10
3.600666109962339
 20
-3.000513543321592
 30
0.0
 10
3.604354428333307
 20
-2.956241085348551
 30
0.0
 10
3.675091240309648
 20
-3.022698395537279
 30
0.0
 10
3.655486093629595
 20
-2.912140956214481
 30
0.0
 10
3.671701084699027
 20
-2.821287969764789
 30
0.0
 10
3.625150658852084
 20
-2.849335332524447
 30
0.0
 10
3.556909629122704
 20
-2.846236602537992
 30
0.0
 10
3.459311848637209
 20
-2.835162318264224
 30
0.0
 10
3.593923422193281
 20
-2.818779701010814
 30
0.0
 10
3.629250100449755
 20
-2.826704659926399
 30
0.0
 10
3.659545681425015
 20
-2.835583728232083
 30
0.0
 10
3.664494667378499
 20
-2.819463729367283
 30
0.0
 10
3.655498312258158
 20
-2.793724232977802
 30
0.0
 10
3.681583280354276
 20
-2.771151777662389
 30
0.0
 10
3.684139948301397
 20
-2.80961477289294
 30
0.0
 10
3.681758190740942
 20
-2.826686474109881
 30
0.0
  0
SPLINE
  5
A3
330
70
100
AcDbEntity
  8
Poneglyph
100
AcDbSpline
210
0.0
220
0.0
230
1.0
 70
     9
 71
     3
 72
    20
 73
    16
 74
     0
 42
0.0000000001
 43
0.0000000001
 40
0.0
 40
0.0
 40
0.0
 40
0.0
 40
1.0
 40
1.0
 40
1.0
 40
2.0
 40
2.0
 40
2.0
 40
3.0
 40
3.0
 40
3.0
 40
4.0
 40
4.0
 40
4.0
 40
5.0
 40
5.0
 40
5.0
 40
5.0
 10
3.537382919473581
 20
-2.957939186783492
 30
0.0
 10
3.494804829747181
 20
-2.923078941613122
 30
0.0
 10
3.473693074950498
 20
-2.999014658957081
 30
0.0
 10
3.524251978545483
 20
-2.98419096544511
 30
0.0
 10
3.587908502480445
 20
-2.982006223563239
 30
0.0
 10
3.542019053072547
 20
-3.01474766784247
 30
0.0
 10
3.504422014717887
 20
-3.003715904195499
 30
0.0
 10
3.450132452678606
 20
-3.017898090345511
 30
0.0
 10
3.472918975206968
 20
-2.92578985488021
 30
0.0
 10
3.475823355455645
 20
-2.895519834583271
 30
0.0
 10
3.500145499452438
 20
-2.881424668916262
 30
0.0
 10
3.497013506160176
 20
-2.922001161008829
 30
0.0
 10
3.49129438554563
 20
-2.931688158470213
 30
0.0
 10
3.508275584513095
 20
-2.932194024156956
 30
0.0
 10
3.579168475951278
 20
-2.930627220201649
 30
0.0
 10
3.537382919473581
 20
-2.957939186783492
 30
0.0
  0
SPLINE
  5
A4
330
70
100
AcDbEntity
  8
Poneglyph
100
AcDbSpline
210
0.0
220
0.0
230
1.0
 70
     9
 71
     3
 72
    11
 73
     7
 74
     0
 42
0.0000000001
 43
0.0000000001
 40
0.0
 40
0.0
 40
0.0
 40
0.0
 40
1.0
 40
1.0
 40
1.0
 40
2.0
 40
2.0
 40
2.0
 40
2.0
 10
3.550213865654136
 20
-2.793727489734881
 30
0.0
 10
3.510429617512449
 20
-2.83207871507318
 30
0.0
 10
3.473952170160322
 20
-2.769078832491724
 30
0.0
 10
3.498026874095103
 20
-2.865791732727896
 30
0.0
 10
3.47106026180615
 20
-2.928093903967704
 30
0.0
 10
3.428119667007725
 20
-2.736751392186091
 30
0.0
 10
3.550213865654136
 20
-2.793727489734881
 30
0.0
  0
HATCH
  5
A5
330
70
100
AcDbEntity
  8
Poneglyph
 62
   250
420
  2301728
440
 33554687
100
AcDbHatch
 10
0.0
 20
0.0
 30
0.0
210
0.0
220
0.0
230
1.0
  2
SOLID
 70
     1
 71
     1
 91
        5
 92
        1
 93
        1
 72
     4
 94
        3
 73
     0
 74
     0
 95
       11
 96
        7
 40
0.0
 40
0.0
 40
0.0
 40
0.0
 40
1.0
 40
1.0
 40
1.0
 40
2.0
 40
2.0
 40
2.0
 40
2.0
 10
3.589879935532608
 20
-2.944809846505715
 10
3.529580452753204
 20
-2.90684692420421
 10
3.57609700780463
 20
-2.905982003638491
 10
3.618623732770426
 20
-2.899754538051878
 10
3.632256542577894
 20
-2.913449663786764
 10
3.609980626353035
 20
-2.949891788350631
 10
3.589879935532608
 20
-2.944809846505715
 97
        0
 97
        1
330
A0
 92
        1
 93
        1
 72
     4
 94
        3
 73
     0
 74
     0
 95
       11
 96
        7
 40
0.0
 40
0.0
 40
0.0
 40
0.0
 40
1.0
 40
1.0
 40
1.0
 40
2.0
 40
2.0
 40
2.0
 40
2.0
 10
3.642383733275664
 20
-2.878891877755715
 10
3.627105669682123
 20
-2.885099832237162
 10
3.505324160003535
 20
-2.90864425929073
 10
3.518420381758965
 20
-2.873229088271336
 10
3.551476359010166
 20
-2.868557869553885
 10
3.620256828504882
 20
-2.850212282929545
 10
3.642383733275664
 20
-2.878891877755715
 97
        0
 97
        1
330
A1
 92
        1
 93
        1
 72
     4
 94
        3
 73
     0
 74
     0
 95
       26
 96
       22
 40
0.0
 40
0.0
 40
0.0
 40
0.0
 40
1.0
 40
1.0
 40
1.0
 40
2.0
 40
2.0
 40
2.0
 40
3.0
 40
3.0
 40
3.0
 40
4.0
 40
4.0
 40
4.0
 40
5.0
 40
5.0
 40
5.0
 40
6.0
 40
6.0
 40
6.0
 40
7.0
 40
7.0
 40
7.0
 40
7.0
 10
3.681758190740942
 20
-2.826686474109881
 10
3.700666179690225
 20
-2.821357494185134
 10
3.671892348539952
 20
-2.895692451785066
 10
3.681773224766377
 20
-2.925265183119197
 10
3.694415667338792
 20
-2.985190810337762
 10
3.658828772289641
 20
-3.014855315235649
 10
3.600666109962339
 20
-3.000513543321592
 10
3.604354428333307
 20
-2.956241085348551
 10
3.675091240309648
 20
-3.022698395537279
 10
3.655486093629595
 20
-2.912140956214481
 10
3.671701084699027
 20
-2.821287969764789
 10
3.625150658852084
 20
-2.849335332524447
 10
3.556909629122704
 20
-2.846236602537992
 10
3.459311848637209
 20
-2.835162318264224
 10
3.593923422193281
 20
-2.818779701010814
 10
3.629250100449755
 20
-2.826704659926399
 10
3.659545681425015
 20
-2.835583728232083
 10
3.664494667378499
 20
-2.819463729367283
 10
3.655498312258158
 20
-2.793724232977802
 10
3.681583280354276
 20
-2.771151777662389
 10
3.684139948301397
 20
-2.80961477289294
 10
3.681758190740942
 20
-2.826686474109881
 97
        0
 97
        1
330
A2
 92
        1
 93
        1
 72
     4
 94
        3
 73
     0
 74
     0
 95
       20
 96
       16
 40
0.0
 40
0.0
 40
0.0
 40
0.0
 40
1.0
 40
1.0
 40
1.0
 40
2.0
 40
2.0
 40
2.0
 40
3.0
 40
3.0
 40
3.0
 40
4.0
 40
4.0
 40
4.0
 40
5.0
 40
5.0
 40
5.0
 40
5.0
 10
3.537382919473581
 20
-2.957939186783492
 10
3.494804829747181
 20
-2.923078941613122
 10
3.473693074950498
 20
-2.999014658957081
 10
3.524251978545483
 20
-2.98419096544511
 10
3.587908502480445
 20
-2.982006223563239
 10
3.542019053072547
 20
-3.01474766784247
 10
3.504422014717887
 20
-3.003715904195499
 10
3.450132452678606
 20
-3.017898090345511
 10
3.472918975206968
 20
-2.92578985488021
 10
3.475823355455645
 20
-2.895519834583271
 10
3.500145499452438
 20
-2.881424668916262
 10
3.497013506160176
 20
-2.922001161008829
 10
3.49129438554563
 20
-2.931688158470213
 10
3.508275584513095
 20
-2.932194024156956
 10
3.579168475951278
 20
-2.930627220201649
 10
3.537382919473581
 20
-2.957939186783492
 97
        0
 97
        1
330
A3
 92
        1
 93
        1
 72
     4
 94
        3
 73
     0
 74
     0
 95
       11
 96
        7
 40
0.0
 40
0.0
 40
0.0
 40
0.0
 40
1.0
 40
1.0
 40
1.0
 40
2.0
 40
2.0
 40
2.0
 40
2.0
 10
3.550213865654136
 20
-2.793727489734881
 10
3.510429617512449
 20
-2.83207871507318
 10
3.473952170160322
 20
-2.769078832491724
 10
3.498026874095103
 20
-2.865791732727896
 10
3.47106026180615
 20
-2.928093903967704
 10
3.428119667007725
 20
-2.736751392186091
 10
3.550213865654136
 20
-2.793727489734881
 97
        0
 97
        1
330
A4
 75
     2
 76
     1
 98
        1
 10
0.0
 20
0.0
450
        0
451
        0
460
0.0
461
0.0
452
        0
462
0.0
453
        0
470

  0
SPLINE
  5
A6
330
70
100
AcDbEntity
  8
Poneglyph
100
AcDbSpline
210
0.0
220
0.0
230
1.0
 70
     9
 71
     3
 72
    11
 73
     7
 74
     0
 42
0.0000000001
 43
0.0000000001
 40
0.0
 40
0.0
 40
0.0
 40
0.0
 40
1.0
 40
1.0
 40
1.0
 40
2.0
 40
2.0
 40
2.0
 40
2.0
 10
3.867542424681914
 20
-2.871895516683379
 30
0.0
 10
3.868720710018806
 20
-2.885127002889071
 30
0.0
 10
3.855539686791391
 20
-2.950216305752241
 30
0.0
 10
3.878605744321122
 20
-2.947883833830928
 30
0.0
 10
3.881196394508403
 20
-2.936063264993284
 30
0.0
 10
3.892173499511095
 20
-2.842138311042567
 30
0.0
 10
3.867542424681914
 20
-2.871895516683379
 30
0.0
  0
SPLINE
  5
A7
330
70
100
AcDbEntity
  8
Poneglyph
100
AcDbSpline
210
0.0
220
0.0
230
1.0
 70
     9
 71
     3
 72
    17
 73
    13
 74
     0
 42
0.0000000001
 43
0.0000000001
 40
0.0
 40
0.0
 40
0.0
 40
0.0
 40
1.0
 40
1.0
 40
1.0
 40
2.0
 40
2.0
 40
2.0
 40
3.0
 40
3.0
 40
3.0
 40
4.0
 40
4.0
 40
4.0
 40
4.0
 10
3.873957897772192
 20
-2.964058602620879
 30
0.0
 10
3.829506173312299
 20
-2.976106539302135
 30
0.0
 10
3.837456187811842
 20
-2.925208054462144
 30
0.0
 10
3.84770459435467
 20
-2.898149721807966
 30
0.0
 10
3.854248249953785
 20
-2.880547784795251
 30
0.0
 10
3.828135960475555
 20
-2.850115540667072
 30
0.0
 10
3.854701208708736
 20
-2.845649569277434
 30
0.0
 10
3.894069599927686
 20
-2.841310507678877
 30
0.0
 10
3.906245987325822
 20
-2.861074493211289
 30
0.0
 10
3.900201741024197
 20
-2.898158547331199
 30
0.0
 10
3.895478600989412
 20
-2.924151901949724
 30
0.0
 10
3.916780210629162
 20
-2.974881505934085
 30
0.0
 10
3.873957897772192
 20
-2.964058602620879
 30
0.0
  0
SPLINE
  5
A8
330
70
100
AcDbEntity
  8
Poneglyph
100
AcDbSpline
210
0.0
220
0.0
230
1.0
 70
     9
 71
     3
 72
    11
 73
     7
 74
     0
 42
0.0000000001
 43
0.0000000001
 40
0.0
 40
0.0
 40
0.0
 40
0.0
 40
1.0
 40
1.0
 40
1.0
 40
2.0
 40
2.0
 40
2.0
 40
2.0
 10
3.808623153848581
 20
-2.832819453315323
 30
0.0
 10
3.80894885248084
 20
-2.816437485934379
 30
0.0
 10
3.84111783360514
 20
-2.81379035640556
 30
0.0
 10
3.841290498020056
 20
-2.832820282150325
 30
0.0
 10
3.844114137029098
 20
-2.859599541062
 30
0.0
 10
3.806374386051768
 20
-2.857297219123968
 30
0.0
 10
3.808623153848581
 20
-2.832819453315323
 30
0.0
  0
SPLINE
  5
A9
330
70
100
AcDbEntity
  8
Poneglyph
100
AcDbSpline
210
0.0
220
0.0
230
1.0
 70
     9
 71
     3
 72
    26
 73
    22
 74
     0
 42
0.0000000001
 43
0.0000000001
 40
0.0
 40
0.0
 40
0.0
 40
0.0
 40
1.0
 40
1.0
 40
1.0
 40
2.0
 40
2.0
 40
2.0
 40
3.0
 40
3.0
 40
3.0
 40
4.0
 40
4.0
 40
4.0
 40
5.0
 40
5.0
 40
5.0
 40
6.0
 40
6.0
 40
6.0
 40
7.0
 40
7.0
 40
7.0
 40
7.0
 10
3.939875866522192
 20
-2.786731128662545
 30
0.0
 10
3.964481143468951
 20
-2.813136292256659
 30
0.0
 10
3.938416723196016
 20
-2.861930257120472
 30
0.0
 10
3.946301681908481
 20
-2.898152546654778
 30
0.0
 10
3.940526169843526
 20
-2.934023741144983
 30
0.0
 10
3.973357376912771
 20
-3.014160688896152
 30
0.0
 10
3.913628072205028
 20
-3.00314946255134
 30
0.0
 10
3.880374328922698
 20
-3.002480716664194
 30
0.0
 10
3.842208539200479
 20
-3.004460885461083
 30
0.0
 10
3.809355494753718
 20
-3.002417458544111
 30
0.0
 10
3.790853544708637
 20
-2.932449201318755
 30
0.0
 10
3.819061146260752
 20
-2.923979600807595
 30
0.0
 10
3.835735623006459
 20
-2.98594159161909
 30
0.0
 10
3.97822642859387
 20
-2.986786077781693
 30
0.0
 10
3.91335594018263
 20
-2.9798909428876
 30
0.0
 10
3.926465153026558
 20
-2.826097618247129
 30
0.0
 10
3.901222044158354
 20
-2.873298326824927
 30
0.0
 10
3.820330320531221
 20
-2.82314323089996
 30
0.0
 10
3.854700670311672
 20
-2.786725370883105
 30
0.0
 10
3.894569115637523
 20
-2.844923900456983
 30
0.0
 10
3.889978644754061
 20
-2.822563831766931
 30
0.0
 10
3.939875866522192
 20
-2.786731128662545
 30
0.0
  0
SPLINE
  5
AA
330
70
100
AcDbEntity
  8
Poneglyph
100
AcDbSpline
210
0.0
220
0.0
230
1.0
 70
     9
 71
     3
 72
    17
 73
    13
 74
     0
 42
0.0000000001
 43
0.0000000001
 40
0.0
 40
0.0
 40
0.0
 40
0.0
 40
1.0
 40
1.0
 40
1.0
 40
2.0
 40
2.0
 40
2.0
 40
3.0
 40
3.0
 40
3.0
 40
4.0
 40
4.0
 40
4.0
 40
4.0
 10
3.736289712008303
 20
-2.924399314426434
 30
0.0
 10
3.697214944317276
 20
-2.88775327639976
 30
0.0
 10
3.87501211564337
 20
-2.902575105223781
 30
0.0
 10
3.815040494577285
 20
-2.924400913736058
 30
0.0
 10
3.771403591526475
 20
-2.916551374417597
 30
0.0
 10
3.771623166572756
 20
-2.931950373498036
 30
0.0
 10
3.775965312096167
 20
-2.970496777880422
 30
0.0
 10
3.786384346595064
 20
-3.013944878760437
 30
0.0
 10
3.740478801443146
 20
-3.012863157853239
 30
0.0
 10
3.749710556595939
 20
-2.970485881275685
 30
0.0
 10
3.753594058493427
 20
-2.951440964498462
 30
0.0
 10
3.772906559893789
 20
-2.912949317071252
 30
0.0
 10
3.736289712008303
 20
-2.924399314426434
 30
0.0
  0
SPLINE
  5
AB
330
70
100
AcDbEntity
  8
Poneglyph
100
AcDbSpline
210
0.0
220
0.0
230
1.0
 70
     9
 71
     3
 72
    20
 73
    16
 74
     0
 42
0.0000000001
 43
0.0000000001
 40
0.0
 40
0.0
 40
0.0
 40
0.0
 40
1.0
 40
1.0
 40
1.0
 40
2.0
 40
2.0
 40
2.0
 40
3.0
 40
3.0
 40
3.0
 40
4.0
 40
4.0
 40
4.0
 40
5.0
 40
5.0
 40
5.0
 40
5.0
 10
3.736289712008303
 20
-2.885309687690323
 30
0.0
 10
3.721608294208522
 20
-2.860040057894846
 30
0.0
 10
3.733530196315793
 20
-2.821822718869396
 30
0.0
 10
3.729868228471787
 20
-2.793147541425595
 30
0.0
 10
3.751004809075159
 20
-2.781407013628823
 30
0.0
 10
3.798776965647978
 20
-2.782663131423734
 30
0.0
 10
3.821460709417755
 20
-2.793133427046945
 30
0.0
 10
3.81574469314704
 20
-2.818179693731533
 30
0.0
 10
3.772834959605903
 20
-2.804103801940704
 30
0.0
 10
3.754520892368911
 20
-2.803649726342806
 30
0.0
 10
3.717783373132811
 20
-2.840065334278405
 30
0.0
 10
3.789110412217887
 20
-2.817489625109677
 30
0.0
 10
3.802204518605157
 20
-2.832812092978176
 30
0.0
 10
3.75630841881011
 20
-2.872849350907724
 30
0.0
 10
3.765755022713177
 20
-2.807268393876711
 30
0.0
 10
3.736289712008303
 20
-2.885309687690323
 30
0.0
  0
HATCH
  5
AC
330
70
100
AcDbEntity
  8
Poneglyph
 62
   250
420
  2301728
440
 33554687
100
AcDbHatch
 10
0.0
 20
0.0
 30
0.0
210
0.0
220
0.0
230
1.0
  2
SOLID
 70
     1
 71
     1
 91
        6
 92
        1
 93
        1
 72
     4
 94
        3
 73
     0
 74
     0
 95
       11
 96
        7
 40
0.0
 40
0.0
 40
0.0
 40
0.0
 40
1.0
 40
1.0
 40
1.0
 40
2.0
 40
2.0
 40
2.0
 40
2.0
 10
3.867542424681914
 20
-2.871895516683379
 10
3.868720710018806
 20
-2.885127002889071
 10
3.855539686791391
 20
-2.950216305752241
 10
3.878605744321122
 20
-2.947883833830928
 10
3.881196394508403
 20
-2.936063264993284
 10
3.892173499511095
 20
-2.842138311042567
 10
3.867542424681914
 20
-2.871895516683379
 97
        0
 97
        1
330
A6
 92
        1
 93
        1
 72
     4
 94
        3
 73
     0
 74
     0
 95
       17
 96
       13
 40
0.0
 40
0.0
 40
0.0
 40
0.0
 40
1.0
 40
1.0
 40
1.0
 40
2.0
 40
2.0
 40
2.0
 40
3.0
 40
3.0
 40
3.0
 40
4.0
 40
4.0
 40
4.0
 40
4.0
 10
3.873957897772192
 20
-2.964058602620879
 10
3.829506173312299
 20
-2.976106539302135
 10
3.837456187811842
 20
-2.925208054462144
 10
3.84770459435467
 20
-2.898149721807966
 10
3.854248249953785
 20
-2.880547784795251
 10
3.828135960475555
 20
-2.850115540667072
 10
3.854701208708736
 20
-2.845649569277434
 10
3.894069599927686
 20
-2.841310507678877
 10
3.906245987325822
 20
-2.861074493211289
 10
3.900201741024197
 20
-2.898158547331199
 10
3.895478600989412
 20
-2.924151901949724
 10
3.916780210629162
 20
-2.974881505934085
 10
3.873957897772192
 20
-2.964058602620879
 97
        0
 97
        1
330
A7
 92
        1
 93
        1
 72
     4
 94
        3
 73
     0
 74
     0
 95
       11
 96
        7
 40
0.0
 40
0.0
 40
0.0
 40
0.0
 40
1.0
 40
1.0
 40
1.0
 40
2.0
 40
2.0
 40
2.0
 40
2.0
 10
3.808623153848581
 20
-2.832819453315323
 10
3.80894885248084
 20
-2.816437485934379
 10
3.84111783360514
 20
-2.81379035640556
 10
3.841290498020056
 20
-2.832820282150325
 10
3.844114137029098
 20
-2.859599541062
 10
3.806374386051768
 20
-2.857297219123968
 10
3.808623153848581
 20
-2.832819453315323
 97
        0
 97
        1
330
A8
 92
        1
 93
        1
 72
     4
 94
        3
 73
     0
 74
     0
 95
       26
 96
       22
 40
0.0
 40
0.0
 40
0.0
 40
0.0
 40
1.0
 40
1.0
 40
1.0
 40
2.0
 40
2.0
 40
2.0
 40
3.0
 40
3.0
 40
3.0
 40
4.0
 40
4.0
 40
4.0
 40
5.0
 40
5.0
 40
5.0
 40
6.0
 40
6.0
 40
6.0
 40
7.0
 40
7.0
 40
7.0
 40
7.0
 10
3.939875866522192
 20
-2.786731128662545
 10
3.964481143468951
 20
-2.813136292256659
 10
3.938416723196016
 20
-2.861930257120472
 10
3.946301681908481
 20
-2.898152546654778
 10
3.940526169843526
 20
-2.934023741144983
 10
3.973357376912771
 20
-3.014160688896152
 10
3.913628072205028
 20
-3.00314946255134
 10
3.880374328922698
 20
-3.002480716664194
 10
3.842208539200479
 20
-3.004460885461083
 10
3.809355494753718
 20
-3.002417458544111
 10
3.790853544708637
 20
-2.932449201318755
 10
3.819061146260752
 20
-2.923979600807595
 10
3.835735623006459
 20
-2.98594159161909
 10
3.97822642859387
 20
-2.986786077781693
 10
3.91335594018263
 20
-2.9798909428876
 10
3.926465153026558
 20
-2.826097618247129
 10
3.901222044158354
 20
-2.873298326824927
 10
3.820330320531221
 20
-2.82314323089996
 10
3.854700670311672
 20
-2.786725370883105
 10
3.894569115637523
 20
-2.844923900456983
 10
3.889978644754061
 20
-2.822563831766931
 10
3.939875866522192
 20
-2.786731128662545
 97
        0
 97
        1
330
A9
 92
        1
 93
        1
 72
     4
 94
        3
 73
     0
 74
     0
 95
       17
 96
       13
 40
0.0
 40
0.0
 40
0.0
 40
0.0
 40
1.0
 40
1.0
 40
1.0
 40
2.0
 40
2.0
 40
2.0
 40
3.0
 40
3.0
 40
3.0
 40
4.0
 40
4.0
 40
4.0
 40
4.0
 10
3.736289712008303
 20
-2.924399314426434
 10
3.697214944317276
 20
-2.88775327639976
 10
3.87501211564337
 20
-2.902575105223781
 10
3.815040494577285
 20
-2.924400913736058
 10
3.771403591526475
 20
-2.916551374417597
 10
3.771623166572756
 20
-2.931950373498036
 10
3.775965312096167
 20
-2.970496777880422
 10
3.786384346595064
 20
-3.013944878760437
 10
3.740478801443146
 20
-3.012863157853239
 10
3.749710556595939
 20
-2.970485881275685
 10
3.753594058493427
 20
-2.951440964498462
 10
3.772906559893789
 20
-2.912949317071252
 10
3.736289712008303
 20
-2.924399314426434
 97
        0
 97
        1
330
AA
 92
        1
 93
        1
 72
     4
 94
        3
 73
     0
 74
     0
 95
       20
 96
       16
 40
0.0
 40
0.0
 40
0.0
 40
0.0
 40
1.0
 40
1.0
 40
1.0
 40
2.0
 40
2.0
 40
2.0
 40
3.0
 40
3.0
 40
3.0
 40
4.0
 40
4.0
 40
4.0
 40
5.0
 40
5.0
 40
5.0
 40
5.0
 10
3.736289712008303
 20
-2.885309687690323
 10
3.721608294208522
 20
-2.860040057894846
 10
3.733530196315793
 20
-2.821822718869396
 10
3.729868228471787
 20
-2.793147541425595
 10
3.751004809075159
 20
-2.781407013628823
 10
3.798776965647978
 20
-2.782663131423734
 10
3.821460709417755
 20
-2.793133427046945
 10
3.81574469314704
 20
-2.818179693731533
 10
3.772834959605903
 20
-2.804103801940704
 10
3.754520892368911
 20
-2.803649726342806
 10
3.717783373132811
 20
-2.840065334278405
 10
3.789110412217887
 20
-2.817489625109677
 10
3.802204518605157
 20
-2.832812092978176
 10
3.75630841881011
 20
-2.872849350907724
 10
3.765755022713177
 20
-2.807268393876711
 10
3.736289712008303
 20
-2.885309687690323
 97
        0
 97
        1
330
AB
 75
     2
 76
     1
 98
        1
 10
0.0
 20
0.0
450
        0
451
        0
460
0.0
461
0.0
452
        0
462
0.0
453
        0
470

  0
SPLINE
  5
AD
330
70
100
AcDbEntity
  8
Poneglyph
100
AcDbSpline
210
0.0
220
0.0
230
1.0
 70
     9
 71
     3
 72
    11
 73
     7
 74
     0
 42
0.0000000001
 43
0.0000000001
 40
0.0
 40
0.0
 40
0.0
 40
0.0
 40
1.0
 40
1.0
 40
1.0
 40
2.0
 40
2.0
 40
2.0
 40
2.0
 10
4.106122068779137
 20
-2.944809846505715
 30
0.0
 10
4.045822585999732
 20
-2.90684692420421
 30
0.0
 10
4.092339141051145
 20
-2.905982003638491
 30
0.0
 10
4.134865866016954
 20
-2.899754538051878
 30
0.0
 10
4.148498675824435
 20
-2.913449663786764
 30
0.0
 10
4.126222759599563
 20
-2.949891788350631
 30
0.0
 10
4.106122068779137
 20
-2.944809846505715
 30
0.0
  0
SPLINE
  5
AE
330
70
100
AcDbEntity
  8
Poneglyph
100
AcDbSpline
210
0.0
220
0.0
230
1.0
 70
     9
 71
     3
 72
    11
 73
     7
 74
     0
 42
0.0000000001
 43
0.0000000001
 40
0.0
 40
0.0
 40
0.0
 40
0.0
 40
1.0
 40
1.0
 40
1.0
 40
2.0
 40
2.0
 40
2.0
 40
2.0
 10
4.158625866522192
 20
-2.878891877755715
 30
0.0
 10
4.143347802928651
 20
-2.885099832237162
 30
0.0
 10
4.021566293250063
 20
-2.90864425929073
 30
0.0
 10
4.034662515005493
 20
-2.873229088271336
 30
0.0
 10
4.067718492256694
 20
-2.868557869553885
 30
0.0
 10
4.13649896175141
 20
-2.850212282929545
 30
0.0
 10
4.158625866522192
 20
-2.878891877755715
 30
0.0
  0
SPLINE
  5
AF
330
70
100
AcDbEntity
  8
Poneglyph
100
AcDbSpline
210
0.0
220
0.0
230
1.0
 70
     9
 71
     3
 72
    26
 73
    22
 74
     0
 42
0.0000000001
 43
0.0000000001
 40
0.0
 40
0.0
 40
0.0
 40
0.0
 40
1.0
 40
1.0
 40
1.0
 40
2.0
 40
2.0
 40
2.0
 40
3.0
 40
3.0
 40
3.0
 40
4.0
 40
4.0
 40
4.0
 40
5.0
 40
5.0
 40
5.0
 40
6.0
 40
6.0
 40
6.0
 40
7.0
 40
7.0
 40
7.0
 40
7.0
 10
4.19800032398747
 20
-2.826686474109881
 30
0.0
 10
4.216908312936766
 20
-2.821357494185134
 30
0.0
 10
4.188134481786493
 20
-2.895692451785066
 30
0.0
 10
4.198015358012904
 20
-2.925265183119197
 30
0.0
 10
4.21065780058532
 20
-2.985190810337762
 30
0.0
 10
4.175070905536181
 20
-3.014855315235649
 30
0.0
 10
4.116908243208879
 20
-3.000513543321592
 30
0.0
 10
4.120596561579835
 20
-2.956241085348551
 30
0.0
 10
4.191333373556188
 20
-3.022698395537279
 30
0.0
 10
4.17172822687611
 20
-2.912140956214481
 30
0.0
 10
4.187943217945555
 20
-2.821287969764789
 30
0.0
 10
4.141392792098612
 20
-2.849335332524447
 30
0.0
 10
4.073151762369231
 20
-2.846236602537992
 30
0.0
 10
3.97555398188375
 20
-2.835162318264224
 30
0.0
 10
4.110165555439809
 20
-2.818779701010814
 30
0.0
 10
4.145492233696282
 20
-2.826704659926399
 30
0.0
 10
4.175787814671543
 20
-2.835583728232083
 30
0.0
 10
4.180736800625027
 20
-2.819463729367283
 30
0.0
 10
4.171740445504686
 20
-2.793724232977802
 30
0.0
 10
4.197825413600816
 20
-2.771151777662389
 30
0.0
 10
4.200382081547937
 20
-2.80961477289294
 30
0.0
 10
4.19800032398747
 20
-2.826686474109881
 30
0.0
  0
SPLINE
  5
B0
330
70
100
AcDbEntity
  8
Poneglyph
100
AcDbSpline
210
0.0
220
0.0
230
1.0
 70
     9
 71
     3
 72
    20
 73
    16
 74
     0
 42
0.0000000001
 43
0.0000000001
 40
0.0
 40
0.0
 40
0.0
 40
0.0
 40
1.0
 40
1.0
 40
1.0
 40
2.0
 40
2.0
 40
2.0
 40
3.0
 40
3.0
 40
3.0
 40
4.0
 40
4.0
 40
4.0
 40
5.0
 40
5.0
 40
5.0
 40
5.0
 10
4.053625052720109
 20
-2.957939186783492
 30
0.0
 10
4.011046962993709
 20
-2.923078941613122
 30
0.0
 10
3.989935208197013
 20
-2.999014658957081
 30
0.0
 10
4.040494111792011
 20
-2.98419096544511
 30
0.0
 10
4.104150635726985
 20
-2.982006223563239
 30
0.0
 10
4.058261186319088
 20
-3.01474766784247
 30
0.0
 10
4.020664147964427
 20
-3.003715904195499
 30
0.0
 10
3.966374585925147
 20
-3.017898090345511
 30
0.0
 10
3.989161108453496
 20
-2.92578985488021
 30
0.0
 10
3.99206548870216
 20
-2.895519834583271
 30
0.0
 10
4.016387632698979
 20
-2.881424668916262
 30
0.0
 10
4.013255639406704
 20
-2.922001161008829
 30
0.0
 10
4.007536518792145
 20
-2.931688158470213
 30
0.0
 10
4.024517717759636
 20
-2.932194024156956
 30
0.0
 10
4.095410609197819
 20
-2.930627220201649
 30
0.0
 10
4.053625052720109
 20
-2.957939186783492
 30
0.0
  0
SPLINE
  5
B1
330
70
100
AcDbEntity
  8
Poneglyph
100
AcDbSpline
210
0.0
220
0.0
230
1.0
 70
     9
 71
     3
 72
    11
 73
     7
 74
     0
 42
0.0000000001
 43
0.0000000001
 40
0.0
 40
0.0
 40
0.0
 40
0.0
 40
1.0
 40
1.0
 40
1.0
 40
2.0
 40
2.0
 40
2.0
 40
2.0
 10
4.066455998900664
 20
-2.793727489734881
 30
0.0
 10
4.026671750758977
 20
-2.83207871507318
 30
0.0
 10
3.99019430340685
 20
-2.769078832491724
 30
0.0
 10
4.01426900734163
 20
-2.865791732727896
 30
0.0
 10
3.98730239505269
 20
-2.928093903967704
 30
0.0
 10
3.944361800254252
 20
-2.736751392186091
 30
0.0
 10
4.066455998900664
 20
-2.793727489734881
 30
0.0
  0
HATCH
  5
B2
330
70
100
AcDbEntity
  8
Poneglyph
 62
   250
420
  2301728
440
 33554687
100
AcDbHatch
 10
0.0
 20
0.0
 30
0.0
210
0.0
220
0.0
230
1.0
  2
SOLID
 70
     1
 71
     1
 91
        5
 92
        1
 93
        1
 72
     4
 94
        3
 73
     0
 74
     0
 95
       11
 96
        7
 40
0.0
 40
0.0
 40
0.0
 40
0.0
 40
1.0
 40
1.0
 40
1.0
 40
2.0
 40
2.0
 40
2.0
 40
2.0
 10
4.106122068779137
 20
-2.944809846505715
 10
4.045822585999732
 20
-2.90684692420421
 10
4.092339141051145
 20
-2.905982003638491
 10
4.134865866016954
 20
-2.899754538051878
 10
4.148498675824435
 20
-2.913449663786764
 10
4.126222759599563
 20
-2.949891788350631
 10
4.106122068779137
 20
-2.944809846505715
 97
        0
 97
        1
330
AD
 92
        1
 93
        1
 72
     4
 94
        3
 73
     0
 74
     0
 95
       11
 96
        7
 40
0.0
 40
0.0
 40
0.0
 40
0.0
 40
1.0
 40
1.0
 40
1.0
 40
2.0
 40
2.0
 40
2.0
 40
2.0
 10
4.158625866522192
 20
-2.878891877755715
 10
4.143347802928651
 20
-2.885099832237162
 10
4.021566293250063
 20
-2.90864425929073
 10
4.034662515005493
 20
-2.873229088271336
 10
4.067718492256694
 20
-2.868557869553885
 10
4.13649896175141
 20
-2.850212282929545
 10
4.158625866522192
 20
-2.878891877755715
 97
        0
 97
        1
330
AE
 92
        1
 93
        1
 72
     4
 94
        3
 73
     0
 74
     0
 95
       26
 96
       22
 40
0.0
 40
0.0
 40
0.0
 40
0.0
 40
1.0
 40
1.0
 40
1.0
 40
2.0
 40
2.0
 40
2.0
 40
3.0
 40
3.0
 40
3.0
 40
4.0
 40
4.0
 40
4.0
 40
5.0
 40
5.0
 40
5.0
 40
6.0
 40
6.0
 40
6.0
 40
7.0
 40
7.0
 40
7.0
 40
7.0
 10
4.19800032398747
 20
-2.826686474109881
 10
4.216908312936766
 20
-2.821357494185134
 10
4.188134481786493
 20
-2.895692451785066
 10
4.198015358012904
 20
-2.925265183119197
 10
4.21065780058532
 20
-2.985190810337762
 10
4.175070905536181
 20
-3.014855315235649
 10
4.116908243208879
 20
-3.000513543321592
 10
4.120596561579835
 20
-2.956241085348551
 10
4.191333373556188
 20
-3.022698395537279
 10
4.17172822687611
 20
-2.912140956214481
 10
4.187943217945555
 20
-2.821287969764789
 10
4.141392792098612
 20
-2.849335332524447
 10
4.073151762369231
 20
-2.846236602537992
 10
3.97555398188375
 20
-2.835162318264224
 10
4.110165555439809
 20
-2.818779701010814
 10
4.145492233696282
 20
-2.826704659926399
 10
4.175787814671543
 20
-2.835583728232083
 10
4.180736800625027
 20
-2.819463729367283
 10
4.171740445504686
 20
-2.793724232977802
 10
4.197825413600816
 20
-2.771151777662389
 10
4.200382081547937
 20
-2.80961477289294
 10
4.19800032398747
 20
-2.826686474109881
 97
        0
 97
        1
330
AF
 92
        1
 93
        1
 72
     4
 94
        3
 73
     0
 74
     0
 95
       20
 96
       16
 40
0.0
 40
0.0
 40
0.0
 40
0.0
 40
1.0
 40
1.0
 40
1.0
 40
2.0
 40
2.0
 40
2.0
 40
3.0
 40
3.0
 40
3.0
 40
4.0
 40
4.0
 40
4.0
 40
5.0
 40
5.0
 40
5.0
 40
5.0
 10
4.053625052720109
 20
-2.957939186783492
 10
4.011046962993709
 20
-2.923078941613122
 10
3.989935208197013
 20
-2.999014658957081
 10
4.040494111792011
 20
-2.98419096544511
 10
4.104150635726985
 20
-2.982006223563239
 10
4.058261186319088
 20
-3.01474766784247
 10
4.020664147964427
 20
-3.003715904195499
 10
3.966374585925147
 20
-3.017898090345511
 10
3.989161108453496
 20
-2.92578985488021
 10
3.99206548870216
 20
-2.895519834583271
 10
4.016387632698979
 20
-2.881424668916262
 10
4.013255639406704
 20
-2.922001161008829
 10
4.007536518792145
 20
-2.931688158470213
 10
4.024517717759636
 20
-2.932194024156956
 10
4.095410609197819
 20
-2.930627220201649
 10
4.053625052720109
 20
-2.957939186783492
 97
        0
 97
        1
330
B0
 92
        1
 93
        1
 72
     4
 94
        3
 73
     0
 74
     0
 95
       11
 96
        7
 40
0.0
 40
0.0
 40
0.0
 40
0.0
 40
1.0
 40
1.0
 40
1.0
 40
2.0
 40
2.0
 40
2.0
 40
2.0
 10
4.066455998900664
 20
-2.793727489734881
 10
4.026671750758977
 20
-2.83207871507318
 10
3.99019430340685
 20
-2.769078832491724
 10
4.01426900734163
 20
-2.865791732727896
 10
3.98730239505269
 20
-2.928093903967704
 10
3.944361800254252
 20
-2.736751392186091
 10
4.066455998900664
 20
-2.793727489734881
 97
        0
 97
        1
330
B1
 75
     2
 76
     1
 98
        1
 10
0.0
 20
0.0
450
        0
451
        0
460
0.0
461
0.0
452
        0
462
0.0
453
        0
470

  0
SPLINE
  5
B3
330
70
100
AcDbEntity
  8
Poneglyph
100
AcDbSpline
210
0.0
220
0.0
230
1.0
 70
     9
 71
     3
 72
    11
 73
     7
 74
     0
 42
0.0000000001
 43
0.0000000001
 40
0.0
 40
0.0
 40
0.0
 40
0.0
 40
1.0
 40
1.0
 40
1.0
 40
2.0
 40
2.0
 40
2.0
 40
2.0
 10
4.383784557928442
 20
-2.871895516683379
 30
0.0
 10
4.384962843265333
 20
-2.885127002889071
 30
0.0
 10
4.371781820037918
 20
-2.950216305752241
 30
0.0
 10
4.39484787756765
 20
-2.947883833830928
 30
0.0
 10
4.397438527754931
 20
-2.936063264993284
 30
0.0
 10
4.408415632757623
 20
-2.842138311042567
 30
0.0
 10
4.383784557928442
 20
-2.871895516683379
 30
0.0
  0
SPLINE
  5
B4
330
70
100
AcDbEntity
  8
Poneglyph
100
AcDbSpline
210
0.0
220
0.0
230
1.0
 70
     9
 71
     3
 72
    17
 73
    13
 74
     0
 42
0.0000000001
 43
0.0000000001
 40
0.0
 40
0.0
 40
0.0
 40
0.0
 40
1.0
 40
1.0
 40
1.0
 40
2.0
 40
2.0
 40
2.0
 40
3.0
 40
3.0
 40
3.0
 40
4.0
 40
4.0
 40
4.0
 40
4.0
 10
4.39020003101872
 20
-2.964058602620879
 30
0.0
 10
4.34574830655884
 20
-2.976106539302135
 30
0.0
 10
4.35369832105837
 20
-2.925208054462144
 30
0.0
 10
4.363946727601184
 20
-2.898149721807966
 30
0.0
 10
4.3704903832003
 20
-2.880547784795251
 30
0.0
 10
4.34437809372207
 20
-2.850115540667072
 30
0.0
 10
4.370943341955277
 20
-2.845649569277434
 30
0.0
 10
4.410311733174213
 20
-2.841310507678877
 30
0.0
 10
4.422488120572349
 20
-2.861074493211289
 30
0.0
 10
4.416443874270726
 20
-2.898158547331199
 30
0.0
 10
4.41172073423594
 20
-2.924151901949724
 30
0.0
 10
4.433022343875689
 20
-2.974881505934085
 30
0.0
 10
4.39020003101872
 20
-2.964058602620879
 30
0.0
  0
SPLINE
  5
B5
330
70
100
AcDbEntity
  8
Poneglyph
100
AcDbSpline
210
0.0
220
0.0
230
1.0
 70
     9
 71
     3
 72
    11
 73
     7
 74
     0
 42
0.0000000001
 43
0.0000000001
 40
0.0
 40
0.0
 40
0.0
 40
0.0
 40
1.0
 40
1.0
 40
1.0
 40
2.0
 40
2.0
 40
2.0
 40
2.0
 10
4.324865287095109
 20
-2.832819453315323
 30
0.0
 10
4.32519098572738
 20
-2.816437485934379
 30
0.0
 10
4.357359966851668
 20
-2.81379035640556
 30
0.0
 10
4.357532631266596
 20
-2.832820282150325
 30
0.0
 10
4.360356270275612
 20
-2.859599541062
 30
0.0
 10
4.322616519298283
 20
-2.857297219123968
 30
0.0
 10
4.324865287095109
 20
-2.832819453315323
 30
0.0
  0
SPLINE
  5
B6
330
70
100
AcDbEntity
  8
Poneglyph
100
AcDbSpline
210
0.0
220
0.0
230
1.0
 70
     9
 71
     3
 72
    26
 73
    22
 74
     0
 42
0.0000000001
 43
0.0000000001
 40
0.0
 40
0.0
 40
0.0
 40
0.0
 40
1.0
 40
1.0
 40
1.0
 40
2.0
 40
2.0
 40
2.0
 40
3.0
 40
3.0
 40
3.0
 40
4.0
 40
4.0
 40
4.0
 40
5.0
 40
5.0
 40
5.0
 40
6.0
 40
6.0
 40
6.0
 40
7.0
 40
7.0
 40
7.0
 40
7.0
 10
4.45611799976872
 20
-2.786731128662545
 30
0.0
 10
4.48072327671548
 20
-2.813136292256659
 30
0.0
 10
4.454658856442543
 20
-2.861930257120472
 30
0.0
 10
4.462543815155009
 20
-2.898152546654778
 30
0.0
 10
4.456768303090054
 20
-2.934023741144983
 30
0.0
 10
4.489599510159298
 20
-3.014160688896152
 30
0.0
 10
4.429870205451556
 20
-3.00314946255134
 30
0.0
 10
4.396616462169226
 20
-3.002480716664194
 30
0.0
 10
4.358450672447007
 20
-3.004460885461083
 30
0.0
 10
4.325597628000246
 20
-3.002417458544111
 30
0.0
 10
4.307095677955177
 20
-2.932449201318755
 30
0.0
 10
4.335303279507292
 20
-2.923979600807595
 30
0.0
 10
4.351977756252987
 20
-2.98594159161909
 30
0.0
 10
4.494468561840398
 20
-2.986786077781693
 30
0.0
 10
4.429598073429158
 20
-2.9798909428876
 30
0.0
 10
4.442707286273085
 20
-2.826097618247129
 30
0.0
 10
4.417464177404882
 20
-2.873298326824927
 30
0.0
 10
4.336572453777762
 20
-2.82314323089996
 30
0.0
 10
4.370942803558212
 20
-2.786725370883105
 30
0.0
 10
4.41081124888405
 20
-2.844923900456983
 30
0.0
 10
4.406220778000589
 20
-2.822563831766931
 30
0.0
 10
4.45611799976872
 20
-2.786731128662545
 30
0.0
  0
SPLINE
  5
B7
330
70
100
AcDbEntity
  8
Poneglyph
100
AcDbSpline
210
0.0
220
0.0
230
1.0
 70
     9
 71
     3
 72
    17
 73
    13
 74
     0
 42
0.0000000001
 43
0.0000000001
 40
0.0
 40
0.0
 40
0.0
 40
0.0
 40
1.0
 40
1.0
 40
1.0
 40
2.0
 40
2.0
 40
2.0
 40
3.0
 40
3.0
 40
3.0
 40
4.0
 40
4.0
 40
4.0
 40
4.0
 10
4.25253184525483
 20
-2.924399314426434
 30
0.0
 10
4.21345707756379
 20
-2.88775327639976
 30
0.0
 10
4.391254248889885
 20
-2.902575105223781
 30
0.0
 10
4.331282627823813
 20
-2.924400913736058
 30
0.0
 10
4.287645724773002
 20
-2.916551374417597
 30
0.0
 10
4.287865299819284
 20
-2.931950373498036
 30
0.0
 10
4.292207445342707
 20
-2.970496777880422
 30
0.0
 10
4.302626479841592
 20
-3.013944878760437
 30
0.0
 10
4.256720934689661
 20
-3.012863157853239
 30
0.0
 10
4.265952689842454
 20
-2.970485881275685
 30
0.0
 10
4.269836191739942
 20
-2.951440964498462
 30
0.0
 10
4.289148693140329
 20
-2.912949317071252
 30
0.0
 10
4.25253184525483
 20
-2.924399314426434
 30
0.0
  0
SPLINE
  5
B8
330
70
100
AcDbEntity
  8
Poneglyph
100
AcDbSpline
210
0.0
220
0.0
230
1.0
 70
     9
 71
     3
 72
    20
 73
    16
 74
     0
 42
0.0000000001
 43
0.0000000001
 40
0.0
 40
0.0
 40
0.0
 40
0.0
 40
1.0
 40
1.0
 40
1.0
 40
2.0
 40
2.0
 40
2.0
 40
3.0
 40
3.0
 40
3.0
 40
4.0
 40
4.0
 40
4.0
 40
5.0
 40
5.0
 40
5.0
 40
5.0
 10
4.25253184525483
 20
-2.885309687690323
 30
0.0
 10
4.237850427455037
 20
-2.860040057894846
 30
0.0
 10
4.249772329562321
 20
-2.821822718869396
 30
0.0
 10
4.246110361718314
 20
-2.793147541425595
 30
0.0
 10
4.267246942321687
 20
-2.781407013628823
 30
0.0
 10
4.315019098894506
 20
-2.782663131423734
 30
0.0
 10
4.337702842664283
 20
-2.793133427046945
 30
0.0
 10
4.33198682639358
 20
-2.818179693731533
 30
0.0
 10
4.289077092852418
 20
-2.804103801940704
 30
0.0
 10
4.270763025615425
 20
-2.803649726342806
 30
0.0
 10
4.234025506379339
 20
-2.840065334278405
 30
0.0
 10
4.305352545464428
 20
-2.817489625109677
 30
0.0
 10
4.318446651851672
 20
-2.832812092978176
 30
0.0
 10
4.272550552056625
 20
-2.872849350907724
 30
0.0
 10
4.281997155959717
 20
-2.807268393876711
 30
0.0
 10
4.25253184525483
 20
-2.885309687690323
 30
0.0
  0
HATCH
  5
B9
330
70
100
AcDbEntity
  8
Poneglyph
 62
   250
420
  2301728
440
 33554687
100
AcDbHatch
 10
0.0
 20
0.0
 30
0.0
210
0.0
220
0.0
230
1.0
  2
SOLID
 70
     1
 71
     1
 91
        6
 92
        1
 93
        1
 72
     4
 94
        3
 73
     0
 74
     0
 95
       11
 96
        7
 40
0.0
 40
0.0
 40
0.0
 40
0.0
 40
1.0
 40
1.0
 40
1.0
 40
2.0
 40
2.0
 40
2.0
 40
2.0
 10
4.383784557928442
 20
-2.871895516683379
 10
4.384962843265333
 20
-2.885127002889071
 10
4.371781820037918
 20
-2.950216305752241
 10
4.39484787756765
 20
-2.947883833830928
 10
4.397438527754931
 20
-2.936063264993284
 10
4.408415632757623
 20
-2.842138311042567
 10
4.383784557928442
 20
-2.871895516683379
 97
        0
 97
        1
330
B3
 92
        1
 93
        1
 72
     4
 94
        3
 73
     0
 74
     0
 95
       17
 96
       13
 40
0.0
 40
0.0
 40
0.0
 40
0.0
 40
1.0
 40
1.0
 40
1.0
 40
2.0
 40
2.0
 40
2.0
 40
3.0
 40
3.0
 40
3.0
 40
4.0
 40
4.0
 40
4.0
 40
4.0
 10
4.39020003101872
 20
-2.964058602620879
 10
4.34574830655884
 20
-2.976106539302135
 10
4.35369832105837
 20
-2.925208054462144
 10
4.363946727601184
 20
-2.898149721807966
 10
4.3704903832003
 20
-2.880547784795251
 10
4.34437809372207
 20
-2.850115540667072
 10
4.370943341955277
 20
-2.845649569277434
 10
4.410311733174213
 20
-2.841310507678877
 10
4.422488120572349
 20
-2.861074493211289
 10
4.416443874270726
 20
-2.898158547331199
 10
4.41172073423594
 20
-2.924151901949724
 10
4.433022343875689
 20
-2.974881505934085
 10
4.39020003101872
 20
-2.964058602620879
 97
        0
 97
        1
330
B4
 92
        1
 93
        1
 72
     4
 94
        3
 73
     0
 74
     0
 95
       11
 96
        7
 40
0.0
 40
0.0
 40
0.0
 40
0.0
 40
1.0
 40
1.0
 40
1.0
 40
2.0
 40
2.0
 40
2.0
 40
2.0
 10
4.324865287095109
 20
-2.832819453315323
 10
4.32519098572738
 20
-2.816437485934379
 10
4.357359966851668
 20
-2.81379035640556
 10
4.357532631266596
 20
-2.832820282150325
 10
4.360356270275612
 20
-2.859599541062
 10
4.322616519298283
 20
-2.857297219123968
 10
4.324865287095109
 20
-2.832819453315323
 97
        0
 97
        1
330
B5
 92
        1
 93
        1
 72
     4
 94
        3
 73
     0
 74
     0
 95
       26
 96
       22
 40
0.0
 40
0.0
 40
0.0
 40
0.0
 40
1.0
 40
1.0
 40
1.0
 40
2.0
 40
2.0
 40
2.0
 40
3.0
 40
3.0
 40
3.0
 40
4.0
 40
4.0
 40
4.0
 40
5.0
 40
5.0
 40
5.0
 40
6.0
 40
6.0
 40
6.0
 40
7.0
 40
7.0
 40
7.0
 40
7.0
 10
4.45611799976872
 20
-2.786731128662545
 10
4.48072327671548
 20
-2.813136292256659
 10
4.454658856442543
 20
-2.861930257120472
 10
4.462543815155009
 20
-2.898152546654778
 10
4.456768303090054
 20
-2.934023741144983
 10
4.489599510159298
 20
-3.014160688896152
 10
4.429870205451556
 20
-3.00314946255134
 10
4.396616462169226
 20
-3.002480716664194
 10
4.358450672447007
 20
-3.004460885461083
 10
4.325597628000246
 20
-3.002417458544111
 10
4.307095677955177
 20
-2.932449201318755
 10
4.335303279507292
 20
-2.923979600807595
 10
4.351977756252987
 20
-2.98594159161909
 10
4.494468561840398
 20
-2.986786077781693
 10
4.429598073429158
 20
-2.9798909428876
 10
4.442707286273085
 20
-2.826097618247129
 10
4.417464177404882
 20
-2.873298326824927
 10
4.336572453777762
 20
-2.82314323089996
 10
4.370942803558212
 20
-2.786725370883105
 10
4.41081124888405
 20
-2.844923900456983
 10
4.406220778000589
 20
-2.822563831766931
 10
4.45611799976872
 20
-2.786731128662545
 97
        0
 97
        1
330
B6
 92
        1
 93
        1
 72
     4
 94
        3
 73
     0
 74
     0
 95
       17
 96
       13
 40
0.0
 40
0.0
 40
0.0
 40
0.0
 40
1.0
 40
1.0
 40
1.0
 40
2.0
 40
2.0
 40
2.0
 40
3.0
 40
3.0
 40
3.0
 40
4.0
 40
4.0
 40
4.0
 40
4.0
 10
4.25253184525483
 20
-2.924399314426434
 10
4.21345707756379
 20
-2.88775327639976
 10
4.391254248889885
 20
-2.902575105223781
 10
4.331282627823813
 20
-2.924400913736058
 10
4.287645724773002
 20
-2.916551374417597
 10
4.287865299819284
 20
-2.931950373498036
 10
4.292207445342707
 20
-2.970496777880422
 10
4.302626479841592
 20
-3.013944878760437
 10
4.256720934689661
 20
-3.012863157853239
 10
4.265952689842454
 20
-2.970485881275685
 10
4.269836191739942
 20
-2.951440964498462
 10
4.289148693140329
 20
-2.912949317071252
 10
4.25253184525483
 20
-2.924399314426434
 97
        0
 97
        1
330
B7
 92
        1
 93
        1
 72
     4
 94
        3
 73
     0
 74
     0
 95
       20
 96
       16
 40
0.0
 40
0.0
 40
0.0
 40
0.0
 40
1.0
 40
1.0
 40
1.0
 40
2.0
 40
2.0
 40
2.0
 40
3.0
 40
3.0
 40
3.0
 40
4.0
 40
4.0
 40
4.0
 40
5.0
 40
5.0
 40
5.0
 40
5.0
 10
4.25253184525483
 20
-2.885309687690323
 10
4.237850427455037
 20
-2.860040057894846
 10
4.249772329562321
 20
-2.821822718869396
 10
4.246110361718314
 20
-2.793147541425595
 10
4.267246942321687
 20
-2.781407013628823
 10
4.315019098894506
 20
-2.782663131423734
 10
4.337702842664283
 20
-2.793133427046945
 10
4.33198682639358
 20
-2.818179693731533
 10
4.289077092852418
 20
-2.804103801940704
 10
4.270763025615425
 20
-2.803649726342806
 10
4.234025506379339
 20
-2.840065334278405
 10
4.305352545464428
 20
-2.817489625109677
 10
4.318446651851672
 20
-2.832812092978176
 10
4.272550552056625
 20
-2.872849350907724
 10
4.281997155959717
 20
-2.807268393876711
 10
4.25253184525483
 20
-2.885309687690323
 97
        0
 97
        1
330
B8
 75
     2
 76
     1
 98
        1
 10
0.0
 20
0.0
450
        0
451
        0
460
0.0
461
0.0
452
        0
462
0.0
453
        0
470

  0
SPLINE
  5
BA
330
70
100
AcDbEntity
  8
Poneglyph
100
AcDbSpline
210
0.0
220
0.0
230
1.0
 70
     9
 71
     3
 72
    20
 73
    16
 74
     0
 42
0.0000000001
 43
0.0000000001
 40
0.0
 40
0.0
 40
0.0
 40
0.0
 40
1.0
 40
1.0
 40
1.0
 40
2.0
 40
2.0
 40
2.0
 40
3.0
 40
3.0
 40
3.0
 40
4.0
 40
4.0
 40
4.0
 40
5.0
 40
5.0
 40
5.0
 40
5.0
 10
4.669327363918025
 20
-2.980720375740638
 30
0.0
 10
4.707183586317139
 20
-2.994949172466009
 30
0.0
 10
4.697123480970857
 20
-2.953248141673725
 30
0.0
 10
4.695284243972764
 20
-2.929677699055231
 30
0.0
 10
4.687104659479776
 20
-2.925047193845974
 30
0.0
 10
4.658527722392287
 20
-2.93628208721941
 30
0.0
 10
4.673552280091952
 20
-2.914593763899435
 30
0.0
 10
4.718176815925011
 20
-2.914815160530969
 30
0.0
 10
4.684285194605536
 20
-2.852930840233701
 30
0.0
 10
4.697912906362312
 20
-2.819884019720385
 30
0.0
 10
4.662305429757325
 20
-2.794524247454053
 30
0.0
 10
4.66609341577037
 20
-2.831654774146739
 30
0.0
 10
4.66933844073661
 20
-2.859679513330181
 30
0.0
 10
4.672513730679686
 20
-2.897919259469959
 30
0.0
 10
4.650638072117695
 20
-2.94458132527619
 30
0.0
 10
4.669327363918025
 20
-2.980720375740638
 30
0.0
  0
SPLINE
  5
BB
330
70
100
AcDbEntity
  8
Poneglyph
100
AcDbSpline
210
0.0
220
0.0
230
1.0
 70
     9
 71
     3
 72
    14
 73
    10
 74
     0
 42
0.0000000001
 43
0.0000000001
 40
0.0
 40
0.0
 40
0.0
 40
0.0
 40
1.0
 40
1.0
 40
1.0
 40
2.0
 40
2.0
 40
2.0
 40
3.0
 40
3.0
 40
3.0
 40
3.0
 10
4.707799857407608
 20
-2.796095809768416
 30
0.0
 10
4.726360393971213
 20
-2.845107028710812
 30
0.0
 10
4.710837411980744
 20
-2.912069006835319
 30
0.0
 10
4.714248992483716
 20
-2.967887542733187
 30
0.0
 10
4.74113394913282
 20
-3.01499408446538
 30
0.0
 10
4.656848562234876
 20
-3.008122877758435
 30
0.0
 10
4.644930112154093
 20
-2.97752402528364
 30
0.0
 10
4.657023846761831
 20
-2.916878842338153
 30
0.0
 10
4.608133113390143
 20
-2.778575372218698
 30
0.0
 10
4.707799857407608
 20
-2.796095809768416
 30
0.0
  0
SPLINE
  5
BC
330
70
100
AcDbEntity
  8
Poneglyph
100
AcDbSpline
210
0.0
220
0.0
230
1.0
 70
     9
 71
     3
 72
    11
 73
     7
 74
     0
 42
0.0000000001
 43
0.0000000001
 40
0.0
 40
0.0
 40
0.0
 40
0.0
 40
1.0
 40
1.0
 40
1.0
 40
2.0
 40
2.0
 40
2.0
 40
2.0
 10
4.612354436400664
 20
-2.891473413935083
 30
0.0
 10
4.591081457720595
 20
-2.867024556491047
 30
0.0
 10
4.614390581578163
 20
-2.729007748116385
 30
0.0
 10
4.624999525274561
 20
-2.81505448329392
 30
0.0
 10
4.619748357835583
 20
-2.83631294497977
 30
0.0
 10
4.638132774178883
 20
-2.883046957403583
 30
0.0
 10
4.612354436400664
 20
-2.891473413935083
 30
0.0
  0
SPLINE
  5
BD
330
70
100
AcDbEntity
  8
Poneglyph
100
AcDbSpline
210
0.0
220
0.0
230
1.0
 70
     9
 71
     3
 72
    11
 73
     7
 74
     0
 42
0.0000000001
 43
0.0000000001
 40
0.0
 40
0.0
 40
0.0
 40
0.0
 40
1.0
 40
1.0
 40
1.0
 40
2.0
 40
2.0
 40
2.0
 40
2.0
 10
4.612449379977053
 20
-2.967889429560083
 30
0.0
 10
4.638407221393536
 20
-2.965158253321975
 30
0.0
 10
4.636336864250678
 20
-3.001892803406147
 30
0.0
 10
4.612448103370828
 20
-2.999681886543498
 30
0.0
 10
4.596668457432567
 20
-2.999276949878081
 30
0.0
 10
4.594319592473539
 20
-2.968072918853256
 30
0.0
 10
4.612449379977053
 20
-2.967889429560083
 30
0.0
  0
SPLINE
  5
BE
330
70
100
AcDbEntity
  8
Poneglyph
100
AcDbSpline
210
0.0
220
0.0
230
1.0
 70
     9
 71
     3
 72
    26
 73
    22
 74
     0
 42
0.0000000001
 43
0.0000000001
 40
0.0
 40
0.0
 40
0.0
 40
0.0
 40
1.0
 40
1.0
 40
1.0
 40
2.0
 40
2.0
 40
2.0
 40
3.0
 40
3.0
 40
3.0
 40
4.0
 40
4.0
 40
4.0
 40
5.0
 40
5.0
 40
5.0
 40
6.0
 40
6.0
 40
6.0
 40
7.0
 40
7.0
 40
7.0
 40
7.0
 10
4.612449379977053
 20
-2.929681421747583
 30
0.0
 10
4.607411665659709
 20
-2.948875229037879
 30
0.0
 10
4.523443096749714
 20
-3.00570225602232
 30
0.0
 10
4.510663182911709
 20
-2.986872625176513
 30
0.0
 10
4.513988248890578
 20
-2.946349653041061
 30
0.0
 10
4.486791917951828
 20
-2.794750900640906
 30
0.0
 10
4.522452757244309
 20
-2.790402623905581
 30
0.0
 10
4.522228591276997
 20
-2.875536528686893
 30
0.0
 10
4.548900276802542
 20
-2.795361400350012
 30
0.0
 10
4.574258195255297
 20
-2.827868079687542
 30
0.0
 10
4.544078315347582
 20
-2.848250505625034
 30
0.0
 10
4.489952557432161
 20
-2.901134966941968
 30
0.0
 10
4.566233395926044
 20
-2.87166185972209
 30
0.0
 10
4.604749345302908
 20
-2.866910292872678
 30
0.0
 10
4.557968179802123
 20
-2.916071864685679
 30
0.0
 10
4.536034581854765
 20
-2.904294043608981
 30
0.0
 10
4.508098945460308
 20
-2.899885943250271
 30
0.0
 10
4.538806879407198
 20
-2.923320327330113
 30
0.0
 10
4.5264077986719
 20
-2.9360973860129
 30
0.0
 10
4.500228451625919
 20
-3.021712989976233
 30
0.0
 10
4.607017378279301
 20
-2.88743002344486
 30
0.0
 10
4.612449379977053
 20
-2.929681421747583
 30
0.0
  0
HATCH
  5
BF
330
70
100
AcDbEntity
  8
Poneglyph
 62
   250
420
  2301728
440
 33554687
100
AcDbHatch
 10
0.0
 20
0.0
 30
0.0
210
0.0
220
0.0
230
1.0
  2
SOLID
 70
     1
 71
     1
 91
        5
 92
        1
 93
        1
 72
     4
 94
        3
 73
     0
 74
     0
 95
       20
 96
       16
 40
0.0
 40
0.0
 40
0.0
 40
0.0
 40
1.0
 40
1.0
 40
1.0
 40
2.0
 40
2.0
 40
2.0
 40
3.0
 40
3.0
 40
3.0
 40
4.0
 40
4.0
 40
4.0
 40
5.0
 40
5.0
 40
5.0
 40
5.0
 10
4.669327363918025
 20
-2.980720375740638
 10
4.707183586317139
 20
-2.994949172466009
 10
4.697123480970857
 20
-2.953248141673725
 10
4.695284243972764
 20
-2.929677699055231
 10
4.687104659479776
 20
-2.925047193845974
 10
4.658527722392287
 20
-2.93628208721941
 10
4.673552280091952
 20
-2.914593763899435
 10
4.718176815925011
 20
-2.914815160530969
 10
4.684285194605536
 20
-2.852930840233701
 10
4.697912906362312
 20
-2.819884019720385
 10
4.662305429757325
 20
-2.794524247454053
 10
4.66609341577037
 20
-2.831654774146739
 10
4.66933844073661
 20
-2.859679513330181
 10
4.672513730679686
 20
-2.897919259469959
 10
4.650638072117695
 20
-2.94458132527619
 10
4.669327363918025
 20
-2.980720375740638
 97
        0
 97
        1
330
BA
 92
        1
 93
        1
 72
     4
 94
        3
 73
     0
 74
     0
 95
       14
 96
       10
 40
0.0
 40
0.0
 40
0.0
 40
0.0
 40
1.0
 40
1.0
 40
1.0
 40
2.0
 40
2.0
 40
2.0
 40
3.0
 40
3.0
 40
3.0
 40
3.0
 10
4.707799857407608
 20
-2.796095809768416
 10
4.726360393971213
 20
-2.845107028710812
 10
4.710837411980744
 20
-2.912069006835319
 10
4.714248992483716
 20
-2.967887542733187
 10
4.74113394913282
 20
-3.01499408446538
 10
4.656848562234876
 20
-3.008122877758435
 10
4.644930112154093
 20
-2.97752402528364
 10
4.657023846761831
 20
-2.916878842338153
 10
4.608133113390143
 20
-2.778575372218698
 10
4.707799857407608
 20
-2.796095809768416
 97
        0
 97
        1
330
BB
 92
        1
 93
        1
 72
     4
 94
        3
 73
     0
 74
     0
 95
       11
 96
        7
 40
0.0
 40
0.0
 40
0.0
 40
0.0
 40
1.0
 40
1.0
 40
1.0
 40
2.0
 40
2.0
 40
2.0
 40
2.0
 10
4.612354436400664
 20
-2.891473413935083
 10
4.591081457720595
 20
-2.867024556491047
 10
4.614390581578163
 20
-2.729007748116385
 10
4.624999525274561
 20
-2.81505448329392
 10
4.619748357835583
 20
-2.83631294497977
 10
4.638132774178883
 20
-2.883046957403583
 10
4.612354436400664
 20
-2.891473413935083
 97
        0
 97
        1
330
BC
 92
        1
 93
        1
 72
     4
 94
        3
 73
     0
 74
     0
 95
       11
 96
        7
 40
0.0
 40
0.0
 40
0.0
 40
0.0
 40
1.0
 40
1.0
 40
1.0
 40
2.0
 40
2.0
 40
2.0
 40
2.0
 10
4.612449379977053
 20
-2.967889429560083
 10
4.638407221393536
 20
-2.965158253321975
 10
4.636336864250678
 20
-3.001892803406147
 10
4.612448103370828
 20
-2.999681886543498
 10
4.596668457432567
 20
-2.999276949878081
 10
4.594319592473539
 20
-2.968072918853256
 10
4.612449379977053
 20
-2.967889429560083
 97
        0
 97
        1
330
BD
 92
        1
 93
        1
 72
     4
 94
        3
 73
     0
 74
     0
 95
       26
 96
       22
 40
0.0
 40
0.0
 40
0.0
 40
0.0
 40
1.0
 40
1.0
 40
1.0
 40
2.0
 40
2.0
 40
2.0
 40
3.0
 40
3.0
 40
3.0
 40
4.0
 40
4.0
 40
4.0
 40
5.0
 40
5.0
 40
5.0
 40
6.0
 40
6.0
 40
6.0
 40
7.0
 40
7.0
 40
7.0
 40
7.0
 10
4.612449379977053
 20
-2.929681421747583
 10
4.607411665659709
 20
-2.948875229037879
 10
4.523443096749714
 20
-3.00570225602232
 10
4.510663182911709
 20
-2.986872625176513
 10
4.513988248890578
 20
-2.946349653041061
 10
4.486791917951828
 20
-2.794750900640906
 10
4.522452757244309
 20
-2.790402623905581
 10
4.522228591276997
 20
-2.875536528686893
 10
4.548900276802542
 20
-2.795361400350012
 10
4.574258195255297
 20
-2.827868079687542
 10
4.544078315347582
 20
-2.848250505625034
 10
4.489952557432161
 20
-2.901134966941968
 10
4.566233395926044
 20
-2.87166185972209
 10
4.604749345302908
 20
-2.866910292872678
 10
4.557968179802123
 20
-2.916071864685679
 10
4.536034581854765
 20
-2.904294043608981
 10
4.508098945460308
 20
-2.899885943250271
 10
4.538806879407198
 20
-2.923320327330113
 10
4.5264077986719
 20
-2.9360973860129
 10
4.500228451625919
 20
-3.021712989976233
 10
4.607017378279301
 20
-2.88743002344486
 10
4.612449379977053
 20
-2.929681421747583
 97
        0
 97
        1
330
BE
 75
     2
 76
     1
 98
        1
 10
0.0
 20
0.0
450
        0
451
        0
460
0.0
461
0.0
452
        0
462
0.0
453
        0
470

  0
SPLINE
  5
C0
330
70
100
AcDbEntity
  8
Poneglyph
100
AcDbSpline
210
0.0
220
0.0
230
1.0
 70
     9
 71
     3
 72
    11
 73
     7
 74
     0
 42
0.0000000001
 43
0.0000000001
 40
0.0
 40
0.0
 40
0.0
 40
0.0
 40
1.0
 40
1.0
 40
1.0
 40
2.0
 40
2.0
 40
2.0
 40
2.0
 10
3.57354964039372
 20
-3.084328408730761
 30
0.0
 10
3.603655320369221
 20
-3.053356847558474
 30
0.0
 10
3.593271469863755
 20
-3.167943572514066
 30
0.0
 10
3.595145372058418
 20
-3.182184447661976
 30
0.0
 10
3.553793603409644
 20
-3.196680577810322
 30
0.0
 10
3.580830661759465
 20
-3.107844812475642
 30
0.0
 10
3.57354964039372
 20
-3.084328408730761
 30
0.0
  0
SPLINE
  5
C1
330
70
100
AcDbEntity
  8
Poneglyph
100
AcDbSpline
210
0.0
220
0.0
230
1.0
 70
     9
 71
     3
 72
    29
 73
    25
 74
     0
 42
0.0000000001
 43
0.0000000001
 40
0.0
 40
0.0
 40
0.0
 40
0.0
 40
1.0
 40
1.0
 40
1.0
 40
2.0
 40
2.0
 40
2.0
 40
3.0
 40
3.0
 40
3.0
 40
4.0
 40
4.0
 40
4.0
 40
5.0
 40
5.0
 40
5.0
 40
6.0
 40
6.0
 40
6.0
 40
7.0
 40
7.0
 40
7.0
 40
8.0
 40
8.0
 40
8.0
 40
8.0
 10
3.668920462876358
 20
-3.071497462550205
 30
0.0
 10
3.690871126926506
 20
-3.063884564498304
 30
0.0
 10
3.687182750533085
 20
-3.275589560057508
 30
0.0
 10
3.67361053731041
 20
-3.280617307428239
 30
0.0
 10
3.637090870861685
 20
-3.285338396160227
 30
0.0
 10
3.675211916795193
 20
-3.21940473497308
 30
0.0
 10
3.657989983333688
 20
-3.210047788485641
 30
0.0
 10
3.636980918337258
 20
-3.222261947931087
 30
0.0
 10
3.600253106144085
 20
-3.220945701893962
 30
0.0
 10
3.57748240404736
 20
-3.213785557072936
 30
0.0
 10
3.561286595535862
 20
-3.189587425412671
 30
0.0
 10
3.612213082657098
 20
-3.202222817128724
 30
0.0
 10
3.624291497381932
 20
-3.192245280549577
 30
0.0
 10
3.656012456736991
 20
-3.195585804118523
 30
0.0
 10
3.669490282766446
 20
-3.196999224682953
 30
0.0
 10
3.662788096504502
 20
-3.160451965368325
 30
0.0
 10
3.670996954279176
 20
-3.118621290260825
 30
0.0
 10
3.656979230929967
 20
-3.126798501691723
 30
0.0
 10
3.630988717230732
 20
-3.115854879374675
 30
0.0
 10
3.685704594115665
 20
-3.09501397469488
 30
0.0
 10
3.658900833383073
 20
-3.090790296616167
 30
0.0
 10
3.615683362414099
 20
-3.086672691037607
 30
0.0
 10
3.598206253356882
 20
-3.060274764578391
 30
0.0
 10
3.656367022954087
 20
-3.075109890996486
 30
0.0
 10
3.668920462876358
 20
-3.071497462550205
 30
0.0
  0
SPLINE
  5
C2
330
70
100
AcDbEntity
  8
Poneglyph
100
AcDbSpline
210
0.0
220
0.0
230
1.0
 70
     9
 71
     3
 72
    11
 73
     7
 74
     0
 42
0.0000000001
 43
0.0000000001
 40
0.0
 40
0.0
 40
0.0
 40
0.0
 40
1.0
 40
1.0
 40
1.0
 40
2.0
 40
2.0
 40
2.0
 40
2.0
 10
3.528926159490942
 20
-3.243291082341872
 30
0.0
 10
3.512679411067589
 20
-3.243160879089739
 30
0.0
 10
3.512945597431338
 20
-3.218169576855858
 30
0.0
 10
3.528927478772048
 20
-3.217914004229429
 30
0.0
 10
3.545208307685963
 20
-3.218205383992312
 30
0.0
 10
3.545477434193786
 20
-3.24313759366089
 30
0.0
 10
3.528926159490942
 20
-3.243291082341872
 30
0.0
  0
SPLINE
  5
C3
330
70
100
AcDbEntity
  8
Poneglyph
100
AcDbSpline
210
0.0
220
0.0
230
1.0
 70
     9
 71
     3
 72
    11
 73
     7
 74
     0
 42
0.0000000001
 43
0.0000000001
 40
0.0
 40
0.0
 40
0.0
 40
0.0
 40
1.0
 40
1.0
 40
1.0
 40
2.0
 40
2.0
 40
2.0
 40
2.0
 10
3.541757105671497
 20
-3.173439736855761
 30
0.0
 10
3.541557712588933
 20
-3.189640409096189
 30
0.0
 10
3.516424004171199
 20
-3.189836936465464
 30
0.0
 10
3.516380140067793
 20
-3.17343831509984
 30
0.0
 10
3.51642008972572
 20
-3.157032013881272
 30
0.0
 10
3.541567673325642
 20
-3.157226093630129
 30
0.0
 10
3.541757105671497
 20
-3.173439736855761
 30
0.0
  0
SPLINE
  5
C4
330
70
100
AcDbEntity
  8
Poneglyph
100
AcDbSpline
210
0.0
220
0.0
230
1.0
 70
     9
 71
     3
 72
    29
 73
    25
 74
     0
 42
0.0000000001
 43
0.0000000001
 40
0.0
 40
0.0
 40
0.0
 40
0.0
 40
1.0
 40
1.0
 40
1.0
 40
2.0
 40
2.0
 40
2.0
 40
3.0
 40
3.0
 40
3.0
 40
4.0
 40
4.0
 40
4.0
 40
5.0
 40
5.0
 40
5.0
 40
6.0
 40
6.0
 40
6.0
 40
7.0
 40
7.0
 40
7.0
 40
8.0
 40
8.0
 40
8.0
 40
8.0
 10
3.484390840480525
 20
-3.071497462550205
 30
0.0
 10
3.505451613018168
 20
-3.082499085240025
 30
0.0
 10
3.483619471604368
 20
-3.123268734687838
 30
0.0
 10
3.495663974879183
 20
-3.130418773252472
 30
0.0
 10
3.521999146363036
 20
-3.115565475984352
 30
0.0
 10
3.531414966338299
 20
-3.064336580700215
 30
0.0
 10
3.560995771387057
 20
-3.071487684482399
 30
0.0
 10
3.566864897404608
 20
-3.112300371573976
 30
0.0
 10
3.495577742687348
 20
-3.127826064701202
 30
0.0
 10
3.494800045854175
 20
-3.167524117235832
 30
0.0
 10
3.503601272082682
 20
-3.208947294265966
 30
0.0
 10
3.462418131513938
 20
-3.280353822461354
 30
0.0
 10
3.535634777266523
 20
-3.262530408752594
 30
0.0
 10
3.556627229573197
 20
-3.260696943415155
 30
0.0
 10
3.575697158702496
 20
-3.270556206245411
 30
0.0
 10
3.577474524708615
 20
-3.247290494926283
 30
0.0
 10
3.616281388007299
 20
-3.23243166036962
 30
0.0
 10
3.593922357154522
 20
-3.298176811938535
 30
0.0
 10
3.560794287576476
 20
-3.281485661493345
 30
0.0
 10
3.533791168419055
 20
-3.274816767283242
 30
0.0
 10
3.464190253477656
 20
-3.301474342447956
 30
0.0
 10
3.471754906420237
 20
-3.256128455324376
 30
0.0
 10
3.481268636365269
 20
-3.200158876440998
 30
0.0
 10
3.451990662600628
 20
-3.113659419820666
 30
0.0
 10
3.484390840480525
 20
-3.071497462550205
 30
0.0
  0
HATCH
  5
C5
330
70
100
AcDbEntity
  8
Poneglyph
 62
   250
420
  2301728
440
 33554687
100
AcDbHatch
 10
0.0
 20
0.0
 30
0.0
210
0.0
220
0.0
230
1.0
  2
SOLID
 70
     1
 71
     1
 91
        5
 92
        1
 93
        1
 72
     4
 94
        3
 73
     0
 74
     0
 95
       11
 96
        7
 40
0.0
 40
0.0
 40
0.0
 40
0.0
 40
1.0
 40
1.0
 40
1.0
 40
2.0
 40
2.0
 40
2.0
 40
2.0
 10
3.57354964039372
 20
-3.084328408730761
 10
3.603655320369221
 20
-3.053356847558474
 10
3.593271469863755
 20
-3.167943572514066
 10
3.595145372058418
 20
-3.182184447661976
 10
3.553793603409644
 20
-3.196680577810322
 10
3.580830661759465
 20
-3.107844812475642
 10
3.57354964039372
 20
-3.084328408730761
 97
        0
 97
        1
330
C0
 92
        1
 93
        1
 72
     4
 94
        3
 73
     0
 74
     0
 95
       29
 96
       25
 40
0.0
 40
0.0
 40
0.0
 40
0.0
 40
1.0
 40
1.0
 40
1.0
 40
2.0
 40
2.0
 40
2.0
 40
3.0
 40
3.0
 40
3.0
 40
4.0
 40
4.0
 40
4.0
 40
5.0
 40
5.0
 40
5.0
 40
6.0
 40
6.0
 40
6.0
 40
7.0
 40
7.0
 40
7.0
 40
8.0
 40
8.0
 40
8.0
 40
8.0
 10
3.668920462876358
 20
-3.071497462550205
 10
3.690871126926506
 20
-3.063884564498304
 10
3.687182750533085
 20
-3.275589560057508
 10
3.67361053731041
 20
-3.280617307428239
 10
3.637090870861685
 20
-3.285338396160227
 10
3.675211916795193
 20
-3.21940473497308
 10
3.657989983333688
 20
-3.210047788485641
 10
3.636980918337258
 20
-3.222261947931087
 10
3.600253106144085
 20
-3.220945701893962
 10
3.57748240404736
 20
-3.213785557072936
 10
3.561286595535862
 20
-3.189587425412671
 10
3.612213082657098
 20
-3.202222817128724
 10
3.624291497381932
 20
-3.192245280549577
 10
3.656012456736991
 20
-3.195585804118523
 10
3.669490282766446
 20
-3.196999224682953
 10
3.662788096504502
 20
-3.160451965368325
 10
3.670996954279176
 20
-3.118621290260825
 10
3.656979230929967
 20
-3.126798501691723
 10
3.630988717230732
 20
-3.115854879374675
 10
3.685704594115665
 20
-3.09501397469488
 10
3.658900833383073
 20
-3.090790296616167
 10
3.615683362414099
 20
-3.086672691037607
 10
3.598206253356882
 20
-3.060274764578391
 10
3.656367022954087
 20
-3.075109890996486
 10
3.668920462876358
 20
-3.071497462550205
 97
        0
 97
        1
330
C1
 92
        1
 93
        1
 72
     4
 94
        3
 73
     0
 74
     0
 95
       11
 96
        7
 40
0.0
 40
0.0
 40
0.0
 40
0.0
 40
1.0
 40
1.0
 40
1.0
 40
2.0
 40
2.0
 40
2.0
 40
2.0
 10
3.528926159490942
 20
-3.243291082341872
 10
3.512679411067589
 20
-3.243160879089739
 10
3.512945597431338
 20
-3.218169576855858
 10
3.528927478772048
 20
-3.217914004229429
 10
3.545208307685963
 20
-3.218205383992312
 10
3.545477434193786
 20
-3.24313759366089
 10
3.528926159490942
 20
-3.243291082341872
 97
        0
 97
        1
330
C2
 92
        1
 93
        1
 72
     4
 94
        3
 73
     0
 74
     0
 95
       11
 96
        7
 40
0.0
 40
0.0
 40
0.0
 40
0.0
 40
1.0
 40
1.0
 40
1.0
 40
2.0
 40
2.0
 40
2.0
 40
2.0
 10
3.541757105671497
 20
-3.173439736855761
 10
3.541557712588933
 20
-3.189640409096189
 10
3.516424004171199
 20
-3.189836936465464
 10
3.516380140067793
 20
-3.17343831509984
 10
3.51642008972572
 20
-3.157032013881272
 10
3.541567673325642
 20
-3.157226093630129
 10
3.541757105671497
 20
-3.173439736855761
 97
        0
 97
        1
330
C3
 92
        1
 93
        1
 72
     4
 94
        3
 73
     0
 74
     0
 95
       29
 96
       25
 40
0.0
 40
0.0
 40
0.0
 40
0.0
 40
1.0
 40
1.0
 40
1.0
 40
2.0
 40
2.0
 40
2.0
 40
3.0
 40
3.0
 40
3.0
 40
4.0
 40
4.0
 40
4.0
 40
5.0
 40
5.0
 40
5.0
 40
6.0
 40
6.0
 40
6.0
 40
7.0
 40
7.0
 40
7.0
 40
8.0
 40
8.0
 40
8.0
 40
8.0
 10
3.484390840480525
 20
-3.071497462550205
 10
3.505451613018168
 20
-3.082499085240025
 10
3.483619471604368
 20
-3.123268734687838
 10
3.495663974879183
 20
-3.130418773252472
 10
3.521999146363036
 20
-3.115565475984352
 10
3.531414966338299
 20
-3.064336580700215
 10
3.560995771387057
 20
-3.071487684482399
 10
3.566864897404608
 20
-3.112300371573976
 10
3.495577742687348
 20
-3.127826064701202
 10
3.494800045854175
 20
-3.167524117235832
 10
3.503601272082682
 20
-3.208947294265966
 10
3.462418131513938
 20
-3.280353822461354
 10
3.535634777266523
 20
-3.262530408752594
 10
3.556627229573197
 20
-3.260696943415155
 10
3.575697158702496
 20
-3.270556206245411
 10
3.577474524708615
 20
-3.247290494926283
 10
3.616281388007299
 20
-3.23243166036962
 10
3.593922357154522
 20
-3.298176811938535
 10
3.560794287576476
 20
-3.281485661493345
 10
3.533791168419055
 20
-3.274816767283242
 10
3.464190253477656
 20
-3.301474342447956
 10
3.471754906420237
 20
-3.256128455324376
 10
3.481268636365269
 20
-3.200158876440998
 10
3.451990662600628
 20
-3.113659419820666
 10
3.484390840480525
 20
-3.071497462550205
 97
        0
 97
        1
330
C4
 75
     2
 76
     1
 98
        1
 10
0.0
 20
0.0
450
        0
451
        0
460
0.0
461
0.0
452
        0
462
0.0
453
        0
470

  0
SPLINE
  5
C6
330
70
100
AcDbEntity
  8
Poneglyph
100
AcDbSpline
210
0.0
220
0.0
230
1.0
 70
     9
 71
     3
 72
    14
 73
    10
 74
     0
 42
0.0000000001
 43
0.0000000001
 40
0.0
 40
0.0
 40
0.0
 40
0.0
 40
1.0
 40
1.0
 40
1.0
 40
2.0
 40
2.0
 40
2.0
 40
3.0
 40
3.0
 40
3.0
 40
3.0
 10
3.933460393431914
 20
-3.068403756286847
 30
0.0
 10
3.946198940119832
 20
-3.065080453377479
 30
0.0
 10
3.960029072224541
 20
-3.313572157415187
 30
0.0
 10
3.92894937336185
 20
-3.283935417149627
 30
0.0
 10
3.907873608835971
 20
-3.245496991087823
 30
0.0
 10
3.927291700917849
 20
-3.179053509529972
 30
0.0
 10
3.920902042155502
 20
-3.132276177729231
 30
0.0
 10
3.93671750415097
 20
-3.074624700163262
 30
0.0
 10
3.866904898664857
 20
-3.086896663305979
 30
0.0
 10
3.933460393431914
 20
-3.068403756286847
 30
0.0
  0
SPLINE
  5
C7
330
70
100
AcDbEntity
  8
Poneglyph
100
AcDbSpline
210
0.0
220
0.0
230
1.0
 70
     9
 71
     3
 72
    11
 73
     7
 74
     0
 42
0.0000000001
 43
0.0000000001
 40
0.0
 40
0.0
 40
0.0
 40
0.0
 40
1.0
 40
1.0
 40
1.0
 40
2.0
 40
2.0
 40
2.0
 40
2.0
 10
3.895252385619414
 20
-3.240197376078513
 30
0.0
 10
3.895247212920594
 20
-3.249704058515614
 30
0.0
 10
3.895256114005835
 20
-3.268907199832685
 30
0.0
 10
3.895252374296053
 20
-3.278405435321953
 30
0.0
 10
3.868036143606256
 20
-3.309229076535479
 30
0.0
 10
3.868063259312002
 20
-3.209524656972259
 30
0.0
 10
3.895252385619414
 20
-3.240197376078513
 30
0.0
  0
SPLINE
  5
C8
330
70
100
AcDbEntity
  8
Poneglyph
100
AcDbSpline
210
0.0
220
0.0
230
1.0
 70
     9
 71
     3
 72
    11
 73
     7
 74
     0
 42
0.0000000001
 43
0.0000000001
 40
0.0
 40
0.0
 40
0.0
 40
0.0
 40
1.0
 40
1.0
 40
1.0
 40
2.0
 40
2.0
 40
2.0
 40
2.0
 10
3.895252385619414
 20
-3.081234702467402
 30
0.0
 10
3.886716357252301
 20
-3.110828378656024
 30
0.0
 10
3.914677022464628
 20
-3.19039687541413
 30
0.0
 10
3.880096790198169
 20
-3.194849702889061
 30
0.0
 10
3.876277353687277
 20
-3.178588457678086
 30
0.0
 10
3.861914515024939
 20
-3.055174878547454
 30
0.0
 10
3.895252385619414
 20
-3.081234702467402
 30
0.0
  0
SPLINE
  5
C9
330
70
100
AcDbEntity
  8
Poneglyph
100
AcDbSpline
210
0.0
220
0.0
230
1.0
 70
     9
 71
     3
 72
    11
 73
     7
 74
     0
 42
0.0000000001
 43
0.0000000001
 40
0.0
 40
0.0
 40
0.0
 40
0.0
 40
1.0
 40
1.0
 40
1.0
 40
2.0
 40
2.0
 40
2.0
 40
2.0
 10
3.838225204629831
 20
-3.094065648647958
 30
0.0
 10
3.854372918797189
 20
-3.094296611390897
 30
0.0
 10
3.854637458810493
 20
-3.119350342658713
 30
0.0
 10
3.838223831278961
 20
-3.1194426321871
 30
0.0
 10
3.821820343612254
 20
-3.119348239832536
 30
0.0
 10
3.822082428796407
 20
-3.094292694375831
 30
0.0
 10
3.838225204629831
 20
-3.094065648647958
 30
0.0
  0
SPLINE
  5
CA
330
70
100
AcDbEntity
  8
Poneglyph
100
AcDbSpline
210
0.0
220
0.0
230
1.0
 70
     9
 71
     3
 72
    11
 73
     7
 74
     0
 42
0.0000000001
 43
0.0000000001
 40
0.0
 40
0.0
 40
0.0
 40
0.0
 40
1.0
 40
1.0
 40
1.0
 40
2.0
 40
2.0
 40
2.0
 40
2.0
 10
3.793750920775664
 20
-3.233781902988236
 30
0.0
 10
3.803941178793378
 20
-3.237497752267598
 30
0.0
 10
3.80392607097297
 20
-3.281082571215872
 30
0.0
 10
3.793760367500832
 20
-3.284821173907428
 30
0.0
 10
3.774528531263487
 20
-3.284269342967263
 30
0.0
 10
3.774525747912295
 20
-3.234342638755858
 30
0.0
 10
3.793750920775664
 20
-3.233781902988236
 30
0.0
  0
SPLINE
  5
CB
330
70
100
AcDbEntity
  8
Poneglyph
100
AcDbSpline
210
0.0
220
0.0
230
1.0
 70
     9
 71
     3
 72
    11
 73
     7
 74
     0
 42
0.0000000001
 43
0.0000000001
 40
0.0
 40
0.0
 40
0.0
 40
0.0
 40
1.0
 40
1.0
 40
1.0
 40
2.0
 40
2.0
 40
2.0
 40
2.0
 10
3.787335447685386
 20
-3.094065648647958
 30
0.0
 10
3.803303172351724
 20
-3.094331685852264
 30
0.0
 10
3.803570882048347
 20
-3.119311516754704
 30
0.0
 10
3.787334113637332
 20
-3.119442638046216
 30
0.0
 10
3.770777065920406
 20
-3.119291877725395
 30
0.0
 10
3.771042669423132
 20
-3.094351584142815
 30
0.0
 10
3.787335447685386
 20
-3.094065648647958
 30
0.0
  0
SPLINE
  5
CC
330
70
100
AcDbEntity
  8
Poneglyph
100
AcDbSpline
210
0.0
220
0.0
230
1.0
 70
     9
 71
     3
 72
    29
 73
    25
 74
     0
 42
0.0000000001
 43
0.0000000001
 40
0.0
 40
0.0
 40
0.0
 40
0.0
 40
1.0
 40
1.0
 40
1.0
 40
2.0
 40
2.0
 40
2.0
 40
3.0
 40
3.0
 40
3.0
 40
4.0
 40
4.0
 40
4.0
 40
5.0
 40
5.0
 40
5.0
 40
6.0
 40
6.0
 40
6.0
 40
7.0
 40
7.0
 40
7.0
 40
8.0
 40
8.0
 40
8.0
 40
8.0
 10
3.819317869560386
 20
-3.151235245002125
 30
0.0
 10
3.793659469153655
 20
-3.157400138846469
 30
0.0
 10
3.740251594933031
 20
-3.119595140634929
 30
0.0
 10
3.755252778124511
 20
-3.170198019642232
 30
0.0
 10
3.759171845604037
 20
-3.182282327675466
 30
0.0
 10
3.742651821698093
 20
-3.213770824978256
 30
0.0
 10
3.765042232749022
 20
-3.210738661447976
 30
0.0
 10
3.799541425072776
 20
-3.202367684881614
 30
0.0
 10
3.864983009528979
 20
-3.19322710913962
 30
0.0
 10
3.85090945558986
 20
-3.246609744658901
 30
0.0
 10
3.82294325153719
 20
-3.292084754069997
 30
0.0
 10
3.84558739832284
 20
-3.205356640182217
 30
0.0
 10
3.811317952295616
 20
-3.220224935827571
 30
0.0
 10
3.725247769915502
 20
-3.22172519297942
 30
0.0
 10
3.776186754994089
 20
-3.244143892253962
 30
0.0
 10
3.74272780945897
 20
-3.284840479167996
 30
0.0
 10
3.725746423928171
 20
-3.223702549722499
 30
0.0
 10
3.738013495375828
 20
-3.144877233029319
 30
0.0
 10
3.737153724590156
 20
-3.078035341618083
 30
0.0
 10
3.774459932515128
 20
-3.06188728291742
 30
0.0
 10
3.739548330179028
 20
-3.129090879543632
 30
0.0
 10
3.760068251020306
 20
-3.13388788231143
 30
0.0
 10
3.784039467643828
 20
-3.115750093406656
 30
0.0
 10
3.909735356310799
 20
-3.138899103535827
 30
0.0
 10
3.819317869560386
 20
-3.151235245002125
 30
0.0
  0
HATCH
  5
CD
330
70
100
AcDbEntity
  8
Poneglyph
 62
   250
420
  2301728
440
 33554687
100
AcDbHatch
 10
0.0
 20
0.0
 30
0.0
210
0.0
220
0.0
230
1.0
  2
SOLID
 70
     1
 71
     1
 91
        7
 92
        1
 93
        1
 72
     4
 94
        3
 73
     0
 74
     0
 95
       14
 96
       10
 40
0.0
 40
0.0
 40
0.0
 40
0.0
 40
1.0
 40
1.0
 40
1.0
 40
2.0
 40
2.0
 40
2.0
 40
3.0
 40
3.0
 40
3.0
 40
3.0
 10
3.933460393431914
 20
-3.068403756286847
 10
3.946198940119832
 20
-3.065080453377479
 10
3.960029072224541
 20
-3.313572157415187
 10
3.92894937336185
 20
-3.283935417149627
 10
3.907873608835971
 20
-3.245496991087823
 10
3.927291700917849
 20
-3.179053509529972
 10
3.920902042155502
 20
-3.132276177729231
 10
3.93671750415097
 20
-3.074624700163262
 10
3.866904898664857
 20
-3.086896663305979
 10
3.933460393431914
 20
-3.068403756286847
 97
        0
 97
        1
330
C6
 92
        1
 93
        1
 72
     4
 94
        3
 73
     0
 74
     0
 95
       11
 96
        7
 40
0.0
 40
0.0
 40
0.0
 40
0.0
 40
1.0
 40
1.0
 40
1.0
 40
2.0
 40
2.0
 40
2.0
 40
2.0
 10
3.895252385619414
 20
-3.240197376078513
 10
3.895247212920594
 20
-3.249704058515614
 10
3.895256114005835
 20
-3.268907199832685
 10
3.895252374296053
 20
-3.278405435321953
 10
3.868036143606256
 20
-3.309229076535479
 10
3.868063259312002
 20
-3.209524656972259
 10
3.895252385619414
 20
-3.240197376078513
 97
        0
 97
        1
330
C7
 92
        1
 93
        1
 72
     4
 94
        3
 73
     0
 74
     0
 95
       11
 96
        7
 40
0.0
 40
0.0
 40
0.0
 40
0.0
 40
1.0
 40
1.0
 40
1.0
 40
2.0
 40
2.0
 40
2.0
 40
2.0
 10
3.895252385619414
 20
-3.081234702467402
 10
3.886716357252301
 20
-3.110828378656024
 10
3.914677022464628
 20
-3.19039687541413
 10
3.880096790198169
 20
-3.194849702889061
 10
3.876277353687277
 20
-3.178588457678086
 10
3.861914515024939
 20
-3.055174878547454
 10
3.895252385619414
 20
-3.081234702467402
 97
        0
 97
        1
330
C8
 92
        1
 93
        1
 72
     4
 94
        3
 73
     0
 74
     0
 95
       11
 96
        7
 40
0.0
 40
0.0
 40
0.0
 40
0.0
 40
1.0
 40
1.0
 40
1.0
 40
2.0
 40
2.0
 40
2.0
 40
2.0
 10
3.838225204629831
 20
-3.094065648647958
 10
3.854372918797189
 20
-3.094296611390897
 10
3.854637458810493
 20
-3.119350342658713
 10
3.838223831278961
 20
-3.1194426321871
 10
3.821820343612254
 20
-3.119348239832536
 10
3.822082428796407
 20
-3.094292694375831
 10
3.838225204629831
 20
-3.094065648647958
 97
        0
 97
        1
330
C9
 92
        1
 93
        1
 72
     4
 94
        3
 73
     0
 74
     0
 95
       11
 96
        7
 40
0.0
 40
0.0
 40
0.0
 40
0.0
 40
1.0
 40
1.0
 40
1.0
 40
2.0
 40
2.0
 40
2.0
 40
2.0
 10
3.793750920775664
 20
-3.233781902988236
 10
3.803941178793378
 20
-3.237497752267598
 10
3.80392607097297
 20
-3.281082571215872
 10
3.793760367500832
 20
-3.284821173907428
 10
3.774528531263487
 20
-3.284269342967263
 10
3.774525747912295
 20
-3.234342638755858
 10
3.793750920775664
 20
-3.233781902988236
 97
        0
 97
        1
330
CA
 92
        1
 93
        1
 72
     4
 94
        3
 73
     0
 74
     0
 95
       11
 96
        7
 40
0.0
 40
0.0
 40
0.0
 40
0.0
 40
1.0
 40
1.0
 40
1.0
 40
2.0
 40
2.0
 40
2.0
 40
2.0
 10
3.787335447685386
 20
-3.094065648647958
 10
3.803303172351724
 20
-3.094331685852264
 10
3.803570882048347
 20
-3.119311516754704
 10
3.787334113637332
 20
-3.119442638046216
 10
3.770777065920406
 20
-3.119291877725395
 10
3.771042669423132
 20
-3.094351584142815
 10
3.787335447685386
 20
-3.094065648647958
 97
        0
 97
        1
330
CB
 92
        1
 93
        1
 72
     4
 94
        3
 73
     0
 74
     0
 95
       29
 96
       25
 40
0.0
 40
0.0
 40
0.0
 40
0.0
 40
1.0
 40
1.0
 40
1.0
 40
2.0
 40
2.0
 40
2.0
 40
3.0
 40
3.0
 40
3.0
 40
4.0
 40
4.0
 40
4.0
 40
5.0
 40
5.0
 40
5.0
 40
6.0
 40
6.0
 40
6.0
 40
7.0
 40
7.0
 40
7.0
 40
8.0
 40
8.0
 40
8.0
 40
8.0
 10
3.819317869560386
 20
-3.151235245002125
 10
3.793659469153655
 20
-3.157400138846469
 10
3.740251594933031
 20
-3.119595140634929
 10
3.755252778124511
 20
-3.170198019642232
 10
3.759171845604037
 20
-3.182282327675466
 10
3.742651821698093
 20
-3.213770824978256
 10
3.765042232749022
 20
-3.210738661447976
 10
3.799541425072776
 20
-3.202367684881614
 10
3.864983009528979
 20
-3.19322710913962
 10
3.85090945558986
 20
-3.246609744658901
 10
3.82294325153719
 20
-3.292084754069997
 10
3.84558739832284
 20
-3.205356640182217
 10
3.811317952295616
 20
-3.220224935827571
 10
3.725247769915502
 20
-3.22172519297942
 10
3.776186754994089
 20
-3.244143892253962
 10
3.74272780945897
 20
-3.284840479167996
 10
3.725746423928171
 20
-3.223702549722499
 10
3.738013495375828
 20
-3.144877233029319
 10
3.737153724590156
 20
-3.078035341618083
 10
3.774459932515128
 20
-3.06188728291742
 10
3.739548330179028
 20
-3.129090879543632
 10
3.760068251020306
 20
-3.13388788231143
 10
3.784039467643828
 20
-3.115750093406656
 10
3.909735356310799
 20
-3.138899103535827
 10
3.819317869560386
 20
-3.151235245002125
 97
        0
 97
        1
330
CC
 75
     2
 76
     1
 98
        1
 10
0.0
 20
0.0
450
        0
451
        0
460
0.0
461
0.0
452
        0
462
0.0
453
        0
470

  0
SPLINE
  5
CE
330
70
100
AcDbEntity
  8
Poneglyph
100
AcDbSpline
210
0.0
220
0.0
230
1.0
 70
     9
 71
     3
 72
    11
 73
     7
 74
     0
 42
0.0000000001
 43
0.0000000001
 40
0.0
 40
0.0
 40
0.0
 40
0.0
 40
1.0
 40
1.0
 40
1.0
 40
2.0
 40
2.0
 40
2.0
 40
2.0
 10
4.125666882147192
 20
-3.154784263415244
 30
0.0
 10
4.126845167484083
 20
-3.168015749620937
 30
0.0
 10
4.113664144256668
 20
-3.233105052484107
 30
0.0
 10
4.1367302017864
 20
-3.230772580562794
 30
0.0
 10
4.139320851973681
 20
-3.21895201172515
 30
0.0
 10
4.150297956976373
 20
-3.125027057774433
 30
0.0
 10
4.125666882147192
 20
-3.154784263415244
 30
0.0
  0
SPLINE
  5
CF
330
70
100
AcDbEntity
  8
Poneglyph
100
AcDbSpline
210
0.0
220
0.0
230
1.0
 70
     9
 71
     3
 72
    17
 73
    13
 74
     0
 42
0.0000000001
 43
0.0000000001
 40
0.0
 40
0.0
 40
0.0
 40
0.0
 40
1.0
 40
1.0
 40
1.0
 40
2.0
 40
2.0
 40
2.0
 40
3.0
 40
3.0
 40
3.0
 40
4.0
 40
4.0
 40
4.0
 40
4.0
 10
4.13208235523747
 20
-3.246947349352744
 30
0.0
 10
4.08763063077759
 20
-3.258995286034001
 30
0.0
 10
4.09558064527712
 20
-3.20809680119401
 30
0.0
 10
4.105829051819934
 20
-3.181038468539832
 30
0.0
 10
4.11237270741905
 20
-3.163436531527117
 30
0.0
 10
4.08626041794082
 20
-3.133004287398938
 30
0.0
 10
4.112825666174027
 20
-3.1285383160093
 30
0.0
 10
4.152194057392963
 20
-3.124199254410743
 30
0.0
 10
4.164370444791099
 20
-3.143963239943154
 30
0.0
 10
4.158326198489476
 20
-3.181047294063066
 30
0.0
 10
4.15360305845469
 20
-3.20704064868159
 30
0.0
 10
4.174904668094439
 20
-3.257770252665952
 30
0.0
 10
4.13208235523747
 20
-3.246947349352744
 30
0.0
  0
SPLINE
  5
D0
330
70
100
AcDbEntity
  8
Poneglyph
100
AcDbSpline
210
0.0
220
0.0
230
1.0
 70
     9
 71
     3
 72
    11
 73
     7
 74
     0
 42
0.0000000001
 43
0.0000000001
 40
0.0
 40
0.0
 40
0.0
 40
0.0
 40
1.0
 40
1.0
 40
1.0
 40
2.0
 40
2.0
 40
2.0
 40
2.0
 10
4.066747611313859
 20
-3.115708200047189
 30
0.0
 10
4.06707330994613
 20
-3.099326232666246
 30
0.0
 10
4.099242291070418
 20
-3.096679103137426
 30
0.0
 10
4.099414955485346
 20
-3.115709028882191
 30
0.0
 10
4.102238594494362
 20
-3.142488287793867
 30
0.0
 10
4.064498843517033
 20
-3.140185965855835
 30
0.0
 10
4.066747611313859
 20
-3.115708200047189
 30
0.0
  0
SPLINE
  5
D1
330
70
100
AcDbEntity
  8
Poneglyph
100
AcDbSpline
210
0.0
220
0.0
230
1.0
 70
     9
 71
     3
 72
    26
 73
    22
 74
     0
 42
0.0000000001
 43
0.0000000001
 40
0.0
 40
0.0
 40
0.0
 40
0.0
 40
1.0
 40
1.0
 40
1.0
 40
2.0
 40
2.0
 40
2.0
 40
3.0
 40
3.0
 40
3.0
 40
4.0
 40
4.0
 40
4.0
 40
5.0
 40
5.0
 40
5.0
 40
6.0
 40
6.0
 40
6.0
 40
7.0
 40
7.0
 40
7.0
 40
7.0
 10
4.19800032398747
 20
-3.069619875394411
 30
0.0
 10
4.22260560093423
 20
-3.096025038988525
 30
0.0
 10
4.196541180661293
 20
-3.144819003852338
 30
0.0
 10
4.204426139373759
 20
-3.181041293386644
 30
0.0
 10
4.198650627308804
 20
-3.216912487876849
 30
0.0
 10
4.231481834378048
 20
-3.297049435628018
 30
0.0
 10
4.171752529670306
 20
-3.286038209283206
 30
0.0
 10
4.138498786387976
 20
-3.28536946339606
 30
0.0
 10
4.100332996665757
 20
-3.287349632192949
 30
0.0
 10
4.067479952218996
 20
-3.285306205275976
 30
0.0
 10
4.048978002173927
 20
-3.215337948050621
 30
0.0
 10
4.077185603726042
 20
-3.206868347539461
 30
0.0
 10
4.093860080471737
 20
-3.268830338350956
 30
0.0
 10
4.236350886059148
 20
-3.269674824513559
 30
0.0
 10
4.171480397647908
 20
-3.262779689619466
 30
0.0
 10
4.184589610491835
 20
-3.108986364978995
 30
0.0
 10
4.159346501623632
 20
-3.156187073556793
 30
0.0
 10
4.078454777996512
 20
-3.106031977631826
 30
0.0
 10
4.112825127776962
 20
-3.069614117614972
 30
0.0
 10
4.1526935731028
 20
-3.12781264718885
 30
0.0
 10
4.148103102219339
 20
-3.105452578498796
 30
0.0
 10
4.19800032398747
 20
-3.069619875394411
 30
0.0
  0
SPLINE
  5
D2
330
70
100
AcDbEntity
  8
Poneglyph
100
AcDbSpline
210
0.0
220
0.0
230
1.0
 70
     9
 71
     3
 72
    17
 73
    13
 74
     0
 42
0.0000000001
 43
0.0000000001
 40
0.0
 40
0.0
 40
0.0
 40
0.0
 40
1.0
 40
1.0
 40
1.0
 40
2.0
 40
2.0
 40
2.0
 40
3.0
 40
3.0
 40
3.0
 40
4.0
 40
4.0
 40
4.0
 40
4.0
 10
3.994414169473581
 20
-3.2072880611583
 30
0.0
 10
3.955339401782541
 20
-3.170642023131626
 30
0.0
 10
4.133136573108635
 20
-3.185463851955647
 30
0.0
 10
4.073164952042563
 20
-3.207289660467924
 30
0.0
 10
4.029528048991752
 20
-3.199440121149462
 30
0.0
 10
4.029747624038034
 20
-3.214839120229902
 30
0.0
 10
4.034089769561457
 20
-3.253385524612288
 30
0.0
 10
4.044508804060342
 20
-3.296833625492303
 30
0.0
 10
3.99860325890841
 20
-3.295751904585106
 30
0.0
 10
4.007835014061204
 20
-3.253374628007552
 30
0.0
 10
4.011718515958692
 20
-3.234329711230328
 30
0.0
 10
4.031031017359079
 20
-3.195838063803118
 30
0.0
 10
3.994414169473581
 20
-3.2072880611583
 30
0.0
  0
SPLINE
  5
D3
330
70
100
AcDbEntity
  8
Poneglyph
100
AcDbSpline
210
0.0
220
0.0
230
1.0
 70
     9
 71
     3
 72
    20
 73
    16
 74
     0
 42
0.0000000001
 43
0.0000000001
 40
0.0
 40
0.0
 40
0.0
 40
0.0
 40
1.0
 40
1.0
 40
1.0
 40
2.0
 40
2.0
 40
2.0
 40
3.0
 40
3.0
 40
3.0
 40
4.0
 40
4.0
 40
4.0
 40
5.0
 40
5.0
 40
5.0
 40
5.0
 10
3.994414169473581
 20
-3.168198434422189
 30
0.0
 10
3.979732751673786
 20
-3.142928804626712
 30
0.0
 10
3.991654653781072
 20
-3.104711465601262
 30
0.0
 10
3.987992685937064
 20
-3.076036288157461
 30
0.0
 10
4.009129266540437
 20
-3.064295760360689
 30
0.0
 10
4.056901423113256
 20
-3.0655518781556
 30
0.0
 10
4.079585166883033
 20
-3.076022173778811
 30
0.0
 10
4.07386915061233
 20
-3.101068440463399
 30
0.0
 10
4.030959417071168
 20
-3.08699254867257
 30
0.0
 10
4.012645349834175
 20
-3.086538473074672
 30
0.0
 10
3.975907830598089
 20
-3.12295408101027
 30
0.0
 10
4.047234869683178
 20
-3.100378371841543
 30
0.0
 10
4.060328976070422
 20
-3.115700839710042
 30
0.0
 10
4.014432876275375
 20
-3.155738097639591
 30
0.0
 10
4.023879480178467
 20
-3.090157140608577
 30
0.0
 10
3.994414169473581
 20
-3.168198434422189
 30
0.0
  0
HATCH
  5
D4
330
70
100
AcDbEntity
  8
Poneglyph
 62
   250
420
  2301728
440
 33554687
100
AcDbHatch
 10
0.0
 20
0.0
 30
0.0
210
0.0
220
0.0
230
1.0
  2
SOLID
 70
     1
 71
     1
 91
        6
 92
        1
 93
        1
 72
     4
 94
        3
 73
     0
 74
     0
 95
       11
 96
        7
 40
0.0
 40
0.0
 40
0.0
 40
0.0
 40
1.0
 40
1.0
 40
1.0
 40
2.0
 40
2.0
 40
2.0
 40
2.0
 10
4.125666882147192
 20
-3.154784263415244
 10
4.126845167484083
 20
-3.168015749620937
 10
4.113664144256668
 20
-3.233105052484107
 10
4.1367302017864
 20
-3.230772580562794
 10
4.139320851973681
 20
-3.21895201172515
 10
4.150297956976373
 20
-3.125027057774433
 10
4.125666882147192
 20
-3.154784263415244
 97
        0
 97
        1
330
CE
 92
        1
 93
        1
 72
     4
 94
        3
 73
     0
 74
     0
 95
       17
 96
       13
 40
0.0
 40
0.0
 40
0.0
 40
0.0
 40
1.0
 40
1.0
 40
1.0
 40
2.0
 40
2.0
 40
2.0
 40
3.0
 40
3.0
 40
3.0
 40
4.0
 40
4.0
 40
4.0
 40
4.0
 10
4.13208235523747
 20
-3.246947349352744
 10
4.08763063077759
 20
-3.258995286034001
 10
4.09558064527712
 20
-3.20809680119401
 10
4.105829051819934
 20
-3.181038468539832
 10
4.11237270741905
 20
-3.163436531527117
 10
4.08626041794082
 20
-3.133004287398938
 10
4.112825666174027
 20
-3.1285383160093
 10
4.152194057392963
 20
-3.124199254410743
 10
4.164370444791099
 20
-3.143963239943154
 10
4.158326198489476
 20
-3.181047294063066
 10
4.15360305845469
 20
-3.20704064868159
 10
4.174904668094439
 20
-3.257770252665952
 10
4.13208235523747
 20
-3.246947349352744
 97
        0
 97
        1
330
CF
 92
        1
 93
        1
 72
     4
 94
        3
 73
     0
 74
     0
 95
       11
 96
        7
 40
0.0
 40
0.0
 40
0.0
 40
0.0
 40
1.0
 40
1.0
 40
1.0
 40
2.0
 40
2.0
 40
2.0
 40
2.0
 10
4.066747611313859
 20
-3.115708200047189
 10
4.06707330994613
 20
-3.099326232666246
 10
4.099242291070418
 20
-3.096679103137426
 10
4.099414955485346
 20
-3.115709028882191
 10
4.102238594494362
 20
-3.142488287793867
 10
4.064498843517033
 20
-3.140185965855835
 10
4.066747611313859
 20
-3.115708200047189
 97
        0
 97
        1
330
D0
 92
        1
 93
        1
 72
     4
 94
        3
 73
     0
 74
     0
 95
       26
 96
       22
 40
0.0
 40
0.0
 40
0.0
 40
0.0
 40
1.0
 40
1.0
 40
1.0
 40
2.0
 40
2.0
 40
2.0
 40
3.0
 40
3.0
 40
3.0
 40
4.0
 40
4.0
 40
4.0
 40
5.0
 40
5.0
 40
5.0
 40
6.0
 40
6.0
 40
6.0
 40
7.0
 40
7.0
 40
7.0
 40
7.0
 10
4.19800032398747
 20
-3.069619875394411
 10
4.22260560093423
 20
-3.096025038988525
 10
4.196541180661293
 20
-3.144819003852338
 10
4.204426139373759
 20
-3.181041293386644
 10
4.198650627308804
 20
-3.216912487876849
 10
4.231481834378048
 20
-3.297049435628018
 10
4.171752529670306
 20
-3.286038209283206
 10
4.138498786387976
 20
-3.28536946339606
 10
4.100332996665757
 20
-3.287349632192949
 10
4.067479952218996
 20
-3.285306205275976
 10
4.048978002173927
 20
-3.215337948050621
 10
4.077185603726042
 20
-3.206868347539461
 10
4.093860080471737
 20
-3.268830338350956
 10
4.236350886059148
 20
-3.269674824513559
 10
4.171480397647908
 20
-3.262779689619466
 10
4.184589610491835
 20
-3.108986364978995
 10
4.159346501623632
 20
-3.156187073556793
 10
4.078454777996512
 20
-3.106031977631826
 10
4.112825127776962
 20
-3.069614117614972
 10
4.1526935731028
 20
-3.12781264718885
 10
4.148103102219339
 20
-3.105452578498796
 10
4.19800032398747
 20
-3.069619875394411
 97
        0
 97
        1
330
D1
 92
        1
 93
        1
 72
     4
 94
        3
 73
     0
 74
     0
 95
       17
 96
       13
 40
0.0
 40
0.0
 40
0.0
 40
0.0
 40
1.0
 40
1.0
 40
1.0
 40
2.0
 40
2.0
 40
2.0
 40
3.0
 40
3.0
 40
3.0
 40
4.0
 40
4.0
 40
4.0
 40
4.0
 10
3.994414169473581
 20
-3.2072880611583
 10
3.955339401782541
 20
-3.170642023131626
 10
4.133136573108635
 20
-3.185463851955647
 10
4.073164952042563
 20
-3.207289660467924
 10
4.029528048991752
 20
-3.199440121149462
 10
4.029747624038034
 20
-3.214839120229902
 10
4.034089769561457
 20
-3.253385524612288
 10
4.044508804060342
 20
-3.296833625492303
 10
3.99860325890841
 20
-3.295751904585106
 10
4.007835014061204
 20
-3.253374628007552
 10
4.011718515958692
 20
-3.234329711230328
 10
4.031031017359079
 20
-3.195838063803118
 10
3.994414169473581
 20
-3.2072880611583
 97
        0
 97
        1
330
D2
 92
        1
 93
        1
 72
     4
 94
        3
 73
     0
 74
     0
 95
       20
 96
       16
 40
0.0
 40
0.0
 40
0.0
 40
0.0
 40
1.0
 40
1.0
 40
1.0
 40
2.0
 40
2.0
 40
2.0
 40
3.0
 40
3.0
 40
3.0
 40
4.0
 40
4.0
 40
4.0
 40
5.0
 40
5.0
 40
5.0
 40
5.0
 10
3.994414169473581
 20
-3.168198434422189
 10
3.979732751673786
 20
-3.142928804626712
 10
3.991654653781072
 20
-3.104711465601262
 10
3.987992685937064
 20
-3.076036288157461
 10
4.009129266540437
 20
-3.064295760360689
 10
4.056901423113256
 20
-3.0655518781556
 10
4.079585166883033
 20
-3.076022173778811
 10
4.07386915061233
 20
-3.101068440463399
 10
4.030959417071168
 20
-3.08699254867257
 10
4.012645349834175
 20
-3.086538473074672
 10
3.975907830598089
 20
-3.12295408101027
 10
4.047234869683178
 20
-3.100378371841543
 10
4.060328976070422
 20
-3.115700839710042
 10
4.014432876275375
 20
-3.155738097639591
 10
4.023879480178467
 20
-3.090157140608577
 10
3.994414169473581
 20
-3.168198434422189
 97
        0
 97
        1
330
D3
 75
     2
 76
     1
 98
        1
 10
0.0
 20
0.0
450
        0
451
        0
460
0.0
461
0.0
452
        0
462
0.0
453
        0
470

  0
SPLINE
  5
D5
330
70
100
AcDbEntity
  8
Poneglyph
100
AcDbSpline
210
0.0
220
0.0
230
1.0
 70
     9
 71
     3
 72
    20
 73
    16
 74
     0
 42
0.0000000001
 43
0.0000000001
 40
0.0
 40
0.0
 40
0.0
 40
0.0
 40
1.0
 40
1.0
 40
1.0
 40
2.0
 40
2.0
 40
2.0
 40
3.0
 40
3.0
 40
3.0
 40
4.0
 40
4.0
 40
4.0
 40
5.0
 40
5.0
 40
5.0
 40
5.0
 10
4.411202906452747
 20
-3.263609122472517
 30
0.0
 10
4.449059128851861
 20
-3.277837919197887
 30
0.0
 10
4.438999023505579
 20
-3.236136888405603
 30
0.0
 10
4.437159786507486
 20
-3.21256644578711
 30
0.0
 10
4.428980202014498
 20
-3.207935940577852
 30
0.0
 10
4.400403264927009
 20
-3.219170833951289
 30
0.0
 10
4.415427822626674
 20
-3.197482510631314
 30
0.0
 10
4.460052358459734
 20
-3.197703907262848
 30
0.0
 10
4.426160737140258
 20
-3.135819586965554
 30
0.0
 10
4.439788448897035
 20
-3.102772766452264
 30
0.0
 10
4.404180972292047
 20
-3.077412994185932
 30
0.0
 10
4.407968958305092
 20
-3.114543520878618
 30
0.0
 10
4.411213983271332
 20
-3.142568260062059
 30
0.0
 10
4.414389273214409
 20
-3.180808006201838
 30
0.0
 10
4.392513614652417
 20
-3.227470072008069
 30
0.0
 10
4.411202906452747
 20
-3.263609122472517
 30
0.0
  0
SPLINE
  5
D6
330
70
100
AcDbEntity
  8
Poneglyph
100
AcDbSpline
210
0.0
220
0.0
230
1.0
 70
     9
 71
     3
 72
    14
 73
    10
 74
     0
 42
0.0000000001
 43
0.0000000001
 40
0.0
 40
0.0
 40
0.0
 40
0.0
 40
1.0
 40
1.0
 40
1.0
 40
2.0
 40
2.0
 40
2.0
 40
3.0
 40
3.0
 40
3.0
 40
3.0
 10
4.44967539994233
 20
-3.078984556500295
 30
0.0
 10
4.468235936505934
 20
-3.12799577544269
 30
0.0
 10
4.452712954515466
 20
-3.194957753567198
 30
0.0
 10
4.456124535018438
 20
-3.250776289465066
 30
0.0
 10
4.483009491667543
 20
-3.297882831197259
 30
0.0
 10
4.398724104769598
 20
-3.291011624490313
 30
0.0
 10
4.386805654688815
 20
-3.260412772015519
 30
0.0
 10
4.398899389296553
 20
-3.199767589070031
 30
0.0
 10
4.350008655924865
 20
-3.061464118950576
 30
0.0
 10
4.44967539994233
 20
-3.078984556500295
 30
0.0
  0
SPLINE
  5
D7
330
70
100
AcDbEntity
  8
Poneglyph
100
AcDbSpline
210
0.0
220
0.0
230
1.0
 70
     9
 71
     3
 72
    11
 73
     7
 74
     0
 42
0.0000000001
 43
0.0000000001
 40
0.0
 40
0.0
 40
0.0
 40
0.0
 40
1.0
 40
1.0
 40
1.0
 40
2.0
 40
2.0
 40
2.0
 40
2.0
 10
4.354229978935387
 20
-3.174362160666962
 30
0.0
 10
4.332957000255317
 20
-3.149913303222926
 30
0.0
 10
4.356266124112885
 20
-3.011896494848264
 30
0.0
 10
4.366875067809283
 20
-3.097943230025798
 30
0.0
 10
4.361623900370306
 20
-3.119201691711648
 30
0.0
 10
4.380008316713605
 20
-3.165935704135462
 30
0.0
 10
4.354229978935387
 20
-3.174362160666962
 30
0.0
  0
SPLINE
  5
D8
330
70
100
AcDbEntity
  8
Poneglyph
100
AcDbSpline
210
0.0
220
0.0
230
1.0
 70
     9
 71
     3
 72
    11
 73
     7
 74
     0
 42
0.0000000001
 43
0.0000000001
 40
0.0
 40
0.0
 40
0.0
 40
0.0
 40
1.0
 40
1.0
 40
1.0
 40
2.0
 40
2.0
 40
2.0
 40
2.0
 10
4.354324922511775
 20
-3.250778176291962
 30
0.0
 10
4.380282763928258
 20
-3.248047000053853
 30
0.0
 10
4.3782124067854
 20
-3.284781550138025
 30
0.0
 10
4.35432364590555
 20
-3.282570633275377
 30
0.0
 10
4.338543999967289
 20
-3.28216569660996
 30
0.0
 10
4.336195135008261
 20
-3.25096166558511
 30
0.0
 10
4.354324922511775
 20
-3.250778176291962
 30
0.0
  0
SPLINE
  5
D9
330
70
100
AcDbEntity
  8
Poneglyph
100
AcDbSpline
210
0.0
220
0.0
230
1.0
 70
     9
 71
     3
 72
    26
 73
    22
 74
     0
 42
0.0000000001
 43
0.0000000001
 40
0.0
 40
0.0
 40
0.0
 40
0.0
 40
1.0
 40
1.0
 40
1.0
 40
2.0
 40
2.0
 40
2.0
 40
3.0
 40
3.0
 40
3.0
 40
4.0
 40
4.0
 40
4.0
 40
5.0
 40
5.0
 40
5.0
 40
6.0
 40
6.0
 40
6.0
 40
7.0
 40
7.0
 40
7.0
 40
7.0
 10
4.354324922511775
 20
-3.212570168479462
 30
0.0
 10
4.349287208194431
 20
-3.231763975769758
 30
0.0
 10
4.265318639284436
 20
-3.288591002754198
 30
0.0
 10
4.252538725446432
 20
-3.269761371908392
 30
0.0
 10
4.255863791425301
 20
-3.22923839977294
 30
0.0
 10
4.22866746048655
 20
-3.077639647372784
 30
0.0
 10
4.264328299779031
 20
-3.07329137063746
 30
0.0
 10
4.264104133811719
 20
-3.158425275418772
 30
0.0
 10
4.290775819337264
 20
-3.078250147081891
 30
0.0
 10
4.316133737790019
 20
-3.110756826419421
 30
0.0
 10
4.285953857882304
 20
-3.131139252356913
 30
0.0
 10
4.231828099966883
 20
-3.184023713673847
 30
0.0
 10
4.308108938460766
 20
-3.154550606453969
 30
0.0
 10
4.346624887837631
 20
-3.149799039604557
 30
0.0
 10
4.299843722336845
 20
-3.198960611417557
 30
0.0
 10
4.277910124389487
 20
-3.18718279034086
 30
0.0
 10
4.24997448799503
 20
-3.182774689982149
 30
0.0
 10
4.280682421941921
 20
-3.206209074061992
 30
0.0
 10
4.268283341206622
 20
-3.218986132744778
 30
0.0
 10
4.242103994160641
 20
-3.304601736708112
 30
0.0
 10
4.348892920814023
 20
-3.170318770176739
 30
0.0
 10
4.354324922511775
 20
-3.212570168479462
 30
0.0
  0
HATCH
  5
DA
330
70
100
AcDbEntity
  8
Poneglyph
 62
   250
420
  2301728
440
 33554687
100
AcDbHatch
 10
0.0
 20
0.0
 30
0.0
210
0.0
220
0.0
230
1.0
  2
SOLID
 70
     1
 71
     1
 91
        5
 92
        1
 93
        1
 72
     4
 94
        3
 73
     0
 74
     0
 95
       20
 96
       16
 40
0.0
 40
0.0
 40
0.0
 40
0.0
 40
1.0
 40
1.0
 40
1.0
 40
2.0
 40
2.0
 40
2.0
 40
3.0
 40
3.0
 40
3.0
 40
4.0
 40
4.0
 40
4.0
 40
5.0
 40
5.0
 40
5.0
 40
5.0
 10
4.411202906452747
 20
-3.263609122472517
 10
4.449059128851861
 20
-3.277837919197887
 10
4.438999023505579
 20
-3.236136888405603
 10
4.437159786507486
 20
-3.21256644578711
 10
4.428980202014498
 20
-3.207935940577852
 10
4.400403264927009
 20
-3.219170833951289
 10
4.415427822626674
 20
-3.197482510631314
 10
4.460052358459734
 20
-3.197703907262848
 10
4.426160737140258
 20
-3.135819586965554
 10
4.439788448897035
 20
-3.102772766452264
 10
4.404180972292047
 20
-3.077412994185932
 10
4.407968958305092
 20
-3.114543520878618
 10
4.411213983271332
 20
-3.142568260062059
 10
4.414389273214409
 20
-3.180808006201838
 10
4.392513614652417
 20
-3.227470072008069
 10
4.411202906452747
 20
-3.263609122472517
 97
        0
 97
        1
330
D5
 92
        1
 93
        1
 72
     4
 94
        3
 73
     0
 74
     0
 95
       14
 96
       10
 40
0.0
 40
0.0
 40
0.0
 40
0.0
 40
1.0
 40
1.0
 40
1.0
 40
2.0
 40
2.0
 40
2.0
 40
3.0
 40
3.0
 40
3.0
 40
3.0
 10
4.44967539994233
 20
-3.078984556500295
 10
4.468235936505934
 20
-3.12799577544269
 10
4.452712954515466
 20
-3.194957753567198
 10
4.456124535018438
 20
-3.250776289465066
 10
4.483009491667543
 20
-3.297882831197259
 10
4.398724104769598
 20
-3.291011624490313
 10
4.386805654688815
 20
-3.260412772015519
 10
4.398899389296553
 20
-3.199767589070031
 10
4.350008655924865
 20
-3.061464118950576
 10
4.44967539994233
 20
-3.078984556500295
 97
        0
 97
        1
330
D6
 92
        1
 93
        1
 72
     4
 94
        3
 73
     0
 74
     0
 95
       11
 96
        7
 40
0.0
 40
0.0
 40
0.0
 40
0.0
 40
1.0
 40
1.0
 40
1.0
 40
2.0
 40
2.0
 40
2.0
 40
2.0
 10
4.354229978935387
 20
-3.174362160666962
 10
4.332957000255317
 20
-3.149913303222926
 10
4.356266124112885
 20
-3.011896494848264
 10
4.366875067809283
 20
-3.097943230025798
 10
4.361623900370306
 20
-3.119201691711648
 10
4.380008316713605
 20
-3.165935704135462
 10
4.354229978935387
 20
-3.174362160666962
 97
        0
 97
        1
330
D7
 92
        1
 93
        1
 72
     4
 94
        3
 73
     0
 74
     0
 95
       11
 96
        7
 40
0.0
 40
0.0
 40
0.0
 40
0.0
 40
1.0
 40
1.0
 40
1.0
 40
2.0
 40
2.0
 40
2.0
 40
2.0
 10
4.354324922511775
 20
-3.250778176291962
 10
4.380282763928258
 20
-3.248047000053853
 10
4.3782124067854
 20
-3.284781550138025
 10
4.35432364590555
 20
-3.282570633275377
 10
4.338543999967289
 20
-3.28216569660996
 10
4.336195135008261
 20
-3.25096166558511
 10
4.354324922511775
 20
-3.250778176291962
 97
        0
 97
        1
330
D8
 92
        1
 93
        1
 72
     4
 94
        3
 73
     0
 74
     0
 95
       26
 96
       22
 40
0.0
 40
0.0
 40
0.0
 40
0.0
 40
1.0
 40
1.0
 40
1.0
 40
2.0
 40
2.0
 40
2.0
 40
3.0
 40
3.0
 40
3.0
 40
4.0
 40
4.0
 40
4.0
 40
5.0
 40
5.0
 40
5.0
 40
6.0
 40
6.0
 40
6.0
 40
7.0
 40
7.0
 40
7.0
 40
7.0
 10
4.354324922511775
 20
-3.212570168479462
 10
4.349287208194431
 20
-3.231763975769758
 10
4.265318639284436
 20
-3.288591002754198
 10
4.252538725446432
 20
-3.269761371908392
 10
4.255863791425301
 20
-3.22923839977294
 10
4.22866746048655
 20
-3.077639647372784
 10
4.264328299779031
 20
-3.07329137063746
 10
4.264104133811719
 20
-3.158425275418772
 10
4.290775819337264
 20
-3.078250147081891
 10
4.316133737790019
 20
-3.110756826419421
 10
4.285953857882304
 20
-3.131139252356913
 10
4.231828099966883
 20
-3.184023713673847
 10
4.308108938460766
 20
-3.154550606453969
 10
4.346624887837631
 20
-3.149799039604557
 10
4.299843722336845
 20
-3.198960611417557
 10
4.277910124389487
 20
-3.18718279034086
 10
4.24997448799503
 20
-3.182774689982149
 10
4.280682421941921
 20
-3.206209074061992
 10
4.268283341206622
 20
-3.218986132744778
 10
4.242103994160641
 20
-3.304601736708112
 10
4.348892920814023
 20
-3.170318770176739
 10
4.354324922511775
 20
-3.212570168479462
 97
        0
 97
        1
330
D9
 75
     2
 76
     1
 98
        1
 10
0.0
 20
0.0
450
        0
451
        0
460
0.0
461
0.0
452
        0
462
0.0
453
        0
470

  0
SPLINE
  5
DB
330
70
100
AcDbEntity
  8
Poneglyph
100
AcDbSpline
210
0.0
220
0.0
230
1.0
 70
     9
 71
     3
 72
    11
 73
     7
 74
     0
 42
0.0000000001
 43
0.0000000001
 40
0.0
 40
0.0
 40
0.0
 40
0.0
 40
1.0
 40
1.0
 40
1.0
 40
2.0
 40
2.0
 40
2.0
 40
2.0
 10
3.609424748900664
 20
-3.437673010147098
 30
0.0
 10
3.610603034237556
 20
-3.450904496352791
 30
0.0
 10
3.597422011010141
 20
-3.51599379921596
 30
0.0
 10
3.620488068539871
 20
-3.513661327294648
 30
0.0
 10
3.623078718727153
 20
-3.501840758457003
 30
0.0
 10
3.634055823729845
 20
-3.407915804506286
 30
0.0
 10
3.609424748900664
 20
-3.437673010147098
 30
0.0
  0
SPLINE
  5
DC
330
70
100
AcDbEntity
  8
Poneglyph
100
AcDbSpline
210
0.0
220
0.0
230
1.0
 70
     9
 71
     3
 72
    17
 73
    13
 74
     0
 42
0.0000000001
 43
0.0000000001
 40
0.0
 40
0.0
 40
0.0
 40
0.0
 40
1.0
 40
1.0
 40
1.0
 40
2.0
 40
2.0
 40
2.0
 40
3.0
 40
3.0
 40
3.0
 40
4.0
 40
4.0
 40
4.0
 40
4.0
 10
3.615840221990942
 20
-3.529836096084598
 30
0.0
 10
3.571388497531049
 20
-3.541884032765854
 30
0.0
 10
3.579338512030592
 20
-3.490985547925864
 30
0.0
 10
3.58958691857342
 20
-3.463927215271685
 30
0.0
 10
3.596130574172535
 20
-3.44632527825897
 30
0.0
 10
3.570018284694305
 20
-3.415893034130792
 30
0.0
 10
3.596583532927486
 20
-3.411427062741154
 30
0.0
 10
3.635951924146449
 20
-3.407088001142597
 30
0.0
 10
3.648128311544572
 20
-3.426851986675008
 30
0.0
 10
3.642084065242935
 20
-3.463936040794919
 30
0.0
 10
3.637360925208162
 20
-3.489929395413443
 30
0.0
 10
3.658662534847899
 20
-3.540658999397805
 30
0.0
 10
3.615840221990942
 20
-3.529836096084598
 30
0.0
  0
SPLINE
  5
DD
330
70
100
AcDbEntity
  8
Poneglyph
100
AcDbSpline
210
0.0
220
0.0
230
1.0
 70
     9
 71
     3
 72
    11
 73
     7
 74
     0
 42
0.0000000001
 43
0.0000000001
 40
0.0
 40
0.0
 40
0.0
 40
0.0
 40
1.0
 40
1.0
 40
1.0
 40
2.0
 40
2.0
 40
2.0
 40
2.0
 10
3.550505478067331
 20
-3.398596946779043
 30
0.0
 10
3.55083117669959
 20
-3.382214979398099
 30
0.0
 10
3.58300015782389
 20
-3.379567849869279
 30
0.0
 10
3.583172822238806
 20
-3.398597775614045
 30
0.0
 10
3.585996461247848
 20
-3.42537703452572
 30
0.0
 10
3.548256710270518
 20
-3.423074712587688
 30
0.0
 10
3.550505478067331
 20
-3.398596946779043
 30
0.0
  0
SPLINE
  5
DE
330
70
100
AcDbEntity
  8
Poneglyph
100
AcDbSpline
210
0.0
220
0.0
230
1.0
 70
     9
 71
     3
 72
    26
 73
    22
 74
     0
 42
0.0000000001
 43
0.0000000001
 40
0.0
 40
0.0
 40
0.0
 40
0.0
 40
1.0
 40
1.0
 40
1.0
 40
2.0
 40
2.0
 40
2.0
 40
3.0
 40
3.0
 40
3.0
 40
4.0
 40
4.0
 40
4.0
 40
5.0
 40
5.0
 40
5.0
 40
6.0
 40
6.0
 40
6.0
 40
7.0
 40
7.0
 40
7.0
 40
7.0
 10
3.681758190740942
 20
-3.352508622126265
 30
0.0
 10
3.706363467687689
 20
-3.378913785720378
 30
0.0
 10
3.680299047414766
 20
-3.427707750584191
 30
0.0
 10
3.688184006127244
 20
-3.463930040118498
 30
0.0
 10
3.682408494062289
 20
-3.499801234608702
 30
0.0
 10
3.715239701131521
 20
-3.579938182359872
 30
0.0
 10
3.655510396423778
 20
-3.56892695601506
 30
0.0
 10
3.622256653141448
 20
-3.568258210127914
 30
0.0
 10
3.584090863419229
 20
-3.570238378924803
 30
0.0
 10
3.551237818972468
 20
-3.56819495200783
 30
0.0
 10
3.532735868927387
 20
-3.498226694782475
 30
0.0
 10
3.560943470479501
 20
-3.489757094271314
 30
0.0
 10
3.577617947225209
 20
-3.551719085082809
 30
0.0
 10
3.72010875281262
 20
-3.552563571245412
 30
0.0
 10
3.655238264401368
 20
-3.54566843635132
 30
0.0
 10
3.66834747724532
 20
-3.391875111710848
 30
0.0
 10
3.643104368377104
 20
-3.439075820288646
 30
0.0
 10
3.562212644749971
 20
-3.388920724363679
 30
0.0
 10
3.596582994530422
 20
-3.352502864346825
 30
0.0
 10
3.636451439856273
 20
-3.410701393920703
 30
0.0
 10
3.631860968972823
 20
-3.38834132523065
 30
0.0
 10
3.681758190740942
 20
-3.352508622126265
 30
0.0
  0
SPLINE
  5
DF
330
70
100
AcDbEntity
  8
Poneglyph
100
AcDbSpline
210
0.0
220
0.0
230
1.0
 70
     9
 71
     3
 72
    17
 73
    13
 74
     0
 42
0.0000000001
 43
0.0000000001
 40
0.0
 40
0.0
 40
0.0
 40
0.0
 40
1.0
 40
1.0
 40
1.0
 40
2.0
 40
2.0
 40
2.0
 40
3.0
 40
3.0
 40
3.0
 40
4.0
 40
4.0
 40
4.0
 40
4.0
 10
3.478172036227053
 20
-3.490176807890154
 30
0.0
 10
3.439097268536026
 20
-3.453530769863479
 30
0.0
 10
3.61689443986212
 20
-3.4683525986875
 30
0.0
 10
3.556922818796035
 20
-3.490178407199778
 30
0.0
 10
3.513285915745225
 20
-3.482328867881316
 30
0.0
 10
3.513505490791506
 20
-3.497727866961756
 30
0.0
 10
3.517847636314917
 20
-3.536274271344141
 30
0.0
 10
3.528266670813814
 20
-3.579722372224157
 30
0.0
 10
3.482361125661896
 20
-3.578640651316959
 30
0.0
 10
3.491592880814689
 20
-3.536263374739405
 30
0.0
 10
3.495476382712177
 20
-3.517218457962182
 30
0.0
 10
3.514788884112539
 20
-3.478726810534971
 30
0.0
 10
3.478172036227053
 20
-3.490176807890154
 30
0.0
  0
SPLINE
  5
E0
330
70
100
AcDbEntity
  8
Poneglyph
100
AcDbSpline
210
0.0
220
0.0
230
1.0
 70
     9
 71
     3
 72
    20
 73
    16
 74
     0
 42
0.0000000001
 43
0.0000000001
 40
0.0
 40
0.0
 40
0.0
 40
0.0
 40
1.0
 40
1.0
 40
1.0
 40
2.0
 40
2.0
 40
2.0
 40
3.0
 40
3.0
 40
3.0
 40
4.0
 40
4.0
 40
4.0
 40
5.0
 40
5.0
 40
5.0
 40
5.0
 10
3.478172036227053
 20
-3.451087181154043
 30
0.0
 10
3.463490618427272
 20
-3.425817551358565
 30
0.0
 10
3.475412520534543
 20
-3.387600212333116
 30
0.0
 10
3.471750552690537
 20
-3.358925034889314
 30
0.0
 10
3.492887133293909
 20
-3.347184507092543
 30
0.0
 10
3.540659289866728
 20
-3.348440624887454
 30
0.0
 10
3.563343033636505
 20
-3.358910920510664
 30
0.0
 10
3.55762701736579
 20
-3.383957187195253
 30
0.0
 10
3.514717283824653
 20
-3.369881295404423
 30
0.0
 10
3.496403216587661
 20
-3.369427219806526
 30
0.0
 10
3.459665697351561
 20
-3.405842827742124
 30
0.0
 10
3.530992736436637
 20
-3.383267118573396
 30
0.0
 10
3.544086842823907
 20
-3.398589586441895
 30
0.0
 10
3.49819074302886
 20
-3.438626844371444
 30
0.0
 10
3.507637346931927
 20
-3.37304588734043
 30
0.0
 10
3.478172036227053
 20
-3.451087181154043
 30
0.0
  0
HATCH
  5
E1
330
70
100
AcDbEntity
  8
Poneglyph
 62
   250
420
  2301728
440
 33554687
100
AcDbHatch
 10
0.0
 20
0.0
 30
0.0
210
0.0
220
0.0
230
1.0
  2
SOLID
 70
     1
 71
     1
 91
        6
 92
        1
 93
        1
 72
     4
 94
        3
 73
     0
 74
     0
 95
       11
 96
        7
 40
0.0
 40
0.0
 40
0.0
 40
0.0
 40
1.0
 40
1.0
 40
1.0
 40
2.0
 40
2.0
 40
2.0
 40
2.0
 10
3.609424748900664
 20
-3.437673010147098
 10
3.610603034237556
 20
-3.450904496352791
 10
3.597422011010141
 20
-3.51599379921596
 10
3.620488068539871
 20
-3.513661327294648
 10
3.623078718727153
 20
-3.501840758457003
 10
3.634055823729845
 20
-3.407915804506286
 10
3.609424748900664
 20
-3.437673010147098
 97
        0
 97
        1
330
DB
 92
        1
 93
        1
 72
     4
 94
        3
 73
     0
 74
     0
 95
       17
 96
       13
 40
0.0
 40
0.0
 40
0.0
 40
0.0
 40
1.0
 40
1.0
 40
1.0
 40
2.0
 40
2.0
 40
2.0
 40
3.0
 40
3.0
 40
3.0
 40
4.0
 40
4.0
 40
4.0
 40
4.0
 10
3.615840221990942
 20
-3.529836096084598
 10
3.571388497531049
 20
-3.541884032765854
 10
3.579338512030592
 20
-3.490985547925864
 10
3.58958691857342
 20
-3.463927215271685
 10
3.596130574172535
 20
-3.44632527825897
 10
3.570018284694305
 20
-3.415893034130792
 10
3.596583532927486
 20
-3.411427062741154
 10
3.635951924146449
 20
-3.407088001142597
 10
3.648128311544572
 20
-3.426851986675008
 10
3.642084065242935
 20
-3.463936040794919
 10
3.637360925208162
 20
-3.489929395413443
 10
3.658662534847899
 20
-3.540658999397805
 10
3.615840221990942
 20
-3.529836096084598
 97
        0
 97
        1
330
DC
 92
        1
 93
        1
 72
     4
 94
        3
 73
     0
 74
     0
 95
       11
 96
        7
 40
0.0
 40
0.0
 40
0.0
 40
0.0
 40
1.0
 40
1.0
 40
1.0
 40
2.0
 40
2.0
 40
2.0
 40
2.0
 10
3.550505478067331
 20
-3.398596946779043
 10
3.55083117669959
 20
-3.382214979398099
 10
3.58300015782389
 20
-3.379567849869279
 10
3.583172822238806
 20
-3.398597775614045
 10
3.585996461247848
 20
-3.42537703452572
 10
3.548256710270518
 20
-3.423074712587688
 10
3.550505478067331
 20
-3.398596946779043
 97
        0
 97
        1
330
DD
 92
        1
 93
        1
 72
     4
 94
        3
 73
     0
 74
     0
 95
       26
 96
       22
 40
0.0
 40
0.0
 40
0.0
 40
0.0
 40
1.0
 40
1.0
 40
1.0
 40
2.0
 40
2.0
 40
2.0
 40
3.0
 40
3.0
 40
3.0
 40
4.0
 40
4.0
 40
4.0
 40
5.0
 40
5.0
 40
5.0
 40
6.0
 40
6.0
 40
6.0
 40
7.0
 40
7.0
 40
7.0
 40
7.0
 10
3.681758190740942
 20
-3.352508622126265
 10
3.706363467687689
 20
-3.378913785720378
 10
3.680299047414766
 20
-3.427707750584191
 10
3.688184006127244
 20
-3.463930040118498
 10
3.682408494062289
 20
-3.499801234608702
 10
3.715239701131521
 20
-3.579938182359872
 10
3.655510396423778
 20
-3.56892695601506
 10
3.622256653141448
 20
-3.568258210127914
 10
3.584090863419229
 20
-3.570238378924803
 10
3.551237818972468
 20
-3.56819495200783
 10
3.532735868927387
 20
-3.498226694782475
 10
3.560943470479501
 20
-3.489757094271314
 10
3.577617947225209
 20
-3.551719085082809
 10
3.72010875281262
 20
-3.552563571245412
 10
3.655238264401368
 20
-3.54566843635132
 10
3.66834747724532
 20
-3.391875111710848
 10
3.643104368377104
 20
-3.439075820288646
 10
3.562212644749971
 20
-3.388920724363679
 10
3.596582994530422
 20
-3.352502864346825
 10
3.636451439856273
 20
-3.410701393920703
 10
3.631860968972823
 20
-3.38834132523065
 10
3.681758190740942
 20
-3.352508622126265
 97
        0
 97
        1
330
DE
 92
        1
 93
        1
 72
     4
 94
        3
 73
     0
 74
     0
 95
       17
 96
       13
 40
0.0
 40
0.0
 40
0.0
 40
0.0
 40
1.0
 40
1.0
 40
1.0
 40
2.0
 40
2.0
 40
2.0
 40
3.0
 40
3.0
 40
3.0
 40
4.0
 40
4.0
 40
4.0
 40
4.0
 10
3.478172036227053
 20
-3.490176807890154
 10
3.439097268536026
 20
-3.453530769863479
 10
3.61689443986212
 20
-3.4683525986875
 10
3.556922818796035
 20
-3.490178407199778
 10
3.513285915745225
 20
-3.482328867881316
 10
3.513505490791506
 20
-3.497727866961756
 10
3.517847636314917
 20
-3.536274271344141
 10
3.528266670813814
 20
-3.579722372224157
 10
3.482361125661896
 20
-3.578640651316959
 10
3.491592880814689
 20
-3.536263374739405
 10
3.495476382712177
 20
-3.517218457962182
 10
3.514788884112539
 20
-3.478726810534971
 10
3.478172036227053
 20
-3.490176807890154
 97
        0
 97
        1
330
DF
 92
        1
 93
        1
 72
     4
 94
        3
 73
     0
 74
     0
 95
       20
 96
       16
 40
0.0
 40
0.0
 40
0.0
 40
0.0
 40
1.0
 40
1.0
 40
1.0
 40
2.0
 40
2.0
 40
2.0
 40
3.0
 40
3.0
 40
3.0
 40
4.0
 40
4.0
 40
4.0
 40
5.0
 40
5.0
 40
5.0
 40
5.0
 10
3.478172036227053
 20
-3.451087181154043
 10
3.463490618427272
 20
-3.425817551358565
 10
3.475412520534543
 20
-3.387600212333116
 10
3.471750552690537
 20
-3.358925034889314
 10
3.492887133293909
 20
-3.347184507092543
 10
3.540659289866728
 20
-3.348440624887454
 10
3.563343033636505
 20
-3.358910920510664
 10
3.55762701736579
 20
-3.383957187195253
 10
3.514717283824653
 20
-3.369881295404423
 10
3.496403216587661
 20
-3.369427219806526
 10
3.459665697351561
 20
-3.405842827742124
 10
3.530992736436637
 20
-3.383267118573396
 10
3.544086842823907
 20
-3.398589586441895
 10
3.49819074302886
 20
-3.438626844371444
 10
3.507637346931927
 20
-3.37304588734043
 10
3.478172036227053
 20
-3.451087181154043
 97
        0
 97
        1
330
E0
 75
     2
 76
     1
 98
        1
 10
0.0
 20
0.0
450
        0
451
        0
460
0.0
461
0.0
452
        0
462
0.0
453
        0
470

  0
SPLINE
  5
E2
330
70
100
AcDbEntity
  8
Poneglyph
100
AcDbSpline
210
0.0
220
0.0
230
1.0
 70
     9
 71
     3
 72
    20
 73
    16
 74
     0
 42
0.0000000001
 43
0.0000000001
 40
0.0
 40
0.0
 40
0.0
 40
0.0
 40
1.0
 40
1.0
 40
1.0
 40
2.0
 40
2.0
 40
2.0
 40
3.0
 40
3.0
 40
3.0
 40
4.0
 40
4.0
 40
4.0
 40
5.0
 40
5.0
 40
5.0
 40
5.0
 10
3.89496077320622
 20
-3.546497869204358
 30
0.0
 10
3.932816995605334
 20
-3.560726665929728
 30
0.0
 10
3.922756890259051
 20
-3.519025635137444
 30
0.0
 10
3.920917653260958
 20
-3.49545519251895
 30
0.0
 10
3.91273806876797
 20
-3.490824687309693
 30
0.0
 10
3.884161131680482
 20
-3.50205958068313
 30
0.0
 10
3.899185689380146
 20
-3.480371257363155
 30
0.0
 10
3.943810225213205
 20
-3.480592653994689
 30
0.0
 10
3.90991860389373
 20
-3.41870833369742
 30
0.0
 10
3.923546315650506
 20
-3.385661513184105
 30
0.0
 10
3.88793883904552
 20
-3.360301740917773
 30
0.0
 10
3.891726825058564
 20
-3.397432267610459
 30
0.0
 10
3.894971850024805
 20
-3.4254570067939
 30
0.0
 10
3.898147139967881
 20
-3.463696752933679
 30
0.0
 10
3.87627148140589
 20
-3.51035881873991
 30
0.0
 10
3.89496077320622
 20
-3.546497869204358
 30
0.0
  0
SPLINE
  5
E3
330
70
100
AcDbEntity
  8
Poneglyph
100
AcDbSpline
210
0.0
220
0.0
230
1.0
 70
     9
 71
     3
 72
    14
 73
    10
 74
     0
 42
0.0000000001
 43
0.0000000001
 40
0.0
 40
0.0
 40
0.0
 40
0.0
 40
1.0
 40
1.0
 40
1.0
 40
2.0
 40
2.0
 40
2.0
 40
3.0
 40
3.0
 40
3.0
 40
3.0
 10
3.933433266695803
 20
-3.361873303232136
 30
0.0
 10
3.951993803259407
 20
-3.410884522174531
 30
0.0
 10
3.936470821268938
 20
-3.477846500299038
 30
0.0
 10
3.93988240177191
 20
-3.533665036196907
 30
0.0
 10
3.966767358421015
 20
-3.580771577929074
 30
0.0
 10
3.88248197152307
 20
-3.573900371222154
 30
0.0
 10
3.870563521442274
 20
-3.54330151874736
 30
0.0
 10
3.882657256050025
 20
-3.482656335801872
 30
0.0
 10
3.833766522678324
 20
-3.344352865682417
 30
0.0
 10
3.933433266695803
 20
-3.361873303232136
 30
0.0
  0
SPLINE
  5
E4
330
70
100
AcDbEntity
  8
Poneglyph
100
AcDbSpline
210
0.0
220
0.0
230
1.0
 70
     9
 71
     3
 72
    11
 73
     7
 74
     0
 42
0.0000000001
 43
0.0000000001
 40
0.0
 40
0.0
 40
0.0
 40
0.0
 40
1.0
 40
1.0
 40
1.0
 40
2.0
 40
2.0
 40
2.0
 40
2.0
 10
3.837987845688859
 20
-3.457250907398802
 30
0.0
 10
3.816714867008777
 20
-3.432802049954766
 30
0.0
 10
3.840023990866357
 20
-3.294785241580105
 30
0.0
 10
3.850632934562743
 20
-3.380831976757639
 30
0.0
 10
3.845381767123765
 20
-3.402090438443489
 30
0.0
 10
3.863766183467065
 20
-3.448824450867302
 30
0.0
 10
3.837987845688859
 20
-3.457250907398802
 30
0.0
  0
SPLINE
  5
E5
330
70
100
AcDbEntity
  8
Poneglyph
100
AcDbSpline
210
0.0
220
0.0
230
1.0
 70
     9
 71
     3
 72
    11
 73
     7
 74
     0
 42
0.0000000001
 43
0.0000000001
 40
0.0
 40
0.0
 40
0.0
 40
0.0
 40
1.0
 40
1.0
 40
1.0
 40
2.0
 40
2.0
 40
2.0
 40
2.0
 10
3.838082789265247
 20
-3.533666923023802
 30
0.0
 10
3.864040630681731
 20
-3.530935746785694
 30
0.0
 10
3.861970273538872
 20
-3.567670296869866
 30
0.0
 10
3.838081512659009
 20
-3.565459380007218
 30
0.0
 10
3.822301866720762
 20
-3.5650544433418
 30
0.0
 10
3.819953001761746
 20
-3.533850412316976
 30
0.0
 10
3.838082789265247
 20
-3.533666923023802
 30
0.0
  0
SPLINE
  5
E6
330
70
100
AcDbEntity
  8
Poneglyph
100
AcDbSpline
210
0.0
220
0.0
230
1.0
 70
     9
 71
     3
 72
    26
 73
    22
 74
     0
 42
0.0000000001
 43
0.0000000001
 40
0.0
 40
0.0
 40
0.0
 40
0.0
 40
1.0
 40
1.0
 40
1.0
 40
2.0
 40
2.0
 40
2.0
 40
3.0
 40
3.0
 40
3.0
 40
4.0
 40
4.0
 40
4.0
 40
5.0
 40
5.0
 40
5.0
 40
6.0
 40
6.0
 40
6.0
 40
7.0
 40
7.0
 40
7.0
 40
7.0
 10
3.838082789265247
 20
-3.495458915211302
 30
0.0
 10
3.833045074947916
 20
-3.514652722501598
 30
0.0
 10
3.749076506037908
 20
-3.571479749486039
 30
0.0
 10
3.736296592199904
 20
-3.552650118640233
 30
0.0
 10
3.73962165817876
 20
-3.512127146504781
 30
0.0
 10
3.71242532724001
 20
-3.360528394104625
 30
0.0
 10
3.748086166532516
 20
-3.3561801173693
 30
0.0
 10
3.747862000565103
 20
-3.441314022150764
 30
0.0
 10
3.774533686090775
 20
-3.361138893813631
 30
0.0
 10
3.799891604543505
 20
-3.393645573151262
 30
0.0
 10
3.769711724635776
 20
-3.414027999088754
 30
0.0
 10
3.715585966720343
 20
-3.466912460405688
 30
0.0
 10
3.791866805214239
 20
-3.43743935318581
 30
0.0
 10
3.830382754591116
 20
-3.432687786336398
 30
0.0
 10
3.783601589090317
 20
-3.481849358149398
 30
0.0
 10
3.76166799114296
 20
-3.470071537072701
 30
0.0
 10
3.733732354748503
 20
-3.46566343671399
 30
0.0
 10
3.764440288695393
 20
-3.489097820793833
 30
0.0
 10
3.752041207960094
 20
-3.501874879476619
 30
0.0
 10
3.725861860914114
 20
-3.587490483439953
 30
0.0
 10
3.832650787567495
 20
-3.45320751690858
 30
0.0
 10
3.838082789265247
 20
-3.495458915211302
 30
0.0
  0
HATCH
  5
E7
330
70
100
AcDbEntity
  8
Poneglyph
 62
   250
420
  2301728
440
 33554687
100
AcDbHatch
 10
0.0
 20
0.0
 30
0.0
210
0.0
220
0.0
230
1.0
  2
SOLID
 70
     1
 71
     1
 91
        5
 92
        1
 93
        1
 72
     4
 94
        3
 73
     0
 74
     0
 95
       20
 96
       16
 40
0.0
 40
0.0
 40
0.0
 40
0.0
 40
1.0
 40
1.0
 40
1.0
 40
2.0
 40
2.0
 40
2.0
 40
3.0
 40
3.0
 40
3.0
 40
4.0
 40
4.0
 40
4.0
 40
5.0
 40
5.0
 40
5.0
 40
5.0
 10
3.89496077320622
 20
-3.546497869204358
 10
3.932816995605334
 20
-3.560726665929728
 10
3.922756890259051
 20
-3.519025635137444
 10
3.920917653260958
 20
-3.49545519251895
 10
3.91273806876797
 20
-3.490824687309693
 10
3.884161131680482
 20
-3.50205958068313
 10
3.899185689380146
 20
-3.480371257363155
 10
3.943810225213205
 20
-3.480592653994689
 10
3.90991860389373
 20
-3.41870833369742
 10
3.923546315650506
 20
-3.385661513184105
 10
3.88793883904552
 20
-3.360301740917773
 10
3.891726825058564
 20
-3.397432267610459
 10
3.894971850024805
 20
-3.4254570067939
 10
3.898147139967881
 20
-3.463696752933679
 10
3.87627148140589
 20
-3.51035881873991
 10
3.89496077320622
 20
-3.546497869204358
 97
        0
 97
        1
330
E2
 92
        1
 93
        1
 72
     4
 94
        3
 73
     0
 74
     0
 95
       14
 96
       10
 40
0.0
 40
0.0
 40
0.0
 40
0.0
 40
1.0
 40
1.0
 40
1.0
 40
2.0
 40
2.0
 40
2.0
 40
3.0
 40
3.0
 40
3.0
 40
3.0
 10
3.933433266695803
 20
-3.361873303232136
 10
3.951993803259407
 20
-3.410884522174531
 10
3.936470821268938
 20
-3.477846500299038
 10
3.93988240177191
 20
-3.533665036196907
 10
3.966767358421015
 20
-3.580771577929074
 10
3.88248197152307
 20
-3.573900371222154
 10
3.870563521442274
 20
-3.54330151874736
 10
3.882657256050025
 20
-3.482656335801872
 10
3.833766522678324
 20
-3.344352865682417
 10
3.933433266695803
 20
-3.361873303232136
 97
        0
 97
        1
330
E3
 92
        1
 93
        1
 72
     4
 94
        3
 73
     0
 74
     0
 95
       11
 96
        7
 40
0.0
 40
0.0
 40
0.0
 40
0.0
 40
1.0
 40
1.0
 40
1.0
 40
2.0
 40
2.0
 40
2.0
 40
2.0
 10
3.837987845688859
 20
-3.457250907398802
 10
3.816714867008777
 20
-3.432802049954766
 10
3.840023990866357
 20
-3.294785241580105
 10
3.850632934562743
 20
-3.380831976757639
 10
3.845381767123765
 20
-3.402090438443489
 10
3.863766183467065
 20
-3.448824450867302
 10
3.837987845688859
 20
-3.457250907398802
 97
        0
 97
        1
330
E4
 92
        1
 93
        1
 72
     4
 94
        3
 73
     0
 74
     0
 95
       11
 96
        7
 40
0.0
 40
0.0
 40
0.0
 40
0.0
 40
1.0
 40
1.0
 40
1.0
 40
2.0
 40
2.0
 40
2.0
 40
2.0
 10
3.838082789265247
 20
-3.533666923023802
 10
3.864040630681731
 20
-3.530935746785694
 10
3.861970273538872
 20
-3.567670296869866
 10
3.838081512659009
 20
-3.565459380007218
 10
3.822301866720762
 20
-3.5650544433418
 10
3.819953001761746
 20
-3.533850412316976
 10
3.838082789265247
 20
-3.533666923023802
 97
        0
 97
        1
330
E5
 92
        1
 93
        1
 72
     4
 94
        3
 73
     0
 74
     0
 95
       26
 96
       22
 40
0.0
 40
0.0
 40
0.0
 40
0.0
 40
1.0
 40
1.0
 40
1.0
 40
2.0
 40
2.0
 40
2.0
 40
3.0
 40
3.0
 40
3.0
 40
4.0
 40
4.0
 40
4.0
 40
5.0
 40
5.0
 40
5.0
 40
6.0
 40
6.0
 40
6.0
 40
7.0
 40
7.0
 40
7.0
 40
7.0
 10
3.838082789265247
 20
-3.495458915211302
 10
3.833045074947916
 20
-3.514652722501598
 10
3.749076506037908
 20
-3.571479749486039
 10
3.736296592199904
 20
-3.552650118640233
 10
3.73962165817876
 20
-3.512127146504781
 10
3.71242532724001
 20
-3.360528394104625
 10
3.748086166532516
 20
-3.3561801173693
 10
3.747862000565103
 20
-3.441314022150764
 10
3.774533686090775
 20
-3.361138893813631
 10
3.799891604543505
 20
-3.393645573151262
 10
3.769711724635776
 20
-3.414027999088754
 10
3.715585966720343
 20
-3.466912460405688
 10
3.791866805214239
 20
-3.43743935318581
 10
3.830382754591116
 20
-3.432687786336398
 10
3.783601589090317
 20
-3.481849358149398
 10
3.76166799114296
 20
-3.470071537072701
 10
3.733732354748503
 20
-3.46566343671399
 10
3.764440288695393
 20
-3.489097820793833
 10
3.752041207960094
 20
-3.501874879476619
 10
3.725861860914114
 20
-3.587490483439953
 10
3.832650787567495
 20
-3.45320751690858
 10
3.838082789265247
 20
-3.495458915211302
 97
        0
 97
        1
330
E6
 75
     2
 76
     1
 98
        1
 10
0.0
 20
0.0
450
        0
451
        0
460
0.0
461
0.0
452
        0
462
0.0
453
        0
470

  0
SPLINE
  5
E8
330
70
100
AcDbEntity
  8
Poneglyph
100
AcDbSpline
210
0.0
220
0.0
230
1.0
 70
     9
 71
     3
 72
    20
 73
    16
 74
     0
 42
0.0000000001
 43
0.0000000001
 40
0.0
 40
0.0
 40
0.0
 40
0.0
 40
1.0
 40
1.0
 40
1.0
 40
2.0
 40
2.0
 40
2.0
 40
3.0
 40
3.0
 40
3.0
 40
4.0
 40
4.0
 40
4.0
 40
5.0
 40
5.0
 40
5.0
 40
5.0
 10
4.153085230671497
 20
-3.546497869204358
 30
0.0
 10
4.190941453070611
 20
-3.560726665929728
 30
0.0
 10
4.180881347724329
 20
-3.519025635137444
 30
0.0
 10
4.179042110726236
 20
-3.49545519251895
 30
0.0
 10
4.170862526233248
 20
-3.490824687309693
 30
0.0
 10
4.142285589145759
 20
-3.50205958068313
 30
0.0
 10
4.157310146845424
 20
-3.480371257363155
 30
0.0
 10
4.201934682678484
 20
-3.480592653994689
 30
0.0
 10
4.168043061359008
 20
-3.41870833369742
 30
0.0
 10
4.181670773115785
 20
-3.385661513184105
 30
0.0
 10
4.146063296510797
 20
-3.360301740917773
 30
0.0
 10
4.149851282523842
 20
-3.397432267610459
 30
0.0
 10
4.153096307490082
 20
-3.4254570067939
 30
0.0
 10
4.156271597433159
 20
-3.463696752933679
 30
0.0
 10
4.134395938871167
 20
-3.51035881873991
 30
0.0
 10
4.153085230671497
 20
-3.546497869204358
 30
0.0
  0
SPLINE
  5
E9
330
70
100
AcDbEntity
  8
Poneglyph
100
AcDbSpline
210
0.0
220
0.0
230
1.0
 70
     9
 71
     3
 72
    14
 73
    10
 74
     0
 42
0.0000000001
 43
0.0000000001
 40
0.0
 40
0.0
 40
0.0
 40
0.0
 40
1.0
 40
1.0
 40
1.0
 40
2.0
 40
2.0
 40
2.0
 40
3.0
 40
3.0
 40
3.0
 40
3.0
 10
4.19155772416108
 20
-3.361873303232136
 30
0.0
 10
4.210118260724685
 20
-3.410884522174531
 30
0.0
 10
4.194595278734216
 20
-3.477846500299038
 30
0.0
 10
4.198006859237188
 20
-3.533665036196907
 30
0.0
 10
4.224891815886293
 20
-3.580771577929074
 30
0.0
 10
4.140606428988348
 20
-3.573900371222154
 30
0.0
 10
4.128687978907565
 20
-3.54330151874736
 30
0.0
 10
4.140781713515303
 20
-3.482656335801872
 30
0.0
 10
4.091890980143615
 20
-3.344352865682417
 30
0.0
 10
4.19155772416108
 20
-3.361873303232136
 30
0.0
  0
SPLINE
  5
EA
330
70
100
AcDbEntity
  8
Poneglyph
100
AcDbSpline
210
0.0
220
0.0
230
1.0
 70
     9
 71
     3
 72
    11
 73
     7
 74
     0
 42
0.0000000001
 43
0.0000000001
 40
0.0
 40
0.0
 40
0.0
 40
0.0
 40
1.0
 40
1.0
 40
1.0
 40
2.0
 40
2.0
 40
2.0
 40
2.0
 10
4.096112303154137
 20
-3.457250907398802
 30
0.0
 10
4.074839324474067
 20
-3.432802049954766
 30
0.0
 10
4.098148448331635
 20
-3.294785241580105
 30
0.0
 10
4.108757392028033
 20
-3.380831976757639
 30
0.0
 10
4.103506224589056
 20
-3.402090438443489
 30
0.0
 10
4.121890640932355
 20
-3.448824450867302
 30
0.0
 10
4.096112303154137
 20
-3.457250907398802
 30
0.0
  0
SPLINE
  5
EB
330
70
100
AcDbEntity
  8
Poneglyph
100
AcDbSpline
210
0.0
220
0.0
230
1.0
 70
     9
 71
     3
 72
    11
 73
     7
 74
     0
 42
0.0000000001
 43
0.0000000001
 40
0.0
 40
0.0
 40
0.0
 40
0.0
 40
1.0
 40
1.0
 40
1.0
 40
2.0
 40
2.0
 40
2.0
 40
2.0
 10
4.096207246730525
 20
-3.533666923023802
 30
0.0
 10
4.122165088147008
 20
-3.530935746785694
 30
0.0
 10
4.12009473100415
 20
-3.567670296869866
 30
0.0
 10
4.0962059701243
 20
-3.565459380007218
 30
0.0
 10
4.080426324186039
 20
-3.5650544433418
 30
0.0
 10
4.078077459227011
 20
-3.533850412316976
 30
0.0
 10
4.096207246730525
 20
-3.533666923023802
 30
0.0
  0
SPLINE
  5
EC
330
70
100
AcDbEntity
  8
Poneglyph
100
AcDbSpline
210
0.0
220
0.0
230
1.0
 70
     9
 71
     3
 72
    26
 73
    22
 74
     0
 42
0.0000000001
 43
0.0000000001
 40
0.0
 40
0.0
 40
0.0
 40
0.0
 40
1.0
 40
1.0
 40
1.0
 40
2.0
 40
2.0
 40
2.0
 40
3.0
 40
3.0
 40
3.0
 40
4.0
 40
4.0
 40
4.0
 40
5.0
 40
5.0
 40
5.0
 40
6.0
 40
6.0
 40
6.0
 40
7.0
 40
7.0
 40
7.0
 40
7.0
 10
4.096207246730525
 20
-3.495458915211302
 30
0.0
 10
4.091169532413181
 20
-3.514652722501598
 30
0.0
 10
4.007200963503186
 20
-3.571479749486039
 30
0.0
 10
3.994421049665182
 20
-3.552650118640233
 30
0.0
 10
3.997746115644051
 20
-3.512127146504781
 30
0.0
 10
3.970549784705301
 20
-3.360528394104625
 30
0.0
 10
4.006210623997781
 20
-3.3561801173693
 30
0.0
 10
4.005986458030267
 20
-3.441314022150941
 30
0.0
 10
4.032658143556115
 20
-3.36113889381353
 30
0.0
 10
4.058016062008769
 20
-3.393645573151262
 30
0.0
 10
4.027836182101054
 20
-3.414027999088754
 30
0.0
 10
3.973710424185633
 20
-3.466912460405688
 30
0.0
 10
4.049991262679516
 20
-3.43743935318581
 30
0.0
 10
4.088507212056381
 20
-3.432687786336398
 30
0.0
 10
4.041726046555595
 20
-3.481849358149398
 30
0.0
 10
4.019792448608237
 20
-3.470071537072701
 30
0.0
 10
3.99185681221378
 20
-3.46566343671399
 30
0.0
 10
4.022564746160671
 20
-3.489097820793833
 30
0.0
 10
4.010165665425372
 20
-3.501874879476619
 30
0.0
 10
3.983986318379391
 20
-3.587490483439953
 30
0.0
 10
4.090775245032773
 20
-3.45320751690858
 30
0.0
 10
4.096207246730525
 20
-3.495458915211302
 30
0.0
  0
HATCH
  5
ED
330
70
100
AcDbEntity
  8
Poneglyph
 62
   250
420
  2301728
440
 33554687
100
AcDbHatch
 10
0.0
 20
0.0
 30
0.0
210
0.0
220
0.0
230
1.0
  2
SOLID
 70
     1
 71
     1
 91
        5
 92
        1
 93
        1
 72
     4
 94
        3
 73
     0
 74
     0
 95
       20
 96
       16
 40
0.0
 40
0.0
 40
0.0
 40
0.0
 40
1.0
 40
1.0
 40
1.0
 40
2.0
 40
2.0
 40
2.0
 40
3.0
 40
3.0
 40
3.0
 40
4.0
 40
4.0
 40
4.0
 40
5.0
 40
5.0
 40
5.0
 40
5.0
 10
4.153085230671497
 20
-3.546497869204358
 10
4.190941453070611
 20
-3.560726665929728
 10
4.180881347724329
 20
-3.519025635137444
 10
4.179042110726236
 20
-3.49545519251895
 10
4.170862526233248
 20
-3.490824687309693
 10
4.142285589145759
 20
-3.50205958068313
 10
4.157310146845424
 20
-3.480371257363155
 10
4.201934682678484
 20
-3.480592653994689
 10
4.168043061359008
 20
-3.41870833369742
 10
4.181670773115785
 20
-3.385661513184105
 10
4.146063296510797
 20
-3.360301740917773
 10
4.149851282523842
 20
-3.397432267610459
 10
4.153096307490082
 20
-3.4254570067939
 10
4.156271597433159
 20
-3.463696752933679
 10
4.134395938871167
 20
-3.51035881873991
 10
4.153085230671497
 20
-3.546497869204358
 97
        0
 97
        1
330
E8
 92
        1
 93
        1
 72
     4
 94
        3
 73
     0
 74
     0
 95
       14
 96
       10
 40
0.0
 40
0.0
 40
0.0
 40
0.0
 40
1.0
 40
1.0
 40
1.0
 40
2.0
 40
2.0
 40
2.0
 40
3.0
 40
3.0
 40
3.0
 40
3.0
 10
4.19155772416108
 20
-3.361873303232136
 10
4.210118260724685
 20
-3.410884522174531
 10
4.194595278734216
 20
-3.477846500299038
 10
4.198006859237188
 20
-3.533665036196907
 10
4.224891815886293
 20
-3.580771577929074
 10
4.140606428988348
 20
-3.573900371222154
 10
4.128687978907565
 20
-3.54330151874736
 10
4.140781713515303
 20
-3.482656335801872
 10
4.091890980143615
 20
-3.344352865682417
 10
4.19155772416108
 20
-3.361873303232136
 97
        0
 97
        1
330
E9
 92
        1
 93
        1
 72
     4
 94
        3
 73
     0
 74
     0
 95
       11
 96
        7
 40
0.0
 40
0.0
 40
0.0
 40
0.0
 40
1.0
 40
1.0
 40
1.0
 40
2.0
 40
2.0
 40
2.0
 40
2.0
 10
4.096112303154137
 20
-3.457250907398802
 10
4.074839324474067
 20
-3.432802049954766
 10
4.098148448331635
 20
-3.294785241580105
 10
4.108757392028033
 20
-3.380831976757639
 10
4.103506224589056
 20
-3.402090438443489
 10
4.121890640932355
 20
-3.448824450867302
 10
4.096112303154137
 20
-3.457250907398802
 97
        0
 97
        1
330
EA
 92
        1
 93
        1
 72
     4
 94
        3
 73
     0
 74
     0
 95
       11
 96
        7
 40
0.0
 40
0.0
 40
0.0
 40
0.0
 40
1.0
 40
1.0
 40
1.0
 40
2.0
 40
2.0
 40
2.0
 40
2.0
 10
4.096207246730525
 20
-3.533666923023802
 10
4.122165088147008
 20
-3.530935746785694
 10
4.12009473100415
 20
-3.567670296869866
 10
4.0962059701243
 20
-3.565459380007218
 10
4.080426324186039
 20
-3.5650544433418
 10
4.078077459227011
 20
-3.533850412316976
 10
4.096207246730525
 20
-3.533666923023802
 97
        0
 97
        1
330
EB
 92
        1
 93
        1
 72
     4
 94
        3
 73
     0
 74
     0
 95
       26
 96
       22
 40
0.0
 40
0.0
 40
0.0
 40
0.0
 40
1.0
 40
1.0
 40
1.0
 40
2.0
 40
2.0
 40
2.0
 40
3.0
 40
3.0
 40
3.0
 40
4.0
 40
4.0
 40
4.0
 40
5.0
 40
5.0
 40
5.0
 40
6.0
 40
6.0
 40
6.0
 40
7.0
 40
7.0
 40
7.0
 40
7.0
 10
4.096207246730525
 20
-3.495458915211302
 10
4.091169532413181
 20
-3.514652722501598
 10
4.007200963503186
 20
-3.571479749486039
 10
3.994421049665182
 20
-3.552650118640233
 10
3.997746115644051
 20
-3.512127146504781
 10
3.970549784705301
 20
-3.360528394104625
 10
4.006210623997781
 20
-3.3561801173693
 10
4.005986458030267
 20
-3.441314022150941
 10
4.032658143556115
 20
-3.36113889381353
 10
4.058016062008769
 20
-3.393645573151262
 10
4.027836182101054
 20
-3.414027999088754
 10
3.973710424185633
 20
-3.466912460405688
 10
4.049991262679516
 20
-3.43743935318581
 10
4.088507212056381
 20
-3.432687786336398
 10
4.041726046555595
 20
-3.481849358149398
 10
4.019792448608237
 20
-3.470071537072701
 10
3.99185681221378
 20
-3.46566343671399
 10
4.022564746160671
 20
-3.489097820793833
 10
4.010165665425372
 20
-3.501874879476619
 10
3.983986318379391
 20
-3.587490483439953
 10
4.090775245032773
 20
-3.45320751690858
 10
4.096207246730525
 20
-3.495458915211302
 97
        0
 97
        1
330
EC
 75
     2
 76
     1
 98
        1
 10
0.0
 20
0.0
450
        0
451
        0
460
0.0
461
0.0
452
        0
462
0.0
453
        0
470

  0
SPLINE
  5
EE
330
70
100
AcDbEntity
  8
Poneglyph
100
AcDbSpline
210
0.0
220
0.0
230
1.0
 70
     9
 71
     3
 72
    11
 73
     7
 74
     0
 42
0.0000000001
 43
0.0000000001
 40
0.0
 40
0.0
 40
0.0
 40
0.0
 40
1.0
 40
1.0
 40
1.0
 40
2.0
 40
2.0
 40
2.0
 40
2.0
 10
4.403614202025664
 20
-3.539796407742288
 30
0.0
 10
4.420408482288292
 20
-3.540115733536923
 30
0.0
 10
4.420405794709798
 20
-3.565727782887228
 30
0.0
 10
4.403612651427339
 20
-3.566041491183442
 30
0.0
 10
4.386829769010319
 20
-3.565720914806332
 30
0.0
 10
4.386824470334405
 20
-3.540115713425266
 30
0.0
 10
4.403614202025664
 20
-3.539796407742288
 30
0.0
  0
SPLINE
  5
EF
330
70
100
AcDbEntity
  8
Poneglyph
100
AcDbSpline
210
0.0
220
0.0
230
1.0
 70
     9
 71
     3
 72
    11
 73
     7
 74
     0
 42
0.0000000001
 43
0.0000000001
 40
0.0
 40
0.0
 40
0.0
 40
0.0
 40
1.0
 40
1.0
 40
1.0
 40
2.0
 40
2.0
 40
2.0
 40
2.0
 10
4.403614202025664
 20
-3.526951898193677
 30
0.0
 10
4.381789062496459
 20
-3.524431621097896
 30
0.0
 10
4.382276196067979
 20
-3.433164381736484
 30
0.0
 10
4.40359810441704
 20
-3.428373042541352
 30
0.0
 10
4.424974112198646
 20
-3.433097082227807
 30
0.0
 10
4.425427973729837
 20
-3.524246960910431
 30
0.0
 10
4.403614202025664
 20
-3.526951898193677
 30
0.0
  0
SPLINE
  5
F0
330
70
100
AcDbEntity
  8
Poneglyph
100
AcDbSpline
210
0.0
220
0.0
230
1.0
 70
     9
 71
     3
 72
    17
 73
    13
 74
     0
 42
0.0000000001
 43
0.0000000001
 40
0.0
 40
0.0
 40
0.0
 40
0.0
 40
1.0
 40
1.0
 40
1.0
 40
2.0
 40
2.0
 40
2.0
 40
3.0
 40
3.0
 40
3.0
 40
4.0
 40
4.0
 40
4.0
 40
4.0
 10
4.449410914265247
 20
-3.395414354790899
 30
0.0
 10
4.481751358601538
 20
-3.393557672169385
 30
0.0
 10
4.458892112174478
 20
-3.641493985875033
 30
0.0
 10
4.439483880649807
 20
-3.54548048769397
 30
0.0
 10
4.431003933843562
 20
-3.474447865583695
 30
0.0
 10
4.478608533238431
 20
-3.419389030784309
 30
0.0
 10
4.39691461983514
 20
-3.408552036301291
 30
0.0
 10
4.39004794931932
 20
-3.394842693992662
 30
0.0
 10
4.388897834112362
 20
-3.340166153228159
 30
0.0
 10
4.409305282823071
 20
-3.353697473698881
 30
0.0
 10
4.406825254993009
 20
-3.38732867710261
 30
0.0
 10
4.413437434392916
 20
-3.403471581593849
 30
0.0
 10
4.449410914265247
 20
-3.395414354790899
 30
0.0
  0
SPLINE
  5
F1
330
70
100
AcDbEntity
  8
Poneglyph
100
AcDbSpline
210
0.0
220
0.0
230
1.0
 70
     9
 71
     3
 72
    11
 73
     7
 74
     0
 42
0.0000000001
 43
0.0000000001
 40
0.0
 40
0.0
 40
0.0
 40
0.0
 40
1.0
 40
1.0
 40
1.0
 40
2.0
 40
2.0
 40
2.0
 40
2.0
 10
4.311742728501359
 20
-3.533082540554788
 30
0.0
 10
4.286355556883537
 20
-3.535279749080068
 30
0.0
 10
4.286510287396973
 20
-3.505087545122553
 30
0.0
 10
4.311745185304794
 20
-3.507122415492479
 30
0.0
 10
4.335311484714136
 20
-3.5081997832578
 30
0.0
 10
4.335617791729039
 20
-3.53240830286591
 30
0.0
 10
4.311742728501359
 20
-3.533082540554788
 30
0.0
  0
SPLINE
  5
F2
330
70
100
AcDbEntity
  8
Poneglyph
100
AcDbSpline
210
0.0
220
0.0
230
1.0
 70
     9
 71
     3
 72
    11
 73
     7
 74
     0
 42
0.0000000001
 43
0.0000000001
 40
0.0
 40
0.0
 40
0.0
 40
0.0
 40
1.0
 40
1.0
 40
1.0
 40
2.0
 40
2.0
 40
2.0
 40
2.0
 10
4.291906302720109
 20
-3.487292609999232
 30
0.0
 10
4.192526905679717
 20
-3.548440395426571
 30
0.0
 10
4.401320926992537
 20
-3.576241738474941
 30
0.0
 10
4.344709238225125
 20
-3.500418158999385
 30
0.0
 10
4.337853021617673
 20
-3.480936598612995
 30
0.0
 10
4.308110740066871
 20
-3.488769769220779
 30
0.0
 10
4.291906302720109
 20
-3.487292609999232
 30
0.0
  0
SPLINE
  5
F3
330
70
100
AcDbEntity
  8
Poneglyph
100
AcDbSpline
210
0.0
220
0.0
230
1.0
 70
     9
 71
     3
 72
    11
 73
     7
 74
     0
 42
0.0000000001
 43
0.0000000001
 40
0.0
 40
0.0
 40
0.0
 40
0.0
 40
1.0
 40
1.0
 40
1.0
 40
2.0
 40
2.0
 40
2.0
 40
2.0
 10
4.285199217216637
 20
-3.566041524929788
 30
0.0
 10
4.206851091416385
 20
-3.53669739672566
 30
0.0
 10
4.261322105221753
 20
-3.448183124219895
 30
0.0
 10
4.331286578439403
 20
-3.467472898864697
 30
0.0
 10
4.421920025474593
 20
-3.496788809134184
 30
0.0
 10
4.359667538860144
 20
-3.586220471725634
 30
0.0
 10
4.285199217216637
 20
-3.566041524929788
 30
0.0
  0
SPLINE
  5
F4
330
70
100
AcDbEntity
  8
Poneglyph
100
AcDbSpline
210
0.0
220
0.0
230
1.0
 70
     9
 71
     3
 72
    17
 73
    13
 74
     0
 42
0.0000000001
 43
0.0000000001
 40
0.0
 40
0.0
 40
0.0
 40
0.0
 40
1.0
 40
1.0
 40
1.0
 40
2.0
 40
2.0
 40
2.0
 40
3.0
 40
3.0
 40
3.0
 40
4.0
 40
4.0
 40
4.0
 40
4.0
 10
4.324865287095109
 20
-3.421673035346454
 30
0.0
 10
4.354076148251477
 20
-3.427101184371925
 30
0.0
 10
4.352527040857163
 20
-3.403943367800845
 30
0.0
 10
4.35111308891856
 20
-3.382579523679522
 30
0.0
 10
4.324722917197353
 20
-3.368919520158492
 30
0.0
 10
4.288227862125469
 20
-3.378716774097231
 30
0.0
 10
4.259239618576176
 20
-3.375865164428735
 30
0.0
 10
4.21282113443322
 20
-3.349275986032302
 30
0.0
 10
4.366848472908082
 20
-3.342849823018872
 30
0.0
 10
4.369772692319884
 20
-3.37339000708256
 30
0.0
 10
4.417985449411061
 20
-3.500792133146584
 30
0.0
 10
4.12491393649389
 20
-3.414685794047171
 30
0.0
 10
4.324865287095109
 20
-3.421673035346454
 30
0.0
  0
HATCH
  5
F5
330
70
100
AcDbEntity
  8
Poneglyph
 62
   250
420
  2301728
440
 33554687
100
AcDbHatch
 10
0.0
 20
0.0
 30
0.0
210
0.0
220
0.0
230
1.0
  2
SOLID
 70
     1
 71
     1
 91
        7
 92
        1
 93
        1
 72
     4
 94
        3
 73
     0
 74
     0
 95
       11
 96
        7
 40
0.0
 40
0.0
 40
0.0
 40
0.0
 40
1.0
 40
1.0
 40
1.0
 40
2.0
 40
2.0
 40
2.0
 40
2.0
 10
4.403614202025664
 20
-3.539796407742288
 10
4.420408482288292
 20
-3.540115733536923
 10
4.420405794709798
 20
-3.565727782887228
 10
4.403612651427339
 20
-3.566041491183442
 10
4.386829769010319
 20
-3.565720914806332
 10
4.386824470334405
 20
-3.540115713425266
 10
4.403614202025664
 20
-3.539796407742288
 97
        0
 97
        1
330
EE
 92
        1
 93
        1
 72
     4
 94
        3
 73
     0
 74
     0
 95
       11
 96
        7
 40
0.0
 40
0.0
 40
0.0
 40
0.0
 40
1.0
 40
1.0
 40
1.0
 40
2.0
 40
2.0
 40
2.0
 40
2.0
 10
4.403614202025664
 20
-3.526951898193677
 10
4.381789062496459
 20
-3.524431621097896
 10
4.382276196067979
 20
-3.433164381736484
 10
4.40359810441704
 20
-3.428373042541352
 10
4.424974112198646
 20
-3.433097082227807
 10
4.425427973729837
 20
-3.524246960910431
 10
4.403614202025664
 20
-3.526951898193677
 97
        0
 97
        1
330
EF
 92
        1
 93
        1
 72
     4
 94
        3
 73
     0
 74
     0
 95
       17
 96
       13
 40
0.0
 40
0.0
 40
0.0
 40
0.0
 40
1.0
 40
1.0
 40
1.0
 40
2.0
 40
2.0
 40
2.0
 40
3.0
 40
3.0
 40
3.0
 40
4.0
 40
4.0
 40
4.0
 40
4.0
 10
4.449410914265247
 20
-3.395414354790899
 10
4.481751358601538
 20
-3.393557672169385
 10
4.458892112174478
 20
-3.641493985875033
 10
4.439483880649807
 20
-3.54548048769397
 10
4.431003933843562
 20
-3.474447865583695
 10
4.478608533238431
 20
-3.419389030784309
 10
4.39691461983514
 20
-3.408552036301291
 10
4.39004794931932
 20
-3.394842693992662
 10
4.388897834112362
 20
-3.340166153228159
 10
4.409305282823071
 20
-3.353697473698881
 10
4.406825254993009
 20
-3.38732867710261
 10
4.413437434392916
 20
-3.403471581593849
 10
4.449410914265247
 20
-3.395414354790899
 97
        0
 97
        1
330
F0
 92
        1
 93
        1
 72
     4
 94
        3
 73
     0
 74
     0
 95
       11
 96
        7
 40
0.0
 40
0.0
 40
0.0
 40
0.0
 40
1.0
 40
1.0
 40
1.0
 40
2.0
 40
2.0
 40
2.0
 40
2.0
 10
4.311742728501359
 20
-3.533082540554788
 10
4.286355556883537
 20
-3.535279749080068
 10
4.286510287396973
 20
-3.505087545122553
 10
4.311745185304794
 20
-3.507122415492479
 10
4.335311484714136
 20
-3.5081997832578
 10
4.335617791729039
 20
-3.53240830286591
 10
4.311742728501359
 20
-3.533082540554788
 97
        0
 97
        1
330
F1
 92
        1
 93
        1
 72
     4
 94
        3
 73
     0
 74
     0
 95
       11
 96
        7
 40
0.0
 40
0.0
 40
0.0
 40
0.0
 40
1.0
 40
1.0
 40
1.0
 40
2.0
 40
2.0
 40
2.0
 40
2.0
 10
4.291906302720109
 20
-3.487292609999232
 10
4.192526905679717
 20
-3.548440395426571
 10
4.401320926992537
 20
-3.576241738474941
 10
4.344709238225125
 20
-3.500418158999385
 10
4.337853021617673
 20
-3.480936598612995
 10
4.308110740066871
 20
-3.488769769220779
 10
4.291906302720109
 20
-3.487292609999232
 97
        0
 97
        1
330
F2
 92
        1
 93
        1
 72
     4
 94
        3
 73
     0
 74
     0
 95
       11
 96
        7
 40
0.0
 40
0.0
 40
0.0
 40
0.0
 40
1.0
 40
1.0
 40
1.0
 40
2.0
 40
2.0
 40
2.0
 40
2.0
 10
4.285199217216637
 20
-3.566041524929788
 10
4.206851091416385
 20
-3.53669739672566
 10
4.261322105221753
 20
-3.448183124219895
 10
4.331286578439403
 20
-3.467472898864697
 10
4.421920025474593
 20
-3.496788809134184
 10
4.359667538860144
 20
-3.586220471725634
 10
4.285199217216637
 20
-3.566041524929788
 97
        0
 97
        1
330
F3
 92
        1
 93
        1
 72
     4
 94
        3
 73
     0
 74
     0
 95
       17
 96
       13
 40
0.0
 40
0.0
 40
0.0
 40
0.0
 40
1.0
 40
1.0
 40
1.0
 40
2.0
 40
2.0
 40
2.0
 40
3.0
 40
3.0
 40
3.0
 40
4.0
 40
4.0
 40
4.0
 40
4.0
 10
4.324865287095109
 20
-3.421673035346454
 10
4.354076148251477
 20
-3.427101184371925
 10
4.352527040857163
 20
-3.403943367800845
 10
4.35111308891856
 20
-3.382579523679522
 10
4.324722917197353
 20
-3.368919520158492
 10
4.288227862125469
 20
-3.378716774097231
 10
4.259239618576176
 20
-3.375865164428735
 10
4.21282113443322
 20
-3.349275986032302
 10
4.366848472908082
 20
-3.342849823018872
 10
4.369772692319884
 20
-3.37339000708256
 10
4.417985449411061
 20
-3.500792133146584
 10
4.12491393649389
 20
-3.414685794047171
 10
4.324865287095109
 20
-3.421673035346454
 97
        0
 97
        1
330
F4
 75
     2
 76
     1
 98
        1
 10
0.0
 20
0.0
450
        0
451
        0
460
0.0
461
0.0
452
        0
462
0.0
453
        0
470

  0
SPLINE
  5
F6
330
70
100
AcDbEntity
  8
Poneglyph
100
AcDbSpline
210
0.0
220
0.0
230
1.0
 70
     9
 71
     3
 72
    11
 73
     7
 74
     0
 42
0.0000000001
 43
0.0000000001
 40
0.0
 40
0.0
 40
0.0
 40
0.0
 40
1.0
 40
1.0
 40
1.0
 40
2.0
 40
2.0
 40
2.0
 40
2.0
 10
4.681283472858997
 20
-3.516366123835142
 30
0.0
 10
4.680959765802703
 20
-3.53316201205631
 30
0.0
 10
4.655347665479742
 20
-3.533163495355867
 30
0.0
 10
4.655031604886239
 20
-3.516364572286875
 30
0.0
 10
4.655330166599342
 20
-3.499898468551817
 30
0.0
 10
4.680983888419758
 20
-3.499897443911095
 30
0.0
 10
4.681283472858997
 20
-3.516366123835142
 30
0.0
  0
SPLINE
  5
F7
330
70
100
AcDbEntity
  8
Poneglyph
100
AcDbSpline
210
0.0
220
0.0
230
1.0
 70
     9
 71
     3
 72
    32
 73
    28
 74
     0
 42
0.0000000001
 43
0.0000000001
 40
0.0
 40
0.0
 40
0.0
 40
0.0
 40
1.0
 40
1.0
 40
1.0
 40
2.0
 40
2.0
 40
2.0
 40
3.0
 40
3.0
 40
3.0
 40
4.0
 40
4.0
 40
4.0
 40
5.0
 40
5.0
 40
5.0
 40
6.0
 40
6.0
 40
6.0
 40
7.0
 40
7.0
 40
7.0
 40
8.0
 40
8.0
 40
8.0
 40
9.0
 40
9.0
 40
9.0
 40
9.0
 10
4.713950844820803
 20
-3.352452820883753
 30
0.0
 10
4.743864343499075
 20
-3.380393443975561
 30
0.0
 10
4.710780326167094
 20
-3.491071530326179
 30
0.0
 10
4.727095665515737
 20
-3.542618976262827
 30
0.0
 10
4.735151639303567
 20
-3.580581868665073
 30
0.0
 10
4.632308250504441
 20
-3.578545955318051
 30
0.0
 10
4.661724573327192
 20
-3.549325901527961
 30
0.0
 10
4.67343365341402
 20
-3.545108535152015
 30
0.0
 10
4.704256215302974
 20
-3.560714833929245
 30
0.0
 10
4.703305210442951
 20
-3.541895894269954
 30
0.0
 10
4.690015989629525
 20
-3.519015843728058
 30
0.0
 10
4.73092357148208
 20
-3.458751218882222
 30
0.0
 10
4.681282268083401
 20
-3.470574630603272
 30
0.0
 10
4.65086031646999
 20
-3.463889001944759
 30
0.0
 10
4.651051642398416
 20
-3.483454062549349
 30
0.0
 10
4.644542017500421
 20
-3.50587510591625
 30
0.0
 10
4.623006715886554
 20
-3.522728683033038
 30
0.0
 10
4.614734112349171
 20
-3.482558325575534
 30
0.0
 10
4.628780937041508
 20
-3.470577151349339
 30
0.0
 10
4.640855119892345
 20
-3.429420152618932
 30
0.0
 10
4.713965510583167
 20
-3.476126437855201
 30
0.0
 10
4.700826548503578
 20
-3.431208526194141
 30
0.0
 10
4.694987405851709
 20
-3.413002579503401
 30
0.0
 10
4.711231100065585
 20
-3.383410609368916
 30
0.0
 10
4.700833512555946
 20
-3.37228105165559
 30
0.0
 10
4.637408387707055
 20
-3.374318565209831
 30
0.0
 10
4.670089651638565
 20
-3.343392615238523
 30
0.0
 10
4.713950844820803
 20
-3.352452820883753
 30
0.0
  0
SPLINE
  5
F8
330
70
100
AcDbEntity
  8
Poneglyph
100
AcDbSpline
210
0.0
220
0.0
230
1.0
 70
     9
 71
     3
 72
    11
 73
     7
 74
     0
 42
0.0000000001
 43
0.0000000001
 40
0.0
 40
0.0
 40
0.0
 40
0.0
 40
1.0
 40
1.0
 40
1.0
 40
2.0
 40
2.0
 40
2.0
 40
2.0
 10
4.563160100463164
 20
-3.490405837376808
 30
0.0
 10
4.561890095725756
 20
-3.481793694423761
 30
0.0
 10
4.569548648490151
 20
-3.484150408551588
 30
0.0
 10
4.576282802188239
 20
-3.483705453445205
 30
0.0
 10
4.599721457296178
 20
-3.490681309935148
 30
0.0
 10
4.56244751544159
 20
-3.520364891252458
 30
0.0
 10
4.563160100463164
 20
-3.490405837376808
 30
0.0
  0
SPLINE
  5
F9
330
70
100
AcDbEntity
  8
Poneglyph
100
AcDbSpline
210
0.0
220
0.0
230
1.0
 70
     9
 71
     3
 72
    11
 73
     7
 74
     0
 42
0.0000000001
 43
0.0000000001
 40
0.0
 40
0.0
 40
0.0
 40
0.0
 40
1.0
 40
1.0
 40
1.0
 40
2.0
 40
2.0
 40
2.0
 40
2.0
 10
4.550030760185387
 20
-3.404956618626808
 30
0.0
 10
4.55035441945117
 20
-3.388166099467727
 30
0.0
 10
4.575961376179975
 20
-3.388162800849588
 30
0.0
 10
4.576282626655862
 20
-3.404958169966221
 30
0.0
 10
4.575951099007952
 20
-3.421737422312364
 30
0.0
 10
4.550357823159704
 20
-3.421736730192075
 30
0.0
 10
4.550030760185387
 20
-3.404956618626808
 30
0.0
  0
SPLINE
  5
FA
330
70
100
AcDbEntity
  8
Poneglyph
100
AcDbSpline
210
0.0
220
0.0
230
1.0
 70
     9
 71
     3
 72
    38
 73
    34
 74
     0
 42
0.0000000001
 43
0.0000000001
 40
0.0
 40
0.0
 40
0.0
 40
0.0
 40
1.0
 40
1.0
 40
1.0
 40
2.0
 40
2.0
 40
2.0
 40
3.0
 40
3.0
 40
3.0
 40
4.0
 40
4.0
 40
4.0
 40
5.0
 40
5.0
 40
5.0
 40
6.0
 40
6.0
 40
6.0
 40
7.0
 40
7.0
 40
7.0
 40
8.0
 40
8.0
 40
8.0
 40
9.0
 40
9.0
 40
9.0
 40
10.0
 40
10.0
 40
10.0
 40
11.0
 40
11.0
 40
11.0
 40
11.0
 10
4.628779675115942
 20
-3.562454448487919
 30
0.0
 10
4.600996627187643
 20
-3.584847268026603
 30
0.0
 10
4.619051062696219
 20
-3.543890161566802
 30
0.0
 10
4.604140452461479
 20
-3.539991699756329
 30
0.0
 10
4.582736643450036
 20
-3.543531810631116
 30
0.0
 10
4.555555359527058
 20
-3.544509871908227
 30
0.0
 10
4.534426048360728
 20
-3.539993769552564
 30
0.0
 10
4.527076407856662
 20
-3.571497499043895
 30
0.0
 10
4.506830566074591
 20
-3.580352480993244
 30
0.0
 10
4.510650672657448
 20
-3.536200288006082
 30
0.0
 10
4.503641240417183
 20
-3.478877289109075
 30
0.0
 10
4.505613690963526
 20
-3.415098763567331
 30
0.0
 10
4.508307199585462
 20
-3.356535225961402
 30
0.0
 10
4.549642488377003
 20
-3.353584648251044
 30
0.0
 10
4.655942802554161
 20
-3.327178277902172
 30
0.0
 10
4.64190816417095
 20
-3.398531163150487
 30
0.0
 10
4.645286617270938
 20
-3.421097147894973
 30
0.0
 10
4.602243657242145
 20
-3.438970727029148
 30
0.0
 10
4.595824317502092
 20
-3.411372234825976
 30
0.0
 10
4.627551720141304
 20
-3.402032566049178
 30
0.0
 10
4.634904711009943
 20
-3.366822974161398
 30
0.0
 10
4.589397404199922
 20
-3.372276440413719
 30
0.0
 10
4.517810648596145
 20
-3.363259689525243
 30
0.0
 10
4.525963404489377
 20
-3.381550149165756
 30
0.0
 10
4.530492799336494
 20
-3.437627374263608
 30
0.0
 10
4.550906301765356
 20
-3.444543389092005
 30
0.0
 10
4.589160706879182
 20
-3.432489252095011
 30
0.0
 10
4.614780319803407
 20
-3.447111435805784
 30
0.0
 10
4.571427387823253
 20
-3.488484876212775
 30
0.0
 10
4.507377509908488
 20
-3.402389662448007
 30
0.0
 10
4.530504054144759
 20
-3.52308798546902
 30
0.0
 10
4.564191060356329
 20
-3.531805177855858
 30
0.0
 10
4.643516764664809
 20
-3.49781848516856
 30
0.0
 10
4.628779675115942
 20
-3.562454448487919
 30
0.0
  0
HATCH
  5
FB
330
70
100
AcDbEntity
  8
Poneglyph
 62
   250
420
  2301728
440
 33554687
100
AcDbHatch
 10
0.0
 20
0.0
 30
0.0
210
0.0
220
0.0
230
1.0
  2
SOLID
 70
     1
 71
     1
 91
        5
 92
        1
 93
        1
 72
     4
 94
        3
 73
     0
 74
     0
 95
       11
 96
        7
 40
0.0
 40
0.0
 40
0.0
 40
0.0
 40
1.0
 40
1.0
 40
1.0
 40
2.0
 40
2.0
 40
2.0
 40
2.0
 10
4.681283472858997
 20
-3.516366123835142
 10
4.680959765802703
 20
-3.53316201205631
 10
4.655347665479742
 20
-3.533163495355867
 10
4.655031604886239
 20
-3.516364572286875
 10
4.655330166599342
 20
-3.499898468551817
 10
4.680983888419758
 20
-3.499897443911095
 10
4.681283472858997
 20
-3.516366123835142
 97
        0
 97
        1
330
F6
 92
        1
 93
        1
 72
     4
 94
        3
 73
     0
 74
     0
 95
       32
 96
       28
 40
0.0
 40
0.0
 40
0.0
 40
0.0
 40
1.0
 40
1.0
 40
1.0
 40
2.0
 40
2.0
 40
2.0
 40
3.0
 40
3.0
 40
3.0
 40
4.0
 40
4.0
 40
4.0
 40
5.0
 40
5.0
 40
5.0
 40
6.0
 40
6.0
 40
6.0
 40
7.0
 40
7.0
 40
7.0
 40
8.0
 40
8.0
 40
8.0
 40
9.0
 40
9.0
 40
9.0
 40
9.0
 10
4.713950844820803
 20
-3.352452820883753
 10
4.743864343499075
 20
-3.380393443975561
 10
4.710780326167094
 20
-3.491071530326179
 10
4.727095665515737
 20
-3.542618976262827
 10
4.735151639303567
 20
-3.580581868665073
 10
4.632308250504441
 20
-3.578545955318051
 10
4.661724573327192
 20
-3.549325901527961
 10
4.67343365341402
 20
-3.545108535152015
 10
4.704256215302974
 20
-3.560714833929245
 10
4.703305210442951
 20
-3.541895894269954
 10
4.690015989629525
 20
-3.519015843728058
 10
4.73092357148208
 20
-3.458751218882222
 10
4.681282268083401
 20
-3.470574630603272
 10
4.65086031646999
 20
-3.463889001944759
 10
4.651051642398416
 20
-3.483454062549349
 10
4.644542017500421
 20
-3.50587510591625
 10
4.623006715886554
 20
-3.522728683033038
 10
4.614734112349171
 20
-3.482558325575534
 10
4.628780937041508
 20
-3.470577151349339
 10
4.640855119892345
 20
-3.429420152618932
 10
4.713965510583167
 20
-3.476126437855201
 10
4.700826548503578
 20
-3.431208526194141
 10
4.694987405851709
 20
-3.413002579503401
 10
4.711231100065585
 20
-3.383410609368916
 10
4.700833512555946
 20
-3.37228105165559
 10
4.637408387707055
 20
-3.374318565209831
 10
4.670089651638565
 20
-3.343392615238523
 10
4.713950844820803
 20
-3.352452820883753
 97
        0
 97
        1
330
F7
 92
        1
 93
        1
 72
     4
 94
        3
 73
     0
 74
     0
 95
       11
 96
        7
 40
0.0
 40
0.0
 40
0.0
 40
0.0
 40
1.0
 40
1.0
 40
1.0
 40
2.0
 40
2.0
 40
2.0
 40
2.0
 10
4.563160100463164
 20
-3.490405837376808
 10
4.561890095725756
 20
-3.481793694423761
 10
4.569548648490151
 20
-3.484150408551588
 10
4.576282802188239
 20
-3.483705453445205
 10
4.599721457296178
 20
-3.490681309935148
 10
4.56244751544159
 20
-3.520364891252458
 10
4.563160100463164
 20
-3.490405837376808
 97
        0
 97
        1
330
F8
 92
        1
 93
        1
 72
     4
 94
        3
 73
     0
 74
     0
 95
       11
 96
        7
 40
0.0
 40
0.0
 40
0.0
 40
0.0
 40
1.0
 40
1.0
 40
1.0
 40
2.0
 40
2.0
 40
2.0
 40
2.0
 10
4.550030760185387
 20
-3.404956618626808
 10
4.55035441945117
 20
-3.388166099467727
 10
4.575961376179975
 20
-3.388162800849588
 10
4.576282626655862
 20
-3.404958169966221
 10
4.575951099007952
 20
-3.421737422312364
 10
4.550357823159704
 20
-3.421736730192075
 10
4.550030760185387
 20
-3.404956618626808
 97
        0
 97
        1
330
F9
 92
        1
 93
        1
 72
     4
 94
        3
 73
     0
 74
     0
 95
       38
 96
       34
 40
0.0
 40
0.0
 40
0.0
 40
0.0
 40
1.0
 40
1.0
 40
1.0
 40
2.0
 40
2.0
 40
2.0
 40
3.0
 40
3.0
 40
3.0
 40
4.0
 40
4.0
 40
4.0
 40
5.0
 40
5.0
 40
5.0
 40
6.0
 40
6.0
 40
6.0
 40
7.0
 40
7.0
 40
7.0
 40
8.0
 40
8.0
 40
8.0
 40
9.0
 40
9.0
 40
9.0
 40
10.0
 40
10.0
 40
10.0
 40
11.0
 40
11.0
 40
11.0
 40
11.0
 10
4.628779675115942
 20
-3.562454448487919
 10
4.600996627187643
 20
-3.584847268026603
 10
4.619051062696219
 20
-3.543890161566802
 10
4.604140452461479
 20
-3.539991699756329
 10
4.582736643450036
 20
-3.543531810631116
 10
4.555555359527058
 20
-3.544509871908227
 10
4.534426048360728
 20
-3.539993769552564
 10
4.527076407856662
 20
-3.571497499043895
 10
4.506830566074591
 20
-3.580352480993244
 10
4.510650672657448
 20
-3.536200288006082
 10
4.503641240417183
 20
-3.478877289109075
 10
4.505613690963526
 20
-3.415098763567331
 10
4.508307199585462
 20
-3.356535225961402
 10
4.549642488377003
 20
-3.353584648251044
 10
4.655942802554161
 20
-3.327178277902172
 10
4.64190816417095
 20
-3.398531163150487
 10
4.645286617270938
 20
-3.421097147894973
 10
4.602243657242145
 20
-3.438970727029148
 10
4.595824317502092
 20
-3.411372234825976
 10
4.627551720141304
 20
-3.402032566049178
 10
4.634904711009943
 20
-3.366822974161398
 10
4.589397404199922
 20
-3.372276440413719
 10
4.517810648596145
 20
-3.363259689525243
 10
4.525963404489377
 20
-3.381550149165756
 10
4.530492799336494
 20
-3.437627374263608
 10
4.550906301765356
 20
-3.444543389092005
 10
4.589160706879182
 20
-3.432489252095011
 10
4.614780319803407
 20
-3.447111435805784
 10
4.571427387823253
 20
-3.488484876212775
 10
4.507377509908488
 20
-3.402389662448007
 10
4.530504054144759
 20
-3.52308798546902
 10
4.564191060356329
 20
-3.531805177855858
 10
4.643516764664809
 20
-3.49781848516856
 10
4.628779675115942
 20
-3.562454448487919
 97
        0
 97
        1
330
FA
 75
     2
 76
     1
 98
        1
 10
0.0
 20
0.0
450
        0
451
        0
460
0.0
461
0.0
452
        0
462
0.0
453
        0
470

  0
SPLINE
  5
FC
330
70
100
AcDbEntity
  8
Poneglyph
100
AcDbSpline
210
0.0
220
0.0
230
1.0
 70
     9
 71
     3
 72
    14
 73
    10
 74
     0
 42
0.0000000001
 43
0.0000000001
 40
0.0
 40
0.0
 40
0.0
 40
0.0
 40
1.0
 40
1.0
 40
1.0
 40
2.0
 40
2.0
 40
2.0
 40
3.0
 40
3.0
 40
3.0
 40
3.0
 10
3.675342717650664
 20
-3.634181249750566
 30
0.0
 10
3.68808126433857
 20
-3.630857946841198
 30
0.0
 10
3.701911396443291
 20
-3.879349650878907
 30
0.0
 10
3.6708316975806
 20
-3.849712910613346
 30
0.0
 10
3.649755933054721
 20
-3.811274484551542
 30
0.0
 10
3.669174025136599
 20
-3.744831002993691
 30
0.0
 10
3.662784366374252
 20
-3.698053671192951
 30
0.0
 10
3.678599828369732
 20
-3.640402193626982
 30
0.0
 10
3.608787222883607
 20
-3.652674156769699
 30
0.0
 10
3.675342717650664
 20
-3.634181249750566
 30
0.0
  0
SPLINE
  5
FD
330
70
100
AcDbEntity
  8
Poneglyph
100
AcDbSpline
210
0.0
220
0.0
230
1.0
 70
     9
 71
     3
 72
    11
 73
     7
 74
     0
 42
0.0000000001
 43
0.0000000001
 40
0.0
 40
0.0
 40
0.0
 40
0.0
 40
1.0
 40
1.0
 40
1.0
 40
2.0
 40
2.0
 40
2.0
 40
2.0
 10
3.637134709838164
 20
-3.805974869542233
 30
0.0
 10
3.637129537139344
 20
-3.815481551979334
 30
0.0
 10
3.637138438224572
 20
-3.834684693296404
 30
0.0
 10
3.637134698514816
 20
-3.844182928785673
 30
0.0
 10
3.609918467825006
 20
-3.875006569999198
 30
0.0
 10
3.609945583530752
 20
-3.775302150435979
 30
0.0
 10
3.637134709838164
 20
-3.805974869542233
 30
0.0
  0
SPLINE
  5
FE
330
70
100
AcDbEntity
  8
Poneglyph
100
AcDbSpline
210
0.0
220
0.0
230
1.0
 70
     9
 71
     3
 72
    11
 73
     7
 74
     0
 42
0.0000000001
 43
0.0000000001
 40
0.0
 40
0.0
 40
0.0
 40
0.0
 40
1.0
 40
1.0
 40
1.0
 40
2.0
 40
2.0
 40
2.0
 40
2.0
 10
3.637134709838164
 20
-3.647012195931122
 30
0.0
 10
3.628598681471064
 20
-3.676605872119744
 30
0.0
 10
3.656559346683378
 20
-3.75617436887785
 30
0.0
 10
3.621979114416919
 20
-3.760627196352781
 30
0.0
 10
3.618159677906027
 20
-3.744365951141806
 30
0.0
 10
3.603796839243689
 20
-3.620952372011174
 30
0.0
 10
3.637134709838164
 20
-3.647012195931122
 30
0.0
  0
SPLINE
  5
FF
330
70
100
AcDbEntity
  8
Poneglyph
100
AcDbSpline
210
0.0
220
0.0
230
1.0
 70
     9
 71
     3
 72
    11
 73
     7
 74
     0
 42
0.0000000001
 43
0.0000000001
 40
0.0
 40
0.0
 40
0.0
 40
0.0
 40
1.0
 40
1.0
 40
1.0
 40
2.0
 40
2.0
 40
2.0
 40
2.0
 10
3.580107528848581
 20
-3.659843142111677
 30
0.0
 10
3.596255243015939
 20
-3.660074104854616
 30
0.0
 10
3.596519783029243
 20
-3.685127836122433
 30
0.0
 10
3.580106155497711
 20
-3.685220125650819
 30
0.0
 10
3.563702667831004
 20
-3.685125733296255
 30
0.0
 10
3.563964753015157
 20
-3.660070187839551
 30
0.0
 10
3.580107528848581
 20
-3.659843142111677
 30
0.0
  0
SPLINE
  5
100
330
70
100
AcDbEntity
  8
Poneglyph
100
AcDbSpline
210
0.0
220
0.0
230
1.0
 70
     9
 71
     3
 72
    11
 73
     7
 74
     0
 42
0.0000000001
 43
0.0000000001
 40
0.0
 40
0.0
 40
0.0
 40
0.0
 40
1.0
 40
1.0
 40
1.0
 40
2.0
 40
2.0
 40
2.0
 40
2.0
 10
3.535633244994414
 20
-3.799559396451955
 30
0.0
 10
3.545823503012128
 20
-3.803275245731318
 30
0.0
 10
3.54580839519172
 20
-3.846860064679592
 30
0.0
 10
3.535642691719582
 20
-3.850598667371147
 30
0.0
 10
3.516410855482237
 20
-3.850046836430982
 30
0.0
 10
3.516408072131045
 20
-3.800120132219578
 30
0.0
 10
3.535633244994414
 20
-3.799559396451955
 30
0.0
  0
SPLINE
  5
101
330
70
100
AcDbEntity
  8
Poneglyph
100
AcDbSpline
210
0.0
220
0.0
230
1.0
 70
     9
 71
     3
 72
    11
 73
     7
 74
     0
 42
0.0000000001
 43
0.0000000001
 40
0.0
 40
0.0
 40
0.0
 40
0.0
 40
1.0
 40
1.0
 40
1.0
 40
2.0
 40
2.0
 40
2.0
 40
2.0
 10
3.529217771904136
 20
-3.659843142111677
 30
0.0
 10
3.545185496570474
 20
-3.660109179315984
 30
0.0
 10
3.545453206267097
 20
-3.685089010218423
 30
0.0
 10
3.529216437856082
 20
-3.685220131509936
 30
0.0
 10
3.512659390139156
 20
-3.685069371189115
 30
0.0
 10
3.512924993641882
 20
-3.660129077606534
 30
0.0
 10
3.529217771904136
 20
-3.659843142111677
 30
0.0
  0
SPLINE
  5
102
330
70
100
AcDbEntity
  8
Poneglyph
100
AcDbSpline
210
0.0
220
0.0
230
1.0
 70
     9
 71
     3
 72
    29
 73
    25
 74
     0
 42
0.0000000001
 43
0.0000000001
 40
0.0
 40
0.0
 40
0.0
 40
0.0
 40
1.0
 40
1.0
 40
1.0
 40
2.0
 40
2.0
 40
2.0
 40
3.0
 40
3.0
 40
3.0
 40
4.0
 40
4.0
 40
4.0
 40
5.0
 40
5.0
 40
5.0
 40
6.0
 40
6.0
 40
6.0
 40
7.0
 40
7.0
 40
7.0
 40
8.0
 40
8.0
 40
8.0
 40
8.0
 10
3.561200193779136
 20
-3.717012738465844
 30
0.0
 10
3.535541793372405
 20
-3.723177632310188
 30
0.0
 10
3.482133919151781
 20
-3.685372634098648
 30
0.0
 10
3.497135102343261
 20
-3.735975513105952
 30
0.0
 10
3.501054169822787
 20
-3.748059821139185
 30
0.0
 10
3.484534145916843
 20
-3.779548318441975
 30
0.0
 10
3.506924556967772
 20
-3.776516154911695
 30
0.0
 10
3.541423749291526
 20
-3.768145178345333
 30
0.0
 10
3.606865333747729
 20
-3.75900460260334
 30
0.0
 10
3.59279177980861
 20
-3.812387238122621
 30
0.0
 10
3.56482557575594
 20
-3.857862247533716
 30
0.0
 10
3.58746972254159
 20
-3.771134133645937
 30
0.0
 10
3.553200276514366
 20
-3.786002429291291
 30
0.0
 10
3.467130094134252
 20
-3.787502686443139
 30
0.0
 10
3.518069079212839
 20
-3.809921385717681
 30
0.0
 10
3.48461013367772
 20
-3.850617972631716
 30
0.0
 10
3.467628748146921
 20
-3.789480043186219
 30
0.0
 10
3.479895819594578
 20
-3.710654726493038
 30
0.0
 10
3.479036048808906
 20
-3.643812835081803
 30
0.0
 10
3.516342256733878
 20
-3.627664776381139
 30
0.0
 10
3.481430654397778
 20
-3.694868373007352
 30
0.0
 10
3.501950575239056
 20
-3.699665375775149
 30
0.0
 10
3.525921791862578
 20
-3.681527586870376
 30
0.0
 10
3.651617680529549
 20
-3.704676596999547
 30
0.0
 10
3.561200193779136
 20
-3.717012738465844
 30
0.0
  0
HATCH
  5
103
330
70
100
AcDbEntity
  8
Poneglyph
 62
   250
420
  2301728
440
 33554687
100
AcDbHatch
 10
0.0
 20
0.0
 30
0.0
210
0.0
220
0.0
230
1.0
  2
SOLID
 70
     1
 71
     1
 91
        7
 92
        1
 93
        1
 72
     4
 94
        3
 73
     0
 74
     0
 95
       14
 96
       10
 40
0.0
 40
0.0
 40
0.0
 40
0.0
 40
1.0
 40
1.0
 40
1.0
 40
2.0
 40
2.0
 40
2.0
 40
3.0
 40
3.0
 40
3.0
 40
3.0
 10
3.675342717650664
 20
-3.634181249750566
 10
3.68808126433857
 20
-3.630857946841198
 10
3.701911396443291
 20
-3.879349650878907
 10
3.6708316975806
 20
-3.849712910613346
 10
3.649755933054721
 20
-3.811274484551542
 10
3.669174025136599
 20
-3.744831002993691
 10
3.662784366374252
 20
-3.698053671192951
 10
3.678599828369732
 20
-3.640402193626982
 10
3.608787222883607
 20
-3.652674156769699
 10
3.675342717650664
 20
-3.634181249750566
 97
        0
 97
        1
330
FC
 92
        1
 93
        1
 72
     4
 94
        3
 73
     0
 74
     0
 95
       11
 96
        7
 40
0.0
 40
0.0
 40
0.0
 40
0.0
 40
1.0
 40
1.0
 40
1.0
 40
2.0
 40
2.0
 40
2.0
 40
2.0
 10
3.637134709838164
 20
-3.805974869542233
 10
3.637129537139344
 20
-3.815481551979334
 10
3.637138438224572
 20
-3.834684693296404
 10
3.637134698514816
 20
-3.844182928785673
 10
3.609918467825006
 20
-3.875006569999198
 10
3.609945583530752
 20
-3.775302150435979
 10
3.637134709838164
 20
-3.805974869542233
 97
        0
 97
        1
330
FD
 92
        1
 93
        1
 72
     4
 94
        3
 73
     0
 74
     0
 95
       11
 96
        7
 40
0.0
 40
0.0
 40
0.0
 40
0.0
 40
1.0
 40
1.0
 40
1.0
 40
2.0
 40
2.0
 40
2.0
 40
2.0
 10
3.637134709838164
 20
-3.647012195931122
 10
3.628598681471064
 20
-3.676605872119744
 10
3.656559346683378
 20
-3.75617436887785
 10
3.621979114416919
 20
-3.760627196352781
 10
3.618159677906027
 20
-3.744365951141806
 10
3.603796839243689
 20
-3.620952372011174
 10
3.637134709838164
 20
-3.647012195931122
 97
        0
 97
        1
330
FE
 92
        1
 93
        1
 72
     4
 94
        3
 73
     0
 74
     0
 95
       11
 96
        7
 40
0.0
 40
0.0
 40
0.0
 40
0.0
 40
1.0
 40
1.0
 40
1.0
 40
2.0
 40
2.0
 40
2.0
 40
2.0
 10
3.580107528848581
 20
-3.659843142111677
 10
3.596255243015939
 20
-3.660074104854616
 10
3.596519783029243
 20
-3.685127836122433
 10
3.580106155497711
 20
-3.685220125650819
 10
3.563702667831004
 20
-3.685125733296255
 10
3.563964753015157
 20
-3.660070187839551
 10
3.580107528848581
 20
-3.659843142111677
 97
        0
 97
        1
330
FF
 92
        1
 93
        1
 72
     4
 94
        3
 73
     0
 74
     0
 95
       11
 96
        7
 40
0.0
 40
0.0
 40
0.0
 40
0.0
 40
1.0
 40
1.0
 40
1.0
 40
2.0
 40
2.0
 40
2.0
 40
2.0
 10
3.535633244994414
 20
-3.799559396451955
 10
3.545823503012128
 20
-3.803275245731318
 10
3.54580839519172
 20
-3.846860064679592
 10
3.535642691719582
 20
-3.850598667371147
 10
3.516410855482237
 20
-3.850046836430982
 10
3.516408072131045
 20
-3.800120132219578
 10
3.535633244994414
 20
-3.799559396451955
 97
        0
 97
        1
330
100
 92
        1
 93
        1
 72
     4
 94
        3
 73
     0
 74
     0
 95
       11
 96
        7
 40
0.0
 40
0.0
 40
0.0
 40
0.0
 40
1.0
 40
1.0
 40
1.0
 40
2.0
 40
2.0
 40
2.0
 40
2.0
 10
3.529217771904136
 20
-3.659843142111677
 10
3.545185496570474
 20
-3.660109179315984
 10
3.545453206267097
 20
-3.685089010218423
 10
3.529216437856082
 20
-3.685220131509936
 10
3.512659390139156
 20
-3.685069371189115
 10
3.512924993641882
 20
-3.660129077606534
 10
3.529217771904136
 20
-3.659843142111677
 97
        0
 97
        1
330
101
 92
        1
 93
        1
 72
     4
 94
        3
 73
     0
 74
     0
 95
       29
 96
       25
 40
0.0
 40
0.0
 40
0.0
 40
0.0
 40
1.0
 40
1.0
 40
1.0
 40
2.0
 40
2.0
 40
2.0
 40
3.0
 40
3.0
 40
3.0
 40
4.0
 40
4.0
 40
4.0
 40
5.0
 40
5.0
 40
5.0
 40
6.0
 40
6.0
 40
6.0
 40
7.0
 40
7.0
 40
7.0
 40
8.0
 40
8.0
 40
8.0
 40
8.0
 10
3.561200193779136
 20
-3.717012738465844
 10
3.535541793372405
 20
-3.723177632310188
 10
3.482133919151781
 20
-3.685372634098648
 10
3.497135102343261
 20
-3.735975513105952
 10
3.501054169822787
 20
-3.748059821139185
 10
3.484534145916843
 20
-3.779548318441975
 10
3.506924556967772
 20
-3.776516154911695
 10
3.541423749291526
 20
-3.768145178345333
 10
3.606865333747729
 20
-3.75900460260334
 10
3.59279177980861
 20
-3.812387238122621
 10
3.56482557575594
 20
-3.857862247533716
 10
3.58746972254159
 20
-3.771134133645937
 10
3.553200276514366
 20
-3.786002429291291
 10
3.467130094134252
 20
-3.787502686443139
 10
3.518069079212839
 20
-3.809921385717681
 10
3.48461013367772
 20
-3.850617972631716
 10
3.467628748146921
 20
-3.789480043186219
 10
3.479895819594578
 20
-3.710654726493038
 10
3.479036048808906
 20
-3.643812835081803
 10
3.516342256733878
 20
-3.627664776381139
 10
3.481430654397778
 20
-3.694868373007352
 10
3.501950575239056
 20
-3.699665375775149
 10
3.525921791862578
 20
-3.681527586870376
 10
3.651617680529549
 20
-3.704676596999547
 10
3.561200193779136
 20
-3.717012738465844
 97
        0
 97
        1
330
102
 75
     2
 76
     1
 98
        1
 10
0.0
 20
0.0
450
        0
451
        0
460
0.0
461
0.0
452
        0
462
0.0
453
        0
470

  0
SPLINE
  5
104
330
70
100
AcDbEntity
  8
Poneglyph
100
AcDbSpline
210
0.0
220
0.0
230
1.0
 70
     9
 71
     3
 72
    11
 73
     7
 74
     0
 42
0.0000000001
 43
0.0000000001
 40
0.0
 40
0.0
 40
0.0
 40
0.0
 40
1.0
 40
1.0
 40
1.0
 40
2.0
 40
2.0
 40
2.0
 40
2.0
 10
3.867542424681914
 20
-3.720561756878977
 30
0.0
 10
3.868720710018806
 20
-3.733793243084669
 30
0.0
 10
3.855539686791391
 20
-3.798882545947839
 30
0.0
 10
3.878605744321122
 20
-3.796550074026526
 30
0.0
 10
3.881196394508403
 20
-3.784729505188882
 30
0.0
 10
3.892173499511095
 20
-3.690804551238165
 30
0.0
 10
3.867542424681914
 20
-3.720561756878977
 30
0.0
  0
SPLINE
  5
105
330
70
100
AcDbEntity
  8
Poneglyph
100
AcDbSpline
210
0.0
220
0.0
230
1.0
 70
     9
 71
     3
 72
    17
 73
    13
 74
     0
 42
0.0000000001
 43
0.0000000001
 40
0.0
 40
0.0
 40
0.0
 40
0.0
 40
1.0
 40
1.0
 40
1.0
 40
2.0
 40
2.0
 40
2.0
 40
3.0
 40
3.0
 40
3.0
 40
4.0
 40
4.0
 40
4.0
 40
4.0
 10
3.873957897772192
 20
-3.812724842816477
 30
0.0
 10
3.829506173312299
 20
-3.824772779497733
 30
0.0
 10
3.837456187811842
 20
-3.773874294657742
 30
0.0
 10
3.84770459435467
 20
-3.746815962003564
 30
0.0
 10
3.854248249953785
 20
-3.729214024990849
 30
0.0
 10
3.828135960475555
 20
-3.69878178086267
 30
0.0
 10
3.854701208708736
 20
-3.694315809473032
 30
0.0
 10
3.894069599927686
 20
-3.689976747874475
 30
0.0
 10
3.906245987325822
 20
-3.709740733406887
 30
0.0
 10
3.900201741024197
 20
-3.746824787526798
 30
0.0
 10
3.895478600989412
 20
-3.772818142145322
 30
0.0
 10
3.916780210629162
 20
-3.823547746129684
 30
0.0
 10
3.873957897772192
 20
-3.812724842816477
 30
0.0
  0
SPLINE
  5
106
330
70
100
AcDbEntity
  8
Poneglyph
100
AcDbSpline
210
0.0
220
0.0
230
1.0
 70
     9
 71
     3
 72
    11
 73
     7
 74
     0
 42
0.0000000001
 43
0.0000000001
 40
0.0
 40
0.0
 40
0.0
 40
0.0
 40
1.0
 40
1.0
 40
1.0
 40
2.0
 40
2.0
 40
2.0
 40
2.0
 10
3.808623153848581
 20
-3.681485693510921
 30
0.0
 10
3.80894885248084
 20
-3.665103726129978
 30
0.0
 10
3.84111783360514
 20
-3.662456596601158
 30
0.0
 10
3.841290498020056
 20
-3.681486522345923
 30
0.0
 10
3.844114137029098
 20
-3.708265781257598
 30
0.0
 10
3.806374386051768
 20
-3.705963459319566
 30
0.0
 10
3.808623153848581
 20
-3.681485693510921
 30
0.0
  0
SPLINE
  5
107
330
70
100
AcDbEntity
  8
Poneglyph
100
AcDbSpline
210
0.0
220
0.0
230
1.0
 70
     9
 71
     3
 72
    26
 73
    22
 74
     0
 42
0.0000000001
 43
0.0000000001
 40
0.0
 40
0.0
 40
0.0
 40
0.0
 40
1.0
 40
1.0
 40
1.0
 40
2.0
 40
2.0
 40
2.0
 40
3.0
 40
3.0
 40
3.0
 40
4.0
 40
4.0
 40
4.0
 40
5.0
 40
5.0
 40
5.0
 40
6.0
 40
6.0
 40
6.0
 40
7.0
 40
7.0
 40
7.0
 40
7.0
 10
3.939875866522192
 20
-3.635397368858143
 30
0.0
 10
3.964481143468951
 20
-3.661802532452257
 30
0.0
 10
3.938416723196016
 20
-3.71059649731607
 30
0.0
 10
3.946301681908481
 20
-3.746818786850376
 30
0.0
 10
3.940526169843526
 20
-3.782689981340581
 30
0.0
 10
3.973357376912771
 20
-3.862826929091751
 30
0.0
 10
3.913628072205028
 20
-3.851815702746939
 30
0.0
 10
3.880374328922698
 20
-3.851146956859793
 30
0.0
 10
3.842208539200479
 20
-3.853127125656682
 30
0.0
 10
3.809355494753718
 20
-3.851083698739709
 30
0.0
 10
3.790853544708637
 20
-3.781115441514354
 30
0.0
 10
3.819061146260752
 20
-3.772645841003193
 30
0.0
 10
3.835735623006459
 20
-3.834607831814688
 30
0.0
 10
3.97822642859387
 20
-3.835452317977291
 30
0.0
 10
3.91335594018263
 20
-3.828557183083198
 30
0.0
 10
3.926465153026558
 20
-3.674763858442727
 30
0.0
 10
3.901222044158354
 20
-3.721964567020525
 30
0.0
 10
3.820330320531221
 20
-3.671809471095558
 30
0.0
 10
3.854700670311672
 20
-3.635391611078703
 30
0.0
 10
3.894569115637523
 20
-3.693590140652581
 30
0.0
 10
3.889978644754061
 20
-3.671230071962529
 30
0.0
 10
3.939875866522192
 20
-3.635397368858143
 30
0.0
  0
SPLINE
  5
108
330
70
100
AcDbEntity
  8
Poneglyph
100
AcDbSpline
210
0.0
220
0.0
230
1.0
 70
     9
 71
     3
 72
    17
 73
    13
 74
     0
 42
0.0000000001
 43
0.0000000001
 40
0.0
 40
0.0
 40
0.0
 40
0.0
 40
1.0
 40
1.0
 40
1.0
 40
2.0
 40
2.0
 40
2.0
 40
3.0
 40
3.0
 40
3.0
 40
4.0
 40
4.0
 40
4.0
 40
4.0
 10
3.736289712008303
 20
-3.773065554622032
 30
0.0
 10
3.697214944317276
 20
-3.736419516595358
 30
0.0
 10
3.87501211564337
 20
-3.751241345419379
 30
0.0
 10
3.815040494577285
 20
-3.773067153931656
 30
0.0
 10
3.771403591526475
 20
-3.765217614613195
 30
0.0
 10
3.771623166572756
 20
-3.780616613693634
 30
0.0
 10
3.775965312096167
 20
-3.81916301807602
 30
0.0
 10
3.786384346595064
 20
-3.862611118956035
 30
0.0
 10
3.740478801443146
 20
-3.861529398048837
 30
0.0
 10
3.749710556595939
 20
-3.819152121471283
 30
0.0
 10
3.753594058493427
 20
-3.800107204694061
 30
0.0
 10
3.772906559893789
 20
-3.76161555726685
 30
0.0
 10
3.736289712008303
 20
-3.773065554622032
 30
0.0
  0
SPLINE
  5
109
330
70
100
AcDbEntity
  8
Poneglyph
100
AcDbSpline
210
0.0
220
0.0
230
1.0
 70
     9
 71
     3
 72
    20
 73
    16
 74
     0
 42
0.0000000001
 43
0.0000000001
 40
0.0
 40
0.0
 40
0.0
 40
0.0
 40
1.0
 40
1.0
 40
1.0
 40
2.0
 40
2.0
 40
2.0
 40
3.0
 40
3.0
 40
3.0
 40
4.0
 40
4.0
 40
4.0
 40
5.0
 40
5.0
 40
5.0
 40
5.0
 10
3.736289712008303
 20
-3.733975927885921
 30
0.0
 10
3.721608294208522
 20
-3.708706298090444
 30
0.0
 10
3.733530196315793
 20
-3.670488959064995
 30
0.0
 10
3.729868228471787
 20
-3.641813781621193
 30
0.0
 10
3.751004809075159
 20
-3.630073253824421
 30
0.0
 10
3.798776965647978
 20
-3.631329371619333
 30
0.0
 10
3.821460709417755
 20
-3.641799667242543
 30
0.0
 10
3.81574469314704
 20
-3.666845933927131
 30
0.0
 10
3.772834959605903
 20
-3.652770042136302
 30
0.0
 10
3.754520892368911
 20
-3.652315966538405
 30
0.0
 10
3.717783373132811
 20
-3.688731574474003
 30
0.0
 10
3.789110412217887
 20
-3.666155865305275
 30
0.0
 10
3.802204518605157
 20
-3.681478333173774
 30
0.0
 10
3.75630841881011
 20
-3.721515591103322
 30
0.0
 10
3.765755022713177
 20
-3.655934634072309
 30
0.0
 10
3.736289712008303
 20
-3.733975927885921
 30
0.0
  0
HATCH
  5
10A
330
70
100
AcDbEntity
  8
Poneglyph
 62
   250
420
  2301728
440
 33554687
100
AcDbHatch
 10
0.0
 20
0.0
 30
0.0
210
0.0
220
0.0
230
1.0
  2
SOLID
 70
     1
 71
     1
 91
        6
 92
        1
 93
        1
 72
     4
 94
        3
 73
     0
 74
     0
 95
       11
 96
        7
 40
0.0
 40
0.0
 40
0.0
 40
0.0
 40
1.0
 40
1.0
 40
1.0
 40
2.0
 40
2.0
 40
2.0
 40
2.0
 10
3.867542424681914
 20
-3.720561756878977
 10
3.868720710018806
 20
-3.733793243084669
 10
3.855539686791391
 20
-3.798882545947839
 10
3.878605744321122
 20
-3.796550074026526
 10
3.881196394508403
 20
-3.784729505188882
 10
3.892173499511095
 20
-3.690804551238165
 10
3.867542424681914
 20
-3.720561756878977
 97
        0
 97
        1
330
104
 92
        1
 93
        1
 72
     4
 94
        3
 73
     0
 74
     0
 95
       17
 96
       13
 40
0.0
 40
0.0
 40
0.0
 40
0.0
 40
1.0
 40
1.0
 40
1.0
 40
2.0
 40
2.0
 40
2.0
 40
3.0
 40
3.0
 40
3.0
 40
4.0
 40
4.0
 40
4.0
 40
4.0
 10
3.873957897772192
 20
-3.812724842816477
 10
3.829506173312299
 20
-3.824772779497733
 10
3.837456187811842
 20
-3.773874294657742
 10
3.84770459435467
 20
-3.746815962003564
 10
3.854248249953785
 20
-3.729214024990849
 10
3.828135960475555
 20
-3.69878178086267
 10
3.854701208708736
 20
-3.694315809473032
 10
3.894069599927686
 20
-3.689976747874475
 10
3.906245987325822
 20
-3.709740733406887
 10
3.900201741024197
 20
-3.746824787526798
 10
3.895478600989412
 20
-3.772818142145322
 10
3.916780210629162
 20
-3.823547746129684
 10
3.873957897772192
 20
-3.812724842816477
 97
        0
 97
        1
330
105
 92
        1
 93
        1
 72
     4
 94
        3
 73
     0
 74
     0
 95
       11
 96
        7
 40
0.0
 40
0.0
 40
0.0
 40
0.0
 40
1.0
 40
1.0
 40
1.0
 40
2.0
 40
2.0
 40
2.0
 40
2.0
 10
3.808623153848581
 20
-3.681485693510921
 10
3.80894885248084
 20
-3.665103726129978
 10
3.84111783360514
 20
-3.662456596601158
 10
3.841290498020056
 20
-3.681486522345923
 10
3.844114137029098
 20
-3.708265781257598
 10
3.806374386051768
 20
-3.705963459319566
 10
3.808623153848581
 20
-3.681485693510921
 97
        0
 97
        1
330
106
 92
        1
 93
        1
 72
     4
 94
        3
 73
     0
 74
     0
 95
       26
 96
       22
 40
0.0
 40
0.0
 40
0.0
 40
0.0
 40
1.0
 40
1.0
 40
1.0
 40
2.0
 40
2.0
 40
2.0
 40
3.0
 40
3.0
 40
3.0
 40
4.0
 40
4.0
 40
4.0
 40
5.0
 40
5.0
 40
5.0
 40
6.0
 40
6.0
 40
6.0
 40
7.0
 40
7.0
 40
7.0
 40
7.0
 10
3.939875866522192
 20
-3.635397368858143
 10
3.964481143468951
 20
-3.661802532452257
 10
3.938416723196016
 20
-3.71059649731607
 10
3.946301681908481
 20
-3.746818786850376
 10
3.940526169843526
 20
-3.782689981340581
 10
3.973357376912771
 20
-3.862826929091751
 10
3.913628072205028
 20
-3.851815702746939
 10
3.880374328922698
 20
-3.851146956859793
 10
3.842208539200479
 20
-3.853127125656682
 10
3.809355494753718
 20
-3.851083698739709
 10
3.790853544708637
 20
-3.781115441514354
 10
3.819061146260752
 20
-3.772645841003193
 10
3.835735623006459
 20
-3.834607831814688
 10
3.97822642859387
 20
-3.835452317977291
 10
3.91335594018263
 20
-3.828557183083198
 10
3.926465153026558
 20
-3.674763858442727
 10
3.901222044158354
 20
-3.721964567020525
 10
3.820330320531221
 20
-3.671809471095558
 10
3.854700670311672
 20
-3.635391611078703
 10
3.894569115637523
 20
-3.693590140652581
 10
3.889978644754061
 20
-3.671230071962529
 10
3.939875866522192
 20
-3.635397368858143
 97
        0
 97
        1
330
107
 92
        1
 93
        1
 72
     4
 94
        3
 73
     0
 74
     0
 95
       17
 96
       13
 40
0.0
 40
0.0
 40
0.0
 40
0.0
 40
1.0
 40
1.0
 40
1.0
 40
2.0
 40
2.0
 40
2.0
 40
3.0
 40
3.0
 40
3.0
 40
4.0
 40
4.0
 40
4.0
 40
4.0
 10
3.736289712008303
 20
-3.773065554622032
 10
3.697214944317276
 20
-3.736419516595358
 10
3.87501211564337
 20
-3.751241345419379
 10
3.815040494577285
 20
-3.773067153931656
 10
3.771403591526475
 20
-3.765217614613195
 10
3.771623166572756
 20
-3.780616613693634
 10
3.775965312096167
 20
-3.81916301807602
 10
3.786384346595064
 20
-3.862611118956035
 10
3.740478801443146
 20
-3.861529398048837
 10
3.749710556595939
 20
-3.819152121471283
 10
3.753594058493427
 20
-3.800107204694061
 10
3.772906559893789
 20
-3.76161555726685
 10
3.736289712008303
 20
-3.773065554622032
 97
        0
 97
        1
330
108
 92
        1
 93
        1
 72
     4
 94
        3
 73
     0
 74
     0
 95
       20
 96
       16
 40
0.0
 40
0.0
 40
0.0
 40
0.0
 40
1.0
 40
1.0
 40
1.0
 40
2.0
 40
2.0
 40
2.0
 40
3.0
 40
3.0
 40
3.0
 40
4.0
 40
4.0
 40
4.0
 40
5.0
 40
5.0
 40
5.0
 40
5.0
 10
3.736289712008303
 20
-3.733975927885921
 10
3.721608294208522
 20
-3.708706298090444
 10
3.733530196315793
 20
-3.670488959064995
 10
3.729868228471787
 20
-3.641813781621193
 10
3.751004809075159
 20
-3.630073253824421
 10
3.798776965647978
 20
-3.631329371619333
 10
3.821460709417755
 20
-3.641799667242543
 10
3.81574469314704
 20
-3.666845933927131
 10
3.772834959605903
 20
-3.652770042136302
 10
3.754520892368911
 20
-3.652315966538405
 10
3.717783373132811
 20
-3.688731574474003
 10
3.789110412217887
 20
-3.666155865305275
 10
3.802204518605157
 20
-3.681478333173774
 10
3.75630841881011
 20
-3.721515591103322
 10
3.765755022713177
 20
-3.655934634072309
 10
3.736289712008303
 20
-3.733975927885921
 97
        0
 97
        1
330
109
 75
     2
 76
     1
 98
        1
 10
0.0
 20
0.0
450
        0
451
        0
460
0.0
461
0.0
452
        0
462
0.0
453
        0
470

  0
SPLINE
  5
10B
330
70
100
AcDbEntity
  8
Poneglyph
100
AcDbSpline
210
0.0
220
0.0
230
1.0
 70
     9
 71
     3
 72
    11
 73
     7
 74
     0
 42
0.0000000001
 43
0.0000000001
 40
0.0
 40
0.0
 40
0.0
 40
0.0
 40
1.0
 40
1.0
 40
1.0
 40
2.0
 40
2.0
 40
2.0
 40
2.0
 10
4.172623262355525
 20
-3.69769042064921
 30
0.0
 10
4.219699874098422
 20
-3.662105448189814
 30
0.0
 10
4.113627284374185
 20
-3.637817518122612
 30
0.0
 10
4.128726715676773
 20
-3.688209906699878
 30
0.0
 10
4.130983641097221
 20
-3.705486141142109
 30
0.0
 10
4.160726392478484
 20
-3.695440459763593
 30
0.0
 10
4.172623262355525
 20
-3.69769042064921
 30
0.0
  0
SPLINE
  5
10C
330
70
100
AcDbEntity
  8
Poneglyph
100
AcDbSpline
210
0.0
220
0.0
230
1.0
 70
     9
 71
     3
 72
    20
 73
    16
 74
     0
 42
0.0000000001
 43
0.0000000001
 40
0.0
 40
0.0
 40
0.0
 40
0.0
 40
1.0
 40
1.0
 40
1.0
 40
2.0
 40
2.0
 40
2.0
 40
3.0
 40
3.0
 40
3.0
 40
4.0
 40
4.0
 40
4.0
 40
5.0
 40
5.0
 40
5.0
 40
5.0
 10
4.185311793171497
 20
-3.73589842846171
 30
0.0
 10
4.208161837078856
 20
-3.737243906997276
 30
0.0
 10
4.207956949884216
 20
-3.887675068351591
 30
0.0
 10
4.17263098062507
 20
-3.844390033567113
 30
0.0
 10
4.183141453507965
 20
-3.813118674466231
 30
0.0
 10
4.155592396127177
 20
-3.826548051314868
 30
0.0
 10
4.136895127732992
 20
-3.824281975028561
 30
0.0
 10
4.122659370993182
 20
-3.794794519657481
 30
0.0
 10
4.159551839237766
 20
-3.813196566908736
 30
0.0
 10
4.172622719821371
 20
-3.805903203198883
 30
0.0
 10
4.202989162427785
 20
-3.711021124529085
 30
0.0
 10
4.116308608478473
 20
-3.797482333131016
 30
0.0
 10
4.125651917458904
 20
-3.739983344310947
 30
0.0
 10
4.139639305042717
 20
-3.730573264613301
 30
0.0
 10
4.169019005261235
 20
-3.738270854615153
 30
0.0
 10
4.185311793171497
 20
-3.73589842846171
 30
0.0
  0
SPLINE
  5
10D
330
70
100
AcDbEntity
  8
Poneglyph
100
AcDbSpline
210
0.0
220
0.0
230
1.0
 70
     9
 71
     3
 72
    11
 73
     7
 74
     0
 42
0.0000000001
 43
0.0000000001
 40
0.0
 40
0.0
 40
0.0
 40
0.0
 40
1.0
 40
1.0
 40
1.0
 40
2.0
 40
2.0
 40
2.0
 40
2.0
 10
4.153376843084692
 20
-3.634105351204766
 30
0.0
 10
4.218173595407708
 20
-3.63971958749884
 30
0.0
 10
4.21982694933437
 20
-3.719862444769748
 30
0.0
 10
4.153259375170843
 20
-3.723349152039001
 30
0.0
 10
4.087197618357018
 20
-3.719587820296977
 30
0.0
 10
4.089097342122284
 20
-3.639843420475964
 30
0.0
 10
4.153376843084692
 20
-3.634105351204766
 30
0.0
  0
SPLINE
  5
10E
330
70
100
AcDbEntity
  8
Poneglyph
100
AcDbSpline
210
0.0
220
0.0
230
1.0
 70
     9
 71
     3
 72
    11
 73
     7
 74
     0
 42
0.0000000001
 43
0.0000000001
 40
0.0
 40
0.0
 40
0.0
 40
0.0
 40
1.0
 40
1.0
 40
1.0
 40
2.0
 40
2.0
 40
2.0
 40
2.0
 10
4.045459905150664
 20
-3.716652009190877
 30
0.0
 10
4.0697490479163
 20
-3.714680835473409
 30
0.0
 10
4.06967952444807
 20
-3.744585732328952
 30
0.0
 10
4.045457742141429
 20
-3.742612076155321
 30
0.0
 10
4.029070168773791
 20
-3.742288766010119
 30
0.0
 10
4.028977376165559
 20
-3.71698775914553
 30
0.0
 10
4.045459905150664
 20
-3.716652009190877
 30
0.0
  0
SPLINE
  5
10F
330
70
100
AcDbEntity
  8
Poneglyph
100
AcDbSpline
210
0.0
220
0.0
230
1.0
 70
     9
 71
     3
 72
    38
 73
    34
 74
     0
 42
0.0000000001
 43
0.0000000001
 40
0.0
 40
0.0
 40
0.0
 40
0.0
 40
1.0
 40
1.0
 40
1.0
 40
2.0
 40
2.0
 40
2.0
 40
3.0
 40
3.0
 40
3.0
 40
4.0
 40
4.0
 40
4.0
 40
5.0
 40
5.0
 40
5.0
 40
6.0
 40
6.0
 40
6.0
 40
7.0
 40
7.0
 40
7.0
 40
8.0
 40
8.0
 40
8.0
 40
9.0
 40
9.0
 40
9.0
 40
10.0
 40
10.0
 40
10.0
 40
11.0
 40
11.0
 40
11.0
 40
11.0
 10
4.10260237476872
 20
-3.793068024815877
 30
0.0
 10
4.134543350345842
 20
-3.839902660597127
 30
0.0
 10
4.045711160883481
 20
-3.800296586396232
 30
0.0
 10
4.032630486260282
 20
-3.831562077548255
 30
0.0
 10
3.986193380744857
 20
-3.876242840127348
 30
0.0
 10
3.989042031558508
 20
-3.807644366271246
 30
0.0
 10
3.988003813893783
 20
-3.774173412344414
 30
0.0
 10
3.997812372273503
 20
-3.730619154729601
 30
0.0
 10
3.96141338548298
 20
-3.628925146172162
 30
0.0
 10
4.0261938381076
 20
-3.640517232044468
 30
0.0
 10
4.042973040160278
 20
-3.644337917453854
 30
0.0
 10
4.114799400012088
 20
-3.627710163703732
 30
0.0
 10
4.098547497659713
 20
-3.658760546738057
 30
0.0
 10
4.07162926394916
 20
-3.66059851411012
 30
0.0
 10
4.040426485725902
 20
-3.658946555610441
 30
0.0
 10
4.013375766242991
 20
-3.659483413120811
 30
0.0
 10
3.986575233422298
 20
-3.702651267819027
 30
0.0
 10
4.113626675699909
 20
-3.655518829974817
 30
0.0
 10
4.076048900693952
 20
-3.707611398676855
 30
0.0
 10
4.029168840620286
 20
-3.69908028458259
 30
0.0
 10
4.006666623651906
 20
-3.67210205603006
 30
0.0
 10
4.007839453325661
 20
-3.748737209823035
 30
0.0
 10
4.008714224019487
 20
-3.766060933686061
 30
0.0
 10
4.090765129198063
 20
-3.770366023522771
 30
0.0
 10
4.083380475511628
 20
-3.748740503440545
 30
0.0
 10
4.093989765377273
 20
-3.714829668314715
 30
0.0
 10
4.125506557858569
 20
-3.757447760306894
 30
0.0
 10
4.102597384395342
 20
-3.774105446444549
 30
0.0
 10
4.083014514658998
 20
-3.79422860254624
 30
0.0
 10
4.011357440792506
 20
-3.761597631959944
 30
0.0
 10
4.012202115123752
 20
-3.792178668548192
 30
0.0
 10
4.002297237430083
 20
-3.8595301692904
 30
0.0
 10
4.034228464507956
 20
-3.774722339856793
 30
0.0
 10
4.10260237476872
 20
-3.793068024815877
 30
0.0
  0
HATCH
  5
110
330
70
100
AcDbEntity
  8
Poneglyph
 62
   250
420
  2301728
440
 33554687
100
AcDbHatch
 10
0.0
 20
0.0
 30
0.0
210
0.0
220
0.0
230
1.0
  2
SOLID
 70
     1
 71
     1
 91
        5
 92
        1
 93
        1
 72
     4
 94
        3
 73
     0
 74
     0
 95
       11
 96
        7
 40
0.0
 40
0.0
 40
0.0
 40
0.0
 40
1.0
 40
1.0
 40
1.0
 40
2.0
 40
2.0
 40
2.0
 40
2.0
 10
4.172623262355525
 20
-3.69769042064921
 10
4.219699874098422
 20
-3.662105448189814
 10
4.113627284374185
 20
-3.637817518122612
 10
4.128726715676773
 20
-3.688209906699878
 10
4.130983641097221
 20
-3.705486141142109
 10
4.160726392478484
 20
-3.695440459763593
 10
4.172623262355525
 20
-3.69769042064921
 97
        0
 97
        1
330
10B
 92
        1
 93
        1
 72
     4
 94
        3
 73
     0
 74
     0
 95
       20
 96
       16
 40
0.0
 40
0.0
 40
0.0
 40
0.0
 40
1.0
 40
1.0
 40
1.0
 40
2.0
 40
2.0
 40
2.0
 40
3.0
 40
3.0
 40
3.0
 40
4.0
 40
4.0
 40
4.0
 40
5.0
 40
5.0
 40
5.0
 40
5.0
 10
4.185311793171497
 20
-3.73589842846171
 10
4.208161837078856
 20
-3.737243906997276
 10
4.207956949884216
 20
-3.887675068351591
 10
4.17263098062507
 20
-3.844390033567113
 10
4.183141453507965
 20
-3.813118674466231
 10
4.155592396127177
 20
-3.826548051314868
 10
4.136895127732992
 20
-3.824281975028561
 10
4.122659370993182
 20
-3.794794519657481
 10
4.159551839237766
 20
-3.813196566908736
 10
4.172622719821371
 20
-3.805903203198883
 10
4.202989162427785
 20
-3.711021124529085
 10
4.116308608478473
 20
-3.797482333131016
 10
4.125651917458904
 20
-3.739983344310947
 10
4.139639305042717
 20
-3.730573264613301
 10
4.169019005261235
 20
-3.738270854615153
 10
4.185311793171497
 20
-3.73589842846171
 97
        0
 97
        1
330
10C
 92
        1
 93
        1
 72
     4
 94
        3
 73
     0
 74
     0
 95
       11
 96
        7
 40
0.0
 40
0.0
 40
0.0
 40
0.0
 40
1.0
 40
1.0
 40
1.0
 40
2.0
 40
2.0
 40
2.0
 40
2.0
 10
4.153376843084692
 20
-3.634105351204766
 10
4.218173595407708
 20
-3.63971958749884
 10
4.21982694933437
 20
-3.719862444769748
 10
4.153259375170843
 20
-3.723349152039001
 10
4.087197618357018
 20
-3.719587820296977
 10
4.089097342122284
 20
-3.639843420475964
 10
4.153376843084692
 20
-3.634105351204766
 97
        0
 97
        1
330
10D
 92
        1
 93
        1
 72
     4
 94
        3
 73
     0
 74
     0
 95
       11
 96
        7
 40
0.0
 40
0.0
 40
0.0
 40
0.0
 40
1.0
 40
1.0
 40
1.0
 40
2.0
 40
2.0
 40
2.0
 40
2.0
 10
4.045459905150664
 20
-3.716652009190877
 10
4.0697490479163
 20
-3.714680835473409
 10
4.06967952444807
 20
-3.744585732328952
 10
4.045457742141429
 20
-3.742612076155321
 10
4.029070168773791
 20
-3.742288766010119
 10
4.028977376165559
 20
-3.71698775914553
 10
4.045459905150664
 20
-3.716652009190877
 97
        0
 97
        1
330
10E
 92
        1
 93
        1
 72
     4
 94
        3
 73
     0
 74
     0
 95
       38
 96
       34
 40
0.0
 40
0.0
 40
0.0
 40
0.0
 40
1.0
 40
1.0
 40
1.0
 40
2.0
 40
2.0
 40
2.0
 40
3.0
 40
3.0
 40
3.0
 40
4.0
 40
4.0
 40
4.0
 40
5.0
 40
5.0
 40
5.0
 40
6.0
 40
6.0
 40
6.0
 40
7.0
 40
7.0
 40
7.0
 40
8.0
 40
8.0
 40
8.0
 40
9.0
 40
9.0
 40
9.0
 40
10.0
 40
10.0
 40
10.0
 40
11.0
 40
11.0
 40
11.0
 40
11.0
 10
4.10260237476872
 20
-3.793068024815877
 10
4.134543350345842
 20
-3.839902660597127
 10
4.045711160883481
 20
-3.800296586396232
 10
4.032630486260282
 20
-3.831562077548255
 10
3.986193380744857
 20
-3.876242840127348
 10
3.989042031558508
 20
-3.807644366271246
 10
3.988003813893783
 20
-3.774173412344414
 10
3.997812372273503
 20
-3.730619154729601
 10
3.96141338548298
 20
-3.628925146172162
 10
4.0261938381076
 20
-3.640517232044468
 10
4.042973040160278
 20
-3.644337917453854
 10
4.114799400012088
 20
-3.627710163703732
 10
4.098547497659713
 20
-3.658760546738057
 10
4.07162926394916
 20
-3.66059851411012
 10
4.040426485725902
 20
-3.658946555610441
 10
4.013375766242991
 20
-3.659483413120811
 10
3.986575233422298
 20
-3.702651267819027
 10
4.113626675699909
 20
-3.655518829974817
 10
4.076048900693952
 20
-3.707611398676855
 10
4.029168840620286
 20
-3.69908028458259
 10
4.006666623651906
 20
-3.67210205603006
 10
4.007839453325661
 20
-3.748737209823035
 10
4.008714224019487
 20
-3.766060933686061
 10
4.090765129198063
 20
-3.770366023522771
 10
4.083380475511628
 20
-3.748740503440545
 10
4.093989765377273
 20
-3.714829668314715
 10
4.125506557858569
 20
-3.757447760306894
 10
4.102597384395342
 20
-3.774105446444549
 10
4.083014514658998
 20
-3.79422860254624
 10
4.011357440792506
 20
-3.761597631959944
 10
4.012202115123752
 20
-3.792178668548192
 10
4.002297237430083
 20
-3.8595301692904
 10
4.034228464507956
 20
-3.774722339856793
 10
4.10260237476872
 20
-3.793068024815877
 97
        0
 97
        1
330
10F
 75
     2
 76
     1
 98
        1
 10
0.0
 20
0.0
450
        0
451
        0
460
0.0
461
0.0
452
        0
462
0.0
453
        0
470

  0
SPLINE
  5
111
330
70
100
AcDbEntity
  8
Poneglyph
100
AcDbSpline
210
0.0
220
0.0
230
1.0
 70
     9
 71
     3
 72
    11
 73
     7
 74
     0
 42
0.0000000001
 43
0.0000000001
 40
0.0
 40
0.0
 40
0.0
 40
0.0
 40
1.0
 40
1.0
 40
1.0
 40
2.0
 40
2.0
 40
2.0
 40
2.0
 10
4.396907116522192
 20
-3.714165204954294
 30
0.0
 10
4.414111799792737
 20
-3.722203372095691
 30
0.0
 10
4.463666907408271
 20
-3.718360375048582
 30
0.0
 10
4.424328426844996
 20
-3.707590294395938
 30
0.0
 10
4.408612571015535
 20
-3.703795820926516
 30
0.0
 10
4.353162719124863
 20
-3.713615725714968
 30
0.0
 10
4.396907116522192
 20
-3.714165204954294
 30
0.0
  0
SPLINE
  5
112
330
70
100
AcDbEntity
  8
Poneglyph
100
AcDbSpline
210
0.0
220
0.0
230
1.0
 70
     9
 71
     3
 72
    20
 73
    16
 74
     0
 42
0.0000000001
 43
0.0000000001
 40
0.0
 40
0.0
 40
0.0
 40
0.0
 40
1.0
 40
1.0
 40
1.0
 40
2.0
 40
2.0
 40
2.0
 40
3.0
 40
3.0
 40
3.0
 40
4.0
 40
4.0
 40
4.0
 40
5.0
 40
5.0
 40
5.0
 40
5.0
 10
4.462533472858997
 20
-3.635416290023739
 30
0.0
 10
4.467514130587485
 20
-3.678863876602968
 30
0.0
 10
4.468604740476747
 20
-3.730638885726521
 30
0.0
 10
4.459176825154801
 20
-3.776435407557225
 30
0.0
 10
4.444308981439083
 20
-3.794710289178131
 30
0.0
 10
4.475580382454609
 20
-3.859581636663885
 30
0.0
 10
4.437159547163597
 20
-3.850954463544161
 30
0.0
 10
4.414265702892836
 20
-3.740450765062733
 30
0.0
 10
4.497777173721967
 20
-3.741034164804331
 30
0.0
 10
4.358408135278978
 20
-3.736341508941424
 30
0.0
 10
4.320835054032739
 20
-3.650032260598562
 30
0.0
 10
4.45725280162186
 20
-3.736034139876967
 30
0.0
 10
4.445615605139992
 20
-3.660058957172951
 30
0.0
 10
4.360854113810672
 20
-3.648469422391801
 30
0.0
 10
4.393699070867746
 20
-3.630473678045417
 30
0.0
 10
4.462533472858997
 20
-3.635416290023739
 30
0.0
  0
SPLINE
  5
113
330
70
100
AcDbEntity
  8
Poneglyph
100
AcDbSpline
210
0.0
220
0.0
230
1.0
 70
     9
 71
     3
 72
    11
 73
     7
 74
     0
 42
0.0000000001
 43
0.0000000001
 40
0.0
 40
0.0
 40
0.0
 40
0.0
 40
1.0
 40
1.0
 40
1.0
 40
2.0
 40
2.0
 40
2.0
 40
2.0
 10
4.30532725541108
 20
-3.694620391586239
 30
0.0
 10
4.30270268971468
 20
-3.702923939943704
 30
0.0
 10
4.312533619421552
 20
-3.713984338954661
 30
0.0
 10
4.316703364802909
 20
-3.703517963030258
 30
0.0
 10
4.317036018307564
 20
-3.698932424009778
 30
0.0
 10
4.311299139050561
 20
-3.692770066397492
 30
0.0
 10
4.30532725541108
 20
-3.694620391586239
 30
0.0
  0
SPLINE
  5
114
330
70
100
AcDbEntity
  8
Poneglyph
100
AcDbSpline
210
0.0
220
0.0
230
1.0
 70
     9
 71
     3
 72
    14
 73
    10
 74
     0
 42
0.0000000001
 43
0.0000000001
 40
0.0
 40
0.0
 40
0.0
 40
0.0
 40
1.0
 40
1.0
 40
1.0
 40
2.0
 40
2.0
 40
2.0
 40
3.0
 40
3.0
 40
3.0
 40
3.0
 10
4.28549082962983
 20
-3.806043460162628
 30
0.0
 10
4.316969411810355
 20
-3.781600898023018
 30
0.0
 10
4.3653832748049
 20
-3.802893338091027
 30
0.0
 10
4.403320404259551
 20
-3.792621131569805
 30
0.0
 10
4.443554669093347
 20
-3.815167906740169
 30
0.0
 10
4.383512895392818
 20
-3.826342808199115
 30
0.0
 10
4.364244866924612
 20
-3.812446481877865
 30
0.0
 10
4.340935987402391
 20
-3.806311243916828
 30
0.0
 10
4.296571537889627
 20
-3.836985285903539
 30
0.0
 10
4.28549082962983
 20
-3.806043460162628
 30
0.0
  0
SPLINE
  5
115
330
70
100
AcDbEntity
  8
Poneglyph
100
AcDbSpline
210
0.0
220
0.0
230
1.0
 70
     9
 71
     3
 72
    11
 73
     7
 74
     0
 42
0.0000000001
 43
0.0000000001
 40
0.0
 40
0.0
 40
0.0
 40
0.0
 40
1.0
 40
1.0
 40
1.0
 40
2.0
 40
2.0
 40
2.0
 40
2.0
 10
4.291906302720109
 20
-3.681206220579294
 30
0.0
 10
4.374843952070705
 20
-3.656779735506865
 30
0.0
 10
4.309607766322212
 20
-3.771676698831116
 30
0.0
 10
4.298472290920472
 20
-3.725991804731367
 30
0.0
 10
4.297623268448281
 20
-3.714781730642673
 30
0.0
 10
4.275698159161972
 20
-3.682597101268937
 30
0.0
 10
4.291906302720109
 20
-3.681206220579294
 30
0.0
  0
SPLINE
  5
116
330
70
100
AcDbEntity
  8
Poneglyph
100
AcDbSpline
210
0.0
220
0.0
230
1.0
 70
     9
 71
     3
 72
    29
 73
    25
 74
     0
 42
0.0000000001
 43
0.0000000001
 40
0.0
 40
0.0
 40
0.0
 40
0.0
 40
1.0
 40
1.0
 40
1.0
 40
2.0
 40
2.0
 40
2.0
 40
3.0
 40
3.0
 40
3.0
 40
4.0
 40
4.0
 40
4.0
 40
5.0
 40
5.0
 40
5.0
 40
6.0
 40
6.0
 40
6.0
 40
7.0
 40
7.0
 40
7.0
 40
8.0
 40
8.0
 40
8.0
 40
8.0
 10
4.318158201591637
 20
-3.635416290023739
 30
0.0
 10
4.352029098783658
 20
-3.683543446915715
 30
0.0
 10
4.272134123936337
 20
-3.645037537605806
 30
0.0
 10
4.26682807871796
 20
-3.662817706859742
 30
0.0
 10
4.282743007711537
 20
-3.690647546577135
 30
0.0
 10
4.256935658180383
 20
-3.721309560133552
 30
0.0
 10
4.268422993152979
 20
-3.749458626146684
 30
0.0
 10
4.291336391105106
 20
-3.779875796577496
 30
0.0
 10
4.361365321946398
 20
-3.733794610979581
 30
0.0
 10
4.382911569493621
 20
-3.75587266480847
 30
0.0
 10
4.3772633326601
 20
-3.785674869942744
 30
0.0
 10
4.309478219216872
 20
-3.784283713141197
 30
0.0
 10
4.282286484881802
 20
-3.774844917177511
 30
0.0
 10
4.247915405889721
 20
-3.797287010147884
 30
0.0
 10
4.282770526501609
 20
-3.846989728372843
 30
0.0
 10
4.324861716919333
 20
-3.818855212821997
 30
0.0
 10
4.353263406275244
 20
-3.848973865270433
 30
0.0
 10
4.299120561579633
 20
-3.84663542548262
 30
0.0
 10
4.279075619744895
 20
-3.845113583836993
 30
0.0
 10
4.222330859813862
 20
-3.857012385425428
 30
0.0
 10
4.2515235307678
 20
-3.743212667384922
 30
0.0
 10
4.252805437273638
 20
-3.707467896621412
 30
0.0
 10
4.23640518996409
 20
-3.644815267926888
 30
0.0
 10
4.253319745450602
 20
-3.631172715904792
 30
0.0
 10
4.318158201591637
 20
-3.635416290023739
 30
0.0
  0
HATCH
  5
117
330
70
100
AcDbEntity
  8
Poneglyph
 62
   250
420
  2301728
440
 33554687
100
AcDbHatch
 10
0.0
 20
0.0
 30
0.0
210
0.0
220
0.0
230
1.0
  2
SOLID
 70
     1
 71
     1
 91
        6
 92
        1
 93
        1
 72
     4
 94
        3
 73
     0
 74
     0
 95
       11
 96
        7
 40
0.0
 40
0.0
 40
0.0
 40
0.0
 40
1.0
 40
1.0
 40
1.0
 40
2.0
 40
2.0
 40
2.0
 40
2.0
 10
4.396907116522192
 20
-3.714165204954294
 10
4.414111799792737
 20
-3.722203372095691
 10
4.463666907408271
 20
-3.718360375048582
 10
4.424328426844996
 20
-3.707590294395938
 10
4.408612571015535
 20
-3.703795820926516
 10
4.353162719124863
 20
-3.713615725714968
 10
4.396907116522192
 20
-3.714165204954294
 97
        0
 97
        1
330
111
 92
        1
 93
        1
 72
     4
 94
        3
 73
     0
 74
     0
 95
       20
 96
       16
 40
0.0
 40
0.0
 40
0.0
 40
0.0
 40
1.0
 40
1.0
 40
1.0
 40
2.0
 40
2.0
 40
2.0
 40
3.0
 40
3.0
 40
3.0
 40
4.0
 40
4.0
 40
4.0
 40
5.0
 40
5.0
 40
5.0
 40
5.0
 10
4.462533472858997
 20
-3.635416290023739
 10
4.467514130587485
 20
-3.678863876602968
 10
4.468604740476747
 20
-3.730638885726521
 10
4.459176825154801
 20
-3.776435407557225
 10
4.444308981439083
 20
-3.794710289178131
 10
4.475580382454609
 20
-3.859581636663885
 10
4.437159547163597
 20
-3.850954463544161
 10
4.414265702892836
 20
-3.740450765062733
 10
4.497777173721967
 20
-3.741034164804331
 10
4.358408135278978
 20
-3.736341508941424
 10
4.320835054032739
 20
-3.650032260598562
 10
4.45725280162186
 20
-3.736034139876967
 10
4.445615605139992
 20
-3.660058957172951
 10
4.360854113810672
 20
-3.648469422391801
 10
4.393699070867746
 20
-3.630473678045417
 10
4.462533472858997
 20
-3.635416290023739
 97
        0
 97
        1
330
112
 92
        1
 93
        1
 72
     4
 94
        3
 73
     0
 74
     0
 95
       11
 96
        7
 40
0.0
 40
0.0
 40
0.0
 40
0.0
 40
1.0
 40
1.0
 40
1.0
 40
2.0
 40
2.0
 40
2.0
 40
2.0
 10
4.30532725541108
 20
-3.694620391586239
 10
4.30270268971468
 20
-3.702923939943704
 10
4.312533619421552
 20
-3.713984338954661
 10
4.316703364802909
 20
-3.703517963030258
 10
4.317036018307564
 20
-3.698932424009778
 10
4.311299139050561
 20
-3.692770066397492
 10
4.30532725541108
 20
-3.694620391586239
 97
        0
 97
        1
330
113
 92
        1
 93
        1
 72
     4
 94
        3
 73
     0
 74
     0
 95
       14
 96
       10
 40
0.0
 40
0.0
 40
0.0
 40
0.0
 40
1.0
 40
1.0
 40
1.0
 40
2.0
 40
2.0
 40
2.0
 40
3.0
 40
3.0
 40
3.0
 40
3.0
 10
4.28549082962983
 20
-3.806043460162628
 10
4.316969411810355
 20
-3.781600898023018
 10
4.3653832748049
 20
-3.802893338091027
 10
4.403320404259551
 20
-3.792621131569805
 10
4.443554669093347
 20
-3.815167906740169
 10
4.383512895392818
 20
-3.826342808199115
 10
4.364244866924612
 20
-3.812446481877865
 10
4.340935987402391
 20
-3.806311243916828
 10
4.296571537889627
 20
-3.836985285903539
 10
4.28549082962983
 20
-3.806043460162628
 97
        0
 97
        1
330
114
 92
        1
 93
        1
 72
     4
 94
        3
 73
     0
 74
     0
 95
       11
 96
        7
 40
0.0
 40
0.0
 40
0.0
 40
0.0
 40
1.0
 40
1.0
 40
1.0
 40
2.0
 40
2.0
 40
2.0
 40
2.0
 10
4.291906302720109
 20
-3.681206220579294
 10
4.374843952070705
 20
-3.656779735506865
 10
4.309607766322212
 20
-3.771676698831116
 10
4.298472290920472
 20
-3.725991804731367
 10
4.297623268448281
 20
-3.714781730642673
 10
4.275698159161972
 20
-3.682597101268937
 10
4.291906302720109
 20
-3.681206220579294
 97
        0
 97
        1
330
115
 92
        1
 93
        1
 72
     4
 94
        3
 73
     0
 74
     0
 95
       29
 96
       25
 40
0.0
 40
0.0
 40
0.0
 40
0.0
 40
1.0
 40
1.0
 40
1.0
 40
2.0
 40
2.0
 40
2.0
 40
3.0
 40
3.0
 40
3.0
 40
4.0
 40
4.0
 40
4.0
 40
5.0
 40
5.0
 40
5.0
 40
6.0
 40
6.0
 40
6.0
 40
7.0
 40
7.0
 40
7.0
 40
8.0
 40
8.0
 40
8.0
 40
8.0
 10
4.318158201591637
 20
-3.635416290023739
 10
4.352029098783658
 20
-3.683543446915715
 10
4.272134123936337
 20
-3.645037537605806
 10
4.26682807871796
 20
-3.662817706859742
 10
4.282743007711537
 20
-3.690647546577135
 10
4.256935658180383
 20
-3.721309560133552
 10
4.268422993152979
 20
-3.749458626146684
 10
4.291336391105106
 20
-3.779875796577496
 10
4.361365321946398
 20
-3.733794610979581
 10
4.382911569493621
 20
-3.75587266480847
 10
4.3772633326601
 20
-3.785674869942744
 10
4.309478219216872
 20
-3.784283713141197
 10
4.282286484881802
 20
-3.774844917177511
 10
4.247915405889721
 20
-3.797287010147884
 10
4.282770526501609
 20
-3.846989728372843
 10
4.324861716919333
 20
-3.818855212821997
 10
4.353263406275244
 20
-3.848973865270433
 10
4.299120561579633
 20
-3.84663542548262
 10
4.279075619744895
 20
-3.845113583836993
 10
4.222330859813862
 20
-3.857012385425428
 10
4.2515235307678
 20
-3.743212667384922
 10
4.252805437273638
 20
-3.707467896621412
 10
4.23640518996409
 20
-3.644815267926888
 10
4.253319745450602
 20
-3.631172715904792
 10
4.318158201591637
 20
-3.635416290023739
 97
        0
 97
        1
330
116
 75
     2
 76
     1
 98
        1
 10
0.0
 20
0.0
450
        0
451
        0
460
0.0
461
0.0
452
        0
462
0.0
453
        0
470

  0
SPLINE
  5
118
330
70
100
AcDbEntity
  8
Poneglyph
100
AcDbSpline
210
0.0
220
0.0
230
1.0
 70
     9
 71
     3
 72
    11
 73
     7
 74
     0
 42
0.0000000001
 43
0.0000000001
 40
0.0
 40
0.0
 40
0.0
 40
0.0
 40
1.0
 40
1.0
 40
1.0
 40
2.0
 40
2.0
 40
2.0
 40
2.0
 10
4.688865395602053
 20
-3.69769042064921
 30
0.0
 10
4.73594200734495
 20
-3.662105448189814
 30
0.0
 10
4.629869417620713
 20
-3.637817518122612
 30
0.0
 10
4.6449688489233
 20
-3.688209906699878
 30
0.0
 10
4.647225774343748
 20
-3.705486141142109
 30
0.0
 10
4.676968525725012
 20
-3.695440459763593
 30
0.0
 10
4.688865395602053
 20
-3.69769042064921
 30
0.0
  0
SPLINE
  5
119
330
70
100
AcDbEntity
  8
Poneglyph
100
AcDbSpline
210
0.0
220
0.0
230
1.0
 70
     9
 71
     3
 72
    20
 73
    16
 74
     0
 42
0.0000000001
 43
0.0000000001
 40
0.0
 40
0.0
 40
0.0
 40
0.0
 40
1.0
 40
1.0
 40
1.0
 40
2.0
 40
2.0
 40
2.0
 40
3.0
 40
3.0
 40
3.0
 40
4.0
 40
4.0
 40
4.0
 40
5.0
 40
5.0
 40
5.0
 40
5.0
 10
4.701553926418025
 20
-3.73589842846171
 30
0.0
 10
4.724403970325384
 20
-3.737243906997276
 30
0.0
 10
4.724199083130744
 20
-3.887675068351591
 30
0.0
 10
4.688873113871598
 20
-3.844390033567113
 30
0.0
 10
4.699383586754493
 20
-3.813118674466231
 30
0.0
 10
4.671834529373705
 20
-3.826548051314868
 30
0.0
 10
4.653137260979519
 20
-3.824281975028561
 30
0.0
 10
4.63890150423971
 20
-3.794794519657481
 30
0.0
 10
4.675793972484294
 20
-3.813196566908736
 30
0.0
 10
4.688864853067898
 20
-3.805903203198883
 30
0.0
 10
4.719231295674313
 20
-3.711021124529085
 30
0.0
 10
4.632550741725
 20
-3.797482333131016
 30
0.0
 10
4.641894050705432
 20
-3.739983344310947
 30
0.0
 10
4.655881438289244
 20
-3.730573264613301
 30
0.0
 10
4.685261138507763
 20
-3.738270854615153
 30
0.0
 10
4.701553926418025
 20
-3.73589842846171
 30
0.0
  0
SPLINE
  5
11A
330
70
100
AcDbEntity
  8
Poneglyph
100
AcDbSpline
210
0.0
220
0.0
230
1.0
 70
     9
 71
     3
 72
    11
 73
     7
 74
     0
 42
0.0000000001
 43
0.0000000001
 40
0.0
 40
0.0
 40
0.0
 40
0.0
 40
1.0
 40
1.0
 40
1.0
 40
2.0
 40
2.0
 40
2.0
 40
2.0
 10
4.66961897633122
 20
-3.634105351204766
 30
0.0
 10
4.734415728654235
 20
-3.63971958749884
 30
0.0
 10
4.736069082580898
 20
-3.719862444769748
 30
0.0
 10
4.669501508417371
 20
-3.723349152039001
 30
0.0
 10
4.603439751603546
 20
-3.719587820296977
 30
0.0
 10
4.605339475368812
 20
-3.639843420475964
 30
0.0
 10
4.66961897633122
 20
-3.634105351204766
 30
0.0
  0
SPLINE
  5
11B
330
70
100
AcDbEntity
  8
Poneglyph
100
AcDbSpline
210
0.0
220
0.0
230
1.0
 70
     9
 71
     3
 72
    11
 73
     7
 74
     0
 42
0.0000000001
 43
0.0000000001
 40
0.0
 40
0.0
 40
0.0
 40
0.0
 40
1.0
 40
1.0
 40
1.0
 40
2.0
 40
2.0
 40
2.0
 40
2.0
 10
4.561702038397192
 20
-3.716652009190877
 30
0.0
 10
4.585991181162827
 20
-3.714680835473409
 30
0.0
 10
4.585921657694598
 20
-3.744585732328952
 30
0.0
 10
4.561699875387956
 20
-3.742612076155321
 30
0.0
 10
4.545312302020318
 20
-3.742288766010119
 30
0.0
 10
4.545219509412062
 20
-3.71698775914553
 30
0.0
 10
4.561702038397192
 20
-3.716652009190877
 30
0.0
  0
SPLINE
  5
11C
330
70
100
AcDbEntity
  8
Poneglyph
100
AcDbSpline
210
0.0
220
0.0
230
1.0
 70
     9
 71
     3
 72
    38
 73
    34
 74
     0
 42
0.0000000001
 43
0.0000000001
 40
0.0
 40
0.0
 40
0.0
 40
0.0
 40
1.0
 40
1.0
 40
1.0
 40
2.0
 40
2.0
 40
2.0
 40
3.0
 40
3.0
 40
3.0
 40
4.0
 40
4.0
 40
4.0
 40
5.0
 40
5.0
 40
5.0
 40
6.0
 40
6.0
 40
6.0
 40
7.0
 40
7.0
 40
7.0
 40
8.0
 40
8.0
 40
8.0
 40
9.0
 40
9.0
 40
9.0
 40
10.0
 40
10.0
 40
10.0
 40
11.0
 40
11.0
 40
11.0
 40
11.0
 10
4.618844508015247
 20
-3.793068024815877
 30
0.0
 10
4.65078548359237
 20
-3.839902660597127
 30
0.0
 10
4.561953294130009
 20
-3.800296586396232
 30
0.0
 10
4.54887261950681
 20
-3.831562077548255
 30
0.0
 10
4.502435513991384
 20
-3.876242840127348
 30
0.0
 10
4.505284164805035
 20
-3.807644366271246
 30
0.0
 10
4.504245947140311
 20
-3.774173412344414
 30
0.0
 10
4.51405450552003
 20
-3.730619154729601
 30
0.0
 10
4.477655518729508
 20
-3.628925146172162
 30
0.0
 10
4.542435971354128
 20
-3.640517232044468
 30
0.0
 10
4.559215173406806
 20
-3.644337917453854
 30
0.0
 10
4.631041533258616
 20
-3.627710163703732
 30
0.0
 10
4.614789630906241
 20
-3.658760546738057
 30
0.0
 10
4.587871397195688
 20
-3.66059851411012
 30
0.0
 10
4.556668618972429
 20
-3.658946555610441
 30
0.0
 10
4.529617899489519
 20
-3.659483413120811
 30
0.0
 10
4.502817366668826
 20
-3.702651267819027
 30
0.0
 10
4.629868808946437
 20
-3.655518829974817
 30
0.0
 10
4.59229103394048
 20
-3.707611398676855
 30
0.0
 10
4.545410973866814
 20
-3.69908028458259
 30
0.0
 10
4.522908756898433
 20
-3.67210205603006
 30
0.0
 10
4.524081586572188
 20
-3.748737209823035
 30
0.0
 10
4.524956357266015
 20
-3.766060933686061
 30
0.0
 10
4.60700726244459
 20
-3.770366023522771
 30
0.0
 10
4.599622608758155
 20
-3.748740503440545
 30
0.0
 10
4.6102318986238
 20
-3.714829668314715
 30
0.0
 10
4.641748691105097
 20
-3.757447760306894
 30
0.0
 10
4.61883951764187
 20
-3.774105446444549
 30
0.0
 10
4.599256647905526
 20
-3.79422860254624
 30
0.0
 10
4.527599574039034
 20
-3.761597631959944
 30
0.0
 10
4.52844424837028
 20
-3.792178668548192
 30
0.0
 10
4.51853937067661
 20
-3.8595301692904
 30
0.0
 10
4.550470597754483
 20
-3.774722339856793
 30
0.0
 10
4.618844508015247
 20
-3.793068024815877
 30
0.0
  0
HATCH
  5
11D
330
70
100
AcDbEntity
  8
Poneglyph
 62
   250
420
  2301728
440
 33554687
100
AcDbHatch
 10
0.0
 20
0.0
 30
0.0
210
0.0
220
0.0
230
1.0
  2
SOLID
 70
     1
 71
     1
 91
        5
 92
        1
 93
        1
 72
     4
 94
        3
 73
     0
 74
     0
 95
       11
 96
        7
 40
0.0
 40
0.0
 40
0.0
 40
0.0
 40
1.0
 40
1.0
 40
1.0
 40
2.0
 40
2.0
 40
2.0
 40
2.0
 10
4.688865395602053
 20
-3.69769042064921
 10
4.73594200734495
 20
-3.662105448189814
 10
4.629869417620713
 20
-3.637817518122612
 10
4.6449688489233
 20
-3.688209906699878
 10
4.647225774343748
 20
-3.705486141142109
 10
4.676968525725012
 20
-3.695440459763593
 10
4.688865395602053
 20
-3.69769042064921
 97
        0
 97
        1
330
118
 92
        1
 93
        1
 72
     4
 94
        3
 73
     0
 74
     0
 95
       20
 96
       16
 40
0.0
 40
0.0
 40
0.0
 40
0.0
 40
1.0
 40
1.0
 40
1.0
 40
2.0
 40
2.0
 40
2.0
 40
3.0
 40
3.0
 40
3.0
 40
4.0
 40
4.0
 40
4.0
 40
5.0
 40
5.0
 40
5.0
 40
5.0
 10
4.701553926418025
 20
-3.73589842846171
 10
4.724403970325384
 20
-3.737243906997276
 10
4.724199083130744
 20
-3.887675068351591
 10
4.688873113871598
 20
-3.844390033567113
 10
4.699383586754493
 20
-3.813118674466231
 10
4.671834529373705
 20
-3.826548051314868
 10
4.653137260979519
 20
-3.824281975028561
 10
4.63890150423971
 20
-3.794794519657481
 10
4.675793972484294
 20
-3.813196566908736
 10
4.688864853067898
 20
-3.805903203198883
 10
4.719231295674313
 20
-3.711021124529085
 10
4.632550741725
 20
-3.797482333131016
 10
4.641894050705432
 20
-3.739983344310947
 10
4.655881438289244
 20
-3.730573264613301
 10
4.685261138507763
 20
-3.738270854615153
 10
4.701553926418025
 20
-3.73589842846171
 97
        0
 97
        1
330
119
 92
        1
 93
        1
 72
     4
 94
        3
 73
     0
 74
     0
 95
       11
 96
        7
 40
0.0
 40
0.0
 40
0.0
 40
0.0
 40
1.0
 40
1.0
 40
1.0
 40
2.0
 40
2.0
 40
2.0
 40
2.0
 10
4.66961897633122
 20
-3.634105351204766
 10
4.734415728654235
 20
-3.63971958749884
 10
4.736069082580898
 20
-3.719862444769748
 10
4.669501508417371
 20
-3.723349152039001
 10
4.603439751603546
 20
-3.719587820296977
 10
4.605339475368812
 20
-3.639843420475964
 10
4.66961897633122
 20
-3.634105351204766
 97
        0
 97
        1
330
11A
 92
        1
 93
        1
 72
     4
 94
        3
 73
     0
 74
     0
 95
       11
 96
        7
 40
0.0
 40
0.0
 40
0.0
 40
0.0
 40
1.0
 40
1.0
 40
1.0
 40
2.0
 40
2.0
 40
2.0
 40
2.0
 10
4.561702038397192
 20
-3.716652009190877
 10
4.585991181162827
 20
-3.714680835473409
 10
4.585921657694598
 20
-3.744585732328952
 10
4.561699875387956
 20
-3.742612076155321
 10
4.545312302020318
 20
-3.742288766010119
 10
4.545219509412062
 20
-3.71698775914553
 10
4.561702038397192
 20
-3.716652009190877
 97
        0
 97
        1
330
11B
 92
        1
 93
        1
 72
     4
 94
        3
 73
     0
 74
     0
 95
       38
 96
       34
 40
0.0
 40
0.0
 40
0.0
 40
0.0
 40
1.0
 40
1.0
 40
1.0
 40
2.0
 40
2.0
 40
2.0
 40
3.0
 40
3.0
 40
3.0
 40
4.0
 40
4.0
 40
4.0
 40
5.0
 40
5.0
 40
5.0
 40
6.0
 40
6.0
 40
6.0
 40
7.0
 40
7.0
 40
7.0
 40
8.0
 40
8.0
 40
8.0
 40
9.0
 40
9.0
 40
9.0
 40
10.0
 40
10.0
 40
10.0
 40
11.0
 40
11.0
 40
11.0
 40
11.0
 10
4.618844508015247
 20
-3.793068024815877
 10
4.65078548359237
 20
-3.839902660597127
 10
4.561953294130009
 20
-3.800296586396232
 10
4.54887261950681
 20
-3.831562077548255
 10
4.502435513991384
 20
-3.876242840127348
 10
4.505284164805035
 20
-3.807644366271246
 10
4.504245947140311
 20
-3.774173412344414
 10
4.51405450552003
 20
-3.730619154729601
 10
4.477655518729508
 20
-3.628925146172162
 10
4.542435971354128
 20
-3.640517232044468
 10
4.559215173406806
 20
-3.644337917453854
 10
4.631041533258616
 20
-3.627710163703732
 10
4.614789630906241
 20
-3.658760546738057
 10
4.587871397195688
 20
-3.66059851411012
 10
4.556668618972429
 20
-3.658946555610441
 10
4.529617899489519
 20
-3.659483413120811
 10
4.502817366668826
 20
-3.702651267819027
 10
4.629868808946437
 20
-3.655518829974817
 10
4.59229103394048
 20
-3.707611398676855
 10
4.545410973866814
 20
-3.69908028458259
 10
4.522908756898433
 20
-3.67210205603006
 10
4.524081586572188
 20
-3.748737209823035
 10
4.524956357266015
 20
-3.766060933686061
 10
4.60700726244459
 20
-3.770366023522771
 10
4.599622608758155
 20
-3.748740503440545
 10
4.6102318986238
 20
-3.714829668314715
 10
4.641748691105097
 20
-3.757447760306894
 10
4.61883951764187
 20
-3.774105446444549
 10
4.599256647905526
 20
-3.79422860254624
 10
4.527599574039034
 20
-3.761597631959944
 10
4.52844424837028
 20
-3.792178668548192
 10
4.51853937067661
 20
-3.8595301692904
 10
4.550470597754483
 20
-3.774722339856793
 10
4.618844508015247
 20
-3.793068024815877
 97
        0
 97
        1
330
11C
 75
     2
 76
     1
 98
        1
 10
0.0
 20
0.0
450
        0
451
        0
460
0.0
461
0.0
452
        0
462
0.0
453
        0
470

  0
SPLINE
  5
11E
330
70
100
AcDbEntity
  8
Poneglyph
100
AcDbSpline
210
0.0
220
0.0
230
1.0
 70
     9
 71
     3
 72
    11
 73
     7
 74
     0
 42
0.0000000001
 43
0.0000000001
 40
0.0
 40
0.0
 40
0.0
 40
0.0
 40
1.0
 40
1.0
 40
1.0
 40
2.0
 40
2.0
 40
2.0
 40
2.0
 10
3.681758190740942
 20
-3.91736015138056
 30
0.0
 10
3.700528452857573
 20
-3.917555927320866
 30
0.0
 10
3.70173291510068
 20
-3.964722119031143
 30
0.0
 10
3.681761298901291
 20
-3.963149280441989
 30
0.0
 10
3.661723156711748
 20
-3.964877288230354
 30
0.0
 10
3.663020417745896
 20
-3.917506745772622
 30
0.0
 10
3.681758190740942
 20
-3.91736015138056
 30
0.0
  0
SPLINE
  5
11F
330
70
100
AcDbEntity
  8
Poneglyph
100
AcDbSpline
210
0.0
220
0.0
230
1.0
 70
     9
 71
     3
 72
    23
 73
    19
 74
     0
 42
0.0000000001
 43
0.0000000001
 40
0.0
 40
0.0
 40
0.0
 40
0.0
 40
1.0
 40
1.0
 40
1.0
 40
2.0
 40
2.0
 40
2.0
 40
3.0
 40
3.0
 40
3.0
 40
4.0
 40
4.0
 40
4.0
 40
5.0
 40
5.0
 40
5.0
 40
6.0
 40
6.0
 40
6.0
 40
6.0
 10
3.668628850463164
 20
-4.035483523776393
 30
0.0
 10
3.702760897730361
 20
-4.042007781107384
 30
0.0
 10
3.702376655554315
 20
-4.107906128111229
 30
0.0
 10
3.688184506986809
 20
-4.127065906766826
 30
0.0
 10
3.673156190782239
 20
-4.146340203003597
 30
0.0
 10
3.614933125957147
 20
-4.123556547328032
 30
0.0
 10
3.661920310222878
 20
-4.12064278116347
 30
0.0
 10
3.687431692076655
 20
-4.102803858627415
 30
0.0
 10
3.680920753373685
 20
-4.050767788390834
 30
0.0
 10
3.637274110281206
 20
-4.054151338458646
 30
0.0
 10
3.602512788574459
 20
-4.039659806574288
 30
0.0
 10
3.650284588246121
 20
-4.159508758266661
 30
0.0
 10
3.596579745262677
 20
-4.120647909404851
 30
0.0
 10
3.6079636792877
 20
-4.096756602265991
 30
0.0
 10
3.587299830990811
 20
-3.89585404295907
 30
0.0
 10
3.618740961329497
 20
-3.921435882509209
 30
0.0
 10
3.639326154746691
 20
-3.961534277947698
 30
0.0
 10
3.587644685768357
 20
-4.069622481044057
 30
0.0
 10
3.668628850463164
 20
-4.035483523776393
 30
0.0
  0
SPLINE
  5
120
330
70
100
AcDbEntity
  8
Poneglyph
100
AcDbSpline
210
0.0
220
0.0
230
1.0
 70
     9
 71
     3
 72
    11
 73
     7
 74
     0
 42
0.0000000001
 43
0.0000000001
 40
0.0
 40
0.0
 40
0.0
 40
0.0
 40
1.0
 40
1.0
 40
1.0
 40
2.0
 40
2.0
 40
2.0
 40
2.0
 10
3.543798392563858
 20
-4.028783219956949
 30
0.0
 10
3.545130526527701
 20
-4.009386357155007
 30
0.0
 10
3.576126061177243
 20
-4.012593366907569
 30
0.0
 10
3.569898998481006
 20
-4.032717871252669
 30
0.0
 10
3.565907906099242
 20
-4.037230067237512
 30
0.0
 10
3.543930642400912
 20
-4.038460604430055
 30
0.0
 10
3.543798392563858
 20
-4.028783219956949
 30
0.0
  0
SPLINE
  5
121
330
70
100
AcDbEntity
  8
Poneglyph
100
AcDbSpline
210
0.0
220
0.0
230
1.0
 70
     9
 71
     3
 72
    29
 73
    25
 74
     0
 42
0.0000000001
 43
0.0000000001
 40
0.0
 40
0.0
 40
0.0
 40
0.0
 40
1.0
 40
1.0
 40
1.0
 40
2.0
 40
2.0
 40
2.0
 40
3.0
 40
3.0
 40
3.0
 40
4.0
 40
4.0
 40
4.0
 40
5.0
 40
5.0
 40
5.0
 40
6.0
 40
6.0
 40
6.0
 40
7.0
 40
7.0
 40
7.0
 40
8.0
 40
8.0
 40
8.0
 40
8.0
 10
3.583172850029136
 20
-3.976279422213893
 30
0.0
 10
3.589819157021982
 20
-3.995908365847829
 30
0.0
 10
3.540481476620495
 20
-3.993729877709711
 30
0.0
 10
3.537380378071954
 20
-3.982701523502985
 30
0.0
 10
3.582295161446646
 20
-3.967358559885901
 30
0.0
 10
3.575082697962898
 20
-3.929836451514069
 30
0.0
 10
3.524246126047488
 20
-3.943610870158888
 30
0.0
 10
3.477015859447823
 20
-3.94356700462529
 30
0.0
 10
3.503586955580708
 20
-4.039598955857046
 30
0.0
 10
3.497991914984709
 20
-4.074851940401105
 30
0.0
 10
3.545824759016909
 20
-4.076513121393897
 30
0.0
 10
3.571764113472871
 20
-4.064233432674427
 30
0.0
 10
3.552837342953997
 20
-4.126354666315642
 30
0.0
 10
3.542877261751199
 20
-4.122909995688132
 30
0.0
 10
3.543721600304353
 20
-4.140651372952788
 30
0.0
 10
3.538108200042908
 20
-4.12969704102266
 30
0.0
 10
3.561750958138481
 20
-4.046110677562384
 30
0.0
 10
3.467634376992287
 20
-4.127831116602995
 30
0.0
 10
3.478455109645286
 20
-4.061744851120616
 30
0.0
 10
3.477408113781658
 20
-4.018015961573458
 30
0.0
 10
3.46840077268612
 20
-3.976991752423373
 30
0.0
 10
3.481244403090638
 20
-3.934422568895494
 30
0.0
 10
3.517496856155667
 20
-3.908720489775431
 30
0.0
 10
3.616517124468309
 20
-3.909694127128684
 30
0.0
 10
3.583172850029136
 20
-3.976279422213893
 30
0.0
  0
HATCH
  5
122
330
70
100
AcDbEntity
  8
Poneglyph
 62
   250
420
  2301728
440
 33554687
100
AcDbHatch
 10
0.0
 20
0.0
 30
0.0
210
0.0
220
0.0
230
1.0
  2
SOLID
 70
     1
 71
     1
 91
        4
 92
        1
 93
        1
 72
     4
 94
        3
 73
     0
 74
     0
 95
       11
 96
        7
 40
0.0
 40
0.0
 40
0.0
 40
0.0
 40
1.0
 40
1.0
 40
1.0
 40
2.0
 40
2.0
 40
2.0
 40
2.0
 10
3.681758190740942
 20
-3.91736015138056
 10
3.700528452857573
 20
-3.917555927320866
 10
3.70173291510068
 20
-3.964722119031143
 10
3.681761298901291
 20
-3.963149280441989
 10
3.661723156711748
 20
-3.964877288230354
 10
3.663020417745896
 20
-3.917506745772622
 10
3.681758190740942
 20
-3.91736015138056
 97
        0
 97
        1
330
11E
 92
        1
 93
        1
 72
     4
 94
        3
 73
     0
 74
     0
 95
       23
 96
       19
 40
0.0
 40
0.0
 40
0.0
 40
0.0
 40
1.0
 40
1.0
 40
1.0
 40
2.0
 40
2.0
 40
2.0
 40
3.0
 40
3.0
 40
3.0
 40
4.0
 40
4.0
 40
4.0
 40
5.0
 40
5.0
 40
5.0
 40
6.0
 40
6.0
 40
6.0
 40
6.0
 10
3.668628850463164
 20
-4.035483523776393
 10
3.702760897730361
 20
-4.042007781107384
 10
3.702376655554315
 20
-4.107906128111229
 10
3.688184506986809
 20
-4.127065906766826
 10
3.673156190782239
 20
-4.146340203003597
 10
3.614933125957147
 20
-4.123556547328032
 10
3.661920310222878
 20
-4.12064278116347
 10
3.687431692076655
 20
-4.102803858627415
 10
3.680920753373685
 20
-4.050767788390834
 10
3.637274110281206
 20
-4.054151338458646
 10
3.602512788574459
 20
-4.039659806574288
 10
3.650284588246121
 20
-4.159508758266661
 10
3.596579745262677
 20
-4.120647909404851
 10
3.6079636792877
 20
-4.096756602265991
 10
3.587299830990811
 20
-3.89585404295907
 10
3.618740961329497
 20
-3.921435882509209
 10
3.639326154746691
 20
-3.961534277947698
 10
3.587644685768357
 20
-4.069622481044057
 10
3.668628850463164
 20
-4.035483523776393
 97
        0
 97
        1
330
11F
 92
        1
 93
        1
 72
     4
 94
        3
 73
     0
 74
     0
 95
       11
 96
        7
 40
0.0
 40
0.0
 40
0.0
 40
0.0
 40
1.0
 40
1.0
 40
1.0
 40
2.0
 40
2.0
 40
2.0
 40
2.0
 10
3.543798392563858
 20
-4.028783219956949
 10
3.545130526527701
 20
-4.009386357155007
 10
3.576126061177243
 20
-4.012593366907569
 10
3.569898998481006
 20
-4.032717871252669
 10
3.565907906099242
 20
-4.037230067237512
 10
3.543930642400912
 20
-4.038460604430055
 10
3.543798392563858
 20
-4.028783219956949
 97
        0
 97
        1
330
120
 92
        1
 93
        1
 72
     4
 94
        3
 73
     0
 74
     0
 95
       29
 96
       25
 40
0.0
 40
0.0
 40
0.0
 40
0.0
 40
1.0
 40
1.0
 40
1.0
 40
2.0
 40
2.0
 40
2.0
 40
3.0
 40
3.0
 40
3.0
 40
4.0
 40
4.0
 40
4.0
 40
5.0
 40
5.0
 40
5.0
 40
6.0
 40
6.0
 40
6.0
 40
7.0
 40
7.0
 40
7.0
 40
8.0
 40
8.0
 40
8.0
 40
8.0
 10
3.583172850029136
 20
-3.976279422213893
 10
3.589819157021982
 20
-3.995908365847829
 10
3.540481476620495
 20
-3.993729877709711
 10
3.537380378071954
 20
-3.982701523502985
 10
3.582295161446646
 20
-3.967358559885901
 10
3.575082697962898
 20
-3.929836451514069
 10
3.524246126047488
 20
-3.943610870158888
 10
3.477015859447823
 20
-3.94356700462529
 10
3.503586955580708
 20
-4.039598955857046
 10
3.497991914984709
 20
-4.074851940401105
 10
3.545824759016909
 20
-4.076513121393897
 10
3.571764113472871
 20
-4.064233432674427
 10
3.552837342953997
 20
-4.126354666315642
 10
3.542877261751199
 20
-4.122909995688132
 10
3.543721600304353
 20
-4.140651372952788
 10
3.538108200042908
 20
-4.12969704102266
 10
3.561750958138481
 20
-4.046110677562384
 10
3.467634376992287
 20
-4.127831116602995
 10
3.478455109645286
 20
-4.061744851120616
 10
3.477408113781658
 20
-4.018015961573458
 10
3.46840077268612
 20
-3.976991752423373
 10
3.481244403090638
 20
-3.934422568895494
 10
3.517496856155667
 20
-3.908720489775431
 10
3.616517124468309
 20
-3.909694127128684
 10
3.583172850029136
 20
-3.976279422213893
 97
        0
 97
        1
330
121
 75
     2
 76
     1
 98
        1
 10
0.0
 20
0.0
450
        0
451
        0
460
0.0
461
0.0
452
        0
462
0.0
453
        0
470

  0
SPLINE
  5
123
330
70
100
AcDbEntity
  8
Poneglyph
100
AcDbSpline
210
0.0
220
0.0
230
1.0
 70
     9
 71
     3
 72
    23
 73
    19
 74
     0
 42
0.0000000001
 43
0.0000000001
 40
0.0
 40
0.0
 40
0.0
 40
0.0
 40
1.0
 40
1.0
 40
1.0
 40
2.0
 40
2.0
 40
2.0
 40
3.0
 40
3.0
 40
3.0
 40
4.0
 40
4.0
 40
4.0
 40
5.0
 40
5.0
 40
5.0
 40
6.0
 40
6.0
 40
6.0
 40
6.0
 10
3.79451921251085
 20
-3.954412672254774
 30
0.0
 10
3.79451921251085
 20
-3.954412672254774
 30
0.0
 10
3.794947306315104
 20
-3.95734151204427
 30
0.0
 10
3.794947306315104
 20
-3.95734151204427
 30
0.0
 10
3.773321363661024
 20
-3.969431559244791
 30
0.0
 10
3.799353705512152
 20
-4.005333794487847
 30
0.0
 10
3.793446011013454
 20
-4.025552537706163
 30
0.0
 10
3.787177191840277
 20
-4.123799641927083
 30
0.0
 10
3.83746846516927
 20
-3.979173448350694
 30
0.0
 10
3.80438486735026
 20
-3.95731692843967
 30
0.0
 10
3.80438486735026
 20
-3.95731692843967
 30
0.0
 10
3.803686353895399
 20
-3.954523722330728
 30
0.0
 10
3.803686353895399
 20
-3.954523722330728
 30
0.0
 10
3.81565941704644
 20
-3.949758741590711
 30
0.0
 10
3.815991719563801
 20
-3.923841688368055
 30
0.0
 10
3.799875047471787
 20
-3.923478020562065
 30
0.0
 10
3.776984320746527
 20
-3.923742506239149
 30
0.0
 10
3.776427374945746
 20
-3.949280632866753
 30
0.0
 10
3.79451921251085
 20
-3.954412672254774
 30
0.0
  0
HATCH
  5
124
330
70
100
AcDbEntity
  8
Poneglyph
 62
   250
420
  2301728
440
 33554687
100
AcDbHatch
 10
0.0
 20
0.0
 30
0.0
210
0.0
220
0.0
230
1.0
  2
SOLID
 70
     1
 71
     1
 91
        1
 92
        1
 93
        1
 72
     4
 94
        3
 73
     0
 74
     0
 95
       23
 96
       19
 40
0.0
 40
0.0
 40
0.0
 40
0.0
 40
1.0
 40
1.0
 40
1.0
 40
2.0
 40
2.0
 40
2.0
 40
3.0
 40
3.0
 40
3.0
 40
4.0
 40
4.0
 40
4.0
 40
5.0
 40
5.0
 40
5.0
 40
6.0
 40
6.0
 40
6.0
 40
6.0
 10
3.79451921251085
 20
-3.954412672254774
 10
3.79451921251085
 20
-3.954412672254774
 10
3.794947306315104
 20
-3.95734151204427
 10
3.794947306315104
 20
-3.95734151204427
 10
3.773321363661024
 20
-3.969431559244791
 10
3.799353705512152
 20
-4.005333794487847
 10
3.793446011013454
 20
-4.025552537706163
 10
3.787177191840277
 20
-4.123799641927083
 10
3.83746846516927
 20
-3.979173448350694
 10
3.80438486735026
 20
-3.95731692843967
 10
3.80438486735026
 20
-3.95731692843967
 10
3.803686353895399
 20
-3.954523722330728
 10
3.803686353895399
 20
-3.954523722330728
 10
3.81565941704644
 20
-3.949758741590711
 10
3.815991719563801
 20
-3.923841688368055
 10
3.799875047471787
 20
-3.923478020562065
 10
3.776984320746527
 20
-3.923742506239149
 10
3.776427374945746
 20
-3.949280632866753
 10
3.79451921251085
 20
-3.954412672254774
 97
        0
 97
        1
330
123
 75
     2
 76
     1
 98
        1
 10
0.0
 20
0.0
450
        0
451
        0
460
0.0
461
0.0
452
        0
462
0.0
453
        0
470

  0
SPLINE
  5
125
330
70
100
AcDbEntity
  8
Poneglyph
100
AcDbSpline
210
0.0
220
0.0
230
1.0
 70
     9
 71
     3
 72
    11
 73
     7
 74
     0
 42
0.0000000001
 43
0.0000000001
 40
0.0
 40
0.0
 40
0.0
 40
0.0
 40
1.0
 40
1.0
 40
1.0
 40
2.0
 40
2.0
 40
2.0
 40
2.0
 10
3.767790900336371
 20
-3.936308966742621
 30
0.0
 10
3.767273796929253
 20
-3.92051272922092
 30
0.0
 10
3.736618041992187
 20
-3.918343438042534
 30
0.0
 10
3.735998365614149
 20
-3.936307271321614
 30
0.0
 10
3.733449300130208
 20
-3.962177700466579
 30
0.0
 10
3.769989013671875
 20
-3.9602296617296
 30
0.0
 10
3.767790900336371
 20
-3.936308966742621
 30
0.0
  0
HATCH
  5
126
330
70
100
AcDbEntity
  8
Poneglyph
 62
   250
420
  2301728
440
 33554687
100
AcDbHatch
 10
0.0
 20
0.0
 30
0.0
210
0.0
220
0.0
230
1.0
  2
SOLID
 70
     1
 71
     1
 91
        1
 92
        1
 93
        1
 72
     4
 94
        3
 73
     0
 74
     0
 95
       11
 96
        7
 40
0.0
 40
0.0
 40
0.0
 40
0.0
 40
1.0
 40
1.0
 40
1.0
 40
2.0
 40
2.0
 40
2.0
 40
2.0
 10
3.767790900336371
 20
-3.936308966742621
 10
3.767273796929253
 20
-3.92051272922092
 10
3.736618041992187
 20
-3.918343438042534
 10
3.735998365614149
 20
-3.936307271321614
 10
3.733449300130208
 20
-3.962177700466579
 10
3.769989013671875
 20
-3.9602296617296
 10
3.767790900336371
 20
-3.936308966742621
 97
        0
 97
        1
330
125
 75
     2
 76
     1
 98
        1
 10
0.0
 20
0.0
450
        0
451
        0
460
0.0
461
0.0
452
        0
462
0.0
453
        0
470

  0
SPLINE
  5
127
330
70
100
AcDbEntity
  8
Poneglyph
100
AcDbSpline
210
0.0
220
0.0
230
1.0
 70
     9
 71
     3
 72
    26
 73
    22
 74
     0
 42
0.0000000001
 43
0.0000000001
 40
0.0
 40
0.0
 40
0.0
 40
0.0
 40
1.0
 40
1.0
 40
1.0
 40
2.0
 40
2.0
 40
2.0
 40
3.0
 40
3.0
 40
3.0
 40
4.0
 40
4.0
 40
4.0
 40
5.0
 40
5.0
 40
5.0
 40
6.0
 40
6.0
 40
6.0
 40
7.0
 40
7.0
 40
7.0
 40
7.0
 10
3.940182156032985
 20
-4.051216973198784
 30
0.0
 10
3.948312547471788
 20
-4.010672675238715
 30
0.0
 10
3.944904751247829
 20
-3.955240037706163
 30
0.0
 10
3.933460659450954
 20
-3.917347378200954
 30
0.0
 10
3.885399712456596
 20
-3.916861640082465
 30
0.0
 10
3.876115587022569
 20
-3.954883999294704
 30
0.0
 10
3.83836449517144
 20
-3.980945163302951
 30
0.0
 10
3.85150146484375
 20
-3.999097188313801
 30
0.0
 10
3.887795342339409
 20
-4.069008721245659
 30
0.0
 10
3.914064195421006
 20
-4.040868971082899
 30
0.0
 10
3.916915893554687
 20
-4.016017489963107
 30
0.0
 10
3.85530768500434
 20
-4.011778937445746
 30
0.0
 10
3.865793863932291
 20
-3.983406066894531
 30
0.0
 10
3.890795389811197
 20
-3.984481811523437
 30
0.0
 10
3.90873294406467
 20
-3.913776821560329
 30
0.0
 10
3.923238966200086
 20
-3.950002034505208
 30
0.0
 10
3.916813320583766
 20
-4.012563917371961
 30
0.0
 10
3.929639180501301
 20
-4.085568745930989
 30
0.0
 10
3.902539571126301
 20
-4.118013170030382
 30
0.0
 10
3.952991061740451
 20
-4.140176561143663
 30
0.0
 10
3.938665601942274
 20
-4.083155314127603
 30
0.0
 10
3.940182156032985
 20
-4.051216973198784
 30
0.0
  0
HATCH
  5
128
330
70
100
AcDbEntity
  8
Poneglyph
 62
   250
420
  2301728
440
 33554687
100
AcDbHatch
 10
0.0
 20
0.0
 30
0.0
210
0.0
220
0.0
230
1.0
  2
SOLID
 70
     1
 71
     1
 91
        1
 92
        1
 93
        1
 72
     4
 94
        3
 73
     0
 74
     0
 95
       26
 96
       22
 40
0.0
 40
0.0
 40
0.0
 40
0.0
 40
1.0
 40
1.0
 40
1.0
 40
2.0
 40
2.0
 40
2.0
 40
3.0
 40
3.0
 40
3.0
 40
4.0
 40
4.0
 40
4.0
 40
5.0
 40
5.0
 40
5.0
 40
6.0
 40
6.0
 40
6.0
 40
7.0
 40
7.0
 40
7.0
 40
7.0
 10
3.940182156032985
 20
-4.051216973198784
 10
3.948312547471788
 20
-4.010672675238715
 10
3.944904751247829
 20
-3.955240037706163
 10
3.933460659450954
 20
-3.917347378200954
 10
3.885399712456596
 20
-3.916861640082465
 10
3.876115587022569
 20
-3.954883999294704
 10
3.83836449517144
 20
-3.980945163302951
 10
3.85150146484375
 20
-3.999097188313801
 10
3.887795342339409
 20
-4.069008721245659
 10
3.914064195421006
 20
-4.040868971082899
 10
3.916915893554687
 20
-4.016017489963107
 10
3.85530768500434
 20
-4.011778937445746
 10
3.865793863932291
 20
-3.983406066894531
 10
3.890795389811197
 20
-3.984481811523437
 10
3.90873294406467
 20
-3.913776821560329
 10
3.923238966200086
 20
-3.950002034505208
 10
3.916813320583766
 20
-4.012563917371961
 10
3.929639180501301
 20
-4.085568745930989
 10
3.902539571126301
 20
-4.118013170030382
 10
3.952991061740451
 20
-4.140176561143663
 10
3.938665601942274
 20
-4.083155314127603
 10
3.940182156032985
 20
-4.051216973198784
 97
        0
 97
        1
330
127
 75
     2
 76
     1
 98
        1
 10
0.0
 20
0.0
450
        0
451
        0
460
0.0
461
0.0
452
        0
462
0.0
453
        0
470

  0
SPLINE
  5
129
330
70
100
AcDbEntity
  8
Poneglyph
100
AcDbSpline
210
0.0
220
0.0
230
1.0
 70
     9
 71
     3
 72
    11
 73
     7
 74
     0
 42
0.0000000001
 43
0.0000000001
 40
0.0
 40
0.0
 40
0.0
 40
0.0
 40
1.0
 40
1.0
 40
1.0
 40
2.0
 40
2.0
 40
2.0
 40
2.0
 10
3.735998365614149
 20
-3.968101501464843
 30
0.0
 10
3.745368109809027
 20
-3.987479315863715
 30
0.0
 10
3.729468451605902
 20
-4.065073649088541
 30
0.0
 10
3.757436964246961
 20
-4.053543090820312
 30
0.0
 10
3.765856424967447
 20
-4.035762363009982
 30
0.0
 10
3.769645690917968
 20
-3.920368618435329
 30
0.0
 10
3.735998365614149
 20
-3.968101501464843
 30
0.0
  0
HATCH
  5
12A
330
70
100
AcDbEntity
  8
Poneglyph
 62
   250
420
  2301728
440
 33554687
100
AcDbHatch
 10
0.0
 20
0.0
 30
0.0
210
0.0
220
0.0
230
1.0
  2
SOLID
 70
     1
 71
     1
 91
        1
 92
        1
 93
        1
 72
     4
 94
        3
 73
     0
 74
     0
 95
       11
 96
        7
 40
0.0
 40
0.0
 40
0.0
 40
0.0
 40
1.0
 40
1.0
 40
1.0
 40
2.0
 40
2.0
 40
2.0
 40
2.0
 10
3.735998365614149
 20
-3.968101501464843
 10
3.745368109809027
 20
-3.987479315863715
 10
3.729468451605902
 20
-4.065073649088541
 10
3.757436964246961
 20
-4.053543090820312
 10
3.765856424967447
 20
-4.035762363009982
 10
3.769645690917968
 20
-3.920368618435329
 10
3.735998365614149
 20
-3.968101501464843
 97
        0
 97
        1
330
129
 75
     2
 76
     1
 98
        1
 10
0.0
 20
0.0
450
        0
451
        0
460
0.0
461
0.0
452
        0
462
0.0
453
        0
470

  0
SPLINE
  5
12B
330
70
100
AcDbEntity
  8
Poneglyph
100
AcDbSpline
210
0.0
220
0.0
230
1.0
 70
     9
 71
     3
 72
    29
 73
    25
 74
     0
 42
0.0000000001
 43
0.0000000001
 40
0.0
 40
0.0
 40
0.0
 40
0.0
 40
1.0
 40
1.0
 40
1.0
 40
2.0
 40
2.0
 40
2.0
 40
3.0
 40
3.0
 40
3.0
 40
4.0
 40
4.0
 40
4.0
 40
5.0
 40
5.0
 40
5.0
 40
6.0
 40
6.0
 40
6.0
 40
7.0
 40
7.0
 40
7.0
 40
8.0
 40
8.0
 40
8.0
 40
8.0
 10
3.86987559000651
 20
-4.070179409450954
 30
0.0
 10
3.84489525689019
 20
-4.080927530924478
 30
0.0
 10
3.880775451660156
 20
-4.127903408474391
 30
0.0
 10
3.845672607421875
 20
-4.115671793619791
 30
0.0
 10
3.80080837673611
 20
-4.125633239746093
 30
0.0
 10
3.831804911295572
 20
-4.095006306966145
 30
0.0
 10
3.81081814236111
 20
-4.077612982855902
 30
0.0
 10
3.783654106987846
 20
-4.070970323350694
 30
0.0
 10
3.798591613769531
 20
-4.10359870062934
 30
0.0
 10
3.793473137749565
 20
-4.114796108669704
 30
0.0
 10
3.754219902886284
 20
-4.122840881347656
 30
0.0
 10
3.74723392062717
 20
-4.114303588867187
 30
0.0
 10
3.745619032118055
 20
-4.07747565375434
 30
0.0
 10
3.718506707085503
 20
-4.068673875596788
 30
0.0
 10
3.733462863498263
 20
-4.113362630208333
 30
0.0
 10
3.729872809516058
 20
-4.127638922797308
 30
0.0
 10
3.749326070149739
 20
-4.141254848904079
 30
0.0
 10
3.783381144205729
 20
-4.130526224772134
 30
0.0
 10
3.806291368272569
 20
-4.133769565158419
 30
0.0
 10
3.829182094997829
 20
-4.130538940429687
 30
0.0
 10
3.863240559895833
 20
-4.141237046983507
 30
0.0
 10
3.882711622450086
 20
-4.127632141113281
 30
0.0
 10
3.878228081597221
 20
-4.112869262695312
 30
0.0
 10
3.894710116916232
 20
-4.067362467447916
 30
0.0
 10
3.86987559000651
 20
-4.070179409450954
 30
0.0
  0
HATCH
  5
12C
330
70
100
AcDbEntity
  8
Poneglyph
 62
   250
420
  2301728
440
 33554687
100
AcDbHatch
 10
0.0
 20
0.0
 30
0.0
210
0.0
220
0.0
230
1.0
  2
SOLID
 70
     1
 71
     1
 91
        1
 92
        1
 93
        1
 72
     4
 94
        3
 73
     0
 74
     0
 95
       29
 96
       25
 40
0.0
 40
0.0
 40
0.0
 40
0.0
 40
1.0
 40
1.0
 40
1.0
 40
2.0
 40
2.0
 40
2.0
 40
3.0
 40
3.0
 40
3.0
 40
4.0
 40
4.0
 40
4.0
 40
5.0
 40
5.0
 40
5.0
 40
6.0
 40
6.0
 40
6.0
 40
7.0
 40
7.0
 40
7.0
 40
8.0
 40
8.0
 40
8.0
 40
8.0
 10
3.86987559000651
 20
-4.070179409450954
 10
3.84489525689019
 20
-4.080927530924478
 10
3.880775451660156
 20
-4.127903408474391
 10
3.845672607421875
 20
-4.115671793619791
 10
3.80080837673611
 20
-4.125633239746093
 10
3.831804911295572
 20
-4.095006306966145
 10
3.81081814236111
 20
-4.077612982855902
 10
3.783654106987846
 20
-4.070970323350694
 10
3.798591613769531
 20
-4.10359870062934
 10
3.793473137749565
 20
-4.114796108669704
 10
3.754219902886284
 20
-4.122840881347656
 10
3.74723392062717
 20
-4.114303588867187
 10
3.745619032118055
 20
-4.07747565375434
 10
3.718506707085503
 20
-4.068673875596788
 10
3.733462863498263
 20
-4.113362630208333
 10
3.729872809516058
 20
-4.127638922797308
 10
3.749326070149739
 20
-4.141254848904079
 10
3.783381144205729
 20
-4.130526224772134
 10
3.806291368272569
 20
-4.133769565158419
 10
3.829182094997829
 20
-4.130538940429687
 10
3.863240559895833
 20
-4.141237046983507
 10
3.882711622450086
 20
-4.127632141113281
 10
3.878228081597221
 20
-4.112869262695312
 10
3.894710116916232
 20
-4.067362467447916
 10
3.86987559000651
 20
-4.070179409450954
 97
        0
 97
        1
330
12B
 75
     2
 76
     1
 98
        1
 10
0.0
 20
0.0
450
        0
451
        0
460
0.0
461
0.0
452
        0
462
0.0
453
        0
470

  0
SPLINE
  5
12D
330
70
100
AcDbEntity
  8
Poneglyph
100
AcDbSpline
210
0.0
220
0.0
230
1.0
 70
     9
 71
     3
 72
    11
 73
     7
 74
     0
 42
0.0000000001
 43
0.0000000001
 40
0.0
 40
0.0
 40
0.0
 40
0.0
 40
1.0
 40
1.0
 40
1.0
 40
2.0
 40
2.0
 40
2.0
 40
2.0
 10
4.16504133961247
 20
-4.094297613772419
 30
0.0
 10
4.12755624432523
 20
-4.135340726277263
 30
0.0
 10
4.127131671081845
 20
-4.00765675097538
 30
0.0
 10
4.165041320263981
 20
-4.048209310607868
 30
0.0
 10
4.165020512233569
 20
-4.059505516539249
 30
0.0
 10
4.165056350825352
 20
-4.083141806870293
 30
0.0
 10
4.16504133961247
 20
-4.094297613772419
 30
0.0
  0
SPLINE
  5
12E
330
70
100
AcDbEntity
  8
Poneglyph
100
AcDbSpline
210
0.0
220
0.0
230
1.0
 70
     9
 71
     3
 72
    11
 73
     7
 74
     0
 42
0.0000000001
 43
0.0000000001
 40
0.0
 40
0.0
 40
0.0
 40
0.0
 40
1.0
 40
1.0
 40
1.0
 40
2.0
 40
2.0
 40
2.0
 40
2.0
 10
4.099414983275664
 20
-4.107426954050197
 30
0.0
 10
4.082726804470919
 20
-4.10710358100338
 30
0.0
 10
4.08252146756379
 20
-4.08164099618034
 30
0.0
 10
4.09941655779562
 20
-4.081466768417334
 30
0.0
 10
4.116303708450155
 20
-4.081645984068245
 30
0.0
 10
4.116100943310053
 20
-4.107105409311164
 30
0.0
 10
4.099414983275664
 20
-4.107426954050197
 30
0.0
  0
SPLINE
  5
12F
330
70
100
AcDbEntity
  8
Poneglyph
100
AcDbSpline
210
0.0
220
0.0
230
1.0
 70
     9
 71
     3
 72
    35
 73
    31
 74
     0
 42
0.0000000001
 43
0.0000000001
 40
0.0
 40
0.0
 40
0.0
 40
0.0
 40
1.0
 40
1.0
 40
1.0
 40
2.0
 40
2.0
 40
2.0
 40
3.0
 40
3.0
 40
3.0
 40
4.0
 40
4.0
 40
4.0
 40
5.0
 40
5.0
 40
5.0
 40
6.0
 40
6.0
 40
6.0
 40
7.0
 40
7.0
 40
7.0
 40
8.0
 40
8.0
 40
8.0
 40
9.0
 40
9.0
 40
9.0
 40
10.0
 40
10.0
 40
10.0
 40
10.0
 10
4.19800032398747
 20
-3.94991556082103
 30
0.0
 10
4.238120010286593
 20
-3.976368542922475
 30
0.0
 10
4.178228907680906
 20
-3.966189914621331
 30
0.0
 10
4.191299416220696
 20
-3.995994268993424
 30
0.0
 10
4.201972430117544
 20
-4.013596043009885
 30
0.0
 10
4.197068895924177
 20
-4.041069221995282
 30
0.0
 10
4.19800003425146
 20
-4.061339442080957
 30
0.0
 10
4.211739149470227
 20
-4.12244662208799
 30
0.0
 10
4.215682419543478
 20
-4.141866784124482
 30
0.0
 10
4.145201806740285
 20
-4.133663642225124
 30
0.0
 10
4.067964788745964
 20
-4.127527757730401
 30
0.0
 10
4.155163336386041
 20
-4.107024071321069
 30
0.0
 10
4.184867950782796
 20
-4.11414995004783
 30
0.0
 10
4.167116966684994
 20
-4.078516866445498
 30
0.0
 10
4.205027587116975
 20
-3.999981625448778
 30
0.0
 10
4.133538331018396
 20
-4.035235400655639
 30
0.0
 10
4.085652199973411
 20
-4.017878465207155
 30
0.0
 10
4.156453661759946
 20
-4.015411410829377
 30
0.0
 10
4.171745970470283
 20
-4.009146452001333
 30
0.0
 10
4.20443728446033
 20
-3.950952031358458
 30
0.0
 10
4.114413042045296
 20
-3.988493369728429
 30
0.0
 10
4.086295990333407
 20
-3.982868714018599
 30
0.0
 10
4.057683142736348
 20
-3.955080581445725
 30
0.0
 10
4.149992707647015
 20
-3.953561612976601
 30
0.0
 10
4.166633771293668
 20
-3.958372987389667
 30
0.0
 10
4.188783751703567
 20
-3.950895083734924
 30
0.0
 10
4.146365865430703
 20
-3.916175061564647
 30
0.0
 10
4.18720868198976
 20
-3.924554939200232
 30
0.0
 10
4.198344848226042
 20
-3.927420210246181
 30
0.0
 10
4.180119135436219
 20
-3.961137707520467
 30
0.0
 10
4.19800032398747
 20
-3.94991556082103
 30
0.0
  0
SPLINE
  5
130
330
70
100
AcDbEntity
  8
Poneglyph
100
AcDbSpline
210
0.0
220
0.0
230
1.0
 70
     9
 71
     3
 72
    11
 73
     7
 74
     0
 42
0.0000000001
 43
0.0000000001
 40
0.0
 40
0.0
 40
0.0
 40
0.0
 40
1.0
 40
1.0
 40
1.0
 40
2.0
 40
2.0
 40
2.0
 40
2.0
 10
4.033788626938859
 20
-3.996003885473808
 30
0.0
 10
4.030578213442291
 20
-3.977784366877635
 30
0.0
 10
4.060532929670671
 20
-3.97947006750716
 30
0.0
 10
4.060332176013793
 20
-3.996004731556695
 30
0.0
 10
4.060560572066075
 20
-4.012506165398463
 30
0.0
 10
4.030438408235214
 20
-4.01428683117519
 30
0.0
 10
4.033788626938859
 20
-3.996003885473808
 30
0.0
  0
SPLINE
  5
131
330
70
100
AcDbEntity
  8
Poneglyph
100
AcDbSpline
210
0.0
220
0.0
230
1.0
 70
     9
 71
     3
 72
    11
 73
     7
 74
     0
 42
0.0000000001
 43
0.0000000001
 40
0.0
 40
0.0
 40
0.0
 40
0.0
 40
1.0
 40
1.0
 40
1.0
 40
2.0
 40
2.0
 40
2.0
 40
2.0
 10
4.040204100029137
 20
-3.94991556082103
 30
0.0
 10
4.07147342658186
 20
-3.934491304327139
 30
0.0
 10
4.029132774208568
 20
-3.932664748930265
 30
0.0
 10
4.014249849709687
 20
-3.936795161502332
 30
0.0
 10
3.996563357743348
 20
-3.951464541997185
 30
0.0
 10
4.029396674665475
 20
-3.954860744430713
 30
0.0
 10
4.040204100029137
 20
-3.94991556082103
 30
0.0
  0
SPLINE
  5
132
330
70
100
AcDbEntity
  8
Poneglyph
100
AcDbSpline
210
0.0
220
0.0
230
1.0
 70
     9
 71
     3
 72
    29
 73
    25
 74
     0
 42
0.0000000001
 43
0.0000000001
 40
0.0
 40
0.0
 40
0.0
 40
0.0
 40
1.0
 40
1.0
 40
1.0
 40
2.0
 40
2.0
 40
2.0
 40
3.0
 40
3.0
 40
3.0
 40
4.0
 40
4.0
 40
4.0
 40
5.0
 40
5.0
 40
5.0
 40
6.0
 40
6.0
 40
6.0
 40
7.0
 40
7.0
 40
7.0
 40
8.0
 40
8.0
 40
8.0
 40
8.0
 10
4.079876951591637
 20
-3.943500087730752
 30
0.0
 10
4.074124197764199
 20
-3.983354109910275
 30
0.0
 10
4.027453750207541
 20
-3.956699992394255
 30
0.0
 10
4.011329503195889
 20
-3.974562878058526
 30
0.0
 10
4.012605575878524
 20
-4.027315871595444
 30
0.0
 10
4.013523136740356
 20
-4.025931745163208
 30
0.0
 10
4.066758082089285
 20
-4.022239402068458
 30
0.0
 10
4.093468910739273
 20
-4.030925254908197
 30
0.0
 10
4.074469979286529
 20
-4.079107261253991
 30
0.0
 10
4.079884489962624
 20
-4.101008887580923
 30
0.0
 10
4.063704653610354
 20
-4.112643954492392
 30
0.0
 10
4.004185752575596
 20
-4.112442350445891
 30
0.0
 10
3.987998138495969
 20
-4.101030445308778
 30
0.0
 10
3.998112499252379
 20
-4.065434122940536
 30
0.0
 10
4.079854408095494
 20
-4.124398698548753
 30
0.0
 10
4.060328504794571
 20
-4.068052470944444
 30
0.0
 10
4.072492923105301
 20
-4.014898444772572
 30
0.0
 10
4.007334706808276
 20
-4.064310778537042
 30
0.0
 10
3.994411354638865
 20
-4.035379005339361
 30
0.0
 10
3.997794346160061
 20
-4.00014901417742
 30
0.0
 10
3.976333403470562
 20
-3.932817170821534
 30
0.0
 10
4.001105931909452
 20
-3.917249788088307
 30
0.0
 10
4.028638914190726
 20
-3.918987482517599
 30
0.0
 10
4.072307000694586
 20
-3.906822915572218
 30
0.0
 10
4.079876951591637
 20
-3.943500087730752
 30
0.0
  0
HATCH
  5
133
330
70
100
AcDbEntity
  8
Poneglyph
 62
   250
420
  2301728
440
 33554687
100
AcDbHatch
 10
0.0
 20
0.0
 30
0.0
210
0.0
220
0.0
230
1.0
  2
SOLID
 70
     1
 71
     1
 91
        6
 92
        1
 93
        1
 72
     4
 94
        3
 73
     0
 74
     0
 95
       11
 96
        7
 40
0.0
 40
0.0
 40
0.0
 40
0.0
 40
1.0
 40
1.0
 40
1.0
 40
2.0
 40
2.0
 40
2.0
 40
2.0
 10
4.16504133961247
 20
-4.094297613772419
 10
4.12755624432523
 20
-4.135340726277263
 10
4.127131671081845
 20
-4.00765675097538
 10
4.165041320263981
 20
-4.048209310607868
 10
4.165020512233569
 20
-4.059505516539249
 10
4.165056350825352
 20
-4.083141806870293
 10
4.16504133961247
 20
-4.094297613772419
 97
        0
 97
        1
330
12D
 92
        1
 93
        1
 72
     4
 94
        3
 73
     0
 74
     0
 95
       11
 96
        7
 40
0.0
 40
0.0
 40
0.0
 40
0.0
 40
1.0
 40
1.0
 40
1.0
 40
2.0
 40
2.0
 40
2.0
 40
2.0
 10
4.099414983275664
 20
-4.107426954050197
 10
4.082726804470919
 20
-4.10710358100338
 10
4.08252146756379
 20
-4.08164099618034
 10
4.09941655779562
 20
-4.081466768417334
 10
4.116303708450155
 20
-4.081645984068245
 10
4.116100943310053
 20
-4.107105409311164
 10
4.099414983275664
 20
-4.107426954050197
 97
        0
 97
        1
330
12E
 92
        1
 93
        1
 72
     4
 94
        3
 73
     0
 74
     0
 95
       35
 96
       31
 40
0.0
 40
0.0
 40
0.0
 40
0.0
 40
1.0
 40
1.0
 40
1.0
 40
2.0
 40
2.0
 40
2.0
 40
3.0
 40
3.0
 40
3.0
 40
4.0
 40
4.0
 40
4.0
 40
5.0
 40
5.0
 40
5.0
 40
6.0
 40
6.0
 40
6.0
 40
7.0
 40
7.0
 40
7.0
 40
8.0
 40
8.0
 40
8.0
 40
9.0
 40
9.0
 40
9.0
 40
10.0
 40
10.0
 40
10.0
 40
10.0
 10
4.19800032398747
 20
-3.94991556082103
 10
4.238120010286593
 20
-3.976368542922475
 10
4.178228907680906
 20
-3.966189914621331
 10
4.191299416220696
 20
-3.995994268993424
 10
4.201972430117544
 20
-4.013596043009885
 10
4.197068895924177
 20
-4.041069221995282
 10
4.19800003425146
 20
-4.061339442080957
 10
4.211739149470227
 20
-4.12244662208799
 10
4.215682419543478
 20
-4.141866784124482
 10
4.145201806740285
 20
-4.133663642225124
 10
4.067964788745964
 20
-4.127527757730401
 10
4.155163336386041
 20
-4.107024071321069
 10
4.184867950782796
 20
-4.11414995004783
 10
4.167116966684994
 20
-4.078516866445498
 10
4.205027587116975
 20
-3.999981625448778
 10
4.133538331018396
 20
-4.035235400655639
 10
4.085652199973411
 20
-4.017878465207155
 10
4.156453661759946
 20
-4.015411410829377
 10
4.171745970470283
 20
-4.009146452001333
 10
4.20443728446033
 20
-3.950952031358458
 10
4.114413042045296
 20
-3.988493369728429
 10
4.086295990333407
 20
-3.982868714018599
 10
4.057683142736348
 20
-3.955080581445725
 10
4.149992707647015
 20
-3.953561612976601
 10
4.166633771293668
 20
-3.958372987389667
 10
4.188783751703567
 20
-3.950895083734924
 10
4.146365865430703
 20
-3.916175061564647
 10
4.18720868198976
 20
-3.924554939200232
 10
4.198344848226042
 20
-3.927420210246181
 10
4.180119135436219
 20
-3.961137707520467
 10
4.19800032398747
 20
-3.94991556082103
 97
        0
 97
        1
330
12F
 92
        1
 93
        1
 72
     4
 94
        3
 73
     0
 74
     0
 95
       11
 96
        7
 40
0.0
 40
0.0
 40
0.0
 40
0.0
 40
1.0
 40
1.0
 40
1.0
 40
2.0
 40
2.0
 40
2.0
 40
2.0
 10
4.033788626938859
 20
-3.996003885473808
 10
4.030578213442291
 20
-3.977784366877635
 10
4.060532929670671
 20
-3.97947006750716
 10
4.060332176013793
 20
-3.996004731556695
 10
4.060560572066075
 20
-4.012506165398463
 10
4.030438408235214
 20
-4.01428683117519
 10
4.033788626938859
 20
-3.996003885473808
 97
        0
 97
        1
330
130
 92
        1
 93
        1
 72
     4
 94
        3
 73
     0
 74
     0
 95
       11
 96
        7
 40
0.0
 40
0.0
 40
0.0
 40
0.0
 40
1.0
 40
1.0
 40
1.0
 40
2.0
 40
2.0
 40
2.0
 40
2.0
 10
4.040204100029137
 20
-3.94991556082103
 10
4.07147342658186
 20
-3.934491304327139
 10
4.029132774208568
 20
-3.932664748930265
 10
4.014249849709687
 20
-3.936795161502332
 10
3.996563357743348
 20
-3.951464541997185
 10
4.029396674665475
 20
-3.954860744430713
 10
4.040204100029137
 20
-3.94991556082103
 97
        0
 97
        1
330
131
 92
        1
 93
        1
 72
     4
 94
        3
 73
     0
 74
     0
 95
       29
 96
       25
 40
0.0
 40
0.0
 40
0.0
 40
0.0
 40
1.0
 40
1.0
 40
1.0
 40
2.0
 40
2.0
 40
2.0
 40
3.0
 40
3.0
 40
3.0
 40
4.0
 40
4.0
 40
4.0
 40
5.0
 40
5.0
 40
5.0
 40
6.0
 40
6.0
 40
6.0
 40
7.0
 40
7.0
 40
7.0
 40
8.0
 40
8.0
 40
8.0
 40
8.0
 10
4.079876951591637
 20
-3.943500087730752
 10
4.074124197764199
 20
-3.983354109910275
 10
4.027453750207541
 20
-3.956699992394255
 10
4.011329503195889
 20
-3.974562878058526
 10
4.012605575878524
 20
-4.027315871595444
 10
4.013523136740356
 20
-4.025931745163208
 10
4.066758082089285
 20
-4.022239402068458
 10
4.093468910739273
 20
-4.030925254908197
 10
4.074469979286529
 20
-4.079107261253991
 10
4.079884489962624
 20
-4.101008887580923
 10
4.063704653610354
 20
-4.112643954492392
 10
4.004185752575596
 20
-4.112442350445891
 10
3.987998138495969
 20
-4.101030445308778
 10
3.998112499252379
 20
-4.065434122940536
 10
4.079854408095494
 20
-4.124398698548753
 10
4.060328504794571
 20
-4.068052470944444
 10
4.072492923105301
 20
-4.014898444772572
 10
4.007334706808276
 20
-4.064310778537042
 10
3.994411354638865
 20
-4.035379005339361
 10
3.997794346160061
 20
-4.00014901417742
 10
3.976333403470562
 20
-3.932817170821534
 10
4.001105931909452
 20
-3.917249788088307
 10
4.028638914190726
 20
-3.918987482517599
 10
4.072307000694586
 20
-3.906822915572218
 10
4.079876951591637
 20
-3.943500087730752
 97
        0
 97
        1
330
132
 75
     2
 76
     1
 98
        1
 10
0.0
 20
0.0
450
        0
451
        0
460
0.0
461
0.0
452
        0
462
0.0
453
        0
470

  0
SPLINE
  5
134
330
70
100
AcDbEntity
  8
Poneglyph
100
AcDbSpline
210
0.0
220
0.0
230
1.0
 70
     9
 71
     3
 72
    11
 73
     7
 74
     0
 42
0.0000000001
 43
0.0000000001
 40
0.0
 40
0.0
 40
0.0
 40
0.0
 40
1.0
 40
1.0
 40
1.0
 40
2.0
 40
2.0
 40
2.0
 40
2.0
 10
4.42315901539372
 20
-4.082143617298874
 30
0.0
 10
4.422835308337425
 20
-4.098939505520042
 30
0.0
 10
4.397223208014464
 20
-4.0989409888196
 30
0.0
 10
4.396907147420961
 20
-4.082142065750606
 30
0.0
 10
4.397205709134064
 20
-4.065675962015549
 30
0.0
 10
4.42285943095448
 20
-4.065674937374827
 30
0.0
 10
4.42315901539372
 20
-4.082143617298874
 30
0.0
  0
SPLINE
  5
135
330
70
100
AcDbEntity
  8
Poneglyph
100
AcDbSpline
210
0.0
220
0.0
230
1.0
 70
     9
 71
     3
 72
    32
 73
    28
 74
     0
 42
0.0000000001
 43
0.0000000001
 40
0.0
 40
0.0
 40
0.0
 40
0.0
 40
1.0
 40
1.0
 40
1.0
 40
2.0
 40
2.0
 40
2.0
 40
3.0
 40
3.0
 40
3.0
 40
4.0
 40
4.0
 40
4.0
 40
5.0
 40
5.0
 40
5.0
 40
6.0
 40
6.0
 40
6.0
 40
7.0
 40
7.0
 40
7.0
 40
8.0
 40
8.0
 40
8.0
 40
9.0
 40
9.0
 40
9.0
 40
9.0
 10
4.455826387355525
 20
-3.918230314347485
 30
0.0
 10
4.485739886033798
 20
-3.946170937439294
 30
0.0
 10
4.452655868701817
 20
-4.056849023789911
 30
0.0
 10
4.46897120805046
 20
-4.108396469726559
 30
0.0
 10
4.477027181838289
 20
-4.146359362128805
 30
0.0
 10
4.374183793039163
 20
-4.144323448781784
 30
0.0
 10
4.403600115861914
 20
-4.115103394991693
 30
0.0
 10
4.415309195948743
 20
-4.110886028615746
 30
0.0
 10
4.446131757837696
 20
-4.126492327392977
 30
0.0
 10
4.445180752977673
 20
-4.107673387733686
 30
0.0
 10
4.431891532164248
 20
-4.084793337191791
 30
0.0
 10
4.472799114016803
 20
-4.024528712345954
 30
0.0
 10
4.423157810618123
 20
-4.036352124067004
 30
0.0
 10
4.392735859004712
 20
-4.029666495408491
 30
0.0
 10
4.392927184933139
 20
-4.049231556013081
 30
0.0
 10
4.386417560035144
 20
-4.071652599379982
 30
0.0
 10
4.364882258421276
 20
-4.08850617649677
 30
0.0
 10
4.356609654883893
 20
-4.048335819039266
 30
0.0
 10
4.37065647957623
 20
-4.036354644813071
 30
0.0
 10
4.382730662427067
 20
-3.995197646082664
 30
0.0
 10
4.45584105311789
 20
-4.041903931318933
 30
0.0
 10
4.442702091038301
 20
-3.996986019657874
 30
0.0
 10
4.436862948386432
 20
-3.978780072967133
 30
0.0
 10
4.453106642600308
 20
-3.949188102832648
 30
0.0
 10
4.442709055090668
 20
-3.938058545119322
 30
0.0
 10
4.379283930241777
 20
-3.940096058673563
 30
0.0
 10
4.411965194173287
 20
-3.909170108702255
 30
0.0
 10
4.455826387355525
 20
-3.918230314347485
 30
0.0
  0
SPLINE
  5
136
330
70
100
AcDbEntity
  8
Poneglyph
100
AcDbSpline
210
0.0
220
0.0
230
1.0
 70
     9
 71
     3
 72
    11
 73
     7
 74
     0
 42
0.0000000001
 43
0.0000000001
 40
0.0
 40
0.0
 40
0.0
 40
0.0
 40
1.0
 40
1.0
 40
1.0
 40
2.0
 40
2.0
 40
2.0
 40
2.0
 10
4.305035642997887
 20
-4.056183330840541
 30
0.0
 10
4.303765638260478
 20
-4.047571187887493
 30
0.0
 10
4.311424191024873
 20
-4.04992790201532
 30
0.0
 10
4.318158344722961
 20
-4.049482946908938
 30
0.0
 10
4.3415969998309
 20
-4.05645880339888
 30
0.0
 10
4.304323057976312
 20
-4.086142384716191
 30
0.0
 10
4.305035642997887
 20
-4.056183330840541
 30
0.0
  0
SPLINE
  5
137
330
70
100
AcDbEntity
  8
Poneglyph
100
AcDbSpline
210
0.0
220
0.0
230
1.0
 70
     9
 71
     3
 72
    11
 73
     7
 74
     0
 42
0.0000000001
 43
0.0000000001
 40
0.0
 40
0.0
 40
0.0
 40
0.0
 40
1.0
 40
1.0
 40
1.0
 40
2.0
 40
2.0
 40
2.0
 40
2.0
 10
4.291906302720109
 20
-3.970734112090541
 30
0.0
 10
4.292229961985892
 20
-3.953943592931459
 30
0.0
 10
4.317836918714697
 20
-3.95394029431332
 30
0.0
 10
4.318158169190584
 20
-3.970735663429953
 30
0.0
 10
4.317826641542675
 20
-3.987514915776096
 30
0.0
 10
4.292233365694427
 20
-3.987514223655807
 30
0.0
 10
4.291906302720109
 20
-3.970734112090541
 30
0.0
  0
SPLINE
  5
138
330
70
100
AcDbEntity
  8
Poneglyph
100
AcDbSpline
210
0.0
220
0.0
230
1.0
 70
     9
 71
     3
 72
    38
 73
    34
 74
     0
 42
0.0000000001
 43
0.0000000001
 40
0.0
 40
0.0
 40
0.0
 40
0.0
 40
1.0
 40
1.0
 40
1.0
 40
2.0
 40
2.0
 40
2.0
 40
3.0
 40
3.0
 40
3.0
 40
4.0
 40
4.0
 40
4.0
 40
5.0
 40
5.0
 40
5.0
 40
6.0
 40
6.0
 40
6.0
 40
7.0
 40
7.0
 40
7.0
 40
8.0
 40
8.0
 40
8.0
 40
9.0
 40
9.0
 40
9.0
 40
10.0
 40
10.0
 40
10.0
 40
11.0
 40
11.0
 40
11.0
 40
11.0
 10
4.370655217650664
 20
-4.128231941951652
 30
0.0
 10
4.342872169722365
 20
-4.150624761490336
 30
0.0
 10
4.360926605230941
 20
-4.109667655030534
 30
0.0
 10
4.346015994996201
 20
-4.105769193220061
 30
0.0
 10
4.324612185984758
 20
-4.109309304094848
 30
0.0
 10
4.297430902061781
 20
-4.110287365371959
 30
0.0
 10
4.27630159089545
 20
-4.105771263016296
 30
0.0
 10
4.268951950391384
 20
-4.137274992507627
 30
0.0
 10
4.248706108609313
 20
-4.146129974456976
 30
0.0
 10
4.25252621519217
 20
-4.101977781469814
 30
0.0
 10
4.245516782951906
 20
-4.044654782572807
 30
0.0
 10
4.247489233498249
 20
-3.980876257031063
 30
0.0
 10
4.250182742120184
 20
-3.922312719425134
 30
0.0
 10
4.291518030911725
 20
-3.919362141714777
 30
0.0
 10
4.397818345088883
 20
-3.892955771365905
 30
0.0
 10
4.383783706705672
 20
-3.964308656614219
 30
0.0
 10
4.387162159805661
 20
-3.986874641358705
 30
0.0
 10
4.344119199776868
 20
-4.00474822049288
 30
0.0
 10
4.337699860036814
 20
-3.977149728289709
 30
0.0
 10
4.369427262676026
 20
-3.96781005951291
 30
0.0
 10
4.376780253544666
 20
-3.93260046762513
 30
0.0
 10
4.331272946734644
 20
-3.938053933877451
 30
0.0
 10
4.259686191130867
 20
-3.929037182988976
 30
0.0
 10
4.267838947024099
 20
-3.947327642629488
 30
0.0
 10
4.272368341871216
 20
-4.00340486772734
 30
0.0
 10
4.292781844300078
 20
-4.010320882555737
 30
0.0
 10
4.331036249413904
 20
-3.998266745558743
 30
0.0
 10
4.356655862338129
 20
-4.012888929269516
 30
0.0
 10
4.313302930357975
 20
-4.054262369676507
 30
0.0
 10
4.249253052443211
 20
-3.968167155911739
 30
0.0
 10
4.272379596679481
 20
-4.088865478932752
 30
0.0
 10
4.306066602891052
 20
-4.09758267131959
 30
0.0
 10
4.385392307199531
 20
-4.063595978632292
 30
0.0
 10
4.370655217650664
 20
-4.128231941951652
 30
0.0
  0
HATCH
  5
139
330
70
100
AcDbEntity
  8
Poneglyph
 62
   250
420
  2301728
440
 33554687
100
AcDbHatch
 10
0.0
 20
0.0
 30
0.0
210
0.0
220
0.0
230
1.0
  2
SOLID
 70
     1
 71
     1
 91
        5
 92
        1
 93
        1
 72
     4
 94
        3
 73
     0
 74
     0
 95
       11
 96
        7
 40
0.0
 40
0.0
 40
0.0
 40
0.0
 40
1.0
 40
1.0
 40
1.0
 40
2.0
 40
2.0
 40
2.0
 40
2.0
 10
4.42315901539372
 20
-4.082143617298874
 10
4.422835308337425
 20
-4.098939505520042
 10
4.397223208014464
 20
-4.0989409888196
 10
4.396907147420961
 20
-4.082142065750606
 10
4.397205709134064
 20
-4.065675962015549
 10
4.42285943095448
 20
-4.065674937374827
 10
4.42315901539372
 20
-4.082143617298874
 97
        0
 97
        1
330
134
 92
        1
 93
        1
 72
     4
 94
        3
 73
     0
 74
     0
 95
       32
 96
       28
 40
0.0
 40
0.0
 40
0.0
 40
0.0
 40
1.0
 40
1.0
 40
1.0
 40
2.0
 40
2.0
 40
2.0
 40
3.0
 40
3.0
 40
3.0
 40
4.0
 40
4.0
 40
4.0
 40
5.0
 40
5.0
 40
5.0
 40
6.0
 40
6.0
 40
6.0
 40
7.0
 40
7.0
 40
7.0
 40
8.0
 40
8.0
 40
8.0
 40
9.0
 40
9.0
 40
9.0
 40
9.0
 10
4.455826387355525
 20
-3.918230314347485
 10
4.485739886033798
 20
-3.946170937439294
 10
4.452655868701817
 20
-4.056849023789911
 10
4.46897120805046
 20
-4.108396469726559
 10
4.477027181838289
 20
-4.146359362128805
 10
4.374183793039163
 20
-4.144323448781784
 10
4.403600115861914
 20
-4.115103394991693
 10
4.415309195948743
 20
-4.110886028615746
 10
4.446131757837696
 20
-4.126492327392977
 10
4.445180752977673
 20
-4.107673387733686
 10
4.431891532164248
 20
-4.084793337191791
 10
4.472799114016803
 20
-4.024528712345954
 10
4.423157810618123
 20
-4.036352124067004
 10
4.392735859004712
 20
-4.029666495408491
 10
4.392927184933139
 20
-4.049231556013081
 10
4.386417560035144
 20
-4.071652599379982
 10
4.364882258421276
 20
-4.08850617649677
 10
4.356609654883893
 20
-4.048335819039266
 10
4.37065647957623
 20
-4.036354644813071
 10
4.382730662427067
 20
-3.995197646082664
 10
4.45584105311789
 20
-4.041903931318933
 10
4.442702091038301
 20
-3.996986019657874
 10
4.436862948386432
 20
-3.978780072967133
 10
4.453106642600308
 20
-3.949188102832648
 10
4.442709055090668
 20
-3.938058545119322
 10
4.379283930241777
 20
-3.940096058673563
 10
4.411965194173287
 20
-3.909170108702255
 10
4.455826387355525
 20
-3.918230314347485
 97
        0
 97
        1
330
135
 92
        1
 93
        1
 72
     4
 94
        3
 73
     0
 74
     0
 95
       11
 96
        7
 40
0.0
 40
0.0
 40
0.0
 40
0.0
 40
1.0
 40
1.0
 40
1.0
 40
2.0
 40
2.0
 40
2.0
 40
2.0
 10
4.305035642997887
 20
-4.056183330840541
 10
4.303765638260478
 20
-4.047571187887493
 10
4.311424191024873
 20
-4.04992790201532
 10
4.318158344722961
 20
-4.049482946908938
 10
4.3415969998309
 20
-4.05645880339888
 10
4.304323057976312
 20
-4.086142384716191
 10
4.305035642997887
 20
-4.056183330840541
 97
        0
 97
        1
330
136
 92
        1
 93
        1
 72
     4
 94
        3
 73
     0
 74
     0
 95
       11
 96
        7
 40
0.0
 40
0.0
 40
0.0
 40
0.0
 40
1.0
 40
1.0
 40
1.0
 40
2.0
 40
2.0
 40
2.0
 40
2.0
 10
4.291906302720109
 20
-3.970734112090541
 10
4.292229961985892
 20
-3.953943592931459
 10
4.317836918714697
 20
-3.95394029431332
 10
4.318158169190584
 20
-3.970735663429953
 10
4.317826641542675
 20
-3.987514915776096
 10
4.292233365694427
 20
-3.987514223655807
 10
4.291906302720109
 20
-3.970734112090541
 97
        0
 97
        1
330
137
 92
        1
 93
        1
 72
     4
 94
        3
 73
     0
 74
     0
 95
       38
 96
       34
 40
0.0
 40
0.0
 40
0.0
 40
0.0
 40
1.0
 40
1.0
 40
1.0
 40
2.0
 40
2.0
 40
2.0
 40
3.0
 40
3.0
 40
3.0
 40
4.0
 40
4.0
 40
4.0
 40
5.0
 40
5.0
 40
5.0
 40
6.0
 40
6.0
 40
6.0
 40
7.0
 40
7.0
 40
7.0
 40
8.0
 40
8.0
 40
8.0
 40
9.0
 40
9.0
 40
9.0
 40
10.0
 40
10.0
 40
10.0
 40
11.0
 40
11.0
 40
11.0
 40
11.0
 10
4.370655217650664
 20
-4.128231941951652
 10
4.342872169722365
 20
-4.150624761490336
 10
4.360926605230941
 20
-4.109667655030534
 10
4.346015994996201
 20
-4.105769193220061
 10
4.324612185984758
 20
-4.109309304094848
 10
4.297430902061781
 20
-4.110287365371959
 10
4.27630159089545
 20
-4.105771263016296
 10
4.268951950391384
 20
-4.137274992507627
 10
4.248706108609313
 20
-4.146129974456976
 10
4.25252621519217
 20
-4.101977781469814
 10
4.245516782951906
 20
-4.044654782572807
 10
4.247489233498249
 20
-3.980876257031063
 10
4.250182742120184
 20
-3.922312719425134
 10
4.291518030911725
 20
-3.919362141714777
 10
4.397818345088883
 20
-3.892955771365905
 10
4.383783706705672
 20
-3.964308656614219
 10
4.387162159805661
 20
-3.986874641358705
 10
4.344119199776868
 20
-4.00474822049288
 10
4.337699860036814
 20
-3.977149728289709
 10
4.369427262676026
 20
-3.96781005951291
 10
4.376780253544666
 20
-3.93260046762513
 10
4.331272946734644
 20
-3.938053933877451
 10
4.259686191130867
 20
-3.929037182988976
 10
4.267838947024099
 20
-3.947327642629488
 10
4.272368341871216
 20
-4.00340486772734
 10
4.292781844300078
 20
-4.010320882555737
 10
4.331036249413904
 20
-3.998266745558743
 10
4.356655862338129
 20
-4.012888929269516
 10
4.313302930357975
 20
-4.054262369676507
 10
4.249253052443211
 20
-3.968167155911739
 10
4.272379596679481
 20
-4.088865478932752
 10
4.306066602891052
 20
-4.09758267131959
 10
4.385392307199531
 20
-4.063595978632292
 10
4.370655217650664
 20
-4.128231941951652
 97
        0
 97
        1
330
138
 75
     2
 76
     1
 98
        1
 10
0.0
 20
0.0
450
        0
451
        0
460
0.0
461
0.0
452
        0
462
0.0
453
        0
470

  0
SPLINE
  5
13A
330
70
100
AcDbEntity
  8
Poneglyph
100
AcDbSpline
210
0.0
220
0.0
230
1.0
 70
     9
 71
     3
 72
    11
 73
     7
 74
     0
 42
0.0000000001
 43
0.0000000001
 40
0.0
 40
0.0
 40
0.0
 40
0.0
 40
1.0
 40
1.0
 40
1.0
 40
2.0
 40
2.0
 40
2.0
 40
2.0
 10
4.688865395602053
 20
-3.980579167381089
 30
0.0
 10
4.73594200734495
 20
-3.944994194921693
 30
0.0
 10
4.629869417620713
 20
-3.92070626485449
 30
0.0
 10
4.6449688489233
 20
-3.971098653431757
 30
0.0
 10
4.647225774343748
 20
-3.988374887873987
 30
0.0
 10
4.676968525725012
 20
-3.978329206495471
 30
0.0
 10
4.688865395602053
 20
-3.980579167381089
 30
0.0
  0
SPLINE
  5
13B
330
70
100
AcDbEntity
  8
Poneglyph
100
AcDbSpline
210
0.0
220
0.0
230
1.0
 70
     9
 71
     3
 72
    20
 73
    16
 74
     0
 42
0.0000000001
 43
0.0000000001
 40
0.0
 40
0.0
 40
0.0
 40
0.0
 40
1.0
 40
1.0
 40
1.0
 40
2.0
 40
2.0
 40
2.0
 40
3.0
 40
3.0
 40
3.0
 40
4.0
 40
4.0
 40
4.0
 40
5.0
 40
5.0
 40
5.0
 40
5.0
 10
4.701553926418025
 20
-4.018787175193589
 30
0.0
 10
4.724403970325384
 20
-4.020132653729155
 30
0.0
 10
4.724199083130744
 20
-4.17056381508347
 30
0.0
 10
4.688873113871598
 20
-4.127278780298992
 30
0.0
 10
4.699383586754493
 20
-4.096007421198111
 30
0.0
 10
4.671834529373705
 20
-4.109436798046746
 30
0.0
 10
4.653137260979519
 20
-4.107170721760439
 30
0.0
 10
4.63890150423971
 20
-4.077683266389359
 30
0.0
 10
4.675793972484294
 20
-4.096085313640616
 30
0.0
 10
4.688864853067898
 20
-4.088791949930762
 30
0.0
 10
4.719231295674313
 20
-3.993909871260964
 30
0.0
 10
4.632550741725
 20
-4.080371079862894
 30
0.0
 10
4.641894050705432
 20
-4.022872091042826
 30
0.0
 10
4.655881438289244
 20
-4.013462011345179
 30
0.0
 10
4.685261138507763
 20
-4.021159601347031
 30
0.0
 10
4.701553926418025
 20
-4.018787175193589
 30
0.0
  0
SPLINE
  5
13C
330
70
100
AcDbEntity
  8
Poneglyph
100
AcDbSpline
210
0.0
220
0.0
230
1.0
 70
     9
 71
     3
 72
    11
 73
     7
 74
     0
 42
0.0000000001
 43
0.0000000001
 40
0.0
 40
0.0
 40
0.0
 40
0.0
 40
1.0
 40
1.0
 40
1.0
 40
2.0
 40
2.0
 40
2.0
 40
2.0
 10
4.66961897633122
 20
-3.916994097936644
 30
0.0
 10
4.734415728654235
 20
-3.922608334230719
 30
0.0
 10
4.736069082580898
 20
-4.002751191501626
 30
0.0
 10
4.669501508417371
 20
-4.006237898770879
 30
0.0
 10
4.603439751603546
 20
-4.002476567028856
 30
0.0
 10
4.605339475368812
 20
-3.922732167207843
 30
0.0
 10
4.66961897633122
 20
-3.916994097936644
 30
0.0
  0
SPLINE
  5
13D
330
70
100
AcDbEntity
  8
Poneglyph
100
AcDbSpline
210
0.0
220
0.0
230
1.0
 70
     9
 71
     3
 72
    11
 73
     7
 74
     0
 42
0.0000000001
 43
0.0000000001
 40
0.0
 40
0.0
 40
0.0
 40
0.0
 40
1.0
 40
1.0
 40
1.0
 40
2.0
 40
2.0
 40
2.0
 40
2.0
 10
4.561702038397192
 20
-3.999540755922756
 30
0.0
 10
4.585991181162827
 20
-3.997569582205288
 30
0.0
 10
4.585921657694598
 20
-4.02747447906083
 30
0.0
 10
4.561699875387956
 20
-4.0255008228872
 30
0.0
 10
4.545312302020318
 20
-4.025177512741998
 30
0.0
 10
4.545219509412062
 20
-3.999876505877434
 30
0.0
 10
4.561702038397192
 20
-3.999540755922756
 30
0.0
  0
SPLINE
  5
13E
330
70
100
AcDbEntity
  8
Poneglyph
100
AcDbSpline
210
0.0
220
0.0
230
1.0
 70
     9
 71
     3
 72
    38
 73
    34
 74
     0
 42
0.0000000001
 43
0.0000000001
 40
0.0
 40
0.0
 40
0.0
 40
0.0
 40
1.0
 40
1.0
 40
1.0
 40
2.0
 40
2.0
 40
2.0
 40
3.0
 40
3.0
 40
3.0
 40
4.0
 40
4.0
 40
4.0
 40
5.0
 40
5.0
 40
5.0
 40
6.0
 40
6.0
 40
6.0
 40
7.0
 40
7.0
 40
7.0
 40
8.0
 40
8.0
 40
8.0
 40
9.0
 40
9.0
 40
9.0
 40
10.0
 40
10.0
 40
10.0
 40
11.0
 40
11.0
 40
11.0
 40
11.0
 10
4.618844508015247
 20
-4.075956771547756
 30
0.0
 10
4.65078548359237
 20
-4.122791407329006
 30
0.0
 10
4.561953294130009
 20
-4.08318533312811
 30
0.0
 10
4.54887261950681
 20
-4.114450824280134
 30
0.0
 10
4.502435513991384
 20
-4.159131586859226
 30
0.0
 10
4.505284164805035
 20
-4.090533113003124
 30
0.0
 10
4.504245947140311
 20
-4.057062159076293
 30
0.0
 10
4.51405450552003
 20
-4.01350790146148
 30
0.0
 10
4.477655518729508
 20
-3.911813892904041
 30
0.0
 10
4.542435971354128
 20
-3.923405978776347
 30
0.0
 10
4.559215173406806
 20
-3.927226664185733
 30
0.0
 10
4.631041533258616
 20
-3.910598910435611
 30
0.0
 10
4.614789630906241
 20
-3.941649293469936
 30
0.0
 10
4.587871397195688
 20
-3.943487260841998
 30
0.0
 10
4.556668618972429
 20
-3.941835302342319
 30
0.0
 10
4.529617899489519
 20
-3.94237215985269
 30
0.0
 10
4.502817366668826
 20
-3.985540014550906
 30
0.0
 10
4.629868808946437
 20
-3.938407576706696
 30
0.0
 10
4.59229103394048
 20
-3.990500145408734
 30
0.0
 10
4.545410973866814
 20
-3.981969031314469
 30
0.0
 10
4.522908756898433
 20
-3.954990802761939
 30
0.0
 10
4.524081586572188
 20
-4.031625956554913
 30
0.0
 10
4.524956357266015
 20
-4.04894968041794
 30
0.0
 10
4.60700726244459
 20
-4.05325477025465
 30
0.0
 10
4.599622608758155
 20
-4.031629250172423
 30
0.0
 10
4.6102318986238
 20
-3.997718415046594
 30
0.0
 10
4.641748691105097
 20
-4.040336507038773
 30
0.0
 10
4.61883951764187
 20
-4.056994193176428
 30
0.0
 10
4.599256647905526
 20
-4.077117349278119
 30
0.0
 10
4.527599574039034
 20
-4.044486378691822
 30
0.0
 10
4.52844424837028
 20
-4.07506741528007
 30
0.0
 10
4.51853937067661
 20
-4.142418916022279
 30
0.0
 10
4.550470597754483
 20
-4.057611086588672
 30
0.0
 10
4.618844508015247
 20
-4.075956771547756
 30
0.0
  0
HATCH
  5
13F
330
70
100
AcDbEntity
  8
Poneglyph
 62
   250
420
  2301728
440
 33554687
100
AcDbHatch
 10
0.0
 20
0.0
 30
0.0
210
0.0
220
0.0
230
1.0
  2
SOLID
 70
     1
 71
     1
 91
        5
 92
        1
 93
        1
 72
     4
 94
        3
 73
     0
 74
     0
 95
       11
 96
        7
 40
0.0
 40
0.0
 40
0.0
 40
0.0
 40
1.0
 40
1.0
 40
1.0
 40
2.0
 40
2.0
 40
2.0
 40
2.0
 10
4.688865395602053
 20
-3.980579167381089
 10
4.73594200734495
 20
-3.944994194921693
 10
4.629869417620713
 20
-3.92070626485449
 10
4.6449688489233
 20
-3.971098653431757
 10
4.647225774343748
 20
-3.988374887873987
 10
4.676968525725012
 20
-3.978329206495471
 10
4.688865395602053
 20
-3.980579167381089
 97
        0
 97
        1
330
13A
 92
        1
 93
        1
 72
     4
 94
        3
 73
     0
 74
     0
 95
       20
 96
       16
 40
0.0
 40
0.0
 40
0.0
 40
0.0
 40
1.0
 40
1.0
 40
1.0
 40
2.0
 40
2.0
 40
2.0
 40
3.0
 40
3.0
 40
3.0
 40
4.0
 40
4.0
 40
4.0
 40
5.0
 40
5.0
 40
5.0
 40
5.0
 10
4.701553926418025
 20
-4.018787175193589
 10
4.724403970325384
 20
-4.020132653729155
 10
4.724199083130744
 20
-4.17056381508347
 10
4.688873113871598
 20
-4.127278780298992
 10
4.699383586754493
 20
-4.096007421198111
 10
4.671834529373705
 20
-4.109436798046746
 10
4.653137260979519
 20
-4.107170721760439
 10
4.63890150423971
 20
-4.077683266389359
 10
4.675793972484294
 20
-4.096085313640616
 10
4.688864853067898
 20
-4.088791949930762
 10
4.719231295674313
 20
-3.993909871260964
 10
4.632550741725
 20
-4.080371079862894
 10
4.641894050705432
 20
-4.022872091042826
 10
4.655881438289244
 20
-4.013462011345179
 10
4.685261138507763
 20
-4.021159601347031
 10
4.701553926418025
 20
-4.018787175193589
 97
        0
 97
        1
330
13B
 92
        1
 93
        1
 72
     4
 94
        3
 73
     0
 74
     0
 95
       11
 96
        7
 40
0.0
 40
0.0
 40
0.0
 40
0.0
 40
1.0
 40
1.0
 40
1.0
 40
2.0
 40
2.0
 40
2.0
 40
2.0
 10
4.66961897633122
 20
-3.916994097936644
 10
4.734415728654235
 20
-3.922608334230719
 10
4.736069082580898
 20
-4.002751191501626
 10
4.669501508417371
 20
-4.006237898770879
 10
4.603439751603546
 20
-4.002476567028856
 10
4.605339475368812
 20
-3.922732167207843
 10
4.66961897633122
 20
-3.916994097936644
 97
        0
 97
        1
330
13C
 92
        1
 93
        1
 72
     4
 94
        3
 73
     0
 74
     0
 95
       11
 96
        7
 40
0.0
 40
0.0
 40
0.0
 40
0.0
 40
1.0
 40
1.0
 40
1.0
 40
2.0
 40
2.0
 40
2.0
 40
2.0
 10
4.561702038397192
 20
-3.999540755922756
 10
4.585991181162827
 20
-3.997569582205288
 10
4.585921657694598
 20
-4.02747447906083
 10
4.561699875387956
 20
-4.0255008228872
 10
4.545312302020318
 20
-4.025177512741998
 10
4.545219509412062
 20
-3.999876505877434
 10
4.561702038397192
 20
-3.999540755922756
 97
        0
 97
        1
330
13D
 92
        1
 93
        1
 72
     4
 94
        3
 73
     0
 74
     0
 95
       38
 96
       34
 40
0.0
 40
0.0
 40
0.0
 40
0.0
 40
1.0
 40
1.0
 40
1.0
 40
2.0
 40
2.0
 40
2.0
 40
3.0
 40
3.0
 40
3.0
 40
4.0
 40
4.0
 40
4.0
 40
5.0
 40
5.0
 40
5.0
 40
6.0
 40
6.0
 40
6.0
 40
7.0
 40
7.0
 40
7.0
 40
8.0
 40
8.0
 40
8.0
 40
9.0
 40
9.0
 40
9.0
 40
10.0
 40
10.0
 40
10.0
 40
11.0
 40
11.0
 40
11.0
 40
11.0
 10
4.618844508015247
 20
-4.075956771547756
 10
4.65078548359237
 20
-4.122791407329006
 10
4.561953294130009
 20
-4.08318533312811
 10
4.54887261950681
 20
-4.114450824280134
 10
4.502435513991384
 20
-4.159131586859226
 10
4.505284164805035
 20
-4.090533113003124
 10
4.504245947140311
 20
-4.057062159076293
 10
4.51405450552003
 20
-4.01350790146148
 10
4.477655518729508
 20
-3.911813892904041
 10
4.542435971354128
 20
-3.923405978776347
 10
4.559215173406806
 20
-3.927226664185733
 10
4.631041533258616
 20
-3.910598910435611
 10
4.614789630906241
 20
-3.941649293469936
 10
4.587871397195688
 20
-3.943487260841998
 10
4.556668618972429
 20
-3.941835302342319
 10
4.529617899489519
 20
-3.94237215985269
 10
4.502817366668826
 20
-3.985540014550906
 10
4.629868808946437
 20
-3.938407576706696
 10
4.59229103394048
 20
-3.990500145408734
 10
4.545410973866814
 20
-3.981969031314469
 10
4.522908756898433
 20
-3.954990802761939
 10
4.524081586572188
 20
-4.031625956554913
 10
4.524956357266015
 20
-4.04894968041794
 10
4.60700726244459
 20
-4.05325477025465
 10
4.599622608758155
 20
-4.031629250172423
 10
4.6102318986238
 20
-3.997718415046594
 10
4.641748691105097
 20
-4.040336507038773
 10
4.61883951764187
 20
-4.056994193176428
 10
4.599256647905526
 20
-4.077117349278119
 10
4.527599574039034
 20
-4.044486378691822
 10
4.52844424837028
 20
-4.07506741528007
 10
4.51853937067661
 20
-4.142418916022279
 10
4.550470597754483
 20
-4.057611086588672
 10
4.618844508015247
 20
-4.075956771547756
 97
        0
 97
        1
330
13E
 75
     2
 76
     1
 98
        1
 10
0.0
 20
0.0
450
        0
451
        0
460
0.0
461
0.0
452
        0
462
0.0
453
        0
470

  0
LWPOLYLINE
  5
140
330
70
100
AcDbEntity
  8
Poneglyph
100
AcDbPolyline
 90
        3
 70
     0
 43
0.0
 10
3.150413711583925
 20
-0.3783392434988475
 10
3.34358747044919
 20
-0.3783392434988475
 10
3.34358747044919
 20
-0.1994680851063827
  0
HATCH
  5
141
330
70
100
AcDbEntity
  8
Poneglyph
 62
   250
420
  2301728
440
 33554687
100
AcDbHatch
 10
0.0
 20
0.0
 30
0.0
210
0.0
220
0.0
230
1.0
  2
SOLID
 70
     1
 71
     1
 91
        1
 92
        3
 72
     0
 73
     1
 93
        3
 10
3.150413711583925
 20
-0.3783392434988475
 10
3.34358747044919
 20
-0.3783392434988475
 10
3.34358747044919
 20
-0.1994680851063827
 97
        0
 75
     2
 76
     1
 98
        1
 10
0.0
 20
0.0
450
        0
451
        0
460
0.0
461
0.0
452
        0
462
0.0
453
        0
470

  0
ENDSEC
  0
SECTION
  2
OBJECTS
  0
DICTIONARY
  5
C
330
0
100
AcDbDictionary
281
     1
  3
ACAD_COLOR
350
63
  3
ACAD_DETAILVIEWSTYLE
350
6A
  3
ACAD_GROUP
350
D
  3
ACAD_LAYOUT
350
62
  3
ACAD_MATERIAL
350
10
  3
ACAD_MLEADERSTYLE
350
66
  3
ACAD_MLINESTYLE
350
5F
  3
ACAD_PLOTSETTINGS
350
61
  3
ACAD_PLOTSTYLENAME
350
E
  3
ACAD_SCALELIST
350
42
  3
ACAD_SECTIONVIEWSTYLE
350
68
  3
ACAD_TABLESTYLE
350
64
  3
ACAD_VISUALSTYLE
350
29
  3
ACDB_RECOMPOSE_DATA
350
14D
  3
AcDbVariableDictionary
350
145
  0
DICTIONARY
  5
63
102
{ACAD_REACTORS
330
C
102
}
330
C
100
AcDbDictionary
281
     1
  0
DICTIONARY
  5
6A
102
{ACAD_REACTORS
330
C
102
}
330
C
100
AcDbDictionary
281
     1
  3
Imperial24
350
6B
  0
DICTIONARY
  5
D
102
{ACAD_REACTORS
330
C
102
}
330
C
100
AcDbDictionary
281
     1
  0
DICTIONARY
  5
62
102
{ACAD_REACTORS
330
C
102
}
330
C
100
AcDbDictionary
281
     1
  3
Layout1
350
6F
  3
Layout2
350
77
  3
Model
350
73
  0
DICTIONARY
  5
10
102
{ACAD_REACTORS
330
C
102
}
330
C
100
AcDbDictionary
281
     1
  3
ByBlock
350
19
  3
ByLayer
350
11
  3
Global
350
21
  0
DICTIONARY
  5
66
102
{ACAD_REACTORS
330
C
102
}
330
C
100
AcDbDictionary
281
     1
  3
Standard
350
67
  0
DICTIONARY
  5
5F
102
{ACAD_REACTORS
330
C
102
}
330
C
100
AcDbDictionary
281
     1
  3
Standard
350
60
  0
DICTIONARY
  5
61
102
{ACAD_REACTORS
330
C
102
}
330
C
100
AcDbDictionary
281
     1
  0
ACDBDICTIONARYWDFLT
  5
E
102
{ACAD_REACTORS
330
C
102
}
330
C
100
AcDbDictionary
281
     1
  3
Normal
350
F
100
AcDbDictionaryWithDefault
340
F
  0
DICTIONARY
  5
42
102
{ACAD_REACTORS
330
C
102
}
330
C
100
AcDbDictionary
281
     1
  3
A0
350
43
  3
A1
350
44
  3
A2
350
45
  3
A3
350
46
  3
A4
350
47
  3
A5
350
48
  3
A6
350
49
  3
A7
350
4A
  3
A8
350
4B
  3
A9
350
4C
  3
B0
350
4D
  3
B1
350
4E
  3
B2
350
4F
  3
B3
350
50
  3
B4
350
51
  3
B5
350
52
  3
B6
350
53
  0
DICTIONARY
  5
68
102
{ACAD_REACTORS
330
C
102
}
330
C
100
AcDbDictionary
281
     1
  3
Imperial24
350
69
  0
DICTIONARY
  5
64
102
{ACAD_REACTORS
330
C
102
}
330
C
100
AcDbDictionary
281
     1
  3
Standard
350
65
  0
DICTIONARY
  5
29
102
{ACAD_REACTORS
330
C
102
}
330
C
100
AcDbDictionary
281
     1
  3
2dWireframe
350
2F
  3
Basic
350
2E
  3
Brighten
350
35
  3
ColorChange
350
39
  3
Conceptual
350
32
  3
Dim
350
34
  3
EdgeColorOff
350
41
  3
Facepattern
350
38
  3
Flat
350
2A
  3
FlatWithEdges
350
2B
  3
Gouraud
350
2C
  3
GouraudWithEdges
350
2D
  3
Hidden
350
31
  3
JitterOff
350
3F
  3
Linepattern
350
37
  3
OverhangOff
350
40
  3
Realistic
350
33
  3
Shaded
350
3E
  3
Shaded with edges
350
3D
  3
Shades of Gray
350
3A
  3
Sketchy
350
3B
  3
Thicken
350
36
  3
Wireframe
350
30
  3
X-Ray
350
3C
  0
XRECORD
  5
14D
102
{ACAD_REACTORS
330
C
102
}
330
C
100
AcDbXrecord
280
     1
 90
        1
330
65
  0
DICTIONARY
  5
145
102
{ACAD_REACTORS
330
C
102
}
330
C
100
AcDbDictionary
281
     1
  3
CANNOSCALE
350
14A
  3
CMLEADERSTYLE
350
147
  3
CTABLESTYLE
350
146
  3
CVIEWDETAILSTYLE
350
148
  3
CVIEWSECTIONSTYLE
350
149
  0
ACDBDETAILVIEWSTYLE
  5
6B
102
{ACAD_REACTORS
330
6A
102
}
330
6A
100
AcDbModelDocViewStyle
 70
     0
  3
Imperial24
290
     1
300
Imperial24
 90
        0
100
AcDbDetailViewStyle
 70
     0
 71
     0
 90
        3
 71
     1
340
55
 62
   256
 40
0.24
340
0
 62
   256
 40
0.24
300

 40
0.36
280
     3
 71
     2
340
5D
 90
       25
 62
   256
 71
     3
340
55
 62
   256
 40
0.24
 90
        1
 40
0.75
 90
        1
300
%<\AcVar ViewType \f "%tc1">% %<\AcVar ViewDetailId>%\PSCALE %<\AcVar ViewScale \f "%sn">%
 71
     4
340
5D
 90
       25
 62
   256
340
5D
 90
       25
 62
   256
280
     0
  0
LAYOUT
  5
6F
102
{ACAD_REACTORS
330
62
102
}
330
62
100
AcDbPlotSettings
  1

  2

  4

  6

 40
0.0
 41
0.0
 42
0.0
 43
0.0
 44
0.0
 45
0.0
 46
0.0
 47
0.0
 48
0.0
 49
0.0
140
0.0
141
0.0
142
1.0
143
1.0
 70
   688
 72
     0
 73
     0
 74
     5
  7

 75
    16
147
1.0
 76
     0
 77
     2
 78
   300
148
0.0
149
0.0
100
AcDbLayout
  1
Layout1
 70
     1
 71
     1
 10
0.0
 20
0.0
 11
12.0
 21
9.0
 12
0.0
 22
0.0
 32
0.0
 14
0.0
 24
0.0
 34
0.0
 15
0.0
 25
0.0
 35
0.0
146
0.0
 13
0.0
 23
0.0
 33
0.0
 16
1.0
 26
0.0
 36
0.0
 17
0.0
 27
1.0
 37
0.0
 76
     0
330
6C
  0
LAYOUT
  5
77
102
{ACAD_REACTORS
330
62
102
}
330
62
100
AcDbPlotSettings
  1

  2

  4

  6

 40
0.0
 41
0.0
 42
0.0
 43
0.0
 44
0.0
 45
0.0
 46
0.0
 47
0.0
 48
0.0
 49
0.0
140
0.0
141
0.0
142
1.0
143
1.0
 70
   688
 72
     0
 73
     0
 74
     5
  7

 75
    16
147
1.0
 76
     0
 77
     2
 78
   300
148
0.0
149
0.0
100
AcDbLayout
  1
Layout2
 70
     1
 71
     2
 10
0.0
 20
0.0
 11
12.0
 21
9.0
 12
0.0
 22
0.0
 32
0.0
 14
0.0
 24
0.0
 34
0.0
 15
0.0
 25
0.0
 35
0.0
146
0.0
 13
0.0
 23
0.0
 33
0.0
 16
1.0
 26
0.0
 36
0.0
 17
0.0
 27
1.0
 37
0.0
 76
     0
330
74
  0
LAYOUT
  5
73
102
{ACAD_REACTORS
330
62
102
}
330
62
100
AcDbPlotSettings
  1

  2

  4

  6

 40
0.0
 41
0.0
 42
0.0
 43
0.0
 44
0.0
 45
0.0
 46
0.0
 47
0.0
 48
0.0
 49
0.0
140
0.0
141
0.0
142
1.0
143
1.0
 70
  1712
 72
     0
 73
     0
 74
     0
  7

 75
     0
147
1.0
 76
     0
 77
     2
 78
   300
148
0.0
149
0.0
100
AcDbLayout
  1
Model
 70
     1
 71
     0
 10
0.0
 20
0.0
 11
12.0
 21
9.0
 12
0.0
 22
0.0
 32
0.0
 14
0.0
 24
0.0
 34
0.0
 15
0.0
 25
0.0
 35
0.0
146
0.0
 13
0.0
 23
0.0
 33
0.0
 16
1.0
 26
0.0
 36
0.0
 17
0.0
 27
1.0
 37
0.0
 76
     0
330
70
  0
MATERIAL
  5
19
102
{ACAD_XDICTIONARY
360
1A
102
}
102
{ACAD_REACTORS
330
10
102
}
330
10
100
AcDbMaterial
  1
ByBlock
 72
     0
 43
0.0208333333333333
 43
0.0
 43
0.0
 43
0.0
 43
0.0
 43
0.0208333333333333
 43
0.0
 43
0.0
 43
0.0
 43
0.0
 43
1.0
 43
0.0
 43
0.0
 43
0.0
 43
0.0
 43
1.0
 77
     0
 47
0.0208333333333333
 47
0.0
 47
0.0
 47
0.0
 47
0.0
 47
0.0208333333333333
 47
0.0
 47
0.0
 47
0.0
 47
0.0
 47
1.0
 47
0.0
 47
0.0
 47
0.0
 47
0.0
 47
1.0
171
     0
 49
0.0208333333333333
 49
0.0
 49
0.0
 49
0.0
 49
0.0
 49
0.0208333333333333
 49
0.0
 49
0.0
 49
0.0
 49
0.0
 49
1.0
 49
0.0
 49
0.0
 49
0.0
 49
0.0
 49
1.0
175
     0
142
0.0208333333333333
142
0.0
142
0.0
142
0.0
142
0.0
142
0.0208333333333333
142
0.0
142
0.0
142
0.0
142
0.0
142
1.0
142
0.0
142
0.0
142
0.0
142
0.0
142
1.0
179
     0
144
0.0208333333333333
144
0.0
144
0.0
144
0.0
144
0.0
144
0.0208333333333333
144
0.0
144
0.0
144
0.0
144
0.0
144
1.0
144
0.0
144
0.0
144
0.0
144
0.0
144
1.0
147
0.0208333333333333
147
0.0
147
0.0
147
0.0
147
0.0
147
0.0208333333333333
147
0.0
147
0.0
147
0.0
147
0.0
147
1.0
147
0.0
147
0.0
147
0.0
147
0.0
147
1.0
  0
MATERIAL
  5
11
102
{ACAD_XDICTIONARY
360
12
102
}
102
{ACAD_REACTORS
330
10
102
}
330
10
100
AcDbMaterial
  1
ByLayer
 72
     0
 43
0.0208333333333333
 43
0.0
 43
0.0
 43
0.0
 43
0.0
 43
0.0208333333333333
 43
0.0
 43
0.0
 43
0.0
 43
0.0
 43
1.0
 43
0.0
 43
0.0
 43
0.0
 43
0.0
 43
1.0
 77
     0
 47
0.0208333333333333
 47
0.0
 47
0.0
 47
0.0
 47
0.0
 47
0.0208333333333333
 47
0.0
 47
0.0
 47
0.0
 47
0.0
 47
1.0
 47
0.0
 47
0.0
 47
0.0
 47
0.0
 47
1.0
171
     0
 49
0.0208333333333333
 49
0.0
 49
0.0
 49
0.0
 49
0.0
 49
0.0208333333333333
 49
0.0
 49
0.0
 49
0.0
 49
0.0
 49
1.0
 49
0.0
 49
0.0
 49
0.0
 49
0.0
 49
1.0
175
     0
142
0.0208333333333333
142
0.0
142
0.0
142
0.0
142
0.0
142
0.0208333333333333
142
0.0
142
0.0
142
0.0
142
0.0
142
1.0
142
0.0
142
0.0
142
0.0
142
0.0
142
1.0
179
     0
144
0.0208333333333333
144
0.0
144
0.0
144
0.0
144
0.0
144
0.0208333333333333
144
0.0
144
0.0
144
0.0
144
0.0
144
1.0
144
0.0
144
0.0
144
0.0
144
0.0
144
1.0
147
0.0208333333333333
147
0.0
147
0.0
147
0.0
147
0.0
147
0.0208333333333333
147
0.0
147
0.0
147
0.0
147
0.0
147
1.0
147
0.0
147
0.0
147
0.0
147
0.0
147
1.0
  0
MATERIAL
  5
21
102
{ACAD_XDICTIONARY
360
22
102
}
102
{ACAD_REACTORS
330
10
102
}
330
10
100
AcDbMaterial
  1
Global
 72
     0
 43
0.0208333333333333
 43
0.0
 43
0.0
 43
0.0
 43
0.0
 43
0.0208333333333333
 43
0.0
 43
0.0
 43
0.0
 43
0.0
 43
1.0
 43
0.0
 43
0.0
 43
0.0
 43
0.0
 43
1.0
 77
     0
 47
0.0208333333333333
 47
0.0
 47
0.0
 47
0.0
 47
0.0
 47
0.0208333333333333
 47
0.0
 47
0.0
 47
0.0
 47
0.0
 47
1.0
 47
0.0
 47
0.0
 47
0.0
 47
0.0
 47
1.0
171
     0
 49
0.0208333333333333
 49
0.0
 49
0.0
 49
0.0
 49
0.0
 49
0.0208333333333333
 49
0.0
 49
0.0
 49
0.0
 49
0.0
 49
1.0
 49
0.0
 49
0.0
 49
0.0
 49
0.0
 49
1.0
175
     0
142
0.0208333333333333
142
0.0
142
0.0
142
0.0
142
0.0
142
0.0208333333333333
142
0.0
142
0.0
142
0.0
142
0.0
142
1.0
142
0.0
142
0.0
142
0.0
142
0.0
142
1.0
179
     0
144
0.0208333333333333
144
0.0
144
0.0
144
0.0
144
0.0
144
0.0208333333333333
144
0.0
144
0.0
144
0.0
144
0.0
144
1.0
144
0.0
144
0.0
144
0.0
144
0.0
144
1.0
147
0.0208333333333333
147
0.0
147
0.0
147
0.0
147
0.0
147
0.0208333333333333
147
0.0
147
0.0
147
0.0
147
0.0
147
1.0
147
0.0
147
0.0
147
0.0
147
0.0
147
1.0
  0
MLEADERSTYLE
  5
67
102
{ACAD_REACTORS
330
66
102
}
330
66
100
AcDbMLeaderStyle
179
     2
170
     2
171
     1
172
     0
 90
        2
 40
0.0
 41
0.0
173
     1
 91
-1056964608
340
5B
 92
       -2
290
     1
 42
0.09
291
     1
 43
0.36
  3
Standard
 44
0.18
300

342
55
174
     1
178
     6
175
     1
176
     0
 93
-1056964608
 45
0.18
292
     0
297
     0
 46
0.18
 94
-1056964608
 47
1.0
 49
1.0
140
1.0
293
     1
141
0.0
294
     1
177
     0
142
1.0
295
     1
296
     0
143
0.125
271
     0
272
     9
273
     9
298
     1
  0
MLINESTYLE
  5
60
102
{ACAD_REACTORS
330
5F
102
}
330
5F
100
AcDbMlineStyle
  2
STANDARD
 70
     0
  3

 62
   256
 51
90.0
 52
90.0
 71
     2
 49
0.5
 62
   256
  6
BYLAYER
 49
-0.5
 62
   256
  6
BYLAYER
  0
ACDBPLACEHOLDER
  5
F
102
{ACAD_REACTORS
330
E
102
}
330
E
  0
SCALE
  5
43
102
{ACAD_REACTORS
330
42
102
}
330
42
100
AcDbScale
 70
     0
300
1:1
140
1.0
141
1.0
290
     1
  0
SCALE
  5
44
102
{ACAD_REACTORS
330
42
102
}
330
42
100
AcDbScale
 70
     0
300
1/128" = 1'-0"
140
0.0078125
141
12.0
290
     0
  0
SCALE
  5
45
102
{ACAD_REACTORS
330
42
102
}
330
42
100
AcDbScale
 70
     0
300
1/64" = 1'-0"
140
0.015625
141
12.0
290
     0
  0
SCALE
  5
46
102
{ACAD_REACTORS
330
42
102
}
330
42
100
AcDbScale
 70
     0
300
1/32" = 1'-0"
140
0.03125
141
12.0
290
     0
  0
SCALE
  5
47
102
{ACAD_REACTORS
330
42
102
}
330
42
100
AcDbScale
 70
     0
300
1/16" = 1'-0"
140
0.0625
141
12.0
290
     0
  0
SCALE
  5
48
102
{ACAD_REACTORS
330
42
102
}
330
42
100
AcDbScale
 70
     0
300
3/32" = 1'-0"
140
0.09375
141
12.0
290
     0
  0
SCALE
  5
49
102
{ACAD_REACTORS
330
42
102
}
330
42
100
AcDbScale
 70
     0
300
1/8" = 1'-0"
140
0.125
141
12.0
290
     0
  0
SCALE
  5
4A
102
{ACAD_REACTORS
330
42
102
}
330
42
100
AcDbScale
 70
     0
300
3/16" = 1'-0"
140
0.1875
141
12.0
290
     0
  0
SCALE
  5
4B
102
{ACAD_REACTORS
330
42
102
}
330
42
100
AcDbScale
 70
     0
300
1/4" = 1'-0"
140
0.25
141
12.0
290
     0
  0
SCALE
  5
4C
102
{ACAD_REACTORS
330
42
102
}
330
42
100
AcDbScale
 70
     0
300
3/8" = 1'-0"
140
0.375
141
12.0
290
     0
  0
SCALE
  5
4D
102
{ACAD_REACTORS
330
42
102
}
330
42
100
AcDbScale
 70
     0
300
1/2" = 1'-0"
140
0.5
141
12.0
290
     0
  0
SCALE
  5
4E
102
{ACAD_REACTORS
330
42
102
}
330
42
100
AcDbScale
 70
     0
300
3/4" = 1'-0"
140
0.75
141
12.0
290
     0
  0
SCALE
  5
4F
102
{ACAD_REACTORS
330
42
102
}
330
42
100
AcDbScale
 70
     0
300
1" = 1'-0"
140
1.0
141
12.0
290
     0
  0
SCALE
  5
50
102
{ACAD_REACTORS
330
42
102
}
330
42
100
AcDbScale
 70
     0
300
1-1/2" = 1'-0"
140
1.5
141
12.0
290
     0
  0
SCALE
  5
51
102
{ACAD_REACTORS
330
42
102
}
330
42
100
AcDbScale
 70
     0
300
3" = 1'-0"
140
3.0
141
12.0
290
     0
  0
SCALE
  5
52
102
{ACAD_REACTORS
330
42
102
}
330
42
100
AcDbScale
 70
     0
300
6" = 1'-0"
140
6.0
141
12.0
290
     0
  0
SCALE
  5
53
102
{ACAD_REACTORS
330
42
102
}
330
42
100
AcDbScale
 70
     0
300
1'-0" = 1'-0"
140
12.0
141
12.0
290
     0
  0
ACDBSECTIONVIEWSTYLE
  5
69
102
{ACAD_REACTORS
330
68
102
}
330
68
100
AcDbModelDocViewStyle
 70
     0
  3
Imperial24
290
     1
300
Imperial24
 90
        0
100
AcDbSectionViewStyle
 70
     0
 71
     0
 90
       78
 71
     1
340
55
 62
   256
 40
0.24
340
0
340
0
 62
   256
 40
0.24
300
I, O, Q, S, X, Z
 40
0.48
 90
        3
 40
0.18
 90
        1
 71
     2
340
5D
 90
       25
 62
   256
340
5D
 90
       50
 62
   256
 40
0.24
 40
0.0
 40
0.24
 71
     3
340
55
 62
   256
 40
0.24
 90
        1
 40
0.75
 90
        1
300
%<\AcVar ViewType \f "%tc1">% %<\AcVar ViewSectionStartId>%-%<\AcVar ViewSectionEndId>%\PSCALE %<\AcVar ViewScale \f "%sn">%
 71
     4
 62
   256
 62
   257
300
ANSI31
 40
1.0
 90
        0
290
     0
290
     0
 90
        6
 40
0.0
 40
1.570796326794896
 40
0.2617993877991494
 40
1.308996938995747
 40
-0.2617993877991494
 40
1.832595714594046
  0
TABLESTYLE
  5
65
102
{ACAD_XDICTIONARY
360
14B
102
}
102
{ACAD_REACTORS
330
64
102
}
330
64
100
AcDbTableStyle
280
     0
  3
Standard
 70
     0
 71
     0
 40
0.06
 41
0.06
280
     0
281
     0
  7
Standard
140
0.18
170
     2
 62
     0
 63
     7
283
     0
 90
      512
 91
        0
  1

274
    -2
284
     1
 64
     0
275
    -2
285
     1
 65
     0
276
    -2
286
     1
 66
     0
277
    -2
287
     1
 67
     0
278
    -2
288
     1
 68
     0
279
    -2
289
     1
 69
     0
  7
Standard
140
0.25
170
     5
 62
     0
 63
     7
283
     0
 90
      512
 91
        0
  1

274
    -2
284
     1
 64
     0
275
    -2
285
     1
 65
     0
276
    -2
286
     1
 66
     0
277
    -2
287
     1
 67
     0
278
    -2
288
     1
 68
     0
279
    -2
289
     1
 69
     0
  7
Standard
140
0.18
170
     5
 62
     0
 63
     7
283
     0
 90
      512
 91
        0
  1

274
    -2
284
     1
 64
     0
275
    -2
285
     1
 65
     0
276
    -2
286
     1
 66
     0
277
    -2
287
     1
 67
     0
278
    -2
288
     1
 68
     0
279
    -2
289
     1
 69
     0
  0
VISUALSTYLE
  5
2F
102
{ACAD_REACTORS
330
29
102
}
330
29
100
AcDbVisualStyle
  2
2dWireframe
 70
     4
177
     3
291
     0
 70
    58
 90
        0
176
     1
 90
        2
176
     1
 90
        0
176
     1
 90
        0
176
     1
 40
0.6
176
     1
 40
30.0
176
     1
 62
     7
420
 16777215
176
     1
 90
        1
176
     1
 90
        4
176
     1
 62
     7
176
     1
 62
   257
176
     1
 90
        1
176
     1
 90
        1
176
     1
 40
1.0
176
     1
 90
        0
176
     1
 62
   257
176
     1
 40
1.0
176
     1
 90
        1
176
     1
 90
        6
176
     1
 90
        2
176
     1
 62
     7
176
     1
 90
        5
176
     1
 90
        0
176
     1
 90
        0
176
     1
290
     0
176
     1
 90
        1
176
     1
 40
0.0
176
     1
 90
        0
176
     1
290
     1
176
     1
290
     1
176
     1
290
     0
176
     1
290
     0
176
     1
290
     0
176
     1
290
     0
176
     1
290
     0
176
     1
290
     0
176
     1
290
     0
176
     1
 90
       50
176
     1
 40
0.0
176
     1
 40
1.0
176
     1
 90
        0
176
     1
 62
    18
420
        0
176
     1
 90
       50
176
     1
 90
        3
176
     1
 62
     5
420
      255
176
     1
290
     0
176
     1
 90
       50
176
     1
 90
       50
176
     1
 90
       50
176
     1
290
     0
176
     1
 90
       50
176
     1
 62
   256
176
     0
 40
1.0
176
     0
 90
        2
176
     1
  1
strokes_ogs.tif
176
     1
290
     0
176
     1
 40
1.0
176
     1
 40
1.0
176
     1
  0
VISUALSTYLE
  5
2E
102
{ACAD_REACTORS
330
29
102
}
330
29
100
AcDbVisualStyle
  2
Basic
 70
     7
177
     3
291
     1
 70
    58
 90
        1
176
     1
 90
        0
176
     1
 90
        1
176
     1
 90
        0
176
     1
 40
0.6
176
     1
 40
30.0
176
     1
 62
     7
420
 16777215
176
     1
 90
        0
176
     1
 90
        4
176
     1
 62
     7
176
     1
 62
   257
176
     1
 90
        1
176
     1
 90
        1
176
     1
 40
1.0
176
     1
 90
        8
176
     1
 62
     7
176
     1
 40
1.0
176
     1
 90
        1
176
     1
 90
        6
176
     1
 90
        2
176
     1
 62
     7
176
     1
 90
        5
176
     1
 90
        0
176
     1
 90
        0
176
     1
290
     0
176
     1
 90
        1
176
     1
 40
0.0
176
     1
 90
        0
176
     1
290
     0
176
     1
290
     1
176
     1
290
     1
176
     1
290
     0
176
     1
290
     0
176
     1
290
     0
176
     1
290
     0
176
     1
290
     0
176
     1
290
     0
176
     1
 90
       50
176
     1
 40
0.0
176
     1
 40
1.0
176
     1
 90
        0
176
     1
 62
    18
420
        0
176
     1
 90
       50
176
     1
 90
        3
176
     1
 62
     5
420
      255
176
     1
290
     0
176
     1
 90
       50
176
     1
 90
       50
176
     1
 90
       50
176
     1
290
     0
176
     1
 90
       50
176
     1
 62
   256
176
     0
 40
1.0
176
     0
 90
        2
176
     1
  1
strokes_ogs.tif
176
     1
290
     0
176
     1
 40
1.0
176
     1
 40
1.0
176
     1
  0
VISUALSTYLE
  5
35
102
{ACAD_REACTORS
330
29
102
}
330
29
100
AcDbVisualStyle
  2
Brighten
 70
    12
177
     3
291
     1
 70
    58
 90
        2
176
     1
 90
        2
176
     1
 90
        0
176
     1
 90
        0
176
     1
 40
0.6
176
     1
 40
30.0
176
     1
 62
     7
420
 16777215
176
     1
 90
        1
176
     1
 90
        4
176
     1
 62
     7
176
     1
 62
   257
176
     1
 90
        1
176
     1
 90
        1
176
     1
 40
1.0
176
     1
 90
        8
176
     1
 62
     7
176
     1
 40
1.0
176
     1
 90
        1
176
     1
 90
        6
176
     1
 90
        2
176
     1
 62
     7
176
     1
 90
        5
176
     1
 90
        0
176
     1
 90
        0
176
     1
290
     0
176
     1
 90
        1
176
     1
 40
50.0
176
     1
 90
        0
176
     1
290
     0
176
     1
290
     1
176
     1
290
     1
176
     1
290
     0
176
     1
290
     0
176
     1
290
     0
176
     1
290
     0
176
     1
290
     0
176
     1
290
     0
176
     1
 90
       50
176
     1
 40
0.0
176
     1
 40
1.0
176
     1
 90
        0
176
     1
 62
    18
420
        0
176
     1
 90
       50
176
     1
 90
        3
176
     1
 62
     5
420
      255
176
     1
290
     0
176
     1
 90
       50
176
     1
 90
       50
176
     1
 90
       50
176
     1
290
     0
176
     1
 90
       50
176
     1
 62
   256
176
     0
 40
1.0
176
     0
 90
        2
176
     1
  1
strokes_ogs.tif
176
     1
290
     0
176
     1
 40
1.0
176
     1
 40
1.0
176
     1
  0
VISUALSTYLE
  5
39
102
{ACAD_REACTORS
330
29
102
}
330
29
100
AcDbVisualStyle
  2
ColorChange
 70
    16
177
     3
291
     1
 70
    58
 90
        2
176
     1
 90
        2
176
     1
 90
        3
176
     1
 90
        0
176
     1
 40
0.6
176
     1
 40
30.0
176
     1
 62
     8
420
  8421504
176
     1
 90
        1
176
     1
 90
        4
176
     1
 62
     7
176
     1
 62
   257
176
     1
 90
        1
176
     1
 90
        1
176
     1
 40
1.0
176
     1
 90
        8
176
     1
 62
     8
420
  8421504
176
     1
 40
1.0
176
     1
 90
        1
176
     1
 90
        6
176
     1
 90
        2
176
     1
 62
     7
176
     1
 90
        5
176
     1
 90
        0
176
     1
 90
        0
176
     1
290
     0
176
     1
 90
        1
176
     1
 40
0.0
176
     1
 90
        0
176
     1
290
     0
176
     1
290
     1
176
     1
290
     1
176
     1
290
     0
176
     1
290
     0
176
     1
290
     0
176
     1
290
     0
176
     1
290
     0
176
     1
290
     0
176
     1
 90
       50
176
     1
 40
0.0
176
     1
 40
1.0
176
     1
 90
        0
176
     1
 62
    18
420
        0
176
     1
 90
       50
176
     1
 90
        3
176
     1
 62
     5
420
      255
176
     1
290
     0
176
     1
 90
       50
176
     1
 90
       50
176
     1
 90
       50
176
     1
290
     0
176
     1
 90
       50
176
     1
 62
   256
176
     0
 40
1.0
176
     0
 90
        2
176
     1
  1
strokes_ogs.tif
176
     1
290
     0
176
     1
 40
1.0
176
     1
 40
1.0
176
     1
  0
VISUALSTYLE
  5
32
102
{ACAD_REACTORS
330
29
102
}
330
29
100
AcDbVisualStyle
  2
Conceptual
 70
     9
177
     3
291
     0
 70
    58
 90
        3
176
     1
 90
        2
176
     1
 90
        0
176
     1
 90
        0
176
     1
 40
0.6
176
     1
 40
30.0
176
     1
 62
     7
420
 16777215
176
     1
 90
        2
176
     1
 90
        2
176
     1
 62
     7
176
     1
 62
   257
176
     1
 90
        1
176
     1
 90
        1
176
     1
 40
179.0
176
     1
 90
        8
176
     1
 62
     7
176
     1
 40
1.0
176
     1
 90
        1
176
     1
 90
        6
176
     1
 90
        2
176
     1
 62
     7
176
     1
 90
        3
176
     1
 90
        0
176
     1
 90
        0
176
     1
290
     0
176
     1
 90
        1
176
     1
 40
0.0
176
     1
 90
        0
176
     1
290
     0
176
     1
290
     1
176
     1
290
     1
176
     1
290
     0
176
     1
290
     0
176
     1
290
     0
176
     1
290
     0
176
     1
290
     0
176
     1
290
     0
176
     1
 90
       50
176
     1
 40
0.0
176
     1
 40
1.0
176
     1
 90
        0
176
     1
 62
    18
420
        0
176
     1
 90
       50
176
     1
 90
        3
176
     1
 62
     5
420
      255
176
     1
290
     0
176
     1
 90
       50
176
     1
 90
       50
176
     1
 90
       50
176
     1
290
     0
176
     1
 90
       50
176
     1
 62
   256
176
     0
 40
1.0
176
     0
 90
        2
176
     1
  1
strokes_ogs.tif
176
     1
290
     0
176
     1
 40
1.0
176
     1
 40
1.0
176
     1
  0
VISUALSTYLE
  5
34
102
{ACAD_REACTORS
330
29
102
}
330
29
100
AcDbVisualStyle
  2
Dim
 70
    11
177
     3
291
     1
 70
    58
 90
        2
176
     1
 90
        2
176
     1
 90
        0
176
     1
 90
        0
176
     1
 40
0.6
176
     1
 40
30.0
176
     1
 62
     7
420
 16777215
176
     1
 90
        1
176
     1
 90
        4
176
     1
 62
     7
176
     1
 62
   257
176
     1
 90
        1
176
     1
 90
        1
176
     1
 40
1.0
176
     1
 90
        8
176
     1
 62
     7
176
     1
 40
1.0
176
     1
 90
        1
176
     1
 90
        6
176
     1
 90
        2
176
     1
 62
     7
176
     1
 90
        5
176
     1
 90
        0
176
     1
 90
        0
176
     1
290
     0
176
     1
 90
        1
176
     1
 40
-50.0
176
     1
 90
        0
176
     1
290
     0
176
     1
290
     1
176
     1
290
     1
176
     1
290
     0
176
     1
290
     0
176
     1
290
     0
176
     1
290
     0
176
     1
290
     0
176
     1
290
     0
176
     1
 90
       50
176
     1
 40
0.0
176
     1
 40
1.0
176
     1
 90
        0
176
     1
 62
    18
420
        0
176
     1
 90
       50
176
     1
 90
        3
176
     1
 62
     5
420
      255
176
     1
290
     0
176
     1
 90
       50
176
     1
 90
       50
176
     1
 90
       50
176
     1
290
     0
176
     1
 90
       50
176
     1
 62
   256
176
     0
 40
1.0
176
     0
 90
        2
176
     1
  1
strokes_ogs.tif
176
     1
290
     0
176
     1
 40
1.0
176
     1
 40
1.0
176
     1
  0
VISUALSTYLE
  5
41
102
{ACAD_REACTORS
330
29
102
}
330
29
100
AcDbVisualStyle
  2
EdgeColorOff
 70
    22
177
     3
291
     1
 70
    58
 90
        2
176
     0
 90
        2
176
     0
 90
        0
176
     0
 90
        0
176
     0
 40
0.6
176
     0
 40
30.0
176
     0
 62
     7
420
 16777215
176
     0
 90
        1
176
     0
 90
        4
176
     0
 62
     7
176
     0
 62
   257
176
     0
 90
        1
176
     0
 90
        1
176
     0
 40
1.0
176
     0
 90
        8
176
     2
 62
     7
176
     0
 40
1.0
176
     0
 90
        1
176
     0
 90
        6
176
     0
 90
        2
176
     0
 62
     7
176
     0
 90
        5
176
     0
 90
        0
176
     0
 90
        0
176
     0
290
     0
176
     0
 90
        1
176
     0
 40
0.0
176
     0
 90
        0
176
     0
290
     0
176
     0
290
     1
176
     0
290
     1
176
     0
290
     0
176
     0
290
     0
176
     0
290
     0
176
     0
290
     0
176
     0
290
     0
176
     0
290
     0
176
     0
 90
       50
176
     0
 40
0.0
176
     0
 40
1.0
176
     0
 90
        0
176
     0
 62
    18
420
        0
176
     0
 90
       50
176
     0
 90
        3
176
     0
 62
     5
420
      255
176
     0
290
     0
176
     0
 90
       50
176
     0
 90
       50
176
     0
 90
       50
176
     0
290
     0
176
     0
 90
       50
176
     0
 62
   256
176
     0
 40
1.0
176
     0
 90
        2
176
     0
  1
strokes_ogs.tif
176
     0
290
     0
176
     0
 40
1.0
176
     0
 40
1.0
176
     0
  0
VISUALSTYLE
  5
38
102
{ACAD_REACTORS
330
29
102
}
330
29
100
AcDbVisualStyle
  2
Facepattern
 70
    15
177
     3
291
     1
 70
    58
 90
        2
176
     1
 90
        2
176
     1
 90
        0
176
     1
 90
        0
176
     1
 40
0.6
176
     1
 40
30.0
176
     1
 62
     7
420
 16777215
176
     1
 90
        1
176
     1
 90
        4
176
     1
 62
     7
176
     1
 62
   257
176
     1
 90
        1
176
     1
 90
        1
176
     1
 40
1.0
176
     1
 90
        8
176
     1
 62
     7
176
     1
 40
1.0
176
     1
 90
        1
176
     1
 90
        6
176
     1
 90
        2
176
     1
 62
     7
176
     1
 90
        5
176
     1
 90
        0
176
     1
 90
        0
176
     1
290
     0
176
     1
 90
        1
176
     1
 40
0.0
176
     1
 90
        0
176
     1
290
     0
176
     1
290
     1
176
     1
290
     1
176
     1
290
     0
176
     1
290
     0
176
     1
290
     0
176
     1
290
     0
176
     1
290
     0
176
     1
290
     0
176
     1
 90
       50
176
     1
 40
0.0
176
     1
 40
1.0
176
     1
 90
        0
176
     1
 62
    18
420
        0
176
     1
 90
       50
176
     1
 90
        3
176
     1
 62
     5
420
      255
176
     1
290
     0
176
     1
 90
       50
176
     1
 90
       50
176
     1
 90
       50
176
     1
290
     0
176
     1
 90
       50
176
     1
 62
   256
176
     0
 40
1.0
176
     0
 90
        2
176
     1
  1
strokes_ogs.tif
176
     1
290
     0
176
     1
 40
1.0
176
     1
 40
1.0
176
     1
  0
VISUALSTYLE
  5
2A
102
{ACAD_REACTORS
330
29
102
}
330
29
100
AcDbVisualStyle
  2
Flat
 70
     0
177
     3
291
     1
 70
    58
 90
        2
176
     1
 90
        1
176
     1
 90
        1
176
     1
 90
        2
176
     1
 40
0.6
176
     1
 40
30.0
176
     1
 62
     7
420
 16777215
176
     1
 90
        0
176
     1
 90
        0
176
     1
 62
     7
176
     1
 62
   257
176
     1
 90
        1
176
     1
 90
        1
176
     1
 40
1.0
176
     1
 90
        8
176
     1
 62
     7
176
     1
 40
1.0
176
     1
 90
        1
176
     1
 90
        6
176
     1
 90
        2
176
     1
 62
     7
176
     1
 90
        5
176
     1
 90
        0
176
     1
 90
        0
176
     1
290
     0
176
     1
 90
       13
176
     1
 40
0.0
176
     1
 90
        0
176
     1
290
     0
176
     1
290
     1
176
     1
290
     1
176
     1
290
     0
176
     1
290
     0
176
     1
290
     0
176
     1
290
     0
176
     1
290
     0
176
     1
290
     0
176
     1
 90
       50
176
     1
 40
0.0
176
     1
 40
1.0
176
     1
 90
        0
176
     1
 62
    18
420
        0
176
     1
 90
       50
176
     1
 90
        3
176
     1
 62
     5
420
      255
176
     1
290
     0
176
     1
 90
       50
176
     1
 90
       50
176
     1
 90
       50
176
     1
290
     0
176
     1
 90
       50
176
     1
 62
   256
176
     0
 40
1.0
176
     0
 90
        2
176
     1
  1
strokes_ogs.tif
176
     1
290
     0
176
     1
 40
1.0
176
     1
 40
1.0
176
     1
  0
VISUALSTYLE
  5
2B
102
{ACAD_REACTORS
330
29
102
}
330
29
100
AcDbVisualStyle
  2
FlatWithEdges
 70
     1
177
     3
291
     1
 70
    58
 90
        2
176
     1
 90
        1
176
     1
 90
        1
176
     1
 90
        2
176
     1
 40
0.6
176
     1
 40
30.0
176
     1
 62
     7
420
 16777215
176
     1
 90
        1
176
     1
 90
        0
176
     1
 62
     7
176
     1
 62
   257
176
     1
 90
        1
176
     1
 90
        1
176
     1
 40
1.0
176
     1
 90
        0
176
     1
 62
   257
176
     1
 40
1.0
176
     1
 90
        1
176
     1
 90
        6
176
     1
 90
        2
176
     1
 62
     7
176
     1
 90
        5
176
     1
 90
        0
176
     1
 90
        0
176
     1
290
     0
176
     1
 90
       13
176
     1
 40
0.0
176
     1
 90
        0
176
     1
290
     0
176
     1
290
     1
176
     1
290
     1
176
     1
290
     0
176
     1
290
     0
176
     1
290
     0
176
     1
290
     0
176
     1
290
     0
176
     1
290
     0
176
     1
 90
       50
176
     1
 40
0.0
176
     1
 40
1.0
176
     1
 90
        0
176
     1
 62
    18
420
        0
176
     1
 90
       50
176
     1
 90
        3
176
     1
 62
     5
420
      255
176
     1
290
     0
176
     1
 90
       50
176
     1
 90
       50
176
     1
 90
       50
176
     1
290
     0
176
     1
 90
       50
176
     1
 62
   256
176
     0
 40
1.0
176
     0
 90
        2
176
     1
  1
strokes_ogs.tif
176
     1
290
     0
176
     1
 40
1.0
176
     1
 40
1.0
176
     1
  0
VISUALSTYLE
  5
2C
102
{ACAD_REACTORS
330
29
102
}
330
29
100
AcDbVisualStyle
  2
Gouraud
 70
     2
177
     3
291
     1
 70
    58
 90
        2
176
     1
 90
        2
176
     1
 90
        1
176
     1
 90
        2
176
     1
 40
0.6
176
     1
 40
30.0
176
     1
 62
     7
420
 16777215
176
     1
 90
        0
176
     1
 90
        0
176
     1
 62
     7
176
     1
 62
   257
176
     1
 90
        1
176
     1
 90
        1
176
     1
 40
1.0
176
     1
 90
        0
176
     1
 62
     7
176
     1
 40
1.0
176
     1
 90
        1
176
     1
 90
        6
176
     1
 90
        2
176
     1
 62
     7
176
     1
 90
        5
176
     1
 90
        0
176
     1
 90
        0
176
     1
290
     0
176
     1
 90
       13
176
     1
 40
0.0
176
     1
 90
        0
176
     1
290
     0
176
     1
290
     1
176
     1
290
     1
176
     1
290
     0
176
     1
290
     0
176
     1
290
     0
176
     1
290
     0
176
     1
290
     0
176
     1
290
     0
176
     1
 90
       50
176
     1
 40
0.0
176
     1
 40
1.0
176
     1
 90
        0
176
     1
 62
    18
420
        0
176
     1
 90
       50
176
     1
 90
        3
176
     1
 62
     5
420
      255
176
     1
290
     0
176
     1
 90
       50
176
     1
 90
       50
176
     1
 90
       50
176
     1
290
     0
176
     1
 90
       50
176
     1
 62
   256
176
     0
 40
1.0
176
     0
 90
        2
176
     1
  1
strokes_ogs.tif
176
     1
290
     0
176
     1
 40
1.0
176
     1
 40
1.0
176
     1
  0
VISUALSTYLE
  5
2D
102
{ACAD_REACTORS
330
29
102
}
330
29
100
AcDbVisualStyle
  2
GouraudWithEdges
 70
     3
177
     3
291
     1
 70
    58
 90
        2
176
     1
 90
        2
176
     1
 90
        1
176
     1
 90
        2
176
     1
 40
0.6
176
     1
 40
30.0
176
     1
 62
     7
420
 16777215
176
     1
 90
        1
176
     1
 90
        0
176
     1
 62
     7
176
     1
 62
   257
176
     1
 90
        1
176
     1
 90
        1
176
     1
 40
1.0
176
     1
 90
        0
176
     1
 62
   257
176
     1
 40
1.0
176
     1
 90
        1
176
     1
 90
        6
176
     1
 90
        2
176
     1
 62
     7
176
     1
 90
        5
176
     1
 90
        0
176
     1
 90
        0
176
     1
290
     0
176
     1
 90
       13
176
     1
 40
0.0
176
     1
 90
        0
176
     1
290
     0
176
     1
290
     1
176
     1
290
     1
176
     1
290
     0
176
     1
290
     0
176
     1
290
     0
176
     1
290
     0
176
     1
290
     0
176
     1
290
     0
176
     1
 90
       50
176
     1
 40
0.0
176
     1
 40
1.0
176
     1
 90
        0
176
     1
 62
    18
420
        0
176
     1
 90
       50
176
     1
 90
        3
176
     1
 62
     5
420
      255
176
     1
290
     0
176
     1
 90
       50
176
     1
 90
       50
176
     1
 90
       50
176
     1
290
     0
176
     1
 90
       50
176
     1
 62
   256
176
     0
 40
1.0
176
     0
 90
        2
176
     1
  1
strokes_ogs.tif
176
     1
290
     0
176
     1
 40
1.0
176
     1
 40
1.0
176
     1
  0
VISUALSTYLE
  5
31
102
{ACAD_REACTORS
330
29
102
}
330
29
100
AcDbVisualStyle
  2
Hidden
 70
     6
177
     3
291
     0
 70
    58
 90
        1
176
     1
 90
        2
176
     1
 90
        2
176
     1
 90
        0
176
     1
 40
0.6
176
     1
 40
30.0
176
     1
 62
     7
420
 16777215
176
     1
 90
        2
176
     1
 90
        2
176
     1
 62
     7
176
     1
 62
   257
176
     1
 90
        2
176
     1
 90
        1
176
     1
 40
40.0
176
     1
 90
        0
176
     1
 62
   257
176
     1
 40
1.0
176
     1
 90
        1
176
     1
 90
        6
176
     1
 90
        2
176
     1
 62
     7
176
     1
 90
        3
176
     1
 90
        0
176
     1
 90
        0
176
     1
290
     0
176
     1
 90
        1
176
     1
 40
0.0
176
     1
 90
        0
176
     1
290
     0
176
     1
290
     1
176
     1
290
     1
176
     1
290
     0
176
     1
290
     0
176
     1
290
     0
176
     1
290
     0
176
     1
290
     0
176
     1
290
     0
176
     1
 90
       50
176
     1
 40
0.0
176
     1
 40
1.0
176
     1
 90
        0
176
     1
 62
    18
420
        0
176
     1
 90
       50
176
     1
 90
        3
176
     1
 62
     5
420
      255
176
     1
290
     0
176
     1
 90
       50
176
     1
 90
       50
176
     1
 90
       50
176
     1
290
     0
176
     1
 90
       50
176
     1
 62
   256
176
     0
 40
1.0
176
     0
 90
        2
176
     1
  1
strokes_ogs.tif
176
     1
290
     0
176
     1
 40
1.0
176
     1
 40
1.0
176
     1
  0
VISUALSTYLE
  5
3F
102
{ACAD_REACTORS
330
29
102
}
330
29
100
AcDbVisualStyle
  2
JitterOff
 70
    20
177
     3
291
     1
 70
    58
 90
        2
176
     0
 90
        2
176
     0
 90
        0
176
     0
 90
        0
176
     0
 40
0.6
176
     0
 40
30.0
176
     0
 62
     7
420
 16777215
176
     0
 90
        1
176
     0
 90
        4
176
     0
 62
     7
176
     0
 62
   257
176
     0
 90
        1
176
     0
 90
        1
176
     0
 40
1.0
176
     0
 90
       10
176
     2
 62
     7
176
     0
 40
1.0
176
     0
 90
        1
176
     0
 90
        6
176
     0
 90
        2
176
     0
 62
     7
176
     0
 90
        5
176
     0
 90
        0
176
     0
 90
        0
176
     0
290
     0
176
     0
 90
        1
176
     0
 40
0.0
176
     0
 90
        0
176
     0
290
     0
176
     0
290
     1
176
     0
290
     1
176
     0
290
     0
176
     0
290
     0
176
     0
290
     0
176
     0
290
     0
176
     0
290
     0
176
     0
290
     0
176
     0
 90
       50
176
     0
 40
0.0
176
     0
 40
1.0
176
     0
 90
        0
176
     0
 62
    18
420
        0
176
     0
 90
       50
176
     0
 90
        3
176
     0
 62
     5
420
      255
176
     0
290
     0
176
     0
 90
       50
176
     0
 90
       50
176
     0
 90
       50
176
     0
290
     0
176
     0
 90
       50
176
     0
 62
   256
176
     0
 40
1.0
176
     0
 90
        2
176
     0
  1
strokes_ogs.tif
176
     0
290
     0
176
     0
 40
1.0
176
     0
 40
1.0
176
     0
  0
VISUALSTYLE
  5
37
102
{ACAD_REACTORS
330
29
102
}
330
29
100
AcDbVisualStyle
  2
Linepattern
 70
    14
177
     3
291
     1
 70
    58
 90
        2
176
     1
 90
        2
176
     1
 90
        0
176
     1
 90
        0
176
     1
 40
0.6
176
     1
 40
30.0
176
     1
 62
     7
420
 16777215
176
     1
 90
        1
176
     1
 90
        4
176
     1
 62
     7
176
     1
 62
   257
176
     1
 90
        7
176
     1
 90
        7
176
     1
 40
1.0
176
     1
 90
        8
176
     1
 62
     7
176
     1
 40
1.0
176
     1
 90
        1
176
     1
 90
        6
176
     1
 90
        2
176
     1
 62
     7
176
     1
 90
        5
176
     1
 90
        0
176
     1
 90
        0
176
     1
290
     0
176
     1
 90
        1
176
     1
 40
0.0
176
     1
 90
        0
176
     1
290
     0
176
     1
290
     1
176
     1
290
     1
176
     1
290
     0
176
     1
290
     0
176
     1
290
     0
176
     1
290
     0
176
     1
290
     0
176
     1
290
     0
176
     1
 90
       50
176
     1
 40
0.0
176
     1
 40
1.0
176
     1
 90
        0
176
     1
 62
    18
420
        0
176
     1
 90
       50
176
     1
 90
        3
176
     1
 62
     5
420
      255
176
     1
290
     0
176
     1
 90
       50
176
     1
 90
       50
176
     1
 90
       50
176
     1
290
     0
176
     1
 90
       50
176
     1
 62
   256
176
     0
 40
1.0
176
     0
 90
        2
176
     1
  1
strokes_ogs.tif
176
     1
290
     0
176
     1
 40
1.0
176
     1
 40
1.0
176
     1
  0
VISUALSTYLE
  5
40
102
{ACAD_REACTORS
330
29
102
}
330
29
100
AcDbVisualStyle
  2
OverhangOff
 70
    21
177
     3
291
     1
 70
    58
 90
        2
176
     0
 90
        2
176
     0
 90
        0
176
     0
 90
        0
176
     0
 40
0.6
176
     0
 40
30.0
176
     0
 62
     7
420
 16777215
176
     0
 90
        1
176
     0
 90
        4
176
     0
 62
     7
176
     0
 62
   257
176
     0
 90
        1
176
     0
 90
        1
176
     0
 40
1.0
176
     0
 90
        9
176
     2
 62
     7
176
     0
 40
1.0
176
     0
 90
        1
176
     0
 90
        6
176
     0
 90
        2
176
     0
 62
     7
176
     0
 90
        5
176
     0
 90
        0
176
     0
 90
        0
176
     0
290
     0
176
     0
 90
        1
176
     0
 40
0.0
176
     0
 90
        0
176
     0
290
     0
176
     0
290
     1
176
     0
290
     1
176
     0
290
     0
176
     0
290
     0
176
     0
290
     0
176
     0
290
     0
176
     0
290
     0
176
     0
290
     0
176
     0
 90
       50
176
     0
 40
0.0
176
     0
 40
1.0
176
     0
 90
        0
176
     0
 62
    18
420
        0
176
     0
 90
       50
176
     0
 90
        3
176
     0
 62
     5
420
      255
176
     0
290
     0
176
     0
 90
       50
176
     0
 90
       50
176
     0
 90
       50
176
     0
290
     0
176
     0
 90
       50
176
     0
 62
   256
176
     0
 40
1.0
176
     0
 90
        2
176
     0
  1
strokes_ogs.tif
176
     0
290
     0
176
     0
 40
1.0
176
     0
 40
1.0
176
     0
  0
VISUALSTYLE
  5
33
102
{ACAD_REACTORS
330
29
102
}
330
29
100
AcDbVisualStyle
  2
Realistic
 70
     8
177
     3
291
     0
 70
    58
 90
        2
176
     1
 90
        3
176
     1
 90
        0
176
     1
 90
        2
176
     1
 40
0.6
176
     1
 40
30.0
176
     1
 62
     7
420
 16777215
176
     1
 90
        0
176
     1
 90
        0
176
     1
 62
     7
176
     1
 62
   257
176
     1
 90
        1
176
     1
 90
        1
176
     1
 40
1.0
176
     1
 90
        8
176
     1
 62
   257
176
     1
 40
1.0
176
     1
 90
        1
176
     1
 90
        6
176
     1
 90
        2
176
     1
 62
     7
176
     1
 90
        3
176
     1
 90
        0
176
     1
 90
        0
176
     1
290
     0
176
     1
 90
       13
176
     1
 40
0.0
176
     1
 90
        0
176
     1
290
     0
176
     1
290
     1
176
     1
290
     1
176
     1
290
     0
176
     1
290
     0
176
     1
290
     0
176
     1
290
     0
176
     1
290
     0
176
     1
290
     0
176
     1
 90
       50
176
     1
 40
0.0
176
     1
 40
1.0
176
     1
 90
        0
176
     1
 62
    18
420
        0
176
     1
 90
       50
176
     1
 90
        3
176
     1
 62
     5
420
      255
176
     1
290
     0
176
     1
 90
       50
176
     1
 90
       50
176
     1
 90
       50
176
     1
290
     0
176
     1
 90
       50
176
     1
 62
   256
176
     0
 40
1.0
176
     0
 90
        2
176
     1
  1
strokes_ogs.tif
176
     1
290
     0
176
     1
 40
1.0
176
     1
 40
1.0
176
     1
  0
VISUALSTYLE
  5
3E
102
{ACAD_REACTORS
330
29
102
}
330
29
100
AcDbVisualStyle
  2
Shaded
 70
    27
177
     3
291
     0
 70
    58
 90
        2
176
     1
 90
        2
176
     1
 90
        1
176
     1
 90
        2
176
     1
 40
0.6
176
     1
 40
30.0
176
     1
 62
     7
420
 16777215
176
     1
 90
        0
176
     1
 90
        4
176
     1
 62
     7
176
     1
 62
   257
176
     1
 90
        1
176
     1
 90
        1
176
     1
 40
1.0
176
     1
 90
        8
176
     1
 62
   257
176
     1
 40
1.0
176
     1
 90
        1
176
     1
 90
        6
176
     1
 90
        2
176
     1
 62
     8
420
  7895160
176
     1
 90
        3
176
     1
 90
        0
176
     1
 90
        0
176
     1
290
     0
176
     1
 90
        5
176
     1
 40
0.0
176
     1
 90
        0
176
     1
290
     0
176
     1
290
     1
176
     1
290
     1
176
     1
290
     0
176
     1
290
     0
176
     1
290
     0
176
     1
290
     0
176
     1
290
     0
176
     1
290
     0
176
     1
 90
       50
176
     1
 40
0.0
176
     1
 40
1.0
176
     1
 90
        0
176
     1
 62
    18
420
        0
176
     1
 90
       50
176
     1
 90
        3
176
     1
 62
     5
420
      255
176
     1
290
     0
176
     1
 90
       50
176
     1
 90
       50
176
     1
 90
       50
176
     1
290
     0
176
     1
 90
       50
176
     1
 62
   256
176
     0
 40
1.0
176
     0
 90
        2
176
     1
  1
strokes_ogs.tif
176
     1
290
     0
176
     1
 40
1.0
176
     1
 40
1.0
176
     1
  0
VISUALSTYLE
  5
3D
102
{ACAD_REACTORS
330
29
102
}
330
29
100
AcDbVisualStyle
  2
Shaded with edges
 70
    26
177
     3
291
     0
 70
    58
 90
        2
176
     1
 90
        2
176
     1
 90
        1
176
     1
 90
        2
176
     1
 40
0.6
176
     1
 40
30.0
176
     1
 62
     7
420
 16777215
176
     1
 90
        1
176
     1
 90
        2
176
     1
 62
     7
176
     1
 62
   257
176
     1
 90
        2
176
     1
 90
        1
176
     1
 40
1.0
176
     1
 90
        8
176
     1
 62
   257
176
     1
 40
1.0
176
     1
 90
        1
176
     1
 90
        6
176
     1
 90
        2
176
     1
 62
     7
176
     1
 90
        3
176
     1
 90
        0
176
     1
 90
        0
176
     1
290
     0
176
     1
 90
        5
176
     1
 40
0.0
176
     1
 90
        0
176
     1
290
     0
176
     1
290
     1
176
     1
290
     1
176
     1
290
     0
176
     1
290
     0
176
     1
290
     0
176
     1
290
     0
176
     1
290
     0
176
     1
290
     0
176
     1
 90
       50
176
     1
 40
0.0
176
     1
 40
1.0
176
     1
 90
        0
176
     1
 62
    18
420
        0
176
     1
 90
       50
176
     1
 90
        3
176
     1
 62
     5
420
      255
176
     1
290
     0
176
     1
 90
       50
176
     1
 90
       50
176
     1
 90
       50
176
     1
290
     0
176
     1
 90
       50
176
     1
 62
   256
176
     0
 40
1.0
176
     0
 90
        2
176
     1
  1
strokes_ogs.tif
176
     1
290
     0
176
     1
 40
1.0
176
     1
 40
1.0
176
     1
  0
VISUALSTYLE
  5
3A
102
{ACAD_REACTORS
330
29
102
}
330
29
100
AcDbVisualStyle
  2
Shades of Gray
 70
    23
177
     3
291
     0
 70
    58
 90
        2
176
     1
 90
        2
176
     1
 90
        3
176
     1
 90
        0
176
     1
 40
0.6
176
     1
 40
30.0
176
     1
 62
     7
420
 16777215
176
     1
 90
        2
176
     1
 90
        2
176
     1
 62
     7
176
     1
 62
     7
176
     1
 90
        1
176
     1
 90
        1
176
     1
 40
40.0
176
     1
 90
        8
176
     1
 62
     7
176
     1
 40
1.0
176
     1
 90
        1
176
     1
 90
        6
176
     1
 90
        2
176
     1
 62
     7
176
     1
 90
        3
176
     1
 90
        0
176
     1
 90
        0
176
     1
290
     0
176
     1
 90
        1
176
     1
 40
0.0
176
     1
 90
        0
176
     1
290
     0
176
     1
290
     1
176
     1
290
     1
176
     1
290
     0
176
     1
290
     0
176
     1
290
     0
176
     1
290
     0
176
     1
290
     0
176
     1
290
     0
176
     1
 90
       50
176
     1
 40
0.0
176
     1
 40
1.0
176
     1
 90
        0
176
     1
 62
    18
420
        0
176
     1
 90
       50
176
     1
 90
        3
176
     1
 62
     5
420
      255
176
     1
290
     0
176
     1
 90
       50
176
     1
 90
       50
176
     1
 90
       50
176
     1
290
     0
176
     1
 90
       50
176
     1
 62
   256
176
     0
 40
1.0
176
     0
 90
        2
176
     1
  1
strokes_ogs.tif
176
     1
290
     0
176
     1
 40
1.0
176
     1
 40
1.0
176
     1
  0
VISUALSTYLE
  5
3B
102
{ACAD_REACTORS
330
29
102
}
330
29
100
AcDbVisualStyle
  2
Sketchy
 70
    24
177
     3
291
     0
 70
    58
 90
        1
176
     1
 90
        2
176
     1
 90
        2
176
     1
 90
        0
176
     1
 40
0.6
176
     1
 40
30.0
176
     1
 62
     7
420
 16777215
176
     1
 90
        2
176
     1
 90
        2
176
     1
 62
     7
176
     1
 62
     7
176
     1
 90
        1
176
     1
 90
        1
176
     1
 40
40.0
176
     1
 90
       11
176
     1
 62
     7
176
     1
 40
1.0
176
     1
 90
        1
176
     1
 90
        6
176
     1
 90
        2
176
     1
 62
     7
176
     1
 90
        6
176
     1
 90
        0
176
     1
 90
        0
176
     1
290
     0
176
     1
 90
        1
176
     1
 40
0.0
176
     1
 90
        0
176
     1
290
     0
176
     1
290
     1
176
     1
290
     1
176
     1
290
     0
176
     1
290
     0
176
     1
290
     0
176
     1
290
     0
176
     1
290
     0
176
     1
290
     0
176
     1
 90
       50
176
     1
 40
0.0
176
     1
 40
1.0
176
     1
 90
        0
176
     1
 62
    18
420
        0
176
     1
 90
       50
176
     1
 90
        3
176
     1
 62
     5
420
      255
176
     1
290
     0
176
     1
 90
       50
176
     1
 90
       50
176
     1
 90
       50
176
     1
290
     0
176
     1
 90
       50
176
     1
 62
   256
176
     0
 40
1.0
176
     0
 90
        2
176
     1
  1
strokes_ogs.tif
176
     1
290
     0
176
     1
 40
1.0
176
     1
 40
1.0
176
     1
  0
VISUALSTYLE
  5
36
102
{ACAD_REACTORS
330
29
102
}
330
29
100
AcDbVisualStyle
  2
Thicken
 70
    13
177
     3
291
     1
 70
    58
 90
        2
176
     1
 90
        2
176
     1
 90
        0
176
     1
 90
        0
176
     1
 40
0.6
176
     1
 40
30.0
176
     1
 62
     7
420
 16777215
176
     1
 90
        1
176
     1
 90
        4
176
     1
 62
     7
176
     1
 62
   257
176
     1
 90
        1
176
     1
 90
        1
176
     1
 40
1.0
176
     1
 90
       12
176
     1
 62
     7
176
     1
 40
1.0
176
     1
 90
        1
176
     1
 90
        6
176
     1
 90
        2
176
     1
 62
     7
176
     1
 90
        5
176
     1
 90
        0
176
     1
 90
        0
176
     1
290
     0
176
     1
 90
        1
176
     1
 40
0.0
176
     1
 90
        0
176
     1
290
     0
176
     1
290
     1
176
     1
290
     1
176
     1
290
     0
176
     1
290
     0
176
     1
290
     0
176
     1
290
     0
176
     1
290
     0
176
     1
290
     0
176
     1
 90
       50
176
     1
 40
0.0
176
     1
 40
1.0
176
     1
 90
        0
176
     1
 62
    18
420
        0
176
     1
 90
       50
176
     1
 90
        3
176
     1
 62
     5
420
      255
176
     1
290
     0
176
     1
 90
       50
176
     1
 90
       50
176
     1
 90
       50
176
     1
290
     0
176
     1
 90
       50
176
     1
 62
   256
176
     0
 40
1.0
176
     0
 90
        2
176
     1
  1
strokes_ogs.tif
176
     1
290
     0
176
     1
 40
1.0
176
     1
 40
1.0
176
     1
  0
VISUALSTYLE
  5
30
102
{ACAD_REACTORS
330
29
102
}
330
29
100
AcDbVisualStyle
  2
Wireframe
 70
     5
177
     3
291
     0
 70
    58
 90
        0
176
     1
 90
        2
176
     1
 90
        0
176
     1
 90
        0
176
     1
 40
0.6
176
     1
 40
30.0
176
     1
 62
     7
420
 16777215
176
     1
 90
        1
176
     1
 90
        4
176
     1
 62
     7
176
     1
 62
   257
176
     1
 90
        1
176
     1
 90
        1
176
     1
 40
1.0
176
     1
 90
        0
176
     1
 62
   257
176
     1
 40
1.0
176
     1
 90
        1
176
     1
 90
        6
176
     1
 90
        2
176
     1
 62
     7
176
     1
 90
        3
176
     1
 90
        0
176
     1
 90
        0
176
     1
290
     0
176
     1
 90
        1
176
     1
 40
0.0
176
     1
 90
        0
176
     1
290
     0
176
     1
290
     1
176
     1
290
     1
176
     1
290
     0
176
     1
290
     0
176
     1
290
     0
176
     1
290
     0
176
     1
290
     0
176
     1
290
     0
176
     1
 90
       50
176
     1
 40
0.0
176
     1
 40
1.0
176
     1
 90
        0
176
     1
 62
    18
420
        0
176
     1
 90
       50
176
     1
 90
        3
176
     1
 62
     5
420
      255
176
     1
290
     0
176
     1
 90
       50
176
     1
 90
       50
176
     1
 90
       50
176
     1
290
     0
176
     1
 90
       50
176
     1
 62
   256
176
     0
 40
1.0
176
     0
 90
        2
176
     1
  1
strokes_ogs.tif
176
     1
290
     0
176
     1
 40
1.0
176
     1
 40
1.0
176
     1
  0
VISUALSTYLE
  5
3C
102
{ACAD_REACTORS
330
29
102
}
330
29
100
AcDbVisualStyle
  2
X-Ray
 70
    25
177
     3
291
     0
 70
    58
 90
        2
176
     1
 90
        2
176
     1
 90
        1
176
     1
 90
        1
176
     1
 40
0.5
176
     1
 40
30.0
176
     1
 62
     7
420
 16777215
176
     1
 90
        1
176
     1
 90
        0
176
     1
 62
     7
176
     1
 62
   257
176
     1
 90
        1
176
     1
 90
        1
176
     1
 40
1.0
176
     1
 90
        8
176
     1
 62
     7
176
     1
 40
1.0
176
     1
 90
        1
176
     1
 90
        6
176
     1
 90
        2
176
     1
 62
     7
176
     1
 90
        3
176
     1
 90
        0
176
     1
 90
        0
176
     1
290
     0
176
     1
 90
       13
176
     1
 40
0.0
176
     1
 90
        0
176
     1
290
     0
176
     1
290
     1
176
     1
290
     1
176
     1
290
     0
176
     1
290
     0
176
     1
290
     0
176
     1
290
     0
176
     1
290
     0
176
     1
290
     0
176
     1
 90
       50
176
     1
 40
0.0
176
     1
 40
1.0
176
     1
 90
        0
176
     1
 62
    18
420
        0
176
     1
 90
       50
176
     1
 90
        3
176
     1
 62
     5
420
      255
176
     1
290
     0
176
     1
 90
       50
176
     1
 90
       50
176
     1
 90
       50
176
     1
290
     0
176
     1
 90
       50
176
     1
 62
   256
176
     0
 40
1.0
176
     0
 90
        2
176
     1
  1
strokes_ogs.tif
176
     1
290
     0
176
     1
 40
1.0
176
     1
 40
1.0
176
     1
  0
DICTIONARYVAR
  5
14A
102
{ACAD_REACTORS
330
145
102
}
330
145
100
DictionaryVariables
280
     0
  1
1:1
  0
DICTIONARYVAR
  5
147
102
{ACAD_REACTORS
330
145
102
}
330
145
100
DictionaryVariables
280
     0
  1
STANDARD
  0
DICTIONARYVAR
  5
146
102
{ACAD_REACTORS
330
145
102
}
330
145
100
DictionaryVariables
280
     0
  1
STANDARD
  0
DICTIONARYVAR
  5
148
102
{ACAD_REACTORS
330
145
102
}
330
145
100
DictionaryVariables
280
     0
  1
Imperial24
  0
DICTIONARYVAR
  5
149
102
{ACAD_REACTORS
330
145
102
}
330
145
100
DictionaryVariables
280
     0
  1
Imperial24
  0
DICTIONARY
  5
1A
330
19
100
AcDbDictionary
280
     1
281
     1
  3
BUMPTILE
360
1C
  3
DIFFUSETILE
360
1B
  3
OPACITYTILE
360
1F
  3
REFLECTIONTILE
360
1E
  3
REFRACTIONTILE
360
20
  3
SPECULARTILE
360
1D
  0
DICTIONARY
  5
12
330
11
100
AcDbDictionary
280
     1
281
     1
  3
BUMPTILE
360
14
  3
DIFFUSETILE
360
13
  3
OPACITYTILE
360
17
  3
REFLECTIONTILE
360
16
  3
REFRACTIONTILE
360
18
  3
SPECULARTILE
360
15
  0
DICTIONARY
  5
22
330
21
100
AcDbDictionary
280
     1
281
     1
  3
BUMPTILE
360
24
  3
DIFFUSETILE
360
23
  3
OPACITYTILE
360
27
  3
REFLECTIONTILE
360
26
  3
REFRACTIONTILE
360
28
  3
SPECULARTILE
360
25
  0
DICTIONARY
  5
14B
330
65
100
AcDbDictionary
280
     1
281
     1
  3
ACAD_ROUNDTRIP_2008_TABLESTYLE_CELLSTYLEMAP
360
14C
  0
XRECORD
  5
1C
102
{ACAD_REACTORS
330
1A
102
}
330
1A
100
AcDbXrecord
280
     1
270
     1
271
     1
  0
XRECORD
  5
1B
102
{ACAD_REACTORS
330
1A
102
}
330
1A
100
AcDbXrecord
280
     1
270
     1
271
     1
  0
XRECORD
  5
1F
102
{ACAD_REACTORS
330
1A
102
}
330
1A
100
AcDbXrecord
280
     1
270
     1
271
     1
  0
XRECORD
  5
1E
102
{ACAD_REACTORS
330
1A
102
}
330
1A
100
AcDbXrecord
280
     1
270
     1
271
     1
  0
XRECORD
  5
20
102
{ACAD_REACTORS
330
1A
102
}
330
1A
100
AcDbXrecord
280
     1
270
     1
271
     1
  0
XRECORD
  5
1D
102
{ACAD_REACTORS
330
1A
102
}
330
1A
100
AcDbXrecord
280
     1
270
     1
271
     1
  0
XRECORD
  5
14
102
{ACAD_REACTORS
330
12
102
}
330
12
100
AcDbXrecord
280
     1
270
     1
271
     1
  0
XRECORD
  5
13
102
{ACAD_REACTORS
330
12
102
}
330
12
100
AcDbXrecord
280
     1
270
     1
271
     1
  0
XRECORD
  5
17
102
{ACAD_REACTORS
330
12
102
}
330
12
100
AcDbXrecord
280
     1
270
     1
271
     1
  0
XRECORD
  5
16
102
{ACAD_REACTORS
330
12
102
}
330
12
100
AcDbXrecord
280
     1
270
     1
271
     1
  0
XRECORD
  5
18
102
{ACAD_REACTORS
330
12
102
}
330
12
100
AcDbXrecord
280
     1
270
     1
271
     1
  0
XRECORD
  5
15
102
{ACAD_REACTORS
330
12
102
}
330
12
100
AcDbXrecord
280
     1
270
     1
271
     1
  0
XRECORD
  5
24
102
{ACAD_REACTORS
330
22
102
}
330
22
100
AcDbXrecord
280
     1
270
     1
271
     1
  0
XRECORD
  5
23
102
{ACAD_REACTORS
330
22
102
}
330
22
100
AcDbXrecord
280
     1
270
     1
271
     1
  0
XRECORD
  5
27
102
{ACAD_REACTORS
330
22
102
}
330
22
100
AcDbXrecord
280
     1
270
     1
271
     1
  0
XRECORD
  5
26
102
{ACAD_REACTORS
330
22
102
}
330
22
100
AcDbXrecord
280
     1
270
     1
271
     1
  0
XRECORD
  5
28
102
{ACAD_REACTORS
330
22
102
}
330
22
100
AcDbXrecord
280
     1
270
     1
271
     1
  0
XRECORD
  5
25
102
{ACAD_REACTORS
330
22
102
}
330
22
100
AcDbXrecord
280
     1
270
     1
271
     1
  0
CELLSTYLEMAP
  5
14C
102
{ACAD_REACTORS
330
14B
102
}
330
14B
100
AcDbCellStyleMap
 90
        3
300
CELLSTYLE
  1
TABLEFORMAT_BEGIN
 90
        5
170
     1
 91
        0
 92
    32768
 62
   257
 93
        1
300
CONTENTFORMAT
  1
CONTENTFORMAT_BEGIN
 90
        0
 91
        0
 92
      512
 93
        0
300

 40
0.0
140
1.0
 94
        5
 62
     0
340
55
144
0.25
309
CONTENTFORMAT_END
171
     0
 94
        0
309
TABLEFORMAT_END
  1
CELLSTYLE_BEGIN
 90
        1
 91
        1
300
_TITLE
309
CELLSTYLE_END
300
CELLSTYLE
  1
TABLEFORMAT_BEGIN
 90
        5
170
     1
 91
        0
 92
        0
 62
   257
 93
        1
300
CONTENTFORMAT
  1
CONTENTFORMAT_BEGIN
 90
        0
 91
        0
 92
      512
 93
        0
300

 40
0.0
140
1.0
 94
        5
 62
     0
340
55
144
0.18
309
CONTENTFORMAT_END
171
     0
 94
        0
309
TABLEFORMAT_END
  1
CELLSTYLE_BEGIN
 90
        2
 91
        1
300
_HEADER
309
CELLSTYLE_END
300
CELLSTYLE
  1
TABLEFORMAT_BEGIN
 90
        5
170
     1
 91
        0
 92
        0
 62
   257
 93
        1
300
CONTENTFORMAT
  1
CONTENTFORMAT_BEGIN
 90
        0
 91
        0
 92
      512
 93
        0
300

 40
0.0
140
1.0
 94
        2
 62
     0
340
55
144
0.18
309
CONTENTFORMAT_END
171
     0
 94
        0
309
TABLEFORMAT_END
  1
CELLSTYLE_BEGIN
 90
        3
 91
        2
300
_DATA
309
CELLSTYLE_END
  0
ENDSEC
  0
EOF
