  0
SECTION
  2
HEADER
  9
$ACADVER
  1
AC1032
  9
$ACADMAINTVER
 90
      228
  9
$DWGCODEPAGE
  3
ANSI_1252
  9
$REQUIREDVERSIONS
160
                 0
  9
$INSBASE
 10
0.0
 20
0.0
 30
0.0
  9
$EXTMIN
 10
1.000000000000000E+20
 20
1.000000000000000E+20
 30
1.000000000000000E+20
  9
$EXTMAX
 10
-1.000000000000000E+20
 20
-1.000000000000000E+20
 30
-1.000000000000000E+20
  9
$LIMMIN
 10
0.0
 20
0.0
  9
$LIMMAX
 10
12.0
 20
9.0
  9
$ORTHOMODE
 70
     0
  9
$REGENMODE
 70
     1
  9
$FILLMODE
 70
     1
  9
$QTEXTMODE
 70
     0
  9
$MIRRTEXT
 70
     0
  9
$LTSCALE
 40
1.0
  9
$ATTMODE
 70
     1
  9
$TEXTSIZE
 40
0.2
  9
$TRACEWID
 40
0.05
  9
$TEXTSTYLE
  7
Standard
  9
$CLAYER
  8
0
  9
$CELTYPE
  6
ByLayer
  9
$CECOLOR
 62
   256
  9
$CELTSCALE
 40
1.0
  9
$DISPSILH
 70
     0
  9
$DIMSCALE
 40
1.0
  9
$DIMASZ
 40
0.18
  9
$DIMEXO
 40
0.0625
  9
$DIMDLI
 40
0.38
  9
$DIMRND
 40
0.0
  9
$DIMDLE
 40
0.0
  9
$DIMEXE
 40
0.18
  9
$DIMTP
 40
0.0
  9
$DIMTM
 40
0.0
  9
$DIMTXT
 40
0.18
  9
$DIMCEN
 40
0.09
  9
$DIMTSZ
 40
0.0
  9
$DIMTOL
 70
     0
  9
$DIMLIM
 70
     0
  9
$DIMTIH
 70
     1
  9
$DIMTOH
 70
     1
  9
$DIMSE1
 70
     0
  9
$DIMSE2
 70
     0
  9
$DIMTAD
 70
     0
  9
$DIMZIN
 70
     0
  9
$DIMBLK
  1

  9
$DIMASO
 70
     1
  9
$DIMSHO
 70
     1
  9
$DIMPOST
  1

  9
$DIMAPOST
  1

  9
$DIMALT
 70
     0
  9
$DIMALTD
 70
     2
  9
$DIMALTF
 40
25.4
  9
$DIMLFAC
 40
1.0
  9
$DIMTOFL
 70
     0
  9
$DIMTVP
 40
0.0
  9
$DIMTIX
 70
     0
  9
$DIMSOXD
 70
     0
  9
$DIMSAH
 70
     0
  9
$DIMBLK1
  1

  9
$DIMBLK2
  1

  9
$DIMSTYLE
  2
Standard
  9
$DIMCLRD
 70
     0
  9
$DIMCLRE
 70
     0
  9
$DIMCLRT
 70
     0
  9
$DIMTFAC
 40
1.0
  9
$DIMGAP
 40
0.09
  9
$DIMJUST
 70
     0
  9
$DIMSD1
 70
     0
  9
$DIMSD2
 70
     0
  9
$DIMTOLJ
 70
     1
  9
$DIMTZIN
 70
     0
  9
$DIMALTZ
 70
     0
  9
$DIMALTTZ
 70
     0
  9
$DIMUPT
 70
     0
  9
$DIMDEC
 70
     4
  9
$DIMTDEC
 70
     4
  9
$DIMALTU
 70
     2
  9
$DIMALTTD
 70
     2
  9
$DIMTXSTY
  7
Standard
  9
$DIMAUNIT
 70
     0
  9
$DIMADEC
 70
     0
  9
$DIMALTRND
 40
0.0
  9
$DIMAZIN
 70
     0
  9
$DIMDSEP
 70
    46
  9
$DIMATFIT
 70
     3
  9
$DIMFRAC
 70
     0
  9
$DIMLDRBLK
  1

  9
$DIMLUNIT
 70
     2
  9
$DIMLWD
 70
    -2
  9
$DIMLWE
 70
    -2
  9
$DIMTMOVE
 70
     0
  9
$DIMFXL
 40
1.0
  9
$DIMFXLON
 70
     0
  9
$DIMJOGANG
 40
0.7853981633974483
  9
$DIMTFILL
 70
     0
  9
$DIMTFILLCLR
 70
     0
  9
$DIMARCSYM
 70
     0
  9
$DIMLTYPE
  6

  9
$DIMLTEX1
  6

  9
$DIMLTEX2
  6

  9
$DIMTXTDIRECTION
 70
     0
  9
$LUNITS
 70
     2
  9
$LUPREC
 70
     4
  9
$SKETCHINC
 40
0.1
  9
$FILLETRAD
 40
0.0
  9
$AUNITS
 70
     0
  9
$AUPREC
 70
     0
  9
$MENU
  1
.
  9
$ELEVATION
 40
0.0
  9
$PELEVATION
 40
0.0
  9
$THICKNESS
 40
0.0
  9
$LIMCHECK
 70
     0
  9
$CHAMFERA
 40
0.0
  9
$CHAMFERB
 40
0.0
  9
$CHAMFERC
 40
0.0
  9
$CHAMFERD
 40
0.0
  9
$SKPOLY
 70
     0
  9
$TDCREATE
 40
2460414.060312500
  9
$TDUCREATE
 40
2460414.351979167
  9
$TDUPDATE
 40
2460414.060312500
  9
$TDUUPDATE
 40
2460414.351979167
  9
$TDINDWG
 40
0.0000000000
  9
$TDUSRTIMER
 40
0.0000000000
  9
$USRTIMER
 70
     1
  9
$ANGBASE
 50
0.0
  9
$ANGDIR
 70
     0
  9
$PDMODE
 70
     0
  9
$PDSIZE
 40
0.0
  9
$PLINEWID
 40
0.0
  9
$SPLFRAME
 70
     0
  9
$SPLINETYPE
 70
     6
  9
$SPLINESEGS
 70
     8
  9
$HANDSEED
  5
150
  9
$SURFTAB1
 70
     6
  9
$SURFTAB2
 70
     6
  9
$SURFTYPE
 70
     6
  9
$SURFU
 70
     6
  9
$SURFV
 70
     6
  9
$UCSBASE
  2

  9
$UCSNAME
  2

  9
$UCSORG
 10
0.0
 20
0.0
 30
0.0
  9
$UCSXDIR
 10
1.0
 20
0.0
 30
0.0
  9
$UCSYDIR
 10
0.0
 20
1.0
 30
0.0
  9
$UCSORTHOREF
  2

  9
$UCSORTHOVIEW
 70
     0
  9
$UCSORGTOP
 10
0.0
 20
0.0
 30
0.0
  9
$UCSORGBOTTOM
 10
0.0
 20
0.0
 30
0.0
  9
$UCSORGLEFT
 10
0.0
 20
0.0
 30
0.0
  9
$UCSORGRIGHT
 10
0.0
 20
0.0
 30
0.0
  9
$UCSORGFRONT
 10
0.0
 20
0.0
 30
0.0
  9
$UCSORGBACK
 10
0.0
 20
0.0
 30
0.0
  9
$PUCSBASE
  2

  9
$PUCSNAME
  2

  9
$PUCSORG
 10
0.0
 20
0.0
 30
0.0
  9
$PUCSXDIR
 10
1.0
 20
0.0
 30
0.0
  9
$PUCSYDIR
 10
0.0
 20
1.0
 30
0.0
  9
$PUCSORTHOREF
  2

  9
$PUCSORTHOVIEW
 70
     0
  9
$PUCSORGTOP
 10
0.0
 20
0.0
 30
0.0
  9
$PUCSORGBOTTOM
 10
0.0
 20
0.0
 30
0.0
  9
$PUCSORGLEFT
 10
0.0
 20
0.0
 30
0.0
  9
$PUCSORGRIGHT
 10
0.0
 20
0.0
 30
0.0
  9
$PUCSORGFRONT
 10
0.0
 20
0.0
 30
0.0
  9
$PUCSORGBACK
 10
0.0
 20
0.0
 30
0.0
  9
$USERI1
 70
     0
  9
$USERI2
 70
     0
  9
$USERI3
 70
     0
  9
$USERI4
 70
     0
  9
$USERI5
 70
     0
  9
$USERR1
 40
0.0
  9
$USERR2
 40
0.0
  9
$USERR3
 40
0.0
  9
$USERR4
 40
0.0
  9
$USERR5
 40
0.0
  9
$WORLDVIEW
 70
     1
  9
$SHADEDGE
 70
     3
  9
$SHADEDIF
 70
    70
  9
$TILEMODE
 70
     1
  9
$MAXACTVP
 70
    64
  9
$PINSBASE
 10
0.0
 20
0.0
 30
0.0
  9
$PLIMCHECK
 70
     0
  9
$PEXTMIN
 10
1.000000000000000E+20
 20
1.000000000000000E+20
 30
1.000000000000000E+20
  9
$PEXTMAX
 10
-1.000000000000000E+20
 20
-1.000000000000000E+20
 30
-1.000000000000000E+20
  9
$PLIMMIN
 10
0.0
 20
0.0
  9
$PLIMMAX
 10
12.0
 20
9.0
  9
$UNITMODE
 70
     0
  9
$VISRETAIN
 70
     1
  9
$PLINEGEN
 70
     0
  9
$PSLTSCALE
 70
     1
  9
$TREEDEPTH
 70
  3020
  9
$CMLSTYLE
  2
Standard
  9
$CMLJUST
 70
     0
  9
$CMLSCALE
 40
1.0
  9
$PROXYGRAPHICS
 70
     1
  9
$MEASUREMENT
 70
     0
  9
$CELWEIGHT
370
    -1
  9
$ENDCAPS
280
     0
  9
$JOINSTYLE
280
     0
  9
$LWDISPLAY
290
     1
  9
$INSUNITS
 70
     1
  9
$HYPERLINKBASE
  1

  9
$STYLESHEET
  1

  9
$XEDIT
290
     1
  9
$CEPSNTYPE
380
     0
  9
$PSTYLEMODE
290
     1
  9
$FINGERPRINTGUID
  2
{FC6F09A2-DC29-FA42-9704-47E6BD0098CC}
  9
$VERSIONGUID
  2
{21370E44-17FC-7A4D-97DC-025BBDD7B5FE}
  9
$EXTNAMES
290
     1
  9
$PSVPSCALE
 40
0.0
  9
$OLESTARTUP
290
     0
  9
$SORTENTS
280
   127
  9
$INDEXCTL
280
     0
  9
$HIDETEXT
280
     1
  9
$XCLIPFRAME
280
     2
  9
$HALOGAP
280
     0
  9
$OBSCOLOR
 70
   257
  9
$OBSLTYPE
280
     0
  9
$INTERSECTIONDISPLAY
280
     0
  9
$INTERSECTIONCOLOR
 70
   257
  9
$DIMASSOC
280
     2
  9
$PROJECTNAME
  1

  9
$CAMERADISPLAY
290
     0
  9
$LENSLENGTH
 40
50.0
  9
$CAMERAHEIGHT
 40
0.0
  9
$STEPSPERSEC
 40
2.0
  9
$STEPSIZE
 40
6.0
  9
$3DDWFPREC
 40
2.0
  9
$PSOLWIDTH
 40
0.25
  9
$PSOLHEIGHT
 40
4.0
  9
$LOFTANG1
 40
1.570796326794896
  9
$LOFTANG2
 40
1.570796326794896
  9
$LOFTMAG1
 40
0.0
  9
$LOFTMAG2
 40
0.0
  9
$LOFTPARAM
 70
     7
  9
$LOFTNORMALS
280
     1
  9
$LATITUDE
 40
37.795
  9
$LONGITUDE
 40
-122.394
  9
$NORTHDIRECTION
 40
0.0
  9
$TIMEZONE
 70
 -8000
  9
$LIGHTGLYPHDISPLAY
280
     1
  9
$TILEMODELIGHTSYNCH
280
     1
  9
$CMATERIAL
347
11
  9
$SOLIDHIST
280
     0
  9
$SHOWHIST
280
     1
  9
$DWFFRAME
280
     2
  9
$DGNFRAME
280
     0
  9
$REALWORLDSCALE
290
     1
  9
$INTERFERECOLOR
 62
     1
  9
$INTERFEREOBJVS
345
33
  9
$INTERFEREVPVS
346
30
  9
$CSHADOW
280
     0
  9
$SHADOWPLANELOCATION
 40
0.0
  0
ENDSEC
  0
SECTION
  2
CLASSES
  0
CLASS
  1
ACDBDICTIONARYWDFLT
  2
AcDbDictionaryWithDefault
  3
ObjectDBX Classes
 90
        0
 91
        1
280
     0
281
     0
  0
CLASS
  1
MATERIAL
  2
AcDbMaterial
  3
ObjectDBX Classes
 90
     1153
 91
        3
280
     0
281
     0
  0
CLASS
  1
VISUALSTYLE
  2
AcDbVisualStyle
  3
ObjectDBX Classes
 90
     4095
 91
       24
280
     0
281
     0
  0
CLASS
  1
SCALE
  2
AcDbScale
  3
ObjectDBX Classes
 90
     1153
 91
       17
280
     0
281
     0
  0
CLASS
  1
TABLESTYLE
  2
AcDbTableStyle
  3
ObjectDBX Classes
 90
     4095
 91
        1
280
     0
281
     0
  0
CLASS
  1
MLEADERSTYLE
  2
AcDbMLeaderStyle
  3
ACDB_MLEADERSTYLE_CLASS
 90
     4095
 91
        1
280
     0
281
     0
  0
CLASS
  1
ACDBSECTIONVIEWSTYLE
  2
AcDbSectionViewStyle
  3
ObjectDBX Classes
 90
     1025
 91
        1
280
     0
281
     0
  0
CLASS
  1
ACDBDETAILVIEWSTYLE
  2
AcDbDetailViewStyle
  3
ObjectDBX Classes
 90
     1025
 91
        1
280
     0
281
     0
  0
CLASS
  1
DICTIONARYVAR
  2
AcDbDictionaryVar
  3
ObjectDBX Classes
 90
        0
 91
        5
280
     0
281
     0
  0
CLASS
  1
CELLSTYLEMAP
  2
AcDbCellStyleMap
  3
ObjectDBX Classes
 90
     1152
 91
        1
280
     0
281
     0
  0
ENDSEC
  0
SECTION
  2
TABLES
  0
TABLE
  2
VPORT
  5
8
330
0
100
AcDbSymbolTable
 70
     1
  0
VPORT
  5
57
330
8
100
AcDbSymbolTableRecord
100
AcDbViewportTableRecord
  2
*Active
 70
     0
 10
0.0
 20
0.0
 11
1.0
 21
1.0
 12
0.0
 22
0.0
 13
0.0
 23
0.0
 14
1.0
 24
1.0
 15
0.0
 25
0.0
 16
0.0
 26
0.0
 36
1.0
 17
0.9063715204259281
 27
-9.464948306989626
 37
0.0
 40
28.18769568220839
 41
1.322120462652983
 42
50.0
 43
0.0
 44
0.0
 50
0.0
 51
0.0
 71
     0
 72
   100
 73
     1
 74
     1
 75
     0
 76
     0
 77
     0
 78
     0
281
     0
 65
     1
110
0.0
120
0.0
130
0.0
111
1.0
121
0.0
131
0.0
112
0.0
122
1.0
132
0.0
 79
     0
146
0.0
 60
     3
 61
     5
292
     1
282
     1
141
0.0
142
0.0
 63
   250
421
  3355443
  0
ENDTAB
  0
TABLE
  2
LTYPE
  5
5
330
0
100
AcDbSymbolTable
 70
     1
  0
LTYPE
  5
5B
330
5
100
AcDbSymbolTableRecord
100
AcDbLinetypeTableRecord
  2
ByBlock
 70
     0
  3

 72
    65
 73
     0
 40
0.0
  0
LTYPE
  5
5C
330
5
100
AcDbSymbolTableRecord
100
AcDbLinetypeTableRecord
  2
ByLayer
 70
     0
  3

 72
    65
 73
     0
 40
0.0
  0
LTYPE
  5
5D
330
5
100
AcDbSymbolTableRecord
100
AcDbLinetypeTableRecord
  2
Continuous
 70
     0
  3
Solid line
 72
    65
 73
     0
 40
0.0
  0
ENDTAB
  0
TABLE
  2
LAYER
  5
2
330
0
100
AcDbSymbolTable
 70
     8
  0
LAYER
  5
54
330
2
100
AcDbSymbolTableRecord
100
AcDbLayerTableRecord
  2
0
 70
     0
 62
     7
  6
Continuous
370
    -3
390
F
347
21
348
0
  0
LAYER
  5
78
330
2
100
AcDbSymbolTableRecord
100
AcDbLayerTableRecord
  2
Luffy
 70
     1
 62
     7
  6
Continuous
370
     0
390
F
347
21
348
0
  0
LAYER
  5
79
330
2
100
AcDbSymbolTableRecord
100
AcDbLayerTableRecord
  2
Deck Box - DF
 70
     1
 62
     7
  6
Continuous
370
     0
390
F
347
21
348
0
  0
LAYER
  5
7A
330
2
100
AcDbSymbolTableRecord
100
AcDbLayerTableRecord
  2
Deck Box - G5
 70
     1
 62
     7
  6
Continuous
370
     0
390
F
347
21
348
0
  0
LAYER
  5
7B
330
2
100
AcDbSymbolTableRecord
100
AcDbLayerTableRecord
  2
Poneglyph
 70
     0
 62
     7
  6
Continuous
370
     0
390
F
347
21
348
0
  0
LAYER
  5
144
330
2
100
AcDbSymbolTableRecord
100
AcDbLayerTableRecord
  2
Crocodile
 70
     1
 62
     7
  6
Continuous
370
     0
390
F
347
21
348
0
  0
LAYER
  5
145
330
2
100
AcDbSymbolTableRecord
100
AcDbLayerTableRecord
  2
Layer 2
 70
     5
 62
     7
  6
Continuous
370
     0
390
F
347
21
348
0
  0
LAYER
  5
146
330
2
100
AcDbSymbolTableRecord
100
AcDbLayerTableRecord
  2
Lid
 70
     1
 62
     7
  6
Continuous
370
     0
390
F
347
21
348
0
  0
ENDTAB
  0
TABLE
  2
STYLE
  5
3
330
0
100
AcDbSymbolTable
 70
     2
  0
STYLE
  5
55
330
3
100
AcDbSymbolTableRecord
100
AcDbTextStyleTableRecord
  2
Standard
 70
     0
 40
0.0
 41
1.0
 50
0.0
 71
     0
 42
0.2
  3
txt
  4

  0
STYLE
  5
5A
330
3
100
AcDbSymbolTableRecord
100
AcDbTextStyleTableRecord
  2
Annotative
 70
     0
 40
0.0
 41
1.0
 50
0.0
 71
     0
 42
0.2
  3
txt
  4

1001
AcadAnnotative
1000
AnnotativeData
1002
{
1070
     1
1070
     1
1002
}
  0
ENDTAB
  0
TABLE
  2
VIEW
  5
6
330
0
100
AcDbSymbolTable
 70
     0
  0
ENDTAB
  0
TABLE
  2
UCS
  5
7
330
0
100
AcDbSymbolTable
 70
     0
  0
ENDTAB
  0
TABLE
  2
APPID
  5
9
330
0
100
AcDbSymbolTable
 70
     2
  0
APPID
  5
56
330
9
100
AcDbSymbolTableRecord
100
AcDbRegAppTableRecord
  2
ACAD
 70
     0
  0
APPID
  5
5E
330
9
100
AcDbSymbolTableRecord
100
AcDbRegAppTableRecord
  2
AcadAnnotative
 70
     0
  0
ENDTAB
  0
TABLE
  2
DIMSTYLE
  5
A
330
0
100
AcDbSymbolTable
 70
     2
100
AcDbDimStyleTable
 71
     0
  0
DIMSTYLE
105
58
330
A
100
AcDbSymbolTableRecord
100
AcDbDimStyleTableRecord
  2
Standard
 70
     0
340
55
  0
DIMSTYLE
105
59
330
A
100
AcDbSymbolTableRecord
100
AcDbDimStyleTableRecord
  2
Annotative
 70
     0
340
55
1001
AcadAnnotative
1000
AnnotativeData
1002
{
1070
     1
1070
     1
1002
}
  0
ENDTAB
  0
TABLE
  2
BLOCK_RECORD
  5
1
330
0
100
AcDbSymbolTable
 70
     2
  0
BLOCK_RECORD
  5
70
330
1
100
AcDbSymbolTableRecord
100
AcDbBlockTableRecord
  2
*Model_Space
340
73
 70
     0
280
     1
281
     0
  0
BLOCK_RECORD
  5
6C
330
1
100
AcDbSymbolTableRecord
100
AcDbBlockTableRecord
  2
*Paper_Space
340
6F
 70
     0
280
     1
281
     0
  0
BLOCK_RECORD
  5
74
330
1
100
AcDbSymbolTableRecord
100
AcDbBlockTableRecord
  2
*Paper_Space0
340
77
 70
     0
280
     1
281
     0
  0
BLOCK_RECORD
  5
7C
330
1
100
AcDbSymbolTableRecord
100
AcDbBlockTableRecord
  2
Block_0
340
0
102
{BLKREFS
331
7D
102
}
 70
     0
280
     1
281
     0
  0
ENDTAB
  0
ENDSEC
  0
SECTION
  2
BLOCKS
  0
BLOCK
  5
71
330
70
100
AcDbEntity
  8
0
100
AcDbBlockBegin
  2
*Model_Space
 70
     0
 10
0.0
 20
0.0
 30
0.0
  3
*Model_Space
  1

  0
ENDBLK
  5
72
330
70
100
AcDbEntity
  8
0
100
AcDbBlockEnd
  0
BLOCK
  5
6D
330
6C
100
AcDbEntity
 67
     1
  8
0
100
AcDbBlockBegin
  2
*Paper_Space
 70
     0
 10
0.0
 20
0.0
 30
0.0
  3
*Paper_Space
  1

  0
ENDBLK
  5
6E
330
6C
100
AcDbEntity
 67
     1
  8
0
100
AcDbBlockEnd
  0
BLOCK
  5
75
330
74
100
AcDbEntity
 67
     1
  8
0
100
AcDbBlockBegin
  2
*Paper_Space0
 70
     0
 10
0.0
 20
0.0
 30
0.0
  3
*Paper_Space0
  1

  0
ENDBLK
  5
76
330
74
100
AcDbEntity
 67
     1
  8
0
100
AcDbBlockEnd
  0
BLOCK
  5
7E
330
7C
100
AcDbEntity
  8
0
100
AcDbBlockBegin
  2
Block_0
 70
     0
 10
0.0
 20
0.0
 30
0.0
  3
Block_0
  1

  0
SPLINE
  5
80
330
7C
100
AcDbEntity
  8
Poneglyph
100
AcDbSpline
210
0.0
220
0.0
230
1.0
 70
     9
 71
     3
 72
    29
 73
    25
 74
     0
 42
0.0000000001
 43
0.0000000001
 40
0.0
 40
0.0
 40
0.0
 40
0.0
 40
1.0
 40
1.0
 40
1.0
 40
2.0
 40
2.0
 40
2.0
 40
3.0
 40
3.0
 40
3.0
 40
4.0
 40
4.0
 40
4.0
 40
5.0
 40
5.0
 40
5.0
 40
6.0
 40
6.0
 40
6.0
 40
7.0
 40
7.0
 40
7.0
 40
8.0
 40
8.0
 40
8.0
 40
8.0
 10
4.96563948414372
 20
-2.527970235061843
 30
0.0
 10
4.918579735073181
 20
-2.50553759334673
 30
0.0
 10
4.945878569803324
 20
-2.574047147095155
 30
0.0
 10
4.939403064414515
 20
-2.600304012259319
 30
0.0
 10
4.956591869056738
 20
-2.611432983982884
 30
0.0
 10
4.975692610127705
 20
-2.626492169064792
 30
0.0
 10
4.978772537131994
 20
-2.646105485972649
 30
0.0
 10
4.960809950598609
 20
-2.647205146421192
 30
0.0
 10
4.926422714986832
 20
-2.634327848124699
 30
0.0
 10
4.939409884291586
 20
-2.665641257986395
 30
0.0
 10
4.94194132345587
 20
-2.673506080387154
 30
0.0
 10
4.932792328401117
 20
-2.701752620815909
 30
0.0
 10
4.94610505658991
 20
-2.698312786034812
 30
0.0
 10
4.984780776146281
 20
-2.709368099838545
 30
0.0
 10
4.920640372084386
 20
-2.734616263814448
 30
0.0
 10
4.919579836172967
 20
-2.70501010595875
 30
0.0
 10
4.91957881959585
 20
-2.668911987584515
 30
0.0
 10
4.91957790177571
 20
-2.62971314355583
 30
0.0
 10
4.919578287394718
 20
-2.593603357275532
 30
0.0
 10
4.92247739169074
 20
-2.566275880639207
 30
0.0
 10
4.913460610569523
 20
-2.530906121858695
 30
0.0
 10
4.923641217129139
 20
-2.505806783733595
 30
0.0
 10
4.934722929109258
 20
-2.499598935671011
 30
0.0
 10
4.993548089870677
 20
-2.509434916041262
 30
0.0
 10
4.96563948414372
 20
-2.527970235061843
 30
0.0
  0
SPLINE
  5
81
330
7C
100
AcDbEntity
  8
Poneglyph
100
AcDbSpline
210
0.0
220
0.0
230
1.0
 70
     9
 71
     3
 72
    11
 73
     7
 74
     0
 42
0.0000000001
 43
0.0000000001
 40
0.0
 40
0.0
 40
0.0
 40
0.0
 40
1.0
 40
1.0
 40
1.0
 40
2.0
 40
2.0
 40
2.0
 40
2.0
 10
4.88689053024546
 20
-2.600303676902121
 30
0.0
 10
4.883523405459426
 20
-2.600376629860609
 30
0.0
 10
4.87786691661654
 20
-2.6022451818495
 30
0.0
 10
4.877558397765874
 20
-2.605701552781877
 30
0.0
 10
4.880683836392462
 20
-2.60877762104341
 30
0.0
 10
4.887430411563021
 20
-2.604938186970116
 30
0.0
 10
4.88689053024546
 20
-2.600303676902121
 30
0.0
  0
SPLINE
  5
82
330
7C
100
AcDbEntity
  8
Poneglyph
100
AcDbSpline
210
0.0
220
0.0
230
1.0
 70
     9
 71
     3
 72
    14
 73
    10
 74
     0
 42
0.0000000001
 43
0.0000000001
 40
0.0
 40
0.0
 40
0.0
 40
0.0
 40
1.0
 40
1.0
 40
1.0
 40
2.0
 40
2.0
 40
2.0
 40
3.0
 40
3.0
 40
3.0
 40
3.0
 10
4.840829371296497
 20
-2.619848490270176
 30
0.0
 10
4.838027024869561
 20
-2.59516191253158
 30
0.0
 10
4.875799607065825
 20
-2.592322742602555
 30
0.0
 10
4.886889227475421
 20
-2.573773027530288
 30
0.0
 10
4.888888895886566
 20
-2.557765951155778
 30
0.0
 10
4.876926552615637
 20
-2.485756477661589
 30
0.0
 10
4.906722946699548
 20
-2.514849815656803
 30
0.0
 10
4.90353660529038
 20
-2.573622357495688
 30
0.0
 10
4.930238492346789
 20
-2.658092119551472
 30
0.0
 10
4.840829371296497
 20
-2.619848490270176
 30
0.0
  0
SPLINE
  5
83
330
7C
100
AcDbEntity
  8
Poneglyph
100
AcDbSpline
210
0.0
220
0.0
230
1.0
 70
     9
 71
     3
 72
    11
 73
     7
 74
     0
 42
0.0000000001
 43
0.0000000001
 40
0.0
 40
0.0
 40
0.0
 40
0.0
 40
1.0
 40
1.0
 40
1.0
 40
2.0
 40
2.0
 40
2.0
 40
2.0
 10
4.867359319213164
 20
-2.698312574471565
 30
0.0
 10
4.881819053176185
 20
-2.694844831165369
 30
0.0
 10
4.889765577544039
 20
-2.67773159093234
 30
0.0
 10
4.886023368274487
 20
-2.663307383388213
 30
0.0
 10
4.851906998279345
 20
-2.622775072048814
 30
0.0
 10
4.803059937387337
 20
-2.711390090780279
 30
0.0
 10
4.867359319213164
 20
-2.698312574471565
 30
0.0
  0
SPLINE
  5
84
330
7C
100
AcDbEntity
  8
Poneglyph
100
AcDbSpline
210
0.0
220
0.0
230
1.0
 70
     9
 71
     3
 72
    11
 73
     7
 74
     0
 42
0.0000000001
 43
0.0000000001
 40
0.0
 40
0.0
 40
0.0
 40
0.0
 40
1.0
 40
1.0
 40
1.0
 40
2.0
 40
2.0
 40
2.0
 40
2.0
 10
4.814869084838164
 20
-2.593603373082676
 30
0.0
 10
4.843916017006423
 20
-2.595022489824246
 30
0.0
 10
4.818263279303815
 20
-2.633899867108753
 30
0.0
 10
4.799975770051105
 20
-2.615760960169318
 30
0.0
 10
4.787061150152137
 20
-2.603790045004984
 30
0.0
 10
4.800223074465722
 20
-2.590081666495064
 30
0.0
 10
4.814869084838164
 20
-2.593603373082676
 30
0.0
  0
SPLINE
  5
85
330
7C
100
AcDbEntity
  8
Poneglyph
100
AcDbSpline
210
0.0
220
0.0
230
1.0
 70
     9
 71
     3
 72
    11
 73
     7
 74
     0
 42
0.0000000001
 43
0.0000000001
 40
0.0
 40
0.0
 40
0.0
 40
0.0
 40
1.0
 40
1.0
 40
1.0
 40
2.0
 40
2.0
 40
2.0
 40
2.0
 10
4.814869084838164
 20
-2.547813442527121
 30
0.0
 10
4.861150928853627
 20
-2.539318211366548
 30
0.0
 10
4.828940477421357
 20
-2.52494941953484
 30
0.0
 10
4.802467321957692
 20
-2.52303389142542
 30
0.0
 10
4.78497017559112
 20
-2.521161454805867
 30
0.0
 10
4.799613738887956
 20
-2.552828392776607
 30
0.0
 10
4.814869084838164
 20
-2.547813442527121
 30
0.0
  0
SPLINE
  5
86
330
7C
100
AcDbEntity
  8
Poneglyph
100
AcDbSpline
210
0.0
220
0.0
230
1.0
 70
     9
 71
     3
 72
    17
 73
    13
 74
     0
 42
0.0000000001
 43
0.0000000001
 40
0.0
 40
0.0
 40
0.0
 40
0.0
 40
1.0
 40
1.0
 40
1.0
 40
2.0
 40
2.0
 40
2.0
 40
3.0
 40
3.0
 40
3.0
 40
4.0
 40
4.0
 40
4.0
 40
4.0
 10
4.86065901539372
 20
-2.632977830547954
 30
0.0
 10
5.002738027270752
 20
-2.659981248997521
 30
0.0
 10
4.79299970389651
 20
-2.793153133336179
 30
0.0
 10
4.821992751223357
 20
-2.663301798097121
 30
0.0
 10
4.799209828784872
 20
-2.640580039096839
 30
0.0
 10
4.746964962101628
 20
-2.695287046959833
 30
0.0
 10
4.765582458643797
 20
-2.601027147747761
 30
0.0
 10
4.7529423615727
 20
-2.515482721031364
 30
0.0
 10
4.812832218727963
 20
-2.588550899971361
 30
0.0
 10
4.782765996183065
 20
-2.629631132591422
 30
0.0
 10
4.778486782978133
 20
-2.659679762001978
 30
0.0
 10
4.840042663761929
 20
-2.622189942206318
 30
0.0
 10
4.86065901539372
 20
-2.632977830547954
 30
0.0
  0
SPLINE
  5
87
330
7C
100
AcDbEntity
  8
Poneglyph
100
AcDbSpline
210
0.0
220
0.0
230
1.0
 70
     9
 71
     3
 72
    11
 73
     7
 74
     0
 42
0.0000000001
 43
0.0000000001
 40
0.0
 40
0.0
 40
0.0
 40
0.0
 40
1.0
 40
1.0
 40
1.0
 40
2.0
 40
2.0
 40
2.0
 40
2.0
 10
4.867359319213164
 20
-2.521554761971565
 30
0.0
 10
4.8239632189253
 20
-2.602175799226882
 30
0.0
 10
4.783530571002655
 20
-2.562981629762854
 30
0.0
 10
4.768757757768071
 20
-2.509303511071026
 30
0.0
 10
4.794519481325929
 20
-2.514152150241379
 30
0.0
 10
4.861049527947468
 20
-2.492618275877816
 30
0.0
 10
4.867359319213164
 20
-2.521554761971565
 30
0.0
  0
HATCH
  5
88
330
7C
100
AcDbEntity
  8
Poneglyph
 62
   250
420
  2301728
440
 33554687
100
AcDbHatch
 10
0.0
 20
0.0
 30
0.0
210
0.0
220
0.0
230
1.0
  2
SOLID
 70
     1
 71
     1
 91
        8
 92
        1
 93
        1
 72
     4
 94
        3
 73
     0
 74
     0
 95
       29
 96
       25
 40
0.0
 40
0.0
 40
0.0
 40
0.0
 40
1.0
 40
1.0
 40
1.0
 40
2.0
 40
2.0
 40
2.0
 40
3.0
 40
3.0
 40
3.0
 40
4.0
 40
4.0
 40
4.0
 40
5.0
 40
5.0
 40
5.0
 40
6.0
 40
6.0
 40
6.0
 40
7.0
 40
7.0
 40
7.0
 40
8.0
 40
8.0
 40
8.0
 40
8.0
 10
4.96563948414372
 20
-2.527970235061843
 10
4.918579735073181
 20
-2.50553759334673
 10
4.945878569803324
 20
-2.574047147095155
 10
4.939403064414515
 20
-2.600304012259319
 10
4.956591869056738
 20
-2.611432983982884
 10
4.975692610127705
 20
-2.626492169064792
 10
4.978772537131994
 20
-2.646105485972649
 10
4.960809950598609
 20
-2.647205146421192
 10
4.926422714986832
 20
-2.634327848124699
 10
4.939409884291586
 20
-2.665641257986395
 10
4.94194132345587
 20
-2.673506080387154
 10
4.932792328401117
 20
-2.701752620815909
 10
4.94610505658991
 20
-2.698312786034812
 10
4.984780776146281
 20
-2.709368099838545
 10
4.920640372084386
 20
-2.734616263814448
 10
4.919579836172967
 20
-2.70501010595875
 10
4.91957881959585
 20
-2.668911987584515
 10
4.91957790177571
 20
-2.62971314355583
 10
4.919578287394718
 20
-2.593603357275532
 10
4.92247739169074
 20
-2.566275880639207
 10
4.913460610569523
 20
-2.530906121858695
 10
4.923641217129139
 20
-2.505806783733595
 10
4.934722929109258
 20
-2.499598935671011
 10
4.993548089870677
 20
-2.509434916041262
 10
4.96563948414372
 20
-2.527970235061843
 97
        0
 97
        1
330
80
 92
        1
 93
        1
 72
     4
 94
        3
 73
     0
 74
     0
 95
       11
 96
        7
 40
0.0
 40
0.0
 40
0.0
 40
0.0
 40
1.0
 40
1.0
 40
1.0
 40
2.0
 40
2.0
 40
2.0
 40
2.0
 10
4.88689053024546
 20
-2.600303676902121
 10
4.883523405459426
 20
-2.600376629860609
 10
4.87786691661654
 20
-2.6022451818495
 10
4.877558397765874
 20
-2.605701552781877
 10
4.880683836392462
 20
-2.60877762104341
 10
4.887430411563021
 20
-2.604938186970116
 10
4.88689053024546
 20
-2.600303676902121
 97
        0
 97
        1
330
81
 92
        1
 93
        1
 72
     4
 94
        3
 73
     0
 74
     0
 95
       14
 96
       10
 40
0.0
 40
0.0
 40
0.0
 40
0.0
 40
1.0
 40
1.0
 40
1.0
 40
2.0
 40
2.0
 40
2.0
 40
3.0
 40
3.0
 40
3.0
 40
3.0
 10
4.840829371296497
 20
-2.619848490270176
 10
4.838027024869561
 20
-2.59516191253158
 10
4.875799607065825
 20
-2.592322742602555
 10
4.886889227475421
 20
-2.573773027530288
 10
4.888888895886566
 20
-2.557765951155778
 10
4.876926552615637
 20
-2.485756477661589
 10
4.906722946699548
 20
-2.514849815656803
 10
4.90353660529038
 20
-2.573622357495688
 10
4.930238492346789
 20
-2.658092119551472
 10
4.840829371296497
 20
-2.619848490270176
 97
        0
 97
        1
330
82
 92
        1
 93
        1
 72
     4
 94
        3
 73
     0
 74
     0
 95
       11
 96
        7
 40
0.0
 40
0.0
 40
0.0
 40
0.0
 40
1.0
 40
1.0
 40
1.0
 40
2.0
 40
2.0
 40
2.0
 40
2.0
 10
4.867359319213164
 20
-2.698312574471565
 10
4.881819053176185
 20
-2.694844831165369
 10
4.889765577544039
 20
-2.67773159093234
 10
4.886023368274487
 20
-2.663307383388213
 10
4.851906998279345
 20
-2.622775072048814
 10
4.803059937387337
 20
-2.711390090780279
 10
4.867359319213164
 20
-2.698312574471565
 97
        0
 97
        1
330
83
 92
        1
 93
        1
 72
     4
 94
        3
 73
     0
 74
     0
 95
       11
 96
        7
 40
0.0
 40
0.0
 40
0.0
 40
0.0
 40
1.0
 40
1.0
 40
1.0
 40
2.0
 40
2.0
 40
2.0
 40
2.0
 10
4.814869084838164
 20
-2.593603373082676
 10
4.843916017006423
 20
-2.595022489824246
 10
4.818263279303815
 20
-2.633899867108753
 10
4.799975770051105
 20
-2.615760960169318
 10
4.787061150152137
 20
-2.603790045004984
 10
4.800223074465722
 20
-2.590081666495064
 10
4.814869084838164
 20
-2.593603373082676
 97
        0
 97
        1
330
84
 92
        1
 93
        1
 72
     4
 94
        3
 73
     0
 74
     0
 95
       11
 96
        7
 40
0.0
 40
0.0
 40
0.0
 40
0.0
 40
1.0
 40
1.0
 40
1.0
 40
2.0
 40
2.0
 40
2.0
 40
2.0
 10
4.814869084838164
 20
-2.547813442527121
 10
4.861150928853627
 20
-2.539318211366548
 10
4.828940477421357
 20
-2.52494941953484
 10
4.802467321957692
 20
-2.52303389142542
 10
4.78497017559112
 20
-2.521161454805867
 10
4.799613738887956
 20
-2.552828392776607
 10
4.814869084838164
 20
-2.547813442527121
 97
        0
 97
        1
330
85
 92
        1
 93
        1
 72
     4
 94
        3
 73
     0
 74
     0
 95
       17
 96
       13
 40
0.0
 40
0.0
 40
0.0
 40
0.0
 40
1.0
 40
1.0
 40
1.0
 40
2.0
 40
2.0
 40
2.0
 40
3.0
 40
3.0
 40
3.0
 40
4.0
 40
4.0
 40
4.0
 40
4.0
 10
4.86065901539372
 20
-2.632977830547954
 10
5.002738027270752
 20
-2.659981248997521
 10
4.79299970389651
 20
-2.793153133336179
 10
4.821992751223357
 20
-2.663301798097121
 10
4.799209828784872
 20
-2.640580039096839
 10
4.746964962101628
 20
-2.695287046959833
 10
4.765582458643797
 20
-2.601027147747761
 10
4.7529423615727
 20
-2.515482721031364
 10
4.812832218727963
 20
-2.588550899971361
 10
4.782765996183065
 20
-2.629631132591422
 10
4.778486782978133
 20
-2.659679762001978
 10
4.840042663761929
 20
-2.622189942206318
 10
4.86065901539372
 20
-2.632977830547954
 97
        0
 97
        1
330
86
 92
        1
 93
        1
 72
     4
 94
        3
 73
     0
 74
     0
 95
       11
 96
        7
 40
0.0
 40
0.0
 40
0.0
 40
0.0
 40
1.0
 40
1.0
 40
1.0
 40
2.0
 40
2.0
 40
2.0
 40
2.0
 10
4.867359319213164
 20
-2.521554761971565
 10
4.8239632189253
 20
-2.602175799226882
 10
4.783530571002655
 20
-2.562981629762854
 10
4.768757757768071
 20
-2.509303511071026
 10
4.794519481325929
 20
-2.514152150241379
 10
4.861049527947468
 20
-2.492618275877816
 10
4.867359319213164
 20
-2.521554761971565
 97
        0
 97
        1
330
87
 75
     2
 76
     1
 98
        1
 10
0.0
 20
0.0
450
        0
451
        0
460
0.0
461
0.0
452
        0
462
0.0
453
        0
470

  0
SPLINE
  5
89
330
7C
100
AcDbEntity
  8
Poneglyph
100
AcDbSpline
210
0.0
220
0.0
230
1.0
 70
     9
 71
     3
 72
    11
 73
     7
 74
     0
 42
0.0000000001
 43
0.0000000001
 40
0.0
 40
0.0
 40
0.0
 40
0.0
 40
1.0
 40
1.0
 40
1.0
 40
2.0
 40
2.0
 40
2.0
 40
2.0
 10
5.160477266261775
 20
-2.64776414287913
 30
0.0
 10
5.16015400679579
 20
-2.66588492465592
 30
0.0
 10
5.129244823577967
 20
-2.663128963863995
 30
0.0
 10
5.128684681348204
 20
-2.647763741892718
 30
0.0
 10
5.129239751894147
 20
-2.632387594192841
 30
0.0
 10
5.160163761298993
 20
-2.629630284840497
 30
0.0
 10
5.160477266261775
 20
-2.64776414287913
 30
0.0
  0
SPLINE
  5
8A
330
7C
100
AcDbEntity
  8
Poneglyph
100
AcDbSpline
210
0.0
220
0.0
230
1.0
 70
     9
 71
     3
 72
    35
 73
    31
 74
     0
 42
0.0000000001
 43
0.0000000001
 40
0.0
 40
0.0
 40
0.0
 40
0.0
 40
1.0
 40
1.0
 40
1.0
 40
2.0
 40
2.0
 40
2.0
 40
3.0
 40
3.0
 40
3.0
 40
4.0
 40
4.0
 40
4.0
 40
5.0
 40
5.0
 40
5.0
 40
6.0
 40
6.0
 40
6.0
 40
7.0
 40
7.0
 40
7.0
 40
8.0
 40
8.0
 40
8.0
 40
9.0
 40
9.0
 40
9.0
 40
10.0
 40
10.0
 40
10.0
 40
10.0
 10
5.21820296070622
 20
-2.507912254858297
 30
0.0
 10
5.279273152281423
 20
-2.643184635647748
 30
0.0
 10
5.177324148233613
 20
-2.562949901261781
 30
0.0
 10
5.131449939432084
 20
-2.602361421585037
 30
0.0
 10
5.157343230299425
 20
-2.609677910339908
 30
0.0
 10
5.205196017822092
 20
-2.59250212876442
 30
0.0
 10
5.224065326258091
 20
-2.609669500856158
 30
0.0
 10
5.22034890842489
 20
-2.648836446351512
 30
0.0
 10
5.259221290951245
 20
-2.730233098955864
 30
0.0
 10
5.192270072930341
 20
-2.717614084454617
 30
0.0
 10
5.167359521014128
 20
-2.696729039205681
 30
0.0
 10
5.208752211040669
 20
-2.705518998712566
 30
0.0
 10
5.207733358983887
 20
-2.691334735235399
 30
0.0
 10
5.195188685615398
 20
-2.668437434602474
 30
0.0
 10
5.225695204741971
 20
-2.61356433279516
 30
0.0
 10
5.185860547109314
 20
-2.622238101924633
 30
0.0
 10
5.067726259251407
 20
-2.630155253815056
 30
0.0
 10
5.087156629965445
 20
-2.568052164298769
 30
0.0
 10
5.192282986201083
 20
-2.571482953798383
 30
0.0
 10
5.225668121177148
 20
-2.584689702111177
 30
0.0
 10
5.221617252379195
 20
-2.502545735819808
 30
0.0
 10
5.189060997533639
 20
-2.530658555653733
 30
0.0
 10
5.155346337227683
 20
-2.591569052218915
 30
0.0
 10
5.135915795349167
 20
-2.508400715332716
 30
0.0
 10
5.127947068368635
 20
-2.551491284572307
 30
0.0
 10
5.077523304558149
 20
-2.556502717571359
 30
0.0
 10
5.14115198594373
 20
-2.476746981604706
 30
0.0
 10
5.157396711158475
 20
-2.522784872853978
 30
0.0
 10
5.174940643394089
 20
-2.521045543721849
 30
0.0
 10
5.19450043999038
 20
-2.494854732957277
 30
0.0
 10
5.21820296070622
 20
-2.507912254858297
 30
0.0
  0
SPLINE
  5
8B
330
7C
100
AcDbEntity
  8
Poneglyph
100
AcDbSpline
210
0.0
220
0.0
230
1.0
 70
     9
 71
     3
 72
    11
 73
     7
 74
     0
 42
0.0000000001
 43
0.0000000001
 40
0.0
 40
0.0
 40
0.0
 40
0.0
 40
1.0
 40
1.0
 40
1.0
 40
2.0
 40
2.0
 40
2.0
 40
2.0
 10
5.18585432789372
 20
-2.68597215069163
 30
0.0
 10
5.189552557055725
 20
-2.706948716727121
 30
0.0
 10
5.047552142689331
 20
-2.709740503809712
 30
0.0
 10
5.075312334980758
 20
-2.677180398116471
 30
0.0
 10
5.102767537926865
 20
-2.677660356248919
 30
0.0
 10
5.172986873414073
 20
-2.661649530189669
 30
0.0
 10
5.18585432789372
 20
-2.68597215069163
 30
0.0
  0
SPLINE
  5
8C
330
7C
100
AcDbEntity
  8
Poneglyph
100
AcDbSpline
210
0.0
220
0.0
230
1.0
 70
     9
 71
     3
 72
    29
 73
    25
 74
     0
 42
0.0000000001
 43
0.0000000001
 40
0.0
 40
0.0
 40
0.0
 40
0.0
 40
1.0
 40
1.0
 40
1.0
 40
2.0
 40
2.0
 40
2.0
 40
3.0
 40
3.0
 40
3.0
 40
4.0
 40
4.0
 40
4.0
 40
5.0
 40
5.0
 40
5.0
 40
6.0
 40
6.0
 40
6.0
 40
7.0
 40
7.0
 40
7.0
 40
8.0
 40
8.0
 40
8.0
 40
8.0
 10
5.084061250636775
 20
-2.660445892011074
 30
0.0
 10
5.027085187496393
 20
-2.633228779272624
 30
0.0
 10
5.054215872612858
 20
-2.680005373572422
 30
0.0
 10
5.042063746932348
 20
-2.713539941586115
 30
0.0
 10
5.009384237256552
 20
-2.730839646154954
 30
0.0
 10
5.025217334009362
 20
-2.664767510299661
 30
0.0
 10
5.027182819132677
 20
-2.647620620174683
 30
0.0
 10
5.030890380466896
 20
-2.601411213220078
 30
0.0
 10
5.014421523535373
 20
-2.547335072915795
 30
0.0
 10
5.033300567178129
 20
-2.507909669438062
 30
0.0
 10
5.050192597545699
 20
-2.526443019391118
 30
0.0
 10
5.043040881290683
 20
-2.565158481589643
 30
0.0
 10
5.084151512770327
 20
-2.558359641095307
 30
0.0
 10
5.044297450254058
 20
-2.506206961645969
 30
0.0
 10
5.140293879200068
 20
-2.562775609785439
 30
0.0
 10
5.093031335306906
 20
-2.573834484381816
 30
0.0
 10
5.076218089649905
 20
-2.577088907260341
 30
0.0
 10
5.033058960292363
 20
-2.559564525937692
 30
0.0
 10
5.045853770671631
 20
-2.590439600276201
 30
0.0
 10
5.049574006904271
 20
-2.609131222187657
 30
0.0
 10
5.031650024083445
 20
-2.64786343983245
 30
0.0
 10
5.065099116564068
 20
-2.635065391359034
 30
0.0
 10
5.101700361434394
 20
-2.62335079345112
 30
0.0
 10
5.142280880781981
 20
-2.660996622882887
 30
0.0
 10
5.084061250636775
 20
-2.660445892011074
 30
0.0
  0
HATCH
  5
8D
330
7C
100
AcDbEntity
  8
Poneglyph
 62
   250
420
  2301728
440
 33554687
100
AcDbHatch
 10
0.0
 20
0.0
 30
0.0
210
0.0
220
0.0
230
1.0
  2
SOLID
 70
     1
 71
     1
 91
        4
 92
        1
 93
        1
 72
     4
 94
        3
 73
     0
 74
     0
 95
       11
 96
        7
 40
0.0
 40
0.0
 40
0.0
 40
0.0
 40
1.0
 40
1.0
 40
1.0
 40
2.0
 40
2.0
 40
2.0
 40
2.0
 10
5.160477266261775
 20
-2.64776414287913
 10
5.16015400679579
 20
-2.66588492465592
 10
5.129244823577967
 20
-2.663128963863995
 10
5.128684681348204
 20
-2.647763741892718
 10
5.129239751894147
 20
-2.632387594192841
 10
5.160163761298993
 20
-2.629630284840497
 10
5.160477266261775
 20
-2.64776414287913
 97
        0
 97
        1
330
89
 92
        1
 93
        1
 72
     4
 94
        3
 73
     0
 74
     0
 95
       35
 96
       31
 40
0.0
 40
0.0
 40
0.0
 40
0.0
 40
1.0
 40
1.0
 40
1.0
 40
2.0
 40
2.0
 40
2.0
 40
3.0
 40
3.0
 40
3.0
 40
4.0
 40
4.0
 40
4.0
 40
5.0
 40
5.0
 40
5.0
 40
6.0
 40
6.0
 40
6.0
 40
7.0
 40
7.0
 40
7.0
 40
8.0
 40
8.0
 40
8.0
 40
9.0
 40
9.0
 40
9.0
 40
10.0
 40
10.0
 40
10.0
 40
10.0
 10
5.21820296070622
 20
-2.507912254858297
 10
5.279273152281423
 20
-2.643184635647748
 10
5.177324148233613
 20
-2.562949901261781
 10
5.131449939432084
 20
-2.602361421585037
 10
5.157343230299425
 20
-2.609677910339908
 10
5.205196017822092
 20
-2.59250212876442
 10
5.224065326258091
 20
-2.609669500856158
 10
5.22034890842489
 20
-2.648836446351512
 10
5.259221290951245
 20
-2.730233098955864
 10
5.192270072930341
 20
-2.717614084454617
 10
5.167359521014128
 20
-2.696729039205681
 10
5.208752211040669
 20
-2.705518998712566
 10
5.207733358983887
 20
-2.691334735235399
 10
5.195188685615398
 20
-2.668437434602474
 10
5.225695204741971
 20
-2.61356433279516
 10
5.185860547109314
 20
-2.622238101924633
 10
5.067726259251407
 20
-2.630155253815056
 10
5.087156629965445
 20
-2.568052164298769
 10
5.192282986201083
 20
-2.571482953798383
 10
5.225668121177148
 20
-2.584689702111177
 10
5.221617252379195
 20
-2.502545735819808
 10
5.189060997533639
 20
-2.530658555653733
 10
5.155346337227683
 20
-2.591569052218915
 10
5.135915795349167
 20
-2.508400715332716
 10
5.127947068368635
 20
-2.551491284572307
 10
5.077523304558149
 20
-2.556502717571359
 10
5.14115198594373
 20
-2.476746981604706
 10
5.157396711158475
 20
-2.522784872853978
 10
5.174940643394089
 20
-2.521045543721849
 10
5.19450043999038
 20
-2.494854732957277
 10
5.21820296070622
 20
-2.507912254858297
 97
        0
 97
        1
330
8A
 92
        1
 93
        1
 72
     4
 94
        3
 73
     0
 74
     0
 95
       11
 96
        7
 40
0.0
 40
0.0
 40
0.0
 40
0.0
 40
1.0
 40
1.0
 40
1.0
 40
2.0
 40
2.0
 40
2.0
 40
2.0
 10
5.18585432789372
 20
-2.68597215069163
 10
5.189552557055725
 20
-2.706948716727121
 10
5.047552142689331
 20
-2.709740503809712
 10
5.075312334980758
 20
-2.677180398116471
 10
5.102767537926865
 20
-2.677660356248919
 10
5.172986873414073
 20
-2.661649530189669
 10
5.18585432789372
 20
-2.68597215069163
 97
        0
 97
        1
330
8B
 92
        1
 93
        1
 72
     4
 94
        3
 73
     0
 74
     0
 95
       29
 96
       25
 40
0.0
 40
0.0
 40
0.0
 40
0.0
 40
1.0
 40
1.0
 40
1.0
 40
2.0
 40
2.0
 40
2.0
 40
3.0
 40
3.0
 40
3.0
 40
4.0
 40
4.0
 40
4.0
 40
5.0
 40
5.0
 40
5.0
 40
6.0
 40
6.0
 40
6.0
 40
7.0
 40
7.0
 40
7.0
 40
8.0
 40
8.0
 40
8.0
 40
8.0
 10
5.084061250636775
 20
-2.660445892011074
 10
5.027085187496393
 20
-2.633228779272624
 10
5.054215872612858
 20
-2.680005373572422
 10
5.042063746932348
 20
-2.713539941586115
 10
5.009384237256552
 20
-2.730839646154954
 10
5.025217334009362
 20
-2.664767510299661
 10
5.027182819132677
 20
-2.647620620174683
 10
5.030890380466896
 20
-2.601411213220078
 10
5.014421523535373
 20
-2.547335072915795
 10
5.033300567178129
 20
-2.507909669438062
 10
5.050192597545699
 20
-2.526443019391118
 10
5.043040881290683
 20
-2.565158481589643
 10
5.084151512770327
 20
-2.558359641095307
 10
5.044297450254058
 20
-2.506206961645969
 10
5.140293879200068
 20
-2.562775609785439
 10
5.093031335306906
 20
-2.573834484381816
 10
5.076218089649905
 20
-2.577088907260341
 10
5.033058960292363
 20
-2.559564525937692
 10
5.045853770671631
 20
-2.590439600276201
 10
5.049574006904271
 20
-2.609131222187657
 10
5.031650024083445
 20
-2.64786343983245
 10
5.065099116564068
 20
-2.635065391359034
 10
5.101700361434394
 20
-2.62335079345112
 10
5.142280880781981
 20
-2.660996622882887
 10
5.084061250636775
 20
-2.660445892011074
 97
        0
 97
        1
330
8C
 75
     2
 76
     1
 98
        1
 10
0.0
 20
0.0
450
        0
451
        0
460
0.0
461
0.0
452
        0
462
0.0
453
        0
470

  0
SPLINE
  5
8E
330
7C
100
AcDbEntity
  8
Poneglyph
100
AcDbSpline
210
0.0
220
0.0
230
1.0
 70
     9
 71
     3
 72
    11
 73
     7
 74
     0
 42
0.0000000001
 43
0.0000000001
 40
0.0
 40
0.0
 40
0.0
 40
0.0
 40
1.0
 40
1.0
 40
1.0
 40
2.0
 40
2.0
 40
2.0
 40
2.0
 10
5.43609846851872
 20
-2.69113012211369
 30
0.0
 10
5.452890523288664
 20
-2.69144851145999
 30
0.0
 10
5.452887833578339
 20
-2.717062432805202
 30
0.0
 10
5.436096918091632
 20
-2.717375205612067
 30
0.0
 10
5.419312282444201
 20
-2.71704517773479
 30
0.0
 10
5.419306976564585
 20
-2.691458876790572
 30
0.0
 10
5.43609846851872
 20
-2.69113012211369
 30
0.0
  0
SPLINE
  5
8F
330
7C
100
AcDbEntity
  8
Poneglyph
100
AcDbSpline
210
0.0
220
0.0
230
1.0
 70
     9
 71
     3
 72
    11
 73
     7
 74
     0
 42
0.0000000001
 43
0.0000000001
 40
0.0
 40
0.0
 40
0.0
 40
0.0
 40
1.0
 40
1.0
 40
1.0
 40
2.0
 40
2.0
 40
2.0
 40
2.0
 10
5.43609846851872
 20
-2.678285612565079
 30
0.0
 10
5.414264197618749
 20
-2.675761894587417
 30
0.0
 10
5.414751608513268
 20
-2.584507216900823
 30
0.0
 10
5.436082379212848
 20
-2.579706755859306
 30
0.0
 10
5.457458072540323
 20
-2.584433134829471
 30
0.0
 10
5.457911922986264
 20
-2.675579059446893
 30
0.0
 10
5.43609846851872
 20
-2.678285612565079
 30
0.0
  0
SPLINE
  5
90
330
7C
100
AcDbEntity
  8
Poneglyph
100
AcDbSpline
210
0.0
220
0.0
230
1.0
 70
     9
 71
     3
 72
    20
 73
    16
 74
     0
 42
0.0000000001
 43
0.0000000001
 40
0.0
 40
0.0
 40
0.0
 40
0.0
 40
1.0
 40
1.0
 40
1.0
 40
2.0
 40
2.0
 40
2.0
 40
3.0
 40
3.0
 40
3.0
 40
4.0
 40
4.0
 40
4.0
 40
5.0
 40
5.0
 40
5.0
 40
5.0
 10
5.481888399074275
 20
-2.546748069162302
 30
0.0
 10
5.514238039741763
 20
-2.544866941454554
 30
0.0
 10
5.491381018290616
 20
-2.79283018406012
 30
0.0
 10
5.471968159843223
 20
-2.696814201646045
 30
0.0
 10
5.472297210167147
 20
-2.660288034682884
 30
0.0
 10
5.477071784717458
 20
-2.617238527819532
 30
0.0
 10
5.47445925947055
 20
-2.576356941424844
 30
0.0
 10
5.47214575082752
 20
-2.550910858234651
 30
0.0
 10
5.435136032434203
 20
-2.579532723992694
 30
0.0
 10
5.429395277448596
 20
-2.559879228610346
 30
0.0
 10
5.422511579503153
 20
-2.546178000895426
 30
0.0
 10
5.421402207012205
 20
-2.491499123710253
 30
0.0
 10
5.441782768133154
 20
-2.505031177724428
 30
0.0
 10
5.439326664139267
 20
-2.538652144764253
 30
0.0
 10
5.445904804696586
 20
-2.554809511002379
 30
0.0
 10
5.481888399074275
 20
-2.546748069162302
 30
0.0
  0
SPLINE
  5
91
330
7C
100
AcDbEntity
  8
Poneglyph
100
AcDbSpline
210
0.0
220
0.0
230
1.0
 70
     9
 71
     3
 72
    11
 73
     7
 74
     0
 42
0.0000000001
 43
0.0000000001
 40
0.0
 40
0.0
 40
0.0
 40
0.0
 40
1.0
 40
1.0
 40
1.0
 40
2.0
 40
2.0
 40
2.0
 40
2.0
 10
5.344220213310387
 20
-2.68441625492619
 30
0.0
 10
5.318842040496721
 20
-2.686607102137486
 30
0.0
 10
5.318996983671922
 20
-2.656427658614271
 30
0.0
 10
5.344222666906085
 20
-2.658456128861947
 30
0.0
 10
5.367791495952612
 20
-2.65952368626626
 30
0.0
 10
5.368097750734705
 20
-2.683751612210269
 30
0.0
 10
5.344220213310387
 20
-2.68441625492619
 30
0.0
  0
SPLINE
  5
92
330
7C
100
AcDbEntity
  8
Poneglyph
100
AcDbSpline
210
0.0
220
0.0
230
1.0
 70
     9
 71
     3
 72
    11
 73
     7
 74
     0
 42
0.0000000001
 43
0.0000000001
 40
0.0
 40
0.0
 40
0.0
 40
0.0
 40
1.0
 40
1.0
 40
1.0
 40
2.0
 40
2.0
 40
2.0
 40
2.0
 10
5.32439051919328
 20
-2.638626324370635
 30
0.0
 10
5.224992951112931
 20
-2.699780404680899
 30
0.0
 10
5.433828817979474
 20
-2.727564854526387
 30
0.0
 10
5.377186729366384
 20
-2.651751867610351
 30
0.0
 10
5.370338198864778
 20
-2.632262435810262
 30
0.0
 10
5.340591414230604
 20
-2.64010757056
 30
0.0
 10
5.32439051919328
 20
-2.638626324370635
 30
0.0
  0
SPLINE
  5
93
330
7C
100
AcDbEntity
  8
Poneglyph
100
AcDbSpline
210
0.0
220
0.0
230
1.0
 70
     9
 71
     3
 72
    11
 73
     7
 74
     0
 42
0.0000000001
 43
0.0000000001
 40
0.0
 40
0.0
 40
0.0
 40
0.0
 40
1.0
 40
1.0
 40
1.0
 40
2.0
 40
2.0
 40
2.0
 40
2.0
 10
5.31769026539372
 20
-2.71737523930119
 30
0.0
 10
5.239339947780384
 20
-2.688038645139638
 30
0.0
 10
5.293807115506246
 20
-2.599514782919792
 30
0.0
 10
5.363770843118977
 20
-2.618806616104494
 30
0.0
 10
5.454396836333115
 20
-2.648115984939926
 30
0.0
 10
5.392156186421061
 20
-2.737555936947096
 30
0.0
 10
5.31769026539372
 20
-2.71737523930119
 30
0.0
  0
SPLINE
  5
94
330
7C
100
AcDbEntity
  8
Poneglyph
100
AcDbSpline
210
0.0
220
0.0
230
1.0
 70
     9
 71
     3
 72
    17
 73
    13
 74
     0
 42
0.0000000001
 43
0.0000000001
 40
0.0
 40
0.0
 40
0.0
 40
0.0
 40
1.0
 40
1.0
 40
1.0
 40
2.0
 40
2.0
 40
2.0
 40
3.0
 40
3.0
 40
3.0
 40
4.0
 40
4.0
 40
4.0
 40
4.0
 10
5.357349553588164
 20
-2.573006749717857
 30
0.0
 10
5.386562183743586
 20
-2.578436975956265
 30
0.0
 10
5.385000833597334
 20
-2.555272704950918
 30
0.0
 10
5.38359057678119
 20
-2.533913237990165
 30
0.0
 10
5.35721644265666
 20
-2.520250861595766
 30
0.0
 10
5.320709905115513
 20
-2.530052145877258
 30
0.0
 10
5.291730669099099
 20
-2.527198874188494
 30
0.0
 10
5.245292408746863
 20
-2.500613665819703
 30
0.0
 10
5.399336352494097
 20
-2.494181543615392
 30
0.0
 10
5.402263739163168
 20
-2.524723728640967
 30
0.0
 10
5.45044072489198
 20
-2.65212920374059
 30
0.0
 10
5.157452663552374
 20
-2.566019871687128
 30
0.0
 10
5.357349553588164
 20
-2.573006749717857
 30
0.0
  0
HATCH
  5
95
330
7C
100
AcDbEntity
  8
Poneglyph
 62
   250
420
  2301728
440
 33554687
100
AcDbHatch
 10
0.0
 20
0.0
 30
0.0
210
0.0
220
0.0
230
1.0
  2
SOLID
 70
     1
 71
     1
 91
        7
 92
        1
 93
        1
 72
     4
 94
        3
 73
     0
 74
     0
 95
       11
 96
        7
 40
0.0
 40
0.0
 40
0.0
 40
0.0
 40
1.0
 40
1.0
 40
1.0
 40
2.0
 40
2.0
 40
2.0
 40
2.0
 10
5.43609846851872
 20
-2.69113012211369
 10
5.452890523288664
 20
-2.69144851145999
 10
5.452887833578339
 20
-2.717062432805202
 10
5.436096918091632
 20
-2.717375205612067
 10
5.419312282444201
 20
-2.71704517773479
 10
5.419306976564585
 20
-2.691458876790572
 10
5.43609846851872
 20
-2.69113012211369
 97
        0
 97
        1
330
8E
 92
        1
 93
        1
 72
     4
 94
        3
 73
     0
 74
     0
 95
       11
 96
        7
 40
0.0
 40
0.0
 40
0.0
 40
0.0
 40
1.0
 40
1.0
 40
1.0
 40
2.0
 40
2.0
 40
2.0
 40
2.0
 10
5.43609846851872
 20
-2.678285612565079
 10
5.414264197618749
 20
-2.675761894587417
 10
5.414751608513268
 20
-2.584507216900823
 10
5.436082379212848
 20
-2.579706755859306
 10
5.457458072540323
 20
-2.584433134829471
 10
5.457911922986264
 20
-2.675579059446893
 10
5.43609846851872
 20
-2.678285612565079
 97
        0
 97
        1
330
8F
 92
        1
 93
        1
 72
     4
 94
        3
 73
     0
 74
     0
 95
       20
 96
       16
 40
0.0
 40
0.0
 40
0.0
 40
0.0
 40
1.0
 40
1.0
 40
1.0
 40
2.0
 40
2.0
 40
2.0
 40
3.0
 40
3.0
 40
3.0
 40
4.0
 40
4.0
 40
4.0
 40
5.0
 40
5.0
 40
5.0
 40
5.0
 10
5.481888399074275
 20
-2.546748069162302
 10
5.514238039741763
 20
-2.544866941454554
 10
5.491381018290616
 20
-2.79283018406012
 10
5.471968159843223
 20
-2.696814201646045
 10
5.472297210167147
 20
-2.660288034682884
 10
5.477071784717458
 20
-2.617238527819532
 10
5.47445925947055
 20
-2.576356941424844
 10
5.47214575082752
 20
-2.550910858234651
 10
5.435136032434203
 20
-2.579532723992694
 10
5.429395277448596
 20
-2.559879228610346
 10
5.422511579503153
 20
-2.546178000895426
 10
5.421402207012205
 20
-2.491499123710253
 10
5.441782768133154
 20
-2.505031177724428
 10
5.439326664139267
 20
-2.538652144764253
 10
5.445904804696586
 20
-2.554809511002379
 10
5.481888399074275
 20
-2.546748069162302
 97
        0
 97
        1
330
90
 92
        1
 93
        1
 72
     4
 94
        3
 73
     0
 74
     0
 95
       11
 96
        7
 40
0.0
 40
0.0
 40
0.0
 40
0.0
 40
1.0
 40
1.0
 40
1.0
 40
2.0
 40
2.0
 40
2.0
 40
2.0
 10
5.344220213310387
 20
-2.68441625492619
 10
5.318842040496721
 20
-2.686607102137486
 10
5.318996983671922
 20
-2.656427658614271
 10
5.344222666906085
 20
-2.658456128861947
 10
5.367791495952612
 20
-2.65952368626626
 10
5.368097750734705
 20
-2.683751612210269
 10
5.344220213310387
 20
-2.68441625492619
 97
        0
 97
        1
330
91
 92
        1
 93
        1
 72
     4
 94
        3
 73
     0
 74
     0
 95
       11
 96
        7
 40
0.0
 40
0.0
 40
0.0
 40
0.0
 40
1.0
 40
1.0
 40
1.0
 40
2.0
 40
2.0
 40
2.0
 40
2.0
 10
5.32439051919328
 20
-2.638626324370635
 10
5.224992951112931
 20
-2.699780404680899
 10
5.433828817979474
 20
-2.727564854526387
 10
5.377186729366384
 20
-2.651751867610351
 10
5.370338198864778
 20
-2.632262435810262
 10
5.340591414230604
 20
-2.64010757056
 10
5.32439051919328
 20
-2.638626324370635
 97
        0
 97
        1
330
92
 92
        1
 93
        1
 72
     4
 94
        3
 73
     0
 74
     0
 95
       11
 96
        7
 40
0.0
 40
0.0
 40
0.0
 40
0.0
 40
1.0
 40
1.0
 40
1.0
 40
2.0
 40
2.0
 40
2.0
 40
2.0
 10
5.31769026539372
 20
-2.71737523930119
 10
5.239339947780384
 20
-2.688038645139638
 10
5.293807115506246
 20
-2.599514782919792
 10
5.363770843118977
 20
-2.618806616104494
 10
5.454396836333115
 20
-2.648115984939926
 10
5.392156186421061
 20
-2.737555936947096
 10
5.31769026539372
 20
-2.71737523930119
 97
        0
 97
        1
330
93
 92
        1
 93
        1
 72
     4
 94
        3
 73
     0
 74
     0
 95
       17
 96
       13
 40
0.0
 40
0.0
 40
0.0
 40
0.0
 40
1.0
 40
1.0
 40
1.0
 40
2.0
 40
2.0
 40
2.0
 40
3.0
 40
3.0
 40
3.0
 40
4.0
 40
4.0
 40
4.0
 40
4.0
 10
5.357349553588164
 20
-2.573006749717857
 10
5.386562183743586
 20
-2.578436975956265
 10
5.385000833597334
 20
-2.555272704950918
 10
5.38359057678119
 20
-2.533913237990165
 10
5.35721644265666
 20
-2.520250861595766
 10
5.320709905115513
 20
-2.530052145877258
 10
5.291730669099099
 20
-2.527198874188494
 10
5.245292408746863
 20
-2.500613665819703
 10
5.399336352494097
 20
-2.494181543615392
 10
5.402263739163168
 20
-2.524723728640967
 10
5.45044072489198
 20
-2.65212920374059
 10
5.157452663552374
 20
-2.566019871687128
 10
5.357349553588164
 20
-2.573006749717857
 97
        0
 97
        1
330
94
 75
     2
 76
     1
 98
        1
 10
0.0
 20
0.0
450
        0
451
        0
460
0.0
461
0.0
452
        0
462
0.0
453
        0
470

  0
SPLINE
  5
96
330
7C
100
AcDbEntity
  8
Poneglyph
100
AcDbSpline
210
0.0
220
0.0
230
1.0
 70
     9
 71
     3
 72
    11
 73
     7
 74
     0
 42
0.0000000001
 43
0.0000000001
 40
0.0
 40
0.0
 40
0.0
 40
0.0
 40
1.0
 40
1.0
 40
1.0
 40
2.0
 40
2.0
 40
2.0
 40
2.0
 10
5.708532279282608
 20
-2.601854845276799
 30
0.0
 10
5.708122192581968
 20
-2.617633913820074
 30
0.0
 10
5.67692081071694
 20
-2.619980668406191
 30
0.0
 10
5.676739804890934
 20
-2.601854229632509
 30
0.0
 10
5.674125987890798
 20
-2.576052627525263
 30
0.0
 10
5.710714480760998
 20
-2.577862061083755
 30
0.0
 10
5.708532279282608
 20
-2.601854845276799
 30
0.0
  0
SPLINE
  5
97
330
7C
100
AcDbEntity
  8
Poneglyph
100
AcDbSpline
210
0.0
220
0.0
230
1.0
 70
     9
 71
     3
 72
    11
 73
     7
 74
     0
 42
0.0000000001
 43
0.0000000001
 40
0.0
 40
0.0
 40
0.0
 40
0.0
 40
1.0
 40
1.0
 40
1.0
 40
2.0
 40
2.0
 40
2.0
 40
2.0
 10
5.606739202025664
 20
-2.633837267151799
 30
0.0
 10
5.622841597251206
 20
-2.612678236120321
 30
0.0
 10
5.779338739547837
 20
-2.634745344191792
 30
0.0
 10
5.683155120095205
 20
-2.646485368554976
 30
0.0
 10
5.661945434390923
 20
-2.641241537127118
 30
0.0
 10
5.61513131799754
 20
-2.659621282972743
 30
0.0
 10
5.606739202025664
 20
-2.633837267151799
 30
0.0
  0
SPLINE
  5
98
330
7C
100
AcDbEntity
  8
Poneglyph
100
AcDbSpline
210
0.0
220
0.0
230
1.0
 70
     9
 71
     3
 72
    11
 73
     7
 74
     0
 42
0.0000000001
 43
0.0000000001
 40
0.0
 40
0.0
 40
0.0
 40
0.0
 40
1.0
 40
1.0
 40
1.0
 40
2.0
 40
2.0
 40
2.0
 40
2.0
 10
5.600323728935387
 20
-2.544685248922633
 30
0.0
 10
5.628111471133302
 20
-2.549903713614361
 30
0.0
 10
5.603717730258343
 20
-2.582223347066777
 30
0.0
 10
5.586175825248068
 20
-2.566125471632631
 30
0.0
 10
5.574182441137003
 20
-2.556277323208026
 30
0.0
 10
5.58691179345745
 20
-2.54337791460211
 30
0.0
 10
5.600323728935387
 20
-2.544685248922633
 30
0.0
  0
SPLINE
  5
99
330
7C
100
AcDbEntity
  8
Poneglyph
100
AcDbSpline
210
0.0
220
0.0
230
1.0
 70
     9
 71
     3
 72
    11
 73
     7
 74
     0
 42
0.0000000001
 43
0.0000000001
 40
0.0
 40
0.0
 40
0.0
 40
0.0
 40
1.0
 40
1.0
 40
1.0
 40
2.0
 40
2.0
 40
2.0
 40
2.0
 10
5.600323728935387
 20
-2.58930872982541
 30
0.0
 10
5.638940247069361
 20
-2.592469613492565
 30
0.0
 10
5.645971442998617
 20
-2.533861374229218
 30
0.0
 10
5.609952495251314
 20
-2.5261713222628
 30
0.0
 10
5.559121142712405
 20
-2.510852278808265
 30
0.0
 10
5.547402288975667
 20
-2.588709269858529
 30
0.0
 10
5.600323728935387
 20
-2.58930872982541
 30
0.0
  0
SPLINE
  5
9A
330
7C
100
AcDbEntity
  8
Poneglyph
100
AcDbSpline
210
0.0
220
0.0
230
1.0
 70
     9
 71
     3
 72
    32
 73
    28
 74
     0
 42
0.0000000001
 43
0.0000000001
 40
0.0
 40
0.0
 40
0.0
 40
0.0
 40
1.0
 40
1.0
 40
1.0
 40
2.0
 40
2.0
 40
2.0
 40
3.0
 40
3.0
 40
3.0
 40
4.0
 40
4.0
 40
4.0
 40
5.0
 40
5.0
 40
5.0
 40
6.0
 40
6.0
 40
6.0
 40
7.0
 40
7.0
 40
7.0
 40
8.0
 40
8.0
 40
8.0
 40
9.0
 40
9.0
 40
9.0
 40
9.0
 10
5.74032481400483
 20
-2.55110072201291
 30
0.0
 10
5.766181586859627
 20
-2.562327382022557
 30
0.0
 10
5.730140438672933
 20
-2.804805525290046
 30
0.0
 10
5.726746671283156
 20
-2.686000218159809
 30
0.0
 10
5.708820149844869
 20
-2.66553713853927
 30
0.0
 10
5.65193651996929
 20
-2.684467847766907
 30
0.0
 10
5.632118057276657
 20
-2.684668614913309
 30
0.0
 10
5.623491534605919
 20
-2.703016788283775
 30
0.0
 10
5.611851504531714
 20
-2.740460724098182
 30
0.0
 10
5.606721670579241
 20
-2.691094447892055
 30
0.0
 10
5.592164782629323
 20
-2.611781990632279
 30
0.0
 10
5.735929879383724
 20
-2.705852315507702
 30
0.0
 10
5.72676569762421
 20
-2.63915700376818
 30
0.0
 10
5.726736189860477
 20
-2.549702390813965
 30
0.0
 10
5.717359002915726
 20
-2.597073051507044
 30
0.0
 10
5.65747912261645
 20
-2.557244697505893
 30
0.0
 10
5.650267499757697
 20
-2.616386348194307
 30
0.0
 10
5.576815938360444
 20
-2.624232628081901
 30
0.0
 10
5.545049160550584
 20
-2.581288026115594
 30
0.0
 10
5.523955058780807
 20
-2.510875903771951
 30
0.0
 10
5.621415333889419
 20
-2.472854462345998
 30
0.0
 10
5.651081499525692
 20
-2.538277576145244
 30
0.0
 10
5.651319358702013
 20
-2.519526857217872
 30
0.0
 10
5.654915282262991
 20
-2.490691814665625
 30
0.0
 10
5.676751818739426
 20
-2.512892425640226
 30
0.0
 10
5.655976183635806
 20
-2.5757451011544
 30
0.0
 10
5.715070890996583
 20
-2.54487656567024
 30
0.0
 10
5.74032481400483
 20
-2.55110072201291
 30
0.0
  0
SPLINE
  5
9B
330
7C
100
AcDbEntity
  8
Poneglyph
100
AcDbSpline
210
0.0
220
0.0
230
1.0
 70
     9
 71
     3
 72
    17
 73
    13
 74
     0
 42
0.0000000001
 43
0.0000000001
 40
0.0
 40
0.0
 40
0.0
 40
0.0
 40
1.0
 40
1.0
 40
1.0
 40
2.0
 40
2.0
 40
2.0
 40
3.0
 40
3.0
 40
3.0
 40
4.0
 40
4.0
 40
4.0
 40
4.0
 10
5.58136214039372
 20
-2.614685791457354
 30
0.0
 10
5.608291433162144
 20
-2.623330632686474
 30
0.0
 10
5.587911503097529
 20
-2.674214319209542
 30
0.0
 10
5.5939171756693
 20
-2.697514088771766
 30
0.0
 10
5.593558307358458
 20
-2.717987652251142
 30
0.0
 10
5.520692361594683
 20
-2.717751690064788
 30
0.0
 10
5.539505221836685
 20
-2.692124443817318
 30
0.0
 10
5.586453087524331
 20
-2.704862805856893
 30
0.0
 10
5.576497731860727
 20
-2.665542932262446
 30
0.0
 10
5.57494751300328
 20
-2.633638730442397
 30
0.0
 10
5.518571923903664
 20
-2.636497520224818
 30
0.0
 10
5.534259021477004
 20
-2.606923975360789
 30
0.0
 10
5.58136214039372
 20
-2.614685791457354
 30
0.0
  0
HATCH
  5
9C
330
7C
100
AcDbEntity
  8
Poneglyph
 62
   250
420
  2301728
440
 33554687
100
AcDbHatch
 10
0.0
 20
0.0
 30
0.0
210
0.0
220
0.0
230
1.0
  2
SOLID
 70
     1
 71
     1
 91
        6
 92
        1
 93
        1
 72
     4
 94
        3
 73
     0
 74
     0
 95
       11
 96
        7
 40
0.0
 40
0.0
 40
0.0
 40
0.0
 40
1.0
 40
1.0
 40
1.0
 40
2.0
 40
2.0
 40
2.0
 40
2.0
 10
5.708532279282608
 20
-2.601854845276799
 10
5.708122192581968
 20
-2.617633913820074
 10
5.67692081071694
 20
-2.619980668406191
 10
5.676739804890934
 20
-2.601854229632509
 10
5.674125987890798
 20
-2.576052627525263
 10
5.710714480760998
 20
-2.577862061083755
 10
5.708532279282608
 20
-2.601854845276799
 97
        0
 97
        1
330
96
 92
        1
 93
        1
 72
     4
 94
        3
 73
     0
 74
     0
 95
       11
 96
        7
 40
0.0
 40
0.0
 40
0.0
 40
0.0
 40
1.0
 40
1.0
 40
1.0
 40
2.0
 40
2.0
 40
2.0
 40
2.0
 10
5.606739202025664
 20
-2.633837267151799
 10
5.622841597251206
 20
-2.612678236120321
 10
5.779338739547837
 20
-2.634745344191792
 10
5.683155120095205
 20
-2.646485368554976
 10
5.661945434390923
 20
-2.641241537127118
 10
5.61513131799754
 20
-2.659621282972743
 10
5.606739202025664
 20
-2.633837267151799
 97
        0
 97
        1
330
97
 92
        1
 93
        1
 72
     4
 94
        3
 73
     0
 74
     0
 95
       11
 96
        7
 40
0.0
 40
0.0
 40
0.0
 40
0.0
 40
1.0
 40
1.0
 40
1.0
 40
2.0
 40
2.0
 40
2.0
 40
2.0
 10
5.600323728935387
 20
-2.544685248922633
 10
5.628111471133302
 20
-2.549903713614361
 10
5.603717730258343
 20
-2.582223347066777
 10
5.586175825248068
 20
-2.566125471632631
 10
5.574182441137003
 20
-2.556277323208026
 10
5.58691179345745
 20
-2.54337791460211
 10
5.600323728935387
 20
-2.544685248922633
 97
        0
 97
        1
330
98
 92
        1
 93
        1
 72
     4
 94
        3
 73
     0
 74
     0
 95
       11
 96
        7
 40
0.0
 40
0.0
 40
0.0
 40
0.0
 40
1.0
 40
1.0
 40
1.0
 40
2.0
 40
2.0
 40
2.0
 40
2.0
 10
5.600323728935387
 20
-2.58930872982541
 10
5.638940247069361
 20
-2.592469613492565
 10
5.645971442998617
 20
-2.533861374229218
 10
5.609952495251314
 20
-2.5261713222628
 10
5.559121142712405
 20
-2.510852278808265
 10
5.547402288975667
 20
-2.588709269858529
 10
5.600323728935387
 20
-2.58930872982541
 97
        0
 97
        1
330
99
 92
        1
 93
        1
 72
     4
 94
        3
 73
     0
 74
     0
 95
       32
 96
       28
 40
0.0
 40
0.0
 40
0.0
 40
0.0
 40
1.0
 40
1.0
 40
1.0
 40
2.0
 40
2.0
 40
2.0
 40
3.0
 40
3.0
 40
3.0
 40
4.0
 40
4.0
 40
4.0
 40
5.0
 40
5.0
 40
5.0
 40
6.0
 40
6.0
 40
6.0
 40
7.0
 40
7.0
 40
7.0
 40
8.0
 40
8.0
 40
8.0
 40
9.0
 40
9.0
 40
9.0
 40
9.0
 10
5.74032481400483
 20
-2.55110072201291
 10
5.766181586859627
 20
-2.562327382022557
 10
5.730140438672933
 20
-2.804805525290046
 10
5.726746671283156
 20
-2.686000218159809
 10
5.708820149844869
 20
-2.66553713853927
 10
5.65193651996929
 20
-2.684467847766907
 10
5.632118057276657
 20
-2.684668614913309
 10
5.623491534605919
 20
-2.703016788283775
 10
5.611851504531714
 20
-2.740460724098182
 10
5.606721670579241
 20
-2.691094447892055
 10
5.592164782629323
 20
-2.611781990632279
 10
5.735929879383724
 20
-2.705852315507702
 10
5.72676569762421
 20
-2.63915700376818
 10
5.726736189860477
 20
-2.549702390813965
 10
5.717359002915726
 20
-2.597073051507044
 10
5.65747912261645
 20
-2.557244697505893
 10
5.650267499757697
 20
-2.616386348194307
 10
5.576815938360444
 20
-2.624232628081901
 10
5.545049160550584
 20
-2.581288026115594
 10
5.523955058780807
 20
-2.510875903771951
 10
5.621415333889419
 20
-2.472854462345998
 10
5.651081499525692
 20
-2.538277576145244
 10
5.651319358702013
 20
-2.519526857217872
 10
5.654915282262991
 20
-2.490691814665625
 10
5.676751818739426
 20
-2.512892425640226
 10
5.655976183635806
 20
-2.5757451011544
 10
5.715070890996583
 20
-2.54487656567024
 10
5.74032481400483
 20
-2.55110072201291
 97
        0
 97
        1
330
9A
 92
        1
 93
        1
 72
     4
 94
        3
 73
     0
 74
     0
 95
       17
 96
       13
 40
0.0
 40
0.0
 40
0.0
 40
0.0
 40
1.0
 40
1.0
 40
1.0
 40
2.0
 40
2.0
 40
2.0
 40
3.0
 40
3.0
 40
3.0
 40
4.0
 40
4.0
 40
4.0
 40
4.0
 10
5.58136214039372
 20
-2.614685791457354
 10
5.608291433162144
 20
-2.623330632686474
 10
5.587911503097529
 20
-2.674214319209542
 10
5.5939171756693
 20
-2.697514088771766
 10
5.593558307358458
 20
-2.717987652251142
 10
5.520692361594683
 20
-2.717751690064788
 10
5.539505221836685
 20
-2.692124443817318
 10
5.586453087524331
 20
-2.704862805856893
 10
5.576497731860727
 20
-2.665542932262446
 10
5.57494751300328
 20
-2.633638730442397
 10
5.518571923903664
 20
-2.636497520224818
 10
5.534259021477004
 20
-2.606923975360789
 10
5.58136214039372
 20
-2.614685791457354
 97
        0
 97
        1
330
9B
 75
     2
 76
     1
 98
        1
 10
0.0
 20
0.0
450
        0
451
        0
460
0.0
461
0.0
452
        0
462
0.0
453
        0
470

  0
SPLINE
  5
9D
330
7C
100
AcDbEntity
  8
Poneglyph
100
AcDbSpline
210
0.0
220
0.0
230
1.0
 70
     9
 71
     3
 72
    11
 73
     7
 74
     0
 42
0.0000000001
 43
0.0000000001
 40
0.0
 40
0.0
 40
0.0
 40
0.0
 40
1.0
 40
1.0
 40
1.0
 40
2.0
 40
2.0
 40
2.0
 40
2.0
 10
5.932531302720108
 20
-2.588471657409602
 30
0.0
 10
5.933711756239668
 20
-2.601696818455871
 30
0.0
 10
5.920523145844754
 20
-2.666798315753339
 30
0.0
 10
5.943594624635579
 20
-2.664459972422087
 30
0.0
 10
5.946196954541846
 20
-2.652649169309774
 30
0.0
 10
5.95716421296639
 20
-2.558702458100065
 30
0.0
 10
5.932531302720108
 20
-2.588471657409602
 30
0.0
  0
SPLINE
  5
9E
330
7C
100
AcDbEntity
  8
Poneglyph
100
AcDbSpline
210
0.0
220
0.0
230
1.0
 70
     9
 71
     3
 72
    17
 73
    13
 74
     0
 42
0.0000000001
 43
0.0000000001
 40
0.0
 40
0.0
 40
0.0
 40
0.0
 40
1.0
 40
1.0
 40
1.0
 40
2.0
 40
2.0
 40
2.0
 40
3.0
 40
3.0
 40
3.0
 40
4.0
 40
4.0
 40
4.0
 40
4.0
 10
5.938946775810387
 20
-2.680634743347102
 30
0.0
 10
5.894510055538047
 20
-2.692683665491838
 30
0.0
 10
5.902441226807948
 20
-2.641776611570397
 30
0.0
 10
5.912700234430277
 20
-2.614725859729433
 30
0.0
 10
5.919240234543975
 20
-2.597125605869804
 30
0.0
 10
5.893126343217267
 20
-2.566691230040532
 30
0.0
 10
5.919696876905744
 20
-2.562225709330479
 30
0.0
 10
5.959069727085559
 20
-2.557890440850744
 30
0.0
 10
5.971221715780958
 20
-2.577652156819643
 30
0.0
 10
5.965183840988225
 20
-2.614734684673647
 30
0.0
 10
5.960457620179592
 20
-2.64073093368913
 30
0.0
 10
5.981766267185169
 20
-2.6914576598617
 30
0.0
 10
5.938946775810387
 20
-2.680634743347102
 30
0.0
  0
SPLINE
  5
9F
330
7C
100
AcDbEntity
  8
Poneglyph
100
AcDbSpline
210
0.0
220
0.0
230
1.0
 70
     9
 71
     3
 72
    11
 73
     7
 74
     0
 42
0.0000000001
 43
0.0000000001
 40
0.0
 40
0.0
 40
0.0
 40
0.0
 40
1.0
 40
1.0
 40
1.0
 40
2.0
 40
2.0
 40
2.0
 40
2.0
 10
5.873612031886775
 20
-2.549395594041546
 30
0.0
 10
5.873933039223453
 20
-2.533009351862523
 30
0.0
 10
5.906107681480382
 20
-2.530371176156525
 30
0.0
 10
5.906286153602422
 20
-2.5493964261863
 30
0.0
 10
5.909102087273165
 20
-2.57617063581079
 30
0.0
 10
5.871361734097212
 20
-2.573880189812901
 30
0.0
 10
5.873612031886775
 20
-2.549395594041546
 30
0.0
  0
SPLINE
  5
A0
330
7C
100
AcDbEntity
  8
Poneglyph
100
AcDbSpline
210
0.0
220
0.0
230
1.0
 70
     9
 71
     3
 72
    23
 73
    19
 74
     0
 42
0.0000000001
 43
0.0000000001
 40
0.0
 40
0.0
 40
0.0
 40
0.0
 40
1.0
 40
1.0
 40
1.0
 40
2.0
 40
2.0
 40
2.0
 40
3.0
 40
3.0
 40
3.0
 40
4.0
 40
4.0
 40
4.0
 40
5.0
 40
5.0
 40
5.0
 40
6.0
 40
6.0
 40
6.0
 40
6.0
 10
6.004864744560387
 20
-2.503307269388768
 30
0.0
 10
6.033143103564725
 20
-2.544174471202343
 30
0.0
 10
5.993839049497359
 20
-2.617061549946684
 30
0.0
 10
6.016686157102791
 20
-2.666201700016876
 30
0.0
 10
6.026565115433489
 20
-2.749370813363561
 30
0.0
 10
5.936935219662396
 20
-2.712518007723449
 30
0.0
 10
5.880020930586472
 20
-2.71972594679404
 30
0.0
 10
5.844522332442389
 20
-2.682163976237916
 30
0.0
 10
5.889936043691199
 20
-2.619642805066102
 30
0.0
 10
5.897382177963233
 20
-2.702816148654897
 30
0.0
 10
6.04443622240779
 20
-2.702731031179736
 30
0.0
 10
5.978157470569385
 20
-2.697846309506151
 30
0.0
 10
5.991460712598836
 20
-2.542673662000399
 30
0.0
 10
5.966207104916975
 20
-2.589879558945439
 30
0.0
 10
5.885323099081561
 20
-2.539710144526856
 30
0.0
 10
5.919696326778344
 20
-2.503301503533445
 30
0.0
 10
5.959545977364465
 20
-2.56151333717811
 30
0.0
 10
5.954984018498079
 20
-2.539129449387119
 30
0.0
 10
6.004864744560387
 20
-2.503307269388768
 30
0.0
  0
SPLINE
  5
A1
330
7C
100
AcDbEntity
  8
Poneglyph
100
AcDbSpline
210
0.0
220
0.0
230
1.0
 70
     9
 71
     3
 72
    17
 73
    13
 74
     0
 42
0.0000000001
 43
0.0000000001
 40
0.0
 40
0.0
 40
0.0
 40
0.0
 40
1.0
 40
1.0
 40
1.0
 40
2.0
 40
2.0
 40
2.0
 40
3.0
 40
3.0
 40
3.0
 40
4.0
 40
4.0
 40
4.0
 40
4.0
 10
5.801278590046497
 20
-2.640975455152657
 30
0.0
 10
5.762222056905784
 20
-2.604331550669788
 30
0.0
 10
5.939987281978877
 20
-2.619146134923034
 30
0.0
 10
5.880029375588289
 20
-2.640977048332186
 30
0.0
 10
5.836394735428888
 20
-2.633127563606017
 30
0.0
 10
5.836613510694633
 20
-2.648530371547091
 30
0.0
 10
5.84096097544188
 20
-2.687072916330003
 30
0.0
 10
5.851383553102778
 20
-2.730521965749352
 30
0.0
 10
5.805458546889338
 20
-2.729442346920854
 30
0.0
 10
5.814692651551543
 20
-2.687062023482162
 30
0.0
 10
5.818592361246676
 20
-2.668018819021982
 30
0.0
 10
5.837883688305181
 20
-2.629527812365469
 30
0.0
 10
5.801278590046497
 20
-2.640975455152657
 30
0.0
  0
SPLINE
  5
A2
330
7C
100
AcDbEntity
  8
Poneglyph
100
AcDbSpline
210
0.0
220
0.0
230
1.0
 70
     9
 71
     3
 72
    20
 73
    16
 74
     0
 42
0.0000000001
 43
0.0000000001
 40
0.0
 40
0.0
 40
0.0
 40
0.0
 40
1.0
 40
1.0
 40
1.0
 40
2.0
 40
2.0
 40
2.0
 40
3.0
 40
3.0
 40
3.0
 40
4.0
 40
4.0
 40
4.0
 40
5.0
 40
5.0
 40
5.0
 40
5.0
 10
5.801278590046497
 20
-2.601885828416546
 30
0.0
 10
5.786603363839983
 20
-2.576606426883573
 30
0.0
 10
5.798515015545439
 20
-2.538401956542252
 30
0.0
 10
5.794857116757435
 20
-2.509723678714054
 30
0.0
 10
5.815988290216915
 20
-2.497985551875621
 30
0.0
 10
5.863768502632738
 20
-2.499236005838686
 30
0.0
 10
5.886442808286497
 20
-2.509709562364807
 30
0.0
 10
5.880735434308285
 20
-2.534758542962612
 30
0.0
 10
5.837818659499892
 20
-2.520677751815936
 30
0.0
 10
5.819509769626064
 20
-2.520225867683469
 30
0.0
 10
5.782763331874321
 20
-2.556637872485503
 30
0.0
 10
5.854099062140599
 20
-2.534069186549913
 30
0.0
 10
5.867193396483671
 20
-2.549388230593876
 30
0.0
 10
5.821306435499106
 20
-2.589429761447819
 30
0.0
 10
5.830739012503777
 20
-2.523835450779819
 30
0.0
 10
5.801278590046497
 20
-2.601885828416546
 30
0.0
  0
HATCH
  5
A3
330
7C
100
AcDbEntity
  8
Poneglyph
 62
   250
420
  2301728
440
 33554687
100
AcDbHatch
 10
0.0
 20
0.0
 30
0.0
210
0.0
220
0.0
230
1.0
  2
SOLID
 70
     1
 71
     1
 91
        6
 92
        1
 93
        1
 72
     4
 94
        3
 73
     0
 74
     0
 95
       11
 96
        7
 40
0.0
 40
0.0
 40
0.0
 40
0.0
 40
1.0
 40
1.0
 40
1.0
 40
2.0
 40
2.0
 40
2.0
 40
2.0
 10
5.932531302720108
 20
-2.588471657409602
 10
5.933711756239668
 20
-2.601696818455871
 10
5.920523145844754
 20
-2.666798315753339
 10
5.943594624635579
 20
-2.664459972422087
 10
5.946196954541846
 20
-2.652649169309774
 10
5.95716421296639
 20
-2.558702458100065
 10
5.932531302720108
 20
-2.588471657409602
 97
        0
 97
        1
330
9D
 92
        1
 93
        1
 72
     4
 94
        3
 73
     0
 74
     0
 95
       17
 96
       13
 40
0.0
 40
0.0
 40
0.0
 40
0.0
 40
1.0
 40
1.0
 40
1.0
 40
2.0
 40
2.0
 40
2.0
 40
3.0
 40
3.0
 40
3.0
 40
4.0
 40
4.0
 40
4.0
 40
4.0
 10
5.938946775810387
 20
-2.680634743347102
 10
5.894510055538047
 20
-2.692683665491838
 10
5.902441226807948
 20
-2.641776611570397
 10
5.912700234430277
 20
-2.614725859729433
 10
5.919240234543975
 20
-2.597125605869804
 10
5.893126343217267
 20
-2.566691230040532
 10
5.919696876905744
 20
-2.562225709330479
 10
5.959069727085559
 20
-2.557890440850744
 10
5.971221715780958
 20
-2.577652156819643
 10
5.965183840988225
 20
-2.614734684673647
 10
5.960457620179592
 20
-2.64073093368913
 10
5.981766267185169
 20
-2.6914576598617
 10
5.938946775810387
 20
-2.680634743347102
 97
        0
 97
        1
330
9E
 92
        1
 93
        1
 72
     4
 94
        3
 73
     0
 74
     0
 95
       11
 96
        7
 40
0.0
 40
0.0
 40
0.0
 40
0.0
 40
1.0
 40
1.0
 40
1.0
 40
2.0
 40
2.0
 40
2.0
 40
2.0
 10
5.873612031886775
 20
-2.549395594041546
 10
5.873933039223453
 20
-2.533009351862523
 10
5.906107681480382
 20
-2.530371176156525
 10
5.906286153602422
 20
-2.5493964261863
 10
5.909102087273165
 20
-2.57617063581079
 10
5.871361734097212
 20
-2.573880189812901
 10
5.873612031886775
 20
-2.549395594041546
 97
        0
 97
        1
330
9F
 92
        1
 93
        1
 72
     4
 94
        3
 73
     0
 74
     0
 95
       23
 96
       19
 40
0.0
 40
0.0
 40
0.0
 40
0.0
 40
1.0
 40
1.0
 40
1.0
 40
2.0
 40
2.0
 40
2.0
 40
3.0
 40
3.0
 40
3.0
 40
4.0
 40
4.0
 40
4.0
 40
5.0
 40
5.0
 40
5.0
 40
6.0
 40
6.0
 40
6.0
 40
6.0
 10
6.004864744560387
 20
-2.503307269388768
 10
6.033143103564725
 20
-2.544174471202343
 10
5.993839049497359
 20
-2.617061549946684
 10
6.016686157102791
 20
-2.666201700016876
 10
6.026565115433489
 20
-2.749370813363561
 10
5.936935219662396
 20
-2.712518007723449
 10
5.880020930586472
 20
-2.71972594679404
 10
5.844522332442389
 20
-2.682163976237916
 10
5.889936043691199
 20
-2.619642805066102
 10
5.897382177963233
 20
-2.702816148654897
 10
6.04443622240779
 20
-2.702731031179736
 10
5.978157470569385
 20
-2.697846309506151
 10
5.991460712598836
 20
-2.542673662000399
 10
5.966207104916975
 20
-2.589879558945439
 10
5.885323099081561
 20
-2.539710144526856
 10
5.919696326778344
 20
-2.503301503533445
 10
5.959545977364465
 20
-2.56151333717811
 10
5.954984018498079
 20
-2.539129449387119
 10
6.004864744560387
 20
-2.503307269388768
 97
        0
 97
        1
330
A0
 92
        1
 93
        1
 72
     4
 94
        3
 73
     0
 74
     0
 95
       17
 96
       13
 40
0.0
 40
0.0
 40
0.0
 40
0.0
 40
1.0
 40
1.0
 40
1.0
 40
2.0
 40
2.0
 40
2.0
 40
3.0
 40
3.0
 40
3.0
 40
4.0
 40
4.0
 40
4.0
 40
4.0
 10
5.801278590046497
 20
-2.640975455152657
 10
5.762222056905784
 20
-2.604331550669788
 10
5.939987281978877
 20
-2.619146134923034
 10
5.880029375588289
 20
-2.640977048332186
 10
5.836394735428888
 20
-2.633127563606017
 10
5.836613510694633
 20
-2.648530371547091
 10
5.84096097544188
 20
-2.687072916330003
 10
5.851383553102778
 20
-2.730521965749352
 10
5.805458546889338
 20
-2.729442346920854
 10
5.814692651551543
 20
-2.687062023482162
 10
5.818592361246676
 20
-2.668018819021982
 10
5.837883688305181
 20
-2.629527812365469
 10
5.801278590046497
 20
-2.640975455152657
 97
        0
 97
        1
330
A1
 92
        1
 93
        1
 72
     4
 94
        3
 73
     0
 74
     0
 95
       20
 96
       16
 40
0.0
 40
0.0
 40
0.0
 40
0.0
 40
1.0
 40
1.0
 40
1.0
 40
2.0
 40
2.0
 40
2.0
 40
3.0
 40
3.0
 40
3.0
 40
4.0
 40
4.0
 40
4.0
 40
5.0
 40
5.0
 40
5.0
 40
5.0
 10
5.801278590046497
 20
-2.601885828416546
 10
5.786603363839983
 20
-2.576606426883573
 10
5.798515015545439
 20
-2.538401956542252
 10
5.794857116757435
 20
-2.509723678714054
 10
5.815988290216915
 20
-2.497985551875621
 10
5.863768502632738
 20
-2.499236005838686
 10
5.886442808286497
 20
-2.509709562364807
 10
5.880735434308285
 20
-2.534758542962612
 10
5.837818659499892
 20
-2.520677751815936
 10
5.819509769626064
 20
-2.520225867683469
 10
5.782763331874321
 20
-2.556637872485503
 10
5.854099062140599
 20
-2.534069186549913
 10
5.867193396483671
 20
-2.549388230593876
 10
5.821306435499106
 20
-2.589429761447819
 10
5.830739012503777
 20
-2.523835450779819
 10
5.801278590046497
 20
-2.601885828416546
 97
        0
 97
        1
330
A2
 75
     2
 76
     1
 98
        1
 10
0.0
 20
0.0
450
        0
451
        0
460
0.0
461
0.0
452
        0
462
0.0
453
        0
470

  0
SPLINE
  5
A4
330
7C
100
AcDbEntity
  8
Poneglyph
100
AcDbSpline
210
0.0
220
0.0
230
1.0
 70
     9
 71
     3
 72
    11
 73
     7
 74
     0
 42
0.0000000001
 43
0.0000000001
 40
0.0
 40
0.0
 40
0.0
 40
0.0
 40
1.0
 40
1.0
 40
1.0
 40
2.0
 40
2.0
 40
2.0
 40
2.0
 10
4.919849553588164
 20
-2.949807006782331
 30
0.0
 10
4.886440542854946
 20
-3.009744250557244
 30
0.0
 10
4.880144323079219
 20
-2.838855083891947
 30
0.0
 10
4.90671203000953
 20
-2.838399629546971
 30
0.0
 10
4.929772090053853
 20
-2.85658974930848
 30
0.0
 10
4.914316029766571
 20
-2.915158313218992
 30
0.0
 10
4.919849553588164
 20
-2.949807006782331
 30
0.0
  0
SPLINE
  5
A5
330
7C
100
AcDbEntity
  8
Poneglyph
100
AcDbSpline
210
0.0
220
0.0
230
1.0
 70
     9
 71
     3
 72
    23
 73
    19
 74
     0
 42
0.0000000001
 43
0.0000000001
 40
0.0
 40
0.0
 40
0.0
 40
0.0
 40
1.0
 40
1.0
 40
1.0
 40
2.0
 40
2.0
 40
2.0
 40
3.0
 40
3.0
 40
3.0
 40
4.0
 40
4.0
 40
4.0
 40
5.0
 40
5.0
 40
5.0
 40
6.0
 40
6.0
 40
6.0
 40
6.0
 10
4.972366914699275
 20
-2.785893703830942
 30
0.0
 10
4.987295719947647
 20
-2.82489039583792
 30
0.0
 10
4.97837180797425
 20
-2.888512482773787
 30
0.0
 10
4.979812833787566
 20
-2.931440137455347
 30
0.0
 10
5.00819157773238
 20
-2.996348281784409
 30
0.0
 10
4.957219114782295
 20
-3.006515915450904
 30
0.0
 10
4.904109107609352
 20
-2.992675322667196
 30
0.0
 10
4.949187128012454
 20
-2.927373161492861
 30
0.0
 10
4.969870550230703
 20
-3.062169049057691
 30
0.0
 10
4.958923004094836
 20
-2.871347224897653
 30
0.0
 10
4.958797141324642
 20
-2.816855309210457
 30
0.0
 10
4.973749549372087
 20
-2.800055159161211
 30
0.0
 10
4.909940025650763
 20
-2.803404326547365
 30
0.0
 10
4.88863691330645
 20
-2.797882759748707
 30
0.0
 10
4.909070162794578
 20
-2.838484869169115
 30
0.0
 10
4.881353661730978
 20
-2.822499488809689
 30
0.0
 10
4.864319330422656
 20
-2.764093678720819
 30
0.0
 10
4.938327848779408
 20
-2.791813860377778
 30
0.0
 10
4.972366914699275
 20
-2.785893703830942
 30
0.0
  0
SPLINE
  5
A6
330
7C
100
AcDbEntity
  8
Poneglyph
100
AcDbSpline
210
0.0
220
0.0
230
1.0
 70
     9
 71
     3
 72
    11
 73
     7
 74
     0
 42
0.0000000001
 43
0.0000000001
 40
0.0
 40
0.0
 40
0.0
 40
0.0
 40
1.0
 40
1.0
 40
1.0
 40
2.0
 40
2.0
 40
2.0
 40
2.0
 10
4.801739744560387
 20
-2.805723347928164
 30
0.0
 10
4.802083607700447
 20
-2.788625023734905
 30
0.0
 10
4.827627028486504
 20
-2.788615813689589
 30
0.0
 10
4.827971260043391
 20
-2.805725047554649
 30
0.0
 10
4.827679350736363
 20
-2.822203657229351
 30
0.0
 10
4.802024176063696
 20
-2.822197139137857
 30
0.0
 10
4.801739744560387
 20
-2.805723347928164
 30
0.0
  0
SPLINE
  5
A7
330
7C
100
AcDbEntity
  8
Poneglyph
100
AcDbSpline
210
0.0
220
0.0
230
1.0
 70
     9
 71
     3
 72
    29
 73
    25
 74
     0
 42
0.0000000001
 43
0.0000000001
 40
0.0
 40
0.0
 40
0.0
 40
0.0
 40
1.0
 40
1.0
 40
1.0
 40
2.0
 40
2.0
 40
2.0
 40
3.0
 40
3.0
 40
3.0
 40
4.0
 40
4.0
 40
4.0
 40
5.0
 40
5.0
 40
5.0
 40
6.0
 40
6.0
 40
6.0
 40
7.0
 40
7.0
 40
7.0
 40
8.0
 40
8.0
 40
8.0
 40
8.0
 10
4.77548106400483
 20
-2.864642618761497
 30
0.0
 10
4.797069439102389
 20
-2.891823700147483
 30
0.0
 10
4.80279611252571
 20
-2.89904867220476
 30
0.0
 10
4.850170339370379
 20
-2.898609928524529
 30
0.0
 10
4.8759341555945
 20
-2.922644910401698
 30
0.0
 10
4.812715727314146
 20
-2.93177340534876
 30
0.0
 10
4.834400334838164
 20
-2.910730943414275
 30
0.0
 10
4.81536320839781
 20
-2.92344985807468
 30
0.0
 10
4.771295914684489
 20
-2.896311311760061
 30
0.0
 10
4.784076516802238
 20
-2.931874009561131
 30
0.0
 10
4.799848047238356
 20
-2.941822715984534
 30
0.0
 10
4.871181697930296
 20
-2.936679677512668
 30
0.0
 10
4.812240311664456
 20
-2.961934566255914
 30
0.0
 10
4.773688082340665
 20
-2.948867789323192
 30
0.0
 10
4.773398024526209
 20
-2.996988533440811
 30
0.0
 10
4.814872107296119
 20
-2.982480711584217
 30
0.0
 10
4.84612472397685
 20
-2.996429531858678
 30
0.0
 10
4.897985850076413
 20
-2.943233915297734
 30
0.0
 10
4.880492816593838
 20
-2.995891681020705
 30
0.0
 10
4.851075550443257
 20
-3.006659235934737
 30
0.0
 10
4.788702911384486
 20
-3.008363335347654
 30
0.0
 10
4.762357100069745
 20
-2.995915473584558
 30
0.0
 10
4.776217168140343
 20
-2.956852400268884
 30
0.0
 10
4.741881316985174
 20
-2.889536200977608
 30
0.0
 10
4.77548106400483
 20
-2.864642618761497
 30
0.0
  0
SPLINE
  5
A8
330
7C
100
AcDbEntity
  8
Poneglyph
100
AcDbSpline
210
0.0
220
0.0
230
1.0
 70
     9
 71
     3
 72
    11
 73
     7
 74
     0
 42
0.0000000001
 43
0.0000000001
 40
0.0
 40
0.0
 40
0.0
 40
0.0
 40
1.0
 40
1.0
 40
1.0
 40
2.0
 40
2.0
 40
2.0
 40
2.0
 10
4.814733451157608
 20
-2.85151327848372
 30
0.0
 10
4.745108444198371
 20
-2.835754889857007
 30
0.0
 10
4.744976429768459
 20
-2.745126956640951
 30
0.0
 10
4.814853818616104
 20
-2.832004186210888
 30
0.0
 10
4.883419297562997
 20
-2.748048283150599
 30
0.0
 10
4.886990260479478
 20
-2.832821021093334
 30
0.0
 10
4.814733451157608
 20
-2.85151327848372
 30
0.0
  0
HATCH
  5
A9
330
7C
100
AcDbEntity
  8
Poneglyph
 62
   250
420
  2301728
440
 33554687
100
AcDbHatch
 10
0.0
 20
0.0
 30
0.0
210
0.0
220
0.0
230
1.0
  2
SOLID
 70
     1
 71
     1
 91
        5
 92
        1
 93
        1
 72
     4
 94
        3
 73
     0
 74
     0
 95
       11
 96
        7
 40
0.0
 40
0.0
 40
0.0
 40
0.0
 40
1.0
 40
1.0
 40
1.0
 40
2.0
 40
2.0
 40
2.0
 40
2.0
 10
4.919849553588164
 20
-2.949807006782331
 10
4.886440542854946
 20
-3.009744250557244
 10
4.880144323079219
 20
-2.838855083891947
 10
4.90671203000953
 20
-2.838399629546971
 10
4.929772090053853
 20
-2.85658974930848
 10
4.914316029766571
 20
-2.915158313218992
 10
4.919849553588164
 20
-2.949807006782331
 97
        0
 97
        1
330
A4
 92
        1
 93
        1
 72
     4
 94
        3
 73
     0
 74
     0
 95
       23
 96
       19
 40
0.0
 40
0.0
 40
0.0
 40
0.0
 40
1.0
 40
1.0
 40
1.0
 40
2.0
 40
2.0
 40
2.0
 40
3.0
 40
3.0
 40
3.0
 40
4.0
 40
4.0
 40
4.0
 40
5.0
 40
5.0
 40
5.0
 40
6.0
 40
6.0
 40
6.0
 40
6.0
 10
4.972366914699275
 20
-2.785893703830942
 10
4.987295719947647
 20
-2.82489039583792
 10
4.97837180797425
 20
-2.888512482773787
 10
4.979812833787566
 20
-2.931440137455347
 10
5.00819157773238
 20
-2.996348281784409
 10
4.957219114782295
 20
-3.006515915450904
 10
4.904109107609352
 20
-2.992675322667196
 10
4.949187128012454
 20
-2.927373161492861
 10
4.969870550230703
 20
-3.062169049057691
 10
4.958923004094836
 20
-2.871347224897653
 10
4.958797141324642
 20
-2.816855309210457
 10
4.973749549372087
 20
-2.800055159161211
 10
4.909940025650763
 20
-2.803404326547365
 10
4.88863691330645
 20
-2.797882759748707
 10
4.909070162794578
 20
-2.838484869169115
 10
4.881353661730978
 20
-2.822499488809689
 10
4.864319330422656
 20
-2.764093678720819
 10
4.938327848779408
 20
-2.791813860377778
 10
4.972366914699275
 20
-2.785893703830942
 97
        0
 97
        1
330
A5
 92
        1
 93
        1
 72
     4
 94
        3
 73
     0
 74
     0
 95
       11
 96
        7
 40
0.0
 40
0.0
 40
0.0
 40
0.0
 40
1.0
 40
1.0
 40
1.0
 40
2.0
 40
2.0
 40
2.0
 40
2.0
 10
4.801739744560387
 20
-2.805723347928164
 10
4.802083607700447
 20
-2.788625023734905
 10
4.827627028486504
 20
-2.788615813689589
 10
4.827971260043391
 20
-2.805725047554649
 10
4.827679350736363
 20
-2.822203657229351
 10
4.802024176063696
 20
-2.822197139137857
 10
4.801739744560387
 20
-2.805723347928164
 97
        0
 97
        1
330
A6
 92
        1
 93
        1
 72
     4
 94
        3
 73
     0
 74
     0
 95
       29
 96
       25
 40
0.0
 40
0.0
 40
0.0
 40
0.0
 40
1.0
 40
1.0
 40
1.0
 40
2.0
 40
2.0
 40
2.0
 40
3.0
 40
3.0
 40
3.0
 40
4.0
 40
4.0
 40
4.0
 40
5.0
 40
5.0
 40
5.0
 40
6.0
 40
6.0
 40
6.0
 40
7.0
 40
7.0
 40
7.0
 40
8.0
 40
8.0
 40
8.0
 40
8.0
 10
4.77548106400483
 20
-2.864642618761497
 10
4.797069439102389
 20
-2.891823700147483
 10
4.80279611252571
 20
-2.89904867220476
 10
4.850170339370379
 20
-2.898609928524529
 10
4.8759341555945
 20
-2.922644910401698
 10
4.812715727314146
 20
-2.93177340534876
 10
4.834400334838164
 20
-2.910730943414275
 10
4.81536320839781
 20
-2.92344985807468
 10
4.771295914684489
 20
-2.896311311760061
 10
4.784076516802238
 20
-2.931874009561131
 10
4.799848047238356
 20
-2.941822715984534
 10
4.871181697930296
 20
-2.936679677512668
 10
4.812240311664456
 20
-2.961934566255914
 10
4.773688082340665
 20
-2.948867789323192
 10
4.773398024526209
 20
-2.996988533440811
 10
4.814872107296119
 20
-2.982480711584217
 10
4.84612472397685
 20
-2.996429531858678
 10
4.897985850076413
 20
-2.943233915297734
 10
4.880492816593838
 20
-2.995891681020705
 10
4.851075550443257
 20
-3.006659235934737
 10
4.788702911384486
 20
-3.008363335347654
 10
4.762357100069745
 20
-2.995915473584558
 10
4.776217168140343
 20
-2.956852400268884
 10
4.741881316985174
 20
-2.889536200977608
 10
4.77548106400483
 20
-2.864642618761497
 97
        0
 97
        1
330
A7
 92
        1
 93
        1
 72
     4
 94
        3
 73
     0
 74
     0
 95
       11
 96
        7
 40
0.0
 40
0.0
 40
0.0
 40
0.0
 40
1.0
 40
1.0
 40
1.0
 40
2.0
 40
2.0
 40
2.0
 40
2.0
 10
4.814733451157608
 20
-2.85151327848372
 10
4.745108444198371
 20
-2.835754889857007
 10
4.744976429768459
 20
-2.745126956640951
 10
4.814853818616104
 20
-2.832004186210888
 10
4.883419297562997
 20
-2.748048283150599
 10
4.886990260479478
 20
-2.832821021093334
 10
4.814733451157608
 20
-2.85151327848372
 97
        0
 97
        1
330
A8
 75
     2
 76
     1
 98
        1
 10
0.0
 20
0.0
450
        0
451
        0
460
0.0
461
0.0
452
        0
462
0.0
453
        0
470

  0
SPLINE
  5
AA
330
7C
100
AcDbEntity
  8
Poneglyph
100
AcDbSpline
210
0.0
220
0.0
230
1.0
 70
     9
 71
     3
 72
    11
 73
     7
 74
     0
 42
0.0000000001
 43
0.0000000001
 40
0.0
 40
0.0
 40
0.0
 40
0.0
 40
1.0
 40
1.0
 40
1.0
 40
2.0
 40
2.0
 40
2.0
 40
2.0
 10
5.15814436695622
 20
-2.871360404141467
 30
0.0
 10
5.15932482047578
 20
-2.884585565187737
 30
0.0
 10
5.146136210080864
 20
-2.949687062485205
 30
0.0
 10
5.16920768887169
 20
-2.947348719153953
 30
0.0
 10
5.171810018777957
 20
-2.93553791604164
 30
0.0
 10
5.182777277202502
 20
-2.841591204831931
 30
0.0
 10
5.15814436695622
 20
-2.871360404141467
 30
0.0
  0
SPLINE
  5
AB
330
7C
100
AcDbEntity
  8
Poneglyph
100
AcDbSpline
210
0.0
220
0.0
230
1.0
 70
     9
 71
     3
 72
    17
 73
    13
 74
     0
 42
0.0000000001
 43
0.0000000001
 40
0.0
 40
0.0
 40
0.0
 40
0.0
 40
1.0
 40
1.0
 40
1.0
 40
2.0
 40
2.0
 40
2.0
 40
3.0
 40
3.0
 40
3.0
 40
4.0
 40
4.0
 40
4.0
 40
4.0
 10
5.164559840046497
 20
-2.963523490078967
 30
0.0
 10
5.120123119774158
 20
-2.975572412223704
 30
0.0
 10
5.128054291044059
 20
-2.924665358302263
 30
0.0
 10
5.138313298666389
 20
-2.8976146064613
 30
0.0
 10
5.144853298780086
 20
-2.88001435260167
 30
0.0
 10
5.118739407453378
 20
-2.849579976772398
 30
0.0
 10
5.145309941141855
 20
-2.845114456062345
 30
0.0
 10
5.18468279132167
 20
-2.84077918758261
 30
0.0
 10
5.19683478001707
 20
-2.860540903551509
 30
0.0
 10
5.190796905224336
 20
-2.897623431405513
 30
0.0
 10
5.186070684415704
 20
-2.923619680420996
 30
0.0
 10
5.20737933142128
 20
-2.974346406593566
 30
0.0
 10
5.164559840046497
 20
-2.963523490078967
 30
0.0
  0
SPLINE
  5
AC
330
7C
100
AcDbEntity
  8
Poneglyph
100
AcDbSpline
210
0.0
220
0.0
230
1.0
 70
     9
 71
     3
 72
    11
 73
     7
 74
     0
 42
0.0000000001
 43
0.0000000001
 40
0.0
 40
0.0
 40
0.0
 40
0.0
 40
1.0
 40
1.0
 40
1.0
 40
2.0
 40
2.0
 40
2.0
 40
2.0
 10
5.099225096122887
 20
-2.832284340773412
 30
0.0
 10
5.099546103459563
 20
-2.815898098594389
 30
0.0
 10
5.131720745716493
 20
-2.813259922888391
 30
0.0
 10
5.131899217838533
 20
-2.832285172918166
 30
0.0
 10
5.134715151509277
 20
-2.859059382542656
 30
0.0
 10
5.096974798333323
 20
-2.856768936544767
 30
0.0
 10
5.099225096122887
 20
-2.832284340773412
 30
0.0
  0
SPLINE
  5
AD
330
7C
100
AcDbEntity
  8
Poneglyph
100
AcDbSpline
210
0.0
220
0.0
230
1.0
 70
     9
 71
     3
 72
    23
 73
    19
 74
     0
 42
0.0000000001
 43
0.0000000001
 40
0.0
 40
0.0
 40
0.0
 40
0.0
 40
1.0
 40
1.0
 40
1.0
 40
2.0
 40
2.0
 40
2.0
 40
3.0
 40
3.0
 40
3.0
 40
4.0
 40
4.0
 40
4.0
 40
5.0
 40
5.0
 40
5.0
 40
6.0
 40
6.0
 40
6.0
 40
6.0
 10
5.230477808796497
 20
-2.786196016120634
 30
0.0
 10
5.258756167800836
 20
-2.82706321793421
 30
0.0
 10
5.21945211373347
 20
-2.89995029667855
 30
0.0
 10
5.242299221338902
 20
-2.949090446748742
 30
0.0
 10
5.252178179669599
 20
-3.032259560095427
 30
0.0
 10
5.162548283898508
 20
-2.995406754455315
 30
0.0
 10
5.105633994822583
 20
-3.002614693525906
 30
0.0
 10
5.070135396678501
 20
-2.965052722969782
 30
0.0
 10
5.11554910792731
 20
-2.902531551797967
 30
0.0
 10
5.122995242199345
 20
-2.985704895386763
 30
0.0
 10
5.2700492866439
 20
-2.985619777911601
 30
0.0
 10
5.203770534805496
 20
-2.980735056238017
 30
0.0
 10
5.217073776834947
 20
-2.825562408732265
 30
0.0
 10
5.191820169153111
 20
-2.872768305677304
 30
0.0
 10
5.110936163317672
 20
-2.822598891258722
 30
0.0
 10
5.145309391014456
 20
-2.786190250265311
 30
0.0
 10
5.185159041600576
 20
-2.844402083909976
 30
0.0
 10
5.180597082734189
 20
-2.822018196118986
 30
0.0
 10
5.230477808796497
 20
-2.786196016120634
 30
0.0
  0
SPLINE
  5
AE
330
7C
100
AcDbEntity
  8
Poneglyph
100
AcDbSpline
210
0.0
220
0.0
230
1.0
 70
     9
 71
     3
 72
    17
 73
    13
 74
     0
 42
0.0000000001
 43
0.0000000001
 40
0.0
 40
0.0
 40
0.0
 40
0.0
 40
1.0
 40
1.0
 40
1.0
 40
2.0
 40
2.0
 40
2.0
 40
3.0
 40
3.0
 40
3.0
 40
4.0
 40
4.0
 40
4.0
 40
4.0
 10
5.026891654282608
 20
-2.923864201884523
 30
0.0
 10
4.987835121141895
 20
-2.887220297401654
 30
0.0
 10
5.165600346214987
 20
-2.9020348816549
 30
0.0
 10
5.105642439824401
 20
-2.923865795064052
 30
0.0
 10
5.062007799664999
 20
-2.916016310337883
 30
0.0
 10
5.062226574930743
 20
-2.931419118278957
 30
0.0
 10
5.06657403967799
 20
-2.969961663061869
 30
0.0
 10
5.076996617338888
 20
-3.013410712481218
 30
0.0
 10
5.031071611125449
 20
-3.01233109365272
 30
0.0
 10
5.040305715787654
 20
-2.969950770214028
 30
0.0
 10
5.044205425482787
 20
-2.950907565753848
 30
0.0
 10
5.063496752541292
 20
-2.912416559097335
 30
0.0
 10
5.026891654282608
 20
-2.923864201884523
 30
0.0
  0
SPLINE
  5
AF
330
7C
100
AcDbEntity
  8
Poneglyph
100
AcDbSpline
210
0.0
220
0.0
230
1.0
 70
     9
 71
     3
 72
    20
 73
    16
 74
     0
 42
0.0000000001
 43
0.0000000001
 40
0.0
 40
0.0
 40
0.0
 40
0.0
 40
1.0
 40
1.0
 40
1.0
 40
2.0
 40
2.0
 40
2.0
 40
3.0
 40
3.0
 40
3.0
 40
4.0
 40
4.0
 40
4.0
 40
5.0
 40
5.0
 40
5.0
 40
5.0
 10
5.026891654282608
 20
-2.884774575148412
 30
0.0
 10
5.012216428076095
 20
-2.859495173615414
 30
0.0
 10
5.02412807978155
 20
-2.821290703274118
 30
0.0
 10
5.020470180993545
 20
-2.79261242544592
 30
0.0
 10
5.041601354453026
 20
-2.780874298607487
 30
0.0
 10
5.08938156686885
 20
-2.782124752570553
 30
0.0
 10
5.112055872522609
 20
-2.792598309096673
 30
0.0
 10
5.106348498544396
 20
-2.817647289694478
 30
0.0
 10
5.063431723736003
 20
-2.803566498547802
 30
0.0
 10
5.045122833862174
 20
-2.803114614415335
 30
0.0
 10
5.008376396110431
 20
-2.839526619217369
 30
0.0
 10
5.079712126376711
 20
-2.816957933281779
 30
0.0
 10
5.092806460719783
 20
-2.832276977325768
 30
0.0
 10
5.046919499735218
 20
-2.872318508179685
 30
0.0
 10
5.056352076739888
 20
-2.806724197511685
 30
0.0
 10
5.026891654282608
 20
-2.884774575148412
 30
0.0
  0
HATCH
  5
B0
330
7C
100
AcDbEntity
  8
Poneglyph
 62
   250
420
  2301728
440
 33554687
100
AcDbHatch
 10
0.0
 20
0.0
 30
0.0
210
0.0
220
0.0
230
1.0
  2
SOLID
 70
     1
 71
     1
 91
        6
 92
        1
 93
        1
 72
     4
 94
        3
 73
     0
 74
     0
 95
       11
 96
        7
 40
0.0
 40
0.0
 40
0.0
 40
0.0
 40
1.0
 40
1.0
 40
1.0
 40
2.0
 40
2.0
 40
2.0
 40
2.0
 10
5.15814436695622
 20
-2.871360404141467
 10
5.15932482047578
 20
-2.884585565187737
 10
5.146136210080864
 20
-2.949687062485205
 10
5.16920768887169
 20
-2.947348719153953
 10
5.171810018777957
 20
-2.93553791604164
 10
5.182777277202502
 20
-2.841591204831931
 10
5.15814436695622
 20
-2.871360404141467
 97
        0
 97
        1
330
AA
 92
        1
 93
        1
 72
     4
 94
        3
 73
     0
 74
     0
 95
       17
 96
       13
 40
0.0
 40
0.0
 40
0.0
 40
0.0
 40
1.0
 40
1.0
 40
1.0
 40
2.0
 40
2.0
 40
2.0
 40
3.0
 40
3.0
 40
3.0
 40
4.0
 40
4.0
 40
4.0
 40
4.0
 10
5.164559840046497
 20
-2.963523490078967
 10
5.120123119774158
 20
-2.975572412223704
 10
5.128054291044059
 20
-2.924665358302263
 10
5.138313298666389
 20
-2.8976146064613
 10
5.144853298780086
 20
-2.88001435260167
 10
5.118739407453378
 20
-2.849579976772398
 10
5.145309941141855
 20
-2.845114456062345
 10
5.18468279132167
 20
-2.84077918758261
 10
5.19683478001707
 20
-2.860540903551509
 10
5.190796905224336
 20
-2.897623431405513
 10
5.186070684415704
 20
-2.923619680420996
 10
5.20737933142128
 20
-2.974346406593566
 10
5.164559840046497
 20
-2.963523490078967
 97
        0
 97
        1
330
AB
 92
        1
 93
        1
 72
     4
 94
        3
 73
     0
 74
     0
 95
       11
 96
        7
 40
0.0
 40
0.0
 40
0.0
 40
0.0
 40
1.0
 40
1.0
 40
1.0
 40
2.0
 40
2.0
 40
2.0
 40
2.0
 10
5.099225096122887
 20
-2.832284340773412
 10
5.099546103459563
 20
-2.815898098594389
 10
5.131720745716493
 20
-2.813259922888391
 10
5.131899217838533
 20
-2.832285172918166
 10
5.134715151509277
 20
-2.859059382542656
 10
5.096974798333323
 20
-2.856768936544767
 10
5.099225096122887
 20
-2.832284340773412
 97
        0
 97
        1
330
AC
 92
        1
 93
        1
 72
     4
 94
        3
 73
     0
 74
     0
 95
       23
 96
       19
 40
0.0
 40
0.0
 40
0.0
 40
0.0
 40
1.0
 40
1.0
 40
1.0
 40
2.0
 40
2.0
 40
2.0
 40
3.0
 40
3.0
 40
3.0
 40
4.0
 40
4.0
 40
4.0
 40
5.0
 40
5.0
 40
5.0
 40
6.0
 40
6.0
 40
6.0
 40
6.0
 10
5.230477808796497
 20
-2.786196016120634
 10
5.258756167800836
 20
-2.82706321793421
 10
5.21945211373347
 20
-2.89995029667855
 10
5.242299221338902
 20
-2.949090446748742
 10
5.252178179669599
 20
-3.032259560095427
 10
5.162548283898508
 20
-2.995406754455315
 10
5.105633994822583
 20
-3.002614693525906
 10
5.070135396678501
 20
-2.965052722969782
 10
5.11554910792731
 20
-2.902531551797967
 10
5.122995242199345
 20
-2.985704895386763
 10
5.2700492866439
 20
-2.985619777911601
 10
5.203770534805496
 20
-2.980735056238017
 10
5.217073776834947
 20
-2.825562408732265
 10
5.191820169153111
 20
-2.872768305677304
 10
5.110936163317672
 20
-2.822598891258722
 10
5.145309391014456
 20
-2.786190250265311
 10
5.185159041600576
 20
-2.844402083909976
 10
5.180597082734189
 20
-2.822018196118986
 10
5.230477808796497
 20
-2.786196016120634
 97
        0
 97
        1
330
AD
 92
        1
 93
        1
 72
     4
 94
        3
 73
     0
 74
     0
 95
       17
 96
       13
 40
0.0
 40
0.0
 40
0.0
 40
0.0
 40
1.0
 40
1.0
 40
1.0
 40
2.0
 40
2.0
 40
2.0
 40
3.0
 40
3.0
 40
3.0
 40
4.0
 40
4.0
 40
4.0
 40
4.0
 10
5.026891654282608
 20
-2.923864201884523
 10
4.987835121141895
 20
-2.887220297401654
 10
5.165600346214987
 20
-2.9020348816549
 10
5.105642439824401
 20
-2.923865795064052
 10
5.062007799664999
 20
-2.916016310337883
 10
5.062226574930743
 20
-2.931419118278957
 10
5.06657403967799
 20
-2.969961663061869
 10
5.076996617338888
 20
-3.013410712481218
 10
5.031071611125449
 20
-3.01233109365272
 10
5.040305715787654
 20
-2.969950770214028
 10
5.044205425482787
 20
-2.950907565753848
 10
5.063496752541292
 20
-2.912416559097335
 10
5.026891654282608
 20
-2.923864201884523
 97
        0
 97
        1
330
AE
 92
        1
 93
        1
 72
     4
 94
        3
 73
     0
 74
     0
 95
       20
 96
       16
 40
0.0
 40
0.0
 40
0.0
 40
0.0
 40
1.0
 40
1.0
 40
1.0
 40
2.0
 40
2.0
 40
2.0
 40
3.0
 40
3.0
 40
3.0
 40
4.0
 40
4.0
 40
4.0
 40
5.0
 40
5.0
 40
5.0
 40
5.0
 10
5.026891654282608
 20
-2.884774575148412
 10
5.012216428076095
 20
-2.859495173615414
 10
5.02412807978155
 20
-2.821290703274118
 10
5.020470180993545
 20
-2.79261242544592
 10
5.041601354453026
 20
-2.780874298607487
 10
5.08938156686885
 20
-2.782124752570553
 10
5.112055872522609
 20
-2.792598309096673
 10
5.106348498544396
 20
-2.817647289694478
 10
5.063431723736003
 20
-2.803566498547802
 10
5.045122833862174
 20
-2.803114614415335
 10
5.008376396110431
 20
-2.839526619217369
 10
5.079712126376711
 20
-2.816957933281779
 10
5.092806460719783
 20
-2.832276977325768
 10
5.046919499735218
 20
-2.872318508179685
 10
5.056352076739888
 20
-2.806724197511685
 10
5.026891654282608
 20
-2.884774575148412
 97
        0
 97
        1
330
AF
 75
     2
 76
     1
 98
        1
 10
0.0
 20
0.0
450
        0
451
        0
460
0.0
461
0.0
452
        0
462
0.0
453
        0
470

  0
SPLINE
  5
B1
330
7C
100
AcDbEntity
  8
Poneglyph
100
AcDbSpline
210
0.0
220
0.0
230
1.0
 70
     9
 71
     3
 72
    20
 73
    16
 74
     0
 42
0.0000000001
 43
0.0000000001
 40
0.0
 40
0.0
 40
0.0
 40
0.0
 40
1.0
 40
1.0
 40
1.0
 40
2.0
 40
2.0
 40
2.0
 40
3.0
 40
3.0
 40
3.0
 40
4.0
 40
4.0
 40
4.0
 40
5.0
 40
5.0
 40
5.0
 40
5.0
 10
5.443680391261775
 20
-2.980721447096407
 30
0.0
 10
5.481539412404067
 20
-2.994950759574142
 30
0.0
 10
5.471494856391599
 20
-2.953252834579845
 30
0.0
 10
5.469644054345634
 20
-2.929678764925029
 30
0.0
 10
5.461470996618092
 20
-2.925045071387001
 30
0.0
 10
5.432890235916753
 20
-2.936287713583649
 30
0.0
 10
5.447912089516269
 20
-2.914594838724951
 30
0.0
 10
5.492548784656642
 20
-2.914818345457686
 30
0.0
 10
5.458631665170438
 20
-2.85293383894979
 30
0.0
 10
5.472279493684482
 20
-2.819885090905371
 30
0.0
 10
5.436661396926663
 20
-2.794523812952471
 30
0.0
 10
5.440459690321227
 20
-2.831659552405931
 30
0.0
 10
5.443691467114578
 20
-2.859680591096043
 30
0.0
 10
5.446872902182424
 20
-2.897924046347851
 30
0.0
 10
5.425024056759158
 20
-2.944569826258859
 30
0.0
 10
5.443680391261775
 20
-2.980721447096407
 30
0.0
  0
SPLINE
  5
B2
330
7C
100
AcDbEntity
  8
Poneglyph
100
AcDbSpline
210
0.0
220
0.0
230
1.0
 70
     9
 71
     3
 72
    14
 73
    10
 74
     0
 42
0.0000000001
 43
0.0000000001
 40
0.0
 40
0.0
 40
0.0
 40
0.0
 40
1.0
 40
1.0
 40
1.0
 40
2.0
 40
2.0
 40
2.0
 40
3.0
 40
3.0
 40
3.0
 40
3.0
 10
5.482159666435387
 20
-2.796096881124185
 30
0.0
 10
5.500720993928021
 20
-2.845110903686594
 30
0.0
 10
5.485197301334361
 20
-2.912068948308084
 30
0.0
 10
5.488608801508513
 20
-2.967888613977291
 30
0.0
 10
5.515494774764369
 20
-3.014997561521668
 30
0.0
 10
5.431210146448393
 20
-3.008121200441286
 30
0.0
 10
5.41928992335963
 20
-2.977525093757018
 30
0.0
 10
5.431387287643903
 20
-2.916874930755284
 30
0.0
 10
5.38249445016082
 20
-2.778580865054537
 30
0.0
 10
5.482159666435387
 20
-2.796096881124185
 30
0.0
  0
SPLINE
  5
B3
330
7C
100
AcDbEntity
  8
Poneglyph
100
AcDbSpline
210
0.0
220
0.0
230
1.0
 70
     9
 71
     3
 72
    11
 73
     7
 74
     0
 42
0.0000000001
 43
0.0000000001
 40
0.0
 40
0.0
 40
0.0
 40
0.0
 40
1.0
 40
1.0
 40
1.0
 40
2.0
 40
2.0
 40
2.0
 40
2.0
 10
5.386714245428442
 20
-2.891474485290851
 30
0.0
 10
5.365440392905788
 20
-2.867024227331007
 30
0.0
 10
5.388750306851483
 20
-2.729004432913067
 30
0.0
 10
5.399366120948418
 20
-2.815055552321988
 30
0.0
 10
5.394115111772609
 20
-2.836313385246487
 30
0.0
 10
5.412501525460255
 20
-2.883056337860504
 30
0.0
 10
5.386714245428442
 20
-2.891474485290851
 30
0.0
  0
SPLINE
  5
B4
330
7C
100
AcDbEntity
  8
Poneglyph
100
AcDbSpline
210
0.0
220
0.0
230
1.0
 70
     9
 71
     3
 72
    11
 73
     7
 74
     0
 42
0.0000000001
 43
0.0000000001
 40
0.0
 40
0.0
 40
0.0
 40
0.0
 40
1.0
 40
1.0
 40
1.0
 40
2.0
 40
2.0
 40
2.0
 40
2.0
 10
5.38680918900483
 20
-2.967890500915851
 30
0.0
 10
5.412768484956055
 20
-2.965157200591773
 30
0.0
 10
5.410711300435624
 20
-3.001894067702727
 30
0.0
 10
5.386807910634716
 20
-2.999682958250888
 30
0.0
 10
5.371031587036364
 20
-2.999277158877905
 30
0.0
 10
5.368681786421094
 20
-2.968074904552723
 30
0.0
 10
5.38680918900483
 20
-2.967890500915851
 30
0.0
  0
SPLINE
  5
B5
330
7C
100
AcDbEntity
  8
Poneglyph
100
AcDbSpline
210
0.0
220
0.0
230
1.0
 70
     9
 71
     3
 72
    26
 73
    22
 74
     0
 42
0.0000000001
 43
0.0000000001
 40
0.0
 40
0.0
 40
0.0
 40
0.0
 40
1.0
 40
1.0
 40
1.0
 40
2.0
 40
2.0
 40
2.0
 40
3.0
 40
3.0
 40
3.0
 40
4.0
 40
4.0
 40
4.0
 40
5.0
 40
5.0
 40
5.0
 40
6.0
 40
6.0
 40
6.0
 40
7.0
 40
7.0
 40
7.0
 40
7.0
 10
5.38680918900483
 20
-2.929682493103351
 30
0.0
 10
5.381782141481557
 20
-2.948872044977633
 30
0.0
 10
5.297799766382291
 20
-3.005704929020617
 30
0.0
 10
5.285022992667487
 20
-2.986873693724848
 30
0.0
 10
5.288347857971857
 20
-2.946352416873297
 30
0.0
 10
5.26115105447401
 20
-2.794749423510488
 30
0.0
 10
5.296812565809861
 20
-2.790403695216759
 30
0.0
 10
5.29653329033014
 20
-2.875631208001803
 30
0.0
 10
5.32328511304177
 20
-2.795311293268973
 30
0.0
 10
5.348617949536118
 20
-2.82786924715621
 30
0.0
 10
5.318435123968153
 20
-2.848256288067634
 30
0.0
 10
5.264304594170829
 20
-2.901134350571813
 30
0.0
 10
5.340599987441262
 20
-2.871662928788762
 30
0.0
 10
5.379102599223288
 20
-2.866915410770262
 30
0.0
 10
5.332323492295093
 20
-2.916074085077601
 30
0.0
 10
5.310394392542497
 20
-2.904295110873135
 30
0.0
 10
5.282449215894378
 20
-2.899886428752425
 30
0.0
 10
5.313185147995656
 20
-2.92333158555895
 30
0.0
 10
5.300760830125252
 20
-2.9360984560881
 30
0.0
 10
5.27460804940559
 20
-3.021707911147889
 30
0.0
 10
5.381362978406539
 20
-2.887436883603261
 30
0.0
 10
5.38680918900483
 20
-2.929682493103351
 30
0.0
  0
HATCH
  5
B6
330
7C
100
AcDbEntity
  8
Poneglyph
 62
   250
420
  2301728
440
 33554687
100
AcDbHatch
 10
0.0
 20
0.0
 30
0.0
210
0.0
220
0.0
230
1.0
  2
SOLID
 70
     1
 71
     1
 91
        5
 92
        1
 93
        1
 72
     4
 94
        3
 73
     0
 74
     0
 95
       20
 96
       16
 40
0.0
 40
0.0
 40
0.0
 40
0.0
 40
1.0
 40
1.0
 40
1.0
 40
2.0
 40
2.0
 40
2.0
 40
3.0
 40
3.0
 40
3.0
 40
4.0
 40
4.0
 40
4.0
 40
5.0
 40
5.0
 40
5.0
 40
5.0
 10
5.443680391261775
 20
-2.980721447096407
 10
5.481539412404067
 20
-2.994950759574142
 10
5.471494856391599
 20
-2.953252834579845
 10
5.469644054345634
 20
-2.929678764925029
 10
5.461470996618092
 20
-2.925045071387001
 10
5.432890235916753
 20
-2.936287713583649
 10
5.447912089516269
 20
-2.914594838724951
 10
5.492548784656642
 20
-2.914818345457686
 10
5.458631665170438
 20
-2.85293383894979
 10
5.472279493684482
 20
-2.819885090905371
 10
5.436661396926663
 20
-2.794523812952471
 10
5.440459690321227
 20
-2.831659552405931
 10
5.443691467114578
 20
-2.859680591096043
 10
5.446872902182424
 20
-2.897924046347851
 10
5.425024056759158
 20
-2.944569826258859
 10
5.443680391261775
 20
-2.980721447096407
 97
        0
 97
        1
330
B1
 92
        1
 93
        1
 72
     4
 94
        3
 73
     0
 74
     0
 95
       14
 96
       10
 40
0.0
 40
0.0
 40
0.0
 40
0.0
 40
1.0
 40
1.0
 40
1.0
 40
2.0
 40
2.0
 40
2.0
 40
3.0
 40
3.0
 40
3.0
 40
3.0
 10
5.482159666435387
 20
-2.796096881124185
 10
5.500720993928021
 20
-2.845110903686594
 10
5.485197301334361
 20
-2.912068948308084
 10
5.488608801508513
 20
-2.967888613977291
 10
5.515494774764369
 20
-3.014997561521668
 10
5.431210146448393
 20
-3.008121200441286
 10
5.41928992335963
 20
-2.977525093757018
 10
5.431387287643903
 20
-2.916874930755284
 10
5.38249445016082
 20
-2.778580865054537
 10
5.482159666435387
 20
-2.796096881124185
 97
        0
 97
        1
330
B2
 92
        1
 93
        1
 72
     4
 94
        3
 73
     0
 74
     0
 95
       11
 96
        7
 40
0.0
 40
0.0
 40
0.0
 40
0.0
 40
1.0
 40
1.0
 40
1.0
 40
2.0
 40
2.0
 40
2.0
 40
2.0
 10
5.386714245428442
 20
-2.891474485290851
 10
5.365440392905788
 20
-2.867024227331007
 10
5.388750306851483
 20
-2.729004432913067
 10
5.399366120948418
 20
-2.815055552321988
 10
5.394115111772609
 20
-2.836313385246487
 10
5.412501525460255
 20
-2.883056337860504
 10
5.386714245428442
 20
-2.891474485290851
 97
        0
 97
        1
330
B3
 92
        1
 93
        1
 72
     4
 94
        3
 73
     0
 74
     0
 95
       11
 96
        7
 40
0.0
 40
0.0
 40
0.0
 40
0.0
 40
1.0
 40
1.0
 40
1.0
 40
2.0
 40
2.0
 40
2.0
 40
2.0
 10
5.38680918900483
 20
-2.967890500915851
 10
5.412768484956055
 20
-2.965157200591773
 10
5.410711300435624
 20
-3.001894067702727
 10
5.386807910634716
 20
-2.999682958250888
 10
5.371031587036364
 20
-2.999277158877905
 10
5.368681786421094
 20
-2.968074904552723
 10
5.38680918900483
 20
-2.967890500915851
 97
        0
 97
        1
330
B4
 92
        1
 93
        1
 72
     4
 94
        3
 73
     0
 74
     0
 95
       26
 96
       22
 40
0.0
 40
0.0
 40
0.0
 40
0.0
 40
1.0
 40
1.0
 40
1.0
 40
2.0
 40
2.0
 40
2.0
 40
3.0
 40
3.0
 40
3.0
 40
4.0
 40
4.0
 40
4.0
 40
5.0
 40
5.0
 40
5.0
 40
6.0
 40
6.0
 40
6.0
 40
7.0
 40
7.0
 40
7.0
 40
7.0
 10
5.38680918900483
 20
-2.929682493103351
 10
5.381782141481557
 20
-2.948872044977633
 10
5.297799766382291
 20
-3.005704929020617
 10
5.285022992667487
 20
-2.986873693724848
 10
5.288347857971857
 20
-2.946352416873297
 10
5.26115105447401
 20
-2.794749423510488
 10
5.296812565809861
 20
-2.790403695216759
 10
5.29653329033014
 20
-2.875631208001803
 10
5.32328511304177
 20
-2.795311293268973
 10
5.348617949536118
 20
-2.82786924715621
 10
5.318435123968153
 20
-2.848256288067634
 10
5.264304594170829
 20
-2.901134350571813
 10
5.340599987441262
 20
-2.871662928788762
 10
5.379102599223288
 20
-2.866915410770262
 10
5.332323492295093
 20
-2.916074085077601
 10
5.310394392542497
 20
-2.904295110873135
 10
5.282449215894378
 20
-2.899886428752425
 10
5.313185147995656
 20
-2.92333158555895
 10
5.300760830125252
 20
-2.9360984560881
 10
5.27460804940559
 20
-3.021707911147889
 10
5.381362978406539
 20
-2.887436883603261
 10
5.38680918900483
 20
-2.929682493103351
 97
        0
 97
        1
330
B5
 75
     2
 76
     1
 98
        1
 10
0.0
 20
0.0
450
        0
451
        0
460
0.0
461
0.0
452
        0
462
0.0
453
        0
470

  0
SPLINE
  5
B7
330
7C
100
AcDbEntity
  8
Poneglyph
100
AcDbSpline
210
0.0
220
0.0
230
1.0
 70
     9
 71
     3
 72
    11
 73
     7
 74
     0
 42
0.0000000001
 43
0.0000000001
 40
0.0
 40
0.0
 40
0.0
 40
0.0
 40
1.0
 40
1.0
 40
1.0
 40
2.0
 40
2.0
 40
2.0
 40
2.0
 10
5.70590098587983
 20
-2.996155965565725
 30
0.0
 10
5.671369631409358
 20
-3.040829809694792
 30
0.0
 10
5.676602847244768
 20
-2.850699316967292
 30
0.0
 10
5.712613542725622
 20
-2.915073724260739
 30
0.0
 10
5.695234512160191
 20
-2.941957669672243
 30
0.0
 10
5.719211410193186
 20
-2.968994454323238
 30
0.0
 10
5.70590098587983
 20
-2.996155965565725
 30
0.0
  0
SPLINE
  5
B8
330
7C
100
AcDbEntity
  8
Poneglyph
100
AcDbSpline
210
0.0
220
0.0
230
1.0
 70
     9
 71
     3
 72
    11
 73
     7
 74
     0
 42
0.0000000001
 43
0.0000000001
 40
0.0
 40
0.0
 40
0.0
 40
0.0
 40
1.0
 40
1.0
 40
1.0
 40
2.0
 40
2.0
 40
2.0
 40
2.0
 10
5.699200682060387
 20
-2.867832940392114
 30
0.0
 10
5.70034106022677
 20
-2.876382290893565
 30
0.0
 10
5.692205609858218
 20
-2.873695921606364
 30
0.0
 10
5.685488142959709
 20
-2.874248647948181
 30
0.0
 10
5.646483334351867
 20
-2.874145439871072
 30
0.0
 10
5.701213509130663
 20
-2.832897286677658
 30
0.0
 10
5.699200682060387
 20
-2.867832940392114
 30
0.0
  0
SPLINE
  5
B9
330
7C
100
AcDbEntity
  8
Poneglyph
100
AcDbSpline
210
0.0
220
0.0
230
1.0
 70
     9
 71
     3
 72
    17
 73
    13
 74
     0
 42
0.0000000001
 43
0.0000000001
 40
0.0
 40
0.0
 40
0.0
 40
0.0
 40
1.0
 40
1.0
 40
1.0
 40
2.0
 40
2.0
 40
2.0
 40
3.0
 40
3.0
 40
3.0
 40
4.0
 40
4.0
 40
4.0
 40
4.0
 10
5.746441892997887
 20
-2.901375149593503
 30
0.0
 10
5.719611834658608
 20
-2.896341371844932
 30
0.0
 10
5.736562469947178
 20
-2.846470905129283
 30
0.0
 10
5.733751238170624
 20
-2.825829898112386
 30
0.0
 10
5.746831510091523
 20
-2.790125833971235
 30
0.0
 10
5.610292491801752
 20
-2.828249933584907
 30
0.0
 10
5.611406517296725
 20
-2.800168291238605
 30
0.0
 10
5.647293024311036
 20
-2.773997615894106
 30
0.0
 10
5.708149471925834
 20
-2.790304587391169
 30
0.0
 10
5.749655188086484
 20
-2.794022349465346
 30
0.0
 10
5.754667282279746
 20
-2.823201541835083
 30
0.0
 10
5.759863363432941
 20
-2.874737484297333
 30
0.0
 10
5.746441892997887
 20
-2.901375149593503
 30
0.0
  0
SPLINE
  5
BA
330
7C
100
AcDbEntity
  8
Poneglyph
100
AcDbSpline
210
0.0
220
0.0
230
1.0
 70
     9
 71
     3
 72
    26
 73
    22
 74
     0
 42
0.0000000001
 43
0.0000000001
 40
0.0
 40
0.0
 40
0.0
 40
0.0
 40
1.0
 40
1.0
 40
1.0
 40
2.0
 40
2.0
 40
2.0
 40
3.0
 40
3.0
 40
3.0
 40
4.0
 40
4.0
 40
4.0
 40
5.0
 40
5.0
 40
5.0
 40
6.0
 40
6.0
 40
6.0
 40
7.0
 40
7.0
 40
7.0
 40
7.0
 10
5.557151528414553
 20
-2.90837384751017
 30
0.0
 10
5.58446746823736
 20
-2.912654531975274
 30
0.0
 10
5.563393257191415
 20
-2.956392477248654
 30
0.0
 10
5.572183562324198
 20
-2.97500931358104
 30
0.0
 10
5.608888669809756
 20
-3.004484714188619
 30
0.0
 10
5.625071613771827
 20
-2.943562403751886
 30
0.0
 10
5.618109635951163
 20
-2.915076250985091
 30
0.0
 10
5.61632731110583
 20
-2.885868523064977
 30
0.0
 10
5.65612356946278
 20
-2.909132997385768
 30
0.0
 10
5.671055234492414
 20
-2.909241050430157
 30
0.0
 10
5.672981063478042
 20
-2.928711235350242
 30
0.0
 10
5.671178001378999
 20
-2.956125286828359
 30
0.0
 10
5.671776724043107
 20
-2.976041499785524
 30
0.0
 10
5.661064681306545
 20
-3.047682279543853
 30
0.0
 10
5.645997826165234
 20
-2.95129084388231
 30
0.0
 10
5.651684366654712
 20
-2.928493096804635
 30
0.0
 10
5.626654587990009
 20
-2.903003318664837
 30
0.0
 10
5.645021167388904
 20
-2.960227798689275
 30
0.0
 10
5.635317057067191
 20
-2.971224812984928
 30
0.0
 10
5.589979679855357
 20
-3.052105935446105
 30
0.0
 10
5.515290556409632
 20
-2.965631256115582
 30
0.0
 10
5.557151528414553
 20
-2.90837384751017
 30
0.0
  0
SPLINE
  5
BB
330
7C
100
AcDbEntity
  8
Poneglyph
100
AcDbSpline
210
0.0
220
0.0
230
1.0
 70
     9
 71
     3
 72
    20
 73
    16
 74
     0
 42
0.0000000001
 43
0.0000000001
 40
0.0
 40
0.0
 40
0.0
 40
0.0
 40
1.0
 40
1.0
 40
1.0
 40
2.0
 40
2.0
 40
2.0
 40
3.0
 40
3.0
 40
3.0
 40
4.0
 40
4.0
 40
4.0
 40
5.0
 40
5.0
 40
5.0
 40
5.0
 10
5.550451224595108
 20
-2.881247111399059
 30
0.0
 10
5.524380619138658
 20
-2.875281972079442
 30
0.0
 10
5.541299074541838
 20
-2.832661830155832
 30
0.0
 10
5.53673303751917
 20
-2.813283048165228
 30
0.0
 10
5.526577505092998
 20
-2.778094326597207
 30
0.0
 10
5.578420647391971
 20
-2.780920902812643
 30
0.0
 10
5.597695097028108
 20
-2.793162384835972
 30
0.0
 10
5.571539318714258
 20
-2.82559366674713
 30
0.0
 10
5.550453311410769
 20
-2.780451419505854
 30
0.0
 10
5.554688686773993
 20
-2.85078609977116
 30
0.0
 10
5.556258009934102
 20
-2.877708923583289
 30
0.0
 10
5.607493922022336
 20
-2.85611842214482
 30
0.0
 10
5.624530300342485
 20
-2.854126136897699
 30
0.0
 10
5.711904753629874
 20
-2.874944088996092
 30
0.0
 10
5.580941073986195
 20
-2.888749831348554
 30
0.0
 10
5.550451224595108
 20
-2.881247111399059
 30
0.0
  0
HATCH
  5
BC
330
7C
100
AcDbEntity
  8
Poneglyph
 62
   250
420
  2301728
440
 33554687
100
AcDbHatch
 10
0.0
 20
0.0
 30
0.0
210
0.0
220
0.0
230
1.0
  2
SOLID
 70
     1
 71
     1
 91
        5
 92
        1
 93
        1
 72
     4
 94
        3
 73
     0
 74
     0
 95
       11
 96
        7
 40
0.0
 40
0.0
 40
0.0
 40
0.0
 40
1.0
 40
1.0
 40
1.0
 40
2.0
 40
2.0
 40
2.0
 40
2.0
 10
5.70590098587983
 20
-2.996155965565725
 10
5.671369631409358
 20
-3.040829809694792
 10
5.676602847244768
 20
-2.850699316967292
 10
5.712613542725622
 20
-2.915073724260739
 10
5.695234512160191
 20
-2.941957669672243
 10
5.719211410193186
 20
-2.968994454323238
 10
5.70590098587983
 20
-2.996155965565725
 97
        0
 97
        1
330
B7
 92
        1
 93
        1
 72
     4
 94
        3
 73
     0
 74
     0
 95
       11
 96
        7
 40
0.0
 40
0.0
 40
0.0
 40
0.0
 40
1.0
 40
1.0
 40
1.0
 40
2.0
 40
2.0
 40
2.0
 40
2.0
 10
5.699200682060387
 20
-2.867832940392114
 10
5.70034106022677
 20
-2.876382290893565
 10
5.692205609858218
 20
-2.873695921606364
 10
5.685488142959709
 20
-2.874248647948181
 10
5.646483334351867
 20
-2.874145439871072
 10
5.701213509130663
 20
-2.832897286677658
 10
5.699200682060387
 20
-2.867832940392114
 97
        0
 97
        1
330
B8
 92
        1
 93
        1
 72
     4
 94
        3
 73
     0
 74
     0
 95
       17
 96
       13
 40
0.0
 40
0.0
 40
0.0
 40
0.0
 40
1.0
 40
1.0
 40
1.0
 40
2.0
 40
2.0
 40
2.0
 40
3.0
 40
3.0
 40
3.0
 40
4.0
 40
4.0
 40
4.0
 40
4.0
 10
5.746441892997887
 20
-2.901375149593503
 10
5.719611834658608
 20
-2.896341371844932
 10
5.736562469947178
 20
-2.846470905129283
 10
5.733751238170624
 20
-2.825829898112386
 10
5.746831510091523
 20
-2.790125833971235
 10
5.610292491801752
 20
-2.828249933584907
 10
5.611406517296725
 20
-2.800168291238605
 10
5.647293024311036
 20
-2.773997615894106
 10
5.708149471925834
 20
-2.790304587391169
 10
5.749655188086484
 20
-2.794022349465346
 10
5.754667282279746
 20
-2.823201541835083
 10
5.759863363432941
 20
-2.874737484297333
 10
5.746441892997887
 20
-2.901375149593503
 97
        0
 97
        1
330
B9
 92
        1
 93
        1
 72
     4
 94
        3
 73
     0
 74
     0
 95
       26
 96
       22
 40
0.0
 40
0.0
 40
0.0
 40
0.0
 40
1.0
 40
1.0
 40
1.0
 40
2.0
 40
2.0
 40
2.0
 40
3.0
 40
3.0
 40
3.0
 40
4.0
 40
4.0
 40
4.0
 40
5.0
 40
5.0
 40
5.0
 40
6.0
 40
6.0
 40
6.0
 40
7.0
 40
7.0
 40
7.0
 40
7.0
 10
5.557151528414553
 20
-2.90837384751017
 10
5.58446746823736
 20
-2.912654531975274
 10
5.563393257191415
 20
-2.956392477248654
 10
5.572183562324198
 20
-2.97500931358104
 10
5.608888669809756
 20
-3.004484714188619
 10
5.625071613771827
 20
-2.943562403751886
 10
5.618109635951163
 20
-2.915076250985091
 10
5.61632731110583
 20
-2.885868523064977
 10
5.65612356946278
 20
-2.909132997385768
 10
5.671055234492414
 20
-2.909241050430157
 10
5.672981063478042
 20
-2.928711235350242
 10
5.671178001378999
 20
-2.956125286828359
 10
5.671776724043107
 20
-2.976041499785524
 10
5.661064681306545
 20
-3.047682279543853
 10
5.645997826165234
 20
-2.95129084388231
 10
5.651684366654712
 20
-2.928493096804635
 10
5.626654587990009
 20
-2.903003318664837
 10
5.645021167388904
 20
-2.960227798689275
 10
5.635317057067191
 20
-2.971224812984928
 10
5.589979679855357
 20
-3.052105935446105
 10
5.515290556409632
 20
-2.965631256115582
 10
5.557151528414553
 20
-2.90837384751017
 97
        0
 97
        1
330
BA
 92
        1
 93
        1
 72
     4
 94
        3
 73
     0
 74
     0
 95
       20
 96
       16
 40
0.0
 40
0.0
 40
0.0
 40
0.0
 40
1.0
 40
1.0
 40
1.0
 40
2.0
 40
2.0
 40
2.0
 40
3.0
 40
3.0
 40
3.0
 40
4.0
 40
4.0
 40
4.0
 40
5.0
 40
5.0
 40
5.0
 40
5.0
 10
5.550451224595108
 20
-2.881247111399059
 10
5.524380619138658
 20
-2.875281972079442
 10
5.541299074541838
 20
-2.832661830155832
 10
5.53673303751917
 20
-2.813283048165228
 10
5.526577505092998
 20
-2.778094326597207
 10
5.578420647391971
 20
-2.780920902812643
 10
5.597695097028108
 20
-2.793162384835972
 10
5.571539318714258
 20
-2.82559366674713
 10
5.550453311410769
 20
-2.780451419505854
 10
5.554688686773993
 20
-2.85078609977116
 10
5.556258009934102
 20
-2.877708923583289
 10
5.607493922022336
 20
-2.85611842214482
 10
5.624530300342485
 20
-2.854126136897699
 10
5.711904753629874
 20
-2.874944088996092
 10
5.580941073986195
 20
-2.888749831348554
 10
5.550451224595108
 20
-2.881247111399059
 97
        0
 97
        1
330
BB
 75
     2
 76
     1
 98
        1
 10
0.0
 20
0.0
450
        0
451
        0
460
0.0
461
0.0
452
        0
462
0.0
453
        0
470

  0
SPLINE
  5
BD
330
7C
100
AcDbEntity
  8
Poneglyph
100
AcDbSpline
210
0.0
220
0.0
230
1.0
 70
     9
 71
     3
 72
    14
 73
    10
 74
     0
 42
0.0000000001
 43
0.0000000001
 40
0.0
 40
0.0
 40
0.0
 40
0.0
 40
1.0
 40
1.0
 40
1.0
 40
2.0
 40
2.0
 40
2.0
 40
3.0
 40
3.0
 40
3.0
 40
3.0
 10
5.896656194213164
 20
-2.801439611573982
 30
0.0
 10
5.92537669899285
 20
-2.776989463904189
 30
0.0
 10
5.913355301211898
 20
-2.831986943990424
 30
0.0
 10
5.915618205418215
 20
-2.846062091571676
 30
0.0
 10
5.910823061174292
 20
-2.862522441540287
 30
0.0
 10
5.937227931401872
 20
-2.91646723547851
 30
0.0
 10
5.900587596743258
 20
-2.899302808200079
 30
0.0
 10
5.890538554865037
 20
-2.871122400150106
 30
0.0
 10
5.899595829710151
 20
-2.83180312536313
 30
0.0
 10
5.896656194213164
 20
-2.801439611573982
 30
0.0
  0
SPLINE
  5
BE
330
7C
100
AcDbEntity
  8
Poneglyph
100
AcDbSpline
210
0.0
220
0.0
230
1.0
 70
     9
 71
     3
 72
    29
 73
    25
 74
     0
 42
0.0000000001
 43
0.0000000001
 40
0.0
 40
0.0
 40
0.0
 40
0.0
 40
1.0
 40
1.0
 40
1.0
 40
2.0
 40
2.0
 40
2.0
 40
3.0
 40
3.0
 40
3.0
 40
4.0
 40
4.0
 40
4.0
 40
5.0
 40
5.0
 40
5.0
 40
6.0
 40
6.0
 40
6.0
 40
7.0
 40
7.0
 40
7.0
 40
8.0
 40
8.0
 40
8.0
 40
8.0
 10
5.99203379837983
 20
-2.788608665393426
 30
0.0
 10
6.013975987005854
 20
-2.78102568599498
 30
0.0
 10
6.010288964816178
 20
-2.992685682589542
 30
0.0
 10
5.996717096965312
 20
-2.997728507013119
 30
0.0
 10
5.960188960218474
 20
-3.00245199845195
 30
0.0
 10
5.998331386243484
 20
-2.936503937138758
 30
0.0
 10
5.981089761460983
 20
-2.927158985735142
 30
0.0
 10
5.960086510116676
 20
-2.939377765650116
 30
0.0
 10
5.923359279459291
 20
-2.938053556484027
 30
0.0
 10
5.900588960294726
 20
-2.930896762718841
 30
0.0
 10
5.884402129463296
 20
-2.906699059828433
 30
0.0
 10
5.935320687079587
 20
-2.919329627980168
 30
0.0
 10
5.947404831256208
 20
-2.909356476384989
 30
0.0
 10
5.979126193195699
 20
-2.9126996766046
 30
0.0
 10
5.992597208356553
 20
-2.9141073553013
 30
0.0
 10
5.985894648230492
 20
-2.877563167402273
 30
0.0
 10
5.994108014568205
 20
-2.835727496380854
 30
0.0
 10
5.98008490340741
 20
-2.843912410256039
 30
0.0
 10
5.954095267074308
 20
-2.832966082732216
 30
0.0
 10
6.008813346174317
 20
-2.812123407920441
 30
0.0
 10
5.982009752599878
 20
-2.807901562879363
 30
0.0
 10
5.938789916543151
 20
-2.803783892496148
 30
0.0
 10
5.921319319399268
 20
-2.77738319226618
 30
0.0
 10
5.979477364920663
 20
-2.792222691813688
 30
0.0
 10
5.99203379837983
 20
-2.788608665393426
 30
0.0
  0
SPLINE
  5
BF
330
7C
100
AcDbEntity
  8
Poneglyph
100
AcDbSpline
210
0.0
220
0.0
230
1.0
 70
     9
 71
     3
 72
    11
 73
     7
 74
     0
 42
0.0000000001
 43
0.0000000001
 40
0.0
 40
0.0
 40
0.0
 40
0.0
 40
1.0
 40
1.0
 40
1.0
 40
2.0
 40
2.0
 40
2.0
 40
2.0
 10
5.852032713310387
 20
-2.960402285185093
 30
0.0
 10
5.835789132542104
 20
-2.960268541865679
 30
0.0
 10
5.83605256021633
 20
-2.935286616747703
 30
0.0
 10
5.85203403166454
 20
-2.935025205486415
 30
0.0
 10
5.868315338614189
 20
-2.935310815612094
 30
0.0
 10
5.868584278297803
 20
-2.960254541122127
 30
0.0
 10
5.852032713310387
 20
-2.960402285185093
 30
0.0
  0
SPLINE
  5
C0
330
7C
100
AcDbEntity
  8
Poneglyph
100
AcDbSpline
210
0.0
220
0.0
230
1.0
 70
     9
 71
     3
 72
    11
 73
     7
 74
     0
 42
0.0000000001
 43
0.0000000001
 40
0.0
 40
0.0
 40
0.0
 40
0.0
 40
1.0
 40
1.0
 40
1.0
 40
2.0
 40
2.0
 40
2.0
 40
2.0
 10
5.864863659490942
 20
-2.890550939698982
 30
0.0
 10
5.864664687507203
 20
-2.906759952669024
 30
0.0
 10
5.839531977873851
 20
-2.906939517300252
 30
0.0
 10
5.839486695397226
 20
-2.890549518707795
 30
0.0
 10
5.839528083299253
 20
-2.874151824042946
 30
0.0
 10
5.864674652430545
 20
-2.874328973287586
 30
0.0
 10
5.864863659490942
 20
-2.890550939698982
 30
0.0
  0
SPLINE
  5
C1
330
7C
100
AcDbEntity
  8
Poneglyph
100
AcDbSpline
210
0.0
220
0.0
230
1.0
 70
     9
 71
     3
 72
    29
 73
    25
 74
     0
 42
0.0000000001
 43
0.0000000001
 40
0.0
 40
0.0
 40
0.0
 40
0.0
 40
1.0
 40
1.0
 40
1.0
 40
2.0
 40
2.0
 40
2.0
 40
3.0
 40
3.0
 40
3.0
 40
4.0
 40
4.0
 40
4.0
 40
5.0
 40
5.0
 40
5.0
 40
6.0
 40
6.0
 40
6.0
 40
7.0
 40
7.0
 40
7.0
 40
8.0
 40
8.0
 40
8.0
 40
8.0
 10
5.807504175983997
 20
-2.788608665393426
 30
0.0
 10
5.828553016421513
 20
-2.799620715314618
 30
0.0
 10
5.80672728179032
 20
-2.840375128693203
 30
0.0
 10
5.81876374216439
 20
-2.847529974051705
 30
0.0
 10
5.845108292855911
 20
-2.832686060748591
 30
0.0
 10
5.854514512610649
 20
-2.781445132093684
 30
0.0
 10
5.884102329362449
 20
-2.788598889728632
 30
0.0
 10
5.889967241150846
 20
-2.829416100676894
 30
0.0
 10
5.818677835796052
 20
-2.844942302050172
 30
0.0
 10
5.817906606514876
 20
-2.884635323915606
 30
0.0
 10
5.826700253430342
 20
-2.92605439983884
 30
0.0
 10
5.785530333400325
 20
-2.997463803607476
 30
0.0
 10
5.858734541482211
 20
-2.979641615354959
 30
0.0
 10
5.879721602574818
 20
-2.977807432933875
 30
0.0
 10
5.898806314314393
 20
-2.987668688998471
 30
0.0
 10
5.900581086046082
 20
-2.964401699555878
 30
0.0
 10
5.939398937694173
 20
-2.94954696760236
 30
0.0
 10
5.917022883204834
 20
-3.015289467769497
 30
0.0
 10
5.883894061009641
 20
-2.998596861040204
 30
0.0
 10
5.856891848735383
 20
-2.99192766851316
 30
0.0
 10
5.787296339773749
 20
-3.018586177229242
 30
0.0
 10
5.794861460248916
 20
-2.973239658452067
 30
0.0
 10
5.804379484434093
 20
-2.917274501007151
 30
0.0
 10
5.775087802398527
 20
-2.8307523188973
 30
0.0
 10
5.807504175983997
 20
-2.788608665393426
 30
0.0
  0
HATCH
  5
C2
330
7C
100
AcDbEntity
  8
Poneglyph
 62
   250
420
  2301728
440
 33554687
100
AcDbHatch
 10
0.0
 20
0.0
 30
0.0
210
0.0
220
0.0
230
1.0
  2
SOLID
 70
     1
 71
     1
 91
        5
 92
        1
 93
        1
 72
     4
 94
        3
 73
     0
 74
     0
 95
       14
 96
       10
 40
0.0
 40
0.0
 40
0.0
 40
0.0
 40
1.0
 40
1.0
 40
1.0
 40
2.0
 40
2.0
 40
2.0
 40
3.0
 40
3.0
 40
3.0
 40
3.0
 10
5.896656194213164
 20
-2.801439611573982
 10
5.92537669899285
 20
-2.776989463904189
 10
5.913355301211898
 20
-2.831986943990424
 10
5.915618205418215
 20
-2.846062091571676
 10
5.910823061174292
 20
-2.862522441540287
 10
5.937227931401872
 20
-2.91646723547851
 10
5.900587596743258
 20
-2.899302808200079
 10
5.890538554865037
 20
-2.871122400150106
 10
5.899595829710151
 20
-2.83180312536313
 10
5.896656194213164
 20
-2.801439611573982
 97
        0
 97
        1
330
BD
 92
        1
 93
        1
 72
     4
 94
        3
 73
     0
 74
     0
 95
       29
 96
       25
 40
0.0
 40
0.0
 40
0.0
 40
0.0
 40
1.0
 40
1.0
 40
1.0
 40
2.0
 40
2.0
 40
2.0
 40
3.0
 40
3.0
 40
3.0
 40
4.0
 40
4.0
 40
4.0
 40
5.0
 40
5.0
 40
5.0
 40
6.0
 40
6.0
 40
6.0
 40
7.0
 40
7.0
 40
7.0
 40
8.0
 40
8.0
 40
8.0
 40
8.0
 10
5.99203379837983
 20
-2.788608665393426
 10
6.013975987005854
 20
-2.78102568599498
 10
6.010288964816178
 20
-2.992685682589542
 10
5.996717096965312
 20
-2.997728507013119
 10
5.960188960218474
 20
-3.00245199845195
 10
5.998331386243484
 20
-2.936503937138758
 10
5.981089761460983
 20
-2.927158985735142
 10
5.960086510116676
 20
-2.939377765650116
 10
5.923359279459291
 20
-2.938053556484027
 10
5.900588960294726
 20
-2.930896762718841
 10
5.884402129463296
 20
-2.906699059828433
 10
5.935320687079587
 20
-2.919329627980168
 10
5.947404831256208
 20
-2.909356476384989
 10
5.979126193195699
 20
-2.9126996766046
 10
5.992597208356553
 20
-2.9141073553013
 10
5.985894648230492
 20
-2.877563167402273
 10
5.994108014568205
 20
-2.835727496380854
 10
5.98008490340741
 20
-2.843912410256039
 10
5.954095267074308
 20
-2.832966082732216
 10
6.008813346174317
 20
-2.812123407920441
 10
5.982009752599878
 20
-2.807901562879363
 10
5.938789916543151
 20
-2.803783892496148
 10
5.921319319399268
 20
-2.77738319226618
 10
5.979477364920663
 20
-2.792222691813688
 10
5.99203379837983
 20
-2.788608665393426
 97
        0
 97
        1
330
BE
 92
        1
 93
        1
 72
     4
 94
        3
 73
     0
 74
     0
 95
       11
 96
        7
 40
0.0
 40
0.0
 40
0.0
 40
0.0
 40
1.0
 40
1.0
 40
1.0
 40
2.0
 40
2.0
 40
2.0
 40
2.0
 10
5.852032713310387
 20
-2.960402285185093
 10
5.835789132542104
 20
-2.960268541865679
 10
5.83605256021633
 20
-2.935286616747703
 10
5.85203403166454
 20
-2.935025205486415
 10
5.868315338614189
 20
-2.935310815612094
 10
5.868584278297803
 20
-2.960254541122127
 10
5.852032713310387
 20
-2.960402285185093
 97
        0
 97
        1
330
BF
 92
        1
 93
        1
 72
     4
 94
        3
 73
     0
 74
     0
 95
       11
 96
        7
 40
0.0
 40
0.0
 40
0.0
 40
0.0
 40
1.0
 40
1.0
 40
1.0
 40
2.0
 40
2.0
 40
2.0
 40
2.0
 10
5.864863659490942
 20
-2.890550939698982
 10
5.864664687507203
 20
-2.906759952669024
 10
5.839531977873851
 20
-2.906939517300252
 10
5.839486695397226
 20
-2.890549518707795
 10
5.839528083299253
 20
-2.874151824042946
 10
5.864674652430545
 20
-2.874328973287586
 10
5.864863659490942
 20
-2.890550939698982
 97
        0
 97
        1
330
C0
 92
        1
 93
        1
 72
     4
 94
        3
 73
     0
 74
     0
 95
       29
 96
       25
 40
0.0
 40
0.0
 40
0.0
 40
0.0
 40
1.0
 40
1.0
 40
1.0
 40
2.0
 40
2.0
 40
2.0
 40
3.0
 40
3.0
 40
3.0
 40
4.0
 40
4.0
 40
4.0
 40
5.0
 40
5.0
 40
5.0
 40
6.0
 40
6.0
 40
6.0
 40
7.0
 40
7.0
 40
7.0
 40
8.0
 40
8.0
 40
8.0
 40
8.0
 10
5.807504175983997
 20
-2.788608665393426
 10
5.828553016421513
 20
-2.799620715314618
 10
5.80672728179032
 20
-2.840375128693203
 10
5.81876374216439
 20
-2.847529974051705
 10
5.845108292855911
 20
-2.832686060748591
 10
5.854514512610649
 20
-2.781445132093684
 10
5.884102329362449
 20
-2.788598889728632
 10
5.889967241150846
 20
-2.829416100676894
 10
5.818677835796052
 20
-2.844942302050172
 10
5.817906606514876
 20
-2.884635323915606
 10
5.826700253430342
 20
-2.92605439983884
 10
5.785530333400325
 20
-2.997463803607476
 10
5.858734541482211
 20
-2.979641615354959
 10
5.879721602574818
 20
-2.977807432933875
 10
5.898806314314393
 20
-2.987668688998471
 10
5.900581086046082
 20
-2.964401699555878
 10
5.939398937694173
 20
-2.94954696760236
 10
5.917022883204834
 20
-3.015289467769497
 10
5.883894061009641
 20
-2.998596861040204
 10
5.856891848735383
 20
-2.99192766851316
 10
5.787296339773749
 20
-3.018586177229242
 10
5.794861460248916
 20
-2.973239658452067
 10
5.804379484434093
 20
-2.917274501007151
 10
5.775087802398527
 20
-2.8307523188973
 10
5.807504175983997
 20
-2.788608665393426
 97
        0
 97
        1
330
C1
 75
     2
 76
     1
 98
        1
 10
0.0
 20
0.0
450
        0
451
        0
460
0.0
461
0.0
452
        0
462
0.0
453
        0
470

  0
SPLINE
  5
C3
330
7C
100
AcDbEntity
  8
Poneglyph
100
AcDbSpline
210
0.0
220
0.0
230
1.0
 70
     9
 71
     3
 72
    11
 73
     7
 74
     0
 42
0.0000000001
 43
0.0000000001
 40
0.0
 40
0.0
 40
0.0
 40
0.0
 40
1.0
 40
1.0
 40
1.0
 40
2.0
 40
2.0
 40
2.0
 40
2.0
 10
5.15814436695622
 20
-3.154249150873333
 30
0.0
 10
5.15932482047578
 20
-3.167474311919603
 30
0.0
 10
5.146136210080864
 20
-3.232575809217071
 30
0.0
 10
5.16920768887169
 20
-3.230237465885819
 30
0.0
 10
5.171810018777957
 20
-3.218426662773506
 30
0.0
 10
5.182777277202502
 20
-3.124479951563797
 30
0.0
 10
5.15814436695622
 20
-3.154249150873333
 30
0.0
  0
SPLINE
  5
C4
330
7C
100
AcDbEntity
  8
Poneglyph
100
AcDbSpline
210
0.0
220
0.0
230
1.0
 70
     9
 71
     3
 72
    17
 73
    13
 74
     0
 42
0.0000000001
 43
0.0000000001
 40
0.0
 40
0.0
 40
0.0
 40
0.0
 40
1.0
 40
1.0
 40
1.0
 40
2.0
 40
2.0
 40
2.0
 40
3.0
 40
3.0
 40
3.0
 40
4.0
 40
4.0
 40
4.0
 40
4.0
 10
5.164559840046497
 20
-3.246412236810833
 30
0.0
 10
5.120123119774158
 20
-3.25846115895557
 30
0.0
 10
5.128054291044059
 20
-3.207554105034129
 30
0.0
 10
5.138313298666389
 20
-3.180503353193166
 30
0.0
 10
5.144853298780086
 20
-3.162903099333536
 30
0.0
 10
5.118739407453378
 20
-3.132468723504264
 30
0.0
 10
5.145309941141855
 20
-3.128003202794211
 30
0.0
 10
5.18468279132167
 20
-3.123667934314476
 30
0.0
 10
5.19683478001707
 20
-3.143429650283375
 30
0.0
 10
5.190796905224336
 20
-3.18051217813738
 30
0.0
 10
5.186070684415704
 20
-3.206508427152862
 30
0.0
 10
5.20737933142128
 20
-3.257235153325432
 30
0.0
 10
5.164559840046497
 20
-3.246412236810833
 30
0.0
  0
SPLINE
  5
C5
330
7C
100
AcDbEntity
  8
Poneglyph
100
AcDbSpline
210
0.0
220
0.0
230
1.0
 70
     9
 71
     3
 72
    11
 73
     7
 74
     0
 42
0.0000000001
 43
0.0000000001
 40
0.0
 40
0.0
 40
0.0
 40
0.0
 40
1.0
 40
1.0
 40
1.0
 40
2.0
 40
2.0
 40
2.0
 40
2.0
 10
5.099225096122887
 20
-3.115173087505278
 30
0.0
 10
5.099546103459563
 20
-3.098786845326256
 30
0.0
 10
5.131720745716493
 20
-3.096148669620257
 30
0.0
 10
5.131899217838533
 20
-3.115173919650032
 30
0.0
 10
5.134715151509277
 20
-3.141948129274522
 30
0.0
 10
5.096974798333323
 20
-3.139657683276633
 30
0.0
 10
5.099225096122887
 20
-3.115173087505278
 30
0.0
  0
SPLINE
  5
C6
330
7C
100
AcDbEntity
  8
Poneglyph
100
AcDbSpline
210
0.0
220
0.0
230
1.0
 70
     9
 71
     3
 72
    23
 73
    19
 74
     0
 42
0.0000000001
 43
0.0000000001
 40
0.0
 40
0.0
 40
0.0
 40
0.0
 40
1.0
 40
1.0
 40
1.0
 40
2.0
 40
2.0
 40
2.0
 40
3.0
 40
3.0
 40
3.0
 40
4.0
 40
4.0
 40
4.0
 40
5.0
 40
5.0
 40
5.0
 40
6.0
 40
6.0
 40
6.0
 40
6.0
 10
5.230477808796497
 20
-3.0690847628525
 30
0.0
 10
5.258756167800836
 20
-3.109951964666076
 30
0.0
 10
5.21945211373347
 20
-3.182839043410417
 30
0.0
 10
5.242299221338902
 20
-3.231979193480608
 30
0.0
 10
5.252178179669599
 20
-3.315148306827293
 30
0.0
 10
5.162548283898508
 20
-3.278295501187181
 30
0.0
 10
5.105633994822583
 20
-3.285503440257773
 30
0.0
 10
5.070135396678501
 20
-3.247941469701648
 30
0.0
 10
5.11554910792731
 20
-3.185420298529834
 30
0.0
 10
5.122995242199345
 20
-3.268593642118629
 30
0.0
 10
5.2700492866439
 20
-3.268508524643468
 30
0.0
 10
5.203770534805496
 20
-3.263623802969883
 30
0.0
 10
5.217073776834947
 20
-3.108451155464131
 30
0.0
 10
5.191820169153086
 20
-3.155657052409171
 30
0.0
 10
5.110936163317672
 20
-3.105487637990588
 30
0.0
 10
5.145309391014456
 20
-3.069078996997177
 30
0.0
 10
5.185159041600576
 20
-3.127290830641843
 30
0.0
 10
5.180597082734189
 20
-3.104906942850852
 30
0.0
 10
5.230477808796497
 20
-3.0690847628525
 30
0.0
  0
SPLINE
  5
C7
330
7C
100
AcDbEntity
  8
Poneglyph
100
AcDbSpline
210
0.0
220
0.0
230
1.0
 70
     9
 71
     3
 72
    17
 73
    13
 74
     0
 42
0.0000000001
 43
0.0000000001
 40
0.0
 40
0.0
 40
0.0
 40
0.0
 40
1.0
 40
1.0
 40
1.0
 40
2.0
 40
2.0
 40
2.0
 40
3.0
 40
3.0
 40
3.0
 40
4.0
 40
4.0
 40
4.0
 40
4.0
 10
5.026891654282608
 20
-3.206752948616389
 30
0.0
 10
4.987835121141895
 20
-3.17010904413352
 30
0.0
 10
5.165600346214987
 20
-3.184923628386766
 30
0.0
 10
5.105642439824401
 20
-3.206754541795918
 30
0.0
 10
5.062007799664999
 20
-3.198905057069749
 30
0.0
 10
5.062226574930743
 20
-3.214307865010823
 30
0.0
 10
5.06657403967799
 20
-3.252850409793735
 30
0.0
 10
5.076996617338888
 20
-3.296299459213084
 30
0.0
 10
5.031071611125449
 20
-3.295219840384586
 30
0.0
 10
5.040305715787654
 20
-3.252839516945893
 30
0.0
 10
5.044205425482787
 20
-3.233796312485714
 30
0.0
 10
5.063496752541292
 20
-3.195305305829201
 30
0.0
 10
5.026891654282608
 20
-3.206752948616389
 30
0.0
  0
SPLINE
  5
C8
330
7C
100
AcDbEntity
  8
Poneglyph
100
AcDbSpline
210
0.0
220
0.0
230
1.0
 70
     9
 71
     3
 72
    20
 73
    16
 74
     0
 42
0.0000000001
 43
0.0000000001
 40
0.0
 40
0.0
 40
0.0
 40
0.0
 40
1.0
 40
1.0
 40
1.0
 40
2.0
 40
2.0
 40
2.0
 40
3.0
 40
3.0
 40
3.0
 40
4.0
 40
4.0
 40
4.0
 40
5.0
 40
5.0
 40
5.0
 40
5.0
 10
5.026891654282608
 20
-3.167663321880278
 30
0.0
 10
5.012216428076095
 20
-3.142383920347305
 30
0.0
 10
5.02412807978155
 20
-3.104179450005984
 30
0.0
 10
5.020470180993545
 20
-3.075501172177786
 30
0.0
 10
5.041601354453026
 20
-3.063763045339353
 30
0.0
 10
5.08938156686885
 20
-3.065013499302418
 30
0.0
 10
5.112055872522609
 20
-3.075487055828539
 30
0.0
 10
5.106348498544396
 20
-3.100536036426345
 30
0.0
 10
5.063431723736003
 20
-3.086455245279668
 30
0.0
 10
5.045122833862174
 20
-3.086003361147201
 30
0.0
 10
5.008376396110431
 20
-3.122415365949235
 30
0.0
 10
5.079712126376711
 20
-3.099846680013645
 30
0.0
 10
5.092806460719783
 20
-3.115165724057608
 30
0.0
 10
5.046919499735218
 20
-3.155207254911551
 30
0.0
 10
5.056352076739888
 20
-3.089612944243552
 30
0.0
 10
5.026891654282608
 20
-3.167663321880278
 30
0.0
  0
HATCH
  5
C9
330
7C
100
AcDbEntity
  8
Poneglyph
 62
   250
420
  2301728
440
 33554687
100
AcDbHatch
 10
0.0
 20
0.0
 30
0.0
210
0.0
220
0.0
230
1.0
  2
SOLID
 70
     1
 71
     1
 91
        6
 92
        1
 93
        1
 72
     4
 94
        3
 73
     0
 74
     0
 95
       11
 96
        7
 40
0.0
 40
0.0
 40
0.0
 40
0.0
 40
1.0
 40
1.0
 40
1.0
 40
2.0
 40
2.0
 40
2.0
 40
2.0
 10
5.15814436695622
 20
-3.154249150873333
 10
5.15932482047578
 20
-3.167474311919603
 10
5.146136210080864
 20
-3.232575809217071
 10
5.16920768887169
 20
-3.230237465885819
 10
5.171810018777957
 20
-3.218426662773506
 10
5.182777277202502
 20
-3.124479951563797
 10
5.15814436695622
 20
-3.154249150873333
 97
        0
 97
        1
330
C3
 92
        1
 93
        1
 72
     4
 94
        3
 73
     0
 74
     0
 95
       17
 96
       13
 40
0.0
 40
0.0
 40
0.0
 40
0.0
 40
1.0
 40
1.0
 40
1.0
 40
2.0
 40
2.0
 40
2.0
 40
3.0
 40
3.0
 40
3.0
 40
4.0
 40
4.0
 40
4.0
 40
4.0
 10
5.164559840046497
 20
-3.246412236810833
 10
5.120123119774158
 20
-3.25846115895557
 10
5.128054291044059
 20
-3.207554105034129
 10
5.138313298666389
 20
-3.180503353193166
 10
5.144853298780086
 20
-3.162903099333536
 10
5.118739407453378
 20
-3.132468723504264
 10
5.145309941141855
 20
-3.128003202794211
 10
5.18468279132167
 20
-3.123667934314476
 10
5.19683478001707
 20
-3.143429650283375
 10
5.190796905224336
 20
-3.18051217813738
 10
5.186070684415704
 20
-3.206508427152862
 10
5.20737933142128
 20
-3.257235153325432
 10
5.164559840046497
 20
-3.246412236810833
 97
        0
 97
        1
330
C4
 92
        1
 93
        1
 72
     4
 94
        3
 73
     0
 74
     0
 95
       11
 96
        7
 40
0.0
 40
0.0
 40
0.0
 40
0.0
 40
1.0
 40
1.0
 40
1.0
 40
2.0
 40
2.0
 40
2.0
 40
2.0
 10
5.099225096122887
 20
-3.115173087505278
 10
5.099546103459563
 20
-3.098786845326256
 10
5.131720745716493
 20
-3.096148669620257
 10
5.131899217838533
 20
-3.115173919650032
 10
5.134715151509277
 20
-3.141948129274522
 10
5.096974798333323
 20
-3.139657683276633
 10
5.099225096122887
 20
-3.115173087505278
 97
        0
 97
        1
330
C5
 92
        1
 93
        1
 72
     4
 94
        3
 73
     0
 74
     0
 95
       23
 96
       19
 40
0.0
 40
0.0
 40
0.0
 40
0.0
 40
1.0
 40
1.0
 40
1.0
 40
2.0
 40
2.0
 40
2.0
 40
3.0
 40
3.0
 40
3.0
 40
4.0
 40
4.0
 40
4.0
 40
5.0
 40
5.0
 40
5.0
 40
6.0
 40
6.0
 40
6.0
 40
6.0
 10
5.230477808796497
 20
-3.0690847628525
 10
5.258756167800836
 20
-3.109951964666076
 10
5.21945211373347
 20
-3.182839043410417
 10
5.242299221338902
 20
-3.231979193480608
 10
5.252178179669599
 20
-3.315148306827293
 10
5.162548283898508
 20
-3.278295501187181
 10
5.105633994822583
 20
-3.285503440257773
 10
5.070135396678501
 20
-3.247941469701648
 10
5.11554910792731
 20
-3.185420298529834
 10
5.122995242199345
 20
-3.268593642118629
 10
5.2700492866439
 20
-3.268508524643468
 10
5.203770534805496
 20
-3.263623802969883
 10
5.217073776834947
 20
-3.108451155464131
 10
5.191820169153086
 20
-3.155657052409171
 10
5.110936163317672
 20
-3.105487637990588
 10
5.145309391014456
 20
-3.069078996997177
 10
5.185159041600576
 20
-3.127290830641843
 10
5.180597082734189
 20
-3.104906942850852
 10
5.230477808796497
 20
-3.0690847628525
 97
        0
 97
        1
330
C6
 92
        1
 93
        1
 72
     4
 94
        3
 73
     0
 74
     0
 95
       17
 96
       13
 40
0.0
 40
0.0
 40
0.0
 40
0.0
 40
1.0
 40
1.0
 40
1.0
 40
2.0
 40
2.0
 40
2.0
 40
3.0
 40
3.0
 40
3.0
 40
4.0
 40
4.0
 40
4.0
 40
4.0
 10
5.026891654282608
 20
-3.206752948616389
 10
4.987835121141895
 20
-3.17010904413352
 10
5.165600346214987
 20
-3.184923628386766
 10
5.105642439824401
 20
-3.206754541795918
 10
5.062007799664999
 20
-3.198905057069749
 10
5.062226574930743
 20
-3.214307865010823
 10
5.06657403967799
 20
-3.252850409793735
 10
5.076996617338888
 20
-3.296299459213084
 10
5.031071611125449
 20
-3.295219840384586
 10
5.040305715787654
 20
-3.252839516945893
 10
5.044205425482787
 20
-3.233796312485714
 10
5.063496752541292
 20
-3.195305305829201
 10
5.026891654282608
 20
-3.206752948616389
 97
        0
 97
        1
330
C7
 92
        1
 93
        1
 72
     4
 94
        3
 73
     0
 74
     0
 95
       20
 96
       16
 40
0.0
 40
0.0
 40
0.0
 40
0.0
 40
1.0
 40
1.0
 40
1.0
 40
2.0
 40
2.0
 40
2.0
 40
3.0
 40
3.0
 40
3.0
 40
4.0
 40
4.0
 40
4.0
 40
5.0
 40
5.0
 40
5.0
 40
5.0
 10
5.026891654282608
 20
-3.167663321880278
 10
5.012216428076095
 20
-3.142383920347305
 10
5.02412807978155
 20
-3.104179450005984
 10
5.020470180993545
 20
-3.075501172177786
 10
5.041601354453026
 20
-3.063763045339353
 10
5.08938156686885
 20
-3.065013499302418
 10
5.112055872522609
 20
-3.075487055828539
 10
5.106348498544396
 20
-3.100536036426345
 10
5.063431723736003
 20
-3.086455245279668
 10
5.045122833862174
 20
-3.086003361147201
 10
5.008376396110431
 20
-3.122415365949235
 10
5.079712126376711
 20
-3.099846680013645
 10
5.092806460719783
 20
-3.115165724057608
 10
5.046919499735218
 20
-3.155207254911551
 10
5.056352076739888
 20
-3.089612944243552
 10
5.026891654282608
 20
-3.167663321880278
 97
        0
 97
        1
330
C8
 75
     2
 76
     1
 98
        1
 10
0.0
 20
0.0
450
        0
451
        0
460
0.0
461
0.0
452
        0
462
0.0
453
        0
470

  0
SPLINE
  5
CA
330
7C
100
AcDbEntity
  8
Poneglyph
100
AcDbSpline
210
0.0
220
0.0
230
1.0
 70
     9
 71
     3
 72
    11
 73
     7
 74
     0
 42
0.0000000001
 43
0.0000000001
 40
0.0
 40
0.0
 40
0.0
 40
0.0
 40
1.0
 40
1.0
 40
1.0
 40
2.0
 40
2.0
 40
2.0
 40
2.0
 10
5.431432669907608
 20
-3.253023326695029
 30
0.0
 10
5.454371250629113
 20
-3.254223979712858
 30
0.0
 10
5.454357280113526
 20
-3.2771944507162
 30
0.0
 10
5.431428580756143
 20
-3.278386633262041
 30
0.0
 10
5.415074103090975
 20
-3.278095953816546
 30
0.0
 10
5.414954953808268
 20
-3.253142162352837
 30
0.0
 10
5.431432669907608
 20
-3.253023326695029
 30
0.0
  0
SPLINE
  5
CB
330
7C
100
AcDbEntity
  8
Poneglyph
100
AcDbSpline
210
0.0
220
0.0
230
1.0
 70
     9
 71
     3
 72
    11
 73
     7
 74
     0
 42
0.0000000001
 43
0.0000000001
 40
0.0
 40
0.0
 40
0.0
 40
0.0
 40
1.0
 40
1.0
 40
1.0
 40
2.0
 40
2.0
 40
2.0
 40
2.0
 10
5.450394258449275
 20
-3.125703990757529
 30
0.0
 10
5.446870447566348
 20
-3.139938677376196
 30
0.0
 10
5.419326612608553
 20
-3.143807746170371
 30
0.0
 10
5.418602241753837
 20
-3.125703176004384
 30
0.0
 10
5.419151726087268
 20
-3.107454477894154
 30
0.0
 10
5.446920809928567
 20
-3.1115462528644
 30
0.0
 10
5.450394258449275
 20
-3.125703990757529
 30
0.0
  0
SPLINE
  5
CC
330
7C
100
AcDbEntity
  8
Poneglyph
100
AcDbSpline
210
0.0
220
0.0
230
1.0
 70
     9
 71
     3
 72
    29
 73
    25
 74
     0
 42
0.0000000001
 43
0.0000000001
 40
0.0
 40
0.0
 40
0.0
 40
0.0
 40
1.0
 40
1.0
 40
1.0
 40
2.0
 40
2.0
 40
2.0
 40
3.0
 40
3.0
 40
3.0
 40
4.0
 40
4.0
 40
4.0
 40
5.0
 40
5.0
 40
5.0
 40
6.0
 40
6.0
 40
6.0
 40
7.0
 40
7.0
 40
7.0
 40
8.0
 40
8.0
 40
8.0
 40
8.0
 10
5.482186793171497
 20
-3.068100366625584
 30
0.0
 10
5.505923024153061
 20
-3.064411156228642
 30
0.0
 10
5.499773363943808
 20
-3.296350375352984
 30
0.0
 10
5.482205393789828
 20
-3.28451742461142
 30
0.0
 10
5.453355459965096
 20
-3.286065729185944
 30
0.0
 10
5.485070591123707
 20
-3.254808413126612
 30
0.0
 10
5.475906106022648
 20
-3.241210411566574
 30
0.0
 10
5.471767339319385
 20
-3.227362151264843
 30
0.0
 10
5.401074691191524
 20
-3.248981827197768
 30
0.0
 10
5.431429090207782
 20
-3.214807481280407
 30
0.0
 10
5.462061129431579
 20
-3.215440155777514
 30
0.0
 10
5.477403629915948
 20
-3.223304938837928
 30
0.0
 10
5.471378390098051
 20
-3.187968032277997
 30
0.0
 10
5.483347253733224
 20
-3.162722209963753
 30
0.0
 10
5.426672107285209
 20
-3.181754118672667
 30
0.0
 10
5.412190419950042
 20
-3.176601970884525
 30
0.0
 10
5.385723783965381
 20
-3.153090319734726
 30
0.0
 10
5.43521375359286
 20
-3.157249153797541
 30
0.0
 10
5.450393205790078
 20
-3.157649561265518
 30
0.0
 10
5.497313624658772
 20
-3.172865662664384
 30
0.0
 10
5.457646693578226
 20
-3.116116017392768
 30
0.0
 10
5.475783246037078
 20
-3.093479487014267
 30
0.0
 10
5.426900957348379
 20
-3.095399650344056
 30
0.0
 10
5.442554266485911
 20
-3.070298658855057
 30
0.0
 10
5.482186793171497
 20
-3.068100366625584
 30
0.0
  0
SPLINE
  5
CD
330
7C
100
AcDbEntity
  8
Poneglyph
100
AcDbSpline
210
0.0
220
0.0
230
1.0
 70
     9
 71
     3
 72
    38
 73
    34
 74
     0
 42
0.0000000001
 43
0.0000000001
 40
0.0
 40
0.0
 40
0.0
 40
0.0
 40
1.0
 40
1.0
 40
1.0
 40
2.0
 40
2.0
 40
2.0
 40
3.0
 40
3.0
 40
3.0
 40
4.0
 40
4.0
 40
4.0
 40
5.0
 40
5.0
 40
5.0
 40
6.0
 40
6.0
 40
6.0
 40
7.0
 40
7.0
 40
7.0
 40
8.0
 40
8.0
 40
8.0
 40
9.0
 40
9.0
 40
9.0
 40
10.0
 40
10.0
 40
10.0
 40
11.0
 40
11.0
 40
11.0
 40
11.0
 10
5.348302787095108
 20
-3.074515839715862
 30
0.0
 10
5.380186520949084
 20
-3.057324048426254
 30
0.0
 10
5.423234573278755
 20
-3.116430868720903
 30
0.0
 10
5.373975818797664
 20
-3.119145927731728
 30
0.0
 10
5.377327369028837
 20
-3.072979270559623
 30
0.0
 10
5.284566975365401
 20
-3.088423438086894
 30
0.0
 10
5.311126482879999
 20
-3.141316399866961
 30
0.0
 10
5.354240264968262
 20
-3.17025124060155
 30
0.0
 10
5.39377189112022
 20
-3.158879955716984
 30
0.0
 10
5.380080350976261
 20
-3.233772326061675
 30
0.0
 10
5.416336916090888
 20
-3.297751254673079
 30
0.0
 10
5.324624689739089
 20
-3.289565963087928
 30
0.0
 10
5.287901579282712
 20
-3.280723119426915
 30
0.0
 10
5.265264800532627
 20
-3.257450833771094
 30
0.0
 10
5.301939262572305
 20
-3.227215370788421
 30
0.0
 10
5.303987260649819
 20
-3.265555415799376
 30
0.0
 10
5.303977700289553
 20
-3.265555878778362
 30
0.0
 10
5.316808646470108
 20
-3.265555878778362
 30
0.0
 10
5.316808646470108
 20
-3.265555878778362
 30
0.0
 10
5.323219945146345
 20
-3.237344975801382
 30
0.0
 10
5.300705507165225
 20
-3.209062035832579
 30
0.0
 10
5.322946645280605
 20
-3.182724621028581
 30
0.0
 10
5.348447108685326
 20
-3.19062314895594
 30
0.0
 10
5.332330792130353
 20
-3.237767863736507
 30
0.0
 10
5.333145475180369
 20
-3.257971531751435
 30
0.0
 10
5.358018996060788
 20
-3.293048577106674
 30
0.0
 10
5.36791306619908
 20
-3.243558612644366
 30
0.0
 10
5.361135254282417
 20
-3.220935162124356
 30
0.0
 10
5.372060969729369
 20
-3.174613093988075
 30
0.0
 10
5.334963192040251
 20
-3.182275173266285
 30
0.0
 10
5.303971472120312
 20
-3.163763394184949
 30
0.0
 10
5.262236204829428
 20
-3.127408617880316
 30
0.0
 10
5.290682514955935
 20
-3.06216327987272
 30
0.0
 10
5.348302787095108
 20
-3.074515839715862
 30
0.0
  0
HATCH
  5
CE
330
7C
100
AcDbEntity
  8
Poneglyph
 62
   250
420
  2301728
440
 33554687
100
AcDbHatch
 10
0.0
 20
0.0
 30
0.0
210
0.0
220
0.0
230
1.0
  2
SOLID
 70
     1
 71
     1
 91
        4
 92
        1
 93
        1
 72
     4
 94
        3
 73
     0
 74
     0
 95
       11
 96
        7
 40
0.0
 40
0.0
 40
0.0
 40
0.0
 40
1.0
 40
1.0
 40
1.0
 40
2.0
 40
2.0
 40
2.0
 40
2.0
 10
5.431432669907608
 20
-3.253023326695029
 10
5.454371250629113
 20
-3.254223979712858
 10
5.454357280113526
 20
-3.2771944507162
 10
5.431428580756143
 20
-3.278386633262041
 10
5.415074103090975
 20
-3.278095953816546
 10
5.414954953808268
 20
-3.253142162352837
 10
5.431432669907608
 20
-3.253023326695029
 97
        0
 97
        1
330
CA
 92
        1
 93
        1
 72
     4
 94
        3
 73
     0
 74
     0
 95
       11
 96
        7
 40
0.0
 40
0.0
 40
0.0
 40
0.0
 40
1.0
 40
1.0
 40
1.0
 40
2.0
 40
2.0
 40
2.0
 40
2.0
 10
5.450394258449275
 20
-3.125703990757529
 10
5.446870447566348
 20
-3.139938677376196
 10
5.419326612608553
 20
-3.143807746170371
 10
5.418602241753837
 20
-3.125703176004384
 10
5.419151726087268
 20
-3.107454477894154
 10
5.446920809928567
 20
-3.1115462528644
 10
5.450394258449275
 20
-3.125703990757529
 97
        0
 97
        1
330
CB
 92
        1
 93
        1
 72
     4
 94
        3
 73
     0
 74
     0
 95
       29
 96
       25
 40
0.0
 40
0.0
 40
0.0
 40
0.0
 40
1.0
 40
1.0
 40
1.0
 40
2.0
 40
2.0
 40
2.0
 40
3.0
 40
3.0
 40
3.0
 40
4.0
 40
4.0
 40
4.0
 40
5.0
 40
5.0
 40
5.0
 40
6.0
 40
6.0
 40
6.0
 40
7.0
 40
7.0
 40
7.0
 40
8.0
 40
8.0
 40
8.0
 40
8.0
 10
5.482186793171497
 20
-3.068100366625584
 10
5.505923024153061
 20
-3.064411156228642
 10
5.499773363943808
 20
-3.296350375352984
 10
5.482205393789828
 20
-3.28451742461142
 10
5.453355459965096
 20
-3.286065729185944
 10
5.485070591123707
 20
-3.254808413126612
 10
5.475906106022648
 20
-3.241210411566574
 10
5.471767339319385
 20
-3.227362151264843
 10
5.401074691191524
 20
-3.248981827197768
 10
5.431429090207782
 20
-3.214807481280407
 10
5.462061129431579
 20
-3.215440155777514
 10
5.477403629915948
 20
-3.223304938837928
 10
5.471378390098051
 20
-3.187968032277997
 10
5.483347253733224
 20
-3.162722209963753
 10
5.426672107285209
 20
-3.181754118672667
 10
5.412190419950042
 20
-3.176601970884525
 10
5.385723783965381
 20
-3.153090319734726
 10
5.43521375359286
 20
-3.157249153797541
 10
5.450393205790078
 20
-3.157649561265518
 10
5.497313624658772
 20
-3.172865662664384
 10
5.457646693578226
 20
-3.116116017392768
 10
5.475783246037078
 20
-3.093479487014267
 10
5.426900957348379
 20
-3.095399650344056
 10
5.442554266485911
 20
-3.070298658855057
 10
5.482186793171497
 20
-3.068100366625584
 97
        0
 97
        1
330
CC
 92
        1
 93
        1
 72
     4
 94
        3
 73
     0
 74
     0
 95
       38
 96
       34
 40
0.0
 40
0.0
 40
0.0
 40
0.0
 40
1.0
 40
1.0
 40
1.0
 40
2.0
 40
2.0
 40
2.0
 40
3.0
 40
3.0
 40
3.0
 40
4.0
 40
4.0
 40
4.0
 40
5.0
 40
5.0
 40
5.0
 40
6.0
 40
6.0
 40
6.0
 40
7.0
 40
7.0
 40
7.0
 40
8.0
 40
8.0
 40
8.0
 40
9.0
 40
9.0
 40
9.0
 40
10.0
 40
10.0
 40
10.0
 40
11.0
 40
11.0
 40
11.0
 40
11.0
 10
5.348302787095108
 20
-3.074515839715862
 10
5.380186520949084
 20
-3.057324048426254
 10
5.423234573278755
 20
-3.116430868720903
 10
5.373975818797664
 20
-3.119145927731728
 10
5.377327369028837
 20
-3.072979270559623
 10
5.284566975365401
 20
-3.088423438086894
 10
5.311126482879999
 20
-3.141316399866961
 10
5.354240264968262
 20
-3.17025124060155
 10
5.39377189112022
 20
-3.158879955716984
 10
5.380080350976261
 20
-3.233772326061675
 10
5.416336916090888
 20
-3.297751254673079
 10
5.324624689739089
 20
-3.289565963087928
 10
5.287901579282712
 20
-3.280723119426915
 10
5.265264800532627
 20
-3.257450833771094
 10
5.301939262572305
 20
-3.227215370788421
 10
5.303987260649819
 20
-3.265555415799376
 10
5.303977700289553
 20
-3.265555878778362
 10
5.316808646470108
 20
-3.265555878778362
 10
5.316808646470108
 20
-3.265555878778362
 10
5.323219945146345
 20
-3.237344975801382
 10
5.300705507165225
 20
-3.209062035832579
 10
5.322946645280605
 20
-3.182724621028581
 10
5.348447108685326
 20
-3.19062314895594
 10
5.332330792130353
 20
-3.237767863736507
 10
5.333145475180369
 20
-3.257971531751435
 10
5.358018996060788
 20
-3.293048577106674
 10
5.36791306619908
 20
-3.243558612644366
 10
5.361135254282417
 20
-3.220935162124356
 10
5.372060969729369
 20
-3.174613093988075
 10
5.334963192040251
 20
-3.182275173266285
 10
5.303971472120312
 20
-3.163763394184949
 10
5.262236204829428
 20
-3.127408617880316
 10
5.290682514955935
 20
-3.06216327987272
 10
5.348302787095108
 20
-3.074515839715862
 97
        0
 97
        1
330
CD
 75
     2
 76
     1
 98
        1
 10
0.0
 20
0.0
450
        0
451
        0
460
0.0
461
0.0
452
        0
462
0.0
453
        0
470

  0
SPLINE
  5
CF
330
7C
100
AcDbEntity
  8
Poneglyph
100
AcDbSpline
210
0.0
220
0.0
230
1.0
 70
     9
 71
     3
 72
    11
 73
     7
 74
     0
 42
0.0000000001
 43
0.0000000001
 40
0.0
 40
0.0
 40
0.0
 40
0.0
 40
1.0
 40
1.0
 40
1.0
 40
2.0
 40
2.0
 40
2.0
 40
2.0
 10
5.67440684525483
 20
-3.154249150873333
 30
0.0
 10
5.675587298774391
 20
-3.167474311919603
 30
0.0
 10
5.662398688379476
 20
-3.232575809217071
 30
0.0
 10
5.685470167170302
 20
-3.230237465885819
 30
0.0
 10
5.688072497076569
 20
-3.218426662773506
 30
0.0
 10
5.699039755501113
 20
-3.124479951563797
 30
0.0
 10
5.67440684525483
 20
-3.154249150873333
 30
0.0
  0
SPLINE
  5
D0
330
7C
100
AcDbEntity
  8
Poneglyph
100
AcDbSpline
210
0.0
220
0.0
230
1.0
 70
     9
 71
     3
 72
    17
 73
    13
 74
     0
 42
0.0000000001
 43
0.0000000001
 40
0.0
 40
0.0
 40
0.0
 40
0.0
 40
1.0
 40
1.0
 40
1.0
 40
2.0
 40
2.0
 40
2.0
 40
3.0
 40
3.0
 40
3.0
 40
4.0
 40
4.0
 40
4.0
 40
4.0
 10
5.680822318345108
 20
-3.246412236810833
 30
0.0
 10
5.636385598072769
 20
-3.25846115895557
 30
0.0
 10
5.64431676934267
 20
-3.207554105034129
 30
0.0
 10
5.654575776965
 20
-3.180503353193166
 30
0.0
 10
5.661115777078697
 20
-3.162903099333536
 30
0.0
 10
5.635001885751989
 20
-3.132468723504264
 30
0.0
 10
5.661572419440466
 20
-3.128003202794211
 30
0.0
 10
5.700945269620281
 20
-3.123667934314476
 30
0.0
 10
5.713097258315681
 20
-3.143429650283375
 30
0.0
 10
5.707059383522946
 20
-3.18051217813738
 30
0.0
 10
5.702333162714315
 20
-3.206508427152862
 30
0.0
 10
5.723641809719891
 20
-3.257235153325432
 30
0.0
 10
5.680822318345108
 20
-3.246412236810833
 30
0.0
  0
SPLINE
  5
D1
330
7C
100
AcDbEntity
  8
Poneglyph
100
AcDbSpline
210
0.0
220
0.0
230
1.0
 70
     9
 71
     3
 72
    11
 73
     7
 74
     0
 42
0.0000000001
 43
0.0000000001
 40
0.0
 40
0.0
 40
0.0
 40
0.0
 40
1.0
 40
1.0
 40
1.0
 40
2.0
 40
2.0
 40
2.0
 40
2.0
 10
5.615487574421497
 20
-3.115173087505278
 30
0.0
 10
5.615808581758174
 20
-3.098786845326256
 30
0.0
 10
5.647983224015105
 20
-3.096148669620257
 30
0.0
 10
5.648161696137145
 20
-3.115173919650032
 30
0.0
 10
5.650977629807887
 20
-3.141948129274522
 30
0.0
 10
5.613237276631934
 20
-3.139657683276633
 30
0.0
 10
5.615487574421497
 20
-3.115173087505278
 30
0.0
  0
SPLINE
  5
D2
330
7C
100
AcDbEntity
  8
Poneglyph
100
AcDbSpline
210
0.0
220
0.0
230
1.0
 70
     9
 71
     3
 72
    23
 73
    19
 74
     0
 42
0.0000000001
 43
0.0000000001
 40
0.0
 40
0.0
 40
0.0
 40
0.0
 40
1.0
 40
1.0
 40
1.0
 40
2.0
 40
2.0
 40
2.0
 40
3.0
 40
3.0
 40
3.0
 40
4.0
 40
4.0
 40
4.0
 40
5.0
 40
5.0
 40
5.0
 40
6.0
 40
6.0
 40
6.0
 40
6.0
 10
5.746740287095108
 20
-3.0690847628525
 30
0.0
 10
5.775018646099447
 20
-3.109951964666076
 30
0.0
 10
5.735714592032081
 20
-3.182839043410417
 30
0.0
 10
5.758561699637513
 20
-3.231979193480608
 30
0.0
 10
5.768440657968211
 20
-3.315148306827293
 30
0.0
 10
5.678810762197119
 20
-3.278295501187181
 30
0.0
 10
5.621896473121195
 20
-3.285503440257773
 30
0.0
 10
5.586397874977111
 20
-3.247941469701648
 30
0.0
 10
5.631811586225921
 20
-3.185420298529834
 30
0.0
 10
5.639257720497956
 20
-3.268593642118629
 30
0.0
 10
5.786311764942511
 20
-3.268508524643468
 30
0.0
 10
5.720033013104107
 20
-3.263623802969883
 30
0.0
 10
5.733336255133559
 20
-3.108451155464131
 30
0.0
 10
5.708082647451697
 20
-3.155657052409171
 30
0.0
 10
5.627198641616283
 20
-3.105487637990588
 30
0.0
 10
5.661571869313067
 20
-3.069078996997177
 30
0.0
 10
5.701421519899187
 20
-3.127290830641843
 30
0.0
 10
5.696859561032801
 20
-3.104906942850852
 30
0.0
 10
5.746740287095108
 20
-3.0690847628525
 30
0.0
  0
SPLINE
  5
D3
330
7C
100
AcDbEntity
  8
Poneglyph
100
AcDbSpline
210
0.0
220
0.0
230
1.0
 70
     9
 71
     3
 72
    17
 73
    13
 74
     0
 42
0.0000000001
 43
0.0000000001
 40
0.0
 40
0.0
 40
0.0
 40
0.0
 40
1.0
 40
1.0
 40
1.0
 40
2.0
 40
2.0
 40
2.0
 40
3.0
 40
3.0
 40
3.0
 40
4.0
 40
4.0
 40
4.0
 40
4.0
 10
5.54315413258122
 20
-3.206752948616389
 30
0.0
 10
5.504097599440506
 20
-3.17010904413352
 30
0.0
 10
5.681862824513599
 20
-3.184923628386766
 30
0.0
 10
5.621904918123012
 20
-3.206754541795918
 30
0.0
 10
5.578270277963611
 20
-3.198905057069749
 30
0.0
 10
5.578489053229355
 20
-3.214307865010823
 30
0.0
 10
5.582836517976602
 20
-3.252850409793735
 30
0.0
 10
5.5932590956375
 20
-3.296299459213084
 30
0.0
 10
5.547334089424061
 20
-3.295219840384586
 30
0.0
 10
5.556568194086265
 20
-3.252839516945893
 30
0.0
 10
5.560467903781399
 20
-3.233796312485714
 30
0.0
 10
5.579759230839903
 20
-3.195305305829201
 30
0.0
 10
5.54315413258122
 20
-3.206752948616389
 30
0.0
  0
SPLINE
  5
D4
330
7C
100
AcDbEntity
  8
Poneglyph
100
AcDbSpline
210
0.0
220
0.0
230
1.0
 70
     9
 71
     3
 72
    20
 73
    16
 74
     0
 42
0.0000000001
 43
0.0000000001
 40
0.0
 40
0.0
 40
0.0
 40
0.0
 40
1.0
 40
1.0
 40
1.0
 40
2.0
 40
2.0
 40
2.0
 40
3.0
 40
3.0
 40
3.0
 40
4.0
 40
4.0
 40
4.0
 40
5.0
 40
5.0
 40
5.0
 40
5.0
 10
5.54315413258122
 20
-3.167663321880278
 30
0.0
 10
5.528478906374705
 20
-3.142383920347305
 30
0.0
 10
5.540390558080162
 20
-3.104179450005984
 30
0.0
 10
5.536732659292156
 20
-3.075501172177786
 30
0.0
 10
5.557863832751636
 20
-3.063763045339353
 30
0.0
 10
5.60564404516746
 20
-3.065013499302418
 30
0.0
 10
5.62831835082122
 20
-3.075487055828539
 30
0.0
 10
5.622610976843007
 20
-3.100536036426345
 30
0.0
 10
5.579694202034614
 20
-3.086455245279668
 30
0.0
 10
5.561385312160786
 20
-3.086003361147201
 30
0.0
 10
5.524638874409043
 20
-3.122415365949235
 30
0.0
 10
5.595974604675322
 20
-3.099846680013645
 30
0.0
 10
5.609068939018394
 20
-3.115165724057608
 30
0.0
 10
5.563181978033829
 20
-3.155207254911551
 30
0.0
 10
5.572614555038499
 20
-3.089612944243552
 30
0.0
 10
5.54315413258122
 20
-3.167663321880278
 30
0.0
  0
HATCH
  5
D5
330
7C
100
AcDbEntity
  8
Poneglyph
 62
   250
420
  2301728
440
 33554687
100
AcDbHatch
 10
0.0
 20
0.0
 30
0.0
210
0.0
220
0.0
230
1.0
  2
SOLID
 70
     1
 71
     1
 91
        6
 92
        1
 93
        1
 72
     4
 94
        3
 73
     0
 74
     0
 95
       11
 96
        7
 40
0.0
 40
0.0
 40
0.0
 40
0.0
 40
1.0
 40
1.0
 40
1.0
 40
2.0
 40
2.0
 40
2.0
 40
2.0
 10
5.67440684525483
 20
-3.154249150873333
 10
5.675587298774391
 20
-3.167474311919603
 10
5.662398688379476
 20
-3.232575809217071
 10
5.685470167170302
 20
-3.230237465885819
 10
5.688072497076569
 20
-3.218426662773506
 10
5.699039755501113
 20
-3.124479951563797
 10
5.67440684525483
 20
-3.154249150873333
 97
        0
 97
        1
330
CF
 92
        1
 93
        1
 72
     4
 94
        3
 73
     0
 74
     0
 95
       17
 96
       13
 40
0.0
 40
0.0
 40
0.0
 40
0.0
 40
1.0
 40
1.0
 40
1.0
 40
2.0
 40
2.0
 40
2.0
 40
3.0
 40
3.0
 40
3.0
 40
4.0
 40
4.0
 40
4.0
 40
4.0
 10
5.680822318345108
 20
-3.246412236810833
 10
5.636385598072769
 20
-3.25846115895557
 10
5.64431676934267
 20
-3.207554105034129
 10
5.654575776965
 20
-3.180503353193166
 10
5.661115777078697
 20
-3.162903099333536
 10
5.635001885751989
 20
-3.132468723504264
 10
5.661572419440466
 20
-3.128003202794211
 10
5.700945269620281
 20
-3.123667934314476
 10
5.713097258315681
 20
-3.143429650283375
 10
5.707059383522946
 20
-3.18051217813738
 10
5.702333162714315
 20
-3.206508427152862
 10
5.723641809719891
 20
-3.257235153325432
 10
5.680822318345108
 20
-3.246412236810833
 97
        0
 97
        1
330
D0
 92
        1
 93
        1
 72
     4
 94
        3
 73
     0
 74
     0
 95
       11
 96
        7
 40
0.0
 40
0.0
 40
0.0
 40
0.0
 40
1.0
 40
1.0
 40
1.0
 40
2.0
 40
2.0
 40
2.0
 40
2.0
 10
5.615487574421497
 20
-3.115173087505278
 10
5.615808581758174
 20
-3.098786845326256
 10
5.647983224015105
 20
-3.096148669620257
 10
5.648161696137145
 20
-3.115173919650032
 10
5.650977629807887
 20
-3.141948129274522
 10
5.613237276631934
 20
-3.139657683276633
 10
5.615487574421497
 20
-3.115173087505278
 97
        0
 97
        1
330
D1
 92
        1
 93
        1
 72
     4
 94
        3
 73
     0
 74
     0
 95
       23
 96
       19
 40
0.0
 40
0.0
 40
0.0
 40
0.0
 40
1.0
 40
1.0
 40
1.0
 40
2.0
 40
2.0
 40
2.0
 40
3.0
 40
3.0
 40
3.0
 40
4.0
 40
4.0
 40
4.0
 40
5.0
 40
5.0
 40
5.0
 40
6.0
 40
6.0
 40
6.0
 40
6.0
 10
5.746740287095108
 20
-3.0690847628525
 10
5.775018646099447
 20
-3.109951964666076
 10
5.735714592032081
 20
-3.182839043410417
 10
5.758561699637513
 20
-3.231979193480608
 10
5.768440657968211
 20
-3.315148306827293
 10
5.678810762197119
 20
-3.278295501187181
 10
5.621896473121195
 20
-3.285503440257773
 10
5.586397874977111
 20
-3.247941469701648
 10
5.631811586225921
 20
-3.185420298529834
 10
5.639257720497956
 20
-3.268593642118629
 10
5.786311764942511
 20
-3.268508524643468
 10
5.720033013104107
 20
-3.263623802969883
 10
5.733336255133559
 20
-3.108451155464131
 10
5.708082647451697
 20
-3.155657052409171
 10
5.627198641616283
 20
-3.105487637990588
 10
5.661571869313067
 20
-3.069078996997177
 10
5.701421519899187
 20
-3.127290830641843
 10
5.696859561032801
 20
-3.104906942850852
 10
5.746740287095108
 20
-3.0690847628525
 97
        0
 97
        1
330
D2
 92
        1
 93
        1
 72
     4
 94
        3
 73
     0
 74
     0
 95
       17
 96
       13
 40
0.0
 40
0.0
 40
0.0
 40
0.0
 40
1.0
 40
1.0
 40
1.0
 40
2.0
 40
2.0
 40
2.0
 40
3.0
 40
3.0
 40
3.0
 40
4.0
 40
4.0
 40
4.0
 40
4.0
 10
5.54315413258122
 20
-3.206752948616389
 10
5.504097599440506
 20
-3.17010904413352
 10
5.681862824513599
 20
-3.184923628386766
 10
5.621904918123012
 20
-3.206754541795918
 10
5.578270277963611
 20
-3.198905057069749
 10
5.578489053229355
 20
-3.214307865010823
 10
5.582836517976602
 20
-3.252850409793735
 10
5.5932590956375
 20
-3.296299459213084
 10
5.547334089424061
 20
-3.295219840384586
 10
5.556568194086265
 20
-3.252839516945893
 10
5.560467903781399
 20
-3.233796312485714
 10
5.579759230839903
 20
-3.195305305829201
 10
5.54315413258122
 20
-3.206752948616389
 97
        0
 97
        1
330
D3
 92
        1
 93
        1
 72
     4
 94
        3
 73
     0
 74
     0
 95
       20
 96
       16
 40
0.0
 40
0.0
 40
0.0
 40
0.0
 40
1.0
 40
1.0
 40
1.0
 40
2.0
 40
2.0
 40
2.0
 40
3.0
 40
3.0
 40
3.0
 40
4.0
 40
4.0
 40
4.0
 40
5.0
 40
5.0
 40
5.0
 40
5.0
 10
5.54315413258122
 20
-3.167663321880278
 10
5.528478906374705
 20
-3.142383920347305
 10
5.540390558080162
 20
-3.104179450005984
 10
5.536732659292156
 20
-3.075501172177786
 10
5.557863832751636
 20
-3.063763045339353
 10
5.60564404516746
 20
-3.065013499302418
 10
5.62831835082122
 20
-3.075487055828539
 10
5.622610976843007
 20
-3.100536036426345
 10
5.579694202034614
 20
-3.086455245279668
 10
5.561385312160786
 20
-3.086003361147201
 10
5.524638874409043
 20
-3.122415365949235
 10
5.595974604675322
 20
-3.099846680013645
 10
5.609068939018394
 20
-3.115165724057608
 10
5.563181978033829
 20
-3.155207254911551
 10
5.572614555038499
 20
-3.089612944243552
 10
5.54315413258122
 20
-3.167663321880278
 97
        0
 97
        1
330
D4
 75
     2
 76
     1
 98
        1
 10
0.0
 20
0.0
450
        0
451
        0
460
0.0
461
0.0
452
        0
462
0.0
453
        0
470

  0
SPLINE
  5
D6
330
7C
100
AcDbEntity
  8
Poneglyph
100
AcDbSpline
210
0.0
220
0.0
230
1.0
 70
     9
 71
     3
 72
    14
 73
    10
 74
     0
 42
0.0000000001
 43
0.0000000001
 40
0.0
 40
0.0
 40
0.0
 40
0.0
 40
1.0
 40
1.0
 40
1.0
 40
2.0
 40
2.0
 40
2.0
 40
3.0
 40
3.0
 40
3.0
 40
3.0
 10
5.91561778275483
 20
-3.158792394541263
 30
0.0
 10
5.914923324992539
 20
-3.167292528978666
 30
0.0
 10
5.907544685022685
 20
-3.174808754673537
 30
0.0
 10
5.909204409618496
 20
-3.183884991621336
 30
0.0
 10
6.029646019335207
 20
-3.177607566739235
 30
0.0
 10
5.891723456133377
 20
-3.273779832838461
 30
0.0
 10
5.884111048975354
 20
-3.190293397502917
 30
0.0
 10
5.890901256536153
 20
-3.079629741950093
 30
0.0
 10
6.028840868878533
 20
-3.190984421805157
 30
0.0
 10
5.91561778275483
 20
-3.158792394541263
 30
0.0
  0
SPLINE
  5
D7
330
7C
100
AcDbEntity
  8
Poneglyph
100
AcDbSpline
210
0.0
220
0.0
230
1.0
 70
     9
 71
     3
 72
    23
 73
    19
 74
     0
 42
0.0000000001
 43
0.0000000001
 40
0.0
 40
0.0
 40
0.0
 40
0.0
 40
1.0
 40
1.0
 40
1.0
 40
2.0
 40
2.0
 40
2.0
 40
3.0
 40
3.0
 40
3.0
 40
4.0
 40
4.0
 40
4.0
 40
5.0
 40
5.0
 40
5.0
 40
6.0
 40
6.0
 40
6.0
 40
6.0
 10
5.992074488483997
 20
-3.10805183464543
 30
0.0
 10
6.022328847226541
 20
-3.118632088541251
 30
0.0
 10
6.002257804943256
 20
-3.154432698026097
 30
0.0
 10
6.004863442905691
 20
-3.177901546977952
 30
0.0
 10
6.016386346260812
 20
-3.22031716431296
 30
0.0
 10
5.983879746477744
 20
-3.265737798843891
 30
0.0
 10
5.94126869325262
 20
-3.241340301141146
 30
0.0
 10
6.01337304117942
 20
-3.211799907392951
 30
0.0
 10
5.967083764404858
 20
-3.200252465473454
 30
0.0
 10
5.986771824373767
 20
-3.141286667529622
 30
0.0
 10
5.9828353902955
 20
-3.093844905824211
 30
0.0
 10
5.857988774200243
 20
-3.170073226115631
 30
0.0
 10
5.884126472059809
 20
-3.082368064796772
 30
0.0
 10
5.918649221955598
 20
-3.035041870212567
 30
0.0
 10
5.893675437064959
 20
-3.116798712087036
 30
0.0
 10
5.919067293666381
 20
-3.110382717127738
 30
0.0
 10
5.940806917266172
 20
-3.105009973723693
 30
0.0
 10
5.969745667861161
 20
-3.109400034206082
 30
0.0
 10
5.992074488483997
 20
-3.10805183464543
 30
0.0
  0
SPLINE
  5
D8
330
7C
100
AcDbEntity
  8
Poneglyph
100
AcDbSpline
210
0.0
220
0.0
230
1.0
 70
     9
 71
     3
 72
    26
 73
    22
 74
     0
 42
0.0000000001
 43
0.0000000001
 40
0.0
 40
0.0
 40
0.0
 40
0.0
 40
1.0
 40
1.0
 40
1.0
 40
2.0
 40
2.0
 40
2.0
 40
3.0
 40
3.0
 40
3.0
 40
4.0
 40
4.0
 40
4.0
 40
5.0
 40
5.0
 40
5.0
 40
6.0
 40
6.0
 40
6.0
 40
7.0
 40
7.0
 40
7.0
 40
7.0
 10
5.99203379837983
 20
-3.25416999870793
 30
0.0
 10
6.048239030719665
 20
-3.301128479770934
 30
0.0
 10
5.905524041654896
 20
-3.283449782588111
 30
0.0
 10
5.877705863333201
 20
-3.285958274037827
 30
0.0
 10
5.836761979053587
 20
-3.284535214744475
 30
0.0
 10
5.787200064266698
 20
-3.300639554633903
 30
0.0
 10
5.801288429267641
 20
-3.241334311222658
 30
0.0
 10
5.829189900457397
 20
-3.21446384645771
 30
0.0
 10
5.806660820285868
 20
-3.279609281956923
 30
0.0
 10
5.836283545072521
 20
-3.271958708310636
 30
0.0
 10
5.854732089118543
 20
-3.271754783028844
 30
0.0
 10
5.850725269296086
 20
-3.263711495918224
 30
0.0
 10
5.856258517644922
 20
-3.251752412224946
 30
0.0
 10
5.872445227657963
 20
-3.237711865748716
 30
0.0
 10
5.868145423580092
 20
-3.261281753354081
 30
0.0
 10
5.877692968257709
 20
-3.267002077052931
 30
0.0
 10
5.890576968578064
 20
-3.263952988757801
 30
0.0
 10
5.921971021341429
 20
-3.276421233661026
 30
0.0
 10
5.915615487704144
 20
-3.254267587861287
 30
0.0
 10
5.943545897539276
 20
-3.223250817687901
 30
0.0
 10
5.916639715503379
 20
-3.302187451302807
 30
0.0
 10
5.99203379837983
 20
-3.25416999870793
 30
0.0
  0
SPLINE
  5
D9
330
7C
100
AcDbEntity
  8
Poneglyph
100
AcDbSpline
210
0.0
220
0.0
230
1.0
 70
     9
 71
     3
 72
    20
 73
    16
 74
     0
 42
0.0000000001
 43
0.0000000001
 40
0.0
 40
0.0
 40
0.0
 40
0.0
 40
1.0
 40
1.0
 40
1.0
 40
2.0
 40
2.0
 40
2.0
 40
3.0
 40
3.0
 40
3.0
 40
4.0
 40
4.0
 40
4.0
 40
5.0
 40
5.0
 40
5.0
 40
5.0
 10
5.852317544039553
 20
-3.203131044714874
 30
0.0
 10
5.778366562233082
 20
-3.192154885509845
 30
0.0
 10
5.78746085850235
 20
-3.183002757914146
 30
0.0
 10
5.858743369253109
 20
-3.183884378815731
 30
0.0
 10
5.848703447412137
 20
-3.139713366456551
 30
0.0
 10
5.881658078155825
 20
-3.070859553331843
 30
0.0
 10
5.813834415888095
 20
-3.08879862897211
 30
0.0
 10
5.819395314880895
 20
-3.105476460876527
 30
0.0
 10
5.799065251338409
 20
-3.127426201588137
 30
0.0
 10
5.794859414520234
 20
-3.101336639689495
 30
0.0
 10
5.784656262733278
 20
-3.057585042741783
 30
0.0
 10
5.84792563820214
 20
-3.080898672217282
 30
0.0
 10
5.873761496849383
 20
-3.076686611305894
 30
0.0
 10
5.885717939922035
 20
-3.107268945491884
 30
0.0
 10
5.880213380248278
 20
-3.325182100238521
 30
0.0
 10
5.852317544039553
 20
-3.203131044714874
 30
0.0
  0
HATCH
  5
DA
330
7C
100
AcDbEntity
  8
Poneglyph
 62
   250
420
  2301728
440
 33554687
100
AcDbHatch
 10
0.0
 20
0.0
 30
0.0
210
0.0
220
0.0
230
1.0
  2
SOLID
 70
     1
 71
     1
 91
        4
 92
        1
 93
        1
 72
     4
 94
        3
 73
     0
 74
     0
 95
       14
 96
       10
 40
0.0
 40
0.0
 40
0.0
 40
0.0
 40
1.0
 40
1.0
 40
1.0
 40
2.0
 40
2.0
 40
2.0
 40
3.0
 40
3.0
 40
3.0
 40
3.0
 10
5.91561778275483
 20
-3.158792394541263
 10
5.914923324992539
 20
-3.167292528978666
 10
5.907544685022685
 20
-3.174808754673537
 10
5.909204409618496
 20
-3.183884991621336
 10
6.029646019335207
 20
-3.177607566739235
 10
5.891723456133377
 20
-3.273779832838461
 10
5.884111048975354
 20
-3.190293397502917
 10
5.890901256536153
 20
-3.079629741950093
 10
6.028840868878533
 20
-3.190984421805157
 10
5.91561778275483
 20
-3.158792394541263
 97
        0
 97
        1
330
D6
 92
        1
 93
        1
 72
     4
 94
        3
 73
     0
 74
     0
 95
       23
 96
       19
 40
0.0
 40
0.0
 40
0.0
 40
0.0
 40
1.0
 40
1.0
 40
1.0
 40
2.0
 40
2.0
 40
2.0
 40
3.0
 40
3.0
 40
3.0
 40
4.0
 40
4.0
 40
4.0
 40
5.0
 40
5.0
 40
5.0
 40
6.0
 40
6.0
 40
6.0
 40
6.0
 10
5.992074488483997
 20
-3.10805183464543
 10
6.022328847226541
 20
-3.118632088541251
 10
6.002257804943256
 20
-3.154432698026097
 10
6.004863442905691
 20
-3.177901546977952
 10
6.016386346260812
 20
-3.22031716431296
 10
5.983879746477744
 20
-3.265737798843891
 10
5.94126869325262
 20
-3.241340301141146
 10
6.01337304117942
 20
-3.211799907392951
 10
5.967083764404858
 20
-3.200252465473454
 10
5.986771824373767
 20
-3.141286667529622
 10
5.9828353902955
 20
-3.093844905824211
 10
5.857988774200243
 20
-3.170073226115631
 10
5.884126472059809
 20
-3.082368064796772
 10
5.918649221955598
 20
-3.035041870212567
 10
5.893675437064959
 20
-3.116798712087036
 10
5.919067293666381
 20
-3.110382717127738
 10
5.940806917266172
 20
-3.105009973723693
 10
5.969745667861161
 20
-3.109400034206082
 10
5.992074488483997
 20
-3.10805183464543
 97
        0
 97
        1
330
D7
 92
        1
 93
        1
 72
     4
 94
        3
 73
     0
 74
     0
 95
       26
 96
       22
 40
0.0
 40
0.0
 40
0.0
 40
0.0
 40
1.0
 40
1.0
 40
1.0
 40
2.0
 40
2.0
 40
2.0
 40
3.0
 40
3.0
 40
3.0
 40
4.0
 40
4.0
 40
4.0
 40
5.0
 40
5.0
 40
5.0
 40
6.0
 40
6.0
 40
6.0
 40
7.0
 40
7.0
 40
7.0
 40
7.0
 10
5.99203379837983
 20
-3.25416999870793
 10
6.048239030719665
 20
-3.301128479770934
 10
5.905524041654896
 20
-3.283449782588111
 10
5.877705863333201
 20
-3.285958274037827
 10
5.836761979053587
 20
-3.284535214744475
 10
5.787200064266698
 20
-3.300639554633903
 10
5.801288429267641
 20
-3.241334311222658
 10
5.829189900457397
 20
-3.21446384645771
 10
5.806660820285868
 20
-3.279609281956923
 10
5.836283545072521
 20
-3.271958708310636
 10
5.854732089118543
 20
-3.271754783028844
 10
5.850725269296086
 20
-3.263711495918224
 10
5.856258517644922
 20
-3.251752412224946
 10
5.872445227657963
 20
-3.237711865748716
 10
5.868145423580092
 20
-3.261281753354081
 10
5.877692968257709
 20
-3.267002077052931
 10
5.890576968578064
 20
-3.263952988757801
 10
5.921971021341429
 20
-3.276421233661026
 10
5.915615487704144
 20
-3.254267587861287
 10
5.943545897539276
 20
-3.223250817687901
 10
5.916639715503379
 20
-3.302187451302807
 10
5.99203379837983
 20
-3.25416999870793
 97
        0
 97
        1
330
D8
 92
        1
 93
        1
 72
     4
 94
        3
 73
     0
 74
     0
 95
       20
 96
       16
 40
0.0
 40
0.0
 40
0.0
 40
0.0
 40
1.0
 40
1.0
 40
1.0
 40
2.0
 40
2.0
 40
2.0
 40
3.0
 40
3.0
 40
3.0
 40
4.0
 40
4.0
 40
4.0
 40
5.0
 40
5.0
 40
5.0
 40
5.0
 10
5.852317544039553
 20
-3.203131044714874
 10
5.778366562233082
 20
-3.192154885509845
 10
5.78746085850235
 20
-3.183002757914146
 10
5.858743369253109
 20
-3.183884378815731
 10
5.848703447412137
 20
-3.139713366456551
 10
5.881658078155825
 20
-3.070859553331843
 10
5.813834415888095
 20
-3.08879862897211
 10
5.819395314880895
 20
-3.105476460876527
 10
5.799065251338409
 20
-3.127426201588137
 10
5.794859414520234
 20
-3.101336639689495
 10
5.784656262733278
 20
-3.057585042741783
 10
5.84792563820214
 20
-3.080898672217282
 10
5.873761496849383
 20
-3.076686611305894
 10
5.885717939922035
 20
-3.107268945491884
 10
5.880213380248278
 20
-3.325182100238521
 10
5.852317544039553
 20
-3.203131044714874
 97
        0
 97
        1
330
D9
 75
     2
 76
     1
 98
        1
 10
0.0
 20
0.0
450
        0
451
        0
460
0.0
461
0.0
452
        0
462
0.0
453
        0
470

  0
SPLINE
  5
DB
330
7C
100
AcDbEntity
  8
Poneglyph
100
AcDbSpline
210
0.0
220
0.0
230
1.0
 70
     9
 71
     3
 72
    11
 73
     7
 74
     0
 42
0.0000000001
 43
0.0000000001
 40
0.0
 40
0.0
 40
0.0
 40
0.0
 40
1.0
 40
1.0
 40
1.0
 40
2.0
 40
2.0
 40
2.0
 40
2.0
 10
4.900019909490942
 20
-3.436727869670094
 30
0.0
 10
4.901212843337134
 20
-3.449964521976223
 30
0.0
 10
4.888001415636254
 20
-3.515072213998589
 30
0.0
 10
4.911096822530528
 20
-3.512716184910307
 30
0.0
 10
4.913662967477673
 20
-3.500897157618535
 30
0.0
 10
4.924674526230597
 20
-3.406965992585405
 30
0.0
 10
4.900019909490942
 20
-3.436727869670094
 30
0.0
  0
SPLINE
  5
DC
330
7C
100
AcDbEntity
  8
Poneglyph
100
AcDbSpline
210
0.0
220
0.0
230
1.0
 70
     9
 71
     3
 72
    17
 73
    13
 74
     0
 42
0.0000000001
 43
0.0000000001
 40
0.0
 40
0.0
 40
0.0
 40
0.0
 40
1.0
 40
1.0
 40
1.0
 40
2.0
 40
2.0
 40
2.0
 40
3.0
 40
3.0
 40
3.0
 40
4.0
 40
4.0
 40
4.0
 40
4.0
 10
4.906448945949275
 20
-3.528890955607594
 30
0.0
 10
4.862011896264726
 20
-3.540940669018279
 30
0.0
 10
4.869950213875553
 20
-3.490041747103481
 30
0.0
 10
4.880188836708182
 20
-3.462982068846384
 30
0.0
 10
4.886723251547057
 20
-3.44539294299822
 30
0.0
 10
4.860635640512176
 20
-3.414943985164073
 30
0.0
 10
4.887185479863697
 20
-3.410481916721841
 30
0.0
 10
4.926562555857723
 20
-3.406145578008994
 30
0.0
 10
4.938709089838615
 20
-3.425903694976088
 30
0.0
 10
4.932672448201552
 20
-3.462990897802809
 30
0.0
 10
4.927942555998141
 20
-3.488983298237624
 30
0.0
 10
4.949257970189945
 20
-3.539712256686319
 30
0.0
 10
4.906448945949275
 20
-3.528890955607594
 30
0.0
  0
SPLINE
  5
DD
330
7C
100
AcDbEntity
  8
Poneglyph
100
AcDbSpline
210
0.0
220
0.0
230
1.0
 70
     9
 71
     3
 72
    11
 73
     7
 74
     0
 42
0.0000000001
 43
0.0000000001
 40
0.0
 40
0.0
 40
0.0
 40
0.0
 40
1.0
 40
1.0
 40
1.0
 40
2.0
 40
2.0
 40
2.0
 40
2.0
 10
4.841100638657608
 20
-3.397651806302039
 30
0.0
 10
4.841434771136189
 20
-3.381268084588479
 30
0.0
 10
4.873592059856137
 20
-3.378630902606649
 30
0.0
 10
4.873788315885272
 20
-3.397652646961129
 30
0.0
 10
4.876586610216033
 20
-3.424419014249047
 30
0.0
 10
4.838863366911406
 20
-3.422142855195993
 30
0.0
 10
4.841100638657608
 20
-3.397651806302039
 30
0.0
  0
SPLINE
  5
DE
330
7C
100
AcDbEntity
  8
Poneglyph
100
AcDbSpline
210
0.0
220
0.0
230
1.0
 70
     9
 71
     3
 72
    23
 73
    19
 74
     0
 42
0.0000000001
 43
0.0000000001
 40
0.0
 40
0.0
 40
0.0
 40
0.0
 40
1.0
 40
1.0
 40
1.0
 40
2.0
 40
2.0
 40
2.0
 40
3.0
 40
3.0
 40
3.0
 40
4.0
 40
4.0
 40
4.0
 40
5.0
 40
5.0
 40
5.0
 40
6.0
 40
6.0
 40
6.0
 40
6.0
 10
4.972366914699275
 20
-3.351563481649261
 30
0.0
 10
4.996980423126463
 20
-3.383470470415734
 30
0.0
 10
4.970153662641601
 20
-3.440551108738544
 30
0.0
 10
4.978782278261178
 20
-3.482814133488469
 30
0.0
 10
4.986414495230595
 20
-3.555337301479413
 30
0.0
 10
4.989755553229593
 20
-3.577522319650875
 30
0.0
 10
4.90644406038157
 20
-3.567970752500514
 30
0.0
 10
4.784382054515819
 20
-3.596782146930738
 30
0.0
 10
4.849300159066488
 20
-3.436298624737016
 30
0.0
 10
4.864888980508592
 20
-3.55105998924609
 30
0.0
 10
5.01163497872537
 20
-3.550524597638993
 30
0.0
 10
4.945781331335738
 20
-3.548058119174381
 30
0.0
 10
4.958949129726256
 20
-3.390929918344049
 30
0.0
 10
4.933704282397203
 20
-3.438135583094814
 30
0.0
 10
4.852813732825603
 20
-3.387972252409528
 30
0.0
 10
4.887184942264184
 20
-3.351557726063169
 30
0.0
 10
4.927059466411265
 20
-3.409783021499555
 30
0.0
 10
4.922470903055378
 20
-3.387364578157176
 30
0.0
 10
4.972366914699275
 20
-3.351563481649261
 30
0.0
  0
SPLINE
  5
DF
330
7C
100
AcDbEntity
  8
Poneglyph
100
AcDbSpline
210
0.0
220
0.0
230
1.0
 70
     9
 71
     3
 72
    17
 73
    13
 74
     0
 42
0.0000000001
 43
0.0000000001
 40
0.0
 40
0.0
 40
0.0
 40
0.0
 40
1.0
 40
1.0
 40
1.0
 40
2.0
 40
2.0
 40
2.0
 40
3.0
 40
3.0
 40
3.0
 40
4.0
 40
4.0
 40
4.0
 40
4.0
 10
4.768773978501358
 20
-3.48923166741315
 30
0.0
 10
4.729702188951224
 20
-3.452601327836873
 30
0.0
 10
4.90746323898227
 20
-3.46738382443497
 30
0.0
 10
4.847531544493626
 20
-3.489233252159944
 30
0.0
 10
4.803907616024616
 20
-3.481385012422075
 30
0.0
 10
4.804097199947995
 20
-3.496779554749663
 30
0.0
 10
4.808449580375028
 20
-3.535329131576316
 30
0.0
 10
4.818872530917511
 20
-3.578781077002834
 30
0.0
 10
4.772949813557184
 20
-3.577694636517005
 30
0.0
 10
4.782181254643496
 20
-3.535318237203505
 30
0.0
 10
4.786100042158143
 20
-3.51627299308921
 30
0.0
 10
4.805372529414372
 20
-3.477781099273215
 30
0.0
 10
4.768773978501358
 20
-3.48923166741315
 30
0.0
  0
SPLINE
  5
E0
330
7C
100
AcDbEntity
  8
Poneglyph
100
AcDbSpline
210
0.0
220
0.0
230
1.0
 70
     9
 71
     3
 72
    20
 73
    16
 74
     0
 42
0.0000000001
 43
0.0000000001
 40
0.0
 40
0.0
 40
0.0
 40
0.0
 40
1.0
 40
1.0
 40
1.0
 40
2.0
 40
2.0
 40
2.0
 40
3.0
 40
3.0
 40
3.0
 40
4.0
 40
4.0
 40
4.0
 40
5.0
 40
5.0
 40
5.0
 40
5.0
 10
4.768773978501358
 20
-3.450142040677039
 30
0.0
 10
4.754092560960367
 20
-3.424872410881562
 30
0.0
 10
4.766014462622327
 20
-3.386655071856112
 30
0.0
 10
4.762352494965423
 20
-3.357979894412311
 30
0.0
 10
4.785197400061254
 20
-3.334439888620105
 30
0.0
 10
4.906291764077852
 20
-3.363986366434119
 30
0.0
 10
4.821273638109232
 20
-3.371403736536522
 30
0.0
 10
4.803502875356949
 20
-3.368300217319806
 30
0.0
 10
4.7554192694686
 20
-3.368721420456823
 30
0.0
 10
4.787008469193829
 20
-3.39386259115569
 30
0.0
 10
4.797987758171453
 20
-3.391120099939396
 30
0.0
 10
4.84585343539556
 20
-3.384413874476169
 30
0.0
 10
4.830470550691036
 20
-3.406550853422559
 30
0.0
 10
4.750745225116538
 20
-3.409338805175821
 30
0.0
 10
4.803250715400811
 20
-3.41341387321836
 30
0.0
 10
4.768773978501358
 20
-3.450142040677039
 30
0.0
  0
HATCH
  5
E1
330
7C
100
AcDbEntity
  8
Poneglyph
 62
   250
420
  2301728
440
 33554687
100
AcDbHatch
 10
0.0
 20
0.0
 30
0.0
210
0.0
220
0.0
230
1.0
  2
SOLID
 70
     1
 71
     1
 91
        6
 92
        1
 93
        1
 72
     4
 94
        3
 73
     0
 74
     0
 95
       11
 96
        7
 40
0.0
 40
0.0
 40
0.0
 40
0.0
 40
1.0
 40
1.0
 40
1.0
 40
2.0
 40
2.0
 40
2.0
 40
2.0
 10
4.900019909490942
 20
-3.436727869670094
 10
4.901212843337134
 20
-3.449964521976223
 10
4.888001415636254
 20
-3.515072213998589
 10
4.911096822530528
 20
-3.512716184910307
 10
4.913662967477673
 20
-3.500897157618535
 10
4.924674526230597
 20
-3.406965992585405
 10
4.900019909490942
 20
-3.436727869670094
 97
        0
 97
        1
330
DB
 92
        1
 93
        1
 72
     4
 94
        3
 73
     0
 74
     0
 95
       17
 96
       13
 40
0.0
 40
0.0
 40
0.0
 40
0.0
 40
1.0
 40
1.0
 40
1.0
 40
2.0
 40
2.0
 40
2.0
 40
3.0
 40
3.0
 40
3.0
 40
4.0
 40
4.0
 40
4.0
 40
4.0
 10
4.906448945949275
 20
-3.528890955607594
 10
4.862011896264726
 20
-3.540940669018279
 10
4.869950213875553
 20
-3.490041747103481
 10
4.880188836708182
 20
-3.462982068846384
 10
4.886723251547057
 20
-3.44539294299822
 10
4.860635640512176
 20
-3.414943985164073
 10
4.887185479863697
 20
-3.410481916721841
 10
4.926562555857723
 20
-3.406145578008994
 10
4.938709089838615
 20
-3.425903694976088
 10
4.932672448201552
 20
-3.462990897802809
 10
4.927942555998141
 20
-3.488983298237624
 10
4.949257970189945
 20
-3.539712256686319
 10
4.906448945949275
 20
-3.528890955607594
 97
        0
 97
        1
330
DC
 92
        1
 93
        1
 72
     4
 94
        3
 73
     0
 74
     0
 95
       11
 96
        7
 40
0.0
 40
0.0
 40
0.0
 40
0.0
 40
1.0
 40
1.0
 40
1.0
 40
2.0
 40
2.0
 40
2.0
 40
2.0
 10
4.841100638657608
 20
-3.397651806302039
 10
4.841434771136189
 20
-3.381268084588479
 10
4.873592059856137
 20
-3.378630902606649
 10
4.873788315885272
 20
-3.397652646961129
 10
4.876586610216033
 20
-3.424419014249047
 10
4.838863366911406
 20
-3.422142855195993
 10
4.841100638657608
 20
-3.397651806302039
 97
        0
 97
        1
330
DD
 92
        1
 93
        1
 72
     4
 94
        3
 73
     0
 74
     0
 95
       23
 96
       19
 40
0.0
 40
0.0
 40
0.0
 40
0.0
 40
1.0
 40
1.0
 40
1.0
 40
2.0
 40
2.0
 40
2.0
 40
3.0
 40
3.0
 40
3.0
 40
4.0
 40
4.0
 40
4.0
 40
5.0
 40
5.0
 40
5.0
 40
6.0
 40
6.0
 40
6.0
 40
6.0
 10
4.972366914699275
 20
-3.351563481649261
 10
4.996980423126463
 20
-3.383470470415734
 10
4.970153662641601
 20
-3.440551108738544
 10
4.978782278261178
 20
-3.482814133488469
 10
4.986414495230595
 20
-3.555337301479413
 10
4.989755553229593
 20
-3.577522319650875
 10
4.90644406038157
 20
-3.567970752500514
 10
4.784382054515819
 20
-3.596782146930738
 10
4.849300159066488
 20
-3.436298624737016
 10
4.864888980508592
 20
-3.55105998924609
 10
5.01163497872537
 20
-3.550524597638993
 10
4.945781331335738
 20
-3.548058119174381
 10
4.958949129726256
 20
-3.390929918344049
 10
4.933704282397203
 20
-3.438135583094814
 10
4.852813732825603
 20
-3.387972252409528
 10
4.887184942264184
 20
-3.351557726063169
 10
4.927059466411265
 20
-3.409783021499555
 10
4.922470903055378
 20
-3.387364578157176
 10
4.972366914699275
 20
-3.351563481649261
 97
        0
 97
        1
330
DE
 92
        1
 93
        1
 72
     4
 94
        3
 73
     0
 74
     0
 95
       17
 96
       13
 40
0.0
 40
0.0
 40
0.0
 40
0.0
 40
1.0
 40
1.0
 40
1.0
 40
2.0
 40
2.0
 40
2.0
 40
3.0
 40
3.0
 40
3.0
 40
4.0
 40
4.0
 40
4.0
 40
4.0
 10
4.768773978501358
 20
-3.48923166741315
 10
4.729702188951224
 20
-3.452601327836873
 10
4.90746323898227
 20
-3.46738382443497
 10
4.847531544493626
 20
-3.489233252159944
 10
4.803907616024616
 20
-3.481385012422075
 10
4.804097199947995
 20
-3.496779554749663
 10
4.808449580375028
 20
-3.535329131576316
 10
4.818872530917511
 20
-3.578781077002834
 10
4.772949813557184
 20
-3.577694636517005
 10
4.782181254643496
 20
-3.535318237203505
 10
4.786100042158143
 20
-3.51627299308921
 10
4.805372529414372
 20
-3.477781099273215
 10
4.768773978501358
 20
-3.48923166741315
 97
        0
 97
        1
330
DF
 92
        1
 93
        1
 72
     4
 94
        3
 73
     0
 74
     0
 95
       20
 96
       16
 40
0.0
 40
0.0
 40
0.0
 40
0.0
 40
1.0
 40
1.0
 40
1.0
 40
2.0
 40
2.0
 40
2.0
 40
3.0
 40
3.0
 40
3.0
 40
4.0
 40
4.0
 40
4.0
 40
5.0
 40
5.0
 40
5.0
 40
5.0
 10
4.768773978501358
 20
-3.450142040677039
 10
4.754092560960367
 20
-3.424872410881562
 10
4.766014462622327
 20
-3.386655071856112
 10
4.762352494965423
 20
-3.357979894412311
 10
4.785197400061254
 20
-3.334439888620105
 10
4.906291764077852
 20
-3.363986366434119
 10
4.821273638109232
 20
-3.371403736536522
 10
4.803502875356949
 20
-3.368300217319806
 10
4.7554192694686
 20
-3.368721420456823
 10
4.787008469193829
 20
-3.39386259115569
 10
4.797987758171453
 20
-3.391120099939396
 10
4.84585343539556
 20
-3.384413874476169
 10
4.830470550691036
 20
-3.406550853422559
 10
4.750745225116538
 20
-3.409338805175821
 10
4.803250715400811
 20
-3.41341387321836
 10
4.768773978501358
 20
-3.450142040677039
 97
        0
 97
        1
330
E0
 75
     2
 76
     1
 98
        1
 10
0.0
 20
0.0
450
        0
451
        0
460
0.0
461
0.0
452
        0
462
0.0
453
        0
470

  0
SPLINE
  5
E2
330
7C
100
AcDbEntity
  8
Poneglyph
100
AcDbSpline
210
0.0
220
0.0
230
1.0
 70
     9
 71
     3
 72
    11
 73
     7
 74
     0
 42
0.0000000001
 43
0.0000000001
 40
0.0
 40
0.0
 40
0.0
 40
0.0
 40
1.0
 40
1.0
 40
1.0
 40
2.0
 40
2.0
 40
2.0
 40
2.0
 10
5.138599553588164
 20
-3.51058724629892
 30
0.0
 10
5.078298719615379
 20
-3.472622523775334
 30
0.0
 10
5.124818088755975
 20
-3.471760523662283
 30
0.0
 10
5.167336572787209
 20
-3.465531934427303
 30
0.0
 10
5.181006973798907
 20
-3.479204717375561
 30
0.0
 10
5.158689221159672
 20
-3.515669546665359
 30
0.0
 10
5.138599553588164
 20
-3.51058724629892
 30
0.0
  0
SPLINE
  5
E3
330
7C
100
AcDbEntity
  8
Poneglyph
100
AcDbSpline
210
0.0
220
0.0
230
1.0
 70
     9
 71
     3
 72
    11
 73
     7
 74
     0
 42
0.0000000001
 43
0.0000000001
 40
0.0
 40
0.0
 40
0.0
 40
0.0
 40
1.0
 40
1.0
 40
1.0
 40
2.0
 40
2.0
 40
2.0
 40
2.0
 10
5.19110335133122
 20
-3.44466927754892
 30
0.0
 10
5.175830517414119
 20
-3.450877134015892
 30
0.0
 10
5.05403312271475
 20
-3.4744200208538
 30
0.0
 10
5.067146775464101
 20
-3.439006482642765
 30
0.0
 10
5.100199072102794
 20
-3.434331514845363
 30
0.0
 10
5.168976279465292
 20
-3.415992988882117
 30
0.0
 10
5.19110335133122
 20
-3.44466927754892
 30
0.0
  0
SPLINE
  5
E4
330
7C
100
AcDbEntity
  8
Poneglyph
100
AcDbSpline
210
0.0
220
0.0
230
1.0
 70
     9
 71
     3
 72
    26
 73
    22
 74
     0
 42
0.0000000001
 43
0.0000000001
 40
0.0
 40
0.0
 40
0.0
 40
0.0
 40
1.0
 40
1.0
 40
1.0
 40
2.0
 40
2.0
 40
2.0
 40
3.0
 40
3.0
 40
3.0
 40
4.0
 40
4.0
 40
4.0
 40
5.0
 40
5.0
 40
5.0
 40
6.0
 40
6.0
 40
6.0
 40
7.0
 40
7.0
 40
7.0
 40
7.0
 10
5.230477808796497
 20
-3.392463873903087
 30
0.0
 10
5.249384102047037
 20
-3.387134221911322
 30
0.0
 10
5.220611794076376
 20
-3.461471373223313
 30
0.0
 10
5.230492844986201
 20
-3.49104258308945
 30
0.0
 10
5.243135824584113
 20
-3.550965803816362
 30
0.0
 10
5.207546301672715
 20
-3.580633751126356
 30
0.0
 10
5.149385727551285
 20
-3.566290943567549
 30
0.0
 10
5.153093762459497
 20
-3.522011309939228
 30
0.0
 10
5.223813648514957
 20
-3.588477715046173
 30
0.0
 10
5.204212496976095
 20
-3.477918353954931
 30
0.0
 10
5.220426982599721
 20
-3.387064840334396
 30
0.0
 10
5.173866539798963
 20
-3.415112818396146
 30
0.0
 10
5.105629249162878
 20
-3.412014002338726
 30
0.0
 10
5.008029524069747
 20
-3.400939620742658
 30
0.0
 10
5.142642851384935
 20
-3.384557198908636
 30
0.0
 10
5.177969718185042
 20
-3.392482059416137
 30
0.0
 10
5.208272949023643
 20
-3.401366379555724
 30
0.0
 10
5.213199901897319
 20
-3.385235416722164
 30
0.0
 10
5.204224703659216
 20
-3.359501627197977
 30
0.0
 10
5.230302897676083
 20
-3.336929962591675
 30
0.0
 10
5.232859212751135
 20
-3.375397948017469
 30
0.0
 10
5.230477808796497
 20
-3.392463873903087
 30
0.0
  0
SPLINE
  5
E5
330
7C
100
AcDbEntity
  8
Poneglyph
100
AcDbSpline
210
0.0
220
0.0
230
1.0
 70
     9
 71
     3
 72
    20
 73
    16
 74
     0
 42
0.0000000001
 43
0.0000000001
 40
0.0
 40
0.0
 40
0.0
 40
0.0
 40
1.0
 40
1.0
 40
1.0
 40
2.0
 40
2.0
 40
2.0
 40
3.0
 40
3.0
 40
3.0
 40
4.0
 40
4.0
 40
4.0
 40
5.0
 40
5.0
 40
5.0
 40
5.0
 10
5.086095755845108
 20
-3.523716586576698
 30
0.0
 10
5.043517814877961
 20
-3.48885307210249
 30
0.0
 10
5.022411673370015
 20
-3.564802288515756
 30
0.0
 10
5.07297838230948
 20
-3.549968350535777
 30
0.0
 10
5.136643159677633
 20
-3.547788189454813
 30
0.0
 10
5.090725847379417
 20
-3.580525129561603
 30
0.0
 10
5.053134854745318
 20
-3.569493299096001
 30
0.0
 10
4.998853266434151
 20
-3.583671341444023
 30
0.0
 10
5.021639512620468
 20
-3.491563410921962
 30
0.0
 10
5.02454297356601
 20
-3.461297237461028
 30
0.0
 10
5.048868184464708
 20
-3.447201126456939
 30
0.0
 10
5.045730928643958
 20
-3.487779241781974
 30
0.0
 10
5.040014003567269
 20
-3.497465561484343
 30
0.0
 10
5.057000757840669
 20
-3.497968738515548
 30
0.0
 10
5.127905436238557
 20
-3.496414247055794
 30
0.0
 10
5.086095755845108
 20
-3.523716586576698
 30
0.0
  0
SPLINE
  5
E6
330
7C
100
AcDbEntity
  8
Poneglyph
100
AcDbSpline
210
0.0
220
0.0
230
1.0
 70
     9
 71
     3
 72
    11
 73
     7
 74
     0
 42
0.0000000001
 43
0.0000000001
 40
0.0
 40
0.0
 40
0.0
 40
0.0
 40
1.0
 40
1.0
 40
1.0
 40
2.0
 40
2.0
 40
2.0
 40
2.0
 10
5.09894026539372
 20
-3.359504889528087
 30
0.0
 10
5.059139638356302
 20
-3.397851108689097
 30
0.0
 10
5.022681607048298
 20
-3.334861298682135
 30
0.0
 10
5.046739709120047
 20
-3.431569131374658
 30
0.0
 10
5.019785373918718
 20
-3.493865306141072
 30
0.0
 10
4.976834670342238
 20
-3.30252945649728
 30
0.0
 10
5.09894026539372
 20
-3.359504889528087
 30
0.0
  0
HATCH
  5
E7
330
7C
100
AcDbEntity
  8
Poneglyph
 62
   250
420
  2301728
440
 33554687
100
AcDbHatch
 10
0.0
 20
0.0
 30
0.0
210
0.0
220
0.0
230
1.0
  2
SOLID
 70
     1
 71
     1
 91
        5
 92
        1
 93
        1
 72
     4
 94
        3
 73
     0
 74
     0
 95
       11
 96
        7
 40
0.0
 40
0.0
 40
0.0
 40
0.0
 40
1.0
 40
1.0
 40
1.0
 40
2.0
 40
2.0
 40
2.0
 40
2.0
 10
5.138599553588164
 20
-3.51058724629892
 10
5.078298719615379
 20
-3.472622523775334
 10
5.124818088755975
 20
-3.471760523662283
 10
5.167336572787209
 20
-3.465531934427303
 10
5.181006973798907
 20
-3.479204717375561
 10
5.158689221159672
 20
-3.515669546665359
 10
5.138599553588164
 20
-3.51058724629892
 97
        0
 97
        1
330
E2
 92
        1
 93
        1
 72
     4
 94
        3
 73
     0
 74
     0
 95
       11
 96
        7
 40
0.0
 40
0.0
 40
0.0
 40
0.0
 40
1.0
 40
1.0
 40
1.0
 40
2.0
 40
2.0
 40
2.0
 40
2.0
 10
5.19110335133122
 20
-3.44466927754892
 10
5.175830517414119
 20
-3.450877134015892
 10
5.05403312271475
 20
-3.4744200208538
 10
5.067146775464101
 20
-3.439006482642765
 10
5.100199072102794
 20
-3.434331514845363
 10
5.168976279465292
 20
-3.415992988882117
 10
5.19110335133122
 20
-3.44466927754892
 97
        0
 97
        1
330
E3
 92
        1
 93
        1
 72
     4
 94
        3
 73
     0
 74
     0
 95
       26
 96
       22
 40
0.0
 40
0.0
 40
0.0
 40
0.0
 40
1.0
 40
1.0
 40
1.0
 40
2.0
 40
2.0
 40
2.0
 40
3.0
 40
3.0
 40
3.0
 40
4.0
 40
4.0
 40
4.0
 40
5.0
 40
5.0
 40
5.0
 40
6.0
 40
6.0
 40
6.0
 40
7.0
 40
7.0
 40
7.0
 40
7.0
 10
5.230477808796497
 20
-3.392463873903087
 10
5.249384102047037
 20
-3.387134221911322
 10
5.220611794076376
 20
-3.461471373223313
 10
5.230492844986201
 20
-3.49104258308945
 10
5.243135824584113
 20
-3.550965803816362
 10
5.207546301672715
 20
-3.580633751126356
 10
5.149385727551285
 20
-3.566290943567549
 10
5.153093762459497
 20
-3.522011309939228
 10
5.223813648514957
 20
-3.588477715046173
 10
5.204212496976095
 20
-3.477918353954931
 10
5.220426982599721
 20
-3.387064840334396
 10
5.173866539798963
 20
-3.415112818396146
 10
5.105629249162878
 20
-3.412014002338726
 10
5.008029524069747
 20
-3.400939620742658
 10
5.142642851384935
 20
-3.384557198908636
 10
5.177969718185042
 20
-3.392482059416137
 10
5.208272949023643
 20
-3.401366379555724
 10
5.213199901897319
 20
-3.385235416722164
 10
5.204224703659216
 20
-3.359501627197977
 10
5.230302897676083
 20
-3.336929962591675
 10
5.232859212751135
 20
-3.375397948017469
 10
5.230477808796497
 20
-3.392463873903087
 97
        0
 97
        1
330
E4
 92
        1
 93
        1
 72
     4
 94
        3
 73
     0
 74
     0
 95
       20
 96
       16
 40
0.0
 40
0.0
 40
0.0
 40
0.0
 40
1.0
 40
1.0
 40
1.0
 40
2.0
 40
2.0
 40
2.0
 40
3.0
 40
3.0
 40
3.0
 40
4.0
 40
4.0
 40
4.0
 40
5.0
 40
5.0
 40
5.0
 40
5.0
 10
5.086095755845108
 20
-3.523716586576698
 10
5.043517814877961
 20
-3.48885307210249
 10
5.022411673370015
 20
-3.564802288515756
 10
5.07297838230948
 20
-3.549968350535777
 10
5.136643159677633
 20
-3.547788189454813
 10
5.090725847379417
 20
-3.580525129561603
 10
5.053134854745318
 20
-3.569493299096001
 10
4.998853266434151
 20
-3.583671341444023
 10
5.021639512620468
 20
-3.491563410921962
 10
5.02454297356601
 20
-3.461297237461028
 10
5.048868184464708
 20
-3.447201126456939
 10
5.045730928643958
 20
-3.487779241781974
 10
5.040014003567269
 20
-3.497465561484343
 10
5.057000757840669
 20
-3.497968738515548
 10
5.127905436238557
 20
-3.496414247055794
 10
5.086095755845108
 20
-3.523716586576698
 97
        0
 97
        1
330
E5
 92
        1
 93
        1
 72
     4
 94
        3
 73
     0
 74
     0
 95
       11
 96
        7
 40
0.0
 40
0.0
 40
0.0
 40
0.0
 40
1.0
 40
1.0
 40
1.0
 40
2.0
 40
2.0
 40
2.0
 40
2.0
 10
5.09894026539372
 20
-3.359504889528087
 10
5.059139638356302
 20
-3.397851108689097
 10
5.022681607048298
 20
-3.334861298682135
 10
5.046739709120047
 20
-3.431569131374658
 10
5.019785373918718
 20
-3.493865306141072
 10
4.976834670342238
 20
-3.30252945649728
 10
5.09894026539372
 20
-3.359504889528087
 97
        0
 97
        1
330
E6
 75
     2
 76
     1
 98
        1
 10
0.0
 20
0.0
450
        0
451
        0
460
0.0
461
0.0
452
        0
462
0.0
453
        0
470

  0
SPLINE
  5
E8
330
7C
100
AcDbEntity
  8
Poneglyph
100
AcDbSpline
210
0.0
220
0.0
230
1.0
 70
     9
 71
     3
 72
    11
 73
     7
 74
     0
 42
0.0000000001
 43
0.0000000001
 40
0.0
 40
0.0
 40
0.0
 40
0.0
 40
1.0
 40
1.0
 40
1.0
 40
2.0
 40
2.0
 40
2.0
 40
2.0
 10
5.488602266261775
 20
-3.351582232455712
 30
0.0
 10
5.507379913831047
 20
-3.351773794653631
 30
0.0
 10
5.508586517807998
 20
-3.398948216776564
 30
0.0
 10
5.488605369328196
 20
-3.397371359395871
 30
0.0
 10
5.468567084756487
 20
-3.399106954782205
 30
0.0
 10
5.469862892356458
 20
-3.351719567243738
 30
0.0
 10
5.488602266261775
 20
-3.351582232455712
 30
0.0
  0
SPLINE
  5
E9
330
7C
100
AcDbEntity
  8
Poneglyph
100
AcDbSpline
210
0.0
220
0.0
230
1.0
 70
     9
 71
     3
 72
    23
 73
    19
 74
     0
 42
0.0000000001
 43
0.0000000001
 40
0.0
 40
0.0
 40
0.0
 40
0.0
 40
1.0
 40
1.0
 40
1.0
 40
2.0
 40
2.0
 40
2.0
 40
3.0
 40
3.0
 40
3.0
 40
4.0
 40
4.0
 40
4.0
 40
5.0
 40
5.0
 40
5.0
 40
6.0
 40
6.0
 40
6.0
 40
6.0
 10
5.475472925983997
 20
-3.469705604851545
 30
0.0
 10
5.509603787381365
 20
-3.476224306187961
 30
0.0
 10
5.50923613617038
 20
-3.542133678422386
 30
0.0
 10
5.495028576603973
 20
-3.561287987598436
 30
0.0
 10
5.479990957550853
 20
-3.58056678998653
 30
0.0
 10
5.421785611898636
 20
-3.557772397430021
 30
0.0
 10
5.468771170931985
 20
-3.554864863234847
 30
0.0
 10
5.49424949212731
 20
-3.537018618903352
 30
0.0
 10
5.487770442047676
 20
-3.484993774532489
 30
0.0
 10
5.444124965445022
 20
-3.48837341969771
 30
0.0
 10
5.409343969287925
 20
-3.473869781599255
 30
0.0
 10
5.45713424755743
 20
-3.593730657000731
 30
0.0
 10
5.403430607077603
 20
-3.554869999183665
 30
0.0
 10
5.414807233763793
 20
-3.530987649536124
 30
0.0
 10
5.394142888646936
 20
-3.330057939899966
 30
0.0
 10
5.425585040857463
 20
-3.355657969627423
 30
0.0
 10
5.446174311936474
 20
-3.395753635722409
 30
0.0
 10
5.394483843699971
 20
-3.503848398718698
 30
0.0
 10
5.475472925983997
 20
-3.469705604851545
 30
0.0
  0
SPLINE
  5
EA
330
7C
100
AcDbEntity
  8
Poneglyph
100
AcDbSpline
210
0.0
220
0.0
230
1.0
 70
     9
 71
     3
 72
    11
 73
     7
 74
     0
 42
0.0000000001
 43
0.0000000001
 40
0.0
 40
0.0
 40
0.0
 40
0.0
 40
1.0
 40
1.0
 40
1.0
 40
2.0
 40
2.0
 40
2.0
 40
2.0
 10
5.350635686400664
 20
-3.4630053010321
 30
0.0
 10
5.351985449639313
 20
-3.443616527559141
 30
0.0
 10
5.382968335563317
 20
-3.446810212444916
 30
0.0
 10
5.376743079383256
 20
-3.466939955593665
 30
0.0
 10
5.372764892620225
 20
-3.471454133083372
 30
0.0
 10
5.350773318284027
 20
-3.472678371622628
 30
0.0
 10
5.350635686400664
 20
-3.4630053010321
 30
0.0
  0
SPLINE
  5
EB
330
7C
100
AcDbEntity
  8
Poneglyph
100
AcDbSpline
210
0.0
220
0.0
230
1.0
 70
     9
 71
     3
 72
    29
 73
    25
 74
     0
 42
0.0000000001
 43
0.0000000001
 40
0.0
 40
0.0
 40
0.0
 40
0.0
 40
1.0
 40
1.0
 40
1.0
 40
2.0
 40
2.0
 40
2.0
 40
3.0
 40
3.0
 40
3.0
 40
4.0
 40
4.0
 40
4.0
 40
5.0
 40
5.0
 40
5.0
 40
6.0
 40
6.0
 40
6.0
 40
7.0
 40
7.0
 40
7.0
 40
8.0
 40
8.0
 40
8.0
 40
8.0
 10
5.390023707233997
 20
-3.410501503289045
 30
0.0
 10
5.39664612989716
 20
-3.430128976708576
 30
0.0
 10
5.347339604611812
 20
-3.427953840531927
 30
0.0
 10
5.344217672327658
 20
-3.416923605944879
 30
0.0
 10
5.389134307407074
 20
-3.401588838682628
 30
0.0
 10
5.381924956237804
 20
-3.364057174702768
 30
0.0
 10
5.331096987356734
 20
-3.377832950215406
 30
0.0
 10
5.283850719428351
 20
-3.377785124585847
 30
0.0
 10
5.310427959822643
 20
-3.473812437831257
 30
0.0
 10
5.30482922759764
 20
-3.509074023860067
 30
0.0
 10
5.352666418419958
 20
-3.510735506498626
 30
0.0
 10
5.378609743180858
 20
-3.49845513645467
 30
0.0
 10
5.3596814188491
 20
-3.560576747819039
 30
0.0
 10
5.349718166890649
 20
-3.557128630161413
 30
0.0
 10
5.350562322662577
 20
-3.574866847134343
 30
0.0
 10
5.344952283357113
 20
-3.563919127783643
 30
0.0
 10
5.368586264774799
 20
-3.480337113674067
 30
0.0
 10
5.27448602836537
 20
-3.562050433875507
 30
0.0
 10
5.285305964188006
 20
-3.49596693327458
 30
0.0
 10
5.284252527269952
 20
-3.452238861124972
 30
0.0
 10
5.27524612433174
 20
-3.41121308551121
 30
0.0
 10
5.288088493342203
 20
-3.368644649591917
 30
0.0
 10
5.324346894395426
 20
-3.34294627571267
 30
0.0
 10
5.423346548229523
 20
-3.343910677136186
 30
0.0
 10
5.390023707233997
 20
-3.410501503289045
 30
0.0
  0
HATCH
  5
EC
330
7C
100
AcDbEntity
  8
Poneglyph
 62
   250
420
  2301728
440
 33554687
100
AcDbHatch
 10
0.0
 20
0.0
 30
0.0
210
0.0
220
0.0
230
1.0
  2
SOLID
 70
     1
 71
     1
 91
        4
 92
        1
 93
        1
 72
     4
 94
        3
 73
     0
 74
     0
 95
       11
 96
        7
 40
0.0
 40
0.0
 40
0.0
 40
0.0
 40
1.0
 40
1.0
 40
1.0
 40
2.0
 40
2.0
 40
2.0
 40
2.0
 10
5.488602266261775
 20
-3.351582232455712
 10
5.507379913831047
 20
-3.351773794653631
 10
5.508586517807998
 20
-3.398948216776564
 10
5.488605369328196
 20
-3.397371359395871
 10
5.468567084756487
 20
-3.399106954782205
 10
5.469862892356458
 20
-3.351719567243738
 10
5.488602266261775
 20
-3.351582232455712
 97
        0
 97
        1
330
E8
 92
        1
 93
        1
 72
     4
 94
        3
 73
     0
 74
     0
 95
       23
 96
       19
 40
0.0
 40
0.0
 40
0.0
 40
0.0
 40
1.0
 40
1.0
 40
1.0
 40
2.0
 40
2.0
 40
2.0
 40
3.0
 40
3.0
 40
3.0
 40
4.0
 40
4.0
 40
4.0
 40
5.0
 40
5.0
 40
5.0
 40
6.0
 40
6.0
 40
6.0
 40
6.0
 10
5.475472925983997
 20
-3.469705604851545
 10
5.509603787381365
 20
-3.476224306187961
 10
5.50923613617038
 20
-3.542133678422386
 10
5.495028576603973
 20
-3.561287987598436
 10
5.479990957550853
 20
-3.58056678998653
 10
5.421785611898636
 20
-3.557772397430021
 10
5.468771170931985
 20
-3.554864863234847
 10
5.49424949212731
 20
-3.537018618903352
 10
5.487770442047676
 20
-3.484993774532489
 10
5.444124965445022
 20
-3.48837341969771
 10
5.409343969287925
 20
-3.473869781599255
 10
5.45713424755743
 20
-3.593730657000731
 10
5.403430607077603
 20
-3.554869999183665
 10
5.414807233763793
 20
-3.530987649536124
 10
5.394142888646936
 20
-3.330057939899966
 10
5.425585040857463
 20
-3.355657969627423
 10
5.446174311936474
 20
-3.395753635722409
 10
5.394483843699971
 20
-3.503848398718698
 10
5.475472925983997
 20
-3.469705604851545
 97
        0
 97
        1
330
E9
 92
        1
 93
        1
 72
     4
 94
        3
 73
     0
 74
     0
 95
       11
 96
        7
 40
0.0
 40
0.0
 40
0.0
 40
0.0
 40
1.0
 40
1.0
 40
1.0
 40
2.0
 40
2.0
 40
2.0
 40
2.0
 10
5.350635686400664
 20
-3.4630053010321
 10
5.351985449639313
 20
-3.443616527559141
 10
5.382968335563317
 20
-3.446810212444916
 10
5.376743079383256
 20
-3.466939955593665
 10
5.372764892620225
 20
-3.471454133083372
 10
5.350773318284027
 20
-3.472678371622628
 10
5.350635686400664
 20
-3.4630053010321
 97
        0
 97
        1
330
EA
 92
        1
 93
        1
 72
     4
 94
        3
 73
     0
 74
     0
 95
       29
 96
       25
 40
0.0
 40
0.0
 40
0.0
 40
0.0
 40
1.0
 40
1.0
 40
1.0
 40
2.0
 40
2.0
 40
2.0
 40
3.0
 40
3.0
 40
3.0
 40
4.0
 40
4.0
 40
4.0
 40
5.0
 40
5.0
 40
5.0
 40
6.0
 40
6.0
 40
6.0
 40
7.0
 40
7.0
 40
7.0
 40
8.0
 40
8.0
 40
8.0
 40
8.0
 10
5.390023707233997
 20
-3.410501503289045
 10
5.39664612989716
 20
-3.430128976708576
 10
5.347339604611812
 20
-3.427953840531927
 10
5.344217672327658
 20
-3.416923605944879
 10
5.389134307407074
 20
-3.401588838682628
 10
5.381924956237804
 20
-3.364057174702768
 10
5.331096987356734
 20
-3.377832950215406
 10
5.283850719428351
 20
-3.377785124585847
 10
5.310427959822643
 20
-3.473812437831257
 10
5.30482922759764
 20
-3.509074023860067
 10
5.352666418419958
 20
-3.510735506498626
 10
5.378609743180858
 20
-3.49845513645467
 10
5.3596814188491
 20
-3.560576747819039
 10
5.349718166890649
 20
-3.557128630161413
 10
5.350562322662577
 20
-3.574866847134343
 10
5.344952283357113
 20
-3.563919127783643
 10
5.368586264774799
 20
-3.480337113674067
 10
5.27448602836537
 20
-3.562050433875507
 10
5.285305964188006
 20
-3.49596693327458
 10
5.284252527269952
 20
-3.452238861124972
 10
5.27524612433174
 20
-3.41121308551121
 10
5.288088493342203
 20
-3.368644649591917
 10
5.324346894395426
 20
-3.34294627571267
 10
5.423346548229523
 20
-3.343910677136186
 10
5.390023707233997
 20
-3.410501503289045
 97
        0
 97
        1
330
EB
 75
     2
 76
     1
 98
        1
 10
0.0
 20
0.0
450
        0
451
        0
460
0.0
461
0.0
452
        0
462
0.0
453
        0
470

  0
SPLINE
  5
ED
330
7C
100
AcDbEntity
  8
Poneglyph
100
AcDbSpline
210
0.0
220
0.0
230
1.0
 70
     9
 71
     3
 72
    11
 73
     7
 74
     0
 42
0.0000000001
 43
0.0000000001
 40
0.0
 40
0.0
 40
0.0
 40
0.0
 40
1.0
 40
1.0
 40
1.0
 40
2.0
 40
2.0
 40
2.0
 40
2.0
 10
5.70211680619233
 20
-3.397227992181468
 30
0.0
 10
5.701973741057018
 20
-3.413561242033311
 30
0.0
 10
5.676849899395543
 20
-3.413506489084031
 30
0.0
 10
5.676739785955431
 20
-3.397226630197665
 30
0.0
 10
5.676863017784878
 20
-3.380969446177484
 30
0.0
 10
5.701966494631758
 20
-3.380912316411619
 30
0.0
 10
5.70211680619233
 20
-3.397227992181468
 30
0.0
  0
SPLINE
  5
EE
330
7C
100
AcDbEntity
  8
Poneglyph
100
AcDbSpline
210
0.0
220
0.0
230
1.0
 70
     9
 71
     3
 72
    17
 73
    13
 74
     0
 42
0.0000000001
 43
0.0000000001
 40
0.0
 40
0.0
 40
0.0
 40
0.0
 40
1.0
 40
1.0
 40
1.0
 40
2.0
 40
2.0
 40
2.0
 40
3.0
 40
3.0
 40
3.0
 40
4.0
 40
4.0
 40
4.0
 40
4.0
 10
5.733814397338164
 20
-3.359169181417579
 30
0.0
 10
5.76080387323183
 20
-3.367791997889348
 30
0.0
 10
5.740477854878463
 20
-3.418418767626816
 30
0.0
 10
5.746450706975211
 20
-3.441712736335527
 30
0.0
 10
5.739492411336489
 20
-3.456202089221935
 30
0.0
 10
5.630269962842476
 20
-3.45256511962283
 30
0.0
 10
5.676736494012427
 20
-3.429172442331668
 30
0.0
 10
5.731501138202727
 20
-3.436404055694133
 30
0.0
 10
5.738482868697574
 20
-3.424142194511811
 30
0.0
 10
5.723550840086747
 20
-3.375489521241534
 30
0.0
 10
5.635569711181712
 20
-3.388987449890692
 30
0.0
 10
5.665360042766375
 20
-3.346904217491757
 30
0.0
 10
5.733814397338164
 20
-3.359169181417579
 30
0.0
  0
SPLINE
  5
EF
330
7C
100
AcDbEntity
  8
Poneglyph
100
AcDbSpline
210
0.0
220
0.0
230
1.0
 70
     9
 71
     3
 72
    17
 73
    13
 74
     0
 42
0.0000000001
 43
0.0000000001
 40
0.0
 40
0.0
 40
0.0
 40
0.0
 40
1.0
 40
1.0
 40
1.0
 40
2.0
 40
2.0
 40
2.0
 40
3.0
 40
3.0
 40
3.0
 40
4.0
 40
4.0
 40
4.0
 40
4.0
 10
5.733814397338164
 20
-3.474091598952302
 30
0.0
 10
5.770114940699386
 20
-3.484481699307606
 30
0.0
 10
5.732551873699599
 20
-3.625626095210918
 30
0.0
 10
5.727488447120322
 20
-3.537379351138446
 30
0.0
 10
5.731642668766349
 20
-3.494187222216724
 30
0.0
 10
5.731344852999781
 20
-3.491466490947029
 30
0.0
 10
5.689562444815565
 20
-3.499183630516351
 30
0.0
 10
5.670723839049211
 20
-3.482071163994027
 30
0.0
 10
5.607055950456898
 20
-3.516311560385525
 30
0.0
 10
5.623211230254026
 20
-3.477990301969889
 30
0.0
 10
5.657634242691225
 20
-3.461362188361337
 30
0.0
 10
5.700019121689946
 20
-3.492917132624925
 30
0.0
 10
5.733814397338164
 20
-3.474091598952302
 30
0.0
  0
SPLINE
  5
F0
330
7C
100
AcDbEntity
  8
Poneglyph
100
AcDbSpline
210
0.0
220
0.0
230
1.0
 70
     9
 71
     3
 72
    11
 73
     7
 74
     0
 42
0.0000000001
 43
0.0000000001
 40
0.0
 40
0.0
 40
0.0
 40
0.0
 40
1.0
 40
1.0
 40
1.0
 40
2.0
 40
2.0
 40
2.0
 40
2.0
 10
5.638531736747887
 20
-3.397377189230079
 30
0.0
 10
5.649745378400691
 20
-3.404382621469191
 30
0.0
 10
5.649421973834957
 20
-3.454083057368936
 30
0.0
 10
5.63854491870984
 20
-3.460962799558602
 30
0.0
 10
5.594822941245991
 20
-3.456717180868078
 30
0.0
 10
5.591685396081654
 20
-3.399562413831947
 30
0.0
 10
5.638531736747887
 20
-3.397377189230079
 30
0.0
  0
SPLINE
  5
F1
330
7C
100
AcDbEntity
  8
Poneglyph
100
AcDbSpline
210
0.0
220
0.0
230
1.0
 70
     9
 71
     3
 72
    35
 73
    31
 74
     0
 42
0.0000000001
 43
0.0000000001
 40
0.0
 40
0.0
 40
0.0
 40
0.0
 40
1.0
 40
1.0
 40
1.0
 40
2.0
 40
2.0
 40
2.0
 40
3.0
 40
3.0
 40
3.0
 40
4.0
 40
4.0
 40
4.0
 40
5.0
 40
5.0
 40
5.0
 40
6.0
 40
6.0
 40
6.0
 40
7.0
 40
7.0
 40
7.0
 40
8.0
 40
8.0
 40
8.0
 40
9.0
 40
9.0
 40
9.0
 40
10.0
 40
10.0
 40
10.0
 40
10.0
 10
5.695701333102053
 20
-3.524547328118968
 30
0.0
 10
5.707004038847748
 20
-3.522991095751901
 30
0.0
 10
5.705522516931851
 20
-3.568087014712242
 30
0.0
 10
5.69570960500659
 20
-3.569171582319237
 30
0.0
 10
5.686416705746447
 20
-3.54971919561323
 30
0.0
 10
5.645307231962785
 20
-3.57768588580441
 30
0.0
 10
5.62555688959757
 20
-3.56274596073154
 30
0.0
 10
5.596058029193827
 20
-3.556052722772897
 30
0.0
 10
5.581559556001719
 20
-3.50116250216014
 30
0.0
 10
5.562115077144148
 20
-3.475243361525447
 30
0.0
 10
5.537834506858239
 20
-3.471452338270662
 30
0.0
 10
5.563710887359623
 20
-3.520642989679926
 30
0.0
 10
5.555689190126082
 20
-3.537469285977623
 30
0.0
 10
5.562635895647215
 20
-3.575647832373508
 30
0.0
 10
5.529371570118907
 20
-3.575941440429662
 30
0.0
 10
5.536740451794583
 20
-3.537373612766815
 30
0.0
 10
5.531127800726708
 20
-3.496089962384884
 30
0.0
 10
5.54096998679966
 20
-3.251020496425199
 30
0.0
 10
5.555716494951032
 20
-3.416337699978384
 30
0.0
 10
5.62060290079565
 20
-3.323194223822509
 30
0.0
 10
5.673669237396779
 20
-3.332634031070079
 30
0.0
 10
5.568227843791848
 20
-3.429057240029603
 30
0.0
 10
5.534888397886409
 20
-3.456084590528739
 30
0.0
 10
5.610616106613658
 20
-3.497768850414053
 30
0.0
 10
5.61912294288254
 20
-3.531208736721762
 30
0.0
 10
5.626998157799713
 20
-3.55026173732641
 30
0.0
 10
5.660779456930741
 20
-3.549724401236188
 30
0.0
 10
5.679207335322391
 20
-3.547454271425673
 30
0.0
 10
5.692477145299486
 20
-3.542507060934212
 30
0.0
 10
5.673731287904021
 20
-3.521276532819456
 30
0.0
 10
5.695701333102053
 20
-3.524547328118968
 30
0.0
  0
HATCH
  5
F2
330
7C
100
AcDbEntity
  8
Poneglyph
 62
   250
420
  2301728
440
 33554687
100
AcDbHatch
 10
0.0
 20
0.0
 30
0.0
210
0.0
220
0.0
230
1.0
  2
SOLID
 70
     1
 71
     1
 91
        5
 92
        1
 93
        1
 72
     4
 94
        3
 73
     0
 74
     0
 95
       11
 96
        7
 40
0.0
 40
0.0
 40
0.0
 40
0.0
 40
1.0
 40
1.0
 40
1.0
 40
2.0
 40
2.0
 40
2.0
 40
2.0
 10
5.70211680619233
 20
-3.397227992181468
 10
5.701973741057018
 20
-3.413561242033311
 10
5.676849899395543
 20
-3.413506489084031
 10
5.676739785955431
 20
-3.397226630197665
 10
5.676863017784878
 20
-3.380969446177484
 10
5.701966494631758
 20
-3.380912316411619
 10
5.70211680619233
 20
-3.397227992181468
 97
        0
 97
        1
330
ED
 92
        1
 93
        1
 72
     4
 94
        3
 73
     0
 74
     0
 95
       17
 96
       13
 40
0.0
 40
0.0
 40
0.0
 40
0.0
 40
1.0
 40
1.0
 40
1.0
 40
2.0
 40
2.0
 40
2.0
 40
3.0
 40
3.0
 40
3.0
 40
4.0
 40
4.0
 40
4.0
 40
4.0
 10
5.733814397338164
 20
-3.359169181417579
 10
5.76080387323183
 20
-3.367791997889348
 10
5.740477854878463
 20
-3.418418767626816
 10
5.746450706975211
 20
-3.441712736335527
 10
5.739492411336489
 20
-3.456202089221935
 10
5.630269962842476
 20
-3.45256511962283
 10
5.676736494012427
 20
-3.429172442331668
 10
5.731501138202727
 20
-3.436404055694133
 10
5.738482868697574
 20
-3.424142194511811
 10
5.723550840086747
 20
-3.375489521241534
 10
5.635569711181712
 20
-3.388987449890692
 10
5.665360042766375
 20
-3.346904217491757
 10
5.733814397338164
 20
-3.359169181417579
 97
        0
 97
        1
330
EE
 92
        1
 93
        1
 72
     4
 94
        3
 73
     0
 74
     0
 95
       17
 96
       13
 40
0.0
 40
0.0
 40
0.0
 40
0.0
 40
1.0
 40
1.0
 40
1.0
 40
2.0
 40
2.0
 40
2.0
 40
3.0
 40
3.0
 40
3.0
 40
4.0
 40
4.0
 40
4.0
 40
4.0
 10
5.733814397338164
 20
-3.474091598952302
 10
5.770114940699386
 20
-3.484481699307606
 10
5.732551873699599
 20
-3.625626095210918
 10
5.727488447120322
 20
-3.537379351138446
 10
5.731642668766349
 20
-3.494187222216724
 10
5.731344852999781
 20
-3.491466490947029
 10
5.689562444815565
 20
-3.499183630516351
 10
5.670723839049211
 20
-3.482071163994027
 10
5.607055950456898
 20
-3.516311560385525
 10
5.623211230254026
 20
-3.477990301969889
 10
5.657634242691225
 20
-3.461362188361337
 10
5.700019121689946
 20
-3.492917132624925
 10
5.733814397338164
 20
-3.474091598952302
 97
        0
 97
        1
330
EF
 92
        1
 93
        1
 72
     4
 94
        3
 73
     0
 74
     0
 95
       11
 96
        7
 40
0.0
 40
0.0
 40
0.0
 40
0.0
 40
1.0
 40
1.0
 40
1.0
 40
2.0
 40
2.0
 40
2.0
 40
2.0
 10
5.638531736747887
 20
-3.397377189230079
 10
5.649745378400691
 20
-3.404382621469191
 10
5.649421973834957
 20
-3.454083057368936
 10
5.63854491870984
 20
-3.460962799558602
 10
5.594822941245991
 20
-3.456717180868078
 10
5.591685396081654
 20
-3.399562413831947
 10
5.638531736747887
 20
-3.397377189230079
 97
        0
 97
        1
330
F0
 92
        1
 93
        1
 72
     4
 94
        3
 73
     0
 74
     0
 95
       35
 96
       31
 40
0.0
 40
0.0
 40
0.0
 40
0.0
 40
1.0
 40
1.0
 40
1.0
 40
2.0
 40
2.0
 40
2.0
 40
3.0
 40
3.0
 40
3.0
 40
4.0
 40
4.0
 40
4.0
 40
5.0
 40
5.0
 40
5.0
 40
6.0
 40
6.0
 40
6.0
 40
7.0
 40
7.0
 40
7.0
 40
8.0
 40
8.0
 40
8.0
 40
9.0
 40
9.0
 40
9.0
 40
10.0
 40
10.0
 40
10.0
 40
10.0
 10
5.695701333102053
 20
-3.524547328118968
 10
5.707004038847748
 20
-3.522991095751901
 10
5.705522516931851
 20
-3.568087014712242
 10
5.69570960500659
 20
-3.569171582319237
 10
5.686416705746447
 20
-3.54971919561323
 10
5.645307231962785
 20
-3.57768588580441
 10
5.62555688959757
 20
-3.56274596073154
 10
5.596058029193827
 20
-3.556052722772897
 10
5.581559556001719
 20
-3.50116250216014
 10
5.562115077144148
 20
-3.475243361525447
 10
5.537834506858239
 20
-3.471452338270662
 10
5.563710887359623
 20
-3.520642989679926
 10
5.555689190126082
 20
-3.537469285977623
 10
5.562635895647215
 20
-3.575647832373508
 10
5.529371570118907
 20
-3.575941440429662
 10
5.536740451794583
 20
-3.537373612766815
 10
5.531127800726708
 20
-3.496089962384884
 10
5.54096998679966
 20
-3.251020496425199
 10
5.555716494951032
 20
-3.416337699978384
 10
5.62060290079565
 20
-3.323194223822509
 10
5.673669237396779
 20
-3.332634031070079
 10
5.568227843791848
 20
-3.429057240029603
 10
5.534888397886409
 20
-3.456084590528739
 10
5.610616106613658
 20
-3.497768850414053
 10
5.61912294288254
 20
-3.531208736721762
 10
5.626998157799713
 20
-3.55026173732641
 10
5.660779456930741
 20
-3.549724401236188
 10
5.679207335322391
 20
-3.547454271425673
 10
5.692477145299486
 20
-3.542507060934212
 10
5.673731287904021
 20
-3.521276532819456
 10
5.695701333102053
 20
-3.524547328118968
 97
        0
 97
        1
330
F1
 75
     2
 76
     1
 98
        1
 10
0.0
 20
0.0
450
        0
451
        0
460
0.0
461
0.0
452
        0
462
0.0
453
        0
470

  0
SPLINE
  5
F3
330
7C
100
AcDbEntity
  8
Poneglyph
100
AcDbSpline
210
0.0
220
0.0
230
1.0
 70
     9
 71
     3
 72
    11
 73
     7
 74
     0
 42
0.0000000001
 43
0.0000000001
 40
0.0
 40
0.0
 40
0.0
 40
0.0
 40
1.0
 40
1.0
 40
1.0
 40
2.0
 40
2.0
 40
2.0
 40
2.0
 10
5.971905760185387
 20
-3.52434365127821
 30
0.0
 10
5.942451400221165
 20
-3.561356995086043
 30
0.0
 10
5.947258238827341
 20
-3.433975242623445
 30
0.0
 10
5.958764719794619
 20
-3.425766846210409
 30
0.0
 10
5.987593001856516
 20
-3.439946806504091
 30
0.0
 10
5.96520503852816
 20
-3.496426327980593
 30
0.0
 10
5.971905760185387
 20
-3.52434365127821
 30
0.0
  0
SPLINE
  5
F4
330
7C
100
AcDbEntity
  8
Poneglyph
100
AcDbSpline
210
0.0
220
0.0
230
1.0
 70
     9
 71
     3
 72
    20
 73
    16
 74
     0
 42
0.0000000001
 43
0.0000000001
 40
0.0
 40
0.0
 40
0.0
 40
0.0
 40
1.0
 40
1.0
 40
1.0
 40
2.0
 40
2.0
 40
2.0
 40
3.0
 40
3.0
 40
3.0
 40
4.0
 40
4.0
 40
4.0
 40
5.0
 40
5.0
 40
5.0
 40
5.0
 10
5.965490287095108
 20
-3.393090938604599
 30
0.0
 10
6.039005650891415
 20
-3.377362835692792
 30
0.0
 10
6.00142651368267
 20
-3.469202678754021
 30
0.0
 10
6.011288284268503
 20
-3.517632498004003
 30
0.0
 10
6.019267138251835
 20
-3.582349284536853
 30
0.0
 10
6.000039703792556
 20
-3.570293237032753
 30
0.0
 10
5.945653368410502
 20
-3.570128216129331
 30
0.0
 10
5.896538171933823
 20
-3.536693376380147
 30
0.0
 10
6.003753364080769
 20
-3.566742728739604
 30
0.0
 10
5.994063842874285
 20
-3.539952542625946
 30
0.0
 10
5.979157451177494
 20
-3.504045585862387
 30
0.0
 10
6.010947743658789
 20
-3.406872858481442
 30
0.0
 10
5.971922810757304
 20
-3.412625053415139
 30
0.0
 10
5.906643095398067
 20
-3.433604725623707
 30
0.0
 10
5.962560057712961
 20
-3.276082068711072
 30
0.0
 10
5.965490287095108
 20
-3.393090938604599
 30
0.0
  0
SPLINE
  5
F5
330
7C
100
AcDbEntity
  8
Poneglyph
100
AcDbSpline
210
0.0
220
0.0
230
1.0
 70
     9
 71
     3
 72
    11
 73
     7
 74
     0
 42
0.0000000001
 43
0.0000000001
 40
0.0
 40
0.0
 40
0.0
 40
0.0
 40
1.0
 40
1.0
 40
1.0
 40
2.0
 40
2.0
 40
2.0
 40
2.0
 10
5.91940196244233
 20
-3.55058876846571
 30
0.0
 10
5.919081194095522
 20
-3.567386298900979
 30
0.0
 10
5.893468337109197
 20
-3.567382571417813
 30
0.0
 10
5.893156881997356
 20
-3.550587216047081
 30
0.0
 10
5.893482304463582
 20
-3.533814994641236
 30
0.0
 10
5.919074136946897
 20
-3.533808645223264
 30
0.0
 10
5.91940196244233
 20
-3.55058876846571
 30
0.0
  0
SPLINE
  5
F6
330
7C
100
AcDbEntity
  8
Poneglyph
100
AcDbSpline
210
0.0
220
0.0
230
1.0
 70
     9
 71
     3
 72
    11
 73
     7
 74
     0
 42
0.0000000001
 43
0.0000000001
 40
0.0
 40
0.0
 40
0.0
 40
0.0
 40
1.0
 40
1.0
 40
1.0
 40
2.0
 40
2.0
 40
2.0
 40
2.0
 10
5.906286185532608
 20
-3.478255326625432
 30
0.0
 10
5.923064887685768
 20
-3.478598789673166
 30
0.0
 10
5.923066205895893
 20
-3.504174005685096
 30
0.0
 10
5.906284630630478
 20
-3.504513974015733
 30
0.0
 10
5.889487309216999
 20
-3.504184515072413
 30
0.0
 10
5.88948601931616
 20
-3.478581387825745
 30
0.0
 10
5.906286185532608
 20
-3.478255326625432
 30
0.0
  0
SPLINE
  5
F7
330
7C
100
AcDbEntity
  8
Poneglyph
100
AcDbSpline
210
0.0
220
0.0
230
1.0
 70
     9
 71
     3
 72
    11
 73
     7
 74
     0
 42
0.0000000001
 43
0.0000000001
 40
0.0
 40
0.0
 40
0.0
 40
0.0
 40
1.0
 40
1.0
 40
1.0
 40
2.0
 40
2.0
 40
2.0
 40
2.0
 10
5.89315684525483
 20
-3.366845821417099
 30
0.0
 10
5.924162981719821
 20
-3.305704789978209
 30
0.0
 10
5.930129252576458
 20
-3.473889091705157
 30
0.0
 10
5.906297335014287
 20
-3.465139543968133
 30
0.0
 10
5.891828371863184
 20
-3.44651602066574
 30
0.0
 10
5.894540197103929
 20
-3.396096031318721
 30
0.0
 10
5.89315684525483
 20
-3.366845821417099
 30
0.0
  0
SPLINE
  5
F8
330
7C
100
AcDbEntity
  8
Poneglyph
100
AcDbSpline
210
0.0
220
0.0
230
1.0
 70
     9
 71
     3
 72
    35
 73
    31
 74
     0
 42
0.0000000001
 43
0.0000000001
 40
0.0
 40
0.0
 40
0.0
 40
0.0
 40
1.0
 40
1.0
 40
1.0
 40
2.0
 40
2.0
 40
2.0
 40
3.0
 40
3.0
 40
3.0
 40
4.0
 40
4.0
 40
4.0
 40
5.0
 40
5.0
 40
5.0
 40
6.0
 40
6.0
 40
6.0
 40
7.0
 40
7.0
 40
7.0
 40
8.0
 40
8.0
 40
8.0
 40
9.0
 40
9.0
 40
9.0
 40
10.0
 40
10.0
 40
10.0
 40
10.0
 10
5.79486311695622
 20
-3.543888464646265
 30
0.0
 10
5.798687557187904
 20
-3.48300125182666
 30
0.0
 10
5.787397626455357
 20
-3.411293855454207
 30
0.0
 10
5.798936062470425
 20
-3.354447902287751
 30
0.0
 10
5.817039619081469
 20
-3.356553300330789
 30
0.0
 10
5.855928532127588
 20
-3.345551217266802
 30
0.0
 10
5.866901034566707
 20
-3.360123154851281
 30
0.0
 10
5.86292261003435
 20
-3.39319249815162
 30
0.0
 10
5.797169019639087
 20
-3.348434400127997
 30
0.0
 10
5.814409773031052
 20
-3.393091502937598
 30
0.0
 10
5.810926805169477
 20
-3.435129258977237
 30
0.0
 10
5.810243297421164
 20
-3.442354567268112
 30
0.0
 10
5.849859680725507
 20
-3.444413251129414
 30
0.0
 10
5.866493056142669
 20
-3.435354703655548
 30
0.0
 10
5.840167674667074
 20
-3.402894641429459
 30
0.0
 10
5.866897735877803
 20
-3.406220093163407
 30
0.0
 10
5.883944394327171
 20
-3.424644841632976
 30
0.0
 10
5.868669068272335
 20
-3.471771288163608
 30
0.0
 10
5.873621210732986
 20
-3.498095955978745
 30
0.0
 10
5.868474295315687
 20
-3.515451202856411
 30
0.0
 10
5.88779264631138
 20
-3.569711603176377
 30
0.0
 10
5.857870683639652
 20
-3.562839306454204
 30
0.0
 10
5.842054308165566
 20
-3.538144582770125
 30
0.0
 10
5.866337874224604
 20
-3.484223917206918
 30
0.0
 10
5.849853931221736
 20
-3.462506953048078
 30
0.0
 10
5.808960044289682
 20
-3.46051736021084
 30
0.0
 10
5.812800957733593
 20
-3.475152738206134
 30
0.0
 10
5.82010497019486
 20
-3.508603158411864
 30
0.0
 10
5.821097094345455
 20
-3.531749961543229
 30
0.0
 10
5.806806265383707
 20
-3.60981051943309
 30
0.0
 10
5.79486311695622
 20
-3.543888464646265
 30
0.0
  0
HATCH
  5
F9
330
7C
100
AcDbEntity
  8
Poneglyph
 62
   250
420
  2301728
440
 33554687
100
AcDbHatch
 10
0.0
 20
0.0
 30
0.0
210
0.0
220
0.0
230
1.0
  2
SOLID
 70
     1
 71
     1
 91
        6
 92
        1
 93
        1
 72
     4
 94
        3
 73
     0
 74
     0
 95
       11
 96
        7
 40
0.0
 40
0.0
 40
0.0
 40
0.0
 40
1.0
 40
1.0
 40
1.0
 40
2.0
 40
2.0
 40
2.0
 40
2.0
 10
5.971905760185387
 20
-3.52434365127821
 10
5.942451400221165
 20
-3.561356995086043
 10
5.947258238827341
 20
-3.433975242623445
 10
5.958764719794619
 20
-3.425766846210409
 10
5.987593001856516
 20
-3.439946806504091
 10
5.96520503852816
 20
-3.496426327980593
 10
5.971905760185387
 20
-3.52434365127821
 97
        0
 97
        1
330
F3
 92
        1
 93
        1
 72
     4
 94
        3
 73
     0
 74
     0
 95
       20
 96
       16
 40
0.0
 40
0.0
 40
0.0
 40
0.0
 40
1.0
 40
1.0
 40
1.0
 40
2.0
 40
2.0
 40
2.0
 40
3.0
 40
3.0
 40
3.0
 40
4.0
 40
4.0
 40
4.0
 40
5.0
 40
5.0
 40
5.0
 40
5.0
 10
5.965490287095108
 20
-3.393090938604599
 10
6.039005650891415
 20
-3.377362835692792
 10
6.00142651368267
 20
-3.469202678754021
 10
6.011288284268503
 20
-3.517632498004003
 10
6.019267138251835
 20
-3.582349284536853
 10
6.000039703792556
 20
-3.570293237032753
 10
5.945653368410502
 20
-3.570128216129331
 10
5.896538171933823
 20
-3.536693376380147
 10
6.003753364080769
 20
-3.566742728739604
 10
5.994063842874285
 20
-3.539952542625946
 10
5.979157451177494
 20
-3.504045585862387
 10
6.010947743658789
 20
-3.406872858481442
 10
5.971922810757304
 20
-3.412625053415139
 10
5.906643095398067
 20
-3.433604725623707
 10
5.962560057712961
 20
-3.276082068711072
 10
5.965490287095108
 20
-3.393090938604599
 97
        0
 97
        1
330
F4
 92
        1
 93
        1
 72
     4
 94
        3
 73
     0
 74
     0
 95
       11
 96
        7
 40
0.0
 40
0.0
 40
0.0
 40
0.0
 40
1.0
 40
1.0
 40
1.0
 40
2.0
 40
2.0
 40
2.0
 40
2.0
 10
5.91940196244233
 20
-3.55058876846571
 10
5.919081194095522
 20
-3.567386298900979
 10
5.893468337109197
 20
-3.567382571417813
 10
5.893156881997356
 20
-3.550587216047081
 10
5.893482304463582
 20
-3.533814994641236
 10
5.919074136946897
 20
-3.533808645223264
 10
5.91940196244233
 20
-3.55058876846571
 97
        0
 97
        1
330
F5
 92
        1
 93
        1
 72
     4
 94
        3
 73
     0
 74
     0
 95
       11
 96
        7
 40
0.0
 40
0.0
 40
0.0
 40
0.0
 40
1.0
 40
1.0
 40
1.0
 40
2.0
 40
2.0
 40
2.0
 40
2.0
 10
5.906286185532608
 20
-3.478255326625432
 10
5.923064887685768
 20
-3.478598789673166
 10
5.923066205895893
 20
-3.504174005685096
 10
5.906284630630478
 20
-3.504513974015733
 10
5.889487309216999
 20
-3.504184515072413
 10
5.88948601931616
 20
-3.478581387825745
 10
5.906286185532608
 20
-3.478255326625432
 97
        0
 97
        1
330
F6
 92
        1
 93
        1
 72
     4
 94
        3
 73
     0
 74
     0
 95
       11
 96
        7
 40
0.0
 40
0.0
 40
0.0
 40
0.0
 40
1.0
 40
1.0
 40
1.0
 40
2.0
 40
2.0
 40
2.0
 40
2.0
 10
5.89315684525483
 20
-3.366845821417099
 10
5.924162981719821
 20
-3.305704789978209
 10
5.930129252576458
 20
-3.473889091705157
 10
5.906297335014287
 20
-3.465139543968133
 10
5.891828371863184
 20
-3.44651602066574
 10
5.894540197103929
 20
-3.396096031318721
 10
5.89315684525483
 20
-3.366845821417099
 97
        0
 97
        1
330
F7
 92
        1
 93
        1
 72
     4
 94
        3
 73
     0
 74
     0
 95
       35
 96
       31
 40
0.0
 40
0.0
 40
0.0
 40
0.0
 40
1.0
 40
1.0
 40
1.0
 40
2.0
 40
2.0
 40
2.0
 40
3.0
 40
3.0
 40
3.0
 40
4.0
 40
4.0
 40
4.0
 40
5.0
 40
5.0
 40
5.0
 40
6.0
 40
6.0
 40
6.0
 40
7.0
 40
7.0
 40
7.0
 40
8.0
 40
8.0
 40
8.0
 40
9.0
 40
9.0
 40
9.0
 40
10.0
 40
10.0
 40
10.0
 40
10.0
 10
5.79486311695622
 20
-3.543888464646265
 10
5.798687557187904
 20
-3.48300125182666
 10
5.787397626455357
 20
-3.411293855454207
 10
5.798936062470425
 20
-3.354447902287751
 10
5.817039619081469
 20
-3.356553300330789
 10
5.855928532127588
 20
-3.345551217266802
 10
5.866901034566707
 20
-3.360123154851281
 10
5.86292261003435
 20
-3.39319249815162
 10
5.797169019639087
 20
-3.348434400127997
 10
5.814409773031052
 20
-3.393091502937598
 10
5.810926805169477
 20
-3.435129258977237
 10
5.810243297421164
 20
-3.442354567268112
 10
5.849859680725507
 20
-3.444413251129414
 10
5.866493056142669
 20
-3.435354703655548
 10
5.840167674667074
 20
-3.402894641429459
 10
5.866897735877803
 20
-3.406220093163407
 10
5.883944394327171
 20
-3.424644841632976
 10
5.868669068272335
 20
-3.471771288163608
 10
5.873621210732986
 20
-3.498095955978745
 10
5.868474295315687
 20
-3.515451202856411
 10
5.88779264631138
 20
-3.569711603176377
 10
5.857870683639652
 20
-3.562839306454204
 10
5.842054308165566
 20
-3.538144582770125
 10
5.866337874224604
 20
-3.484223917206918
 10
5.849853931221736
 20
-3.462506953048078
 10
5.808960044289682
 20
-3.46051736021084
 10
5.812800957733593
 20
-3.475152738206134
 10
5.82010497019486
 20
-3.508603158411864
 10
5.821097094345455
 20
-3.531749961543229
 10
5.806806265383707
 20
-3.60981051943309
 10
5.79486311695622
 20
-3.543888464646265
 97
        0
 97
        1
330
F8
 75
     2
 76
     1
 98
        1
 10
0.0
 20
0.0
450
        0
451
        0
460
0.0
461
0.0
452
        0
462
0.0
453
        0
470

  0
SPLINE
  5
FA
330
7C
100
AcDbEntity
  8
Poneglyph
100
AcDbSpline
210
0.0
220
0.0
230
1.0
 70
     9
 71
     3
 72
    11
 73
     7
 74
     0
 42
0.0000000001
 43
0.0000000001
 40
0.0
 40
0.0
 40
0.0
 40
0.0
 40
1.0
 40
1.0
 40
1.0
 40
2.0
 40
2.0
 40
2.0
 40
2.0
 10
4.910873781148311
 20
-3.148387711490562
 30
0.0
 10
4.928078464418856
 20
-3.156425878631959
 30
0.0
 10
4.977633572034392
 20
-3.152582881584849
 30
0.0
 10
4.938295091471117
 20
-3.141812800932206
 30
0.0
 10
4.922579235641655
 20
-3.138018327462784
 30
0.0
 10
4.867129383750984
 20
-3.147838232251236
 30
0.0
 10
4.910873781148311
 20
-3.148387711490562
 30
0.0
  0
SPLINE
  5
FB
330
7C
100
AcDbEntity
  8
Poneglyph
100
AcDbSpline
210
0.0
220
0.0
230
1.0
 70
     9
 71
     3
 72
    20
 73
    16
 74
     0
 42
0.0000000001
 43
0.0000000001
 40
0.0
 40
0.0
 40
0.0
 40
0.0
 40
1.0
 40
1.0
 40
1.0
 40
2.0
 40
2.0
 40
2.0
 40
3.0
 40
3.0
 40
3.0
 40
4.0
 40
4.0
 40
4.0
 40
5.0
 40
5.0
 40
5.0
 40
5.0
 10
4.976500137485118
 20
-3.069638796560007
 30
0.0
 10
4.981480795213605
 20
-3.113086383139236
 30
0.0
 10
4.982571405102867
 20
-3.164861392262789
 30
0.0
 10
4.973143489780921
 20
-3.210657914093492
 30
0.0
 10
4.958275646065203
 20
-3.228932795714399
 30
0.0
 10
4.989547047080728
 20
-3.293804143200152
 30
0.0
 10
4.951126211789717
 20
-3.285176970080429
 30
0.0
 10
4.928232367518956
 20
-3.174673271599001
 30
0.0
 10
5.011743838348087
 20
-3.175256671340598
 30
0.0
 10
4.872374799905097
 20
-3.170564015477692
 30
0.0
 10
4.83480171865886
 20
-3.08425476713483
 30
0.0
 10
4.971219466247981
 20
-3.170256646413236
 30
0.0
 10
4.959582269766112
 20
-3.094281463709219
 30
0.0
 10
4.874820778436792
 20
-3.082691928928069
 30
0.0
 10
4.907665735493865
 20
-3.064696184581685
 30
0.0
 10
4.976500137485118
 20
-3.069638796560007
 30
0.0
  0
SPLINE
  5
FC
330
7C
100
AcDbEntity
  8
Poneglyph
100
AcDbSpline
210
0.0
220
0.0
230
1.0
 70
     9
 71
     3
 72
    11
 73
     7
 74
     0
 42
0.0000000001
 43
0.0000000001
 40
0.0
 40
0.0
 40
0.0
 40
0.0
 40
1.0
 40
1.0
 40
1.0
 40
2.0
 40
2.0
 40
2.0
 40
2.0
 10
4.819293920037201
 20
-3.128842898122507
 30
0.0
 10
4.816669354340799
 20
-3.137146446479972
 30
0.0
 10
4.826500284047672
 20
-3.148206845490928
 30
0.0
 10
4.830670029429029
 20
-3.137740469566526
 30
0.0
 10
4.831002682933684
 20
-3.133154930546045
 30
0.0
 10
4.82526580367668
 20
-3.126992572933759
 30
0.0
 10
4.819293920037201
 20
-3.128842898122507
 30
0.0
  0
SPLINE
  5
FD
330
7C
100
AcDbEntity
  8
Poneglyph
100
AcDbSpline
210
0.0
220
0.0
230
1.0
 70
     9
 71
     3
 72
    14
 73
    10
 74
     0
 42
0.0000000001
 43
0.0000000001
 40
0.0
 40
0.0
 40
0.0
 40
0.0
 40
1.0
 40
1.0
 40
1.0
 40
2.0
 40
2.0
 40
2.0
 40
3.0
 40
3.0
 40
3.0
 40
3.0
 10
4.799457494255951
 20
-3.240265966698895
 30
0.0
 10
4.830936076436475
 20
-3.215823404559285
 30
0.0
 10
4.879349939431019
 20
-3.237115844627295
 30
0.0
 10
4.917287068885671
 20
-3.226843638106073
 30
0.0
 10
4.957521333719467
 20
-3.249390413276437
 30
0.0
 10
4.897479560018937
 20
-3.260565314735382
 30
0.0
 10
4.878211531550732
 20
-3.246668988414133
 30
0.0
 10
4.854902652028512
 20
-3.240533750453096
 30
0.0
 10
4.810538202515746
 20
-3.271207792439806
 30
0.0
 10
4.799457494255951
 20
-3.240265966698895
 30
0.0
  0
SPLINE
  5
FE
330
7C
100
AcDbEntity
  8
Poneglyph
100
AcDbSpline
210
0.0
220
0.0
230
1.0
 70
     9
 71
     3
 72
    11
 73
     7
 74
     0
 42
0.0000000001
 43
0.0000000001
 40
0.0
 40
0.0
 40
0.0
 40
0.0
 40
1.0
 40
1.0
 40
1.0
 40
2.0
 40
2.0
 40
2.0
 40
2.0
 10
4.805872967346228
 20
-3.115428727115562
 30
0.0
 10
4.888810616696824
 20
-3.091002242043133
 30
0.0
 10
4.823574430948332
 20
-3.205899205367384
 30
0.0
 10
4.812438955546591
 20
-3.160214311267635
 30
0.0
 10
4.811589933074401
 20
-3.149004237178941
 30
0.0
 10
4.789664823788092
 20
-3.116819607805205
 30
0.0
 10
4.805872967346228
 20
-3.115428727115562
 30
0.0
  0
SPLINE
  5
FF
330
7C
100
AcDbEntity
  8
Poneglyph
100
AcDbSpline
210
0.0
220
0.0
230
1.0
 70
     9
 71
     3
 72
    29
 73
    25
 74
     0
 42
0.0000000001
 43
0.0000000001
 40
0.0
 40
0.0
 40
0.0
 40
0.0
 40
1.0
 40
1.0
 40
1.0
 40
2.0
 40
2.0
 40
2.0
 40
3.0
 40
3.0
 40
3.0
 40
4.0
 40
4.0
 40
4.0
 40
5.0
 40
5.0
 40
5.0
 40
6.0
 40
6.0
 40
6.0
 40
7.0
 40
7.0
 40
7.0
 40
8.0
 40
8.0
 40
8.0
 40
8.0
 10
4.832124866217756
 20
-3.069638796560007
 30
0.0
 10
4.865995763409778
 20
-3.117765953451983
 30
0.0
 10
4.786100788562458
 20
-3.079260044142074
 30
0.0
 10
4.78079474334408
 20
-3.09704021339601
 30
0.0
 10
4.796709672337656
 20
-3.124870053113403
 30
0.0
 10
4.770902322806502
 20
-3.15553206666982
 30
0.0
 10
4.782389657779099
 20
-3.183681132682952
 30
0.0
 10
4.805303055731226
 20
-3.214098303113764
 30
0.0
 10
4.875331986572518
 20
-3.168017117515849
 30
0.0
 10
4.89687823411974
 20
-3.190095171344738
 30
0.0
 10
4.891229997286219
 20
-3.219897376479012
 30
0.0
 10
4.823444883842991
 20
-3.218506219677465
 30
0.0
 10
4.796253149507921
 20
-3.209067423713779
 30
0.0
 10
4.761882070515841
 20
-3.231509516684152
 30
0.0
 10
4.796737191127729
 20
-3.281212234909111
 30
0.0
 10
4.838828381545454
 20
-3.253077719358265
 30
0.0
 10
4.867230070901364
 20
-3.283196371806702
 30
0.0
 10
4.813087226205753
 20
-3.280857932018887
 30
0.0
 10
4.793042284371014
 20
-3.279336090373261
 30
0.0
 10
4.736297524439982
 20
-3.291234891961696
 30
0.0
 10
4.765490195393921
 20
-3.177435173921189
 30
0.0
 10
4.766772101899757
 20
-3.14169040315768
 30
0.0
 10
4.750371854590209
 20
-3.079037774463156
 30
0.0
 10
4.767286410076722
 20
-3.06539522244106
 30
0.0
 10
4.832124866217756
 20
-3.069638796560007
 30
0.0
  0
HATCH
  5
100
330
7C
100
AcDbEntity
  8
Poneglyph
 62
   250
420
  2301728
440
 33554687
100
AcDbHatch
 10
0.0
 20
0.0
 30
0.0
210
0.0
220
0.0
230
1.0
  2
SOLID
 70
     1
 71
     1
 91
        6
 92
        1
 93
        1
 72
     4
 94
        3
 73
     0
 74
     0
 95
       11
 96
        7
 40
0.0
 40
0.0
 40
0.0
 40
0.0
 40
1.0
 40
1.0
 40
1.0
 40
2.0
 40
2.0
 40
2.0
 40
2.0
 10
4.910873781148311
 20
-3.148387711490562
 10
4.928078464418856
 20
-3.156425878631959
 10
4.977633572034392
 20
-3.152582881584849
 10
4.938295091471117
 20
-3.141812800932206
 10
4.922579235641655
 20
-3.138018327462784
 10
4.867129383750984
 20
-3.147838232251236
 10
4.910873781148311
 20
-3.148387711490562
 97
        0
 97
        1
330
FA
 92
        1
 93
        1
 72
     4
 94
        3
 73
     0
 74
     0
 95
       20
 96
       16
 40
0.0
 40
0.0
 40
0.0
 40
0.0
 40
1.0
 40
1.0
 40
1.0
 40
2.0
 40
2.0
 40
2.0
 40
3.0
 40
3.0
 40
3.0
 40
4.0
 40
4.0
 40
4.0
 40
5.0
 40
5.0
 40
5.0
 40
5.0
 10
4.976500137485118
 20
-3.069638796560007
 10
4.981480795213605
 20
-3.113086383139236
 10
4.982571405102867
 20
-3.164861392262789
 10
4.973143489780921
 20
-3.210657914093492
 10
4.958275646065203
 20
-3.228932795714399
 10
4.989547047080728
 20
-3.293804143200152
 10
4.951126211789717
 20
-3.285176970080429
 10
4.928232367518956
 20
-3.174673271599001
 10
5.011743838348087
 20
-3.175256671340598
 10
4.872374799905097
 20
-3.170564015477692
 10
4.83480171865886
 20
-3.08425476713483
 10
4.971219466247981
 20
-3.170256646413236
 10
4.959582269766112
 20
-3.094281463709219
 10
4.874820778436792
 20
-3.082691928928069
 10
4.907665735493865
 20
-3.064696184581685
 10
4.976500137485118
 20
-3.069638796560007
 97
        0
 97
        1
330
FB
 92
        1
 93
        1
 72
     4
 94
        3
 73
     0
 74
     0
 95
       11
 96
        7
 40
0.0
 40
0.0
 40
0.0
 40
0.0
 40
1.0
 40
1.0
 40
1.0
 40
2.0
 40
2.0
 40
2.0
 40
2.0
 10
4.819293920037201
 20
-3.128842898122507
 10
4.816669354340799
 20
-3.137146446479972
 10
4.826500284047672
 20
-3.148206845490928
 10
4.830670029429029
 20
-3.137740469566526
 10
4.831002682933684
 20
-3.133154930546045
 10
4.82526580367668
 20
-3.126992572933759
 10
4.819293920037201
 20
-3.128842898122507
 97
        0
 97
        1
330
FC
 92
        1
 93
        1
 72
     4
 94
        3
 73
     0
 74
     0
 95
       14
 96
       10
 40
0.0
 40
0.0
 40
0.0
 40
0.0
 40
1.0
 40
1.0
 40
1.0
 40
2.0
 40
2.0
 40
2.0
 40
3.0
 40
3.0
 40
3.0
 40
3.0
 10
4.799457494255951
 20
-3.240265966698895
 10
4.830936076436475
 20
-3.215823404559285
 10
4.879349939431019
 20
-3.237115844627295
 10
4.917287068885671
 20
-3.226843638106073
 10
4.957521333719467
 20
-3.249390413276437
 10
4.897479560018937
 20
-3.260565314735382
 10
4.878211531550732
 20
-3.246668988414133
 10
4.854902652028512
 20
-3.240533750453096
 10
4.810538202515746
 20
-3.271207792439806
 10
4.799457494255951
 20
-3.240265966698895
 97
        0
 97
        1
330
FD
 92
        1
 93
        1
 72
     4
 94
        3
 73
     0
 74
     0
 95
       11
 96
        7
 40
0.0
 40
0.0
 40
0.0
 40
0.0
 40
1.0
 40
1.0
 40
1.0
 40
2.0
 40
2.0
 40
2.0
 40
2.0
 10
4.805872967346228
 20
-3.115428727115562
 10
4.888810616696824
 20
-3.091002242043133
 10
4.823574430948332
 20
-3.205899205367384
 10
4.812438955546591
 20
-3.160214311267635
 10
4.811589933074401
 20
-3.149004237178941
 10
4.789664823788092
 20
-3.116819607805205
 10
4.805872967346228
 20
-3.115428727115562
 97
        0
 97
        1
330
FE
 92
        1
 93
        1
 72
     4
 94
        3
 73
     0
 74
     0
 95
       29
 96
       25
 40
0.0
 40
0.0
 40
0.0
 40
0.0
 40
1.0
 40
1.0
 40
1.0
 40
2.0
 40
2.0
 40
2.0
 40
3.0
 40
3.0
 40
3.0
 40
4.0
 40
4.0
 40
4.0
 40
5.0
 40
5.0
 40
5.0
 40
6.0
 40
6.0
 40
6.0
 40
7.0
 40
7.0
 40
7.0
 40
8.0
 40
8.0
 40
8.0
 40
8.0
 10
4.832124866217756
 20
-3.069638796560007
 10
4.865995763409778
 20
-3.117765953451983
 10
4.786100788562458
 20
-3.079260044142074
 10
4.78079474334408
 20
-3.09704021339601
 10
4.796709672337656
 20
-3.124870053113403
 10
4.770902322806502
 20
-3.15553206666982
 10
4.782389657779099
 20
-3.183681132682952
 10
4.805303055731226
 20
-3.214098303113764
 10
4.875331986572518
 20
-3.168017117515849
 10
4.89687823411974
 20
-3.190095171344738
 10
4.891229997286219
 20
-3.219897376479012
 10
4.823444883842991
 20
-3.218506219677465
 10
4.796253149507921
 20
-3.209067423713779
 10
4.761882070515841
 20
-3.231509516684152
 10
4.796737191127729
 20
-3.281212234909111
 10
4.838828381545454
 20
-3.253077719358265
 10
4.867230070901364
 20
-3.283196371806702
 10
4.813087226205753
 20
-3.280857932018887
 10
4.793042284371014
 20
-3.279336090373261
 10
4.736297524439982
 20
-3.291234891961696
 10
4.765490195393921
 20
-3.177435173921189
 10
4.766772101899757
 20
-3.14169040315768
 10
4.750371854590209
 20
-3.079037774463156
 10
4.767286410076722
 20
-3.06539522244106
 10
4.832124866217756
 20
-3.069638796560007
 97
        0
 97
        1
330
FF
 75
     2
 76
     1
 98
        1
 10
0.0
 20
0.0
450
        0
451
        0
460
0.0
461
0.0
452
        0
462
0.0
453
        0
470

  0
SPLINE
  5
101
330
7C
100
AcDbEntity
  8
Poneglyph
100
AcDbSpline
210
0.0
220
0.0
230
1.0
 70
     9
 71
     3
 72
    11
 73
     7
 74
     0
 42
0.0000000001
 43
0.0000000001
 40
0.0
 40
0.0
 40
0.0
 40
0.0
 40
1.0
 40
1.0
 40
1.0
 40
2.0
 40
2.0
 40
2.0
 40
2.0
 10
4.91314924976872
 20
-3.71416491702914
 30
0.0
 10
4.926440583542873
 20
-3.719576461204824
 30
0.0
 10
4.976351293975312
 20
-3.722118370140201
 30
0.0
 10
4.945976149375685
 20
-3.708323798034724
 30
0.0
 10
4.930180410602891
 20
-3.702894333013419
 30
0.0
 10
4.868130503955929
 20
-3.713281339916647
 30
0.0
 10
4.91314924976872
 20
-3.71416491702914
 30
0.0
  0
SPLINE
  5
102
330
7C
100
AcDbEntity
  8
Poneglyph
100
AcDbSpline
210
0.0
220
0.0
230
1.0
 70
     9
 71
     3
 72
    20
 73
    16
 74
     0
 42
0.0000000001
 43
0.0000000001
 40
0.0
 40
0.0
 40
0.0
 40
0.0
 40
1.0
 40
1.0
 40
1.0
 40
2.0
 40
2.0
 40
2.0
 40
3.0
 40
3.0
 40
3.0
 40
4.0
 40
4.0
 40
4.0
 40
5.0
 40
5.0
 40
5.0
 40
5.0
 10
4.978768824421497
 20
-3.635416002098584
 30
0.0
 10
4.983786146367188
 20
-3.678841718449019
 30
0.0
 10
4.984811496632801
 20
-3.730625650885839
 30
0.0
 10
4.975432469991119
 20
-3.776435111990344
 30
0.0
 10
4.960530327329175
 20
-3.794694766055196
 30
0.0
 10
4.991831317183848
 20
-3.859584852029759
 30
0.0
 10
4.953408451661996
 20
-3.850954174485094
 30
0.0
 10
4.932864368301832
 20
-3.770303740322535
 30
0.0
 10
5.005120221023641
 20
-3.724384084815255
 30
0.0
 10
4.880485905148689
 20
-3.74042113804699
 30
0.0
 10
4.822665872129997
 20
-3.652256292112017
 30
0.0
 10
4.975262597092877
 20
-3.734165536713539
 30
0.0
 10
4.961869851825263
 20
-3.660059569783167
 30
0.0
 10
4.87708760502715
 20
-3.648472646279413
 30
0.0
 10
4.909936637194555
 20
-3.630473541504013
 30
0.0
 10
4.978768824421497
 20
-3.635416002098584
 30
0.0
  0
SPLINE
  5
103
330
7C
100
AcDbEntity
  8
Poneglyph
100
AcDbSpline
210
0.0
220
0.0
230
1.0
 70
     9
 71
     3
 72
    11
 73
     7
 74
     0
 42
0.0000000001
 43
0.0000000001
 40
0.0
 40
0.0
 40
0.0
 40
0.0
 40
1.0
 40
1.0
 40
1.0
 40
2.0
 40
2.0
 40
2.0
 40
2.0
 10
4.821569388657608
 20
-3.694620103661084
 30
0.0
 10
4.8189563578062
 20
-3.70291891467011
 30
0.0
 10
4.828771069132977
 20
-3.713984880852422
 30
0.0
 10
4.832938712378336
 20
-3.703517669837057
 30
0.0
 10
4.83327185321395
 20
-3.698943189274334
 30
0.0
 10
4.827538341976756
 20
-3.692769832706744
 30
0.0
 10
4.821569388657608
 20
-3.694620103661084
 30
0.0
  0
SPLINE
  5
104
330
7C
100
AcDbEntity
  8
Poneglyph
100
AcDbSpline
210
0.0
220
0.0
230
1.0
 70
     9
 71
     3
 72
    14
 73
    10
 74
     0
 42
0.0000000001
 43
0.0000000001
 40
0.0
 40
0.0
 40
0.0
 40
0.0
 40
1.0
 40
1.0
 40
1.0
 40
2.0
 40
2.0
 40
2.0
 40
3.0
 40
3.0
 40
3.0
 40
3.0
 10
4.801739744560387
 20
-3.806043172237473
 30
0.0
 10
4.833211709877736
 20
-3.781598756303663
 30
0.0
 10
4.881639985176459
 20
-3.802891808588532
 30
0.0
 10
4.919576100930245
 20
-3.792620833854546
 30
0.0
 10
4.959764966696891
 20
-3.815191397452912
 30
0.0
 10
4.899754176665838
 20
-3.82633339369651
 30
0.0
 10
4.880493785183261
 20
-3.812446211856114
 30
0.0
 10
4.857187145110022
 20
-3.806307573327962
 30
0.0
 10
4.812815647320121
 20
-3.836987930857755
 30
0.0
 10
4.801739744560387
 20
-3.806043172237473
 30
0.0
  0
SPLINE
  5
105
330
7C
100
AcDbEntity
  8
Poneglyph
100
AcDbSpline
210
0.0
220
0.0
230
1.0
 70
     9
 71
     3
 72
    11
 73
     7
 74
     0
 42
0.0000000001
 43
0.0000000001
 40
0.0
 40
0.0
 40
0.0
 40
0.0
 40
1.0
 40
1.0
 40
1.0
 40
2.0
 40
2.0
 40
2.0
 40
2.0
 10
4.808141654282608
 20
-3.68120593265414
 30
0.0
 10
4.864412756976005
 20
-3.670194834515667
 30
0.0
 10
4.853248475957368
 20
-3.705965825486044
 30
0.0
 10
4.827968726110788
 20
-3.740418088634669
 30
0.0
 10
4.813332770434751
 20
-3.736700762422515
 30
0.0
 10
4.79447100056465
 20
-3.685554197227222
 30
0.0
 10
4.808141654282608
 20
-3.68120593265414
 30
0.0
  0
SPLINE
  5
106
330
7C
100
AcDbEntity
  8
Poneglyph
100
AcDbSpline
210
0.0
220
0.0
230
1.0
 70
     9
 71
     3
 72
    26
 73
    22
 74
     0
 42
0.0000000001
 43
0.0000000001
 40
0.0
 40
0.0
 40
0.0
 40
0.0
 40
1.0
 40
1.0
 40
1.0
 40
2.0
 40
2.0
 40
2.0
 40
3.0
 40
3.0
 40
3.0
 40
4.0
 40
4.0
 40
4.0
 40
5.0
 40
5.0
 40
5.0
 40
6.0
 40
6.0
 40
6.0
 40
7.0
 40
7.0
 40
7.0
 40
7.0
 10
4.834400334838164
 20
-3.635416002098584
 30
0.0
 10
4.865457376338503
 20
-3.701169213769844
 30
0.0
 10
4.75803188827169
 20
-3.610962030420321
 30
0.0
 10
4.788629254435666
 20
-3.701031459491938
 30
0.0
 10
4.754082697933098
 20
-3.774362737957921
 30
0.0
 10
4.82918506927831
 20
-3.756407145142298
 30
0.0
 10
4.873792846164102
 20
-3.753532820874043
 30
0.0
 10
4.925142265604563
 20
-3.738787968956557
 30
0.0
 10
4.886638332977932
 20
-3.783831876945315
 30
0.0
 10
4.854225900162342
 20
-3.779785777760707
 30
0.0
 10
4.810843381186765
 20
-3.776646808254554
 30
0.0
 10
4.765449229239038
 20
-3.771356980483359
 30
0.0
 10
4.793713682548387
 20
-3.825599695740139
 30
0.0
 10
4.83689410388125
 20
-3.811820126172101
 30
0.0
 10
4.882607413072466
 20
-3.842474265741101
 30
0.0
 10
4.814868792548723
 20
-3.84513953009625
 30
0.0
 10
4.735163915090222
 20
-3.864710590471733
 30
0.0
 10
4.768293272854381
 20
-3.772127944971493
 30
0.0
 10
4.765699787275833
 20
-3.72057497227388
 30
0.0
 10
4.769133543392373
 20
-3.654990821824791
 30
0.0
 10
4.744912133897691
 20
-3.629867642875145
 30
0.0
 10
4.834400334838164
 20
-3.635416002098584
 30
0.0
  0
HATCH
  5
107
330
7C
100
AcDbEntity
  8
Poneglyph
 62
   250
420
  2301728
440
 33554687
100
AcDbHatch
 10
0.0
 20
0.0
 30
0.0
210
0.0
220
0.0
230
1.0
  2
SOLID
 70
     1
 71
     1
 91
        6
 92
        1
 93
        1
 72
     4
 94
        3
 73
     0
 74
     0
 95
       11
 96
        7
 40
0.0
 40
0.0
 40
0.0
 40
0.0
 40
1.0
 40
1.0
 40
1.0
 40
2.0
 40
2.0
 40
2.0
 40
2.0
 10
4.91314924976872
 20
-3.71416491702914
 10
4.926440583542873
 20
-3.719576461204824
 10
4.976351293975312
 20
-3.722118370140201
 10
4.945976149375685
 20
-3.708323798034724
 10
4.930180410602891
 20
-3.702894333013419
 10
4.868130503955929
 20
-3.713281339916647
 10
4.91314924976872
 20
-3.71416491702914
 97
        0
 97
        1
330
101
 92
        1
 93
        1
 72
     4
 94
        3
 73
     0
 74
     0
 95
       20
 96
       16
 40
0.0
 40
0.0
 40
0.0
 40
0.0
 40
1.0
 40
1.0
 40
1.0
 40
2.0
 40
2.0
 40
2.0
 40
3.0
 40
3.0
 40
3.0
 40
4.0
 40
4.0
 40
4.0
 40
5.0
 40
5.0
 40
5.0
 40
5.0
 10
4.978768824421497
 20
-3.635416002098584
 10
4.983786146367188
 20
-3.678841718449019
 10
4.984811496632801
 20
-3.730625650885839
 10
4.975432469991119
 20
-3.776435111990344
 10
4.960530327329175
 20
-3.794694766055196
 10
4.991831317183848
 20
-3.859584852029759
 10
4.953408451661996
 20
-3.850954174485094
 10
4.932864368301832
 20
-3.770303740322535
 10
5.005120221023641
 20
-3.724384084815255
 10
4.880485905148689
 20
-3.74042113804699
 10
4.822665872129997
 20
-3.652256292112017
 10
4.975262597092877
 20
-3.734165536713539
 10
4.961869851825263
 20
-3.660059569783167
 10
4.87708760502715
 20
-3.648472646279413
 10
4.909936637194555
 20
-3.630473541504013
 10
4.978768824421497
 20
-3.635416002098584
 97
        0
 97
        1
330
102
 92
        1
 93
        1
 72
     4
 94
        3
 73
     0
 74
     0
 95
       11
 96
        7
 40
0.0
 40
0.0
 40
0.0
 40
0.0
 40
1.0
 40
1.0
 40
1.0
 40
2.0
 40
2.0
 40
2.0
 40
2.0
 10
4.821569388657608
 20
-3.694620103661084
 10
4.8189563578062
 20
-3.70291891467011
 10
4.828771069132977
 20
-3.713984880852422
 10
4.832938712378336
 20
-3.703517669837057
 10
4.83327185321395
 20
-3.698943189274334
 10
4.827538341976756
 20
-3.692769832706744
 10
4.821569388657608
 20
-3.694620103661084
 97
        0
 97
        1
330
103
 92
        1
 93
        1
 72
     4
 94
        3
 73
     0
 74
     0
 95
       14
 96
       10
 40
0.0
 40
0.0
 40
0.0
 40
0.0
 40
1.0
 40
1.0
 40
1.0
 40
2.0
 40
2.0
 40
2.0
 40
3.0
 40
3.0
 40
3.0
 40
3.0
 10
4.801739744560387
 20
-3.806043172237473
 10
4.833211709877736
 20
-3.781598756303663
 10
4.881639985176459
 20
-3.802891808588532
 10
4.919576100930245
 20
-3.792620833854546
 10
4.959764966696891
 20
-3.815191397452912
 10
4.899754176665838
 20
-3.82633339369651
 10
4.880493785183261
 20
-3.812446211856114
 10
4.857187145110022
 20
-3.806307573327962
 10
4.812815647320121
 20
-3.836987930857755
 10
4.801739744560387
 20
-3.806043172237473
 97
        0
 97
        1
330
104
 92
        1
 93
        1
 72
     4
 94
        3
 73
     0
 74
     0
 95
       11
 96
        7
 40
0.0
 40
0.0
 40
0.0
 40
0.0
 40
1.0
 40
1.0
 40
1.0
 40
2.0
 40
2.0
 40
2.0
 40
2.0
 10
4.808141654282608
 20
-3.68120593265414
 10
4.864412756976005
 20
-3.670194834515667
 10
4.853248475957368
 20
-3.705965825486044
 10
4.827968726110788
 20
-3.740418088634669
 10
4.813332770434751
 20
-3.736700762422515
 10
4.79447100056465
 20
-3.685554197227222
 10
4.808141654282608
 20
-3.68120593265414
 97
        0
 97
        1
330
105
 92
        1
 93
        1
 72
     4
 94
        3
 73
     0
 74
     0
 95
       26
 96
       22
 40
0.0
 40
0.0
 40
0.0
 40
0.0
 40
1.0
 40
1.0
 40
1.0
 40
2.0
 40
2.0
 40
2.0
 40
3.0
 40
3.0
 40
3.0
 40
4.0
 40
4.0
 40
4.0
 40
5.0
 40
5.0
 40
5.0
 40
6.0
 40
6.0
 40
6.0
 40
7.0
 40
7.0
 40
7.0
 40
7.0
 10
4.834400334838164
 20
-3.635416002098584
 10
4.865457376338503
 20
-3.701169213769844
 10
4.75803188827169
 20
-3.610962030420321
 10
4.788629254435666
 20
-3.701031459491938
 10
4.754082697933098
 20
-3.774362737957921
 10
4.82918506927831
 20
-3.756407145142298
 10
4.873792846164102
 20
-3.753532820874043
 10
4.925142265604563
 20
-3.738787968956557
 10
4.886638332977932
 20
-3.783831876945315
 10
4.854225900162342
 20
-3.779785777760707
 10
4.810843381186765
 20
-3.776646808254554
 10
4.765449229239038
 20
-3.771356980483359
 10
4.793713682548387
 20
-3.825599695740139
 10
4.83689410388125
 20
-3.811820126172101
 10
4.882607413072466
 20
-3.842474265741101
 10
4.814868792548723
 20
-3.84513953009625
 10
4.735163915090222
 20
-3.864710590471733
 10
4.768293272854381
 20
-3.772127944971493
 10
4.765699787275833
 20
-3.72057497227388
 10
4.769133543392373
 20
-3.654990821824791
 10
4.744912133897691
 20
-3.629867642875145
 10
4.834400334838164
 20
-3.635416002098584
 97
        0
 97
        1
330
106
 75
     2
 76
     1
 98
        1
 10
0.0
 20
0.0
450
        0
451
        0
460
0.0
461
0.0
452
        0
462
0.0
453
        0
470

  0
SPLINE
  5
108
330
7C
100
AcDbEntity
  8
Poneglyph
100
AcDbSpline
210
0.0
220
0.0
230
1.0
 70
     9
 71
     3
 72
    11
 73
     7
 74
     0
 42
0.0000000001
 43
0.0000000001
 40
0.0
 40
0.0
 40
0.0
 40
0.0
 40
1.0
 40
1.0
 40
1.0
 40
2.0
 40
2.0
 40
2.0
 40
2.0
 10
5.177974011053442
 20
-3.822685109041129
 30
0.0
 10
5.194766065823387
 20
-3.823003498387429
 30
0.0
 10
5.194763376113061
 20
-3.84861741973264
 30
0.0
 10
5.177972460626354
 20
-3.848930192539505
 30
0.0
 10
5.161187824978924
 20
-3.848600164662229
 30
0.0
 10
5.161182519099307
 20
-3.82301386371801
 30
0.0
 10
5.177974011053442
 20
-3.822685109041129
 30
0.0
  0
SPLINE
  5
109
330
7C
100
AcDbEntity
  8
Poneglyph
100
AcDbSpline
210
0.0
220
0.0
230
1.0
 70
     9
 71
     3
 72
    11
 73
     7
 74
     0
 42
0.0000000001
 43
0.0000000001
 40
0.0
 40
0.0
 40
0.0
 40
0.0
 40
1.0
 40
1.0
 40
1.0
 40
2.0
 40
2.0
 40
2.0
 40
2.0
 10
5.177974011053442
 20
-3.809840599492518
 30
0.0
 10
5.156139740153472
 20
-3.807316881514856
 30
0.0
 10
5.156627151047991
 20
-3.716062203828262
 30
0.0
 10
5.17795792174757
 20
-3.711261742786746
 30
0.0
 10
5.199333615075046
 20
-3.715988121756911
 30
0.0
 10
5.199787465520986
 20
-3.807134046374332
 30
0.0
 10
5.177974011053442
 20
-3.809840599492518
 30
0.0
  0
SPLINE
  5
10A
330
7C
100
AcDbEntity
  8
Poneglyph
100
AcDbSpline
210
0.0
220
0.0
230
1.0
 70
     9
 71
     3
 72
    20
 73
    16
 74
     0
 42
0.0000000001
 43
0.0000000001
 40
0.0
 40
0.0
 40
0.0
 40
0.0
 40
1.0
 40
1.0
 40
1.0
 40
2.0
 40
2.0
 40
2.0
 40
3.0
 40
3.0
 40
3.0
 40
4.0
 40
4.0
 40
4.0
 40
5.0
 40
5.0
 40
5.0
 40
5.0
 10
5.223763941608997
 20
-3.67830305608974
 30
0.0
 10
5.256113582276484
 20
-3.676421928381993
 30
0.0
 10
5.233256560825338
 20
-3.924385170987559
 30
0.0
 10
5.213843702377945
 20
-3.828369188573484
 30
0.0
 10
5.21417275270187
 20
-3.791843021610323
 30
0.0
 10
5.21894732725218
 20
-3.748793514746971
 30
0.0
 10
5.216334802005272
 20
-3.707911928352283
 30
0.0
 10
5.214021293362242
 20
-3.682465845162091
 30
0.0
 10
5.177011574968926
 20
-3.711087710920133
 30
0.0
 10
5.171270819983318
 20
-3.691434215537785
 30
0.0
 10
5.164387122037876
 20
-3.677732987822865
 30
0.0
 10
5.163277749546927
 20
-3.623054110637692
 30
0.0
 10
5.183658310667876
 20
-3.636586164651867
 30
0.0
 10
5.181202206673989
 20
-3.670207131691692
 30
0.0
 10
5.187780347231308
 20
-3.686364497929818
 30
0.0
 10
5.223763941608997
 20
-3.67830305608974
 30
0.0
  0
SPLINE
  5
10B
330
7C
100
AcDbEntity
  8
Poneglyph
100
AcDbSpline
210
0.0
220
0.0
230
1.0
 70
     9
 71
     3
 72
    11
 73
     7
 74
     0
 42
0.0000000001
 43
0.0000000001
 40
0.0
 40
0.0
 40
0.0
 40
0.0
 40
1.0
 40
1.0
 40
1.0
 40
2.0
 40
2.0
 40
2.0
 40
2.0
 10
5.086095755845108
 20
-3.815971241853629
 30
0.0
 10
5.060717583031443
 20
-3.818162089064925
 30
0.0
 10
5.060872526206645
 20
-3.78798264554171
 30
0.0
 10
5.086098209440806
 20
-3.790011115789386
 30
0.0
 10
5.109667038487335
 20
-3.791078673193699
 30
0.0
 10
5.109973293269427
 20
-3.815306599137708
 30
0.0
 10
5.086095755845108
 20
-3.815971241853629
 30
0.0
  0
SPLINE
  5
10C
330
7C
100
AcDbEntity
  8
Poneglyph
100
AcDbSpline
210
0.0
220
0.0
230
1.0
 70
     9
 71
     3
 72
    11
 73
     7
 74
     0
 42
0.0000000001
 43
0.0000000001
 40
0.0
 40
0.0
 40
0.0
 40
0.0
 40
1.0
 40
1.0
 40
1.0
 40
2.0
 40
2.0
 40
2.0
 40
2.0
 10
5.066266111747887
 20
-3.770181311298074
 30
0.0
 10
4.966868493647653
 20
-3.831335391608338
 30
0.0
 10
5.175704360514196
 20
-3.859119841453825
 30
0.0
 10
5.119062271901106
 20
-3.78330685453779
 30
0.0
 10
5.1122137413995
 20
-3.763817422737702
 30
0.0
 10
5.082466956765326
 20
-3.771662557487438
 30
0.0
 10
5.066266111747887
 20
-3.770181311298074
 30
0.0
  0
SPLINE
  5
10D
330
7C
100
AcDbEntity
  8
Poneglyph
100
AcDbSpline
210
0.0
220
0.0
230
1.0
 70
     9
 71
     3
 72
    11
 73
     7
 74
     0
 42
0.0000000001
 43
0.0000000001
 40
0.0
 40
0.0
 40
0.0
 40
0.0
 40
1.0
 40
1.0
 40
1.0
 40
2.0
 40
2.0
 40
2.0
 40
2.0
 10
5.059565807928442
 20
-3.848930226228629
 30
0.0
 10
4.981215490315106
 20
-3.819593632067077
 30
0.0
 10
5.035682658040968
 20
-3.731069769847231
 30
0.0
 10
5.105646385653699
 20
-3.750361603031933
 30
0.0
 10
5.196272378867837
 20
-3.779670971867365
 30
0.0
 10
5.134031728955783
 20
-3.869110923874536
 30
0.0
 10
5.059565807928442
 20
-3.848930226228629
 30
0.0
  0
SPLINE
  5
10E
330
7C
100
AcDbEntity
  8
Poneglyph
100
AcDbSpline
210
0.0
220
0.0
230
1.0
 70
     9
 71
     3
 72
    17
 73
    13
 74
     0
 42
0.0000000001
 43
0.0000000001
 40
0.0
 40
0.0
 40
0.0
 40
0.0
 40
1.0
 40
1.0
 40
1.0
 40
2.0
 40
2.0
 40
2.0
 40
3.0
 40
3.0
 40
3.0
 40
4.0
 40
4.0
 40
4.0
 40
4.0
 10
5.099225096122887
 20
-3.704561736645296
 30
0.0
 10
5.128437726278307
 20
-3.709991962883703
 30
0.0
 10
5.126876376132056
 20
-3.686827691878356
 30
0.0
 10
5.125466119315913
 20
-3.665468224917604
 30
0.0
 10
5.099091985191383
 20
-3.651805848523205
 30
0.0
 10
5.062585447650235
 20
-3.661607132804697
 30
0.0
 10
5.033606211633822
 20
-3.658753861115933
 30
0.0
 10
4.987167951281586
 20
-3.632168652747143
 30
0.0
 10
5.14121189502882
 20
-3.625736530542831
 30
0.0
 10
5.144139281697889
 20
-3.656278715568406
 30
0.0
 10
5.192316267426702
 20
-3.783684190668029
 30
0.0
 10
4.899328206087097
 20
-3.697574858614567
 30
0.0
 10
5.099225096122887
 20
-3.704561736645296
 30
0.0
  0
HATCH
  5
10F
330
7C
100
AcDbEntity
  8
Poneglyph
 62
   250
420
  2301728
440
 33554687
100
AcDbHatch
 10
0.0
 20
0.0
 30
0.0
210
0.0
220
0.0
230
1.0
  2
SOLID
 70
     1
 71
     1
 91
        7
 92
        1
 93
        1
 72
     4
 94
        3
 73
     0
 74
     0
 95
       11
 96
        7
 40
0.0
 40
0.0
 40
0.0
 40
0.0
 40
1.0
 40
1.0
 40
1.0
 40
2.0
 40
2.0
 40
2.0
 40
2.0
 10
5.177974011053442
 20
-3.822685109041129
 10
5.194766065823387
 20
-3.823003498387429
 10
5.194763376113061
 20
-3.84861741973264
 10
5.177972460626354
 20
-3.848930192539505
 10
5.161187824978924
 20
-3.848600164662229
 10
5.161182519099307
 20
-3.82301386371801
 10
5.177974011053442
 20
-3.822685109041129
 97
        0
 97
        1
330
108
 92
        1
 93
        1
 72
     4
 94
        3
 73
     0
 74
     0
 95
       11
 96
        7
 40
0.0
 40
0.0
 40
0.0
 40
0.0
 40
1.0
 40
1.0
 40
1.0
 40
2.0
 40
2.0
 40
2.0
 40
2.0
 10
5.177974011053442
 20
-3.809840599492518
 10
5.156139740153472
 20
-3.807316881514856
 10
5.156627151047991
 20
-3.716062203828262
 10
5.17795792174757
 20
-3.711261742786746
 10
5.199333615075046
 20
-3.715988121756911
 10
5.199787465520986
 20
-3.807134046374332
 10
5.177974011053442
 20
-3.809840599492518
 97
        0
 97
        1
330
109
 92
        1
 93
        1
 72
     4
 94
        3
 73
     0
 74
     0
 95
       20
 96
       16
 40
0.0
 40
0.0
 40
0.0
 40
0.0
 40
1.0
 40
1.0
 40
1.0
 40
2.0
 40
2.0
 40
2.0
 40
3.0
 40
3.0
 40
3.0
 40
4.0
 40
4.0
 40
4.0
 40
5.0
 40
5.0
 40
5.0
 40
5.0
 10
5.223763941608997
 20
-3.67830305608974
 10
5.256113582276484
 20
-3.676421928381993
 10
5.233256560825338
 20
-3.924385170987559
 10
5.213843702377945
 20
-3.828369188573484
 10
5.21417275270187
 20
-3.791843021610323
 10
5.21894732725218
 20
-3.748793514746971
 10
5.216334802005272
 20
-3.707911928352283
 10
5.214021293362242
 20
-3.682465845162091
 10
5.177011574968926
 20
-3.711087710920133
 10
5.171270819983318
 20
-3.691434215537785
 10
5.164387122037876
 20
-3.677732987822865
 10
5.163277749546927
 20
-3.623054110637692
 10
5.183658310667876
 20
-3.636586164651867
 10
5.181202206673989
 20
-3.670207131691692
 10
5.187780347231308
 20
-3.686364497929818
 10
5.223763941608997
 20
-3.67830305608974
 97
        0
 97
        1
330
10A
 92
        1
 93
        1
 72
     4
 94
        3
 73
     0
 74
     0
 95
       11
 96
        7
 40
0.0
 40
0.0
 40
0.0
 40
0.0
 40
1.0
 40
1.0
 40
1.0
 40
2.0
 40
2.0
 40
2.0
 40
2.0
 10
5.086095755845108
 20
-3.815971241853629
 10
5.060717583031443
 20
-3.818162089064925
 10
5.060872526206645
 20
-3.78798264554171
 10
5.086098209440806
 20
-3.790011115789386
 10
5.109667038487335
 20
-3.791078673193699
 10
5.109973293269427
 20
-3.815306599137708
 10
5.086095755845108
 20
-3.815971241853629
 97
        0
 97
        1
330
10B
 92
        1
 93
        1
 72
     4
 94
        3
 73
     0
 74
     0
 95
       11
 96
        7
 40
0.0
 40
0.0
 40
0.0
 40
0.0
 40
1.0
 40
1.0
 40
1.0
 40
2.0
 40
2.0
 40
2.0
 40
2.0
 10
5.066266111747887
 20
-3.770181311298074
 10
4.966868493647653
 20
-3.831335391608338
 10
5.175704360514196
 20
-3.859119841453825
 10
5.119062271901106
 20
-3.78330685453779
 10
5.1122137413995
 20
-3.763817422737702
 10
5.082466956765326
 20
-3.771662557487438
 10
5.066266111747887
 20
-3.770181311298074
 97
        0
 97
        1
330
10C
 92
        1
 93
        1
 72
     4
 94
        3
 73
     0
 74
     0
 95
       11
 96
        7
 40
0.0
 40
0.0
 40
0.0
 40
0.0
 40
1.0
 40
1.0
 40
1.0
 40
2.0
 40
2.0
 40
2.0
 40
2.0
 10
5.059565807928442
 20
-3.848930226228629
 10
4.981215490315106
 20
-3.819593632067077
 10
5.035682658040968
 20
-3.731069769847231
 10
5.105646385653699
 20
-3.750361603031933
 10
5.196272378867837
 20
-3.779670971867365
 10
5.134031728955783
 20
-3.869110923874536
 10
5.059565807928442
 20
-3.848930226228629
 97
        0
 97
        1
330
10D
 92
        1
 93
        1
 72
     4
 94
        3
 73
     0
 74
     0
 95
       17
 96
       13
 40
0.0
 40
0.0
 40
0.0
 40
0.0
 40
1.0
 40
1.0
 40
1.0
 40
2.0
 40
2.0
 40
2.0
 40
3.0
 40
3.0
 40
3.0
 40
4.0
 40
4.0
 40
4.0
 40
4.0
 10
5.099225096122887
 20
-3.704561736645296
 10
5.128437726278307
 20
-3.709991962883703
 10
5.126876376132056
 20
-3.686827691878356
 10
5.125466119315913
 20
-3.665468224917604
 10
5.099091985191383
 20
-3.651805848523205
 10
5.062585447650235
 20
-3.661607132804697
 10
5.033606211633822
 20
-3.658753861115933
 10
4.987167951281586
 20
-3.632168652747143
 10
5.14121189502882
 20
-3.625736530542831
 10
5.144139281697889
 20
-3.656278715568406
 10
5.192316267426702
 20
-3.783684190668029
 10
4.899328206087097
 20
-3.697574858614567
 10
5.099225096122887
 20
-3.704561736645296
 97
        0
 97
        1
330
10E
 75
     2
 76
     1
 98
        1
 10
0.0
 20
0.0
450
        0
451
        0
460
0.0
461
0.0
452
        0
462
0.0
453
        0
470

  0
SPLINE
  5
110
330
7C
100
AcDbEntity
  8
Poneglyph
100
AcDbSpline
210
0.0
220
0.0
230
1.0
 70
     9
 71
     3
 72
    11
 73
     7
 74
     0
 42
0.0000000001
 43
0.0000000001
 40
0.0
 40
0.0
 40
0.0
 40
0.0
 40
1.0
 40
1.0
 40
1.0
 40
2.0
 40
2.0
 40
2.0
 40
2.0
 10
5.488602266261775
 20
-3.634470979187577
 30
0.0
 10
5.507379913831047
 20
-3.634662541385498
 30
0.0
 10
5.508586517807998
 20
-3.68183696350843
 30
0.0
 10
5.488605369328196
 20
-3.680260106127737
 30
0.0
 10
5.468567084756487
 20
-3.681995701514071
 30
0.0
 10
5.469862892356458
 20
-3.634608313975604
 30
0.0
 10
5.488602266261775
 20
-3.634470979187577
 30
0.0
  0
SPLINE
  5
111
330
7C
100
AcDbEntity
  8
Poneglyph
100
AcDbSpline
210
0.0
220
0.0
230
1.0
 70
     9
 71
     3
 72
    23
 73
    19
 74
     0
 42
0.0000000001
 43
0.0000000001
 40
0.0
 40
0.0
 40
0.0
 40
0.0
 40
1.0
 40
1.0
 40
1.0
 40
2.0
 40
2.0
 40
2.0
 40
3.0
 40
3.0
 40
3.0
 40
4.0
 40
4.0
 40
4.0
 40
5.0
 40
5.0
 40
5.0
 40
6.0
 40
6.0
 40
6.0
 40
6.0
 10
5.475472925983997
 20
-3.752594351583411
 30
0.0
 10
5.509603787381365
 20
-3.759113052919827
 30
0.0
 10
5.50923613617038
 20
-3.825022425154252
 30
0.0
 10
5.495028576603973
 20
-3.844176734330302
 30
0.0
 10
5.479990957550853
 20
-3.863455536718396
 30
0.0
 10
5.421785611898636
 20
-3.840661144161888
 30
0.0
 10
5.468771170931985
 20
-3.837753609966714
 30
0.0
 10
5.49424949212731
 20
-3.819907365635218
 30
0.0
 10
5.487770442047676
 20
-3.767882521264355
 30
0.0
 10
5.444124965445022
 20
-3.771262166429576
 30
0.0
 10
5.409343969287925
 20
-3.756758528331122
 30
0.0
 10
5.45713424755743
 20
-3.876619403732597
 30
0.0
 10
5.403430607077603
 20
-3.837758745915531
 30
0.0
 10
5.414807233763793
 20
-3.81387639626799
 30
0.0
 10
5.394142888646936
 20
-3.612946686631832
 30
0.0
 10
5.425585040857463
 20
-3.638546716359289
 30
0.0
 10
5.446174311936474
 20
-3.678642382454275
 30
0.0
 10
5.394483843699971
 20
-3.786737145450564
 30
0.0
 10
5.475472925983997
 20
-3.752594351583411
 30
0.0
  0
SPLINE
  5
112
330
7C
100
AcDbEntity
  8
Poneglyph
100
AcDbSpline
210
0.0
220
0.0
230
1.0
 70
     9
 71
     3
 72
    11
 73
     7
 74
     0
 42
0.0000000001
 43
0.0000000001
 40
0.0
 40
0.0
 40
0.0
 40
0.0
 40
1.0
 40
1.0
 40
1.0
 40
2.0
 40
2.0
 40
2.0
 40
2.0
 10
5.350635686400664
 20
-3.745894047763966
 30
0.0
 10
5.351985449639313
 20
-3.726505274291007
 30
0.0
 10
5.382968335563317
 20
-3.729698959176781
 30
0.0
 10
5.376743079383256
 20
-3.749828702325531
 30
0.0
 10
5.372764892620225
 20
-3.754342879815238
 30
0.0
 10
5.350773318284027
 20
-3.755567118354494
 30
0.0
 10
5.350635686400664
 20
-3.745894047763966
 30
0.0
  0
SPLINE
  5
113
330
7C
100
AcDbEntity
  8
Poneglyph
100
AcDbSpline
210
0.0
220
0.0
230
1.0
 70
     9
 71
     3
 72
    29
 73
    25
 74
     0
 42
0.0000000001
 43
0.0000000001
 40
0.0
 40
0.0
 40
0.0
 40
0.0
 40
1.0
 40
1.0
 40
1.0
 40
2.0
 40
2.0
 40
2.0
 40
3.0
 40
3.0
 40
3.0
 40
4.0
 40
4.0
 40
4.0
 40
5.0
 40
5.0
 40
5.0
 40
6.0
 40
6.0
 40
6.0
 40
7.0
 40
7.0
 40
7.0
 40
8.0
 40
8.0
 40
8.0
 40
8.0
 10
5.390023707233997
 20
-3.693390250020911
 30
0.0
 10
5.39664612989716
 20
-3.713017723440442
 30
0.0
 10
5.347339604611812
 20
-3.710842587263793
 30
0.0
 10
5.344217672327658
 20
-3.699812352676745
 30
0.0
 10
5.389134307407074
 20
-3.684477585414494
 30
0.0
 10
5.381924956237804
 20
-3.646945921434634
 30
0.0
 10
5.331096987356734
 20
-3.660721696947272
 30
0.0
 10
5.283850719428351
 20
-3.660673871317713
 30
0.0
 10
5.310427959822643
 20
-3.756701184563123
 30
0.0
 10
5.30482922759764
 20
-3.791962770591933
 30
0.0
 10
5.352666418419958
 20
-3.793624253230493
 30
0.0
 10
5.378609743180858
 20
-3.781343883186536
 30
0.0
 10
5.3596814188491
 20
-3.843465494550905
 30
0.0
 10
5.349718166890649
 20
-3.840017376893279
 30
0.0
 10
5.350562322662577
 20
-3.857755593866209
 30
0.0
 10
5.344952283357113
 20
-3.846807874515509
 30
0.0
 10
5.368586264774799
 20
-3.763225860405933
 30
0.0
 10
5.27448602836537
 20
-3.844939180607373
 30
0.0
 10
5.285305964188006
 20
-3.778855680006447
 30
0.0
 10
5.284252527269952
 20
-3.735127607856863
 30
0.0
 10
5.27524612433174
 20
-3.694101832243076
 30
0.0
 10
5.288088493342203
 20
-3.651533396323783
 30
0.0
 10
5.324346894395426
 20
-3.625835022444536
 30
0.0
 10
5.423346548229523
 20
-3.626799423868053
 30
0.0
 10
5.390023707233997
 20
-3.693390250020911
 30
0.0
  0
HATCH
  5
114
330
7C
100
AcDbEntity
  8
Poneglyph
 62
   250
420
  2301728
440
 33554687
100
AcDbHatch
 10
0.0
 20
0.0
 30
0.0
210
0.0
220
0.0
230
1.0
  2
SOLID
 70
     1
 71
     1
 91
        4
 92
        1
 93
        1
 72
     4
 94
        3
 73
     0
 74
     0
 95
       11
 96
        7
 40
0.0
 40
0.0
 40
0.0
 40
0.0
 40
1.0
 40
1.0
 40
1.0
 40
2.0
 40
2.0
 40
2.0
 40
2.0
 10
5.488602266261775
 20
-3.634470979187577
 10
5.507379913831047
 20
-3.634662541385498
 10
5.508586517807998
 20
-3.68183696350843
 10
5.488605369328196
 20
-3.680260106127737
 10
5.468567084756487
 20
-3.681995701514071
 10
5.469862892356458
 20
-3.634608313975604
 10
5.488602266261775
 20
-3.634470979187577
 97
        0
 97
        1
330
110
 92
        1
 93
        1
 72
     4
 94
        3
 73
     0
 74
     0
 95
       23
 96
       19
 40
0.0
 40
0.0
 40
0.0
 40
0.0
 40
1.0
 40
1.0
 40
1.0
 40
2.0
 40
2.0
 40
2.0
 40
3.0
 40
3.0
 40
3.0
 40
4.0
 40
4.0
 40
4.0
 40
5.0
 40
5.0
 40
5.0
 40
6.0
 40
6.0
 40
6.0
 40
6.0
 10
5.475472925983997
 20
-3.752594351583411
 10
5.509603787381365
 20
-3.759113052919827
 10
5.50923613617038
 20
-3.825022425154252
 10
5.495028576603973
 20
-3.844176734330302
 10
5.479990957550853
 20
-3.863455536718396
 10
5.421785611898636
 20
-3.840661144161888
 10
5.468771170931985
 20
-3.837753609966714
 10
5.49424949212731
 20
-3.819907365635218
 10
5.487770442047676
 20
-3.767882521264355
 10
5.444124965445022
 20
-3.771262166429576
 10
5.409343969287925
 20
-3.756758528331122
 10
5.45713424755743
 20
-3.876619403732597
 10
5.403430607077603
 20
-3.837758745915531
 10
5.414807233763793
 20
-3.81387639626799
 10
5.394142888646936
 20
-3.612946686631832
 10
5.425585040857463
 20
-3.638546716359289
 10
5.446174311936474
 20
-3.678642382454275
 10
5.394483843699971
 20
-3.786737145450564
 10
5.475472925983997
 20
-3.752594351583411
 97
        0
 97
        1
330
111
 92
        1
 93
        1
 72
     4
 94
        3
 73
     0
 74
     0
 95
       11
 96
        7
 40
0.0
 40
0.0
 40
0.0
 40
0.0
 40
1.0
 40
1.0
 40
1.0
 40
2.0
 40
2.0
 40
2.0
 40
2.0
 10
5.350635686400664
 20
-3.745894047763966
 10
5.351985449639313
 20
-3.726505274291007
 10
5.382968335563317
 20
-3.729698959176781
 10
5.376743079383256
 20
-3.749828702325531
 10
5.372764892620225
 20
-3.754342879815238
 10
5.350773318284027
 20
-3.755567118354494
 10
5.350635686400664
 20
-3.745894047763966
 97
        0
 97
        1
330
112
 92
        1
 93
        1
 72
     4
 94
        3
 73
     0
 74
     0
 95
       29
 96
       25
 40
0.0
 40
0.0
 40
0.0
 40
0.0
 40
1.0
 40
1.0
 40
1.0
 40
2.0
 40
2.0
 40
2.0
 40
3.0
 40
3.0
 40
3.0
 40
4.0
 40
4.0
 40
4.0
 40
5.0
 40
5.0
 40
5.0
 40
6.0
 40
6.0
 40
6.0
 40
7.0
 40
7.0
 40
7.0
 40
8.0
 40
8.0
 40
8.0
 40
8.0
 10
5.390023707233997
 20
-3.693390250020911
 10
5.39664612989716
 20
-3.713017723440442
 10
5.347339604611812
 20
-3.710842587263793
 10
5.344217672327658
 20
-3.699812352676745
 10
5.389134307407074
 20
-3.684477585414494
 10
5.381924956237804
 20
-3.646945921434634
 10
5.331096987356734
 20
-3.660721696947272
 10
5.283850719428351
 20
-3.660673871317713
 10
5.310427959822643
 20
-3.756701184563123
 10
5.30482922759764
 20
-3.791962770591933
 10
5.352666418419958
 20
-3.793624253230493
 10
5.378609743180858
 20
-3.781343883186536
 10
5.3596814188491
 20
-3.843465494550905
 10
5.349718166890649
 20
-3.840017376893279
 10
5.350562322662577
 20
-3.857755593866209
 10
5.344952283357113
 20
-3.846807874515509
 10
5.368586264774799
 20
-3.763225860405933
 10
5.27448602836537
 20
-3.844939180607373
 10
5.285305964188006
 20
-3.778855680006447
 10
5.284252527269952
 20
-3.735127607856863
 10
5.27524612433174
 20
-3.694101832243076
 10
5.288088493342203
 20
-3.651533396323783
 10
5.324346894395426
 20
-3.625835022444536
 10
5.423346548229523
 20
-3.626799423868053
 10
5.390023707233997
 20
-3.693390250020911
 97
        0
 97
        1
330
113
 75
     2
 76
     1
 98
        1
 10
0.0
 20
0.0
450
        0
451
        0
460
0.0
461
0.0
452
        0
462
0.0
453
        0
470

  0
SPLINE
  5
115
330
7C
100
AcDbEntity
  8
Poneglyph
100
AcDbSpline
210
0.0
220
0.0
230
1.0
 70
     9
 71
     3
 72
    26
 73
    22
 74
     0
 42
0.0000000001
 43
0.0000000001
 40
0.0
 40
0.0
 40
0.0
 40
0.0
 40
1.0
 40
1.0
 40
1.0
 40
2.0
 40
2.0
 40
2.0
 40
3.0
 40
3.0
 40
3.0
 40
4.0
 40
4.0
 40
4.0
 40
5.0
 40
5.0
 40
5.0
 40
6.0
 40
6.0
 40
6.0
 40
7.0
 40
7.0
 40
7.0
 40
7.0
 10
5.74032481400483
 20
-3.634458962904065
 30
0.0
 10
5.751746996852918
 20
-3.672362756643603
 30
0.0
 10
5.755191528689389
 20
-3.727785915567968
 30
0.0
 10
5.747039907753459
 20
-3.768328833865855
 30
0.0
 10
5.74551786237637
 20
-3.800267769438682
 30
0.0
 10
5.759858858220038
 20
-3.857286618065472
 30
0.0
 10
5.709397214369421
 20
-3.835124932747324
 30
0.0
 10
5.736514418312203
 20
-3.802681609068359
 30
0.0
 10
5.723684372525237
 20
-3.729678773757844
 30
0.0
 10
5.730103008330388
 20
-3.667114228697502
 30
0.0
 10
5.715610363084149
 20
-3.630882678627989
 30
0.0
 10
5.697654781009835
 20
-3.701597186107568
 30
0.0
 10
5.672658615924015
 20
-3.700517619604447
 30
0.0
 10
5.662161323775054
 20
-3.728884447343792
 30
0.0
 10
5.723791240381362
 20
-3.73313555367051
 30
0.0
 10
5.720928398145815
 20
-3.757980806580437
 30
0.0
 10
5.694652347689194
 20
-3.786116591846621
 30
0.0
 10
5.658377087735061
 20
-3.716211337734193
 30
0.0
 10
5.64522196657688
 20
-3.698056717131773
 30
0.0
 10
5.682986519394995
 20
-3.672000027046224
 30
0.0
 10
5.692261391102621
 20
-3.63397159253418
 30
0.0
 10
5.74032481400483
 20
-3.634458962904065
 30
0.0
  0
SPLINE
  5
116
330
7C
100
AcDbEntity
  8
Poneglyph
100
AcDbSpline
210
0.0
220
0.0
230
1.0
 70
     9
 71
     3
 72
    11
 73
     7
 74
     0
 42
0.0000000001
 43
0.0000000001
 40
0.0
 40
0.0
 40
0.0
 40
0.0
 40
1.0
 40
1.0
 40
1.0
 40
2.0
 40
2.0
 40
2.0
 40
2.0
 10
5.606739202025664
 20
-3.672382139987398
 30
0.0
 10
5.648574990567643
 20
-3.683983225812931
 30
0.0
 10
5.593786228958606
 20
-3.844951410133868
 30
0.0
 10
5.60031010943299
 20
-3.742664368966996
 30
0.0
 10
5.606608626871724
 20
-3.72111219435894
 30
0.0
 10
5.57661238942281
 20
-3.681739008481549
 30
0.0
 10
5.606739202025664
 20
-3.672382139987398
 30
0.0
  0
SPLINE
  5
117
330
7C
100
AcDbEntity
  8
Poneglyph
100
AcDbSpline
210
0.0
220
0.0
230
1.0
 70
     9
 71
     3
 72
    11
 73
     7
 74
     0
 42
0.0000000001
 43
0.0000000001
 40
0.0
 40
0.0
 40
0.0
 40
0.0
 40
1.0
 40
1.0
 40
1.0
 40
2.0
 40
2.0
 40
2.0
 40
2.0
 10
5.606739202025664
 20
-3.640589605265176
 30
0.0
 10
5.624427294754822
 20
-3.640988691203801
 30
0.0
 10
5.622309395154742
 20
-3.672143024387322
 30
0.0
 10
5.606738882769604
 20
-3.672382040488097
 30
0.0
 10
5.583373981328072
 20
-3.671204768989405
 30
0.0
 10
5.581783230416072
 20
-3.640884632696371
 30
0.0
 10
5.606739202025664
 20
-3.640589605265176
 30
0.0
  0
SPLINE
  5
118
330
7C
100
AcDbEntity
  8
Poneglyph
100
AcDbSpline
210
0.0
220
0.0
230
1.0
 70
     9
 71
     3
 72
    11
 73
     7
 74
     0
 42
0.0000000001
 43
0.0000000001
 40
0.0
 40
0.0
 40
0.0
 40
0.0
 40
1.0
 40
1.0
 40
1.0
 40
2.0
 40
2.0
 40
2.0
 40
2.0
 10
5.542869301852053
 20
-3.685213086167954
 30
0.0
 10
5.576503075281252
 20
-3.637480795496356
 30
0.0
 10
5.572706804160967
 20
-3.75287658150973
 30
0.0
 10
5.564301559830078
 20
-3.770655153348949
 30
0.0
 10
5.537842430931378
 20
-3.786590788015827
 30
0.0
 10
5.551186089756255
 20
-3.70222603969215
 30
0.0
 10
5.542869301852053
 20
-3.685213086167954
 30
0.0
  0
SPLINE
  5
119
330
7C
100
AcDbEntity
  8
Poneglyph
100
AcDbSpline
210
0.0
220
0.0
230
1.0
 70
     9
 71
     3
 72
    11
 73
     7
 74
     0
 42
0.0000000001
 43
0.0000000001
 40
0.0
 40
0.0
 40
0.0
 40
0.0
 40
1.0
 40
1.0
 40
1.0
 40
2.0
 40
2.0
 40
2.0
 40
2.0
 10
5.574661836574275
 20
-3.653420551445732
 30
0.0
 10
5.576851028072774
 20
-3.677338599471163
 30
0.0
 10
5.540318343836259
 20
-3.679290941332383
 30
0.0
 10
5.542869619094997
 20
-3.653419112905238
 30
0.0
 10
5.543486573039798
 20
-3.635449156665496
 30
0.0
 10
5.574139255675188
 20
-3.637635372693314
 30
0.0
 10
5.574661836574275
 20
-3.653420551445732
 30
0.0
  0
SPLINE
  5
11A
330
7C
100
AcDbEntity
  8
Poneglyph
100
AcDbSpline
210
0.0
220
0.0
230
1.0
 70
     9
 71
     3
 72
    29
 73
    25
 74
     0
 42
0.0000000001
 43
0.0000000001
 40
0.0
 40
0.0
 40
0.0
 40
0.0
 40
1.0
 40
1.0
 40
1.0
 40
2.0
 40
2.0
 40
2.0
 40
3.0
 40
3.0
 40
3.0
 40
4.0
 40
4.0
 40
4.0
 40
5.0
 40
5.0
 40
5.0
 40
6.0
 40
6.0
 40
6.0
 40
7.0
 40
7.0
 40
7.0
 40
8.0
 40
8.0
 40
8.0
 40
8.0
 10
5.676739744560387
 20
-3.787290994154065
 30
0.0
 10
5.70157328179213
 20
-3.784475539571076
 30
0.0
 10
5.685092849825474
 20
-3.829982019820438
 30
0.0
 10
5.689576174277235
 20
-3.844744238239904
 30
0.0
 10
5.670104668973559
 20
-3.858350967467913
 30
0.0
 10
5.636047303221681
 20
-3.847648801123543
 30
0.0
 10
5.613155550705666
 20
-3.85088119112341
 30
0.0
 10
5.590245168006933
 20
-3.847639770014893
 30
0.0
 10
5.556192086734982
 20
-3.858363709532138
 30
0.0
 10
5.536737652000156
 20
-3.844750963244829
 30
0.0
 10
5.540326297673471
 20
-3.8304744531195
 30
0.0
 10
5.525372550363751
 20
-3.785782759258987
 30
0.0
 10
5.552483275606669
 20
-3.794587779626327
 30
0.0
 10
5.554096232196494
 20
-3.831420014821333
 30
0.0
 10
5.561088402997862
 20
-3.839950604852598
 30
0.0
 10
5.600337794726278
 20
-3.831907562260185
 30
0.0
 10
5.605448554048936
 20
-3.820711074674616
 30
0.0
 10
5.590524657051395
 20
-3.788085401691432
 30
0.0
 10
5.617675825293594
 20
-3.794724483272956
 30
0.0
 10
5.638696542643956
 20
-3.812091943792539
 30
0.0
 10
5.607655298429587
 20
-3.842751493683635
 30
0.0
 10
5.65253670684731
 20
-3.832783558225021
 30
0.0
 10
5.687648109470146
 20
-3.845014012018812
 30
0.0
 10
5.651753274776208
 20
-3.798034355777518
 30
0.0
 10
5.676739744560387
 20
-3.787290994154065
 30
0.0
  0
HATCH
  5
11B
330
7C
100
AcDbEntity
  8
Poneglyph
 62
   250
420
  2301728
440
 33554687
100
AcDbHatch
 10
0.0
 20
0.0
 30
0.0
210
0.0
220
0.0
230
1.0
  2
SOLID
 70
     1
 71
     1
 91
        6
 92
        1
 93
        1
 72
     4
 94
        3
 73
     0
 74
     0
 95
       26
 96
       22
 40
0.0
 40
0.0
 40
0.0
 40
0.0
 40
1.0
 40
1.0
 40
1.0
 40
2.0
 40
2.0
 40
2.0
 40
3.0
 40
3.0
 40
3.0
 40
4.0
 40
4.0
 40
4.0
 40
5.0
 40
5.0
 40
5.0
 40
6.0
 40
6.0
 40
6.0
 40
7.0
 40
7.0
 40
7.0
 40
7.0
 10
5.74032481400483
 20
-3.634458962904065
 10
5.751746996852918
 20
-3.672362756643603
 10
5.755191528689389
 20
-3.727785915567968
 10
5.747039907753459
 20
-3.768328833865855
 10
5.74551786237637
 20
-3.800267769438682
 10
5.759858858220038
 20
-3.857286618065472
 10
5.709397214369421
 20
-3.835124932747324
 10
5.736514418312203
 20
-3.802681609068359
 10
5.723684372525237
 20
-3.729678773757844
 10
5.730103008330388
 20
-3.667114228697502
 10
5.715610363084149
 20
-3.630882678627989
 10
5.697654781009835
 20
-3.701597186107568
 10
5.672658615924015
 20
-3.700517619604447
 10
5.662161323775054
 20
-3.728884447343792
 10
5.723791240381362
 20
-3.73313555367051
 10
5.720928398145815
 20
-3.757980806580437
 10
5.694652347689194
 20
-3.786116591846621
 10
5.658377087735061
 20
-3.716211337734193
 10
5.64522196657688
 20
-3.698056717131773
 10
5.682986519394995
 20
-3.672000027046224
 10
5.692261391102621
 20
-3.63397159253418
 10
5.74032481400483
 20
-3.634458962904065
 97
        0
 97
        1
330
115
 92
        1
 93
        1
 72
     4
 94
        3
 73
     0
 74
     0
 95
       11
 96
        7
 40
0.0
 40
0.0
 40
0.0
 40
0.0
 40
1.0
 40
1.0
 40
1.0
 40
2.0
 40
2.0
 40
2.0
 40
2.0
 10
5.606739202025664
 20
-3.672382139987398
 10
5.648574990567643
 20
-3.683983225812931
 10
5.593786228958606
 20
-3.844951410133868
 10
5.60031010943299
 20
-3.742664368966996
 10
5.606608626871724
 20
-3.72111219435894
 10
5.57661238942281
 20
-3.681739008481549
 10
5.606739202025664
 20
-3.672382139987398
 97
        0
 97
        1
330
116
 92
        1
 93
        1
 72
     4
 94
        3
 73
     0
 74
     0
 95
       11
 96
        7
 40
0.0
 40
0.0
 40
0.0
 40
0.0
 40
1.0
 40
1.0
 40
1.0
 40
2.0
 40
2.0
 40
2.0
 40
2.0
 10
5.606739202025664
 20
-3.640589605265176
 10
5.624427294754822
 20
-3.640988691203801
 10
5.622309395154742
 20
-3.672143024387322
 10
5.606738882769604
 20
-3.672382040488097
 10
5.583373981328072
 20
-3.671204768989405
 10
5.581783230416072
 20
-3.640884632696371
 10
5.606739202025664
 20
-3.640589605265176
 97
        0
 97
        1
330
117
 92
        1
 93
        1
 72
     4
 94
        3
 73
     0
 74
     0
 95
       11
 96
        7
 40
0.0
 40
0.0
 40
0.0
 40
0.0
 40
1.0
 40
1.0
 40
1.0
 40
2.0
 40
2.0
 40
2.0
 40
2.0
 10
5.542869301852053
 20
-3.685213086167954
 10
5.576503075281252
 20
-3.637480795496356
 10
5.572706804160967
 20
-3.75287658150973
 10
5.564301559830078
 20
-3.770655153348949
 10
5.537842430931378
 20
-3.786590788015827
 10
5.551186089756255
 20
-3.70222603969215
 10
5.542869301852053
 20
-3.685213086167954
 97
        0
 97
        1
330
118
 92
        1
 93
        1
 72
     4
 94
        3
 73
     0
 74
     0
 95
       11
 96
        7
 40
0.0
 40
0.0
 40
0.0
 40
0.0
 40
1.0
 40
1.0
 40
1.0
 40
2.0
 40
2.0
 40
2.0
 40
2.0
 10
5.574661836574275
 20
-3.653420551445732
 10
5.576851028072774
 20
-3.677338599471163
 10
5.540318343836259
 20
-3.679290941332383
 10
5.542869619094997
 20
-3.653419112905238
 10
5.543486573039798
 20
-3.635449156665496
 10
5.574139255675188
 20
-3.637635372693314
 10
5.574661836574275
 20
-3.653420551445732
 97
        0
 97
        1
330
119
 92
        1
 93
        1
 72
     4
 94
        3
 73
     0
 74
     0
 95
       29
 96
       25
 40
0.0
 40
0.0
 40
0.0
 40
0.0
 40
1.0
 40
1.0
 40
1.0
 40
2.0
 40
2.0
 40
2.0
 40
3.0
 40
3.0
 40
3.0
 40
4.0
 40
4.0
 40
4.0
 40
5.0
 40
5.0
 40
5.0
 40
6.0
 40
6.0
 40
6.0
 40
7.0
 40
7.0
 40
7.0
 40
8.0
 40
8.0
 40
8.0
 40
8.0
 10
5.676739744560387
 20
-3.787290994154065
 10
5.70157328179213
 20
-3.784475539571076
 10
5.685092849825474
 20
-3.829982019820438
 10
5.689576174277235
 20
-3.844744238239904
 10
5.670104668973559
 20
-3.858350967467913
 10
5.636047303221681
 20
-3.847648801123543
 10
5.613155550705666
 20
-3.85088119112341
 10
5.590245168006933
 20
-3.847639770014893
 10
5.556192086734982
 20
-3.858363709532138
 10
5.536737652000156
 20
-3.844750963244829
 10
5.540326297673471
 20
-3.8304744531195
 10
5.525372550363751
 20
-3.785782759258987
 10
5.552483275606669
 20
-3.794587779626327
 10
5.554096232196494
 20
-3.831420014821333
 10
5.561088402997862
 20
-3.839950604852598
 10
5.600337794726278
 20
-3.831907562260185
 10
5.605448554048936
 20
-3.820711074674616
 10
5.590524657051395
 20
-3.788085401691432
 10
5.617675825293594
 20
-3.794724483272956
 10
5.638696542643956
 20
-3.812091943792539
 10
5.607655298429587
 20
-3.842751493683635
 10
5.65253670684731
 20
-3.832783558225021
 10
5.687648109470146
 20
-3.845014012018812
 10
5.651753274776208
 20
-3.798034355777518
 10
5.676739744560387
 20
-3.787290994154065
 97
        0
 97
        1
330
11A
 75
     2
 76
     1
 98
        1
 10
0.0
 20
0.0
450
        0
451
        0
460
0.0
461
0.0
452
        0
462
0.0
453
        0
470

  0
SPLINE
  5
11C
330
7C
100
AcDbEntity
  8
Poneglyph
100
AcDbSpline
210
0.0
220
0.0
230
1.0
 70
     9
 71
     3
 72
    11
 73
     7
 74
     0
 42
0.0000000001
 43
0.0000000001
 40
0.0
 40
0.0
 40
0.0
 40
0.0
 40
1.0
 40
1.0
 40
1.0
 40
2.0
 40
2.0
 40
2.0
 40
2.0
 10
5.971905760185387
 20
-3.811408826953551
 30
0.0
 10
5.93441563489566
 20
-3.852451750257399
 30
0.0
 10
5.934032966568742
 20
-3.724767210706444
 30
0.0
 10
5.971905764586532
 20
-3.765320522341489
 30
0.0
 10
5.971884937762726
 20
-3.776616729720381
 30
0.0
 10
5.971920767826102
 20
-3.800253020051425
 30
0.0
 10
5.971905760185387
 20
-3.811408826953551
 30
0.0
  0
SPLINE
  5
11D
330
7C
100
AcDbEntity
  8
Poneglyph
100
AcDbSpline
210
0.0
220
0.0
230
1.0
 70
     9
 71
     3
 72
    11
 73
     7
 74
     0
 42
0.0000000001
 43
0.0000000001
 40
0.0
 40
0.0
 40
0.0
 40
0.0
 40
1.0
 40
1.0
 40
1.0
 40
2.0
 40
2.0
 40
2.0
 40
2.0
 10
5.906286185532608
 20
-3.824538167231328
 30
0.0
 10
5.889588448698961
 20
-3.824220652504929
 30
0.0
 10
5.889383205437272
 20
-3.798746378892133
 30
0.0
 10
5.906287758596463
 20
-3.798577981848325
 30
0.0
 10
5.923167846941876
 20
-3.798763307087925
 30
0.0
 10
5.92296496699363
 20
-3.824210496766138
 30
0.0
 10
5.906286185532608
 20
-3.824538167231328
 30
0.0
  0
SPLINE
  5
11E
330
7C
100
AcDbEntity
  8
Poneglyph
100
AcDbSpline
210
0.0
220
0.0
230
1.0
 70
     9
 71
     3
 72
    35
 73
    31
 74
     0
 42
0.0000000001
 43
0.0000000001
 40
0.0
 40
0.0
 40
0.0
 40
0.0
 40
1.0
 40
1.0
 40
1.0
 40
2.0
 40
2.0
 40
2.0
 40
3.0
 40
3.0
 40
3.0
 40
4.0
 40
4.0
 40
4.0
 40
5.0
 40
5.0
 40
5.0
 40
6.0
 40
6.0
 40
6.0
 40
7.0
 40
7.0
 40
7.0
 40
8.0
 40
8.0
 40
8.0
 40
9.0
 40
9.0
 40
9.0
 40
10.0
 40
10.0
 40
10.0
 40
10.0
 10
6.004864744560387
 20
-3.667026774002162
 30
0.0
 10
6.044991077666963
 20
-3.693496296209319
 30
0.0
 10
5.985083283528056
 20
-3.683291844134815
 30
0.0
 10
5.998157055769752
 20
-3.713105482256764
 30
0.0
 10
6.008853307515588
 20
-3.73069812498487
 30
0.0
 10
6.003924952823934
 20
-3.758183399327018
 30
0.0
 10
6.004864470403112
 20
-3.77845065328601
 30
0.0
 10
6.018602611248777
 20
-3.839550973936171
 30
0.0
 10
6.022549048510275
 20
-3.858979527848494
 30
0.0
 10
5.952073011503443
 20
-3.85077485554162
 30
0.0
 10
5.874823960894773
 20
-3.84464288225638
 30
0.0
 10
5.9620195845013
 20
-3.824133858315576
 30
0.0
 10
5.991732372397614
 20
-3.831261164097908
 30
0.0
 10
5.974904450457541
 20
-3.786582834462238
 30
0.0
 10
6.010900212536676
 20
-3.720770205338807
 30
0.0
 10
5.932525648510995
 20
-3.752502805664296
 30
0.0
 10
5.904543642636578
 20
-3.727562914495554
 30
0.0
 10
5.957264931337804
 20
-3.734077424998645
 30
0.0
 10
5.971172491307066
 20
-3.729447859496139
 30
0.0
 10
6.02777984985505
 20
-3.669341631697648
 30
0.0
 10
5.913082103266408
 20
-3.708854703887191
 30
0.0
 10
5.887616179336746
 20
-3.696793688601688
 30
0.0
 10
5.885364890116735
 20
-3.664072074027785
 30
0.0
 10
5.956906324941049
 20
-3.677775307108642
 30
0.0
 10
5.978613535529348
 20
-3.673734623616142
 30
0.0
 10
5.978987664167056
 20
-3.656618773979832
 30
0.0
 10
5.970912911730869
 20
-3.624518401233128
 30
0.0
 10
5.998164980298926
 20
-3.647491786311762
 30
0.0
 10
5.997076867740688
 20
-3.655013194782251
 30
0.0
 10
5.992475647692723
 20
-3.676497931573332
 30
0.0
 10
6.004864744560387
 20
-3.667026774002162
 30
0.0
  0
SPLINE
  5
11F
330
7C
100
AcDbEntity
  8
Poneglyph
100
AcDbSpline
210
0.0
220
0.0
230
1.0
 70
     9
 71
     3
 72
    11
 73
     7
 74
     0
 42
0.0000000001
 43
0.0000000001
 40
0.0
 40
0.0
 40
0.0
 40
0.0
 40
1.0
 40
1.0
 40
1.0
 40
2.0
 40
2.0
 40
2.0
 40
2.0
 10
5.840653047511775
 20
-3.713115098654939
 30
0.0
 10
5.837437063735907
 20
-3.694890349838045
 30
0.0
 10
5.867405853061376
 20
-3.696585602303621
 30
0.0
 10
5.867196595372206
 20
-3.713115942256321
 30
0.0
 10
5.867433472992312
 20
-3.72961312856901
 30
0.0
 10
5.837297358891873
 20
-3.731403158207828
 30
0.0
 10
5.840653047511775
 20
-3.713115098654939
 30
0.0
  0
SPLINE
  5
120
330
7C
100
AcDbEntity
  8
Poneglyph
100
AcDbSpline
210
0.0
220
0.0
230
1.0
 70
     9
 71
     3
 72
    11
 73
     7
 74
     0
 42
0.0000000001
 43
0.0000000001
 40
0.0
 40
0.0
 40
0.0
 40
0.0
 40
1.0
 40
1.0
 40
1.0
 40
2.0
 40
2.0
 40
2.0
 40
2.0
 10
5.847068520602053
 20
-3.667026774002162
 30
0.0
 10
5.87833156907474
 20
-3.651602113578557
 30
0.0
 10
5.835988242634534
 20
-3.649775536070225
 30
0.0
 10
5.821107490943732
 20
-3.653906380494782
 30
0.0
 10
5.803433775069606
 20
-3.668589032476334
 30
0.0
 10
5.83626305025488
 20
-3.671965308975877
 30
0.0
 10
5.847068520602053
 20
-3.667026774002162
 30
0.0
  0
SPLINE
  5
121
330
7C
100
AcDbEntity
  8
Poneglyph
100
AcDbSpline
210
0.0
220
0.0
230
1.0
 70
     9
 71
     3
 72
    29
 73
    25
 74
     0
 42
0.0000000001
 43
0.0000000001
 40
0.0
 40
0.0
 40
0.0
 40
0.0
 40
1.0
 40
1.0
 40
1.0
 40
2.0
 40
2.0
 40
2.0
 40
3.0
 40
3.0
 40
3.0
 40
4.0
 40
4.0
 40
4.0
 40
5.0
 40
5.0
 40
5.0
 40
6.0
 40
6.0
 40
6.0
 40
7.0
 40
7.0
 40
7.0
 40
8.0
 40
8.0
 40
8.0
 40
8.0
 10
5.886741372164553
 20
-3.660611300911884
 30
0.0
 10
5.880987791521065
 20
-3.700471612054229
 30
0.0
 10
5.834313474363043
 20
-3.673807750516453
 30
0.0
 10
5.818187145647091
 20
-3.691674096229449
 30
0.0
 10
5.819471835533982
 20
-3.744434701394804
 30
0.0
 10
5.820384332798084
 20
-3.743039923763022
 30
0.0
 10
5.873622510776081
 20
-3.739350617032148
 30
0.0
 10
5.900333180982013
 20
-3.748030261445326
 30
0.0
 10
5.881334395874469
 20
-3.796221363027661
 30
0.0
 10
5.886748910952619
 20
-3.818120099155584
 30
0.0
 10
5.870564536681513
 20
-3.829755489186317
 30
0.0
 10
5.811053692223569
 20
-3.829553375235857
 30
0.0
 10
5.794862558730502
 20
-3.818141659231703
 30
0.0
 10
5.80497693320803
 20
-3.78254780248364
 30
0.0
 10
5.886727251322503
 20
-3.84150690957281
 30
0.0
 10
5.867192930764631
 20
-3.78516368619119
 30
0.0
 10
5.879356779195707
 20
-3.732014495658821
 30
0.0
 10
5.814211121839737
 20
-3.781419527851375
 30
0.0
 10
5.801275780443575
 20
-3.752490221431331
 30
0.0
 10
5.804659868941042
 20
-3.717264552547362
 30
0.0
 10
5.783191471217226
 20
-3.649912357563241
 30
0.0
 10
5.807977136217939
 20
-3.634361000148841
 30
0.0
 10
5.835508119032383
 20
-3.636099227833697
 30
0.0
 10
5.879173838161528
 20
-3.623933056388712
 30
0.0
 10
5.886741372164553
 20
-3.660611300911884
 30
0.0
  0
HATCH
  5
122
330
7C
100
AcDbEntity
  8
Poneglyph
 62
   250
420
  2301728
440
 33554687
100
AcDbHatch
 10
0.0
 20
0.0
 30
0.0
210
0.0
220
0.0
230
1.0
  2
SOLID
 70
     1
 71
     1
 91
        6
 92
        1
 93
        1
 72
     4
 94
        3
 73
     0
 74
     0
 95
       11
 96
        7
 40
0.0
 40
0.0
 40
0.0
 40
0.0
 40
1.0
 40
1.0
 40
1.0
 40
2.0
 40
2.0
 40
2.0
 40
2.0
 10
5.971905760185387
 20
-3.811408826953551
 10
5.93441563489566
 20
-3.852451750257399
 10
5.934032966568742
 20
-3.724767210706444
 10
5.971905764586532
 20
-3.765320522341489
 10
5.971884937762726
 20
-3.776616729720381
 10
5.971920767826102
 20
-3.800253020051425
 10
5.971905760185387
 20
-3.811408826953551
 97
        0
 97
        1
330
11C
 92
        1
 93
        1
 72
     4
 94
        3
 73
     0
 74
     0
 95
       11
 96
        7
 40
0.0
 40
0.0
 40
0.0
 40
0.0
 40
1.0
 40
1.0
 40
1.0
 40
2.0
 40
2.0
 40
2.0
 40
2.0
 10
5.906286185532608
 20
-3.824538167231328
 10
5.889588448698961
 20
-3.824220652504929
 10
5.889383205437272
 20
-3.798746378892133
 10
5.906287758596463
 20
-3.798577981848325
 10
5.923167846941876
 20
-3.798763307087925
 10
5.92296496699363
 20
-3.824210496766138
 10
5.906286185532608
 20
-3.824538167231328
 97
        0
 97
        1
330
11D
 92
        1
 93
        1
 72
     4
 94
        3
 73
     0
 74
     0
 95
       35
 96
       31
 40
0.0
 40
0.0
 40
0.0
 40
0.0
 40
1.0
 40
1.0
 40
1.0
 40
2.0
 40
2.0
 40
2.0
 40
3.0
 40
3.0
 40
3.0
 40
4.0
 40
4.0
 40
4.0
 40
5.0
 40
5.0
 40
5.0
 40
6.0
 40
6.0
 40
6.0
 40
7.0
 40
7.0
 40
7.0
 40
8.0
 40
8.0
 40
8.0
 40
9.0
 40
9.0
 40
9.0
 40
10.0
 40
10.0
 40
10.0
 40
10.0
 10
6.004864744560387
 20
-3.667026774002162
 10
6.044991077666963
 20
-3.693496296209319
 10
5.985083283528056
 20
-3.683291844134815
 10
5.998157055769752
 20
-3.713105482256764
 10
6.008853307515588
 20
-3.73069812498487
 10
6.003924952823934
 20
-3.758183399327018
 10
6.004864470403112
 20
-3.77845065328601
 10
6.018602611248777
 20
-3.839550973936171
 10
6.022549048510275
 20
-3.858979527848494
 10
5.952073011503443
 20
-3.85077485554162
 10
5.874823960894773
 20
-3.84464288225638
 10
5.9620195845013
 20
-3.824133858315576
 10
5.991732372397614
 20
-3.831261164097908
 10
5.974904450457541
 20
-3.786582834462238
 10
6.010900212536676
 20
-3.720770205338807
 10
5.932525648510995
 20
-3.752502805664296
 10
5.904543642636578
 20
-3.727562914495554
 10
5.957264931337804
 20
-3.734077424998645
 10
5.971172491307066
 20
-3.729447859496139
 10
6.02777984985505
 20
-3.669341631697648
 10
5.913082103266408
 20
-3.708854703887191
 10
5.887616179336746
 20
-3.696793688601688
 10
5.885364890116735
 20
-3.664072074027785
 10
5.956906324941049
 20
-3.677775307108642
 10
5.978613535529348
 20
-3.673734623616142
 10
5.978987664167056
 20
-3.656618773979832
 10
5.970912911730869
 20
-3.624518401233128
 10
5.998164980298926
 20
-3.647491786311762
 10
5.997076867740688
 20
-3.655013194782251
 10
5.992475647692723
 20
-3.676497931573332
 10
6.004864744560387
 20
-3.667026774002162
 97
        0
 97
        1
330
11E
 92
        1
 93
        1
 72
     4
 94
        3
 73
     0
 74
     0
 95
       11
 96
        7
 40
0.0
 40
0.0
 40
0.0
 40
0.0
 40
1.0
 40
1.0
 40
1.0
 40
2.0
 40
2.0
 40
2.0
 40
2.0
 10
5.840653047511775
 20
-3.713115098654939
 10
5.837437063735907
 20
-3.694890349838045
 10
5.867405853061376
 20
-3.696585602303621
 10
5.867196595372206
 20
-3.713115942256321
 10
5.867433472992312
 20
-3.72961312856901
 10
5.837297358891873
 20
-3.731403158207828
 10
5.840653047511775
 20
-3.713115098654939
 97
        0
 97
        1
330
11F
 92
        1
 93
        1
 72
     4
 94
        3
 73
     0
 74
     0
 95
       11
 96
        7
 40
0.0
 40
0.0
 40
0.0
 40
0.0
 40
1.0
 40
1.0
 40
1.0
 40
2.0
 40
2.0
 40
2.0
 40
2.0
 10
5.847068520602053
 20
-3.667026774002162
 10
5.87833156907474
 20
-3.651602113578557
 10
5.835988242634534
 20
-3.649775536070225
 10
5.821107490943732
 20
-3.653906380494782
 10
5.803433775069606
 20
-3.668589032476334
 10
5.83626305025488
 20
-3.671965308975877
 10
5.847068520602053
 20
-3.667026774002162
 97
        0
 97
        1
330
120
 92
        1
 93
        1
 72
     4
 94
        3
 73
     0
 74
     0
 95
       29
 96
       25
 40
0.0
 40
0.0
 40
0.0
 40
0.0
 40
1.0
 40
1.0
 40
1.0
 40
2.0
 40
2.0
 40
2.0
 40
3.0
 40
3.0
 40
3.0
 40
4.0
 40
4.0
 40
4.0
 40
5.0
 40
5.0
 40
5.0
 40
6.0
 40
6.0
 40
6.0
 40
7.0
 40
7.0
 40
7.0
 40
8.0
 40
8.0
 40
8.0
 40
8.0
 10
5.886741372164553
 20
-3.660611300911884
 10
5.880987791521065
 20
-3.700471612054229
 10
5.834313474363043
 20
-3.673807750516453
 10
5.818187145647091
 20
-3.691674096229449
 10
5.819471835533982
 20
-3.744434701394804
 10
5.820384332798084
 20
-3.743039923763022
 10
5.873622510776081
 20
-3.739350617032148
 10
5.900333180982013
 20
-3.748030261445326
 10
5.881334395874469
 20
-3.796221363027661
 10
5.886748910952619
 20
-3.818120099155584
 10
5.870564536681513
 20
-3.829755489186317
 10
5.811053692223569
 20
-3.829553375235857
 10
5.794862558730502
 20
-3.818141659231703
 10
5.80497693320803
 20
-3.78254780248364
 10
5.886727251322503
 20
-3.84150690957281
 10
5.867192930764631
 20
-3.78516368619119
 10
5.879356779195707
 20
-3.732014495658821
 10
5.814211121839737
 20
-3.781419527851375
 10
5.801275780443575
 20
-3.752490221431331
 10
5.804659868941042
 20
-3.717264552547362
 10
5.783191471217226
 20
-3.649912357563241
 10
5.807977136217939
 20
-3.634361000148841
 10
5.835508119032383
 20
-3.636099227833697
 10
5.879173838161528
 20
-3.623933056388712
 10
5.886741372164553
 20
-3.660611300911884
 97
        0
 97
        1
330
121
 75
     2
 76
     1
 98
        1
 10
0.0
 20
0.0
450
        0
451
        0
460
0.0
461
0.0
452
        0
462
0.0
453
        0
470

  0
SPLINE
  5
123
330
7C
100
AcDbEntity
  8
Poneglyph
100
AcDbSpline
210
0.0
220
0.0
230
1.0
 70
     9
 71
     3
 72
    11
 73
     7
 74
     0
 42
0.0000000001
 43
0.0000000001
 40
0.0
 40
0.0
 40
0.0
 40
0.0
 40
1.0
 40
1.0
 40
1.0
 40
2.0
 40
2.0
 40
2.0
 40
2.0
 10
4.91314924976872
 20
-3.997053663760981
 30
0.0
 10
4.926440583542873
 20
-4.002465207936666
 30
0.0
 10
4.976351293975312
 20
-4.005007116872042
 30
0.0
 10
4.945976149375685
 20
-3.991212544766565
 30
0.0
 10
4.930180410602891
 20
-3.98578307974526
 30
0.0
 10
4.868130503955929
 20
-3.996170086648488
 30
0.0
 10
4.91314924976872
 20
-3.997053663760981
 30
0.0
  0
SPLINE
  5
124
330
7C
100
AcDbEntity
  8
Poneglyph
100
AcDbSpline
210
0.0
220
0.0
230
1.0
 70
     9
 71
     3
 72
    20
 73
    16
 74
     0
 42
0.0000000001
 43
0.0000000001
 40
0.0
 40
0.0
 40
0.0
 40
0.0
 40
1.0
 40
1.0
 40
1.0
 40
2.0
 40
2.0
 40
2.0
 40
3.0
 40
3.0
 40
3.0
 40
4.0
 40
4.0
 40
4.0
 40
5.0
 40
5.0
 40
5.0
 40
5.0
 10
4.978768824421497
 20
-3.918304748830425
 30
0.0
 10
4.983786146367188
 20
-3.96173046518086
 30
0.0
 10
4.984811496632801
 20
-4.013514397617679
 30
0.0
 10
4.975432469991119
 20
-4.059323858722184
 30
0.0
 10
4.960530327329175
 20
-4.077583512787037
 30
0.0
 10
4.991831317183848
 20
-4.1424735987616
 30
0.0
 10
4.953408451661996
 20
-4.133842921216935
 30
0.0
 10
4.932864368301832
 20
-4.053192487054376
 30
0.0
 10
5.005120221023641
 20
-4.007272831547096
 30
0.0
 10
4.880485905148689
 20
-4.023309884778831
 30
0.0
 10
4.822665872129997
 20
-3.935145038843857
 30
0.0
 10
4.975262597092877
 20
-4.017054283445379
 30
0.0
 10
4.961869851825263
 20
-3.942948316515007
 30
0.0
 10
4.87708760502715
 20
-3.931361393011254
 30
0.0
 10
4.909936637194555
 20
-3.913362288235854
 30
0.0
 10
4.978768824421497
 20
-3.918304748830425
 30
0.0
  0
SPLINE
  5
125
330
7C
100
AcDbEntity
  8
Poneglyph
100
AcDbSpline
210
0.0
220
0.0
230
1.0
 70
     9
 71
     3
 72
    11
 73
     7
 74
     0
 42
0.0000000001
 43
0.0000000001
 40
0.0
 40
0.0
 40
0.0
 40
0.0
 40
1.0
 40
1.0
 40
1.0
 40
2.0
 40
2.0
 40
2.0
 40
2.0
 10
4.821569388657608
 20
-3.977508850392925
 30
0.0
 10
4.8189563578062
 20
-3.98580766140195
 30
0.0
 10
4.828771069132977
 20
-3.996873627584262
 30
0.0
 10
4.832938712378336
 20
-3.986406416568898
 30
0.0
 10
4.83327185321395
 20
-3.981831936006174
 30
0.0
 10
4.827538341976756
 20
-3.975658579438585
 30
0.0
 10
4.821569388657608
 20
-3.977508850392925
 30
0.0
  0
SPLINE
  5
126
330
7C
100
AcDbEntity
  8
Poneglyph
100
AcDbSpline
210
0.0
220
0.0
230
1.0
 70
     9
 71
     3
 72
    14
 73
    10
 74
     0
 42
0.0000000001
 43
0.0000000001
 40
0.0
 40
0.0
 40
0.0
 40
0.0
 40
1.0
 40
1.0
 40
1.0
 40
2.0
 40
2.0
 40
2.0
 40
3.0
 40
3.0
 40
3.0
 40
3.0
 10
4.801739744560387
 20
-4.088931918969314
 30
0.0
 10
4.833211709877736
 20
-4.064487503035504
 30
0.0
 10
4.881639985176459
 20
-4.085780555320373
 30
0.0
 10
4.919576100930245
 20
-4.075509580586387
 30
0.0
 10
4.959764966696891
 20
-4.098080144184753
 30
0.0
 10
4.899754176665838
 20
-4.109222140428351
 30
0.0
 10
4.880493785183261
 20
-4.095334958587955
 30
0.0
 10
4.857187145110022
 20
-4.089196320059802
 30
0.0
 10
4.812815647320121
 20
-4.119876677589571
 30
0.0
 10
4.801739744560387
 20
-4.088931918969314
 30
0.0
  0
SPLINE
  5
127
330
7C
100
AcDbEntity
  8
Poneglyph
100
AcDbSpline
210
0.0
220
0.0
230
1.0
 70
     9
 71
     3
 72
    11
 73
     7
 74
     0
 42
0.0000000001
 43
0.0000000001
 40
0.0
 40
0.0
 40
0.0
 40
0.0
 40
1.0
 40
1.0
 40
1.0
 40
2.0
 40
2.0
 40
2.0
 40
2.0
 10
4.808141654282608
 20
-3.964094679385981
 30
0.0
 10
4.864412756976005
 20
-3.953083581247508
 30
0.0
 10
4.853248475957368
 20
-3.988854572217885
 30
0.0
 10
4.827968726110788
 20
-4.02330683536651
 30
0.0
 10
4.813332770434751
 20
-4.019589509154355
 30
0.0
 10
4.79447100056465
 20
-3.968442943959063
 30
0.0
 10
4.808141654282608
 20
-3.964094679385981
 30
0.0
  0
SPLINE
  5
128
330
7C
100
AcDbEntity
  8
Poneglyph
100
AcDbSpline
210
0.0
220
0.0
230
1.0
 70
     9
 71
     3
 72
    26
 73
    22
 74
     0
 42
0.0000000001
 43
0.0000000001
 40
0.0
 40
0.0
 40
0.0
 40
0.0
 40
1.0
 40
1.0
 40
1.0
 40
2.0
 40
2.0
 40
2.0
 40
3.0
 40
3.0
 40
3.0
 40
4.0
 40
4.0
 40
4.0
 40
5.0
 40
5.0
 40
5.0
 40
6.0
 40
6.0
 40
6.0
 40
7.0
 40
7.0
 40
7.0
 40
7.0
 10
4.834400334838164
 20
-3.918304748830425
 30
0.0
 10
4.865457376338503
 20
-3.984057960501685
 30
0.0
 10
4.75803188827169
 20
-3.893850777152162
 30
0.0
 10
4.788629254435666
 20
-3.983920206223779
 30
0.0
 10
4.754082697933098
 20
-4.057251484689762
 30
0.0
 10
4.82918506927831
 20
-4.039295891874139
 30
0.0
 10
4.873792846164102
 20
-4.036421567605884
 30
0.0
 10
4.925142265604563
 20
-4.021676715688398
 30
0.0
 10
4.886638332977932
 20
-4.066720623677156
 30
0.0
 10
4.854225900162342
 20
-4.062674524492548
 30
0.0
 10
4.810843381186765
 20
-4.059535554986394
 30
0.0
 10
4.765449229239038
 20
-4.054245727215199
 30
0.0
 10
4.793713682548387
 20
-4.10848844247198
 30
0.0
 10
4.83689410388125
 20
-4.094708872903942
 30
0.0
 10
4.882607413072466
 20
-4.125363012472941
 30
0.0
 10
4.814868792548723
 20
-4.128028276828091
 30
0.0
 10
4.735163915090222
 20
-4.147599337203574
 30
0.0
 10
4.768293272854381
 20
-4.055016691703333
 30
0.0
 10
4.765699787275833
 20
-4.003463719005745
 30
0.0
 10
4.769133543392373
 20
-3.937879568556632
 30
0.0
 10
4.744912133897691
 20
-3.912756389606986
 30
0.0
 10
4.834400334838164
 20
-3.918304748830425
 30
0.0
  0
HATCH
  5
129
330
7C
100
AcDbEntity
  8
Poneglyph
 62
   250
420
  2301728
440
 33554687
100
AcDbHatch
 10
0.0
 20
0.0
 30
0.0
210
0.0
220
0.0
230
1.0
  2
SOLID
 70
     1
 71
     1
 91
        6
 92
        1
 93
        1
 72
     4
 94
        3
 73
     0
 74
     0
 95
       11
 96
        7
 40
0.0
 40
0.0
 40
0.0
 40
0.0
 40
1.0
 40
1.0
 40
1.0
 40
2.0
 40
2.0
 40
2.0
 40
2.0
 10
4.91314924976872
 20
-3.997053663760981
 10
4.926440583542873
 20
-4.002465207936666
 10
4.976351293975312
 20
-4.005007116872042
 10
4.945976149375685
 20
-3.991212544766565
 10
4.930180410602891
 20
-3.98578307974526
 10
4.868130503955929
 20
-3.996170086648488
 10
4.91314924976872
 20
-3.997053663760981
 97
        0
 97
        1
330
123
 92
        1
 93
        1
 72
     4
 94
        3
 73
     0
 74
     0
 95
       20
 96
       16
 40
0.0
 40
0.0
 40
0.0
 40
0.0
 40
1.0
 40
1.0
 40
1.0
 40
2.0
 40
2.0
 40
2.0
 40
3.0
 40
3.0
 40
3.0
 40
4.0
 40
4.0
 40
4.0
 40
5.0
 40
5.0
 40
5.0
 40
5.0
 10
4.978768824421497
 20
-3.918304748830425
 10
4.983786146367188
 20
-3.96173046518086
 10
4.984811496632801
 20
-4.013514397617679
 10
4.975432469991119
 20
-4.059323858722184
 10
4.960530327329175
 20
-4.077583512787037
 10
4.991831317183848
 20
-4.1424735987616
 10
4.953408451661996
 20
-4.133842921216935
 10
4.932864368301832
 20
-4.053192487054376
 10
5.005120221023641
 20
-4.007272831547096
 10
4.880485905148689
 20
-4.023309884778831
 10
4.822665872129997
 20
-3.935145038843857
 10
4.975262597092877
 20
-4.017054283445379
 10
4.961869851825263
 20
-3.942948316515007
 10
4.87708760502715
 20
-3.931361393011254
 10
4.909936637194555
 20
-3.913362288235854
 10
4.978768824421497
 20
-3.918304748830425
 97
        0
 97
        1
330
124
 92
        1
 93
        1
 72
     4
 94
        3
 73
     0
 74
     0
 95
       11
 96
        7
 40
0.0
 40
0.0
 40
0.0
 40
0.0
 40
1.0
 40
1.0
 40
1.0
 40
2.0
 40
2.0
 40
2.0
 40
2.0
 10
4.821569388657608
 20
-3.977508850392925
 10
4.8189563578062
 20
-3.98580766140195
 10
4.828771069132977
 20
-3.996873627584262
 10
4.832938712378336
 20
-3.986406416568898
 10
4.83327185321395
 20
-3.981831936006174
 10
4.827538341976756
 20
-3.975658579438585
 10
4.821569388657608
 20
-3.977508850392925
 97
        0
 97
        1
330
125
 92
        1
 93
        1
 72
     4
 94
        3
 73
     0
 74
     0
 95
       14
 96
       10
 40
0.0
 40
0.0
 40
0.0
 40
0.0
 40
1.0
 40
1.0
 40
1.0
 40
2.0
 40
2.0
 40
2.0
 40
3.0
 40
3.0
 40
3.0
 40
3.0
 10
4.801739744560387
 20
-4.088931918969314
 10
4.833211709877736
 20
-4.064487503035504
 10
4.881639985176459
 20
-4.085780555320373
 10
4.919576100930245
 20
-4.075509580586387
 10
4.959764966696891
 20
-4.098080144184753
 10
4.899754176665838
 20
-4.109222140428351
 10
4.880493785183261
 20
-4.095334958587955
 10
4.857187145110022
 20
-4.089196320059802
 10
4.812815647320121
 20
-4.119876677589571
 10
4.801739744560387
 20
-4.088931918969314
 97
        0
 97
        1
330
126
 92
        1
 93
        1
 72
     4
 94
        3
 73
     0
 74
     0
 95
       11
 96
        7
 40
0.0
 40
0.0
 40
0.0
 40
0.0
 40
1.0
 40
1.0
 40
1.0
 40
2.0
 40
2.0
 40
2.0
 40
2.0
 10
4.808141654282608
 20
-3.964094679385981
 10
4.864412756976005
 20
-3.953083581247508
 10
4.853248475957368
 20
-3.988854572217885
 10
4.827968726110788
 20
-4.02330683536651
 10
4.813332770434751
 20
-4.019589509154355
 10
4.79447100056465
 20
-3.968442943959063
 10
4.808141654282608
 20
-3.964094679385981
 97
        0
 97
        1
330
127
 92
        1
 93
        1
 72
     4
 94
        3
 73
     0
 74
     0
 95
       26
 96
       22
 40
0.0
 40
0.0
 40
0.0
 40
0.0
 40
1.0
 40
1.0
 40
1.0
 40
2.0
 40
2.0
 40
2.0
 40
3.0
 40
3.0
 40
3.0
 40
4.0
 40
4.0
 40
4.0
 40
5.0
 40
5.0
 40
5.0
 40
6.0
 40
6.0
 40
6.0
 40
7.0
 40
7.0
 40
7.0
 40
7.0
 10
4.834400334838164
 20
-3.918304748830425
 10
4.865457376338503
 20
-3.984057960501685
 10
4.75803188827169
 20
-3.893850777152162
 10
4.788629254435666
 20
-3.983920206223779
 10
4.754082697933098
 20
-4.057251484689762
 10
4.82918506927831
 20
-4.039295891874139
 10
4.873792846164102
 20
-4.036421567605884
 10
4.925142265604563
 20
-4.021676715688398
 10
4.886638332977932
 20
-4.066720623677156
 10
4.854225900162342
 20
-4.062674524492548
 10
4.810843381186765
 20
-4.059535554986394
 10
4.765449229239038
 20
-4.054245727215199
 10
4.793713682548387
 20
-4.10848844247198
 10
4.83689410388125
 20
-4.094708872903942
 10
4.882607413072466
 20
-4.125363012472941
 10
4.814868792548723
 20
-4.128028276828091
 10
4.735163915090222
 20
-4.147599337203574
 10
4.768293272854381
 20
-4.055016691703333
 10
4.765699787275833
 20
-4.003463719005745
 10
4.769133543392373
 20
-3.937879568556632
 10
4.744912133897691
 20
-3.912756389606986
 10
4.834400334838164
 20
-3.918304748830425
 97
        0
 97
        1
330
128
 75
     2
 76
     1
 98
        1
 10
0.0
 20
0.0
450
        0
451
        0
460
0.0
461
0.0
452
        0
462
0.0
453
        0
470

  0
SPLINE
  5
12A
330
7C
100
AcDbEntity
  8
Poneglyph
100
AcDbSpline
210
0.0
220
0.0
230
1.0
 70
     9
 71
     3
 72
    14
 73
    10
 74
     0
 42
0.0000000001
 43
0.0000000001
 40
0.0
 40
0.0
 40
0.0
 40
0.0
 40
1.0
 40
1.0
 40
1.0
 40
2.0
 40
2.0
 40
2.0
 40
3.0
 40
3.0
 40
3.0
 40
3.0
 10
5.122269258449275
 20
-3.932994598501434
 30
0.0
 10
5.150989763228961
 20
-3.908544450831641
 30
0.0
 10
5.138968365448008
 20
-3.963541930917876
 30
0.0
 10
5.141231269654326
 20
-3.977617078499128
 30
0.0
 10
5.136436125410404
 20
-3.994077428467739
 30
0.0
 10
5.162840995637982
 20
-4.048022222405961
 30
0.0
 10
5.126200660979368
 20
-4.030857795127531
 30
0.0
 10
5.116151619101148
 20
-4.002677387077558
 30
0.0
 10
5.125208893946263
 20
-3.963358112290582
 30
0.0
 10
5.122269258449275
 20
-3.932994598501434
 30
0.0
  0
SPLINE
  5
12B
330
7C
100
AcDbEntity
  8
Poneglyph
100
AcDbSpline
210
0.0
220
0.0
230
1.0
 70
     9
 71
     3
 72
    29
 73
    25
 74
     0
 42
0.0000000001
 43
0.0000000001
 40
0.0
 40
0.0
 40
0.0
 40
0.0
 40
1.0
 40
1.0
 40
1.0
 40
2.0
 40
2.0
 40
2.0
 40
3.0
 40
3.0
 40
3.0
 40
4.0
 40
4.0
 40
4.0
 40
5.0
 40
5.0
 40
5.0
 40
6.0
 40
6.0
 40
6.0
 40
7.0
 40
7.0
 40
7.0
 40
8.0
 40
8.0
 40
8.0
 40
8.0
 10
5.217646862615942
 20
-3.920163652320878
 30
0.0
 10
5.239589051241964
 20
-3.912580672922432
 30
0.0
 10
5.235902029052289
 20
-4.124240669516995
 30
0.0
 10
5.222330161201423
 20
-4.129283493940571
 30
0.0
 10
5.185802024454586
 20
-4.134006985379402
 30
0.0
 10
5.223944450479595
 20
-4.068058924066209
 30
0.0
 10
5.206702825697093
 20
-4.058713972662594
 30
0.0
 10
5.185699574352788
 20
-4.070932752577568
 30
0.0
 10
5.148972343695403
 20
-4.069608543411479
 30
0.0
 10
5.126202024530837
 20
-4.062451749646293
 30
0.0
 10
5.110015193699407
 20
-4.038254046755885
 30
0.0
 10
5.160933751315698
 20
-4.05088461490762
 30
0.0
 10
5.17301789549232
 20
-4.040911463312442
 30
0.0
 10
5.20473925743181
 20
-4.044254663532051
 30
0.0
 10
5.218210272592664
 20
-4.045662342228752
 30
0.0
 10
5.211507712466603
 20
-4.009118154329724
 30
0.0
 10
5.219721078804316
 20
-3.967282483308306
 30
0.0
 10
5.205697967643522
 20
-3.975467397183491
 30
0.0
 10
5.179708331310418
 20
-3.964521069659667
 30
0.0
 10
5.234426410410429
 20
-3.943678394847893
 30
0.0
 10
5.207622816835989
 20
-3.939456549806815
 30
0.0
 10
5.164402980779262
 20
-3.9353388794236
 30
0.0
 10
5.146932383635379
 20
-3.908938179193632
 30
0.0
 10
5.205090429156775
 20
-3.923777678741164
 30
0.0
 10
5.217646862615942
 20
-3.920163652320878
 30
0.0
  0
SPLINE
  5
12C
330
7C
100
AcDbEntity
  8
Poneglyph
100
AcDbSpline
210
0.0
220
0.0
230
1.0
 70
     9
 71
     3
 72
    11
 73
     7
 74
     0
 42
0.0000000001
 43
0.0000000001
 40
0.0
 40
0.0
 40
0.0
 40
0.0
 40
1.0
 40
1.0
 40
1.0
 40
2.0
 40
2.0
 40
2.0
 40
2.0
 10
5.077645777546497
 20
-4.091957272112545
 30
0.0
 10
5.061402196778216
 20
-4.09182352879313
 30
0.0
 10
5.061665624452441
 20
-4.066841603675154
 30
0.0
 10
5.077647095900652
 20
-4.066580192413868
 30
0.0
 10
5.093928402850299
 20
-4.066865802539546
 30
0.0
 10
5.094197342533915
 20
-4.091809528049578
 30
0.0
 10
5.077645777546497
 20
-4.091957272112545
 30
0.0
  0
SPLINE
  5
12D
330
7C
100
AcDbEntity
  8
Poneglyph
100
AcDbSpline
210
0.0
220
0.0
230
1.0
 70
     9
 71
     3
 72
    11
 73
     7
 74
     0
 42
0.0000000001
 43
0.0000000001
 40
0.0
 40
0.0
 40
0.0
 40
0.0
 40
1.0
 40
1.0
 40
1.0
 40
2.0
 40
2.0
 40
2.0
 40
2.0
 10
5.090476723727053
 20
-4.022105926626434
 30
0.0
 10
5.090277751743315
 20
-4.038314939596476
 30
0.0
 10
5.065145042109961
 20
-4.038494504227704
 30
0.0
 10
5.065099759633337
 20
-4.022104505635247
 30
0.0
 10
5.065141147535364
 20
-4.005706810970397
 30
0.0
 10
5.090287716666655
 20
-4.005883960215038
 30
0.0
 10
5.090476723727053
 20
-4.022105926626434
 30
0.0
  0
SPLINE
  5
12E
330
7C
100
AcDbEntity
  8
Poneglyph
100
AcDbSpline
210
0.0
220
0.0
230
1.0
 70
     9
 71
     3
 72
    29
 73
    25
 74
     0
 42
0.0000000001
 43
0.0000000001
 40
0.0
 40
0.0
 40
0.0
 40
0.0
 40
1.0
 40
1.0
 40
1.0
 40
2.0
 40
2.0
 40
2.0
 40
3.0
 40
3.0
 40
3.0
 40
4.0
 40
4.0
 40
4.0
 40
5.0
 40
5.0
 40
5.0
 40
6.0
 40
6.0
 40
6.0
 40
7.0
 40
7.0
 40
7.0
 40
8.0
 40
8.0
 40
8.0
 40
8.0
 10
5.033117240220108
 20
-3.920163652320878
 30
0.0
 10
5.054166080657624
 20
-3.93117570224207
 30
0.0
 10
5.032340346026431
 20
-3.971930115620655
 30
0.0
 10
5.044376806400501
 20
-3.979084960979156
 30
0.0
 10
5.070721357092022
 20
-3.964241047676043
 30
0.0
 10
5.080127576846759
 20
-3.913000119021135
 30
0.0
 10
5.109715393598561
 20
-3.920153876656083
 30
0.0
 10
5.115580305386957
 20
-3.960971087604345
 30
0.0
 10
5.044290900032162
 20
-3.976497288977624
 30
0.0
 10
5.043519670750987
 20
-4.016190310843057
 30
0.0
 10
5.052313317666453
 20
-4.057609386766292
 30
0.0
 10
5.011143397636437
 20
-4.129018790534928
 30
0.0
 10
5.084347605718321
 20
-4.111196602282411
 30
0.0
 10
5.105334666810929
 20
-4.109362419861326
 30
0.0
 10
5.124419378550505
 20
-4.119223675925923
 30
0.0
 10
5.126194150282192
 20
-4.095956686483329
 30
0.0
 10
5.165012001930285
 20
-4.081101954529811
 30
0.0
 10
5.142635947440945
 20
-4.146844454696949
 30
0.0
 10
5.109507125245752
 20
-4.130151847967655
 30
0.0
 10
5.082504912971494
 20
-4.123482655440612
 30
0.0
 10
5.01290940400986
 20
-4.150141164156694
 30
0.0
 10
5.020474524485027
 20
-4.104794645379519
 30
0.0
 10
5.029992548670204
 20
-4.048829487934603
 30
0.0
 10
5.000700866634638
 20
-3.962307305824752
 30
0.0
 10
5.033117240220108
 20
-3.920163652320878
 30
0.0
  0
HATCH
  5
12F
330
7C
100
AcDbEntity
  8
Poneglyph
 62
   250
420
  2301728
440
 33554687
100
AcDbHatch
 10
0.0
 20
0.0
 30
0.0
210
0.0
220
0.0
230
1.0
  2
SOLID
 70
     1
 71
     1
 91
        5
 92
        1
 93
        1
 72
     4
 94
        3
 73
     0
 74
     0
 95
       14
 96
       10
 40
0.0
 40
0.0
 40
0.0
 40
0.0
 40
1.0
 40
1.0
 40
1.0
 40
2.0
 40
2.0
 40
2.0
 40
3.0
 40
3.0
 40
3.0
 40
3.0
 10
5.122269258449275
 20
-3.932994598501434
 10
5.150989763228961
 20
-3.908544450831641
 10
5.138968365448008
 20
-3.963541930917876
 10
5.141231269654326
 20
-3.977617078499128
 10
5.136436125410404
 20
-3.994077428467739
 10
5.162840995637982
 20
-4.048022222405961
 10
5.126200660979368
 20
-4.030857795127531
 10
5.116151619101148
 20
-4.002677387077558
 10
5.125208893946263
 20
-3.963358112290582
 10
5.122269258449275
 20
-3.932994598501434
 97
        0
 97
        1
330
12A
 92
        1
 93
        1
 72
     4
 94
        3
 73
     0
 74
     0
 95
       29
 96
       25
 40
0.0
 40
0.0
 40
0.0
 40
0.0
 40
1.0
 40
1.0
 40
1.0
 40
2.0
 40
2.0
 40
2.0
 40
3.0
 40
3.0
 40
3.0
 40
4.0
 40
4.0
 40
4.0
 40
5.0
 40
5.0
 40
5.0
 40
6.0
 40
6.0
 40
6.0
 40
7.0
 40
7.0
 40
7.0
 40
8.0
 40
8.0
 40
8.0
 40
8.0
 10
5.217646862615942
 20
-3.920163652320878
 10
5.239589051241964
 20
-3.912580672922432
 10
5.235902029052289
 20
-4.124240669516995
 10
5.222330161201423
 20
-4.129283493940571
 10
5.185802024454586
 20
-4.134006985379402
 10
5.223944450479595
 20
-4.068058924066209
 10
5.206702825697093
 20
-4.058713972662594
 10
5.185699574352788
 20
-4.070932752577568
 10
5.148972343695403
 20
-4.069608543411479
 10
5.126202024530837
 20
-4.062451749646293
 10
5.110015193699407
 20
-4.038254046755885
 10
5.160933751315698
 20
-4.05088461490762
 10
5.17301789549232
 20
-4.040911463312442
 10
5.20473925743181
 20
-4.044254663532051
 10
5.218210272592664
 20
-4.045662342228752
 10
5.211507712466603
 20
-4.009118154329724
 10
5.219721078804316
 20
-3.967282483308306
 10
5.205697967643522
 20
-3.975467397183491
 10
5.179708331310418
 20
-3.964521069659667
 10
5.234426410410429
 20
-3.943678394847893
 10
5.207622816835989
 20
-3.939456549806815
 10
5.164402980779262
 20
-3.9353388794236
 10
5.146932383635379
 20
-3.908938179193632
 10
5.205090429156775
 20
-3.923777678741164
 10
5.217646862615942
 20
-3.920163652320878
 97
        0
 97
        1
330
12B
 92
        1
 93
        1
 72
     4
 94
        3
 73
     0
 74
     0
 95
       11
 96
        7
 40
0.0
 40
0.0
 40
0.0
 40
0.0
 40
1.0
 40
1.0
 40
1.0
 40
2.0
 40
2.0
 40
2.0
 40
2.0
 10
5.077645777546497
 20
-4.091957272112545
 10
5.061402196778216
 20
-4.09182352879313
 10
5.061665624452441
 20
-4.066841603675154
 10
5.077647095900652
 20
-4.066580192413868
 10
5.093928402850299
 20
-4.066865802539546
 10
5.094197342533915
 20
-4.091809528049578
 10
5.077645777546497
 20
-4.091957272112545
 97
        0
 97
        1
330
12C
 92
        1
 93
        1
 72
     4
 94
        3
 73
     0
 74
     0
 95
       11
 96
        7
 40
0.0
 40
0.0
 40
0.0
 40
0.0
 40
1.0
 40
1.0
 40
1.0
 40
2.0
 40
2.0
 40
2.0
 40
2.0
 10
5.090476723727053
 20
-4.022105926626434
 10
5.090277751743315
 20
-4.038314939596476
 10
5.065145042109961
 20
-4.038494504227704
 10
5.065099759633337
 20
-4.022104505635247
 10
5.065141147535364
 20
-4.005706810970397
 10
5.090287716666655
 20
-4.005883960215038
 10
5.090476723727053
 20
-4.022105926626434
 97
        0
 97
        1
330
12D
 92
        1
 93
        1
 72
     4
 94
        3
 73
     0
 74
     0
 95
       29
 96
       25
 40
0.0
 40
0.0
 40
0.0
 40
0.0
 40
1.0
 40
1.0
 40
1.0
 40
2.0
 40
2.0
 40
2.0
 40
3.0
 40
3.0
 40
3.0
 40
4.0
 40
4.0
 40
4.0
 40
5.0
 40
5.0
 40
5.0
 40
6.0
 40
6.0
 40
6.0
 40
7.0
 40
7.0
 40
7.0
 40
8.0
 40
8.0
 40
8.0
 40
8.0
 10
5.033117240220108
 20
-3.920163652320878
 10
5.054166080657624
 20
-3.93117570224207
 10
5.032340346026431
 20
-3.971930115620655
 10
5.044376806400501
 20
-3.979084960979156
 10
5.070721357092022
 20
-3.964241047676043
 10
5.080127576846759
 20
-3.913000119021135
 10
5.109715393598561
 20
-3.920153876656083
 10
5.115580305386957
 20
-3.960971087604345
 10
5.044290900032162
 20
-3.976497288977624
 10
5.043519670750987
 20
-4.016190310843057
 10
5.052313317666453
 20
-4.057609386766292
 10
5.011143397636437
 20
-4.129018790534928
 10
5.084347605718321
 20
-4.111196602282411
 10
5.105334666810929
 20
-4.109362419861326
 10
5.124419378550505
 20
-4.119223675925923
 10
5.126194150282192
 20
-4.095956686483329
 10
5.165012001930285
 20
-4.081101954529811
 10
5.142635947440945
 20
-4.146844454696949
 10
5.109507125245752
 20
-4.130151847967655
 10
5.082504912971494
 20
-4.123482655440612
 10
5.01290940400986
 20
-4.150141164156694
 10
5.020474524485027
 20
-4.104794645379519
 10
5.029992548670204
 20
-4.048829487934603
 10
5.000700866634638
 20
-3.962307305824752
 10
5.033117240220108
 20
-3.920163652320878
 97
        0
 97
        1
330
12E
 75
     2
 76
     1
 98
        1
 10
0.0
 20
0.0
450
        0
451
        0
460
0.0
461
0.0
452
        0
462
0.0
453
        0
470

  0
SPLINE
  5
130
330
7C
100
AcDbEntity
  8
Poneglyph
100
AcDbSpline
210
0.0
220
0.0
230
1.0
 70
     9
 71
     3
 72
    11
 73
     7
 74
     0
 42
0.0000000001
 43
0.0000000001
 40
0.0
 40
0.0
 40
0.0
 40
0.0
 40
1.0
 40
1.0
 40
1.0
 40
2.0
 40
2.0
 40
2.0
 40
2.0
 10
5.431432669907608
 20
-4.101689566890589
 30
0.0
 10
5.454371250629113
 20
-4.102890219908418
 30
0.0
 10
5.454357280113526
 20
-4.12586069091176
 30
0.0
 10
5.431428580756143
 20
-4.127052873457602
 30
0.0
 10
5.415074103090975
 20
-4.126762194012106
 30
0.0
 10
5.414954953808268
 20
-4.101808402548423
 30
0.0
 10
5.431432669907608
 20
-4.101689566890589
 30
0.0
  0
SPLINE
  5
131
330
7C
100
AcDbEntity
  8
Poneglyph
100
AcDbSpline
210
0.0
220
0.0
230
1.0
 70
     9
 71
     3
 72
    11
 73
     7
 74
     0
 42
0.0000000001
 43
0.0000000001
 40
0.0
 40
0.0
 40
0.0
 40
0.0
 40
1.0
 40
1.0
 40
1.0
 40
2.0
 40
2.0
 40
2.0
 40
2.0
 10
5.450394258449275
 20
-3.974370230953089
 30
0.0
 10
5.446870447566348
 20
-3.988604917571756
 30
0.0
 10
5.419326612608553
 20
-3.992473986365931
 30
0.0
 10
5.418602241753837
 20
-3.974369416199944
 30
0.0
 10
5.419151726087268
 20
-3.956120718089714
 30
0.0
 10
5.446920809928567
 20
-3.96021249305996
 30
0.0
 10
5.450394258449275
 20
-3.974370230953089
 30
0.0
  0
SPLINE
  5
132
330
7C
100
AcDbEntity
  8
Poneglyph
100
AcDbSpline
210
0.0
220
0.0
230
1.0
 70
     9
 71
     3
 72
    29
 73
    25
 74
     0
 42
0.0000000001
 43
0.0000000001
 40
0.0
 40
0.0
 40
0.0
 40
0.0
 40
1.0
 40
1.0
 40
1.0
 40
2.0
 40
2.0
 40
2.0
 40
3.0
 40
3.0
 40
3.0
 40
4.0
 40
4.0
 40
4.0
 40
5.0
 40
5.0
 40
5.0
 40
6.0
 40
6.0
 40
6.0
 40
7.0
 40
7.0
 40
7.0
 40
8.0
 40
8.0
 40
8.0
 40
8.0
 10
5.482186793171497
 20
-3.916766606821144
 30
0.0
 10
5.505923024153061
 20
-3.913077396424202
 30
0.0
 10
5.499773363943808
 20
-4.145016615548544
 30
0.0
 10
5.482205393789828
 20
-4.133183664807006
 30
0.0
 10
5.453355459965096
 20
-4.134731969381505
 30
0.0
 10
5.485070591123707
 20
-4.103474653322172
 30
0.0
 10
5.475906106022648
 20
-4.089876651762134
 30
0.0
 10
5.471767339319385
 20
-4.076028391460403
 30
0.0
 10
5.401074691191524
 20
-4.097648067393328
 30
0.0
 10
5.431429090207782
 20
-4.063473721475967
 30
0.0
 10
5.462061129431579
 20
-4.064106395973074
 30
0.0
 10
5.477403629915948
 20
-4.071971179033488
 30
0.0
 10
5.471378390098051
 20
-4.036634272473557
 30
0.0
 10
5.483347253733224
 20
-4.011388450159314
 30
0.0
 10
5.426672107285209
 20
-4.030420358868228
 30
0.0
 10
5.412190419950042
 20
-4.025268211080085
 30
0.0
 10
5.385723783965381
 20
-4.001756559930287
 30
0.0
 10
5.43521375359286
 20
-4.005915393993101
 30
0.0
 10
5.450393205790078
 20
-4.006315801461078
 30
0.0
 10
5.497313624658772
 20
-4.02153190285997
 30
0.0
 10
5.457646693578226
 20
-3.964782257588328
 30
0.0
 10
5.475783246037078
 20
-3.942145727209826
 30
0.0
 10
5.426900957348379
 20
-3.944065890539617
 30
0.0
 10
5.442554266485911
 20
-3.918964899050617
 30
0.0
 10
5.482186793171497
 20
-3.916766606821144
 30
0.0
  0
SPLINE
  5
133
330
7C
100
AcDbEntity
  8
Poneglyph
100
AcDbSpline
210
0.0
220
0.0
230
1.0
 70
     9
 71
     3
 72
    38
 73
    34
 74
     0
 42
0.0000000001
 43
0.0000000001
 40
0.0
 40
0.0
 40
0.0
 40
0.0
 40
1.0
 40
1.0
 40
1.0
 40
2.0
 40
2.0
 40
2.0
 40
3.0
 40
3.0
 40
3.0
 40
4.0
 40
4.0
 40
4.0
 40
5.0
 40
5.0
 40
5.0
 40
6.0
 40
6.0
 40
6.0
 40
7.0
 40
7.0
 40
7.0
 40
8.0
 40
8.0
 40
8.0
 40
9.0
 40
9.0
 40
9.0
 40
10.0
 40
10.0
 40
10.0
 40
11.0
 40
11.0
 40
11.0
 40
11.0
 10
5.348302787095108
 20
-3.923182079911422
 30
0.0
 10
5.380186520949084
 20
-3.905990288621814
 30
0.0
 10
5.423234573278755
 20
-3.965097108916463
 30
0.0
 10
5.373975818797664
 20
-3.967812167927288
 30
0.0
 10
5.377327369028837
 20
-3.921645510755183
 30
0.0
 10
5.284566975365401
 20
-3.937089678282454
 30
0.0
 10
5.311126482879999
 20
-3.989982640062521
 30
0.0
 10
5.354240264968262
 20
-4.01891748079711
 30
0.0
 10
5.39377189112022
 20
-4.007546195912545
 30
0.0
 10
5.380080350976261
 20
-4.082438566257236
 30
0.0
 10
5.416336916090888
 20
-4.146417494868639
 30
0.0
 10
5.324624689739089
 20
-4.138232203283488
 30
0.0
 10
5.287901579282712
 20
-4.129389359622475
 30
0.0
 10
5.265264800532627
 20
-4.106117073966654
 30
0.0
 10
5.301939262572305
 20
-4.075881610983982
 30
0.0
 10
5.303987260649819
 20
-4.114221655994962
 30
0.0
 10
5.303977700289553
 20
-4.114222118973922
 30
0.0
 10
5.316808646470108
 20
-4.114222118973922
 30
0.0
 10
5.316808646470108
 20
-4.114222118973922
 30
0.0
 10
5.323219945146345
 20
-4.086011215996942
 30
0.0
 10
5.300705507165225
 20
-4.057728276028139
 30
0.0
 10
5.322946645280605
 20
-4.031390861224141
 30
0.0
 10
5.348447108685326
 20
-4.0392893891515
 30
0.0
 10
5.332330792130353
 20
-4.086434103932067
 30
0.0
 10
5.333145475180369
 20
-4.106637771946995
 30
0.0
 10
5.358018996060788
 20
-4.141714817302234
 30
0.0
 10
5.36791306619908
 20
-4.092224852839927
 30
0.0
 10
5.361135254282417
 20
-4.069601402319916
 30
0.0
 10
5.372060969729369
 20
-4.023279334183635
 30
0.0
 10
5.334963192040251
 20
-4.030941413461846
 30
0.0
 10
5.303971472120312
 20
-4.012429634380509
 30
0.0
 10
5.262236204829428
 20
-3.976074858075877
 30
0.0
 10
5.290682514955935
 20
-3.91082952006828
 30
0.0
 10
5.348302787095108
 20
-3.923182079911422
 30
0.0
  0
HATCH
  5
134
330
7C
100
AcDbEntity
  8
Poneglyph
 62
   250
420
  2301728
440
 33554687
100
AcDbHatch
 10
0.0
 20
0.0
 30
0.0
210
0.0
220
0.0
230
1.0
  2
SOLID
 70
     1
 71
     1
 91
        4
 92
        1
 93
        1
 72
     4
 94
        3
 73
     0
 74
     0
 95
       11
 96
        7
 40
0.0
 40
0.0
 40
0.0
 40
0.0
 40
1.0
 40
1.0
 40
1.0
 40
2.0
 40
2.0
 40
2.0
 40
2.0
 10
5.431432669907608
 20
-4.101689566890589
 10
5.454371250629113
 20
-4.102890219908418
 10
5.454357280113526
 20
-4.12586069091176
 10
5.431428580756143
 20
-4.127052873457602
 10
5.415074103090975
 20
-4.126762194012106
 10
5.414954953808268
 20
-4.101808402548423
 10
5.431432669907608
 20
-4.101689566890589
 97
        0
 97
        1
330
130
 92
        1
 93
        1
 72
     4
 94
        3
 73
     0
 74
     0
 95
       11
 96
        7
 40
0.0
 40
0.0
 40
0.0
 40
0.0
 40
1.0
 40
1.0
 40
1.0
 40
2.0
 40
2.0
 40
2.0
 40
2.0
 10
5.450394258449275
 20
-3.974370230953089
 10
5.446870447566348
 20
-3.988604917571756
 10
5.419326612608553
 20
-3.992473986365931
 10
5.418602241753837
 20
-3.974369416199944
 10
5.419151726087268
 20
-3.956120718089714
 10
5.446920809928567
 20
-3.96021249305996
 10
5.450394258449275
 20
-3.974370230953089
 97
        0
 97
        1
330
131
 92
        1
 93
        1
 72
     4
 94
        3
 73
     0
 74
     0
 95
       29
 96
       25
 40
0.0
 40
0.0
 40
0.0
 40
0.0
 40
1.0
 40
1.0
 40
1.0
 40
2.0
 40
2.0
 40
2.0
 40
3.0
 40
3.0
 40
3.0
 40
4.0
 40
4.0
 40
4.0
 40
5.0
 40
5.0
 40
5.0
 40
6.0
 40
6.0
 40
6.0
 40
7.0
 40
7.0
 40
7.0
 40
8.0
 40
8.0
 40
8.0
 40
8.0
 10
5.482186793171497
 20
-3.916766606821144
 10
5.505923024153061
 20
-3.913077396424202
 10
5.499773363943808
 20
-4.145016615548544
 10
5.482205393789828
 20
-4.133183664807006
 10
5.453355459965096
 20
-4.134731969381505
 10
5.485070591123707
 20
-4.103474653322172
 10
5.475906106022648
 20
-4.089876651762134
 10
5.471767339319385
 20
-4.076028391460403
 10
5.401074691191524
 20
-4.097648067393328
 10
5.431429090207782
 20
-4.063473721475967
 10
5.462061129431579
 20
-4.064106395973074
 10
5.477403629915948
 20
-4.071971179033488
 10
5.471378390098051
 20
-4.036634272473557
 10
5.483347253733224
 20
-4.011388450159314
 10
5.426672107285209
 20
-4.030420358868228
 10
5.412190419950042
 20
-4.025268211080085
 10
5.385723783965381
 20
-4.001756559930287
 10
5.43521375359286
 20
-4.005915393993101
 10
5.450393205790078
 20
-4.006315801461078
 10
5.497313624658772
 20
-4.02153190285997
 10
5.457646693578226
 20
-3.964782257588328
 10
5.475783246037078
 20
-3.942145727209826
 10
5.426900957348379
 20
-3.944065890539617
 10
5.442554266485911
 20
-3.918964899050617
 10
5.482186793171497
 20
-3.916766606821144
 97
        0
 97
        1
330
132
 92
        1
 93
        1
 72
     4
 94
        3
 73
     0
 74
     0
 95
       38
 96
       34
 40
0.0
 40
0.0
 40
0.0
 40
0.0
 40
1.0
 40
1.0
 40
1.0
 40
2.0
 40
2.0
 40
2.0
 40
3.0
 40
3.0
 40
3.0
 40
4.0
 40
4.0
 40
4.0
 40
5.0
 40
5.0
 40
5.0
 40
6.0
 40
6.0
 40
6.0
 40
7.0
 40
7.0
 40
7.0
 40
8.0
 40
8.0
 40
8.0
 40
9.0
 40
9.0
 40
9.0
 40
10.0
 40
10.0
 40
10.0
 40
11.0
 40
11.0
 40
11.0
 40
11.0
 10
5.348302787095108
 20
-3.923182079911422
 10
5.380186520949084
 20
-3.905990288621814
 10
5.423234573278755
 20
-3.965097108916463
 10
5.373975818797664
 20
-3.967812167927288
 10
5.377327369028837
 20
-3.921645510755183
 10
5.284566975365401
 20
-3.937089678282454
 10
5.311126482879999
 20
-3.989982640062521
 10
5.354240264968262
 20
-4.01891748079711
 10
5.39377189112022
 20
-4.007546195912545
 10
5.380080350976261
 20
-4.082438566257236
 10
5.416336916090888
 20
-4.146417494868639
 10
5.324624689739089
 20
-4.138232203283488
 10
5.287901579282712
 20
-4.129389359622475
 10
5.265264800532627
 20
-4.106117073966654
 10
5.301939262572305
 20
-4.075881610983982
 10
5.303987260649819
 20
-4.114221655994962
 10
5.303977700289553
 20
-4.114222118973922
 10
5.316808646470108
 20
-4.114222118973922
 10
5.316808646470108
 20
-4.114222118973922
 10
5.323219945146345
 20
-4.086011215996942
 10
5.300705507165225
 20
-4.057728276028139
 10
5.322946645280605
 20
-4.031390861224141
 10
5.348447108685326
 20
-4.0392893891515
 10
5.332330792130353
 20
-4.086434103932067
 10
5.333145475180369
 20
-4.106637771946995
 10
5.358018996060788
 20
-4.141714817302234
 10
5.36791306619908
 20
-4.092224852839927
 10
5.361135254282417
 20
-4.069601402319916
 10
5.372060969729369
 20
-4.023279334183635
 10
5.334963192040251
 20
-4.030941413461846
 10
5.303971472120312
 20
-4.012429634380509
 10
5.262236204829428
 20
-3.976074858075877
 10
5.290682514955935
 20
-3.91082952006828
 10
5.348302787095108
 20
-3.923182079911422
 97
        0
 97
        1
330
133
 75
     2
 76
     1
 98
        1
 10
0.0
 20
0.0
450
        0
451
        0
460
0.0
461
0.0
452
        0
462
0.0
453
        0
470

  0
SPLINE
  5
135
330
7C
100
AcDbEntity
  8
Poneglyph
100
AcDbSpline
210
0.0
220
0.0
230
1.0
 70
     9
 71
     3
 72
    11
 73
     7
 74
     0
 42
0.0000000001
 43
0.0000000001
 40
0.0
 40
0.0
 40
0.0
 40
0.0
 40
1.0
 40
1.0
 40
1.0
 40
2.0
 40
2.0
 40
2.0
 40
2.0
 10
5.654862031886775
 20
-4.076364739762652
 30
0.0
 10
5.59456119791399
 20
-4.038400017239066
 30
0.0
 10
5.641080567054586
 20
-4.037538017126014
 30
0.0
 10
5.68359905108582
 20
-4.031309427891035
 30
0.0
 10
5.697269452097518
 20
-4.044982210839293
 30
0.0
 10
5.674951699458284
 20
-4.081447040129091
 30
0.0
 10
5.654862031886775
 20
-4.076364739762652
 30
0.0
  0
SPLINE
  5
136
330
7C
100
AcDbEntity
  8
Poneglyph
100
AcDbSpline
210
0.0
220
0.0
230
1.0
 70
     9
 71
     3
 72
    11
 73
     7
 74
     0
 42
0.0000000001
 43
0.0000000001
 40
0.0
 40
0.0
 40
0.0
 40
0.0
 40
1.0
 40
1.0
 40
1.0
 40
2.0
 40
2.0
 40
2.0
 40
2.0
 10
5.70736582962983
 20
-4.010446771012652
 30
0.0
 10
5.692092995712729
 20
-4.016654627479624
 30
0.0
 10
5.570295601013362
 20
-4.040197514317532
 30
0.0
 10
5.583409253762712
 20
-4.004783976106497
 30
0.0
 10
5.616461550401405
 20
-4.000109008309095
 30
0.0
 10
5.685238757763904
 20
-3.981770482345849
 30
0.0
 10
5.70736582962983
 20
-4.010446771012652
 30
0.0
  0
SPLINE
  5
137
330
7C
100
AcDbEntity
  8
Poneglyph
100
AcDbSpline
210
0.0
220
0.0
230
1.0
 70
     9
 71
     3
 72
    26
 73
    22
 74
     0
 42
0.0000000001
 43
0.0000000001
 40
0.0
 40
0.0
 40
0.0
 40
0.0
 40
1.0
 40
1.0
 40
1.0
 40
2.0
 40
2.0
 40
2.0
 40
3.0
 40
3.0
 40
3.0
 40
4.0
 40
4.0
 40
4.0
 40
5.0
 40
5.0
 40
5.0
 40
6.0
 40
6.0
 40
6.0
 40
7.0
 40
7.0
 40
7.0
 40
7.0
 10
5.746740287095108
 20
-3.958241367366819
 30
0.0
 10
5.765646580345648
 20
-3.952911715375055
 30
0.0
 10
5.736874272374986
 20
-4.027248866687045
 30
0.0
 10
5.746755323284812
 20
-4.056820076553182
 30
0.0
 10
5.759398302882724
 20
-4.116743297280095
 30
0.0
 10
5.723808779971325
 20
-4.146411244590088
 30
0.0
 10
5.665648205849897
 20
-4.132068437031281
 30
0.0
 10
5.669356240758108
 20
-4.08778880340296
 30
0.0
 10
5.740076126813568
 20
-4.154255208509905
 30
0.0
 10
5.720474975274706
 20
-4.043695847418663
 30
0.0
 10
5.736689460898332
 20
-3.952842333798129
 30
0.0
 10
5.690129018097573
 20
-3.980890311859878
 30
0.0
 10
5.621891727461489
 20
-3.977791495802458
 30
0.0
 10
5.524292002368357
 20
-3.96671711420639
 30
0.0
 10
5.658905329683546
 20
-3.950334692372368
 30
0.0
 10
5.694232196483653
 20
-3.958259552879869
 30
0.0
 10
5.724535427322254
 20
-3.967143873019456
 30
0.0
 10
5.72946238019593
 20
-3.951012910185896
 30
0.0
 10
5.720487181957827
 20
-3.925279120661709
 30
0.0
 10
5.746565375974695
 20
-3.902707456055408
 30
0.0
 10
5.749121691049746
 20
-3.941175441481201
 30
0.0
 10
5.746740287095108
 20
-3.958241367366819
 30
0.0
  0
SPLINE
  5
138
330
7C
100
AcDbEntity
  8
Poneglyph
100
AcDbSpline
210
0.0
220
0.0
230
1.0
 70
     9
 71
     3
 72
    20
 73
    16
 74
     0
 42
0.0000000001
 43
0.0000000001
 40
0.0
 40
0.0
 40
0.0
 40
0.0
 40
1.0
 40
1.0
 40
1.0
 40
2.0
 40
2.0
 40
2.0
 40
3.0
 40
3.0
 40
3.0
 40
4.0
 40
4.0
 40
4.0
 40
5.0
 40
5.0
 40
5.0
 40
5.0
 10
5.60235823414372
 20
-4.08949408004043
 30
0.0
 10
5.559780293176572
 20
-4.054630565566222
 30
0.0
 10
5.538674151668626
 20
-4.130579781979488
 30
0.0
 10
5.58924086060809
 20
-4.115745843999509
 30
0.0
 10
5.652905637976244
 20
-4.113565682918546
 30
0.0
 10
5.606988325678027
 20
-4.146302623025336
 30
0.0
 10
5.569397333043929
 20
-4.135270792559733
 30
0.0
 10
5.515115744732762
 20
-4.149448834907754
 30
0.0
 10
5.537901990919079
 20
-4.057340904385695
 30
0.0
 10
5.540805451864621
 20
-4.02707473092476
 30
0.0
 10
5.565130662763319
 20
-4.012978619920671
 30
0.0
 10
5.56199340694257
 20
-4.053556735245706
 30
0.0
 10
5.55627648186588
 20
-4.063243054948076
 30
0.0
 10
5.573263236139281
 20
-4.06374623197928
 30
0.0
 10
5.644167914537168
 20
-4.062191740519526
 30
0.0
 10
5.60235823414372
 20
-4.08949408004043
 30
0.0
  0
SPLINE
  5
139
330
7C
100
AcDbEntity
  8
Poneglyph
100
AcDbSpline
210
0.0
220
0.0
230
1.0
 70
     9
 71
     3
 72
    11
 73
     7
 74
     0
 42
0.0000000001
 43
0.0000000001
 40
0.0
 40
0.0
 40
0.0
 40
0.0
 40
1.0
 40
1.0
 40
1.0
 40
2.0
 40
2.0
 40
2.0
 40
2.0
 10
5.61520274369233
 20
-3.925282382991819
 30
0.0
 10
5.575402116654913
 20
-3.963628602152829
 30
0.0
 10
5.538944085346908
 20
-3.900638792145867
 30
0.0
 10
5.563002187418659
 20
-3.99734662483839
 30
0.0
 10
5.53604785221733
 20
-4.059642799604804
 30
0.0
 10
5.49309714864085
 20
-3.868306949961013
 30
0.0
 10
5.61520274369233
 20
-3.925282382991819
 30
0.0
  0
HATCH
  5
13A
330
7C
100
AcDbEntity
  8
Poneglyph
 62
   250
420
  2301728
440
 33554687
100
AcDbHatch
 10
0.0
 20
0.0
 30
0.0
210
0.0
220
0.0
230
1.0
  2
SOLID
 70
     1
 71
     1
 91
        5
 92
        1
 93
        1
 72
     4
 94
        3
 73
     0
 74
     0
 95
       11
 96
        7
 40
0.0
 40
0.0
 40
0.0
 40
0.0
 40
1.0
 40
1.0
 40
1.0
 40
2.0
 40
2.0
 40
2.0
 40
2.0
 10
5.654862031886775
 20
-4.076364739762652
 10
5.59456119791399
 20
-4.038400017239066
 10
5.641080567054586
 20
-4.037538017126014
 10
5.68359905108582
 20
-4.031309427891035
 10
5.697269452097518
 20
-4.044982210839293
 10
5.674951699458284
 20
-4.081447040129091
 10
5.654862031886775
 20
-4.076364739762652
 97
        0
 97
        1
330
135
 92
        1
 93
        1
 72
     4
 94
        3
 73
     0
 74
     0
 95
       11
 96
        7
 40
0.0
 40
0.0
 40
0.0
 40
0.0
 40
1.0
 40
1.0
 40
1.0
 40
2.0
 40
2.0
 40
2.0
 40
2.0
 10
5.70736582962983
 20
-4.010446771012652
 10
5.692092995712729
 20
-4.016654627479624
 10
5.570295601013362
 20
-4.040197514317532
 10
5.583409253762712
 20
-4.004783976106497
 10
5.616461550401405
 20
-4.000109008309095
 10
5.685238757763904
 20
-3.981770482345849
 10
5.70736582962983
 20
-4.010446771012652
 97
        0
 97
        1
330
136
 92
        1
 93
        1
 72
     4
 94
        3
 73
     0
 74
     0
 95
       26
 96
       22
 40
0.0
 40
0.0
 40
0.0
 40
0.0
 40
1.0
 40
1.0
 40
1.0
 40
2.0
 40
2.0
 40
2.0
 40
3.0
 40
3.0
 40
3.0
 40
4.0
 40
4.0
 40
4.0
 40
5.0
 40
5.0
 40
5.0
 40
6.0
 40
6.0
 40
6.0
 40
7.0
 40
7.0
 40
7.0
 40
7.0
 10
5.746740287095108
 20
-3.958241367366819
 10
5.765646580345648
 20
-3.952911715375055
 10
5.736874272374986
 20
-4.027248866687045
 10
5.746755323284812
 20
-4.056820076553182
 10
5.759398302882724
 20
-4.116743297280095
 10
5.723808779971325
 20
-4.146411244590088
 10
5.665648205849897
 20
-4.132068437031281
 10
5.669356240758108
 20
-4.08778880340296
 10
5.740076126813568
 20
-4.154255208509905
 10
5.720474975274706
 20
-4.043695847418663
 10
5.736689460898332
 20
-3.952842333798129
 10
5.690129018097573
 20
-3.980890311859878
 10
5.621891727461489
 20
-3.977791495802458
 10
5.524292002368357
 20
-3.96671711420639
 10
5.658905329683546
 20
-3.950334692372368
 10
5.694232196483653
 20
-3.958259552879869
 10
5.724535427322254
 20
-3.967143873019456
 10
5.72946238019593
 20
-3.951012910185896
 10
5.720487181957827
 20
-3.925279120661709
 10
5.746565375974695
 20
-3.902707456055408
 10
5.749121691049746
 20
-3.941175441481201
 10
5.746740287095108
 20
-3.958241367366819
 97
        0
 97
        1
330
137
 92
        1
 93
        1
 72
     4
 94
        3
 73
     0
 74
     0
 95
       20
 96
       16
 40
0.0
 40
0.0
 40
0.0
 40
0.0
 40
1.0
 40
1.0
 40
1.0
 40
2.0
 40
2.0
 40
2.0
 40
3.0
 40
3.0
 40
3.0
 40
4.0
 40
4.0
 40
4.0
 40
5.0
 40
5.0
 40
5.0
 40
5.0
 10
5.60235823414372
 20
-4.08949408004043
 10
5.559780293176572
 20
-4.054630565566222
 10
5.538674151668626
 20
-4.130579781979488
 10
5.58924086060809
 20
-4.115745843999509
 10
5.652905637976244
 20
-4.113565682918546
 10
5.606988325678027
 20
-4.146302623025336
 10
5.569397333043929
 20
-4.135270792559733
 10
5.515115744732762
 20
-4.149448834907754
 10
5.537901990919079
 20
-4.057340904385695
 10
5.540805451864621
 20
-4.02707473092476
 10
5.565130662763319
 20
-4.012978619920671
 10
5.56199340694257
 20
-4.053556735245706
 10
5.55627648186588
 20
-4.063243054948076
 10
5.573263236139281
 20
-4.06374623197928
 10
5.644167914537168
 20
-4.062191740519526
 10
5.60235823414372
 20
-4.08949408004043
 97
        0
 97
        1
330
138
 92
        1
 93
        1
 72
     4
 94
        3
 73
     0
 74
     0
 95
       11
 96
        7
 40
0.0
 40
0.0
 40
0.0
 40
0.0
 40
1.0
 40
1.0
 40
1.0
 40
2.0
 40
2.0
 40
2.0
 40
2.0
 10
5.61520274369233
 20
-3.925282382991819
 10
5.575402116654913
 20
-3.963628602152829
 10
5.538944085346908
 20
-3.900638792145867
 10
5.563002187418659
 20
-3.99734662483839
 10
5.53604785221733
 20
-4.059642799604804
 10
5.49309714864085
 20
-3.868306949961013
 10
5.61520274369233
 20
-3.925282382991819
 97
        0
 97
        1
330
139
 75
     2
 76
     1
 98
        1
 10
0.0
 20
0.0
450
        0
451
        0
460
0.0
461
0.0
452
        0
462
0.0
453
        0
470

  0
SPLINE
  5
13B
330
7C
100
AcDbEntity
  8
Poneglyph
100
AcDbSpline
210
0.0
220
0.0
230
1.0
 70
     9
 71
     3
 72
    11
 73
     7
 74
     0
 42
0.0000000001
 43
0.0000000001
 40
0.0
 40
0.0
 40
0.0
 40
0.0
 40
1.0
 40
1.0
 40
1.0
 40
2.0
 40
2.0
 40
2.0
 40
2.0
 10
5.966656736747887
 20
-4.016298578936117
 30
0.0
 10
5.966246650047247
 20
-4.032077647479392
 30
0.0
 10
5.935045268182218
 20
-4.034424402065509
 30
0.0
 10
5.934864262356212
 20
-4.016297963291827
 30
0.0
 10
5.932250445356076
 20
-3.990496361184581
 30
0.0
 10
5.968838938226276
 20
-3.992305794743073
 30
0.0
 10
5.966656736747887
 20
-4.016298578936117
 30
0.0
  0
SPLINE
  5
13C
330
7C
100
AcDbEntity
  8
Poneglyph
100
AcDbSpline
210
0.0
220
0.0
230
1.0
 70
     9
 71
     3
 72
    11
 73
     7
 74
     0
 42
0.0000000001
 43
0.0000000001
 40
0.0
 40
0.0
 40
0.0
 40
0.0
 40
1.0
 40
1.0
 40
1.0
 40
2.0
 40
2.0
 40
2.0
 40
2.0
 10
5.864863659490942
 20
-4.048281000811117
 30
0.0
 10
5.880966054716483
 20
-4.027121969779638
 30
0.0
 10
6.037463197013114
 20
-4.04918907785111
 30
0.0
 10
5.941279577560483
 20
-4.060929102214294
 30
0.0
 10
5.920069891856201
 20
-4.055685270786435
 30
0.0
 10
5.873255775462817
 20
-4.074065016632061
 30
0.0
 10
5.864863659490942
 20
-4.048281000811117
 30
0.0
  0
SPLINE
  5
13D
330
7C
100
AcDbEntity
  8
Poneglyph
100
AcDbSpline
210
0.0
220
0.0
230
1.0
 70
     9
 71
     3
 72
    11
 73
     7
 74
     0
 42
0.0000000001
 43
0.0000000001
 40
0.0
 40
0.0
 40
0.0
 40
0.0
 40
1.0
 40
1.0
 40
1.0
 40
2.0
 40
2.0
 40
2.0
 40
2.0
 10
5.858448186400664
 20
-3.95912898258195
 30
0.0
 10
5.88623592859858
 20
-3.964347447273679
 30
0.0
 10
5.86184218772362
 20
-3.996667080726094
 30
0.0
 10
5.844300282713346
 20
-3.980569205291948
 30
0.0
 10
5.832306898602281
 20
-3.970721056867343
 30
0.0
 10
5.845036250922728
 20
-3.957821648261427
 30
0.0
 10
5.858448186400664
 20
-3.95912898258195
 30
0.0
  0
SPLINE
  5
13E
330
7C
100
AcDbEntity
  8
Poneglyph
100
AcDbSpline
210
0.0
220
0.0
230
1.0
 70
     9
 71
     3
 72
    11
 73
     7
 74
     0
 42
0.0000000001
 43
0.0000000001
 40
0.0
 40
0.0
 40
0.0
 40
0.0
 40
1.0
 40
1.0
 40
1.0
 40
2.0
 40
2.0
 40
2.0
 40
2.0
 10
5.858448186400664
 20
-4.003752463484728
 30
0.0
 10
5.897064704534638
 20
-4.006913347151882
 30
0.0
 10
5.904095900463895
 20
-3.948305107888535
 30
0.0
 10
5.868076952716592
 20
-3.940615055922118
 30
0.0
 10
5.817245600177683
 20
-3.925296012467583
 30
0.0
 10
5.805526746440945
 20
-4.003153003517846
 30
0.0
 10
5.858448186400664
 20
-4.003752463484728
 30
0.0
  0
SPLINE
  5
13F
330
7C
100
AcDbEntity
  8
Poneglyph
100
AcDbSpline
210
0.0
220
0.0
230
1.0
 70
     9
 71
     3
 72
    32
 73
    28
 74
     0
 42
0.0000000001
 43
0.0000000001
 40
0.0
 40
0.0
 40
0.0
 40
0.0
 40
1.0
 40
1.0
 40
1.0
 40
2.0
 40
2.0
 40
2.0
 40
3.0
 40
3.0
 40
3.0
 40
4.0
 40
4.0
 40
4.0
 40
5.0
 40
5.0
 40
5.0
 40
6.0
 40
6.0
 40
6.0
 40
7.0
 40
7.0
 40
7.0
 40
8.0
 40
8.0
 40
8.0
 40
9.0
 40
9.0
 40
9.0
 40
9.0
 10
5.998449271470108
 20
-3.965544455672228
 30
0.0
 10
6.024306044324904
 20
-3.976771115681875
 30
0.0
 10
5.988264896138212
 20
-4.219249258949363
 30
0.0
 10
5.984871128748434
 20
-4.100443951819126
 30
0.0
 10
5.966944607310147
 20
-4.079980872198587
 30
0.0
 10
5.910060977434568
 20
-4.098911581426224
 30
0.0
 10
5.890242514741935
 20
-4.099112348572626
 30
0.0
 10
5.881615992071197
 20
-4.117460521943093
 30
0.0
 10
5.869975961996993
 20
-4.1549044577575
 30
0.0
 10
5.864846128044518
 20
-4.105538181551373
 30
0.0
 10
5.850289240094601
 20
-4.026225724291596
 30
0.0
 10
5.994054336849002
 20
-4.12029604916702
 30
0.0
 10
5.984890155089487
 20
-4.053600737427498
 30
0.0
 10
5.984860647325755
 20
-3.964146124473283
 30
0.0
 10
5.975483460381004
 20
-4.011516785166362
 30
0.0
 10
5.915603580081728
 20
-3.971688431165211
 30
0.0
 10
5.908391957222975
 20
-4.030830081853625
 30
0.0
 10
5.834940395825721
 20
-4.038676361741218
 30
0.0
 10
5.803173618015862
 20
-3.995731759774912
 30
0.0
 10
5.782079516246085
 20
-3.925319637431268
 30
0.0
 10
5.879539791354696
 20
-3.887298196005316
 30
0.0
 10
5.90920595699097
 20
-3.952721309804562
 30
0.0
 10
5.909443816167291
 20
-3.933970590877189
 30
0.0
 10
5.91303973972827
 20
-3.905135548324942
 30
0.0
 10
5.934876276204704
 20
-3.927336159299544
 30
0.0
 10
5.914100641101084
 20
-3.990188834813693
 30
0.0
 10
5.973195348461861
 20
-3.959320299329558
 30
0.0
 10
5.998449271470108
 20
-3.965544455672228
 30
0.0
  0
SPLINE
  5
140
330
7C
100
AcDbEntity
  8
Poneglyph
100
AcDbSpline
210
0.0
220
0.0
230
1.0
 70
     9
 71
     3
 72
    17
 73
    13
 74
     0
 42
0.0000000001
 43
0.0000000001
 40
0.0
 40
0.0
 40
0.0
 40
0.0
 40
1.0
 40
1.0
 40
1.0
 40
2.0
 40
2.0
 40
2.0
 40
3.0
 40
3.0
 40
3.0
 40
4.0
 40
4.0
 40
4.0
 40
4.0
 10
5.839486597858997
 20
-4.029129525116672
 30
0.0
 10
5.866415890627422
 20
-4.037774366345792
 30
0.0
 10
5.846035960562807
 20
-4.08865805286886
 30
0.0
 10
5.852041633134578
 20
-4.111957822431084
 30
0.0
 10
5.851682764823736
 20
-4.132431385910459
 30
0.0
 10
5.778816819059961
 20
-4.13219542372408
 30
0.0
 10
5.797629679301962
 20
-4.106568177476636
 30
0.0
 10
5.844577544989609
 20
-4.119306539516211
 30
0.0
 10
5.834622189326005
 20
-4.079986665921763
 30
0.0
 10
5.833071970468558
 20
-4.048082464101715
 30
0.0
 10
5.776696381368942
 20
-4.050941253884135
 30
0.0
 10
5.792383478942282
 20
-4.021367709020106
 30
0.0
 10
5.839486597858997
 20
-4.029129525116672
 30
0.0
  0
HATCH
  5
141
330
7C
100
AcDbEntity
  8
Poneglyph
 62
   250
420
  2301728
440
 33554687
100
AcDbHatch
 10
0.0
 20
0.0
 30
0.0
210
0.0
220
0.0
230
1.0
  2
SOLID
 70
     1
 71
     1
 91
        6
 92
        1
 93
        1
 72
     4
 94
        3
 73
     0
 74
     0
 95
       11
 96
        7
 40
0.0
 40
0.0
 40
0.0
 40
0.0
 40
1.0
 40
1.0
 40
1.0
 40
2.0
 40
2.0
 40
2.0
 40
2.0
 10
5.966656736747887
 20
-4.016298578936117
 10
5.966246650047247
 20
-4.032077647479392
 10
5.935045268182218
 20
-4.034424402065509
 10
5.934864262356212
 20
-4.016297963291827
 10
5.932250445356076
 20
-3.990496361184581
 10
5.968838938226276
 20
-3.992305794743073
 10
5.966656736747887
 20
-4.016298578936117
 97
        0
 97
        1
330
13B
 92
        1
 93
        1
 72
     4
 94
        3
 73
     0
 74
     0
 95
       11
 96
        7
 40
0.0
 40
0.0
 40
0.0
 40
0.0
 40
1.0
 40
1.0
 40
1.0
 40
2.0
 40
2.0
 40
2.0
 40
2.0
 10
5.864863659490942
 20
-4.048281000811117
 10
5.880966054716483
 20
-4.027121969779638
 10
6.037463197013114
 20
-4.04918907785111
 10
5.941279577560483
 20
-4.060929102214294
 10
5.920069891856201
 20
-4.055685270786435
 10
5.873255775462817
 20
-4.074065016632061
 10
5.864863659490942
 20
-4.048281000811117
 97
        0
 97
        1
330
13C
 92
        1
 93
        1
 72
     4
 94
        3
 73
     0
 74
     0
 95
       11
 96
        7
 40
0.0
 40
0.0
 40
0.0
 40
0.0
 40
1.0
 40
1.0
 40
1.0
 40
2.0
 40
2.0
 40
2.0
 40
2.0
 10
5.858448186400664
 20
-3.95912898258195
 10
5.88623592859858
 20
-3.964347447273679
 10
5.86184218772362
 20
-3.996667080726094
 10
5.844300282713346
 20
-3.980569205291948
 10
5.832306898602281
 20
-3.970721056867343
 10
5.845036250922728
 20
-3.957821648261427
 10
5.858448186400664
 20
-3.95912898258195
 97
        0
 97
        1
330
13D
 92
        1
 93
        1
 72
     4
 94
        3
 73
     0
 74
     0
 95
       11
 96
        7
 40
0.0
 40
0.0
 40
0.0
 40
0.0
 40
1.0
 40
1.0
 40
1.0
 40
2.0
 40
2.0
 40
2.0
 40
2.0
 10
5.858448186400664
 20
-4.003752463484728
 10
5.897064704534638
 20
-4.006913347151882
 10
5.904095900463895
 20
-3.948305107888535
 10
5.868076952716592
 20
-3.940615055922118
 10
5.817245600177683
 20
-3.925296012467583
 10
5.805526746440945
 20
-4.003153003517846
 10
5.858448186400664
 20
-4.003752463484728
 97
        0
 97
        1
330
13E
 92
        1
 93
        1
 72
     4
 94
        3
 73
     0
 74
     0
 95
       32
 96
       28
 40
0.0
 40
0.0
 40
0.0
 40
0.0
 40
1.0
 40
1.0
 40
1.0
 40
2.0
 40
2.0
 40
2.0
 40
3.0
 40
3.0
 40
3.0
 40
4.0
 40
4.0
 40
4.0
 40
5.0
 40
5.0
 40
5.0
 40
6.0
 40
6.0
 40
6.0
 40
7.0
 40
7.0
 40
7.0
 40
8.0
 40
8.0
 40
8.0
 40
9.0
 40
9.0
 40
9.0
 40
9.0
 10
5.998449271470108
 20
-3.965544455672228
 10
6.024306044324904
 20
-3.976771115681875
 10
5.988264896138212
 20
-4.219249258949363
 10
5.984871128748434
 20
-4.100443951819126
 10
5.966944607310147
 20
-4.079980872198587
 10
5.910060977434568
 20
-4.098911581426224
 10
5.890242514741935
 20
-4.099112348572626
 10
5.881615992071197
 20
-4.117460521943093
 10
5.869975961996993
 20
-4.1549044577575
 10
5.864846128044518
 20
-4.105538181551373
 10
5.850289240094601
 20
-4.026225724291596
 10
5.994054336849002
 20
-4.12029604916702
 10
5.984890155089487
 20
-4.053600737427498
 10
5.984860647325755
 20
-3.964146124473283
 10
5.975483460381004
 20
-4.011516785166362
 10
5.915603580081728
 20
-3.971688431165211
 10
5.908391957222975
 20
-4.030830081853625
 10
5.834940395825721
 20
-4.038676361741218
 10
5.803173618015862
 20
-3.995731759774912
 10
5.782079516246085
 20
-3.925319637431268
 10
5.879539791354696
 20
-3.887298196005316
 10
5.90920595699097
 20
-3.952721309804562
 10
5.909443816167291
 20
-3.933970590877189
 10
5.91303973972827
 20
-3.905135548324942
 10
5.934876276204704
 20
-3.927336159299544
 10
5.914100641101084
 20
-3.990188834813693
 10
5.973195348461861
 20
-3.959320299329558
 10
5.998449271470108
 20
-3.965544455672228
 97
        0
 97
        1
330
13F
 92
        1
 93
        1
 72
     4
 94
        3
 73
     0
 74
     0
 95
       17
 96
       13
 40
0.0
 40
0.0
 40
0.0
 40
0.0
 40
1.0
 40
1.0
 40
1.0
 40
2.0
 40
2.0
 40
2.0
 40
3.0
 40
3.0
 40
3.0
 40
4.0
 40
4.0
 40
4.0
 40
4.0
 10
5.839486597858997
 20
-4.029129525116672
 10
5.866415890627422
 20
-4.037774366345792
 10
5.846035960562807
 20
-4.08865805286886
 10
5.852041633134578
 20
-4.111957822431084
 10
5.851682764823736
 20
-4.132431385910459
 10
5.778816819059961
 20
-4.13219542372408
 10
5.797629679301962
 20
-4.106568177476636
 10
5.844577544989609
 20
-4.119306539516211
 10
5.834622189326005
 20
-4.079986665921763
 10
5.833071970468558
 20
-4.048082464101715
 10
5.776696381368942
 20
-4.050941253884135
 10
5.792383478942282
 20
-4.021367709020106
 10
5.839486597858997
 20
-4.029129525116672
 97
        0
 97
        1
330
140
 75
     2
 76
     1
 98
        1
 10
0.0
 20
0.0
450
        0
451
        0
460
0.0
461
0.0
452
        0
462
0.0
453
        0
470

  0
ENDBLK
  5
7F
330
7C
100
AcDbEntity
  8
0
100
AcDbBlockEnd
  0
ENDSEC
  0
SECTION
  2
ENTITIES
  0
INSERT
  5
7D
330
70
100
AcDbEntity
  8
Poneglyph
100
AcDbBlockReference
  2
Block_0
 10
0.0
 20
0.0
 30
0.0
  0
LWPOLYLINE
  5
142
330
70
100
AcDbEntity
  8
Poneglyph
100
AcDbPolyline
 90
        3
 70
     0
 43
0.0
 10
3.150413711583925
 20
-0.3783392434988475
 10
3.34358747044919
 20
-0.3783392434988475
 10
3.34358747044919
 20
-0.1994680851063827
  0
HATCH
  5
143
330
70
100
AcDbEntity
  8
Poneglyph
 62
   250
420
  2301728
440
 33554687
100
AcDbHatch
 10
0.0
 20
0.0
 30
0.0
210
0.0
220
0.0
230
1.0
  2
SOLID
 70
     1
 71
     1
 91
        1
 92
        3
 72
     0
 73
     1
 93
        3
 10
3.150413711583925
 20
-0.3783392434988475
 10
3.34358747044919
 20
-0.3783392434988475
 10
3.34358747044919
 20
-0.1994680851063827
 97
        0
 75
     2
 76
     1
 98
        1
 10
0.0
 20
0.0
450
        0
451
        0
460
0.0
461
0.0
452
        0
462
0.0
453
        0
470

  0
ENDSEC
  0
SECTION
  2
OBJECTS
  0
DICTIONARY
  5
C
330
0
100
AcDbDictionary
281
     1
  3
ACAD_COLOR
350
63
  3
ACAD_DETAILVIEWSTYLE
350
6A
  3
ACAD_GROUP
350
D
  3
ACAD_LAYOUT
350
62
  3
ACAD_MATERIAL
350
10
  3
ACAD_MLEADERSTYLE
350
66
  3
ACAD_MLINESTYLE
350
5F
  3
ACAD_PLOTSETTINGS
350
61
  3
ACAD_PLOTSTYLENAME
350
E
  3
ACAD_SCALELIST
350
42
  3
ACAD_SECTIONVIEWSTYLE
350
68
  3
ACAD_TABLESTYLE
350
64
  3
ACAD_VISUALSTYLE
350
29
  3
ACDB_RECOMPOSE_DATA
350
14F
  3
AcDbVariableDictionary
350
147
  0
DICTIONARY
  5
63
102
{ACAD_REACTORS
330
C
102
}
330
C
100
AcDbDictionary
281
     1
  0
DICTIONARY
  5
6A
102
{ACAD_REACTORS
330
C
102
}
330
C
100
AcDbDictionary
281
     1
  3
Imperial24
350
6B
  0
DICTIONARY
  5
D
102
{ACAD_REACTORS
330
C
102
}
330
C
100
AcDbDictionary
281
     1
  0
DICTIONARY
  5
62
102
{ACAD_REACTORS
330
C
102
}
330
C
100
AcDbDictionary
281
     1
  3
Layout1
350
6F
  3
Layout2
350
77
  3
Model
350
73
  0
DICTIONARY
  5
10
102
{ACAD_REACTORS
330
C
102
}
330
C
100
AcDbDictionary
281
     1
  3
ByBlock
350
19
  3
ByLayer
350
11
  3
Global
350
21
  0
DICTIONARY
  5
66
102
{ACAD_REACTORS
330
C
102
}
330
C
100
AcDbDictionary
281
     1
  3
Standard
350
67
  0
DICTIONARY
  5
5F
102
{ACAD_REACTORS
330
C
102
}
330
C
100
AcDbDictionary
281
     1
  3
Standard
350
60
  0
DICTIONARY
  5
61
102
{ACAD_REACTORS
330
C
102
}
330
C
100
AcDbDictionary
281
     1
  0
ACDBDICTIONARYWDFLT
  5
E
102
{ACAD_REACTORS
330
C
102
}
330
C
100
AcDbDictionary
281
     1
  3
Normal
350
F
100
AcDbDictionaryWithDefault
340
F
  0
DICTIONARY
  5
42
102
{ACAD_REACTORS
330
C
102
}
330
C
100
AcDbDictionary
281
     1
  3
A0
350
43
  3
A1
350
44
  3
A2
350
45
  3
A3
350
46
  3
A4
350
47
  3
A5
350
48
  3
A6
350
49
  3
A7
350
4A
  3
A8
350
4B
  3
A9
350
4C
  3
B0
350
4D
  3
B1
350
4E
  3
B2
350
4F
  3
B3
350
50
  3
B4
350
51
  3
B5
350
52
  3
B6
350
53
  0
DICTIONARY
  5
68
102
{ACAD_REACTORS
330
C
102
}
330
C
100
AcDbDictionary
281
     1
  3
Imperial24
350
69
  0
DICTIONARY
  5
64
102
{ACAD_REACTORS
330
C
102
}
330
C
100
AcDbDictionary
281
     1
  3
Standard
350
65
  0
DICTIONARY
  5
29
102
{ACAD_REACTORS
330
C
102
}
330
C
100
AcDbDictionary
281
     1
  3
2dWireframe
350
2F
  3
Basic
350
2E
  3
Brighten
350
35
  3
ColorChange
350
39
  3
Conceptual
350
32
  3
Dim
350
34
  3
EdgeColorOff
350
41
  3
Facepattern
350
38
  3
Flat
350
2A
  3
FlatWithEdges
350
2B
  3
Gouraud
350
2C
  3
GouraudWithEdges
350
2D
  3
Hidden
350
31
  3
JitterOff
350
3F
  3
Linepattern
350
37
  3
OverhangOff
350
40
  3
Realistic
350
33
  3
Shaded
350
3E
  3
Shaded with edges
350
3D
  3
Shades of Gray
350
3A
  3
Sketchy
350
3B
  3
Thicken
350
36
  3
Wireframe
350
30
  3
X-Ray
350
3C
  0
XRECORD
  5
14F
102
{ACAD_REACTORS
330
C
102
}
330
C
100
AcDbXrecord
280
     1
 90
        1
330
65
  0
DICTIONARY
  5
147
102
{ACAD_REACTORS
330
C
102
}
330
C
100
AcDbDictionary
281
     1
  3
CANNOSCALE
350
14C
  3
CMLEADERSTYLE
350
149
  3
CTABLESTYLE
350
148
  3
CVIEWDETAILSTYLE
350
14A
  3
CVIEWSECTIONSTYLE
350
14B
  0
ACDBDETAILVIEWSTYLE
  5
6B
102
{ACAD_REACTORS
330
6A
102
}
330
6A
100
AcDbModelDocViewStyle
 70
     0
  3
Imperial24
290
     1
300
Imperial24
 90
        0
100
AcDbDetailViewStyle
 70
     0
 71
     0
 90
        3
 71
     1
340
55
 62
   256
 40
0.24
340
0
 62
   256
 40
0.24
300

 40
0.36
280
     3
 71
     2
340
5D
 90
       25
 62
   256
 71
     3
340
55
 62
   256
 40
0.24
 90
        1
 40
0.75
 90
        1
300
%<\AcVar ViewType \f "%tc1">% %<\AcVar ViewDetailId>%\PSCALE %<\AcVar ViewScale \f "%sn">%
 71
     4
340
5D
 90
       25
 62
   256
340
5D
 90
       25
 62
   256
280
     0
  0
LAYOUT
  5
6F
102
{ACAD_REACTORS
330
62
102
}
330
62
100
AcDbPlotSettings
  1

  2

  4

  6

 40
0.0
 41
0.0
 42
0.0
 43
0.0
 44
0.0
 45
0.0
 46
0.0
 47
0.0
 48
0.0
 49
0.0
140
0.0
141
0.0
142
1.0
143
1.0
 70
   688
 72
     0
 73
     0
 74
     5
  7

 75
    16
147
1.0
 76
     0
 77
     2
 78
   300
148
0.0
149
0.0
100
AcDbLayout
  1
Layout1
 70
     1
 71
     1
 10
0.0
 20
0.0
 11
12.0
 21
9.0
 12
0.0
 22
0.0
 32
0.0
 14
0.0
 24
0.0
 34
0.0
 15
0.0
 25
0.0
 35
0.0
146
0.0
 13
0.0
 23
0.0
 33
0.0
 16
1.0
 26
0.0
 36
0.0
 17
0.0
 27
1.0
 37
0.0
 76
     0
330
6C
  0
LAYOUT
  5
77
102
{ACAD_REACTORS
330
62
102
}
330
62
100
AcDbPlotSettings
  1

  2

  4

  6

 40
0.0
 41
0.0
 42
0.0
 43
0.0
 44
0.0
 45
0.0
 46
0.0
 47
0.0
 48
0.0
 49
0.0
140
0.0
141
0.0
142
1.0
143
1.0
 70
   688
 72
     0
 73
     0
 74
     5
  7

 75
    16
147
1.0
 76
     0
 77
     2
 78
   300
148
0.0
149
0.0
100
AcDbLayout
  1
Layout2
 70
     1
 71
     2
 10
0.0
 20
0.0
 11
12.0
 21
9.0
 12
0.0
 22
0.0
 32
0.0
 14
0.0
 24
0.0
 34
0.0
 15
0.0
 25
0.0
 35
0.0
146
0.0
 13
0.0
 23
0.0
 33
0.0
 16
1.0
 26
0.0
 36
0.0
 17
0.0
 27
1.0
 37
0.0
 76
     0
330
74
  0
LAYOUT
  5
73
102
{ACAD_REACTORS
330
62
102
}
330
62
100
AcDbPlotSettings
  1

  2

  4

  6

 40
0.0
 41
0.0
 42
0.0
 43
0.0
 44
0.0
 45
0.0
 46
0.0
 47
0.0
 48
0.0
 49
0.0
140
0.0
141
0.0
142
1.0
143
1.0
 70
  1712
 72
     0
 73
     0
 74
     0
  7

 75
     0
147
1.0
 76
     0
 77
     2
 78
   300
148
0.0
149
0.0
100
AcDbLayout
  1
Model
 70
     1
 71
     0
 10
0.0
 20
0.0
 11
12.0
 21
9.0
 12
0.0
 22
0.0
 32
0.0
 14
0.0
 24
0.0
 34
0.0
 15
0.0
 25
0.0
 35
0.0
146
0.0
 13
0.0
 23
0.0
 33
0.0
 16
1.0
 26
0.0
 36
0.0
 17
0.0
 27
1.0
 37
0.0
 76
     0
330
70
  0
MATERIAL
  5
19
102
{ACAD_XDICTIONARY
360
1A
102
}
102
{ACAD_REACTORS
330
10
102
}
330
10
100
AcDbMaterial
  1
ByBlock
 72
     0
 43
0.0208333333333333
 43
0.0
 43
0.0
 43
0.0
 43
0.0
 43
0.0208333333333333
 43
0.0
 43
0.0
 43
0.0
 43
0.0
 43
1.0
 43
0.0
 43
0.0
 43
0.0
 43
0.0
 43
1.0
 77
     0
 47
0.0208333333333333
 47
0.0
 47
0.0
 47
0.0
 47
0.0
 47
0.0208333333333333
 47
0.0
 47
0.0
 47
0.0
 47
0.0
 47
1.0
 47
0.0
 47
0.0
 47
0.0
 47
0.0
 47
1.0
171
     0
 49
0.0208333333333333
 49
0.0
 49
0.0
 49
0.0
 49
0.0
 49
0.0208333333333333
 49
0.0
 49
0.0
 49
0.0
 49
0.0
 49
1.0
 49
0.0
 49
0.0
 49
0.0
 49
0.0
 49
1.0
175
     0
142
0.0208333333333333
142
0.0
142
0.0
142
0.0
142
0.0
142
0.0208333333333333
142
0.0
142
0.0
142
0.0
142
0.0
142
1.0
142
0.0
142
0.0
142
0.0
142
0.0
142
1.0
179
     0
144
0.0208333333333333
144
0.0
144
0.0
144
0.0
144
0.0
144
0.0208333333333333
144
0.0
144
0.0
144
0.0
144
0.0
144
1.0
144
0.0
144
0.0
144
0.0
144
0.0
144
1.0
147
0.0208333333333333
147
0.0
147
0.0
147
0.0
147
0.0
147
0.0208333333333333
147
0.0
147
0.0
147
0.0
147
0.0
147
1.0
147
0.0
147
0.0
147
0.0
147
0.0
147
1.0
  0
MATERIAL
  5
11
102
{ACAD_XDICTIONARY
360
12
102
}
102
{ACAD_REACTORS
330
10
102
}
330
10
100
AcDbMaterial
  1
ByLayer
 72
     0
 43
0.0208333333333333
 43
0.0
 43
0.0
 43
0.0
 43
0.0
 43
0.0208333333333333
 43
0.0
 43
0.0
 43
0.0
 43
0.0
 43
1.0
 43
0.0
 43
0.0
 43
0.0
 43
0.0
 43
1.0
 77
     0
 47
0.0208333333333333
 47
0.0
 47
0.0
 47
0.0
 47
0.0
 47
0.0208333333333333
 47
0.0
 47
0.0
 47
0.0
 47
0.0
 47
1.0
 47
0.0
 47
0.0
 47
0.0
 47
0.0
 47
1.0
171
     0
 49
0.0208333333333333
 49
0.0
 49
0.0
 49
0.0
 49
0.0
 49
0.0208333333333333
 49
0.0
 49
0.0
 49
0.0
 49
0.0
 49
1.0
 49
0.0
 49
0.0
 49
0.0
 49
0.0
 49
1.0
175
     0
142
0.0208333333333333
142
0.0
142
0.0
142
0.0
142
0.0
142
0.0208333333333333
142
0.0
142
0.0
142
0.0
142
0.0
142
1.0
142
0.0
142
0.0
142
0.0
142
0.0
142
1.0
179
     0
144
0.0208333333333333
144
0.0
144
0.0
144
0.0
144
0.0
144
0.0208333333333333
144
0.0
144
0.0
144
0.0
144
0.0
144
1.0
144
0.0
144
0.0
144
0.0
144
0.0
144
1.0
147
0.0208333333333333
147
0.0
147
0.0
147
0.0
147
0.0
147
0.0208333333333333
147
0.0
147
0.0
147
0.0
147
0.0
147
1.0
147
0.0
147
0.0
147
0.0
147
0.0
147
1.0
  0
MATERIAL
  5
21
102
{ACAD_XDICTIONARY
360
22
102
}
102
{ACAD_REACTORS
330
10
102
}
330
10
100
AcDbMaterial
  1
Global
 72
     0
 43
0.0208333333333333
 43
0.0
 43
0.0
 43
0.0
 43
0.0
 43
0.0208333333333333
 43
0.0
 43
0.0
 43
0.0
 43
0.0
 43
1.0
 43
0.0
 43
0.0
 43
0.0
 43
0.0
 43
1.0
 77
     0
 47
0.0208333333333333
 47
0.0
 47
0.0
 47
0.0
 47
0.0
 47
0.0208333333333333
 47
0.0
 47
0.0
 47
0.0
 47
0.0
 47
1.0
 47
0.0
 47
0.0
 47
0.0
 47
0.0
 47
1.0
171
     0
 49
0.0208333333333333
 49
0.0
 49
0.0
 49
0.0
 49
0.0
 49
0.0208333333333333
 49
0.0
 49
0.0
 49
0.0
 49
0.0
 49
1.0
 49
0.0
 49
0.0
 49
0.0
 49
0.0
 49
1.0
175
     0
142
0.0208333333333333
142
0.0
142
0.0
142
0.0
142
0.0
142
0.0208333333333333
142
0.0
142
0.0
142
0.0
142
0.0
142
1.0
142
0.0
142
0.0
142
0.0
142
0.0
142
1.0
179
     0
144
0.0208333333333333
144
0.0
144
0.0
144
0.0
144
0.0
144
0.0208333333333333
144
0.0
144
0.0
144
0.0
144
0.0
144
1.0
144
0.0
144
0.0
144
0.0
144
0.0
144
1.0
147
0.0208333333333333
147
0.0
147
0.0
147
0.0
147
0.0
147
0.0208333333333333
147
0.0
147
0.0
147
0.0
147
0.0
147
1.0
147
0.0
147
0.0
147
0.0
147
0.0
147
1.0
  0
MLEADERSTYLE
  5
67
102
{ACAD_REACTORS
330
66
102
}
330
66
100
AcDbMLeaderStyle
179
     2
170
     2
171
     1
172
     0
 90
        2
 40
0.0
 41
0.0
173
     1
 91
-1056964608
340
5B
 92
       -2
290
     1
 42
0.09
291
     1
 43
0.36
  3
Standard
 44
0.18
300

342
55
174
     1
178
     6
175
     1
176
     0
 93
-1056964608
 45
0.18
292
     0
297
     0
 46
0.18
 94
-1056964608
 47
1.0
 49
1.0
140
1.0
293
     1
141
0.0
294
     1
177
     0
142
1.0
295
     1
296
     0
143
0.125
271
     0
272
     9
273
     9
298
     1
  0
MLINESTYLE
  5
60
102
{ACAD_REACTORS
330
5F
102
}
330
5F
100
AcDbMlineStyle
  2
STANDARD
 70
     0
  3

 62
   256
 51
90.0
 52
90.0
 71
     2
 49
0.5
 62
   256
  6
BYLAYER
 49
-0.5
 62
   256
  6
BYLAYER
  0
ACDBPLACEHOLDER
  5
F
102
{ACAD_REACTORS
330
E
102
}
330
E
  0
SCALE
  5
43
102
{ACAD_REACTORS
330
42
102
}
330
42
100
AcDbScale
 70
     0
300
1:1
140
1.0
141
1.0
290
     1
  0
SCALE
  5
44
102
{ACAD_REACTORS
330
42
102
}
330
42
100
AcDbScale
 70
     0
300
1/128" = 1'-0"
140
0.0078125
141
12.0
290
     0
  0
SCALE
  5
45
102
{ACAD_REACTORS
330
42
102
}
330
42
100
AcDbScale
 70
     0
300
1/64" = 1'-0"
140
0.015625
141
12.0
290
     0
  0
SCALE
  5
46
102
{ACAD_REACTORS
330
42
102
}
330
42
100
AcDbScale
 70
     0
300
1/32" = 1'-0"
140
0.03125
141
12.0
290
     0
  0
SCALE
  5
47
102
{ACAD_REACTORS
330
42
102
}
330
42
100
AcDbScale
 70
     0
300
1/16" = 1'-0"
140
0.0625
141
12.0
290
     0
  0
SCALE
  5
48
102
{ACAD_REACTORS
330
42
102
}
330
42
100
AcDbScale
 70
     0
300
3/32" = 1'-0"
140
0.09375
141
12.0
290
     0
  0
SCALE
  5
49
102
{ACAD_REACTORS
330
42
102
}
330
42
100
AcDbScale
 70
     0
300
1/8" = 1'-0"
140
0.125
141
12.0
290
     0
  0
SCALE
  5
4A
102
{ACAD_REACTORS
330
42
102
}
330
42
100
AcDbScale
 70
     0
300
3/16" = 1'-0"
140
0.1875
141
12.0
290
     0
  0
SCALE
  5
4B
102
{ACAD_REACTORS
330
42
102
}
330
42
100
AcDbScale
 70
     0
300
1/4" = 1'-0"
140
0.25
141
12.0
290
     0
  0
SCALE
  5
4C
102
{ACAD_REACTORS
330
42
102
}
330
42
100
AcDbScale
 70
     0
300
3/8" = 1'-0"
140
0.375
141
12.0
290
     0
  0
SCALE
  5
4D
102
{ACAD_REACTORS
330
42
102
}
330
42
100
AcDbScale
 70
     0
300
1/2" = 1'-0"
140
0.5
141
12.0
290
     0
  0
SCALE
  5
4E
102
{ACAD_REACTORS
330
42
102
}
330
42
100
AcDbScale
 70
     0
300
3/4" = 1'-0"
140
0.75
141
12.0
290
     0
  0
SCALE
  5
4F
102
{ACAD_REACTORS
330
42
102
}
330
42
100
AcDbScale
 70
     0
300
1" = 1'-0"
140
1.0
141
12.0
290
     0
  0
SCALE
  5
50
102
{ACAD_REACTORS
330
42
102
}
330
42
100
AcDbScale
 70
     0
300
1-1/2" = 1'-0"
140
1.5
141
12.0
290
     0
  0
SCALE
  5
51
102
{ACAD_REACTORS
330
42
102
}
330
42
100
AcDbScale
 70
     0
300
3" = 1'-0"
140
3.0
141
12.0
290
     0
  0
SCALE
  5
52
102
{ACAD_REACTORS
330
42
102
}
330
42
100
AcDbScale
 70
     0
300
6" = 1'-0"
140
6.0
141
12.0
290
     0
  0
SCALE
  5
53
102
{ACAD_REACTORS
330
42
102
}
330
42
100
AcDbScale
 70
     0
300
1'-0" = 1'-0"
140
12.0
141
12.0
290
     0
  0
ACDBSECTIONVIEWSTYLE
  5
69
102
{ACAD_REACTORS
330
68
102
}
330
68
100
AcDbModelDocViewStyle
 70
     0
  3
Imperial24
290
     1
300
Imperial24
 90
        0
100
AcDbSectionViewStyle
 70
     0
 71
     0
 90
       78
 71
     1
340
55
 62
   256
 40
0.24
340
0
340
0
 62
   256
 40
0.24
300
I, O, Q, S, X, Z
 40
0.48
 90
        3
 40
0.18
 90
        1
 71
     2
340
5D
 90
       25
 62
   256
340
5D
 90
       50
 62
   256
 40
0.24
 40
0.0
 40
0.24
 71
     3
340
55
 62
   256
 40
0.24
 90
        1
 40
0.75
 90
        1
300
%<\AcVar ViewType \f "%tc1">% %<\AcVar ViewSectionStartId>%-%<\AcVar ViewSectionEndId>%\PSCALE %<\AcVar ViewScale \f "%sn">%
 71
     4
 62
   256
 62
   257
300
ANSI31
 40
1.0
 90
        0
290
     0
290
     0
 90
        6
 40
0.0
 40
1.570796326794896
 40
0.2617993877991494
 40
1.308996938995747
 40
-0.2617993877991494
 40
1.832595714594046
  0
TABLESTYLE
  5
65
102
{ACAD_XDICTIONARY
360
14D
102
}
102
{ACAD_REACTORS
330
64
102
}
330
64
100
AcDbTableStyle
280
     0
  3
Standard
 70
     0
 71
     0
 40
0.06
 41
0.06
280
     0
281
     0
  7
Standard
140
0.18
170
     2
 62
     0
 63
     7
283
     0
 90
      512
 91
        0
  1

274
    -2
284
     1
 64
     0
275
    -2
285
     1
 65
     0
276
    -2
286
     1
 66
     0
277
    -2
287
     1
 67
     0
278
    -2
288
     1
 68
     0
279
    -2
289
     1
 69
     0
  7
Standard
140
0.25
170
     5
 62
     0
 63
     7
283
     0
 90
      512
 91
        0
  1

274
    -2
284
     1
 64
     0
275
    -2
285
     1
 65
     0
276
    -2
286
     1
 66
     0
277
    -2
287
     1
 67
     0
278
    -2
288
     1
 68
     0
279
    -2
289
     1
 69
     0
  7
Standard
140
0.18
170
     5
 62
     0
 63
     7
283
     0
 90
      512
 91
        0
  1

274
    -2
284
     1
 64
     0
275
    -2
285
     1
 65
     0
276
    -2
286
     1
 66
     0
277
    -2
287
     1
 67
     0
278
    -2
288
     1
 68
     0
279
    -2
289
     1
 69
     0
  0
VISUALSTYLE
  5
2F
102
{ACAD_REACTORS
330
29
102
}
330
29
100
AcDbVisualStyle
  2
2dWireframe
 70
     4
177
     3
291
     0
 70
    58
 90
        0
176
     1
 90
        2
176
     1
 90
        0
176
     1
 90
        0
176
     1
 40
0.6
176
     1
 40
30.0
176
     1
 62
     7
420
 16777215
176
     1
 90
        1
176
     1
 90
        4
176
     1
 62
     7
176
     1
 62
   257
176
     1
 90
        1
176
     1
 90
        1
176
     1
 40
1.0
176
     1
 90
        0
176
     1
 62
   257
176
     1
 40
1.0
176
     1
 90
        1
176
     1
 90
        6
176
     1
 90
        2
176
     1
 62
     7
176
     1
 90
        5
176
     1
 90
        0
176
     1
 90
        0
176
     1
290
     0
176
     1
 90
        1
176
     1
 40
0.0
176
     1
 90
        0
176
     1
290
     1
176
     1
290
     1
176
     1
290
     0
176
     1
290
     0
176
     1
290
     0
176
     1
290
     0
176
     1
290
     0
176
     1
290
     0
176
     1
290
     0
176
     1
 90
       50
176
     1
 40
0.0
176
     1
 40
1.0
176
     1
 90
        0
176
     1
 62
    18
420
        0
176
     1
 90
       50
176
     1
 90
        3
176
     1
 62
     5
420
      255
176
     1
290
     0
176
     1
 90
       50
176
     1
 90
       50
176
     1
 90
       50
176
     1
290
     0
176
     1
 90
       50
176
     1
 62
   256
176
     0
 40
1.0
176
     0
 90
        2
176
     1
  1
strokes_ogs.tif
176
     1
290
     0
176
     1
 40
1.0
176
     1
 40
1.0
176
     1
  0
VISUALSTYLE
  5
2E
102
{ACAD_REACTORS
330
29
102
}
330
29
100
AcDbVisualStyle
  2
Basic
 70
     7
177
     3
291
     1
 70
    58
 90
        1
176
     1
 90
        0
176
     1
 90
        1
176
     1
 90
        0
176
     1
 40
0.6
176
     1
 40
30.0
176
     1
 62
     7
420
 16777215
176
     1
 90
        0
176
     1
 90
        4
176
     1
 62
     7
176
     1
 62
   257
176
     1
 90
        1
176
     1
 90
        1
176
     1
 40
1.0
176
     1
 90
        8
176
     1
 62
     7
176
     1
 40
1.0
176
     1
 90
        1
176
     1
 90
        6
176
     1
 90
        2
176
     1
 62
     7
176
     1
 90
        5
176
     1
 90
        0
176
     1
 90
        0
176
     1
290
     0
176
     1
 90
        1
176
     1
 40
0.0
176
     1
 90
        0
176
     1
290
     0
176
     1
290
     1
176
     1
290
     1
176
     1
290
     0
176
     1
290
     0
176
     1
290
     0
176
     1
290
     0
176
     1
290
     0
176
     1
290
     0
176
     1
 90
       50
176
     1
 40
0.0
176
     1
 40
1.0
176
     1
 90
        0
176
     1
 62
    18
420
        0
176
     1
 90
       50
176
     1
 90
        3
176
     1
 62
     5
420
      255
176
     1
290
     0
176
     1
 90
       50
176
     1
 90
       50
176
     1
 90
       50
176
     1
290
     0
176
     1
 90
       50
176
     1
 62
   256
176
     0
 40
1.0
176
     0
 90
        2
176
     1
  1
strokes_ogs.tif
176
     1
290
     0
176
     1
 40
1.0
176
     1
 40
1.0
176
     1
  0
VISUALSTYLE
  5
35
102
{ACAD_REACTORS
330
29
102
}
330
29
100
AcDbVisualStyle
  2
Brighten
 70
    12
177
     3
291
     1
 70
    58
 90
        2
176
     1
 90
        2
176
     1
 90
        0
176
     1
 90
        0
176
     1
 40
0.6
176
     1
 40
30.0
176
     1
 62
     7
420
 16777215
176
     1
 90
        1
176
     1
 90
        4
176
     1
 62
     7
176
     1
 62
   257
176
     1
 90
        1
176
     1
 90
        1
176
     1
 40
1.0
176
     1
 90
        8
176
     1
 62
     7
176
     1
 40
1.0
176
     1
 90
        1
176
     1
 90
        6
176
     1
 90
        2
176
     1
 62
     7
176
     1
 90
        5
176
     1
 90
        0
176
     1
 90
        0
176
     1
290
     0
176
     1
 90
        1
176
     1
 40
50.0
176
     1
 90
        0
176
     1
290
     0
176
     1
290
     1
176
     1
290
     1
176
     1
290
     0
176
     1
290
     0
176
     1
290
     0
176
     1
290
     0
176
     1
290
     0
176
     1
290
     0
176
     1
 90
       50
176
     1
 40
0.0
176
     1
 40
1.0
176
     1
 90
        0
176
     1
 62
    18
420
        0
176
     1
 90
       50
176
     1
 90
        3
176
     1
 62
     5
420
      255
176
     1
290
     0
176
     1
 90
       50
176
     1
 90
       50
176
     1
 90
       50
176
     1
290
     0
176
     1
 90
       50
176
     1
 62
   256
176
     0
 40
1.0
176
     0
 90
        2
176
     1
  1
strokes_ogs.tif
176
     1
290
     0
176
     1
 40
1.0
176
     1
 40
1.0
176
     1
  0
VISUALSTYLE
  5
39
102
{ACAD_REACTORS
330
29
102
}
330
29
100
AcDbVisualStyle
  2
ColorChange
 70
    16
177
     3
291
     1
 70
    58
 90
        2
176
     1
 90
        2
176
     1
 90
        3
176
     1
 90
        0
176
     1
 40
0.6
176
     1
 40
30.0
176
     1
 62
     8
420
  8421504
176
     1
 90
        1
176
     1
 90
        4
176
     1
 62
     7
176
     1
 62
   257
176
     1
 90
        1
176
     1
 90
        1
176
     1
 40
1.0
176
     1
 90
        8
176
     1
 62
     8
420
  8421504
176
     1
 40
1.0
176
     1
 90
        1
176
     1
 90
        6
176
     1
 90
        2
176
     1
 62
     7
176
     1
 90
        5
176
     1
 90
        0
176
     1
 90
        0
176
     1
290
     0
176
     1
 90
        1
176
     1
 40
0.0
176
     1
 90
        0
176
     1
290
     0
176
     1
290
     1
176
     1
290
     1
176
     1
290
     0
176
     1
290
     0
176
     1
290
     0
176
     1
290
     0
176
     1
290
     0
176
     1
290
     0
176
     1
 90
       50
176
     1
 40
0.0
176
     1
 40
1.0
176
     1
 90
        0
176
     1
 62
    18
420
        0
176
     1
 90
       50
176
     1
 90
        3
176
     1
 62
     5
420
      255
176
     1
290
     0
176
     1
 90
       50
176
     1
 90
       50
176
     1
 90
       50
176
     1
290
     0
176
     1
 90
       50
176
     1
 62
   256
176
     0
 40
1.0
176
     0
 90
        2
176
     1
  1
strokes_ogs.tif
176
     1
290
     0
176
     1
 40
1.0
176
     1
 40
1.0
176
     1
  0
VISUALSTYLE
  5
32
102
{ACAD_REACTORS
330
29
102
}
330
29
100
AcDbVisualStyle
  2
Conceptual
 70
     9
177
     3
291
     0
 70
    58
 90
        3
176
     1
 90
        2
176
     1
 90
        0
176
     1
 90
        0
176
     1
 40
0.6
176
     1
 40
30.0
176
     1
 62
     7
420
 16777215
176
     1
 90
        2
176
     1
 90
        2
176
     1
 62
     7
176
     1
 62
   257
176
     1
 90
        1
176
     1
 90
        1
176
     1
 40
179.0
176
     1
 90
        8
176
     1
 62
     7
176
     1
 40
1.0
176
     1
 90
        1
176
     1
 90
        6
176
     1
 90
        2
176
     1
 62
     7
176
     1
 90
        3
176
     1
 90
        0
176
     1
 90
        0
176
     1
290
     0
176
     1
 90
        1
176
     1
 40
0.0
176
     1
 90
        0
176
     1
290
     0
176
     1
290
     1
176
     1
290
     1
176
     1
290
     0
176
     1
290
     0
176
     1
290
     0
176
     1
290
     0
176
     1
290
     0
176
     1
290
     0
176
     1
 90
       50
176
     1
 40
0.0
176
     1
 40
1.0
176
     1
 90
        0
176
     1
 62
    18
420
        0
176
     1
 90
       50
176
     1
 90
        3
176
     1
 62
     5
420
      255
176
     1
290
     0
176
     1
 90
       50
176
     1
 90
       50
176
     1
 90
       50
176
     1
290
     0
176
     1
 90
       50
176
     1
 62
   256
176
     0
 40
1.0
176
     0
 90
        2
176
     1
  1
strokes_ogs.tif
176
     1
290
     0
176
     1
 40
1.0
176
     1
 40
1.0
176
     1
  0
VISUALSTYLE
  5
34
102
{ACAD_REACTORS
330
29
102
}
330
29
100
AcDbVisualStyle
  2
Dim
 70
    11
177
     3
291
     1
 70
    58
 90
        2
176
     1
 90
        2
176
     1
 90
        0
176
     1
 90
        0
176
     1
 40
0.6
176
     1
 40
30.0
176
     1
 62
     7
420
 16777215
176
     1
 90
        1
176
     1
 90
        4
176
     1
 62
     7
176
     1
 62
   257
176
     1
 90
        1
176
     1
 90
        1
176
     1
 40
1.0
176
     1
 90
        8
176
     1
 62
     7
176
     1
 40
1.0
176
     1
 90
        1
176
     1
 90
        6
176
     1
 90
        2
176
     1
 62
     7
176
     1
 90
        5
176
     1
 90
        0
176
     1
 90
        0
176
     1
290
     0
176
     1
 90
        1
176
     1
 40
-50.0
176
     1
 90
        0
176
     1
290
     0
176
     1
290
     1
176
     1
290
     1
176
     1
290
     0
176
     1
290
     0
176
     1
290
     0
176
     1
290
     0
176
     1
290
     0
176
     1
290
     0
176
     1
 90
       50
176
     1
 40
0.0
176
     1
 40
1.0
176
     1
 90
        0
176
     1
 62
    18
420
        0
176
     1
 90
       50
176
     1
 90
        3
176
     1
 62
     5
420
      255
176
     1
290
     0
176
     1
 90
       50
176
     1
 90
       50
176
     1
 90
       50
176
     1
290
     0
176
     1
 90
       50
176
     1
 62
   256
176
     0
 40
1.0
176
     0
 90
        2
176
     1
  1
strokes_ogs.tif
176
     1
290
     0
176
     1
 40
1.0
176
     1
 40
1.0
176
     1
  0
VISUALSTYLE
  5
41
102
{ACAD_REACTORS
330
29
102
}
330
29
100
AcDbVisualStyle
  2
EdgeColorOff
 70
    22
177
     3
291
     1
 70
    58
 90
        2
176
     0
 90
        2
176
     0
 90
        0
176
     0
 90
        0
176
     0
 40
0.6
176
     0
 40
30.0
176
     0
 62
     7
420
 16777215
176
     0
 90
        1
176
     0
 90
        4
176
     0
 62
     7
176
     0
 62
   257
176
     0
 90
        1
176
     0
 90
        1
176
     0
 40
1.0
176
     0
 90
        8
176
     2
 62
     7
176
     0
 40
1.0
176
     0
 90
        1
176
     0
 90
        6
176
     0
 90
        2
176
     0
 62
     7
176
     0
 90
        5
176
     0
 90
        0
176
     0
 90
        0
176
     0
290
     0
176
     0
 90
        1
176
     0
 40
0.0
176
     0
 90
        0
176
     0
290
     0
176
     0
290
     1
176
     0
290
     1
176
     0
290
     0
176
     0
290
     0
176
     0
290
     0
176
     0
290
     0
176
     0
290
     0
176
     0
290
     0
176
     0
 90
       50
176
     0
 40
0.0
176
     0
 40
1.0
176
     0
 90
        0
176
     0
 62
    18
420
        0
176
     0
 90
       50
176
     0
 90
        3
176
     0
 62
     5
420
      255
176
     0
290
     0
176
     0
 90
       50
176
     0
 90
       50
176
     0
 90
       50
176
     0
290
     0
176
     0
 90
       50
176
     0
 62
   256
176
     0
 40
1.0
176
     0
 90
        2
176
     0
  1
strokes_ogs.tif
176
     0
290
     0
176
     0
 40
1.0
176
     0
 40
1.0
176
     0
  0
VISUALSTYLE
  5
38
102
{ACAD_REACTORS
330
29
102
}
330
29
100
AcDbVisualStyle
  2
Facepattern
 70
    15
177
     3
291
     1
 70
    58
 90
        2
176
     1
 90
        2
176
     1
 90
        0
176
     1
 90
        0
176
     1
 40
0.6
176
     1
 40
30.0
176
     1
 62
     7
420
 16777215
176
     1
 90
        1
176
     1
 90
        4
176
     1
 62
     7
176
     1
 62
   257
176
     1
 90
        1
176
     1
 90
        1
176
     1
 40
1.0
176
     1
 90
        8
176
     1
 62
     7
176
     1
 40
1.0
176
     1
 90
        1
176
     1
 90
        6
176
     1
 90
        2
176
     1
 62
     7
176
     1
 90
        5
176
     1
 90
        0
176
     1
 90
        0
176
     1
290
     0
176
     1
 90
        1
176
     1
 40
0.0
176
     1
 90
        0
176
     1
290
     0
176
     1
290
     1
176
     1
290
     1
176
     1
290
     0
176
     1
290
     0
176
     1
290
     0
176
     1
290
     0
176
     1
290
     0
176
     1
290
     0
176
     1
 90
       50
176
     1
 40
0.0
176
     1
 40
1.0
176
     1
 90
        0
176
     1
 62
    18
420
        0
176
     1
 90
       50
176
     1
 90
        3
176
     1
 62
     5
420
      255
176
     1
290
     0
176
     1
 90
       50
176
     1
 90
       50
176
     1
 90
       50
176
     1
290
     0
176
     1
 90
       50
176
     1
 62
   256
176
     0
 40
1.0
176
     0
 90
        2
176
     1
  1
strokes_ogs.tif
176
     1
290
     0
176
     1
 40
1.0
176
     1
 40
1.0
176
     1
  0
VISUALSTYLE
  5
2A
102
{ACAD_REACTORS
330
29
102
}
330
29
100
AcDbVisualStyle
  2
Flat
 70
     0
177
     3
291
     1
 70
    58
 90
        2
176
     1
 90
        1
176
     1
 90
        1
176
     1
 90
        2
176
     1
 40
0.6
176
     1
 40
30.0
176
     1
 62
     7
420
 16777215
176
     1
 90
        0
176
     1
 90
        0
176
     1
 62
     7
176
     1
 62
   257
176
     1
 90
        1
176
     1
 90
        1
176
     1
 40
1.0
176
     1
 90
        8
176
     1
 62
     7
176
     1
 40
1.0
176
     1
 90
        1
176
     1
 90
        6
176
     1
 90
        2
176
     1
 62
     7
176
     1
 90
        5
176
     1
 90
        0
176
     1
 90
        0
176
     1
290
     0
176
     1
 90
       13
176
     1
 40
0.0
176
     1
 90
        0
176
     1
290
     0
176
     1
290
     1
176
     1
290
     1
176
     1
290
     0
176
     1
290
     0
176
     1
290
     0
176
     1
290
     0
176
     1
290
     0
176
     1
290
     0
176
     1
 90
       50
176
     1
 40
0.0
176
     1
 40
1.0
176
     1
 90
        0
176
     1
 62
    18
420
        0
176
     1
 90
       50
176
     1
 90
        3
176
     1
 62
     5
420
      255
176
     1
290
     0
176
     1
 90
       50
176
     1
 90
       50
176
     1
 90
       50
176
     1
290
     0
176
     1
 90
       50
176
     1
 62
   256
176
     0
 40
1.0
176
     0
 90
        2
176
     1
  1
strokes_ogs.tif
176
     1
290
     0
176
     1
 40
1.0
176
     1
 40
1.0
176
     1
  0
VISUALSTYLE
  5
2B
102
{ACAD_REACTORS
330
29
102
}
330
29
100
AcDbVisualStyle
  2
FlatWithEdges
 70
     1
177
     3
291
     1
 70
    58
 90
        2
176
     1
 90
        1
176
     1
 90
        1
176
     1
 90
        2
176
     1
 40
0.6
176
     1
 40
30.0
176
     1
 62
     7
420
 16777215
176
     1
 90
        1
176
     1
 90
        0
176
     1
 62
     7
176
     1
 62
   257
176
     1
 90
        1
176
     1
 90
        1
176
     1
 40
1.0
176
     1
 90
        0
176
     1
 62
   257
176
     1
 40
1.0
176
     1
 90
        1
176
     1
 90
        6
176
     1
 90
        2
176
     1
 62
     7
176
     1
 90
        5
176
     1
 90
        0
176
     1
 90
        0
176
     1
290
     0
176
     1
 90
       13
176
     1
 40
0.0
176
     1
 90
        0
176
     1
290
     0
176
     1
290
     1
176
     1
290
     1
176
     1
290
     0
176
     1
290
     0
176
     1
290
     0
176
     1
290
     0
176
     1
290
     0
176
     1
290
     0
176
     1
 90
       50
176
     1
 40
0.0
176
     1
 40
1.0
176
     1
 90
        0
176
     1
 62
    18
420
        0
176
     1
 90
       50
176
     1
 90
        3
176
     1
 62
     5
420
      255
176
     1
290
     0
176
     1
 90
       50
176
     1
 90
       50
176
     1
 90
       50
176
     1
290
     0
176
     1
 90
       50
176
     1
 62
   256
176
     0
 40
1.0
176
     0
 90
        2
176
     1
  1
strokes_ogs.tif
176
     1
290
     0
176
     1
 40
1.0
176
     1
 40
1.0
176
     1
  0
VISUALSTYLE
  5
2C
102
{ACAD_REACTORS
330
29
102
}
330
29
100
AcDbVisualStyle
  2
Gouraud
 70
     2
177
     3
291
     1
 70
    58
 90
        2
176
     1
 90
        2
176
     1
 90
        1
176
     1
 90
        2
176
     1
 40
0.6
176
     1
 40
30.0
176
     1
 62
     7
420
 16777215
176
     1
 90
        0
176
     1
 90
        0
176
     1
 62
     7
176
     1
 62
   257
176
     1
 90
        1
176
     1
 90
        1
176
     1
 40
1.0
176
     1
 90
        0
176
     1
 62
     7
176
     1
 40
1.0
176
     1
 90
        1
176
     1
 90
        6
176
     1
 90
        2
176
     1
 62
     7
176
     1
 90
        5
176
     1
 90
        0
176
     1
 90
        0
176
     1
290
     0
176
     1
 90
       13
176
     1
 40
0.0
176
     1
 90
        0
176
     1
290
     0
176
     1
290
     1
176
     1
290
     1
176
     1
290
     0
176
     1
290
     0
176
     1
290
     0
176
     1
290
     0
176
     1
290
     0
176
     1
290
     0
176
     1
 90
       50
176
     1
 40
0.0
176
     1
 40
1.0
176
     1
 90
        0
176
     1
 62
    18
420
        0
176
     1
 90
       50
176
     1
 90
        3
176
     1
 62
     5
420
      255
176
     1
290
     0
176
     1
 90
       50
176
     1
 90
       50
176
     1
 90
       50
176
     1
290
     0
176
     1
 90
       50
176
     1
 62
   256
176
     0
 40
1.0
176
     0
 90
        2
176
     1
  1
strokes_ogs.tif
176
     1
290
     0
176
     1
 40
1.0
176
     1
 40
1.0
176
     1
  0
VISUALSTYLE
  5
2D
102
{ACAD_REACTORS
330
29
102
}
330
29
100
AcDbVisualStyle
  2
GouraudWithEdges
 70
     3
177
     3
291
     1
 70
    58
 90
        2
176
     1
 90
        2
176
     1
 90
        1
176
     1
 90
        2
176
     1
 40
0.6
176
     1
 40
30.0
176
     1
 62
     7
420
 16777215
176
     1
 90
        1
176
     1
 90
        0
176
     1
 62
     7
176
     1
 62
   257
176
     1
 90
        1
176
     1
 90
        1
176
     1
 40
1.0
176
     1
 90
        0
176
     1
 62
   257
176
     1
 40
1.0
176
     1
 90
        1
176
     1
 90
        6
176
     1
 90
        2
176
     1
 62
     7
176
     1
 90
        5
176
     1
 90
        0
176
     1
 90
        0
176
     1
290
     0
176
     1
 90
       13
176
     1
 40
0.0
176
     1
 90
        0
176
     1
290
     0
176
     1
290
     1
176
     1
290
     1
176
     1
290
     0
176
     1
290
     0
176
     1
290
     0
176
     1
290
     0
176
     1
290
     0
176
     1
290
     0
176
     1
 90
       50
176
     1
 40
0.0
176
     1
 40
1.0
176
     1
 90
        0
176
     1
 62
    18
420
        0
176
     1
 90
       50
176
     1
 90
        3
176
     1
 62
     5
420
      255
176
     1
290
     0
176
     1
 90
       50
176
     1
 90
       50
176
     1
 90
       50
176
     1
290
     0
176
     1
 90
       50
176
     1
 62
   256
176
     0
 40
1.0
176
     0
 90
        2
176
     1
  1
strokes_ogs.tif
176
     1
290
     0
176
     1
 40
1.0
176
     1
 40
1.0
176
     1
  0
VISUALSTYLE
  5
31
102
{ACAD_REACTORS
330
29
102
}
330
29
100
AcDbVisualStyle
  2
Hidden
 70
     6
177
     3
291
     0
 70
    58
 90
        1
176
     1
 90
        2
176
     1
 90
        2
176
     1
 90
        0
176
     1
 40
0.6
176
     1
 40
30.0
176
     1
 62
     7
420
 16777215
176
     1
 90
        2
176
     1
 90
        2
176
     1
 62
     7
176
     1
 62
   257
176
     1
 90
        2
176
     1
 90
        1
176
     1
 40
40.0
176
     1
 90
        0
176
     1
 62
   257
176
     1
 40
1.0
176
     1
 90
        1
176
     1
 90
        6
176
     1
 90
        2
176
     1
 62
     7
176
     1
 90
        3
176
     1
 90
        0
176
     1
 90
        0
176
     1
290
     0
176
     1
 90
        1
176
     1
 40
0.0
176
     1
 90
        0
176
     1
290
     0
176
     1
290
     1
176
     1
290
     1
176
     1
290
     0
176
     1
290
     0
176
     1
290
     0
176
     1
290
     0
176
     1
290
     0
176
     1
290
     0
176
     1
 90
       50
176
     1
 40
0.0
176
     1
 40
1.0
176
     1
 90
        0
176
     1
 62
    18
420
        0
176
     1
 90
       50
176
     1
 90
        3
176
     1
 62
     5
420
      255
176
     1
290
     0
176
     1
 90
       50
176
     1
 90
       50
176
     1
 90
       50
176
     1
290
     0
176
     1
 90
       50
176
     1
 62
   256
176
     0
 40
1.0
176
     0
 90
        2
176
     1
  1
strokes_ogs.tif
176
     1
290
     0
176
     1
 40
1.0
176
     1
 40
1.0
176
     1
  0
VISUALSTYLE
  5
3F
102
{ACAD_REACTORS
330
29
102
}
330
29
100
AcDbVisualStyle
  2
JitterOff
 70
    20
177
     3
291
     1
 70
    58
 90
        2
176
     0
 90
        2
176
     0
 90
        0
176
     0
 90
        0
176
     0
 40
0.6
176
     0
 40
30.0
176
     0
 62
     7
420
 16777215
176
     0
 90
        1
176
     0
 90
        4
176
     0
 62
     7
176
     0
 62
   257
176
     0
 90
        1
176
     0
 90
        1
176
     0
 40
1.0
176
     0
 90
       10
176
     2
 62
     7
176
     0
 40
1.0
176
     0
 90
        1
176
     0
 90
        6
176
     0
 90
        2
176
     0
 62
     7
176
     0
 90
        5
176
     0
 90
        0
176
     0
 90
        0
176
     0
290
     0
176
     0
 90
        1
176
     0
 40
0.0
176
     0
 90
        0
176
     0
290
     0
176
     0
290
     1
176
     0
290
     1
176
     0
290
     0
176
     0
290
     0
176
     0
290
     0
176
     0
290
     0
176
     0
290
     0
176
     0
290
     0
176
     0
 90
       50
176
     0
 40
0.0
176
     0
 40
1.0
176
     0
 90
        0
176
     0
 62
    18
420
        0
176
     0
 90
       50
176
     0
 90
        3
176
     0
 62
     5
420
      255
176
     0
290
     0
176
     0
 90
       50
176
     0
 90
       50
176
     0
 90
       50
176
     0
290
     0
176
     0
 90
       50
176
     0
 62
   256
176
     0
 40
1.0
176
     0
 90
        2
176
     0
  1
strokes_ogs.tif
176
     0
290
     0
176
     0
 40
1.0
176
     0
 40
1.0
176
     0
  0
VISUALSTYLE
  5
37
102
{ACAD_REACTORS
330
29
102
}
330
29
100
AcDbVisualStyle
  2
Linepattern
 70
    14
177
     3
291
     1
 70
    58
 90
        2
176
     1
 90
        2
176
     1
 90
        0
176
     1
 90
        0
176
     1
 40
0.6
176
     1
 40
30.0
176
     1
 62
     7
420
 16777215
176
     1
 90
        1
176
     1
 90
        4
176
     1
 62
     7
176
     1
 62
   257
176
     1
 90
        7
176
     1
 90
        7
176
     1
 40
1.0
176
     1
 90
        8
176
     1
 62
     7
176
     1
 40
1.0
176
     1
 90
        1
176
     1
 90
        6
176
     1
 90
        2
176
     1
 62
     7
176
     1
 90
        5
176
     1
 90
        0
176
     1
 90
        0
176
     1
290
     0
176
     1
 90
        1
176
     1
 40
0.0
176
     1
 90
        0
176
     1
290
     0
176
     1
290
     1
176
     1
290
     1
176
     1
290
     0
176
     1
290
     0
176
     1
290
     0
176
     1
290
     0
176
     1
290
     0
176
     1
290
     0
176
     1
 90
       50
176
     1
 40
0.0
176
     1
 40
1.0
176
     1
 90
        0
176
     1
 62
    18
420
        0
176
     1
 90
       50
176
     1
 90
        3
176
     1
 62
     5
420
      255
176
     1
290
     0
176
     1
 90
       50
176
     1
 90
       50
176
     1
 90
       50
176
     1
290
     0
176
     1
 90
       50
176
     1
 62
   256
176
     0
 40
1.0
176
     0
 90
        2
176
     1
  1
strokes_ogs.tif
176
     1
290
     0
176
     1
 40
1.0
176
     1
 40
1.0
176
     1
  0
VISUALSTYLE
  5
40
102
{ACAD_REACTORS
330
29
102
}
330
29
100
AcDbVisualStyle
  2
OverhangOff
 70
    21
177
     3
291
     1
 70
    58
 90
        2
176
     0
 90
        2
176
     0
 90
        0
176
     0
 90
        0
176
     0
 40
0.6
176
     0
 40
30.0
176
     0
 62
     7
420
 16777215
176
     0
 90
        1
176
     0
 90
        4
176
     0
 62
     7
176
     0
 62
   257
176
     0
 90
        1
176
     0
 90
        1
176
     0
 40
1.0
176
     0
 90
        9
176
     2
 62
     7
176
     0
 40
1.0
176
     0
 90
        1
176
     0
 90
        6
176
     0
 90
        2
176
     0
 62
     7
176
     0
 90
        5
176
     0
 90
        0
176
     0
 90
        0
176
     0
290
     0
176
     0
 90
        1
176
     0
 40
0.0
176
     0
 90
        0
176
     0
290
     0
176
     0
290
     1
176
     0
290
     1
176
     0
290
     0
176
     0
290
     0
176
     0
290
     0
176
     0
290
     0
176
     0
290
     0
176
     0
290
     0
176
     0
 90
       50
176
     0
 40
0.0
176
     0
 40
1.0
176
     0
 90
        0
176
     0
 62
    18
420
        0
176
     0
 90
       50
176
     0
 90
        3
176
     0
 62
     5
420
      255
176
     0
290
     0
176
     0
 90
       50
176
     0
 90
       50
176
     0
 90
       50
176
     0
290
     0
176
     0
 90
       50
176
     0
 62
   256
176
     0
 40
1.0
176
     0
 90
        2
176
     0
  1
strokes_ogs.tif
176
     0
290
     0
176
     0
 40
1.0
176
     0
 40
1.0
176
     0
  0
VISUALSTYLE
  5
33
102
{ACAD_REACTORS
330
29
102
}
330
29
100
AcDbVisualStyle
  2
Realistic
 70
     8
177
     3
291
     0
 70
    58
 90
        2
176
     1
 90
        3
176
     1
 90
        0
176
     1
 90
        2
176
     1
 40
0.6
176
     1
 40
30.0
176
     1
 62
     7
420
 16777215
176
     1
 90
        0
176
     1
 90
        0
176
     1
 62
     7
176
     1
 62
   257
176
     1
 90
        1
176
     1
 90
        1
176
     1
 40
1.0
176
     1
 90
        8
176
     1
 62
   257
176
     1
 40
1.0
176
     1
 90
        1
176
     1
 90
        6
176
     1
 90
        2
176
     1
 62
     7
176
     1
 90
        3
176
     1
 90
        0
176
     1
 90
        0
176
     1
290
     0
176
     1
 90
       13
176
     1
 40
0.0
176
     1
 90
        0
176
     1
290
     0
176
     1
290
     1
176
     1
290
     1
176
     1
290
     0
176
     1
290
     0
176
     1
290
     0
176
     1
290
     0
176
     1
290
     0
176
     1
290
     0
176
     1
 90
       50
176
     1
 40
0.0
176
     1
 40
1.0
176
     1
 90
        0
176
     1
 62
    18
420
        0
176
     1
 90
       50
176
     1
 90
        3
176
     1
 62
     5
420
      255
176
     1
290
     0
176
     1
 90
       50
176
     1
 90
       50
176
     1
 90
       50
176
     1
290
     0
176
     1
 90
       50
176
     1
 62
   256
176
     0
 40
1.0
176
     0
 90
        2
176
     1
  1
strokes_ogs.tif
176
     1
290
     0
176
     1
 40
1.0
176
     1
 40
1.0
176
     1
  0
VISUALSTYLE
  5
3E
102
{ACAD_REACTORS
330
29
102
}
330
29
100
AcDbVisualStyle
  2
Shaded
 70
    27
177
     3
291
     0
 70
    58
 90
        2
176
     1
 90
        2
176
     1
 90
        1
176
     1
 90
        2
176
     1
 40
0.6
176
     1
 40
30.0
176
     1
 62
     7
420
 16777215
176
     1
 90
        0
176
     1
 90
        4
176
     1
 62
     7
176
     1
 62
   257
176
     1
 90
        1
176
     1
 90
        1
176
     1
 40
1.0
176
     1
 90
        8
176
     1
 62
   257
176
     1
 40
1.0
176
     1
 90
        1
176
     1
 90
        6
176
     1
 90
        2
176
     1
 62
     8
420
  7895160
176
     1
 90
        3
176
     1
 90
        0
176
     1
 90
        0
176
     1
290
     0
176
     1
 90
        5
176
     1
 40
0.0
176
     1
 90
        0
176
     1
290
     0
176
     1
290
     1
176
     1
290
     1
176
     1
290
     0
176
     1
290
     0
176
     1
290
     0
176
     1
290
     0
176
     1
290
     0
176
     1
290
     0
176
     1
 90
       50
176
     1
 40
0.0
176
     1
 40
1.0
176
     1
 90
        0
176
     1
 62
    18
420
        0
176
     1
 90
       50
176
     1
 90
        3
176
     1
 62
     5
420
      255
176
     1
290
     0
176
     1
 90
       50
176
     1
 90
       50
176
     1
 90
       50
176
     1
290
     0
176
     1
 90
       50
176
     1
 62
   256
176
     0
 40
1.0
176
     0
 90
        2
176
     1
  1
strokes_ogs.tif
176
     1
290
     0
176
     1
 40
1.0
176
     1
 40
1.0
176
     1
  0
VISUALSTYLE
  5
3D
102
{ACAD_REACTORS
330
29
102
}
330
29
100
AcDbVisualStyle
  2
Shaded with edges
 70
    26
177
     3
291
     0
 70
    58
 90
        2
176
     1
 90
        2
176
     1
 90
        1
176
     1
 90
        2
176
     1
 40
0.6
176
     1
 40
30.0
176
     1
 62
     7
420
 16777215
176
     1
 90
        1
176
     1
 90
        2
176
     1
 62
     7
176
     1
 62
   257
176
     1
 90
        2
176
     1
 90
        1
176
     1
 40
1.0
176
     1
 90
        8
176
     1
 62
   257
176
     1
 40
1.0
176
     1
 90
        1
176
     1
 90
        6
176
     1
 90
        2
176
     1
 62
     7
176
     1
 90
        3
176
     1
 90
        0
176
     1
 90
        0
176
     1
290
     0
176
     1
 90
        5
176
     1
 40
0.0
176
     1
 90
        0
176
     1
290
     0
176
     1
290
     1
176
     1
290
     1
176
     1
290
     0
176
     1
290
     0
176
     1
290
     0
176
     1
290
     0
176
     1
290
     0
176
     1
290
     0
176
     1
 90
       50
176
     1
 40
0.0
176
     1
 40
1.0
176
     1
 90
        0
176
     1
 62
    18
420
        0
176
     1
 90
       50
176
     1
 90
        3
176
     1
 62
     5
420
      255
176
     1
290
     0
176
     1
 90
       50
176
     1
 90
       50
176
     1
 90
       50
176
     1
290
     0
176
     1
 90
       50
176
     1
 62
   256
176
     0
 40
1.0
176
     0
 90
        2
176
     1
  1
strokes_ogs.tif
176
     1
290
     0
176
     1
 40
1.0
176
     1
 40
1.0
176
     1
  0
VISUALSTYLE
  5
3A
102
{ACAD_REACTORS
330
29
102
}
330
29
100
AcDbVisualStyle
  2
Shades of Gray
 70
    23
177
     3
291
     0
 70
    58
 90
        2
176
     1
 90
        2
176
     1
 90
        3
176
     1
 90
        0
176
     1
 40
0.6
176
     1
 40
30.0
176
     1
 62
     7
420
 16777215
176
     1
 90
        2
176
     1
 90
        2
176
     1
 62
     7
176
     1
 62
     7
176
     1
 90
        1
176
     1
 90
        1
176
     1
 40
40.0
176
     1
 90
        8
176
     1
 62
     7
176
     1
 40
1.0
176
     1
 90
        1
176
     1
 90
        6
176
     1
 90
        2
176
     1
 62
     7
176
     1
 90
        3
176
     1
 90
        0
176
     1
 90
        0
176
     1
290
     0
176
     1
 90
        1
176
     1
 40
0.0
176
     1
 90
        0
176
     1
290
     0
176
     1
290
     1
176
     1
290
     1
176
     1
290
     0
176
     1
290
     0
176
     1
290
     0
176
     1
290
     0
176
     1
290
     0
176
     1
290
     0
176
     1
 90
       50
176
     1
 40
0.0
176
     1
 40
1.0
176
     1
 90
        0
176
     1
 62
    18
420
        0
176
     1
 90
       50
176
     1
 90
        3
176
     1
 62
     5
420
      255
176
     1
290
     0
176
     1
 90
       50
176
     1
 90
       50
176
     1
 90
       50
176
     1
290
     0
176
     1
 90
       50
176
     1
 62
   256
176
     0
 40
1.0
176
     0
 90
        2
176
     1
  1
strokes_ogs.tif
176
     1
290
     0
176
     1
 40
1.0
176
     1
 40
1.0
176
     1
  0
VISUALSTYLE
  5
3B
102
{ACAD_REACTORS
330
29
102
}
330
29
100
AcDbVisualStyle
  2
Sketchy
 70
    24
177
     3
291
     0
 70
    58
 90
        1
176
     1
 90
        2
176
     1
 90
        2
176
     1
 90
        0
176
     1
 40
0.6
176
     1
 40
30.0
176
     1
 62
     7
420
 16777215
176
     1
 90
        2
176
     1
 90
        2
176
     1
 62
     7
176
     1
 62
     7
176
     1
 90
        1
176
     1
 90
        1
176
     1
 40
40.0
176
     1
 90
       11
176
     1
 62
     7
176
     1
 40
1.0
176
     1
 90
        1
176
     1
 90
        6
176
     1
 90
        2
176
     1
 62
     7
176
     1
 90
        6
176
     1
 90
        0
176
     1
 90
        0
176
     1
290
     0
176
     1
 90
        1
176
     1
 40
0.0
176
     1
 90
        0
176
     1
290
     0
176
     1
290
     1
176
     1
290
     1
176
     1
290
     0
176
     1
290
     0
176
     1
290
     0
176
     1
290
     0
176
     1
290
     0
176
     1
290
     0
176
     1
 90
       50
176
     1
 40
0.0
176
     1
 40
1.0
176
     1
 90
        0
176
     1
 62
    18
420
        0
176
     1
 90
       50
176
     1
 90
        3
176
     1
 62
     5
420
      255
176
     1
290
     0
176
     1
 90
       50
176
     1
 90
       50
176
     1
 90
       50
176
     1
290
     0
176
     1
 90
       50
176
     1
 62
   256
176
     0
 40
1.0
176
     0
 90
        2
176
     1
  1
strokes_ogs.tif
176
     1
290
     0
176
     1
 40
1.0
176
     1
 40
1.0
176
     1
  0
VISUALSTYLE
  5
36
102
{ACAD_REACTORS
330
29
102
}
330
29
100
AcDbVisualStyle
  2
Thicken
 70
    13
177
     3
291
     1
 70
    58
 90
        2
176
     1
 90
        2
176
     1
 90
        0
176
     1
 90
        0
176
     1
 40
0.6
176
     1
 40
30.0
176
     1
 62
     7
420
 16777215
176
     1
 90
        1
176
     1
 90
        4
176
     1
 62
     7
176
     1
 62
   257
176
     1
 90
        1
176
     1
 90
        1
176
     1
 40
1.0
176
     1
 90
       12
176
     1
 62
     7
176
     1
 40
1.0
176
     1
 90
        1
176
     1
 90
        6
176
     1
 90
        2
176
     1
 62
     7
176
     1
 90
        5
176
     1
 90
        0
176
     1
 90
        0
176
     1
290
     0
176
     1
 90
        1
176
     1
 40
0.0
176
     1
 90
        0
176
     1
290
     0
176
     1
290
     1
176
     1
290
     1
176
     1
290
     0
176
     1
290
     0
176
     1
290
     0
176
     1
290
     0
176
     1
290
     0
176
     1
290
     0
176
     1
 90
       50
176
     1
 40
0.0
176
     1
 40
1.0
176
     1
 90
        0
176
     1
 62
    18
420
        0
176
     1
 90
       50
176
     1
 90
        3
176
     1
 62
     5
420
      255
176
     1
290
     0
176
     1
 90
       50
176
     1
 90
       50
176
     1
 90
       50
176
     1
290
     0
176
     1
 90
       50
176
     1
 62
   256
176
     0
 40
1.0
176
     0
 90
        2
176
     1
  1
strokes_ogs.tif
176
     1
290
     0
176
     1
 40
1.0
176
     1
 40
1.0
176
     1
  0
VISUALSTYLE
  5
30
102
{ACAD_REACTORS
330
29
102
}
330
29
100
AcDbVisualStyle
  2
Wireframe
 70
     5
177
     3
291
     0
 70
    58
 90
        0
176
     1
 90
        2
176
     1
 90
        0
176
     1
 90
        0
176
     1
 40
0.6
176
     1
 40
30.0
176
     1
 62
     7
420
 16777215
176
     1
 90
        1
176
     1
 90
        4
176
     1
 62
     7
176
     1
 62
   257
176
     1
 90
        1
176
     1
 90
        1
176
     1
 40
1.0
176
     1
 90
        0
176
     1
 62
   257
176
     1
 40
1.0
176
     1
 90
        1
176
     1
 90
        6
176
     1
 90
        2
176
     1
 62
     7
176
     1
 90
        3
176
     1
 90
        0
176
     1
 90
        0
176
     1
290
     0
176
     1
 90
        1
176
     1
 40
0.0
176
     1
 90
        0
176
     1
290
     0
176
     1
290
     1
176
     1
290
     1
176
     1
290
     0
176
     1
290
     0
176
     1
290
     0
176
     1
290
     0
176
     1
290
     0
176
     1
290
     0
176
     1
 90
       50
176
     1
 40
0.0
176
     1
 40
1.0
176
     1
 90
        0
176
     1
 62
    18
420
        0
176
     1
 90
       50
176
     1
 90
        3
176
     1
 62
     5
420
      255
176
     1
290
     0
176
     1
 90
       50
176
     1
 90
       50
176
     1
 90
       50
176
     1
290
     0
176
     1
 90
       50
176
     1
 62
   256
176
     0
 40
1.0
176
     0
 90
        2
176
     1
  1
strokes_ogs.tif
176
     1
290
     0
176
     1
 40
1.0
176
     1
 40
1.0
176
     1
  0
VISUALSTYLE
  5
3C
102
{ACAD_REACTORS
330
29
102
}
330
29
100
AcDbVisualStyle
  2
X-Ray
 70
    25
177
     3
291
     0
 70
    58
 90
        2
176
     1
 90
        2
176
     1
 90
        1
176
     1
 90
        1
176
     1
 40
0.5
176
     1
 40
30.0
176
     1
 62
     7
420
 16777215
176
     1
 90
        1
176
     1
 90
        0
176
     1
 62
     7
176
     1
 62
   257
176
     1
 90
        1
176
     1
 90
        1
176
     1
 40
1.0
176
     1
 90
        8
176
     1
 62
     7
176
     1
 40
1.0
176
     1
 90
        1
176
     1
 90
        6
176
     1
 90
        2
176
     1
 62
     7
176
     1
 90
        3
176
     1
 90
        0
176
     1
 90
        0
176
     1
290
     0
176
     1
 90
       13
176
     1
 40
0.0
176
     1
 90
        0
176
     1
290
     0
176
     1
290
     1
176
     1
290
     1
176
     1
290
     0
176
     1
290
     0
176
     1
290
     0
176
     1
290
     0
176
     1
290
     0
176
     1
290
     0
176
     1
 90
       50
176
     1
 40
0.0
176
     1
 40
1.0
176
     1
 90
        0
176
     1
 62
    18
420
        0
176
     1
 90
       50
176
     1
 90
        3
176
     1
 62
     5
420
      255
176
     1
290
     0
176
     1
 90
       50
176
     1
 90
       50
176
     1
 90
       50
176
     1
290
     0
176
     1
 90
       50
176
     1
 62
   256
176
     0
 40
1.0
176
     0
 90
        2
176
     1
  1
strokes_ogs.tif
176
     1
290
     0
176
     1
 40
1.0
176
     1
 40
1.0
176
     1
  0
DICTIONARYVAR
  5
14C
102
{ACAD_REACTORS
330
147
102
}
330
147
100
DictionaryVariables
280
     0
  1
1:1
  0
DICTIONARYVAR
  5
149
102
{ACAD_REACTORS
330
147
102
}
330
147
100
DictionaryVariables
280
     0
  1
STANDARD
  0
DICTIONARYVAR
  5
148
102
{ACAD_REACTORS
330
147
102
}
330
147
100
DictionaryVariables
280
     0
  1
STANDARD
  0
DICTIONARYVAR
  5
14A
102
{ACAD_REACTORS
330
147
102
}
330
147
100
DictionaryVariables
280
     0
  1
Imperial24
  0
DICTIONARYVAR
  5
14B
102
{ACAD_REACTORS
330
147
102
}
330
147
100
DictionaryVariables
280
     0
  1
Imperial24
  0
DICTIONARY
  5
1A
330
19
100
AcDbDictionary
280
     1
281
     1
  3
BUMPTILE
360
1C
  3
DIFFUSETILE
360
1B
  3
OPACITYTILE
360
1F
  3
REFLECTIONTILE
360
1E
  3
REFRACTIONTILE
360
20
  3
SPECULARTILE
360
1D
  0
DICTIONARY
  5
12
330
11
100
AcDbDictionary
280
     1
281
     1
  3
BUMPTILE
360
14
  3
DIFFUSETILE
360
13
  3
OPACITYTILE
360
17
  3
REFLECTIONTILE
360
16
  3
REFRACTIONTILE
360
18
  3
SPECULARTILE
360
15
  0
DICTIONARY
  5
22
330
21
100
AcDbDictionary
280
     1
281
     1
  3
BUMPTILE
360
24
  3
DIFFUSETILE
360
23
  3
OPACITYTILE
360
27
  3
REFLECTIONTILE
360
26
  3
REFRACTIONTILE
360
28
  3
SPECULARTILE
360
25
  0
DICTIONARY
  5
14D
330
65
100
AcDbDictionary
280
     1
281
     1
  3
ACAD_ROUNDTRIP_2008_TABLESTYLE_CELLSTYLEMAP
360
14E
  0
XRECORD
  5
1C
102
{ACAD_REACTORS
330
1A
102
}
330
1A
100
AcDbXrecord
280
     1
270
     1
271
     1
  0
XRECORD
  5
1B
102
{ACAD_REACTORS
330
1A
102
}
330
1A
100
AcDbXrecord
280
     1
270
     1
271
     1
  0
XRECORD
  5
1F
102
{ACAD_REACTORS
330
1A
102
}
330
1A
100
AcDbXrecord
280
     1
270
     1
271
     1
  0
XRECORD
  5
1E
102
{ACAD_REACTORS
330
1A
102
}
330
1A
100
AcDbXrecord
280
     1
270
     1
271
     1
  0
XRECORD
  5
20
102
{ACAD_REACTORS
330
1A
102
}
330
1A
100
AcDbXrecord
280
     1
270
     1
271
     1
  0
XRECORD
  5
1D
102
{ACAD_REACTORS
330
1A
102
}
330
1A
100
AcDbXrecord
280
     1
270
     1
271
     1
  0
XRECORD
  5
14
102
{ACAD_REACTORS
330
12
102
}
330
12
100
AcDbXrecord
280
     1
270
     1
271
     1
  0
XRECORD
  5
13
102
{ACAD_REACTORS
330
12
102
}
330
12
100
AcDbXrecord
280
     1
270
     1
271
     1
  0
XRECORD
  5
17
102
{ACAD_REACTORS
330
12
102
}
330
12
100
AcDbXrecord
280
     1
270
     1
271
     1
  0
XRECORD
  5
16
102
{ACAD_REACTORS
330
12
102
}
330
12
100
AcDbXrecord
280
     1
270
     1
271
     1
  0
XRECORD
  5
18
102
{ACAD_REACTORS
330
12
102
}
330
12
100
AcDbXrecord
280
     1
270
     1
271
     1
  0
XRECORD
  5
15
102
{ACAD_REACTORS
330
12
102
}
330
12
100
AcDbXrecord
280
     1
270
     1
271
     1
  0
XRECORD
  5
24
102
{ACAD_REACTORS
330
22
102
}
330
22
100
AcDbXrecord
280
     1
270
     1
271
     1
  0
XRECORD
  5
23
102
{ACAD_REACTORS
330
22
102
}
330
22
100
AcDbXrecord
280
     1
270
     1
271
     1
  0
XRECORD
  5
27
102
{ACAD_REACTORS
330
22
102
}
330
22
100
AcDbXrecord
280
     1
270
     1
271
     1
  0
XRECORD
  5
26
102
{ACAD_REACTORS
330
22
102
}
330
22
100
AcDbXrecord
280
     1
270
     1
271
     1
  0
XRECORD
  5
28
102
{ACAD_REACTORS
330
22
102
}
330
22
100
AcDbXrecord
280
     1
270
     1
271
     1
  0
XRECORD
  5
25
102
{ACAD_REACTORS
330
22
102
}
330
22
100
AcDbXrecord
280
     1
270
     1
271
     1
  0
CELLSTYLEMAP
  5
14E
102
{ACAD_REACTORS
330
14D
102
}
330
14D
100
AcDbCellStyleMap
 90
        3
300
CELLSTYLE
  1
TABLEFORMAT_BEGIN
 90
        5
170
     1
 91
        0
 92
    32768
 62
   257
 93
        1
300
CONTENTFORMAT
  1
CONTENTFORMAT_BEGIN
 90
        0
 91
        0
 92
      512
 93
        0
300

 40
0.0
140
1.0
 94
        5
 62
     0
340
55
144
0.25
309
CONTENTFORMAT_END
171
     0
 94
        0
309
TABLEFORMAT_END
  1
CELLSTYLE_BEGIN
 90
        1
 91
        1
300
_TITLE
309
CELLSTYLE_END
300
CELLSTYLE
  1
TABLEFORMAT_BEGIN
 90
        5
170
     1
 91
        0
 92
        0
 62
   257
 93
        1
300
CONTENTFORMAT
  1
CONTENTFORMAT_BEGIN
 90
        0
 91
        0
 92
      512
 93
        0
300

 40
0.0
140
1.0
 94
        5
 62
     0
340
55
144
0.18
309
CONTENTFORMAT_END
171
     0
 94
        0
309
TABLEFORMAT_END
  1
CELLSTYLE_BEGIN
 90
        2
 91
        1
300
_HEADER
309
CELLSTYLE_END
300
CELLSTYLE
  1
TABLEFORMAT_BEGIN
 90
        5
170
     1
 91
        0
 92
        0
 62
   257
 93
        1
300
CONTENTFORMAT
  1
CONTENTFORMAT_BEGIN
 90
        0
 91
        0
 92
      512
 93
        0
300

 40
0.0
140
1.0
 94
        2
 62
     0
340
55
144
0.18
309
CONTENTFORMAT_END
171
     0
 94
        0
309
TABLEFORMAT_END
  1
CELLSTYLE_BEGIN
 90
        3
 91
        2
300
_DATA
309
CELLSTYLE_END
  0
ENDSEC
  0
EOF
