  0
SECTION
  2
HEADER
  9
$ACADVER
  1
AC1032
  9
$ACADMAINTVER
 90
      228
  9
$DWGCODEPAGE
  3
ANSI_1252
  9
$REQUIREDVERSIONS
160
                 0
  9
$INSBASE
 10
0.0
 20
0.0
 30
0.0
  9
$EXTMIN
 10
1.000000000000000E+20
 20
1.000000000000000E+20
 30
1.000000000000000E+20
  9
$EXTMAX
 10
-1.000000000000000E+20
 20
-1.000000000000000E+20
 30
-1.000000000000000E+20
  9
$LIMMIN
 10
0.0
 20
0.0
  9
$LIMMAX
 10
12.0
 20
9.0
  9
$ORTHOMODE
 70
     0
  9
$REGENMODE
 70
     1
  9
$FILLMODE
 70
     1
  9
$QTEXTMODE
 70
     0
  9
$MIRRTEXT
 70
     0
  9
$LTSCALE
 40
1.0
  9
$ATTMODE
 70
     1
  9
$TEXTSIZE
 40
0.2
  9
$TRACEWID
 40
0.05
  9
$TEXTSTYLE
  7
Standard
  9
$CLAYER
  8
0
  9
$CELTYPE
  6
ByLayer
  9
$CECOLOR
 62
   256
  9
$CELTSCALE
 40
1.0
  9
$DISPSILH
 70
     0
  9
$DIMSCALE
 40
1.0
  9
$DIMASZ
 40
0.18
  9
$DIMEXO
 40
0.0625
  9
$DIMDLI
 40
0.38
  9
$DIMRND
 40
0.0
  9
$DIMDLE
 40
0.0
  9
$DIMEXE
 40
0.18
  9
$DIMTP
 40
0.0
  9
$DIMTM
 40
0.0
  9
$DIMTXT
 40
0.18
  9
$DIMCEN
 40
0.09
  9
$DIMTSZ
 40
0.0
  9
$DIMTOL
 70
     0
  9
$DIMLIM
 70
     0
  9
$DIMTIH
 70
     1
  9
$DIMTOH
 70
     1
  9
$DIMSE1
 70
     0
  9
$DIMSE2
 70
     0
  9
$DIMTAD
 70
     0
  9
$DIMZIN
 70
     0
  9
$DIMBLK
  1

  9
$DIMASO
 70
     1
  9
$DIMSHO
 70
     1
  9
$DIMPOST
  1

  9
$DIMAPOST
  1

  9
$DIMALT
 70
     0
  9
$DIMALTD
 70
     2
  9
$DIMALTF
 40
25.4
  9
$DIMLFAC
 40
1.0
  9
$DIMTOFL
 70
     0
  9
$DIMTVP
 40
0.0
  9
$DIMTIX
 70
     0
  9
$DIMSOXD
 70
     0
  9
$DIMSAH
 70
     0
  9
$DIMBLK1
  1

  9
$DIMBLK2
  1

  9
$DIMSTYLE
  2
Standard
  9
$DIMCLRD
 70
     0
  9
$DIMCLRE
 70
     0
  9
$DIMCLRT
 70
     0
  9
$DIMTFAC
 40
1.0
  9
$DIMGAP
 40
0.09
  9
$DIMJUST
 70
     0
  9
$DIMSD1
 70
     0
  9
$DIMSD2
 70
     0
  9
$DIMTOLJ
 70
     1
  9
$DIMTZIN
 70
     0
  9
$DIMALTZ
 70
     0
  9
$DIMALTTZ
 70
     0
  9
$DIMUPT
 70
     0
  9
$DIMDEC
 70
     4
  9
$DIMTDEC
 70
     4
  9
$DIMALTU
 70
     2
  9
$DIMALTTD
 70
     2
  9
$DIMTXSTY
  7
Standard
  9
$DIMAUNIT
 70
     0
  9
$DIMADEC
 70
     0
  9
$DIMALTRND
 40
0.0
  9
$DIMAZIN
 70
     0
  9
$DIMDSEP
 70
    46
  9
$DIMATFIT
 70
     3
  9
$DIMFRAC
 70
     0
  9
$DIMLDRBLK
  1

  9
$DIMLUNIT
 70
     2
  9
$DIMLWD
 70
    -2
  9
$DIMLWE
 70
    -2
  9
$DIMTMOVE
 70
     0
  9
$DIMFXL
 40
1.0
  9
$DIMFXLON
 70
     0
  9
$DIMJOGANG
 40
0.7853981633974483
  9
$DIMTFILL
 70
     0
  9
$DIMTFILLCLR
 70
     0
  9
$DIMARCSYM
 70
     0
  9
$DIMLTYPE
  6

  9
$DIMLTEX1
  6

  9
$DIMLTEX2
  6

  9
$DIMTXTDIRECTION
 70
     0
  9
$LUNITS
 70
     2
  9
$LUPREC
 70
     4
  9
$SKETCHINC
 40
0.1
  9
$FILLETRAD
 40
0.0
  9
$AUNITS
 70
     0
  9
$AUPREC
 70
     0
  9
$MENU
  1
.
  9
$ELEVATION
 40
0.0
  9
$PELEVATION
 40
0.0
  9
$THICKNESS
 40
0.0
  9
$LIMCHECK
 70
     0
  9
$CHAMFERA
 40
0.0
  9
$CHAMFERB
 40
0.0
  9
$CHAMFERC
 40
0.0
  9
$CHAMFERD
 40
0.0
  9
$SKPOLY
 70
     0
  9
$TDCREATE
 40
2460332.743263889
  9
$TDUCREATE
 40
2460333.076597222
  9
$TDUPDATE
 40
2460332.743263889
  9
$TDUUPDATE
 40
2460333.076597222
  9
$TDINDWG
 40
0.0000000000
  9
$TDUSRTIMER
 40
0.0000000000
  9
$USRTIMER
 70
     1
  9
$ANGBASE
 50
0.0
  9
$ANGDIR
 70
     0
  9
$PDMODE
 70
     0
  9
$PDSIZE
 40
0.0
  9
$PLINEWID
 40
0.0
  9
$SPLFRAME
 70
     0
  9
$SPLINETYPE
 70
     6
  9
$SPLINESEGS
 70
     8
  9
$HANDSEED
  5
9A
  9
$SURFTAB1
 70
     6
  9
$SURFTAB2
 70
     6
  9
$SURFTYPE
 70
     6
  9
$SURFU
 70
     6
  9
$SURFV
 70
     6
  9
$UCSBASE
  2

  9
$UCSNAME
  2

  9
$UCSORG
 10
0.0
 20
0.0
 30
0.0
  9
$UCSXDIR
 10
1.0
 20
0.0
 30
0.0
  9
$UCSYDIR
 10
0.0
 20
1.0
 30
0.0
  9
$UCSORTHOREF
  2

  9
$UCSORTHOVIEW
 70
     0
  9
$UCSORGTOP
 10
0.0
 20
0.0
 30
0.0
  9
$UCSORGBOTTOM
 10
0.0
 20
0.0
 30
0.0
  9
$UCSORGLEFT
 10
0.0
 20
0.0
 30
0.0
  9
$UCSORGRIGHT
 10
0.0
 20
0.0
 30
0.0
  9
$UCSORGFRONT
 10
0.0
 20
0.0
 30
0.0
  9
$UCSORGBACK
 10
0.0
 20
0.0
 30
0.0
  9
$PUCSBASE
  2

  9
$PUCSNAME
  2

  9
$PUCSORG
 10
0.0
 20
0.0
 30
0.0
  9
$PUCSXDIR
 10
1.0
 20
0.0
 30
0.0
  9
$PUCSYDIR
 10
0.0
 20
1.0
 30
0.0
  9
$PUCSORTHOREF
  2

  9
$PUCSORTHOVIEW
 70
     0
  9
$PUCSORGTOP
 10
0.0
 20
0.0
 30
0.0
  9
$PUCSORGBOTTOM
 10
0.0
 20
0.0
 30
0.0
  9
$PUCSORGLEFT
 10
0.0
 20
0.0
 30
0.0
  9
$PUCSORGRIGHT
 10
0.0
 20
0.0
 30
0.0
  9
$PUCSORGFRONT
 10
0.0
 20
0.0
 30
0.0
  9
$PUCSORGBACK
 10
0.0
 20
0.0
 30
0.0
  9
$USERI1
 70
     0
  9
$USERI2
 70
     0
  9
$USERI3
 70
     0
  9
$USERI4
 70
     0
  9
$USERI5
 70
     0
  9
$USERR1
 40
0.0
  9
$USERR2
 40
0.0
  9
$USERR3
 40
0.0
  9
$USERR4
 40
0.0
  9
$USERR5
 40
0.0
  9
$WORLDVIEW
 70
     1
  9
$SHADEDGE
 70
     3
  9
$SHADEDIF
 70
    70
  9
$TILEMODE
 70
     1
  9
$MAXACTVP
 70
    64
  9
$PINSBASE
 10
0.0
 20
0.0
 30
0.0
  9
$PLIMCHECK
 70
     0
  9
$PEXTMIN
 10
1.000000000000000E+20
 20
1.000000000000000E+20
 30
1.000000000000000E+20
  9
$PEXTMAX
 10
-1.000000000000000E+20
 20
-1.000000000000000E+20
 30
-1.000000000000000E+20
  9
$PLIMMIN
 10
0.0
 20
0.0
  9
$PLIMMAX
 10
12.0
 20
9.0
  9
$UNITMODE
 70
     0
  9
$VISRETAIN
 70
     1
  9
$PLINEGEN
 70
     0
  9
$PSLTSCALE
 70
     1
  9
$TREEDEPTH
 70
  3020
  9
$CMLSTYLE
  2
Standard
  9
$CMLJUST
 70
     0
  9
$CMLSCALE
 40
1.0
  9
$PROXYGRAPHICS
 70
     1
  9
$MEASUREMENT
 70
     0
  9
$CELWEIGHT
370
    -1
  9
$ENDCAPS
280
     0
  9
$JOINSTYLE
280
     0
  9
$LWDISPLAY
290
     1
  9
$INSUNITS
 70
     1
  9
$HYPERLINKBASE
  1

  9
$STYLESHEET
  1

  9
$XEDIT
290
     1
  9
$CEPSNTYPE
380
     0
  9
$PSTYLEMODE
290
     1
  9
$FINGERPRINTGUID
  2
{29515787-8FD7-C348-BC95-0E069479C396}
  9
$VERSIONGUID
  2
{643BEB30-9D9D-764C-A6DE-E6CDF5036716}
  9
$EXTNAMES
290
     1
  9
$PSVPSCALE
 40
0.0
  9
$OLESTARTUP
290
     0
  9
$SORTENTS
280
   127
  9
$INDEXCTL
280
     0
  9
$HIDETEXT
280
     1
  9
$XCLIPFRAME
280
     2
  9
$HALOGAP
280
     0
  9
$OBSCOLOR
 70
   257
  9
$OBSLTYPE
280
     0
  9
$INTERSECTIONDISPLAY
280
     0
  9
$INTERSECTIONCOLOR
 70
   257
  9
$DIMASSOC
280
     2
  9
$PROJECTNAME
  1

  9
$CAMERADISPLAY
290
     0
  9
$LENSLENGTH
 40
50.0
  9
$CAMERAHEIGHT
 40
0.0
  9
$STEPSPERSEC
 40
2.0
  9
$STEPSIZE
 40
6.0
  9
$3DDWFPREC
 40
2.0
  9
$PSOLWIDTH
 40
0.25
  9
$PSOLHEIGHT
 40
4.0
  9
$LOFTANG1
 40
1.570796326794896
  9
$LOFTANG2
 40
1.570796326794896
  9
$LOFTMAG1
 40
0.0
  9
$LOFTMAG2
 40
0.0
  9
$LOFTPARAM
 70
     7
  9
$LOFTNORMALS
280
     1
  9
$LATITUDE
 40
37.795
  9
$LONGITUDE
 40
-122.394
  9
$NORTHDIRECTION
 40
0.0
  9
$TIMEZONE
 70
 -8000
  9
$LIGHTGLYPHDISPLAY
280
     1
  9
$TILEMODELIGHTSYNCH
280
     1
  9
$CMATERIAL
347
11
  9
$SOLIDHIST
280
     0
  9
$SHOWHIST
280
     1
  9
$DWFFRAME
280
     2
  9
$DGNFRAME
280
     0
  9
$REALWORLDSCALE
290
     1
  9
$INTERFERECOLOR
 62
     1
  9
$INTERFEREOBJVS
345
33
  9
$INTERFEREVPVS
346
30
  9
$CSHADOW
280
     0
  9
$SHADOWPLANELOCATION
 40
0.0
  0
ENDSEC
  0
SECTION
  2
CLASSES
  0
CLASS
  1
ACDBDICTIONARYWDFLT
  2
AcDbDictionaryWithDefault
  3
ObjectDBX Classes
 90
        0
 91
        1
280
     0
281
     0
  0
CLASS
  1
MATERIAL
  2
AcDbMaterial
  3
ObjectDBX Classes
 90
     1153
 91
        3
280
     0
281
     0
  0
CLASS
  1
VISUALSTYLE
  2
AcDbVisualStyle
  3
ObjectDBX Classes
 90
     4095
 91
       24
280
     0
281
     0
  0
CLASS
  1
SCALE
  2
AcDbScale
  3
ObjectDBX Classes
 90
     1153
 91
       17
280
     0
281
     0
  0
CLASS
  1
TABLESTYLE
  2
AcDbTableStyle
  3
ObjectDBX Classes
 90
     4095
 91
        1
280
     0
281
     0
  0
CLASS
  1
MLEADERSTYLE
  2
AcDbMLeaderStyle
  3
ACDB_MLEADERSTYLE_CLASS
 90
     4095
 91
        1
280
     0
281
     0
  0
CLASS
  1
ACDBSECTIONVIEWSTYLE
  2
AcDbSectionViewStyle
  3
ObjectDBX Classes
 90
     1025
 91
        1
280
     0
281
     0
  0
CLASS
  1
ACDBDETAILVIEWSTYLE
  2
AcDbDetailViewStyle
  3
ObjectDBX Classes
 90
     1025
 91
        1
280
     0
281
     0
  0
CLASS
  1
DICTIONARYVAR
  2
AcDbDictionaryVar
  3
ObjectDBX Classes
 90
        0
 91
        5
280
     0
281
     0
  0
CLASS
  1
CELLSTYLEMAP
  2
AcDbCellStyleMap
  3
ObjectDBX Classes
 90
     1152
 91
        1
280
     0
281
     0
  0
ENDSEC
  0
SECTION
  2
TABLES
  0
TABLE
  2
VPORT
  5
8
330
0
100
AcDbSymbolTable
 70
     1
  0
VPORT
  5
57
330
8
100
AcDbSymbolTableRecord
100
AcDbViewportTableRecord
  2
*Active
 70
     0
 10
0.0
 20
0.0
 11
1.0
 21
1.0
 12
0.0
 22
0.0
 13
0.0
 23
0.0
 14
1.0
 24
1.0
 15
0.0
 25
0.0
 16
0.0
 26
0.0
 36
1.0
 17
2.099759910531626
 27
-8.781748809255102
 37
0.0
 40
20.29674592374499
 41
0.7685943439802071
 42
50.0
 43
0.0
 44
0.0
 50
0.0
 51
0.0
 71
     0
 72
   100
 73
     1
 74
     1
 75
     0
 76
     0
 77
     0
 78
     0
281
     0
 65
     1
110
0.0
120
0.0
130
0.0
111
1.0
121
0.0
131
0.0
112
0.0
122
1.0
132
0.0
 79
     0
146
0.0
 60
     3
 61
     5
292
     1
282
     1
141
0.0
142
0.0
 63
   250
421
  3355443
  0
ENDTAB
  0
TABLE
  2
LTYPE
  5
5
330
0
100
AcDbSymbolTable
 70
     1
  0
LTYPE
  5
5B
330
5
100
AcDbSymbolTableRecord
100
AcDbLinetypeTableRecord
  2
ByBlock
 70
     0
  3

 72
    65
 73
     0
 40
0.0
  0
LTYPE
  5
5C
330
5
100
AcDbSymbolTableRecord
100
AcDbLinetypeTableRecord
  2
ByLayer
 70
     0
  3

 72
    65
 73
     0
 40
0.0
  0
LTYPE
  5
5D
330
5
100
AcDbSymbolTableRecord
100
AcDbLinetypeTableRecord
  2
Continuous
 70
     0
  3
Solid line
 72
    65
 73
     0
 40
0.0
  0
ENDTAB
  0
TABLE
  2
LAYER
  5
2
330
0
100
AcDbSymbolTable
 70
     4
  0
LAYER
  5
54
330
2
100
AcDbSymbolTableRecord
100
AcDbLayerTableRecord
  2
0
 70
     0
 62
     7
  6
Continuous
370
    -3
390
F
347
21
348
0
  0
LAYER
  5
78
330
2
100
AcDbSymbolTableRecord
100
AcDbLayerTableRecord
  2
Layer 2
 70
     0
 62
     7
  6
Continuous
370
     0
390
F
347
21
348
0
  0
LAYER
  5
7A
330
2
100
AcDbSymbolTableRecord
100
AcDbLayerTableRecord
  2
Whitebeard
 70
     1
 62
     7
  6
Continuous
370
     0
390
F
347
21
348
0
  0
LAYER
  5
7B
330
2
100
AcDbSymbolTableRecord
100
AcDbLayerTableRecord
  2
Layer 3
 70
     0
 62
     7
  6
Continuous
370
     0
390
F
347
21
348
0
  0
ENDTAB
  0
TABLE
  2
STYLE
  5
3
330
0
100
AcDbSymbolTable
 70
     2
  0
STYLE
  5
55
330
3
100
AcDbSymbolTableRecord
100
AcDbTextStyleTableRecord
  2
Standard
 70
     0
 40
0.0
 41
1.0
 50
0.0
 71
     0
 42
0.2
  3
txt
  4

  0
STYLE
  5
5A
330
3
100
AcDbSymbolTableRecord
100
AcDbTextStyleTableRecord
  2
Annotative
 70
     0
 40
0.0
 41
1.0
 50
0.0
 71
     0
 42
0.2
  3
txt
  4

1001
AcadAnnotative
1000
AnnotativeData
1002
{
1070
     1
1070
     1
1002
}
  0
ENDTAB
  0
TABLE
  2
VIEW
  5
6
330
0
100
AcDbSymbolTable
 70
     0
  0
ENDTAB
  0
TABLE
  2
UCS
  5
7
330
0
100
AcDbSymbolTable
 70
     0
  0
ENDTAB
  0
TABLE
  2
APPID
  5
9
330
0
100
AcDbSymbolTable
 70
     2
  0
APPID
  5
56
330
9
100
AcDbSymbolTableRecord
100
AcDbRegAppTableRecord
  2
ACAD
 70
     0
  0
APPID
  5
5E
330
9
100
AcDbSymbolTableRecord
100
AcDbRegAppTableRecord
  2
AcadAnnotative
 70
     0
  0
ENDTAB
  0
TABLE
  2
DIMSTYLE
  5
A
330
0
100
AcDbSymbolTable
 70
     2
100
AcDbDimStyleTable
 71
     0
  0
DIMSTYLE
105
58
330
A
100
AcDbSymbolTableRecord
100
AcDbDimStyleTableRecord
  2
Standard
 70
     0
340
55
  0
DIMSTYLE
105
59
330
A
100
AcDbSymbolTableRecord
100
AcDbDimStyleTableRecord
  2
Annotative
 70
     0
340
55
1001
AcadAnnotative
1000
AnnotativeData
1002
{
1070
     1
1070
     1
1002
}
  0
ENDTAB
  0
TABLE
  2
BLOCK_RECORD
  5
1
330
0
100
AcDbSymbolTable
 70
     2
  0
BLOCK_RECORD
  5
70
330
1
100
AcDbSymbolTableRecord
100
AcDbBlockTableRecord
  2
*Model_Space
340
73
 70
     0
280
     1
281
     0
  0
BLOCK_RECORD
  5
6C
330
1
100
AcDbSymbolTableRecord
100
AcDbBlockTableRecord
  2
*Paper_Space
340
6F
 70
     0
280
     1
281
     0
  0
BLOCK_RECORD
  5
74
330
1
100
AcDbSymbolTableRecord
100
AcDbBlockTableRecord
  2
*Paper_Space0
340
77
 70
     0
280
     1
281
     0
  0
BLOCK_RECORD
  5
7C
330
1
100
AcDbSymbolTableRecord
100
AcDbBlockTableRecord
  2
Block_0
340
0
102
{BLKREFS
331
7D
102
}
 70
     0
280
     1
281
     0
  0
ENDTAB
  0
ENDSEC
  0
SECTION
  2
BLOCKS
  0
BLOCK
  5
71
330
70
100
AcDbEntity
  8
0
100
AcDbBlockBegin
  2
*Model_Space
 70
     0
 10
0.0
 20
0.0
 30
0.0
  3
*Model_Space
  1

  0
ENDBLK
  5
72
330
70
100
AcDbEntity
  8
0
100
AcDbBlockEnd
  0
BLOCK
  5
6D
330
6C
100
AcDbEntity
 67
     1
  8
0
100
AcDbBlockBegin
  2
*Paper_Space
 70
     0
 10
0.0
 20
0.0
 30
0.0
  3
*Paper_Space
  1

  0
ENDBLK
  5
6E
330
6C
100
AcDbEntity
 67
     1
  8
0
100
AcDbBlockEnd
  0
BLOCK
  5
75
330
74
100
AcDbEntity
 67
     1
  8
0
100
AcDbBlockBegin
  2
*Paper_Space0
 70
     0
 10
0.0
 20
0.0
 30
0.0
  3
*Paper_Space0
  1

  0
ENDBLK
  5
76
330
74
100
AcDbEntity
 67
     1
  8
0
100
AcDbBlockEnd
  0
BLOCK
  5
7E
330
7C
100
AcDbEntity
  8
0
100
AcDbBlockBegin
  2
Block_0
 70
     0
 10
0.0
 20
0.0
 30
0.0
  3
Block_0
  1

  0
SPLINE
  5
80
330
7C
100
AcDbEntity
  8
Layer 3
100
AcDbSpline
210
0.0
220
0.0
230
1.0
 70
     9
 71
     3
 72
    17
 73
    13
 74
     0
 42
0.0000000001
 43
0.0000000001
 40
0.0
 40
0.0
 40
0.0
 40
0.0
 40
1.0
 40
1.0
 40
1.0
 40
2.0
 40
2.0
 40
2.0
 40
3.0
 40
3.0
 40
3.0
 40
4.0
 40
4.0
 40
4.0
 40
4.0
 10
5.088921129668025
 20
-9.653569686810492
 30
0.0
 10
5.079294615210124
 20
-9.653414673001153
 30
0.0
 10
5.07228406392384
 20
-9.660207344219037
 30
0.0
 10
5.072088552303663
 20
-9.669879306649514
 30
0.0
 10
5.071883751669802
 20
-9.67999707198957
 30
0.0
 10
5.0799417498263
 20
-9.688359562083961
 30
0.0
 10
5.089949556177012
 20
-9.688415287447696
 30
0.0
 10
5.099286636765782
 20
-9.688467179849844
 30
0.0
 10
5.106903775386525
 20
-9.681136051248611
 30
0.0
 10
5.107074811193064
 20
-9.671933258050859
 30
0.0
 10
5.107261623578247
 20
-9.661879731671735
 30
0.0
 10
5.099210260431517
 20
-9.653735351830214
 30
0.0
 10
5.088921129668025
 20
-9.653569686810492
 30
0.0
  0
SPLINE
  5
81
330
7C
100
AcDbEntity
  8
Layer 3
100
AcDbSpline
210
0.0
220
0.0
230
1.0
 70
     9
 71
     3
 72
    17
 73
    13
 74
     0
 42
0.0000000001
 43
0.0000000001
 40
0.0
 40
0.0
 40
0.0
 40
0.0
 40
1.0
 40
1.0
 40
1.0
 40
2.0
 40
2.0
 40
2.0
 40
3.0
 40
3.0
 40
3.0
 40
4.0
 40
4.0
 40
4.0
 40
4.0
 10
3.580817071085523
 20
-10.73594856127091
 30
0.0
 10
3.581195782696719
 20
-10.72661205668454
 30
0.0
 10
3.572326802044774
 20
-10.71742828087281
 30
0.0
 10
3.562653989963387
 20
-10.71714095618012
 30
0.0
 10
3.553705684083903
 20
-10.71687500761896
 30
0.0
 10
3.54553282653665
 20
-10.72451292056373
 30
0.0
 10
3.545197316211038
 20
-10.73345477753466
 30
0.0
 10
3.544833607094056
 20
-10.74314818980752
 30
0.0
 10
3.55337662446219
 20
-10.75208606639535
 30
0.0
 10
3.563181141486842
 20
-10.7522697537053
 30
0.0
 10
3.571990923107502
 20
-10.75243486589402
 30
0.0
 10
3.58046648454332
 20
-10.74459115239976
 30
0.0
 10
3.580817071085523
 20
-10.73594856127091
 30
0.0
  0
SPLINE
  5
82
330
7C
100
AcDbEntity
  8
Layer 3
100
AcDbSpline
210
0.0
220
0.0
230
1.0
 70
     9
 71
     3
 72
    17
 73
    13
 74
     0
 42
0.0000000001
 43
0.0000000001
 40
0.0
 40
0.0
 40
0.0
 40
0.0
 40
1.0
 40
1.0
 40
1.0
 40
2.0
 40
2.0
 40
2.0
 40
3.0
 40
3.0
 40
3.0
 40
4.0
 40
4.0
 40
4.0
 40
4.0
 10
5.142538053560074
 20
-10.3266149538059
 30
0.0
 10
5.15223489912119
 20
-10.32634133932177
 30
0.0
 10
5.1592644707687
 20
-10.31850514432891
 30
0.0
 10
5.158989191587048
 20
-10.30827585455068
 30
0.0
 10
5.158725118199577
 20
-10.29845683907711
 30
0.0
 10
5.150723149014184
 20
-10.29035469552314
 30
0.0
 10
5.141518178841452
 20
-10.29058585258735
 30
0.0
 10
5.132335915146464
 20
-10.29081671480839
 30
0.0
 10
5.125047873008623
 20
-10.29915178448573
 30
0.0
 10
5.12520327968107
 20
-10.30924544639467
 30
0.0
 10
5.125359718466167
 20
-10.31941812627964
 30
0.0
 10
5.132815994962002
 20
-10.3268893053981
 30
0.0
 10
5.142538053560074
 20
-10.3266149538059
 30
0.0
  0
SPLINE
  5
83
330
7C
100
AcDbEntity
  8
Layer 3
100
AcDbSpline
210
0.0
220
0.0
230
1.0
 70
     9
 71
     3
 72
    17
 73
    13
 74
     0
 42
0.0000000001
 43
0.0000000001
 40
0.0
 40
0.0
 40
0.0
 40
0.0
 40
1.0
 40
1.0
 40
1.0
 40
2.0
 40
2.0
 40
2.0
 40
3.0
 40
3.0
 40
3.0
 40
4.0
 40
4.0
 40
4.0
 40
4.0
 10
3.485542865210391
 20
-9.508832121036903
 30
0.0
 10
3.485463466260549
 20
-9.499047491650848
 30
0.0
 10
3.477453166451823
 20
-9.491244540228155
 30
0.0
 10
3.467895674525733
 20
-9.49164169401072
 30
0.0
 10
3.458568638604472
 20
-9.492029302244846
 30
0.0
 10
3.451172685405481
 20
-9.500342958935208
 30
0.0
 10
3.451363018031972
 20
-9.510225734249514
 30
0.0
 10
3.451551894642433
 20
-9.520033029706103
 30
0.0
 10
3.458284881354781
 20
-9.526987532982223
 30
0.0
 10
3.467720141657082
 20
-9.527120949527569
 30
0.0
 10
3.477831951785371
 20
-9.527263985332107
 30
0.0
 10
3.485627535306826
 20
-9.519264520920538
 30
0.0
 10
3.485542865210391
 20
-9.508832121036903
 30
0.0
  0
SPLINE
  5
84
330
7C
100
AcDbEntity
  8
Layer 3
100
AcDbSpline
210
0.0
220
0.0
230
1.0
 70
     9
 71
     3
 72
    17
 73
    13
 74
     0
 42
0.0000000001
 43
0.0000000001
 40
0.0
 40
0.0
 40
0.0
 40
0.0
 40
1.0
 40
1.0
 40
1.0
 40
2.0
 40
2.0
 40
2.0
 40
3.0
 40
3.0
 40
3.0
 40
4.0
 40
4.0
 40
4.0
 40
4.0
 10
4.677343071443702
 20
-9.237654128872993
 30
0.0
 10
4.677793662327076
 20
-9.228160417581067
 30
0.0
 10
4.670327064704982
 20
-9.220548671969783
 30
0.0
 10
4.660071846213491
 20
-9.220047272690408
 30
0.0
 10
4.649665644389364
 20
-9.21953846547578
 30
0.0
 10
4.642051159772487
 20
-9.226246958961736
 30
0.0
 10
4.641797260066621
 20
-9.236147461723096
 30
0.0
 10
4.641550585149135
 20
-9.245768932256597
 30
0.0
 10
4.648970590258437
 20
-9.253522810715164
 30
0.0
 10
4.658886243696138
 20
-9.254004916193025
 30
0.0
 10
4.66882843717278
 20
-9.254488311609849
 30
0.0
 10
4.67688274921276
 20
-9.247353069455735
 30
0.0
 10
4.677343071443702
 20
-9.237654128872993
 30
0.0
  0
SPLINE
  5
85
330
7C
100
AcDbEntity
  8
Layer 3
100
AcDbSpline
210
0.0
220
0.0
230
1.0
 70
     9
 71
     3
 72
    17
 73
    13
 74
     0
 42
0.0000000001
 43
0.0000000001
 40
0.0
 40
0.0
 40
0.0
 40
0.0
 40
1.0
 40
1.0
 40
1.0
 40
2.0
 40
2.0
 40
2.0
 40
3.0
 40
3.0
 40
3.0
 40
4.0
 40
4.0
 40
4.0
 40
4.0
 10
4.159577137858883
 20
-11.02363060393271
 30
0.0
 10
4.169184705677858
 20
-11.02363664821819
 30
0.0
 10
4.177955008990617
 20
-11.0156214834065
 30
0.0
 10
4.178028657598663
 20
-11.00676763712903
 30
0.0
 10
4.178103412041688
 20
-10.99778789280764
 30
0.0
 10
4.169548820267689
 20
-10.98974014782299
 30
0.0
 10
4.159942505728293
 20
-10.98975282608035
 30
0.0
 10
4.149874099622012
 20
-10.98976638886728
 30
0.0
 10
4.141765970280857
 20
-10.99719687962493
 30
0.0
 10
4.141630837249269
 20
-11.00653426874083
 30
0.0
 10
4.141494524660376
 20
-11.01594374701774
 30
0.0
 10
4.149556946156685
 20
-11.02362426480405
 30
0.0
 10
4.159577137858883
 20
-11.02363060393271
 30
0.0
  0
SPLINE
  5
86
330
7C
100
AcDbEntity
  8
Layer 3
100
AcDbSpline
210
0.0
220
0.0
230
1.0
 70
     9
 71
     3
 72
    17
 73
    13
 74
     0
 42
0.0000000001
 43
0.0000000001
 40
0.0
 40
0.0
 40
0.0
 40
0.0
 40
1.0
 40
1.0
 40
1.0
 40
2.0
 40
2.0
 40
2.0
 40
3.0
 40
3.0
 40
3.0
 40
4.0
 40
4.0
 40
4.0
 40
4.0
 10
3.290972817399632
 20
-10.1578373481964
 30
0.0
 10
3.30005728842333
 20
-10.15789580085963
 30
0.0
 10
3.307592991514866
 20
-10.15042646451113
 30
0.0
 10
3.307869044781025
 20
-10.14109003363561
 30
0.0
 10
3.30816984110432
 20
-10.1309162480887
 30
0.0
 10
3.300178460288634
 20
-10.12290241007137
 30
0.0
 10
3.289771899068126
 20
-10.12294206648099
 30
0.0
 10
3.280317618404599
 20
-10.12297811106146
 30
0.0
 10
3.273165253000519
 20
-10.1300002439952
 30
0.0
 10
3.272907648747554
 20
-10.13949935460313
 30
0.0
 10
3.27263741954549
 20
-10.1494639489038
 30
0.0
 10
3.280821906790353
 20
-10.15777204042888
 30
0.0
 10
3.290972817399632
 20
-10.1578373481964
 30
0.0
  0
SPLINE
  5
87
330
7C
100
AcDbEntity
  8
Layer 3
100
AcDbSpline
210
0.0
220
0.0
230
1.0
 70
     9
 71
     3
 72
    17
 73
    13
 74
     0
 42
0.0000000001
 43
0.0000000001
 40
0.0
 40
0.0
 40
0.0
 40
0.0
 40
1.0
 40
1.0
 40
1.0
 40
2.0
 40
2.0
 40
2.0
 40
3.0
 40
3.0
 40
3.0
 40
4.0
 40
4.0
 40
4.0
 40
4.0
 10
4.03866293211326
 20
-9.153794108909247
 30
0.0
 10
4.038825489851786
 20
-9.144485420935525
 30
0.0
 10
4.031734728670041
 20
-9.137094549732056
 30
0.0
 10
4.022352087681055
 20
-9.136792952785981
 30
0.0
 10
4.011779715724236
 20
-9.136453109149289
 30
0.0
 10
4.003411420279133
 20
-9.143924601538653
 30
0.0
 10
4.00317838399274
 20
-9.153911954048401
 30
0.0
 10
4.00296680090451
 20
-9.162979165446104
 30
0.0
 10
4.010369112654517
 20
-9.170742248540641
 30
0.0
 10
4.019579390835032
 20
-9.171112276749328
 30
0.0
 10
4.02986601503926
 20
-9.171525554769029
 30
0.0
 10
4.038489905803822
 20
-9.163699448941718
 30
0.0
 10
4.03866293211326
 20
-9.153794108909247
 30
0.0
  0
SPLINE
  5
88
330
7C
100
AcDbEntity
  8
Layer 3
100
AcDbSpline
210
0.0
220
0.0
230
1.0
 70
     9
 71
     3
 72
    17
 73
    13
 74
     0
 42
0.0000000001
 43
0.0000000001
 40
0.0
 40
0.0
 40
0.0
 40
0.0
 40
1.0
 40
1.0
 40
1.0
 40
2.0
 40
2.0
 40
2.0
 40
3.0
 40
3.0
 40
3.0
 40
4.0
 40
4.0
 40
4.0
 40
4.0
 10
4.794965575137338
 20
-10.83372991591785
 30
0.0
 10
4.795033252236635
 20
-10.82451149603078
 30
0.0
 10
4.78774270353953
 20
-10.81694640935499
 30
0.0
 10
4.778432605323637
 20
-10.81657416982236
 30
0.0
 10
4.768739150989757
 20
-10.81618645102202
 30
0.0
 10
4.759449547581728
 20
-10.82489169632966
 30
0.0
 10
4.75940693607476
 20
-10.83440319035172
 30
0.0
 10
4.759366536237721
 20
-10.84339767683281
 30
0.0
 10
4.76705946141409
 20
-10.85130787746741
 30
0.0
 10
4.776110499360962
 20
-10.85157854351963
 30
0.0
 10
4.786097073680492
 20
-10.85187736709693
 30
0.0
 10
4.794893622142859
 20
-10.84355025818579
 30
0.0
 10
4.794965575137338
 20
-10.83372991591785
 30
0.0
  0
SPLINE
  5
89
330
7C
100
AcDbEntity
  8
Layer 3
100
AcDbSpline
210
0.0
220
0.0
230
1.0
 70
     9
 71
     3
 72
    17
 73
    13
 74
     0
 42
0.0000000001
 43
0.0000000001
 40
0.0
 40
0.0
 40
0.0
 40
0.0
 40
1.0
 40
1.0
 40
1.0
 40
2.0
 40
2.0
 40
2.0
 40
3.0
 40
3.0
 40
3.0
 40
4.0
 40
4.0
 40
4.0
 40
4.0
 10
4.231513323630021
 20
-10.57408097447049
 30
0.0
 10
4.508998129993894
 20
-10.57469026793125
 30
0.0
 10
4.736435057924659
 20
-10.34907212795406
 30
0.0
 10
4.737254555349282
 20
-10.07217198492713
 30
0.0
 10
4.738088944684654
 20
-9.790219408925015
 30
0.0
 10
4.512960852697106
 20
-9.566375635290265
 30
0.0
 10
4.236745176250931
 20
-9.56370372940935
 30
0.0
 10
3.953655039940359
 20
-9.560965299532805
 30
0.0
 10
3.727621490290933
 20
-9.787129673382574
 30
0.0
 10
3.72568086052686
 20
-10.0651380582656
 30
0.0
 10
3.723712658611222
 20
-10.34709210848364
 30
0.0
 10
3.949883552962167
 20
-10.57346254087077
 30
0.0
 10
4.231513323630021
 20
-10.57408097447049
 30
0.0
  0
SPLINE
  5
8A
330
7C
100
AcDbEntity
  8
Layer 3
100
AcDbSpline
210
0.0
220
0.0
230
1.0
 70
     9
 71
     3
 72
   611
 73
   607
 74
     0
 42
0.0000000001
 43
0.0000000001
 40
0.0
 40
0.0
 40
0.0
 40
0.0
 40
1.0
 40
1.0
 40
1.0
 40
2.0
 40
2.0
 40
2.0
 40
3.0
 40
3.0
 40
3.0
 40
4.0
 40
4.0
 40
4.0
 40
5.0
 40
5.0
 40
5.0
 40
6.0
 40
6.0
 40
6.0
 40
7.0
 40
7.0
 40
7.0
 40
8.0
 40
8.0
 40
8.0
 40
9.0
 40
9.0
 40
9.0
 40
10.0
 40
10.0
 40
10.0
 40
11.0
 40
11.0
 40
11.0
 40
12.0
 40
12.0
 40
12.0
 40
13.0
 40
13.0
 40
13.0
 40
14.0
 40
14.0
 40
14.0
 40
15.0
 40
15.0
 40
15.0
 40
16.0
 40
16.0
 40
16.0
 40
17.0
 40
17.0
 40
17.0
 40
18.0
 40
18.0
 40
18.0
 40
19.0
 40
19.0
 40
19.0
 40
20.0
 40
20.0
 40
20.0
 40
21.0
 40
21.0
 40
21.0
 40
22.0
 40
22.0
 40
22.0
 40
23.0
 40
23.0
 40
23.0
 40
24.0
 40
24.0
 40
24.0
 40
25.0
 40
25.0
 40
25.0
 40
26.0
 40
26.0
 40
26.0
 40
27.0
 40
27.0
 40
27.0
 40
28.0
 40
28.0
 40
28.0
 40
29.0
 40
29.0
 40
29.0
 40
30.0
 40
30.0
 40
30.0
 40
31.0
 40
31.0
 40
31.0
 40
32.0
 40
32.0
 40
32.0
 40
33.0
 40
33.0
 40
33.0
 40
34.0
 40
34.0
 40
34.0
 40
35.0
 40
35.0
 40
35.0
 40
36.0
 40
36.0
 40
36.0
 40
37.0
 40
37.0
 40
37.0
 40
38.0
 40
38.0
 40
38.0
 40
39.0
 40
39.0
 40
39.0
 40
40.0
 40
40.0
 40
40.0
 40
41.0
 40
41.0
 40
41.0
 40
42.0
 40
42.0
 40
42.0
 40
43.0
 40
43.0
 40
43.0
 40
44.0
 40
44.0
 40
44.0
 40
45.0
 40
45.0
 40
45.0
 40
46.0
 40
46.0
 40
46.0
 40
47.0
 40
47.0
 40
47.0
 40
48.0
 40
48.0
 40
48.0
 40
49.0
 40
49.0
 40
49.0
 40
50.0
 40
50.0
 40
50.0
 40
51.0
 40
51.0
 40
51.0
 40
52.0
 40
52.0
 40
52.0
 40
53.0
 40
53.0
 40
53.0
 40
54.0
 40
54.0
 40
54.0
 40
55.0
 40
55.0
 40
55.0
 40
56.0
 40
56.0
 40
56.0
 40
57.0
 40
57.0
 40
57.0
 40
58.0
 40
58.0
 40
58.0
 40
59.0
 40
59.0
 40
59.0
 40
60.0
 40
60.0
 40
60.0
 40
61.0
 40
61.0
 40
61.0
 40
62.0
 40
62.0
 40
62.0
 40
63.0
 40
63.0
 40
63.0
 40
64.0
 40
64.0
 40
64.0
 40
65.0
 40
65.0
 40
65.0
 40
66.0
 40
66.0
 40
66.0
 40
67.0
 40
67.0
 40
67.0
 40
68.0
 40
68.0
 40
68.0
 40
69.0
 40
69.0
 40
69.0
 40
70.0
 40
70.0
 40
70.0
 40
71.0
 40
71.0
 40
71.0
 40
72.0
 40
72.0
 40
72.0
 40
73.0
 40
73.0
 40
73.0
 40
74.0
 40
74.0
 40
74.0
 40
75.0
 40
75.0
 40
75.0
 40
76.0
 40
76.0
 40
76.0
 40
77.0
 40
77.0
 40
77.0
 40
78.0
 40
78.0
 40
78.0
 40
79.0
 40
79.0
 40
79.0
 40
80.0
 40
80.0
 40
80.0
 40
81.0
 40
81.0
 40
81.0
 40
82.0
 40
82.0
 40
82.0
 40
83.0
 40
83.0
 40
83.0
 40
84.0
 40
84.0
 40
84.0
 40
85.0
 40
85.0
 40
85.0
 40
86.0
 40
86.0
 40
86.0
 40
87.0
 40
87.0
 40
87.0
 40
88.0
 40
88.0
 40
88.0
 40
89.0
 40
89.0
 40
89.0
 40
90.0
 40
90.0
 40
90.0
 40
91.0
 40
91.0
 40
91.0
 40
92.0
 40
92.0
 40
92.0
 40
93.0
 40
93.0
 40
93.0
 40
94.0
 40
94.0
 40
94.0
 40
95.0
 40
95.0
 40
95.0
 40
96.0
 40
96.0
 40
96.0
 40
97.0
 40
97.0
 40
97.0
 40
98.0
 40
98.0
 40
98.0
 40
99.0
 40
99.0
 40
99.0
 40
100.0
 40
100.0
 40
100.0
 40
101.0
 40
101.0
 40
101.0
 40
102.0
 40
102.0
 40
102.0
 40
103.0
 40
103.0
 40
103.0
 40
104.0
 40
104.0
 40
104.0
 40
105.0
 40
105.0
 40
105.0
 40
106.0
 40
106.0
 40
106.0
 40
107.0
 40
107.0
 40
107.0
 40
108.0
 40
108.0
 40
108.0
 40
109.0
 40
109.0
 40
109.0
 40
110.0
 40
110.0
 40
110.0
 40
111.0
 40
111.0
 40
111.0
 40
112.0
 40
112.0
 40
112.0
 40
113.0
 40
113.0
 40
113.0
 40
114.0
 40
114.0
 40
114.0
 40
115.0
 40
115.0
 40
115.0
 40
116.0
 40
116.0
 40
116.0
 40
117.0
 40
117.0
 40
117.0
 40
118.0
 40
118.0
 40
118.0
 40
119.0
 40
119.0
 40
119.0
 40
120.0
 40
120.0
 40
120.0
 40
121.0
 40
121.0
 40
121.0
 40
122.0
 40
122.0
 40
122.0
 40
123.0
 40
123.0
 40
123.0
 40
124.0
 40
124.0
 40
124.0
 40
125.0
 40
125.0
 40
125.0
 40
126.0
 40
126.0
 40
126.0
 40
127.0
 40
127.0
 40
127.0
 40
128.0
 40
128.0
 40
128.0
 40
129.0
 40
129.0
 40
129.0
 40
130.0
 40
130.0
 40
130.0
 40
131.0
 40
131.0
 40
131.0
 40
132.0
 40
132.0
 40
132.0
 40
133.0
 40
133.0
 40
133.0
 40
134.0
 40
134.0
 40
134.0
 40
135.0
 40
135.0
 40
135.0
 40
136.0
 40
136.0
 40
136.0
 40
137.0
 40
137.0
 40
137.0
 40
138.0
 40
138.0
 40
138.0
 40
139.0
 40
139.0
 40
139.0
 40
140.0
 40
140.0
 40
140.0
 40
141.0
 40
141.0
 40
141.0
 40
142.0
 40
142.0
 40
142.0
 40
143.0
 40
143.0
 40
143.0
 40
144.0
 40
144.0
 40
144.0
 40
145.0
 40
145.0
 40
145.0
 40
146.0
 40
146.0
 40
146.0
 40
147.0
 40
147.0
 40
147.0
 40
148.0
 40
148.0
 40
148.0
 40
149.0
 40
149.0
 40
149.0
 40
150.0
 40
150.0
 40
150.0
 40
151.0
 40
151.0
 40
151.0
 40
152.0
 40
152.0
 40
152.0
 40
153.0
 40
153.0
 40
153.0
 40
154.0
 40
154.0
 40
154.0
 40
155.0
 40
155.0
 40
155.0
 40
156.0
 40
156.0
 40
156.0
 40
157.0
 40
157.0
 40
157.0
 40
158.0
 40
158.0
 40
158.0
 40
159.0
 40
159.0
 40
159.0
 40
160.0
 40
160.0
 40
160.0
 40
161.0
 40
161.0
 40
161.0
 40
162.0
 40
162.0
 40
162.0
 40
163.0
 40
163.0
 40
163.0
 40
164.0
 40
164.0
 40
164.0
 40
165.0
 40
165.0
 40
165.0
 40
166.0
 40
166.0
 40
166.0
 40
167.0
 40
167.0
 40
167.0
 40
168.0
 40
168.0
 40
168.0
 40
169.0
 40
169.0
 40
169.0
 40
170.0
 40
170.0
 40
170.0
 40
171.0
 40
171.0
 40
171.0
 40
172.0
 40
172.0
 40
172.0
 40
173.0
 40
173.0
 40
173.0
 40
174.0
 40
174.0
 40
174.0
 40
175.0
 40
175.0
 40
175.0
 40
176.0
 40
176.0
 40
176.0
 40
177.0
 40
177.0
 40
177.0
 40
178.0
 40
178.0
 40
178.0
 40
179.0
 40
179.0
 40
179.0
 40
180.0
 40
180.0
 40
180.0
 40
181.0
 40
181.0
 40
181.0
 40
182.0
 40
182.0
 40
182.0
 40
183.0
 40
183.0
 40
183.0
 40
184.0
 40
184.0
 40
184.0
 40
185.0
 40
185.0
 40
185.0
 40
186.0
 40
186.0
 40
186.0
 40
187.0
 40
187.0
 40
187.0
 40
188.0
 40
188.0
 40
188.0
 40
189.0
 40
189.0
 40
189.0
 40
190.0
 40
190.0
 40
190.0
 40
191.0
 40
191.0
 40
191.0
 40
192.0
 40
192.0
 40
192.0
 40
193.0
 40
193.0
 40
193.0
 40
194.0
 40
194.0
 40
194.0
 40
195.0
 40
195.0
 40
195.0
 40
196.0
 40
196.0
 40
196.0
 40
197.0
 40
197.0
 40
197.0
 40
198.0
 40
198.0
 40
198.0
 40
199.0
 40
199.0
 40
199.0
 40
200.0
 40
200.0
 40
200.0
 40
201.0
 40
201.0
 40
201.0
 40
202.0
 40
202.0
 40
202.0
 40
202.0
 10
4.189333092296288
 20
-10.94593603157439
 30
0.0
 10
4.183044724958537
 20
-10.92004820944061
 30
0.0
 10
4.158433114735847
 20
-10.92004098578238
 30
0.0
 10
4.142242880036166
 20
-10.90842313198123
 30
0.0
 10
4.149967063480643
 20
-10.89880357792849
 30
0.0
 10
4.16001335288782
 20
-10.89781688517925
 30
0.0
 10
4.170499248551095
 20
-10.89891723997986
 30
0.0
 10
4.189870159473204
 20
-10.90094988896039
 30
0.0
 10
4.204778731459049
 20
-10.91226361200678
 30
0.0
 10
4.219140873531992
 20
-10.92392569228706
 30
0.0
 10
4.230043447806666
 20
-10.93277894887812
 30
0.0
 10
4.240992614594132
 20
-10.94200385531546
 30
0.0
 10
4.24996093608628
 20
-10.95270548389074
 30
0.0
 10
4.262407993182654
 20
-10.96755806237504
 30
0.0
 10
4.278267951842204
 20
-10.97162232838496
 30
0.0
 10
4.294469023724458
 20
-10.96548443019052
 30
0.0
 10
4.369542610710064
 20
-10.93704179177934
 30
0.0
 10
4.437474199494292
 20
-10.89926176425226
 30
0.0
 10
4.466252153496776
 20
-10.81724980300179
 30
0.0
 10
4.488320785654902
 20
-10.75435768578477
 30
0.0
 10
4.487917819396973
 20
-10.69077607775817
 30
0.0
 10
4.465798466275524
 20
-10.6281382627961
 30
0.0
 10
4.456024212267518
 20
-10.60045956310099
 30
0.0
 10
4.441995737461916
 20
-10.57428264721531
 30
0.0
 10
4.427848569704362
 20
-10.54781707984259
 30
0.0
 10
4.426660165738464
 20
-10.5818038022552
 30
0.0
 10
4.41424001729269
 20
-10.60752223697394
 30
0.0
 10
4.38047378924893
 20
-10.61585833860246
 30
0.0
 10
4.34893935731313
 20
-10.62364323087952
 30
0.0
 10
4.325918674980306
 20
-10.60912927980371
 30
0.0
 10
4.31022894118165
 20
-10.5791782236112
 30
0.0
 10
4.302537564174195
 20
-10.6133974298824
 30
0.0
 10
4.284030162907962
 20
-10.63517970795904
 30
0.0
 10
4.249273033021406
 20
-10.63514123092222
 30
0.0
 10
4.216865876138424
 20
-10.63510526005251
 30
0.0
 10
4.198421212575365
 20
-10.6149774945599
 30
0.0
 10
4.190233463117388
 20
-10.58425748731699
 30
0.0
 10
4.176613188855147
 20
-10.66529381243794
 30
0.0
 10
4.138021023341606
 20
-10.73390677215133
 30
0.0
 10
4.091467435924414
 20
-10.7986954682148
 30
0.0
 10
4.049660239582483
 20
-10.85687820251309
 30
0.0
 10
3.993090146579586
 20
-10.89512422970857
 30
0.0
 10
3.924003033988785
 20
-10.91180115045674
 30
0.0
 10
3.797568942477432
 20
-10.94232125401398
 30
0.0
 10
3.682414146349022
 20
-10.91559165456086
 30
0.0
 10
3.57979159346976
 20
-10.83607288736028
 30
0.0
 10
3.558849696548147
 20
-10.81984574990479
 30
0.0
 10
3.539035566975725
 20
-10.80189613850901
 30
0.0
 10
3.520456212715038
 20
-10.78301438035492
 30
0.0
 10
3.512535817288203
 20
-10.77496501373272
 30
0.0
 10
3.506619637135422
 20
-10.76303374161615
 30
0.0
 10
3.504164536088713
 20
-10.75190252650696
 30
0.0
 10
3.498453340875585
 20
-10.72600910235249
 30
0.0
 10
3.504428425170367
 20
-10.70142714072567
 30
0.0
 10
3.520688548639251
 20
-10.68027700645729
 30
0.0
 10
3.533966825010793
 20
-10.66300538698649
 30
0.0
 10
3.549068254612949
 20
-10.65916269563695
 30
0.0
 10
3.569918035482714
 20
-10.66539435396715
 30
0.0
 10
3.592823121201465
 20
-10.67224061293559
 30
0.0
 10
3.610659317510655
 20
-10.68567646987195
 30
0.0
 10
3.624067676934171
 20
-10.70845030561056
 30
0.0
 10
3.636613632536763
 20
-10.68391551889484
 30
0.0
 10
3.618381326146391
 20
-10.66756557924898
 30
0.0
 10
3.61275907692488
 20
-10.6479646985443
 30
0.0
 10
3.628937774079859
 20
-10.64721918752785
 30
0.0
 10
3.641061190145794
 20
-10.65420785575907
 30
0.0
 10
3.646406722600179
 20
-10.66724965476644
 30
0.0
 10
3.654235518031479
 20
-10.68635003914899
 30
0.0
 10
3.659491330409789
 20
-10.70660237589118
 30
0.0
 10
3.664587681387451
 20
-10.72668222936479
 30
0.0
 10
3.667028775191384
 20
-10.73630030920154
 30
0.0
 10
3.667243749506799
 20
-10.74664591461987
 30
0.0
 10
3.667303059121599
 20
-10.75666881416221
 30
0.0
 10
3.667402879156952
 20
-10.77352573668041
 30
0.0
 10
3.676345102944171
 20
-10.78499322045253
 30
0.0
 10
3.690902129997513
 20
-10.78962609156239
 30
0.0
 10
3.718707981351422
 20
-10.79847581003514
 30
0.0
 10
3.746979905278067
 20
-10.80634399551455
 30
0.0
 10
3.775556154984542
 20
-10.81218513403408
 30
0.0
 10
3.825799287009708
 20
-10.82245496475151
 30
0.0
 10
3.874143147498165
 20
-10.81593170650229
 30
0.0
 10
3.918808116255402
 20
-10.78959808145893
 30
0.0
 10
3.975908493980796
 20
-10.75593303297116
 30
0.0
 10
4.01689132722428
 20
-10.70785442751518
 30
0.0
 10
4.041099602577383
 20
-10.64642959745389
 30
0.0
 10
4.051415715713775
 20
-10.62025386094102
 30
0.0
 10
4.057538428975147
 20
-10.59242611801124
 30
0.0
 10
4.063821045971154
 20
-10.56430161540654
 30
0.0
 10
4.038201946381327
 20
-10.58664350586574
 30
0.0
 10
4.011433957994691
 20
-10.59576035227241
 30
0.0
 10
3.981602143279284
 20
-10.5771516189161
 30
0.0
 10
3.956195953779645
 20
-10.56130350238674
 30
0.0
 10
3.950805966760046
 20
-10.5365387379795
 30
0.0
 10
3.957016630761573
 20
-10.50686247564393
 30
0.0
 10
3.931433433946671
 20
-10.52579848494578
 30
0.0
 10
3.905328799088869
 20
-10.53163254722863
 30
0.0
 10
3.879113949347154
 20
-10.51320882797669
 30
0.0
 10
3.853451279860084
 20
-10.49517312236821
 30
0.0
 10
3.850251656998756
 20
-10.46894431408039
 30
0.0
 10
3.857960653643178
 20
-10.44189186132967
 30
0.0
 10
3.832033320989997
 20
-10.45674237591159
 30
0.0
 10
3.806742064603415
 20
-10.47306858068032
 30
0.0
 10
3.779894161210626
 20
-10.48621785003196
 30
0.0
 10
3.726206869354225
 20
-10.51251270319527
 30
0.0
 10
3.669816363948156
 20
-10.53164905844753
 30
0.0
 10
3.610163313671793
 20
-10.53830838683087
 30
0.0
 10
3.543934084079789
 20
-10.54570172734606
 30
0.0
 10
3.481723643023264
 20
-10.53011012439558
 30
0.0
 10
3.42533745037354
 20
-10.4958494926556
 30
0.0
 10
3.318495197177879
 20
-10.43093150785151
 30
0.0
 10
3.254810097561832
 20
-10.33590767417793
 30
0.0
 10
3.23467193070145
 20
-10.21223584380838
 30
0.0
 10
3.231185256123808
 20
-10.19082366765117
 30
0.0
 10
3.228198091803379
 20
-10.16931316128875
 30
0.0
 10
3.225739184841359
 20
-10.14776152430072
 30
0.0
 10
3.225036652501532
 20
-10.14160409274468
 30
0.0
 10
3.226137870596478
 20
-10.13489095547836
 30
0.0
 10
3.227890932321441
 20
-10.12886266524133
 30
0.0
 10
3.236642477908718
 20
-10.09876809412405
 30
0.0
 10
3.273584945012139
 20
-10.07054533502494
 30
0.0
 10
3.303631181125486
 20
-10.07017648618901
 30
0.0
 10
3.318096027619983
 20
-10.06999899058615
 30
0.0
 10
3.329358219422298
 20
-10.07572956290788
 30
0.0
 10
3.337552474875918
 20
-10.08745157006736
 30
0.0
 10
3.349605707283343
 20
-10.10469385264034
 30
0.0
 10
3.357263208879986
 20
-10.12333398679685
 30
0.0
 10
3.355383363177325
 20
-10.14495970313742
 30
0.0
 10
3.355009425086993
 20
-10.14926161276182
 30
0.0
 10
3.355329416862054
 20
-10.15362389153021
 30
0.0
 10
3.355329416862054
 20
-10.15982193773632
 30
0.0
 10
3.379377309285397
 20
-10.14914935121563
 30
0.0
 10
3.376184948073614
 20
-10.12550218993591
 30
0.0
 10
3.383736436959149
 20
-10.10789968269046
 30
0.0
 10
3.397594373583968
 20
-10.11529317062725
 30
0.0
 10
3.404359724399354
 20
-10.13294558008329
 30
0.0
 10
3.396269878196158
 20
-10.1509138403111
 30
0.0
 10
3.385625442661345
 20
-10.17455613667814
 30
0.0
 10
3.373441592715051
 20
-10.19792231239383
 30
0.0
 10
3.358698914403198
 20
-10.21917365158863
 30
0.0
 10
3.346521552021992
 20
-10.23672728857466
 30
0.0
 10
3.343841155533608
 20
-10.25315956318243
 30
0.0
 10
3.354305616429327
 20
-10.27059069282131
 30
0.0
 10
3.391120115390119
 20
-10.33191417053457
 30
0.0
 10
3.433681988797666
 20
-10.38731668093356
 30
0.0
 10
3.50703222415748
 20
-10.40815413399453
 30
0.0
 10
3.545646985565276
 20
-10.4191236276117
 30
0.0
 10
3.58484238404723
 20
-10.41951974944307
 30
0.0
 10
3.624176159343353
 20
-10.41280838123596
 30
0.0
 10
3.686221683546768
 20
-10.40222159408479
 30
0.0
 10
3.738851428573727
 20
-10.37277191874394
 30
0.0
 10
3.788028756868394
 20
-10.32961572041449
 30
0.0
 10
3.75085006959547
 20
-10.33497508515478
 30
0.0
 10
3.721330174059958
 20
-10.32664812366526
 30
0.0
 10
3.709596785982941
 20
-10.29036472019172
 30
0.0
 10
3.700654304167578
 20
-10.26271152443289
 30
0.0
 10
3.710583596236397
 20
-10.23906141472121
 30
0.0
 10
3.737158026644616
 20
-10.2204378654944
 30
0.0
 10
3.704990909669378
 20
-10.21758599469887
 30
0.0
 10
3.681354645877793
 20
-10.20496427353237
 30
0.0
 10
3.673613838047812
 20
-10.17422406953073
 30
0.0
 10
3.665901597620859
 20
-10.14359715902638
 30
0.0
 10
3.680034979302616
 20
-10.12150573786059
 30
0.0
 10
3.705392290897204
 20
-10.10587153006862
 30
0.0
 10
3.680535517064804
 20
-10.10178345547077
 30
0.0
 10
3.655392516284665
 20
-10.09943237584053
 30
0.0
 10
3.631195409864605
 20
-10.09333133304532
 30
0.0
 10
3.561034900143315
 20
-10.0756408888172
 30
0.0
 10
3.492991769473165
 20
-10.05193077851552
 30
0.0
 10
3.435895004141962
 20
-10.00561076529114
 30
0.0
 10
3.377775507351821
 20
-9.958461210739944
 30
0.0
 10
3.344169570084911
 20
-9.896022857198708
 30
0.0
 10
3.328135055377591
 20
-9.823426197378264
 30
0.0
 10
3.318210739566059
 20
-9.778493642514805
 30
0.0
 10
3.316901136088972
 20
-9.733232779754617
 30
0.0
 10
3.322430034409636
 20
-9.687849409647292
 30
0.0
 10
3.330041680716779
 20
-9.625370220323675
 30
0.0
 10
3.352288389163959
 20
-9.568090775006112
 30
0.0
 10
3.386879035597909
 20
-9.515559668764277
 30
0.0
 10
3.395505230185335
 20
-9.502459490804488
 30
0.0
 10
3.40422232440609
 20
-9.489415849027206
 30
0.0
 10
3.412634208179042
 20
-9.476178826969922
 30
0.0
 10
3.420139915497404
 20
-9.464367814021189
 30
0.0
 10
3.430691331881841
 20
-9.456837887396279
 30
0.0
 10
3.444022209136114
 20
-9.453289044145144
 30
0.0
 10
3.471171950180102
 20
-9.446061368649679
 30
0.0
 10
3.497416952354948
 20
-9.446961488066031
 30
0.0
 10
3.521583205979747
 20
-9.463184497716811
 30
0.0
 10
3.53310239382578
 20
-9.47091746073627
 30
0.0
 10
3.539011386051369
 20
-9.481780368538794
 30
0.0
 10
3.538651215606225
 20
-9.495791980522527
 30
0.0
 10
3.538048351249446
 20
-9.51924594579931
 30
0.0
 10
3.530515329807687
 20
-9.539953815276476
 30
0.0
 10
3.513691672845248
 20
-9.556692726806177
 30
0.0
 10
3.510944483925539
 20
-9.559426070637679
 30
0.0
 10
3.506918249434697
 20
-9.560874340407382
 30
0.0
 10
3.504652946527559
 20
-9.564322199864514
 30
0.0
 10
3.529975792932696
 20
-9.574293354426268
 30
0.0
 10
3.54307448170741
 20
-9.55423056500255
 30
0.0
 10
3.560994131694592
 20
-9.545234272606901
 30
0.0
 10
3.565637569535485
 20
-9.555178928136582
 30
0.0
 10
3.563396152663421
 20
-9.564755435082942
 30
0.0
 10
3.557147705967559
 20
-9.571113102023243
 30
0.0
 10
3.547759019747495
 20
-9.580665837237068
 30
0.0
 10
3.537232908552975
 20
-9.590520197038586
 30
0.0
 10
3.525231429221498
 20
-9.595765604884288
 30
0.0
 10
3.505511885398972
 20
-9.604384350569842
 30
0.0
 10
3.48445018969048
 20
-9.610302995994061
 30
0.0
 10
3.463518189991721
 20
-9.615654436823458
 30
0.0
 10
3.448476235879651
 20
-9.619500039749507
 30
0.0
 10
3.439615843879184
 20
-9.628315298423936
 30
0.0
 10
3.435154831944828
 20
-9.64222161453199
 30
0.0
 10
3.423626447238044
 20
-9.678159093228005
 30
0.0
 10
3.423706343813616
 20
-9.715216091532207
 30
0.0
 10
3.426721384390222
 20
-9.752165988046119
 30
0.0
 10
3.435950093153349
 20
-9.865265994556567
 30
0.0
 10
3.509155869606729
 20
-9.924572007713827
 30
0.0
 10
3.607169855307397
 20
-9.959583973623313
 30
0.0
 10
3.637221215122685
 20
-9.970318845768764
 30
0.0
 10
3.670954821035239
 20
-9.97077135636098
 30
0.0
 10
3.703023813588717
 20
-9.975794894703135
 30
0.0
 10
3.705593073664026
 20
-9.976197281952357
 30
0.0
 10
3.708330789264285
 20
-9.975524597204891
 30
0.0
 10
3.713505359634508
 20
-9.975187886277126
 30
0.0
 10
3.69163312376453
 20
-9.953973476192407
 30
0.0
 10
3.681025033338603
 20
-9.930755680314177
 30
0.0
 10
3.693216531976683
 20
-9.902829091203582
 30
0.0
 10
3.705134963102965
 20
-9.875528011929366
 30
0.0
 10
3.72776005141092
 20
-9.865075968117908
 30
0.0
 10
3.759320654774001
 20
-9.867061515898209
 30
0.0
 10
3.738753525318947
 20
-9.84462063183658
 30
0.0
 10
3.727666460912486
 20
-9.821059122504721
 30
0.0
 10
3.741002941063874
 20
-9.792937199778002
 30
0.0
 10
3.753962515801124
 20
-9.765609953170294
 30
0.0
 10
3.777331056949909
 20
-9.756487799586162
 30
0.0
 10
3.808544280692179
 20
-9.759123402898744
 30
0.0
 10
3.801175881214172
 20
-9.751688636914776
 30
0.0
 10
3.795010851335165
 20
-9.74615936878389
 30
0.0
 10
3.789640843067091
 20
-9.73994341085376
 30
0.0
 10
3.732505705262913
 20
-9.673807207682127
 30
0.0
 10
3.690044518128085
 20
-9.599412188654291
 30
0.0
 10
3.670446358122514
 20
-9.513970279670754
 30
0.0
 10
3.656190597372313
 20
-9.451819471954674
 30
0.0
 10
3.665291176725203
 20
-9.39043580937434
 30
0.0
 10
3.691188836140402
 20
-9.332468181613876
 30
0.0
 10
3.740637831222607
 20
-9.221784544073518
 30
0.0
 10
3.823353696143637
 20
-9.147258393535038
 30
0.0
 10
3.939063768864545
 20
-9.110058548310208
 30
0.0
 10
3.959317725860096
 20
-9.103547069967943
 30
0.0
 10
3.980005907381634
 20
-9.098397638188846
 30
0.0
 10
4.000353565459136
 20
-9.092162621410402
 30
0.0
 10
4.044697031133511
 20
-9.078574671455093
 30
0.0
 10
4.09500478078126
 20
-9.130417862455688
 30
0.0
 10
4.09213808796398
 20
-9.163958588467872
 30
0.0
 10
4.091320138708271
 20
-9.173528378517705
 30
0.0
 10
4.086620118978796
 20
-9.184192322447263
 30
0.0
 10
4.080408717753976
 20
-9.191592739199121
 30
0.0
 10
4.065258926303108
 20
-9.209642514356245
 30
0.0
 10
4.044365722980728
 20
-9.21787016897244
 30
0.0
 10
4.020979967667825
 20
-9.219750457732414
 30
0.0
 10
4.018335326509663
 20
-9.219963076530802
 30
0.0
 10
4.015702996980684
 20
-9.220329124356339
 30
0.0
 10
4.010986316004568
 20
-9.220856414553709
 30
0.0
 10
4.025532616458828
 20
-9.242707556943917
 30
0.0
 10
4.048206803838815
 20
-9.236888255248432
 30
0.0
 10
4.066779228200453
 20
-9.241843058270912
 30
0.0
 10
4.061784982650376
 20
-9.259720488367241
 30
0.0
 10
4.037061535652506
 20
-9.265244007055823
 30
0.0
 10
4.017522464094781
 20
-9.258917777771127
 30
0.0
 10
3.993956162794726
 20
-9.251287622887906
 30
0.0
 10
3.970823938576005
 20
-9.241726152944414
 30
0.0
 10
3.948585302723964
 20
-9.230800111843008
 30
0.0
 10
3.934296072035774
 20
-9.223779618974528
 30
0.0
 10
3.921562087629505
 20
-9.223197745930821
 30
0.0
 10
3.908801194572662
 20
-9.231310835538351
 30
0.0
 10
3.898004190675111
 20
-9.238175374784834
 30
0.0
 10
3.887111347748082
 20
-9.245519365920445
 30
0.0
 10
3.878153494826822
 20
-9.254531708842478
 30
0.0
 10
3.846379317872585
 20
-9.286498921224392
 30
0.0
 10
3.814163101825316
 20
-9.318483271366908
 30
0.0
 10
3.798195508563417
 20
-9.36211501491314
 30
0.0
 10
3.776021637778638
 20
-9.422705549301149
 30
0.0
 10
3.783723372773515
 20
-9.482283371028035
 30
0.0
 10
3.806203965313898
 20
-9.540922891144873
 30
0.0
 10
3.824727880382144
 20
-9.589241867514878
 30
0.0
 10
3.855839072419156
 20
-9.628582094659273
 30
0.0
 10
3.896155160906573
 20
-9.664783384303264
 30
0.0
 10
3.892756045419193
 20
-9.630589903100725
 30
0.0
 10
3.901473784710358
 20
-9.604193771300186
 30
0.0
 10
3.933275460093833
 20
-9.591469776400773
 30
0.0
 10
3.958532066985096
 20
-9.581364505041063
 30
0.0
 10
3.980464312832029
 20
-9.589445456740424
 30
0.0
 10
4.001299422958052
 20
-9.609580998722321
 30
0.0
 10
4.000323486748331
 20
-9.580837804530093
 30
0.0
 10
4.00691529519799
 20
-9.556854337731994
 30
0.0
 10
4.03257280412193
 20
-9.543185886370842
 30
0.0
 10
4.057916182196069
 20
-9.529684758522408
 30
0.0
 10
4.08135170008202
 20
-9.535652605904639
 30
0.0
 10
4.10464441781399
 20
-9.554119667106128
 30
0.0
 10
4.10464441781399
 20
-9.527509073737292
 30
0.0
 10
4.102578202060081
 20
-9.503000638631975
 30
0.0
 10
4.105033155662138
 20
-9.478953559414749
 30
0.0
 10
4.112298638766914
 20
-9.407784309208029
 30
0.0
 10
4.12635660250468
 20
-9.337863001248276
 30
0.0
 10
4.163756014434814
 20
-9.275677291469037
 30
0.0
 10
4.207722906445547
 20
-9.202571529590789
 30
0.0
 10
4.27417031727436
 20
-9.157623154547156
 30
0.0
 10
4.355222048031438
 20
-9.134520089526832
 30
0.0
 10
4.45294940131152
 20
-9.106663834338784
 30
0.0
 10
4.54853349900246
 20
-9.113862329571929
 30
0.0
 10
4.64103290694513
 20
-9.15682465468045
 30
0.0
 10
4.652702414622859
 20
-9.162244775546392
 30
0.0
 10
4.664409815578387
 20
-9.167583602615447
 30
0.0
 10
4.676102029733884
 20
-9.172955019071245
 30
0.0
 10
4.710507651549126
 20
-9.188761009879272
 30
0.0
 10
4.728660300961538
 20
-9.223947311041177
 30
0.0
 10
4.719980233781194
 20
-9.261166952222385
 30
0.0
 10
4.717342006465792
 20
-9.272479919733086
 30
0.0
 10
4.712579838811785
 20
-9.284685654007969
 30
0.0
 10
4.705061930447729
 20
-9.29318567002479
 30
0.0
 10
4.689149555211289
 20
-9.311176688461575
 30
0.0
 10
4.667082397499775
 20
-9.306238967916669
 30
0.0
 10
4.647393817055999
 20
-9.301651981778881
 30
0.0
 10
4.634170979876898
 20
-9.298571386375543
 30
0.0
 10
4.622203781429081
 20
-9.290102826442003
 30
0.0
 10
4.608799734761886
 20
-9.283621804480338
 30
0.0
 10
4.603617054935335
 20
-9.307745653494242
 30
0.0
 10
4.627077859580595
 20
-9.316917746144401
 30
0.0
 10
4.636871871173171
 20
-9.333204128654212
 30
0.0
 10
4.626890604861399
 20
-9.339812946712855
 30
0.0
 10
4.614429909133908
 20
-9.339491217504928
 30
0.0
 10
4.603219101795906
 20
-9.328914307600774
 30
0.0
 10
4.592570206060094
 20
-9.318867599470497
 30
0.0
 10
4.582905355990381
 20
-9.307099301929509
 30
0.0
 10
4.575453502834357
 20
-9.294521070134225
 30
0.0
 10
4.566705905999393
 20
-9.2797557836631
 30
0.0
 10
4.560188409658798
 20
-9.263545691829778
 30
0.0
 10
4.553875124173347
 20
-9.247501430865465
 30
0.0
 10
4.548624472358142
 20
-9.234157620288796
 30
0.0
 10
4.539499712080896
 20
-9.224750648179098
 30
0.0
 10
4.525892339226502
 20
-9.224112275808339
 30
0.0
 10
4.499957265728602
 20
-9.222895513229104
 30
0.0
 10
4.473701352648857
 20
-9.222227122135638
 30
0.0
 10
4.447952944091538
 20
-9.224914249296437
 30
0.0
 10
4.416055798290244
 20
-9.228243047386209
 30
0.0
 10
4.384353500608136
 20
-9.234244470037184
 30
0.0
 10
4.355641454369055
 20
-9.250495065954307
 30
0.0
 10
4.306118626372986
 20
-9.278524260496498
 30
0.0
 10
4.274090770879865
 20
-9.321400247225229
 30
0.0
 10
4.252342609691924
 20
-9.372568717217543
 30
0.0
 10
4.23048150589385
 20
-9.424002969921678
 30
0.0
 10
4.223708193066764
 20
-9.477733756265125
 30
0.0
 10
4.231640715816916
 20
-9.533181488238975
 30
0.0
 10
4.231865716369282
 20
-9.534754071270425
 30
0.0
 10
4.232206092368692
 20
-9.536313091514935
 30
0.0
 10
4.232572418628402
 20
-9.537859580923697
 30
0.0
 10
4.232633165828651
 20
-9.538116057647231
 30
0.0
 10
4.233106758079101
 20
-9.538274756996491
 30
0.0
 10
4.234009119403077
 20
-9.538925144227404
 30
0.0
 10
4.251249381254561
 20
-9.515006284944268
 30
0.0
 10
4.273213475148192
 20
-9.500797238586629
 30
0.0
 10
4.303885650707747
 20
-9.510019675712202
 30
0.0
 10
4.331281900793984
 20
-9.518257152292283
 30
0.0
 10
4.344051640530475
 20
-9.538711493477876
 30
0.0
 10
4.346950402561484
 20
-9.568692144555976
 30
0.0
 10
4.362810950999649
 20
-9.546852556333456
 30
0.0
 10
4.381574979697991
 20
-9.533554796578147
 30
0.0
 10
4.407722520952043
 20
-9.536083887786894
 30
0.0
 10
4.434278926250473
 20
-9.538652487983602
 30
0.0
 10
4.450302179871843
 20
-9.554888175891745
 30
0.0
 10
4.459954497145367
 20
-9.580072944429048
 30
0.0
 10
4.470441056309608
 20
-9.566704643439555
 30
0.0
 10
4.479624647006529
 20
-9.553789848138068
 30
0.0
 10
4.490026130601537
 20
-9.541944117403241
 30
0.0
 10
4.537687469755206
 20
-9.487665180706445
 30
0.0
 10
4.591384013764101
 20
-9.440235414554637
 30
0.0
 10
4.656934223832018
 20
-9.408999505432751
 30
0.0
 10
4.718846679229096
 20
-9.379496942593959
 30
0.0
 10
4.784796611772409
 20
-9.374472003746632
 30
0.0
 10
4.851469907821511
 20
-9.389467654890923
 30
0.0
 10
4.977399738593021
 20
-9.417790808097681
 30
0.0
 10
5.068691427319182
 20
-9.491353705920825
 30
0.0
 10
5.128223978446562
 20
-9.605233572679834
 30
0.0
 10
5.133064144326099
 20
-9.614492422939848
 30
0.0
 10
5.137511812518646
 20
-9.623991349270756
 30
0.0
 10
5.142900177646979
 20
-9.632921375658547
 30
0.0
 10
5.153155543583099
 20
-9.649917243032025
 30
0.0
 10
5.154891409574525
 20
-9.667484221672566
 30
0.0
 10
5.148420800636055
 20
-9.68614071962631
 30
0.0
 10
5.141230366863585
 20
-9.706873134799378
 30
0.0
 10
5.129720246864179
 20
-9.724499524343576
 30
0.0
 10
5.111085453411027
 20
-9.736520944766702
 30
0.0
 10
5.095112625863672
 20
-9.746825198427105
 30
0.0
 10
5.078674610411527
 20
-9.747436998054984
 30
0.0
 10
5.062539741181959
 20
-9.736243202477806
 30
0.0
 10
5.041881417204219
 20
-9.721911095942029
 30
0.0
 10
5.028216098598098
 20
-9.702836584049741
 30
0.0
 10
5.021744310102323
 20
-9.67758429642097
 30
0.0
 10
5.003979735037142
 20
-9.694278981471597
 30
0.0
 10
5.014641900792386
 20
-9.715375896543415
 30
0.0
 10
5.013310622950156
 20
-9.735639511037788
 30
0.0
 10
4.999086194190391
 20
-9.732554050721672
 30
0.0
 10
4.992227216015382
 20
-9.722683806243113
 30
0.0
 10
4.988542279053111
 20
-9.709884515762951
 30
0.0
 10
4.981199387501393
 20
-9.684378662987201
 30
0.0
 10
4.988186200197282
 20
-9.659687609378527
 30
0.0
 10
4.993210082124151
 20
-9.63491311514589
 30
0.0
 10
4.993847632837387
 20
-9.631769828708355
 30
0.0
 10
4.994234380182635
 20
-9.628439095710088
 30
0.0
 10
4.995585415609386
 20
-9.625598355245175
 30
0.0
 10
5.008115852661451
 20
-9.599248956090933
 30
0.0
 10
4.996347262171664
 20
-9.580215648535006
 30
0.0
 10
4.97604413238173
 20
-9.565171753673086
 30
0.0
 10
4.933787377269077
 20
-9.533860917524481
 30
0.0
 10
4.889205862189883
 20
-9.505893124077525
 30
0.0
 10
4.836023015379169
 20
-9.498449623363891
 30
0.0
 10
4.786799352599826
 20
-9.49156024357833
 30
0.0
 10
4.74035826545878
 20
-9.503801395891917
 30
0.0
 10
4.696272311884462
 20
-9.526282526049573
 30
0.0
 10
4.639533099855649
 20
-9.555216115234442
 30
0.0
 10
4.597932473483498
 20
-9.599303870635795
 30
0.0
 10
4.566257231896618
 20
-9.653651874350845
 30
0.0
 10
4.565527970604382
 20
-9.654902930879112
 30
0.0
 10
4.565371089485299
 20
-9.656487344493699
 30
0.0
 10
4.564474920837079
 20
-9.659508123584094
 30
0.0
 10
4.593645962305168
 20
-9.649291217219998
 30
0.0
 10
4.619056132810631
 20
-9.652675611679619
 30
0.0
 10
4.637926542831741
 20
-9.677183457098482
 30
0.0
 10
4.655836498332493
 20
-9.700444152661475
 30
0.0
 10
4.65302988921447
 20
-9.725006286083548
 30
0.0
 10
4.637296954130179
 20
-9.751456890164162
 30
0.0
 10
4.664692466993098
 20
-9.743348481192343
 30
0.0
 10
4.688638217127718
 20
-9.745668012600818
 30
0.0
 10
4.707513787711907
 20
-9.765809046037196
 30
0.0
 10
4.726591947260051
 20
-9.786165978402449
 30
0.0
 10
4.726436245698247
 20
-9.809838717329309
 30
0.0
 10
4.715617198823943
 20
-9.836247379965596
 30
0.0
 10
4.724038942958562
 20
-9.834122518776085
 30
0.0
 10
4.731165533192905
 20
-9.832125398400421
 30
0.0
 10
4.738381769780996
 20
-9.830535087921917
 30
0.0
 10
4.796605454654556
 20
-9.817704175509181
 30
0.0
 10
4.855311136124251
 20
-9.815078449443564
 30
0.0
 10
4.91476391969013
 20
-9.819685595484719
 30
0.0
 10
4.964632947749704
 20
-9.823549957809012
 30
0.0
 10
5.011379097893899
 20
-9.83605337314384
 30
0.0
 10
5.053899631504691
 20
-9.862440143672907
 30
0.0
 10
5.133248745041403
 20
-9.911681536975871
 30
0.0
 10
5.181967557302186
 20
-9.983840428363793
 30
0.0
 10
5.208446259264392
 20
-10.07208869172473
 30
0.0
 10
5.220052660627313
 20
-10.11077020231803
 30
0.0
 10
5.226025791280309
 20
-10.15022987781144
 30
0.0
 10
5.225491599274315
 20
-10.19088477390318
 30
0.0
 10
5.224883684937897
 20
-10.23716402505599
 30
0.0
 10
5.214900944179513
 20
-10.28181131912909
 30
0.0
 10
5.204230668967915
 20
-10.32629888190179
 30
0.0
 10
5.199756460736453
 20
-10.34495287368842
 30
0.0
 10
5.18437813006138
 20
-10.35599298225058
 30
0.0
 10
5.167293274882391
 20
-10.36375635097445
 30
0.0
 10
5.147004889558527
 20
-10.37297521312631
 30
0.0
 10
5.125712700984093
 20
-10.37901964602825
 30
0.0
 10
5.10449910041383
 20
-10.36931134417409
 30
0.0
 10
5.095567640086831
 20
-10.36522378555178
 30
0.0
 10
5.086622319961734
 20
-10.3564421758569
 30
0.0
 10
5.082475733766512
 20
-10.3475582555736
 30
0.0
 10
5.072184243888487
 20
-10.32550825987664
 30
0.0
 10
5.072656951470965
 20
-10.30233771262025
 30
0.0
 10
5.083290955296003
 20
-10.27989550176426
 30
0.0
 10
5.084321003696256
 20
-10.27772154918289
 30
0.0
 10
5.085194908200719
 20
-10.27546481937477
 30
0.0
 10
5.085989487477667
 20
-10.27319356853938
 30
0.0
 10
5.08622908505145
 20
-10.27250842666692
 30
0.0
 10
5.085955870095024
 20
-10.27164387271083
 30
0.0
 10
5.085841747927562
 20
-10.26930982027503
 30
0.0
 10
5.06066571954342
 20
-10.2708334961917
 30
0.0
 10
5.056499375763627
 20
-10.29523494007288
 30
0.0
 10
5.042202404230743
 20
-10.30915625632845
 30
0.0
 10
5.035796523498346
 20
-10.30054712990209
 30
0.0
 10
5.032126625891426
 20
-10.29105524295245
 30
0.0
 10
5.037051130116929
 20
-10.28216623662411
 30
0.0
 10
5.044731375052505
 20
-10.26830256221299
 30
0.0
 10
5.053171844659092
 20
-10.25430871453171
 30
0.0
 10
5.063936189564249
 20
-10.24285648889488
 30
0.0
 10
5.075101436502109
 20
-10.23097806742089
 30
0.0
 10
5.088533939988817
 20
-10.22058263350274
 30
0.0
 10
5.102567280468242
 20
-10.21220547495942
 30
0.0
 10
5.121581743922913
 20
-10.20085467538138
 30
0.0
 10
5.12908018959173
 20
-10.18475667924495
 30
0.0
 10
5.124789255073588
 20
-10.1645092074155
 30
0.0
 10
5.112003886203056
 20
-10.10417780333975
 30
0.0
 10
5.093800220938015
 20
-10.04595246419987
 30
0.0
 10
5.046824646901641
 20
-10.00205230278081
 30
0.0
 10
5.012941568964252
 20
-9.970387323100617
 30
0.0
 10
4.971459635544002
 20
-9.953703031272551
 30
0.0
 10
4.926748811497291
 20
-9.944008955602535
 30
0.0
 10
4.869607222989164
 20
-9.931619644583861
 30
0.0
 10
4.814017636980502
 20
-9.939008120186372
 30
0.0
 10
4.759267453425662
 20
-9.95704360466243
 30
0.0
 10
4.756360729382953
 20
-9.958001107935462
 30
0.0
 10
4.75375272822301
 20
-9.959865106608958
 30
0.0
 10
4.750395855630964
 20
-9.961627163248067
 30
0.0
 10
4.80247699593628
 20
-9.982451569497698
 30
0.0
 10
4.810576573487145
 20
-10.05295911786596
 30
0.0
 10
4.747015097003845
 20
-10.07803951191251
 30
0.0
 10
4.774248125850615
 20
-10.08868755273725
 30
0.0
 10
4.792351823635599
 20
-10.10609531605299
 30
0.0
 10
4.792648039959127
 20
-10.13655328140708
 30
0.0
 10
4.792941749723417
 20
-10.16676048262454
 30
0.0
 10
4.775464544302066
 20
-10.18428050748636
 30
0.0
 10
4.747239655222225
 20
-10.19527638956944
 30
0.0
 10
4.75675602851854
 20
-10.19966454082815
 30
0.0
 10
4.76479397420116
 20
-10.20295845528254
 30
0.0
 10
4.772456968111403
 20
-10.20696824901233
 30
0.0
 10
4.849508893833065
 20
-10.24728731870593
 30
0.0
 10
4.916711811103722
 20
-10.29973144620544
 30
0.0
 10
4.966219747189041
 20
-10.3718748583257
 30
0.0
 10
4.994654450021218
 20
-10.41331049919563
 30
0.0
 10
5.009489742010651
 20
-10.46078556063316
 30
0.0
 10
5.012279837326659
 20
-10.51110615373752
 30
0.0
 10
5.020121681610437
 20
-10.65253653711296
 30
0.0
 10
4.965554919213571
 20
-10.76602168254577
 30
0.0
 10
4.856386155146006
 20
-10.85452402702933
 30
0.0
 10
4.846388375032271
 20
-10.86262926643682
 30
0.0
 10
4.83579595060155
 20
-10.8700327790422
 30
0.0
 10
4.826114734174502
 20
-10.87848917669397
 30
0.0
 10
4.809161841966897
 20
-10.89329767612076
 30
0.0
 10
4.790287450939987
 20
-10.89857212602111
 30
0.0
 10
4.768036872070423
 20
-10.89391728909327
 30
0.0
 10
4.748581991413983
 20
-10.88984712621944
 30
0.0
 10
4.731334209884835
 20
-10.88219373400701
 30
0.0
 10
4.717471905211949
 20
-10.86781364174137
 30
0.0
 10
4.70226564245599
 20
-10.8520390885889
 30
0.0
 10
4.699965800637098
 20
-10.83563519263852
 30
0.0
 10
4.709778980035555
 20
-10.81592123956893
 30
0.0
 10
4.719252889269555
 20
-10.79688881654258
 30
0.0
 10
4.724399740043509
 20
-10.79195697443381
 30
0.0
 10
4.759577529547262
 20
-10.76857546687203
 30
0.0
 10
4.75100966775378
 20
-10.75987125351558
 30
0.0
 10
4.741352189917127
 20
-10.7599347922239
 30
0.0
 10
4.731021332314664
 20
-10.76271560580966
 30
0.0
 10
4.721114378111931
 20
-10.76538216765766
 30
0.0
 10
4.711204622460652
 20
-10.7680372306211
 30
0.0
 10
4.700180037729195
 20
-10.77099716144726
 30
0.0
 10
4.701022094186933
 20
-10.75733751852653
 30
0.0
 10
4.707349239470482
 20
-10.74845846315596
 30
0.0
 10
4.717532062633532
 20
-10.74397360332957
 30
0.0
 10
4.728378091880762
 20
-10.73919670131939
 30
0.0
 10
4.740238540394253
 20
-10.73465110379498
 30
0.0
 10
4.751845826425096
 20
-10.7341152262896
 30
0.0
 10
4.77424576673603
 20
-10.73308135862928
 30
0.0
 10
4.796794183820363
 20
-10.73462928539862
 30
0.0
 10
4.819252069882976
 20
-10.73570914859723
 30
0.0
 10
4.833732315129231
 20
-10.73640556822182
 30
0.0
 10
4.844935013010879
 20
-10.73007115703846
 30
0.0
 10
4.851804312312171
 20
-10.71867281399535
 30
0.0
 10
4.862120278003885
 20
-10.70155554493673
 30
0.0
 10
4.872392747520708
 20
-10.68391935185632
 30
0.0
 10
4.879053560071597
 20
-10.66521155118678
 30
0.0
 10
4.888427944159578
 20
-10.63888175910496
 30
0.0
 10
4.897327556439828
 20
-10.61178596440469
 30
0.0
 10
4.901353975236487
 20
-10.58427503048708
 30
0.0
 10
4.909510908760365
 20
-10.52853919985712
 30
0.0
 10
4.890873608748001
 20
-10.47873871014725
 30
0.0
 10
4.859499301713791
 20
-10.43339315367954
 30
0.0
 10
4.820199549273183
 20
-10.37659338138347
 30
0.0
 10
4.76459595602172
 20
-10.33602575887718
 30
0.0
 10
4.696034483646624
 20
-10.3140000877437
 30
0.0
 10
4.710598477460179
 20
-10.34002781297315
 30
0.0
 10
4.714278106414692
 20
-10.36510909154928
 30
0.0
 10
4.695226192016181
 20
-10.38879133916912
 30
0.0
 10
4.677835536610751
 20
-10.41040865247866
 30
0.0
 10
4.653953630014282
 20
-10.41561985851391
 30
0.0
 10
4.620812493609895
 20
-10.40464830099437
 30
0.0
 10
4.634268883131704
 20
-10.43051961190925
 30
0.0
 10
4.637220135461903
 20
-10.45555769595744
 30
0.0
 10
4.618985064484149
 20
-10.4785077005046
 30
0.0
 10
4.600340244794071
 20
-10.50197323837675
 30
0.0
 10
4.575451291164451
 20
-10.50485533059969
 30
0.0
 10
4.546562606221792
 20
-10.49589991084182
 30
0.0
 10
4.553263818609719
 20
-10.51039012704051
 30
0.0
 10
4.560031086205703
 20
-10.52327624884133
 30
0.0
 10
4.565309899951089
 20
-10.53674542305862
 30
0.0
 10
4.586422353484041
 20
-10.59061504369113
 30
0.0
 10
4.597158978793004
 20
-10.6466909759455
 30
0.0
 10
4.602893543984842
 20
-10.70422711911902
 30
0.0
 10
4.609532387281306
 20
-10.77083602964163
 30
0.0
 10
4.595245736874681
 20
-10.83207569817705
 30
0.0
 10
4.561460562192021
 20
-10.88903247447398
 30
0.0
 10
4.519732248743594
 20
-10.95938029154179
 30
0.0
 10
4.458582672021419
 20
-11.0074003706237
 30
0.0
 10
4.384555794682733
 20
-11.04022143046818
 30
0.0
 10
4.336473058688524
 20
-11.06153992020048
 30
0.0
 10
4.286230258413853
 20
-11.07280086631504
 30
0.0
 10
4.233611313708302
 20
-11.07284863091253
 30
0.0
 10
4.210670841270939
 20
-11.0728694173577
 30
0.0
 10
4.187729705332609
 20
-11.07183835070772
 30
0.0
 10
4.16478879056126
 20
-11.07183437032462
 30
0.0
 10
4.143878557380578
 20
-11.0718306847847
 30
0.0
 10
4.127475265146054
 20
-11.06316966595619
 30
0.0
 10
4.114698816677496
 20
-11.04719491427492
 30
0.0
 10
4.100807612851061
 20
-11.02982643881483
 30
0.0
 10
4.091519557611996
 20
-11.01052865691377
 30
0.0
 10
4.092006567326557
 20
-10.98766725274643
 30
0.0
 10
4.092353725780387
 20
-10.97136891065959
 30
0.0
 10
4.099851950282198
 20
-10.95941611498988
 30
0.0
 10
4.114454427152243
 20
-10.95191088148249
 30
0.0
 10
4.137394825867255
 20
-10.94012069183433
 30
0.0
 10
4.154341820288436
 20
-10.93854681886392
 30
0.0
 10
4.189333092296288
 20
-10.94593603157439
 30
0.0
  0
HATCH
  5
8B
330
7C
100
AcDbEntity
  8
Layer 3
 62
    18
420
        0
440
 33554687
100
AcDbHatch
 10
0.0
 20
0.0
 30
0.0
210
0.0
220
0.0
230
1.0
  2
SOLID
 70
     1
 71
     1
 91
       11
 92
        1
 93
        1
 72
     4
 94
        3
 73
     0
 74
     0
 95
       17
 96
       13
 40
0.0
 40
0.0
 40
0.0
 40
0.0
 40
1.0
 40
1.0
 40
1.0
 40
2.0
 40
2.0
 40
2.0
 40
3.0
 40
3.0
 40
3.0
 40
4.0
 40
4.0
 40
4.0
 40
4.0
 10
5.088921129668025
 20
-9.653569686810492
 10
5.079294615210124
 20
-9.653414673001153
 10
5.07228406392384
 20
-9.660207344219037
 10
5.072088552303663
 20
-9.669879306649514
 10
5.071883751669802
 20
-9.67999707198957
 10
5.0799417498263
 20
-9.688359562083961
 10
5.089949556177012
 20
-9.688415287447696
 10
5.099286636765782
 20
-9.688467179849844
 10
5.106903775386525
 20
-9.681136051248611
 10
5.107074811193064
 20
-9.671933258050859
 10
5.107261623578247
 20
-9.661879731671735
 10
5.099210260431517
 20
-9.653735351830214
 10
5.088921129668025
 20
-9.653569686810492
 97
        0
 97
        1
330
80
 92
        1
 93
        1
 72
     4
 94
        3
 73
     0
 74
     0
 95
       17
 96
       13
 40
0.0
 40
0.0
 40
0.0
 40
0.0
 40
1.0
 40
1.0
 40
1.0
 40
2.0
 40
2.0
 40
2.0
 40
3.0
 40
3.0
 40
3.0
 40
4.0
 40
4.0
 40
4.0
 40
4.0
 10
3.580817071085523
 20
-10.73594856127091
 10
3.581195782696719
 20
-10.72661205668454
 10
3.572326802044774
 20
-10.71742828087281
 10
3.562653989963387
 20
-10.71714095618012
 10
3.553705684083903
 20
-10.71687500761896
 10
3.54553282653665
 20
-10.72451292056373
 10
3.545197316211038
 20
-10.73345477753466
 10
3.544833607094056
 20
-10.74314818980752
 10
3.55337662446219
 20
-10.75208606639535
 10
3.563181141486842
 20
-10.7522697537053
 10
3.571990923107502
 20
-10.75243486589402
 10
3.58046648454332
 20
-10.74459115239976
 10
3.580817071085523
 20
-10.73594856127091
 97
        0
 97
        1
330
81
 92
        1
 93
        1
 72
     4
 94
        3
 73
     0
 74
     0
 95
       17
 96
       13
 40
0.0
 40
0.0
 40
0.0
 40
0.0
 40
1.0
 40
1.0
 40
1.0
 40
2.0
 40
2.0
 40
2.0
 40
3.0
 40
3.0
 40
3.0
 40
4.0
 40
4.0
 40
4.0
 40
4.0
 10
5.142538053560074
 20
-10.3266149538059
 10
5.15223489912119
 20
-10.32634133932177
 10
5.1592644707687
 20
-10.31850514432891
 10
5.158989191587048
 20
-10.30827585455068
 10
5.158725118199577
 20
-10.29845683907711
 10
5.150723149014184
 20
-10.29035469552314
 10
5.141518178841452
 20
-10.29058585258735
 10
5.132335915146464
 20
-10.29081671480839
 10
5.125047873008623
 20
-10.29915178448573
 10
5.12520327968107
 20
-10.30924544639467
 10
5.125359718466167
 20
-10.31941812627964
 10
5.132815994962002
 20
-10.3268893053981
 10
5.142538053560074
 20
-10.3266149538059
 97
        0
 97
        1
330
82
 92
        1
 93
        1
 72
     4
 94
        3
 73
     0
 74
     0
 95
       17
 96
       13
 40
0.0
 40
0.0
 40
0.0
 40
0.0
 40
1.0
 40
1.0
 40
1.0
 40
2.0
 40
2.0
 40
2.0
 40
3.0
 40
3.0
 40
3.0
 40
4.0
 40
4.0
 40
4.0
 40
4.0
 10
3.485542865210391
 20
-9.508832121036903
 10
3.485463466260549
 20
-9.499047491650848
 10
3.477453166451823
 20
-9.491244540228155
 10
3.467895674525733
 20
-9.49164169401072
 10
3.458568638604472
 20
-9.492029302244846
 10
3.451172685405481
 20
-9.500342958935208
 10
3.451363018031972
 20
-9.510225734249514
 10
3.451551894642433
 20
-9.520033029706103
 10
3.458284881354781
 20
-9.526987532982223
 10
3.467720141657082
 20
-9.527120949527569
 10
3.477831951785371
 20
-9.527263985332107
 10
3.485627535306826
 20
-9.519264520920538
 10
3.485542865210391
 20
-9.508832121036903
 97
        0
 97
        1
330
83
 92
        1
 93
        1
 72
     4
 94
        3
 73
     0
 74
     0
 95
       17
 96
       13
 40
0.0
 40
0.0
 40
0.0
 40
0.0
 40
1.0
 40
1.0
 40
1.0
 40
2.0
 40
2.0
 40
2.0
 40
3.0
 40
3.0
 40
3.0
 40
4.0
 40
4.0
 40
4.0
 40
4.0
 10
4.677343071443702
 20
-9.237654128872993
 10
4.677793662327076
 20
-9.228160417581067
 10
4.670327064704982
 20
-9.220548671969783
 10
4.660071846213491
 20
-9.220047272690408
 10
4.649665644389364
 20
-9.21953846547578
 10
4.642051159772487
 20
-9.226246958961736
 10
4.641797260066621
 20
-9.236147461723096
 10
4.641550585149135
 20
-9.245768932256597
 10
4.648970590258437
 20
-9.253522810715164
 10
4.658886243696138
 20
-9.254004916193025
 10
4.66882843717278
 20
-9.254488311609849
 10
4.67688274921276
 20
-9.247353069455735
 10
4.677343071443702
 20
-9.237654128872993
 97
        0
 97
        1
330
84
 92
        1
 93
        1
 72
     4
 94
        3
 73
     0
 74
     0
 95
       17
 96
       13
 40
0.0
 40
0.0
 40
0.0
 40
0.0
 40
1.0
 40
1.0
 40
1.0
 40
2.0
 40
2.0
 40
2.0
 40
3.0
 40
3.0
 40
3.0
 40
4.0
 40
4.0
 40
4.0
 40
4.0
 10
4.159577137858883
 20
-11.02363060393271
 10
4.169184705677858
 20
-11.02363664821819
 10
4.177955008990617
 20
-11.0156214834065
 10
4.178028657598663
 20
-11.00676763712903
 10
4.178103412041688
 20
-10.99778789280764
 10
4.169548820267689
 20
-10.98974014782299
 10
4.159942505728293
 20
-10.98975282608035
 10
4.149874099622012
 20
-10.98976638886728
 10
4.141765970280857
 20
-10.99719687962493
 10
4.141630837249269
 20
-11.00653426874083
 10
4.141494524660376
 20
-11.01594374701774
 10
4.149556946156685
 20
-11.02362426480405
 10
4.159577137858883
 20
-11.02363060393271
 97
        0
 97
        1
330
85
 92
        1
 93
        1
 72
     4
 94
        3
 73
     0
 74
     0
 95
       17
 96
       13
 40
0.0
 40
0.0
 40
0.0
 40
0.0
 40
1.0
 40
1.0
 40
1.0
 40
2.0
 40
2.0
 40
2.0
 40
3.0
 40
3.0
 40
3.0
 40
4.0
 40
4.0
 40
4.0
 40
4.0
 10
3.290972817399632
 20
-10.1578373481964
 10
3.30005728842333
 20
-10.15789580085963
 10
3.307592991514866
 20
-10.15042646451113
 10
3.307869044781025
 20
-10.14109003363561
 10
3.30816984110432
 20
-10.1309162480887
 10
3.300178460288634
 20
-10.12290241007137
 10
3.289771899068126
 20
-10.12294206648099
 10
3.280317618404599
 20
-10.12297811106146
 10
3.273165253000519
 20
-10.1300002439952
 10
3.272907648747554
 20
-10.13949935460313
 10
3.27263741954549
 20
-10.1494639489038
 10
3.280821906790353
 20
-10.15777204042888
 10
3.290972817399632
 20
-10.1578373481964
 97
        0
 97
        1
330
86
 92
        1
 93
        1
 72
     4
 94
        3
 73
     0
 74
     0
 95
       17
 96
       13
 40
0.0
 40
0.0
 40
0.0
 40
0.0
 40
1.0
 40
1.0
 40
1.0
 40
2.0
 40
2.0
 40
2.0
 40
3.0
 40
3.0
 40
3.0
 40
4.0
 40
4.0
 40
4.0
 40
4.0
 10
4.03866293211326
 20
-9.153794108909247
 10
4.038825489851786
 20
-9.144485420935525
 10
4.031734728670041
 20
-9.137094549732056
 10
4.022352087681055
 20
-9.136792952785981
 10
4.011779715724236
 20
-9.136453109149289
 10
4.003411420279133
 20
-9.143924601538653
 10
4.00317838399274
 20
-9.153911954048401
 10
4.00296680090451
 20
-9.162979165446104
 10
4.010369112654517
 20
-9.170742248540641
 10
4.019579390835032
 20
-9.171112276749328
 10
4.02986601503926
 20
-9.171525554769029
 10
4.038489905803822
 20
-9.163699448941718
 10
4.03866293211326
 20
-9.153794108909247
 97
        0
 97
        1
330
87
 92
        1
 93
        1
 72
     4
 94
        3
 73
     0
 74
     0
 95
       17
 96
       13
 40
0.0
 40
0.0
 40
0.0
 40
0.0
 40
1.0
 40
1.0
 40
1.0
 40
2.0
 40
2.0
 40
2.0
 40
3.0
 40
3.0
 40
3.0
 40
4.0
 40
4.0
 40
4.0
 40
4.0
 10
4.794965575137338
 20
-10.83372991591785
 10
4.795033252236635
 20
-10.82451149603078
 10
4.78774270353953
 20
-10.81694640935499
 10
4.778432605323637
 20
-10.81657416982236
 10
4.768739150989757
 20
-10.81618645102202
 10
4.759449547581728
 20
-10.82489169632966
 10
4.75940693607476
 20
-10.83440319035172
 10
4.759366536237721
 20
-10.84339767683281
 10
4.76705946141409
 20
-10.85130787746741
 10
4.776110499360962
 20
-10.85157854351963
 10
4.786097073680492
 20
-10.85187736709693
 10
4.794893622142859
 20
-10.84355025818579
 10
4.794965575137338
 20
-10.83372991591785
 97
        0
 97
        1
330
88
 92
        1
 93
        1
 72
     4
 94
        3
 73
     0
 74
     0
 95
       17
 96
       13
 40
0.0
 40
0.0
 40
0.0
 40
0.0
 40
1.0
 40
1.0
 40
1.0
 40
2.0
 40
2.0
 40
2.0
 40
3.0
 40
3.0
 40
3.0
 40
4.0
 40
4.0
 40
4.0
 40
4.0
 10
4.231513323630021
 20
-10.57408097447049
 10
4.508998129993894
 20
-10.57469026793125
 10
4.736435057924659
 20
-10.34907212795406
 10
4.737254555349282
 20
-10.07217198492713
 10
4.738088944684654
 20
-9.790219408925015
 10
4.512960852697106
 20
-9.566375635290265
 10
4.236745176250931
 20
-9.56370372940935
 10
3.953655039940359
 20
-9.560965299532805
 10
3.727621490290933
 20
-9.787129673382574
 10
3.72568086052686
 20
-10.0651380582656
 10
3.723712658611222
 20
-10.34709210848364
 10
3.949883552962167
 20
-10.57346254087077
 10
4.231513323630021
 20
-10.57408097447049
 97
        0
 97
        1
330
89
 92
        1
 93
        1
 72
     4
 94
        3
 73
     0
 74
     0
 95
      611
 96
      607
 40
0.0
 40
0.0
 40
0.0
 40
0.0
 40
1.0
 40
1.0
 40
1.0
 40
2.0
 40
2.0
 40
2.0
 40
3.0
 40
3.0
 40
3.0
 40
4.0
 40
4.0
 40
4.0
 40
5.0
 40
5.0
 40
5.0
 40
6.0
 40
6.0
 40
6.0
 40
7.0
 40
7.0
 40
7.0
 40
8.0
 40
8.0
 40
8.0
 40
9.0
 40
9.0
 40
9.0
 40
10.0
 40
10.0
 40
10.0
 40
11.0
 40
11.0
 40
11.0
 40
12.0
 40
12.0
 40
12.0
 40
13.0
 40
13.0
 40
13.0
 40
14.0
 40
14.0
 40
14.0
 40
15.0
 40
15.0
 40
15.0
 40
16.0
 40
16.0
 40
16.0
 40
17.0
 40
17.0
 40
17.0
 40
18.0
 40
18.0
 40
18.0
 40
19.0
 40
19.0
 40
19.0
 40
20.0
 40
20.0
 40
20.0
 40
21.0
 40
21.0
 40
21.0
 40
22.0
 40
22.0
 40
22.0
 40
23.0
 40
23.0
 40
23.0
 40
24.0
 40
24.0
 40
24.0
 40
25.0
 40
25.0
 40
25.0
 40
26.0
 40
26.0
 40
26.0
 40
27.0
 40
27.0
 40
27.0
 40
28.0
 40
28.0
 40
28.0
 40
29.0
 40
29.0
 40
29.0
 40
30.0
 40
30.0
 40
30.0
 40
31.0
 40
31.0
 40
31.0
 40
32.0
 40
32.0
 40
32.0
 40
33.0
 40
33.0
 40
33.0
 40
34.0
 40
34.0
 40
34.0
 40
35.0
 40
35.0
 40
35.0
 40
36.0
 40
36.0
 40
36.0
 40
37.0
 40
37.0
 40
37.0
 40
38.0
 40
38.0
 40
38.0
 40
39.0
 40
39.0
 40
39.0
 40
40.0
 40
40.0
 40
40.0
 40
41.0
 40
41.0
 40
41.0
 40
42.0
 40
42.0
 40
42.0
 40
43.0
 40
43.0
 40
43.0
 40
44.0
 40
44.0
 40
44.0
 40
45.0
 40
45.0
 40
45.0
 40
46.0
 40
46.0
 40
46.0
 40
47.0
 40
47.0
 40
47.0
 40
48.0
 40
48.0
 40
48.0
 40
49.0
 40
49.0
 40
49.0
 40
50.0
 40
50.0
 40
50.0
 40
51.0
 40
51.0
 40
51.0
 40
52.0
 40
52.0
 40
52.0
 40
53.0
 40
53.0
 40
53.0
 40
54.0
 40
54.0
 40
54.0
 40
55.0
 40
55.0
 40
55.0
 40
56.0
 40
56.0
 40
56.0
 40
57.0
 40
57.0
 40
57.0
 40
58.0
 40
58.0
 40
58.0
 40
59.0
 40
59.0
 40
59.0
 40
60.0
 40
60.0
 40
60.0
 40
61.0
 40
61.0
 40
61.0
 40
62.0
 40
62.0
 40
62.0
 40
63.0
 40
63.0
 40
63.0
 40
64.0
 40
64.0
 40
64.0
 40
65.0
 40
65.0
 40
65.0
 40
66.0
 40
66.0
 40
66.0
 40
67.0
 40
67.0
 40
67.0
 40
68.0
 40
68.0
 40
68.0
 40
69.0
 40
69.0
 40
69.0
 40
70.0
 40
70.0
 40
70.0
 40
71.0
 40
71.0
 40
71.0
 40
72.0
 40
72.0
 40
72.0
 40
73.0
 40
73.0
 40
73.0
 40
74.0
 40
74.0
 40
74.0
 40
75.0
 40
75.0
 40
75.0
 40
76.0
 40
76.0
 40
76.0
 40
77.0
 40
77.0
 40
77.0
 40
78.0
 40
78.0
 40
78.0
 40
79.0
 40
79.0
 40
79.0
 40
80.0
 40
80.0
 40
80.0
 40
81.0
 40
81.0
 40
81.0
 40
82.0
 40
82.0
 40
82.0
 40
83.0
 40
83.0
 40
83.0
 40
84.0
 40
84.0
 40
84.0
 40
85.0
 40
85.0
 40
85.0
 40
86.0
 40
86.0
 40
86.0
 40
87.0
 40
87.0
 40
87.0
 40
88.0
 40
88.0
 40
88.0
 40
89.0
 40
89.0
 40
89.0
 40
90.0
 40
90.0
 40
90.0
 40
91.0
 40
91.0
 40
91.0
 40
92.0
 40
92.0
 40
92.0
 40
93.0
 40
93.0
 40
93.0
 40
94.0
 40
94.0
 40
94.0
 40
95.0
 40
95.0
 40
95.0
 40
96.0
 40
96.0
 40
96.0
 40
97.0
 40
97.0
 40
97.0
 40
98.0
 40
98.0
 40
98.0
 40
99.0
 40
99.0
 40
99.0
 40
100.0
 40
100.0
 40
100.0
 40
101.0
 40
101.0
 40
101.0
 40
102.0
 40
102.0
 40
102.0
 40
103.0
 40
103.0
 40
103.0
 40
104.0
 40
104.0
 40
104.0
 40
105.0
 40
105.0
 40
105.0
 40
106.0
 40
106.0
 40
106.0
 40
107.0
 40
107.0
 40
107.0
 40
108.0
 40
108.0
 40
108.0
 40
109.0
 40
109.0
 40
109.0
 40
110.0
 40
110.0
 40
110.0
 40
111.0
 40
111.0
 40
111.0
 40
112.0
 40
112.0
 40
112.0
 40
113.0
 40
113.0
 40
113.0
 40
114.0
 40
114.0
 40
114.0
 40
115.0
 40
115.0
 40
115.0
 40
116.0
 40
116.0
 40
116.0
 40
117.0
 40
117.0
 40
117.0
 40
118.0
 40
118.0
 40
118.0
 40
119.0
 40
119.0
 40
119.0
 40
120.0
 40
120.0
 40
120.0
 40
121.0
 40
121.0
 40
121.0
 40
122.0
 40
122.0
 40
122.0
 40
123.0
 40
123.0
 40
123.0
 40
124.0
 40
124.0
 40
124.0
 40
125.0
 40
125.0
 40
125.0
 40
126.0
 40
126.0
 40
126.0
 40
127.0
 40
127.0
 40
127.0
 40
128.0
 40
128.0
 40
128.0
 40
129.0
 40
129.0
 40
129.0
 40
130.0
 40
130.0
 40
130.0
 40
131.0
 40
131.0
 40
131.0
 40
132.0
 40
132.0
 40
132.0
 40
133.0
 40
133.0
 40
133.0
 40
134.0
 40
134.0
 40
134.0
 40
135.0
 40
135.0
 40
135.0
 40
136.0
 40
136.0
 40
136.0
 40
137.0
 40
137.0
 40
137.0
 40
138.0
 40
138.0
 40
138.0
 40
139.0
 40
139.0
 40
139.0
 40
140.0
 40
140.0
 40
140.0
 40
141.0
 40
141.0
 40
141.0
 40
142.0
 40
142.0
 40
142.0
 40
143.0
 40
143.0
 40
143.0
 40
144.0
 40
144.0
 40
144.0
 40
145.0
 40
145.0
 40
145.0
 40
146.0
 40
146.0
 40
146.0
 40
147.0
 40
147.0
 40
147.0
 40
148.0
 40
148.0
 40
148.0
 40
149.0
 40
149.0
 40
149.0
 40
150.0
 40
150.0
 40
150.0
 40
151.0
 40
151.0
 40
151.0
 40
152.0
 40
152.0
 40
152.0
 40
153.0
 40
153.0
 40
153.0
 40
154.0
 40
154.0
 40
154.0
 40
155.0
 40
155.0
 40
155.0
 40
156.0
 40
156.0
 40
156.0
 40
157.0
 40
157.0
 40
157.0
 40
158.0
 40
158.0
 40
158.0
 40
159.0
 40
159.0
 40
159.0
 40
160.0
 40
160.0
 40
160.0
 40
161.0
 40
161.0
 40
161.0
 40
162.0
 40
162.0
 40
162.0
 40
163.0
 40
163.0
 40
163.0
 40
164.0
 40
164.0
 40
164.0
 40
165.0
 40
165.0
 40
165.0
 40
166.0
 40
166.0
 40
166.0
 40
167.0
 40
167.0
 40
167.0
 40
168.0
 40
168.0
 40
168.0
 40
169.0
 40
169.0
 40
169.0
 40
170.0
 40
170.0
 40
170.0
 40
171.0
 40
171.0
 40
171.0
 40
172.0
 40
172.0
 40
172.0
 40
173.0
 40
173.0
 40
173.0
 40
174.0
 40
174.0
 40
174.0
 40
175.0
 40
175.0
 40
175.0
 40
176.0
 40
176.0
 40
176.0
 40
177.0
 40
177.0
 40
177.0
 40
178.0
 40
178.0
 40
178.0
 40
179.0
 40
179.0
 40
179.0
 40
180.0
 40
180.0
 40
180.0
 40
181.0
 40
181.0
 40
181.0
 40
182.0
 40
182.0
 40
182.0
 40
183.0
 40
183.0
 40
183.0
 40
184.0
 40
184.0
 40
184.0
 40
185.0
 40
185.0
 40
185.0
 40
186.0
 40
186.0
 40
186.0
 40
187.0
 40
187.0
 40
187.0
 40
188.0
 40
188.0
 40
188.0
 40
189.0
 40
189.0
 40
189.0
 40
190.0
 40
190.0
 40
190.0
 40
191.0
 40
191.0
 40
191.0
 40
192.0
 40
192.0
 40
192.0
 40
193.0
 40
193.0
 40
193.0
 40
194.0
 40
194.0
 40
194.0
 40
195.0
 40
195.0
 40
195.0
 40
196.0
 40
196.0
 40
196.0
 40
197.0
 40
197.0
 40
197.0
 40
198.0
 40
198.0
 40
198.0
 40
199.0
 40
199.0
 40
199.0
 40
200.0
 40
200.0
 40
200.0
 40
201.0
 40
201.0
 40
201.0
 40
202.0
 40
202.0
 40
202.0
 40
202.0
 10
4.189333092296288
 20
-10.94593603157439
 10
4.183044724958537
 20
-10.92004820944061
 10
4.158433114735847
 20
-10.92004098578238
 10
4.142242880036166
 20
-10.90842313198123
 10
4.149967063480643
 20
-10.89880357792849
 10
4.16001335288782
 20
-10.89781688517925
 10
4.170499248551095
 20
-10.89891723997986
 10
4.189870159473204
 20
-10.90094988896039
 10
4.204778731459049
 20
-10.91226361200678
 10
4.219140873531992
 20
-10.92392569228706
 10
4.230043447806666
 20
-10.93277894887812
 10
4.240992614594132
 20
-10.94200385531546
 10
4.24996093608628
 20
-10.95270548389074
 10
4.262407993182654
 20
-10.96755806237504
 10
4.278267951842204
 20
-10.97162232838496
 10
4.294469023724458
 20
-10.96548443019052
 10
4.369542610710064
 20
-10.93704179177934
 10
4.437474199494292
 20
-10.89926176425226
 10
4.466252153496776
 20
-10.81724980300179
 10
4.488320785654902
 20
-10.75435768578477
 10
4.487917819396973
 20
-10.69077607775817
 10
4.465798466275524
 20
-10.6281382627961
 10
4.456024212267518
 20
-10.60045956310099
 10
4.441995737461916
 20
-10.57428264721531
 10
4.427848569704362
 20
-10.54781707984259
 10
4.426660165738464
 20
-10.5818038022552
 10
4.41424001729269
 20
-10.60752223697394
 10
4.38047378924893
 20
-10.61585833860246
 10
4.34893935731313
 20
-10.62364323087952
 10
4.325918674980306
 20
-10.60912927980371
 10
4.31022894118165
 20
-10.5791782236112
 10
4.302537564174195
 20
-10.6133974298824
 10
4.284030162907962
 20
-10.63517970795904
 10
4.249273033021406
 20
-10.63514123092222
 10
4.216865876138424
 20
-10.63510526005251
 10
4.198421212575365
 20
-10.6149774945599
 10
4.190233463117388
 20
-10.58425748731699
 10
4.176613188855147
 20
-10.66529381243794
 10
4.138021023341606
 20
-10.73390677215133
 10
4.091467435924414
 20
-10.7986954682148
 10
4.049660239582483
 20
-10.85687820251309
 10
3.993090146579586
 20
-10.89512422970857
 10
3.924003033988785
 20
-10.91180115045674
 10
3.797568942477432
 20
-10.94232125401398
 10
3.682414146349022
 20
-10.91559165456086
 10
3.57979159346976
 20
-10.83607288736028
 10
3.558849696548147
 20
-10.81984574990479
 10
3.539035566975725
 20
-10.80189613850901
 10
3.520456212715038
 20
-10.78301438035492
 10
3.512535817288203
 20
-10.77496501373272
 10
3.506619637135422
 20
-10.76303374161615
 10
3.504164536088713
 20
-10.75190252650696
 10
3.498453340875585
 20
-10.72600910235249
 10
3.504428425170367
 20
-10.70142714072567
 10
3.520688548639251
 20
-10.68027700645729
 10
3.533966825010793
 20
-10.66300538698649
 10
3.549068254612949
 20
-10.65916269563695
 10
3.569918035482714
 20
-10.66539435396715
 10
3.592823121201465
 20
-10.67224061293559
 10
3.610659317510655
 20
-10.68567646987195
 10
3.624067676934171
 20
-10.70845030561056
 10
3.636613632536763
 20
-10.68391551889484
 10
3.618381326146391
 20
-10.66756557924898
 10
3.61275907692488
 20
-10.6479646985443
 10
3.628937774079859
 20
-10.64721918752785
 10
3.641061190145794
 20
-10.65420785575907
 10
3.646406722600179
 20
-10.66724965476644
 10
3.654235518031479
 20
-10.68635003914899
 10
3.659491330409789
 20
-10.70660237589118
 10
3.664587681387451
 20
-10.72668222936479
 10
3.667028775191384
 20
-10.73630030920154
 10
3.667243749506799
 20
-10.74664591461987
 10
3.667303059121599
 20
-10.75666881416221
 10
3.667402879156952
 20
-10.77352573668041
 10
3.676345102944171
 20
-10.78499322045253
 10
3.690902129997513
 20
-10.78962609156239
 10
3.718707981351422
 20
-10.79847581003514
 10
3.746979905278067
 20
-10.80634399551455
 10
3.775556154984542
 20
-10.81218513403408
 10
3.825799287009708
 20
-10.82245496475151
 10
3.874143147498165
 20
-10.81593170650229
 10
3.918808116255402
 20
-10.78959808145893
 10
3.975908493980796
 20
-10.75593303297116
 10
4.01689132722428
 20
-10.70785442751518
 10
4.041099602577383
 20
-10.64642959745389
 10
4.051415715713775
 20
-10.62025386094102
 10
4.057538428975147
 20
-10.59242611801124
 10
4.063821045971154
 20
-10.56430161540654
 10
4.038201946381327
 20
-10.58664350586574
 10
4.011433957994691
 20
-10.59576035227241
 10
3.981602143279284
 20
-10.5771516189161
 10
3.956195953779645
 20
-10.56130350238674
 10
3.950805966760046
 20
-10.5365387379795
 10
3.957016630761573
 20
-10.50686247564393
 10
3.931433433946671
 20
-10.52579848494578
 10
3.905328799088869
 20
-10.53163254722863
 10
3.879113949347154
 20
-10.51320882797669
 10
3.853451279860084
 20
-10.49517312236821
 10
3.850251656998756
 20
-10.46894431408039
 10
3.857960653643178
 20
-10.44189186132967
 10
3.832033320989997
 20
-10.45674237591159
 10
3.806742064603415
 20
-10.47306858068032
 10
3.779894161210626
 20
-10.48621785003196
 10
3.726206869354225
 20
-10.51251270319527
 10
3.669816363948156
 20
-10.53164905844753
 10
3.610163313671793
 20
-10.53830838683087
 10
3.543934084079789
 20
-10.54570172734606
 10
3.481723643023264
 20
-10.53011012439558
 10
3.42533745037354
 20
-10.4958494926556
 10
3.318495197177879
 20
-10.43093150785151
 10
3.254810097561832
 20
-10.33590767417793
 10
3.23467193070145
 20
-10.21223584380838
 10
3.231185256123808
 20
-10.19082366765117
 10
3.228198091803379
 20
-10.16931316128875
 10
3.225739184841359
 20
-10.14776152430072
 10
3.225036652501532
 20
-10.14160409274468
 10
3.226137870596478
 20
-10.13489095547836
 10
3.227890932321441
 20
-10.12886266524133
 10
3.236642477908718
 20
-10.09876809412405
 10
3.273584945012139
 20
-10.07054533502494
 10
3.303631181125486
 20
-10.07017648618901
 10
3.318096027619983
 20
-10.06999899058615
 10
3.329358219422298
 20
-10.07572956290788
 10
3.337552474875918
 20
-10.08745157006736
 10
3.349605707283343
 20
-10.10469385264034
 10
3.357263208879986
 20
-10.12333398679685
 10
3.355383363177325
 20
-10.14495970313742
 10
3.355009425086993
 20
-10.14926161276182
 10
3.355329416862054
 20
-10.15362389153021
 10
3.355329416862054
 20
-10.15982193773632
 10
3.379377309285397
 20
-10.14914935121563
 10
3.376184948073614
 20
-10.12550218993591
 10
3.383736436959149
 20
-10.10789968269046
 10
3.397594373583968
 20
-10.11529317062725
 10
3.404359724399354
 20
-10.13294558008329
 10
3.396269878196158
 20
-10.1509138403111
 10
3.385625442661345
 20
-10.17455613667814
 10
3.373441592715051
 20
-10.19792231239383
 10
3.358698914403198
 20
-10.21917365158863
 10
3.346521552021992
 20
-10.23672728857466
 10
3.343841155533608
 20
-10.25315956318243
 10
3.354305616429327
 20
-10.27059069282131
 10
3.391120115390119
 20
-10.33191417053457
 10
3.433681988797666
 20
-10.38731668093356
 10
3.50703222415748
 20
-10.40815413399453
 10
3.545646985565276
 20
-10.4191236276117
 10
3.58484238404723
 20
-10.41951974944307
 10
3.624176159343353
 20
-10.41280838123596
 10
3.686221683546768
 20
-10.40222159408479
 10
3.738851428573727
 20
-10.37277191874394
 10
3.788028756868394
 20
-10.32961572041449
 10
3.75085006959547
 20
-10.33497508515478
 10
3.721330174059958
 20
-10.32664812366526
 10
3.709596785982941
 20
-10.29036472019172
 10
3.700654304167578
 20
-10.26271152443289
 10
3.710583596236397
 20
-10.23906141472121
 10
3.737158026644616
 20
-10.2204378654944
 10
3.704990909669378
 20
-10.21758599469887
 10
3.681354645877793
 20
-10.20496427353237
 10
3.673613838047812
 20
-10.17422406953073
 10
3.665901597620859
 20
-10.14359715902638
 10
3.680034979302616
 20
-10.12150573786059
 10
3.705392290897204
 20
-10.10587153006862
 10
3.680535517064804
 20
-10.10178345547077
 10
3.655392516284665
 20
-10.09943237584053
 10
3.631195409864605
 20
-10.09333133304532
 10
3.561034900143315
 20
-10.0756408888172
 10
3.492991769473165
 20
-10.05193077851552
 10
3.435895004141962
 20
-10.00561076529114
 10
3.377775507351821
 20
-9.958461210739944
 10
3.344169570084911
 20
-9.896022857198708
 10
3.328135055377591
 20
-9.823426197378264
 10
3.318210739566059
 20
-9.778493642514805
 10
3.316901136088972
 20
-9.733232779754617
 10
3.322430034409636
 20
-9.687849409647292
 10
3.330041680716779
 20
-9.625370220323675
 10
3.352288389163959
 20
-9.568090775006112
 10
3.386879035597909
 20
-9.515559668764277
 10
3.395505230185335
 20
-9.502459490804488
 10
3.40422232440609
 20
-9.489415849027206
 10
3.412634208179042
 20
-9.476178826969922
 10
3.420139915497404
 20
-9.464367814021189
 10
3.430691331881841
 20
-9.456837887396279
 10
3.444022209136114
 20
-9.453289044145144
 10
3.471171950180102
 20
-9.446061368649679
 10
3.497416952354948
 20
-9.446961488066031
 10
3.521583205979747
 20
-9.463184497716811
 10
3.53310239382578
 20
-9.47091746073627
 10
3.539011386051369
 20
-9.481780368538794
 10
3.538651215606225
 20
-9.495791980522527
 10
3.538048351249446
 20
-9.51924594579931
 10
3.530515329807687
 20
-9.539953815276476
 10
3.513691672845248
 20
-9.556692726806177
 10
3.510944483925539
 20
-9.559426070637679
 10
3.506918249434697
 20
-9.560874340407382
 10
3.504652946527559
 20
-9.564322199864514
 10
3.529975792932696
 20
-9.574293354426268
 10
3.54307448170741
 20
-9.55423056500255
 10
3.560994131694592
 20
-9.545234272606901
 10
3.565637569535485
 20
-9.555178928136582
 10
3.563396152663421
 20
-9.564755435082942
 10
3.557147705967559
 20
-9.571113102023243
 10
3.547759019747495
 20
-9.580665837237068
 10
3.537232908552975
 20
-9.590520197038586
 10
3.525231429221498
 20
-9.595765604884288
 10
3.505511885398972
 20
-9.604384350569842
 10
3.48445018969048
 20
-9.610302995994061
 10
3.463518189991721
 20
-9.615654436823458
 10
3.448476235879651
 20
-9.619500039749507
 10
3.439615843879184
 20
-9.628315298423936
 10
3.435154831944828
 20
-9.64222161453199
 10
3.423626447238044
 20
-9.678159093228005
 10
3.423706343813616
 20
-9.715216091532207
 10
3.426721384390222
 20
-9.752165988046119
 10
3.435950093153349
 20
-9.865265994556567
 10
3.509155869606729
 20
-9.924572007713827
 10
3.607169855307397
 20
-9.959583973623313
 10
3.637221215122685
 20
-9.970318845768764
 10
3.670954821035239
 20
-9.97077135636098
 10
3.703023813588717
 20
-9.975794894703135
 10
3.705593073664026
 20
-9.976197281952357
 10
3.708330789264285
 20
-9.975524597204891
 10
3.713505359634508
 20
-9.975187886277126
 10
3.69163312376453
 20
-9.953973476192407
 10
3.681025033338603
 20
-9.930755680314177
 10
3.693216531976683
 20
-9.902829091203582
 10
3.705134963102965
 20
-9.875528011929366
 10
3.72776005141092
 20
-9.865075968117908
 10
3.759320654774001
 20
-9.867061515898209
 10
3.738753525318947
 20
-9.84462063183658
 10
3.727666460912486
 20
-9.821059122504721
 10
3.741002941063874
 20
-9.792937199778002
 10
3.753962515801124
 20
-9.765609953170294
 10
3.777331056949909
 20
-9.756487799586162
 10
3.808544280692179
 20
-9.759123402898744
 10
3.801175881214172
 20
-9.751688636914776
 10
3.795010851335165
 20
-9.74615936878389
 10
3.789640843067091
 20
-9.73994341085376
 10
3.732505705262913
 20
-9.673807207682127
 10
3.690044518128085
 20
-9.599412188654291
 10
3.670446358122514
 20
-9.513970279670754
 10
3.656190597372313
 20
-9.451819471954674
 10
3.665291176725203
 20
-9.39043580937434
 10
3.691188836140402
 20
-9.332468181613876
 10
3.740637831222607
 20
-9.221784544073518
 10
3.823353696143637
 20
-9.147258393535038
 10
3.939063768864545
 20
-9.110058548310208
 10
3.959317725860096
 20
-9.103547069967943
 10
3.980005907381634
 20
-9.098397638188846
 10
4.000353565459136
 20
-9.092162621410402
 10
4.044697031133511
 20
-9.078574671455093
 10
4.09500478078126
 20
-9.130417862455688
 10
4.09213808796398
 20
-9.163958588467872
 10
4.091320138708271
 20
-9.173528378517705
 10
4.086620118978796
 20
-9.184192322447263
 10
4.080408717753976
 20
-9.191592739199121
 10
4.065258926303108
 20
-9.209642514356245
 10
4.044365722980728
 20
-9.21787016897244
 10
4.020979967667825
 20
-9.219750457732414
 10
4.018335326509663
 20
-9.219963076530802
 10
4.015702996980684
 20
-9.220329124356339
 10
4.010986316004568
 20
-9.220856414553709
 10
4.025532616458828
 20
-9.242707556943917
 10
4.048206803838815
 20
-9.236888255248432
 10
4.066779228200453
 20
-9.241843058270912
 10
4.061784982650376
 20
-9.259720488367241
 10
4.037061535652506
 20
-9.265244007055823
 10
4.017522464094781
 20
-9.258917777771127
 10
3.993956162794726
 20
-9.251287622887906
 10
3.970823938576005
 20
-9.241726152944414
 10
3.948585302723964
 20
-9.230800111843008
 10
3.934296072035774
 20
-9.223779618974528
 10
3.921562087629505
 20
-9.223197745930821
 10
3.908801194572662
 20
-9.231310835538351
 10
3.898004190675111
 20
-9.238175374784834
 10
3.887111347748082
 20
-9.245519365920445
 10
3.878153494826822
 20
-9.254531708842478
 10
3.846379317872585
 20
-9.286498921224392
 10
3.814163101825316
 20
-9.318483271366908
 10
3.798195508563417
 20
-9.36211501491314
 10
3.776021637778638
 20
-9.422705549301149
 10
3.783723372773515
 20
-9.482283371028035
 10
3.806203965313898
 20
-9.540922891144873
 10
3.824727880382144
 20
-9.589241867514878
 10
3.855839072419156
 20
-9.628582094659273
 10
3.896155160906573
 20
-9.664783384303264
 10
3.892756045419193
 20
-9.630589903100725
 10
3.901473784710358
 20
-9.604193771300186
 10
3.933275460093833
 20
-9.591469776400773
 10
3.958532066985096
 20
-9.581364505041063
 10
3.980464312832029
 20
-9.589445456740424
 10
4.001299422958052
 20
-9.609580998722321
 10
4.000323486748331
 20
-9.580837804530093
 10
4.00691529519799
 20
-9.556854337731994
 10
4.03257280412193
 20
-9.543185886370842
 10
4.057916182196069
 20
-9.529684758522408
 10
4.08135170008202
 20
-9.535652605904639
 10
4.10464441781399
 20
-9.554119667106128
 10
4.10464441781399
 20
-9.527509073737292
 10
4.102578202060081
 20
-9.503000638631975
 10
4.105033155662138
 20
-9.478953559414749
 10
4.112298638766914
 20
-9.407784309208029
 10
4.12635660250468
 20
-9.337863001248276
 10
4.163756014434814
 20
-9.275677291469037
 10
4.207722906445547
 20
-9.202571529590789
 10
4.27417031727436
 20
-9.157623154547156
 10
4.355222048031438
 20
-9.134520089526832
 10
4.45294940131152
 20
-9.106663834338784
 10
4.54853349900246
 20
-9.113862329571929
 10
4.64103290694513
 20
-9.15682465468045
 10
4.652702414622859
 20
-9.162244775546392
 10
4.664409815578387
 20
-9.167583602615447
 10
4.676102029733884
 20
-9.172955019071245
 10
4.710507651549126
 20
-9.188761009879272
 10
4.728660300961538
 20
-9.223947311041177
 10
4.719980233781194
 20
-9.261166952222385
 10
4.717342006465792
 20
-9.272479919733086
 10
4.712579838811785
 20
-9.284685654007969
 10
4.705061930447729
 20
-9.29318567002479
 10
4.689149555211289
 20
-9.311176688461575
 10
4.667082397499775
 20
-9.306238967916669
 10
4.647393817055999
 20
-9.301651981778881
 10
4.634170979876898
 20
-9.298571386375543
 10
4.622203781429081
 20
-9.290102826442003
 10
4.608799734761886
 20
-9.283621804480338
 10
4.603617054935335
 20
-9.307745653494242
 10
4.627077859580595
 20
-9.316917746144401
 10
4.636871871173171
 20
-9.333204128654212
 10
4.626890604861399
 20
-9.339812946712855
 10
4.614429909133908
 20
-9.339491217504928
 10
4.603219101795906
 20
-9.328914307600774
 10
4.592570206060094
 20
-9.318867599470497
 10
4.582905355990381
 20
-9.307099301929509
 10
4.575453502834357
 20
-9.294521070134225
 10
4.566705905999393
 20
-9.2797557836631
 10
4.560188409658798
 20
-9.263545691829778
 10
4.553875124173347
 20
-9.247501430865465
 10
4.548624472358142
 20
-9.234157620288796
 10
4.539499712080896
 20
-9.224750648179098
 10
4.525892339226502
 20
-9.224112275808339
 10
4.499957265728602
 20
-9.222895513229104
 10
4.473701352648857
 20
-9.222227122135638
 10
4.447952944091538
 20
-9.224914249296437
 10
4.416055798290244
 20
-9.228243047386209
 10
4.384353500608136
 20
-9.234244470037184
 10
4.355641454369055
 20
-9.250495065954307
 10
4.306118626372986
 20
-9.278524260496498
 10
4.274090770879865
 20
-9.321400247225229
 10
4.252342609691924
 20
-9.372568717217543
 10
4.23048150589385
 20
-9.424002969921678
 10
4.223708193066764
 20
-9.477733756265125
 10
4.231640715816916
 20
-9.533181488238975
 10
4.231865716369282
 20
-9.534754071270425
 10
4.232206092368692
 20
-9.536313091514935
 10
4.232572418628402
 20
-9.537859580923697
 10
4.232633165828651
 20
-9.538116057647231
 10
4.233106758079101
 20
-9.538274756996491
 10
4.234009119403077
 20
-9.538925144227404
 10
4.251249381254561
 20
-9.515006284944268
 10
4.273213475148192
 20
-9.500797238586629
 10
4.303885650707747
 20
-9.510019675712202
 10
4.331281900793984
 20
-9.518257152292283
 10
4.344051640530475
 20
-9.538711493477876
 10
4.346950402561484
 20
-9.568692144555976
 10
4.362810950999649
 20
-9.546852556333456
 10
4.381574979697991
 20
-9.533554796578147
 10
4.407722520952043
 20
-9.536083887786894
 10
4.434278926250473
 20
-9.538652487983602
 10
4.450302179871843
 20
-9.554888175891745
 10
4.459954497145367
 20
-9.580072944429048
 10
4.470441056309608
 20
-9.566704643439555
 10
4.479624647006529
 20
-9.553789848138068
 10
4.490026130601537
 20
-9.541944117403241
 10
4.537687469755206
 20
-9.487665180706445
 10
4.591384013764101
 20
-9.440235414554637
 10
4.656934223832018
 20
-9.408999505432751
 10
4.718846679229096
 20
-9.379496942593959
 10
4.784796611772409
 20
-9.374472003746632
 10
4.851469907821511
 20
-9.389467654890923
 10
4.977399738593021
 20
-9.417790808097681
 10
5.068691427319182
 20
-9.491353705920825
 10
5.128223978446562
 20
-9.605233572679834
 10
5.133064144326099
 20
-9.614492422939848
 10
5.137511812518646
 20
-9.623991349270756
 10
5.142900177646979
 20
-9.632921375658547
 10
5.153155543583099
 20
-9.649917243032025
 10
5.154891409574525
 20
-9.667484221672566
 10
5.148420800636055
 20
-9.68614071962631
 10
5.141230366863585
 20
-9.706873134799378
 10
5.129720246864179
 20
-9.724499524343576
 10
5.111085453411027
 20
-9.736520944766702
 10
5.095112625863672
 20
-9.746825198427105
 10
5.078674610411527
 20
-9.747436998054984
 10
5.062539741181959
 20
-9.736243202477806
 10
5.041881417204219
 20
-9.721911095942029
 10
5.028216098598098
 20
-9.702836584049741
 10
5.021744310102323
 20
-9.67758429642097
 10
5.003979735037142
 20
-9.694278981471597
 10
5.014641900792386
 20
-9.715375896543415
 10
5.013310622950156
 20
-9.735639511037788
 10
4.999086194190391
 20
-9.732554050721672
 10
4.992227216015382
 20
-9.722683806243113
 10
4.988542279053111
 20
-9.709884515762951
 10
4.981199387501393
 20
-9.684378662987201
 10
4.988186200197282
 20
-9.659687609378527
 10
4.993210082124151
 20
-9.63491311514589
 10
4.993847632837387
 20
-9.631769828708355
 10
4.994234380182635
 20
-9.628439095710088
 10
4.995585415609386
 20
-9.625598355245175
 10
5.008115852661451
 20
-9.599248956090933
 10
4.996347262171664
 20
-9.580215648535006
 10
4.97604413238173
 20
-9.565171753673086
 10
4.933787377269077
 20
-9.533860917524481
 10
4.889205862189883
 20
-9.505893124077525
 10
4.836023015379169
 20
-9.498449623363891
 10
4.786799352599826
 20
-9.49156024357833
 10
4.74035826545878
 20
-9.503801395891917
 10
4.696272311884462
 20
-9.526282526049573
 10
4.639533099855649
 20
-9.555216115234442
 10
4.597932473483498
 20
-9.599303870635795
 10
4.566257231896618
 20
-9.653651874350845
 10
4.565527970604382
 20
-9.654902930879112
 10
4.565371089485299
 20
-9.656487344493699
 10
4.564474920837079
 20
-9.659508123584094
 10
4.593645962305168
 20
-9.649291217219998
 10
4.619056132810631
 20
-9.652675611679619
 10
4.637926542831741
 20
-9.677183457098482
 10
4.655836498332493
 20
-9.700444152661475
 10
4.65302988921447
 20
-9.725006286083548
 10
4.637296954130179
 20
-9.751456890164162
 10
4.664692466993098
 20
-9.743348481192343
 10
4.688638217127718
 20
-9.745668012600818
 10
4.707513787711907
 20
-9.765809046037196
 10
4.726591947260051
 20
-9.786165978402449
 10
4.726436245698247
 20
-9.809838717329309
 10
4.715617198823943
 20
-9.836247379965596
 10
4.724038942958562
 20
-9.834122518776085
 10
4.731165533192905
 20
-9.832125398400421
 10
4.738381769780996
 20
-9.830535087921917
 10
4.796605454654556
 20
-9.817704175509181
 10
4.855311136124251
 20
-9.815078449443564
 10
4.91476391969013
 20
-9.819685595484719
 10
4.964632947749704
 20
-9.823549957809012
 10
5.011379097893899
 20
-9.83605337314384
 10
5.053899631504691
 20
-9.862440143672907
 10
5.133248745041403
 20
-9.911681536975871
 10
5.181967557302186
 20
-9.983840428363793
 10
5.208446259264392
 20
-10.07208869172473
 10
5.220052660627313
 20
-10.11077020231803
 10
5.226025791280309
 20
-10.15022987781144
 10
5.225491599274315
 20
-10.19088477390318
 10
5.224883684937897
 20
-10.23716402505599
 10
5.214900944179513
 20
-10.28181131912909
 10
5.204230668967915
 20
-10.32629888190179
 10
5.199756460736453
 20
-10.34495287368842
 10
5.18437813006138
 20
-10.35599298225058
 10
5.167293274882391
 20
-10.36375635097445
 10
5.147004889558527
 20
-10.37297521312631
 10
5.125712700984093
 20
-10.37901964602825
 10
5.10449910041383
 20
-10.36931134417409
 10
5.095567640086831
 20
-10.36522378555178
 10
5.086622319961734
 20
-10.3564421758569
 10
5.082475733766512
 20
-10.3475582555736
 10
5.072184243888487
 20
-10.32550825987664
 10
5.072656951470965
 20
-10.30233771262025
 10
5.083290955296003
 20
-10.27989550176426
 10
5.084321003696256
 20
-10.27772154918289
 10
5.085194908200719
 20
-10.27546481937477
 10
5.085989487477667
 20
-10.27319356853938
 10
5.08622908505145
 20
-10.27250842666692
 10
5.085955870095024
 20
-10.27164387271083
 10
5.085841747927562
 20
-10.26930982027503
 10
5.06066571954342
 20
-10.2708334961917
 10
5.056499375763627
 20
-10.29523494007288
 10
5.042202404230743
 20
-10.30915625632845
 10
5.035796523498346
 20
-10.30054712990209
 10
5.032126625891426
 20
-10.29105524295245
 10
5.037051130116929
 20
-10.28216623662411
 10
5.044731375052505
 20
-10.26830256221299
 10
5.053171844659092
 20
-10.25430871453171
 10
5.063936189564249
 20
-10.24285648889488
 10
5.075101436502109
 20
-10.23097806742089
 10
5.088533939988817
 20
-10.22058263350274
 10
5.102567280468242
 20
-10.21220547495942
 10
5.121581743922913
 20
-10.20085467538138
 10
5.12908018959173
 20
-10.18475667924495
 10
5.124789255073588
 20
-10.1645092074155
 10
5.112003886203056
 20
-10.10417780333975
 10
5.093800220938015
 20
-10.04595246419987
 10
5.046824646901641
 20
-10.00205230278081
 10
5.012941568964252
 20
-9.970387323100617
 10
4.971459635544002
 20
-9.953703031272551
 10
4.926748811497291
 20
-9.944008955602535
 10
4.869607222989164
 20
-9.931619644583861
 10
4.814017636980502
 20
-9.939008120186372
 10
4.759267453425662
 20
-9.95704360466243
 10
4.756360729382953
 20
-9.958001107935462
 10
4.75375272822301
 20
-9.959865106608958
 10
4.750395855630964
 20
-9.961627163248067
 10
4.80247699593628
 20
-9.982451569497698
 10
4.810576573487145
 20
-10.05295911786596
 10
4.747015097003845
 20
-10.07803951191251
 10
4.774248125850615
 20
-10.08868755273725
 10
4.792351823635599
 20
-10.10609531605299
 10
4.792648039959127
 20
-10.13655328140708
 10
4.792941749723417
 20
-10.16676048262454
 10
4.775464544302066
 20
-10.18428050748636
 10
4.747239655222225
 20
-10.19527638956944
 10
4.75675602851854
 20
-10.19966454082815
 10
4.76479397420116
 20
-10.20295845528254
 10
4.772456968111403
 20
-10.20696824901233
 10
4.849508893833065
 20
-10.24728731870593
 10
4.916711811103722
 20
-10.29973144620544
 10
4.966219747189041
 20
-10.3718748583257
 10
4.994654450021218
 20
-10.41331049919563
 10
5.009489742010651
 20
-10.46078556063316
 10
5.012279837326659
 20
-10.51110615373752
 10
5.020121681610437
 20
-10.65253653711296
 10
4.965554919213571
 20
-10.76602168254577
 10
4.856386155146006
 20
-10.85452402702933
 10
4.846388375032271
 20
-10.86262926643682
 10
4.83579595060155
 20
-10.8700327790422
 10
4.826114734174502
 20
-10.87848917669397
 10
4.809161841966897
 20
-10.89329767612076
 10
4.790287450939987
 20
-10.89857212602111
 10
4.768036872070423
 20
-10.89391728909327
 10
4.748581991413983
 20
-10.88984712621944
 10
4.731334209884835
 20
-10.88219373400701
 10
4.717471905211949
 20
-10.86781364174137
 10
4.70226564245599
 20
-10.8520390885889
 10
4.699965800637098
 20
-10.83563519263852
 10
4.709778980035555
 20
-10.81592123956893
 10
4.719252889269555
 20
-10.79688881654258
 10
4.724399740043509
 20
-10.79195697443381
 10
4.759577529547262
 20
-10.76857546687203
 10
4.75100966775378
 20
-10.75987125351558
 10
4.741352189917127
 20
-10.7599347922239
 10
4.731021332314664
 20
-10.76271560580966
 10
4.721114378111931
 20
-10.76538216765766
 10
4.711204622460652
 20
-10.7680372306211
 10
4.700180037729195
 20
-10.77099716144726
 10
4.701022094186933
 20
-10.75733751852653
 10
4.707349239470482
 20
-10.74845846315596
 10
4.717532062633532
 20
-10.74397360332957
 10
4.728378091880762
 20
-10.73919670131939
 10
4.740238540394253
 20
-10.73465110379498
 10
4.751845826425096
 20
-10.7341152262896
 10
4.77424576673603
 20
-10.73308135862928
 10
4.796794183820363
 20
-10.73462928539862
 10
4.819252069882976
 20
-10.73570914859723
 10
4.833732315129231
 20
-10.73640556822182
 10
4.844935013010879
 20
-10.73007115703846
 10
4.851804312312171
 20
-10.71867281399535
 10
4.862120278003885
 20
-10.70155554493673
 10
4.872392747520708
 20
-10.68391935185632
 10
4.879053560071597
 20
-10.66521155118678
 10
4.888427944159578
 20
-10.63888175910496
 10
4.897327556439828
 20
-10.61178596440469
 10
4.901353975236487
 20
-10.58427503048708
 10
4.909510908760365
 20
-10.52853919985712
 10
4.890873608748001
 20
-10.47873871014725
 10
4.859499301713791
 20
-10.43339315367954
 10
4.820199549273183
 20
-10.37659338138347
 10
4.76459595602172
 20
-10.33602575887718
 10
4.696034483646624
 20
-10.3140000877437
 10
4.710598477460179
 20
-10.34002781297315
 10
4.714278106414692
 20
-10.36510909154928
 10
4.695226192016181
 20
-10.38879133916912
 10
4.677835536610751
 20
-10.41040865247866
 10
4.653953630014282
 20
-10.41561985851391
 10
4.620812493609895
 20
-10.40464830099437
 10
4.634268883131704
 20
-10.43051961190925
 10
4.637220135461903
 20
-10.45555769595744
 10
4.618985064484149
 20
-10.4785077005046
 10
4.600340244794071
 20
-10.50197323837675
 10
4.575451291164451
 20
-10.50485533059969
 10
4.546562606221792
 20
-10.49589991084182
 10
4.553263818609719
 20
-10.51039012704051
 10
4.560031086205703
 20
-10.52327624884133
 10
4.565309899951089
 20
-10.53674542305862
 10
4.586422353484041
 20
-10.59061504369113
 10
4.597158978793004
 20
-10.6466909759455
 10
4.602893543984842
 20
-10.70422711911902
 10
4.609532387281306
 20
-10.77083602964163
 10
4.595245736874681
 20
-10.83207569817705
 10
4.561460562192021
 20
-10.88903247447398
 10
4.519732248743594
 20
-10.95938029154179
 10
4.458582672021419
 20
-11.0074003706237
 10
4.384555794682733
 20
-11.04022143046818
 10
4.336473058688524
 20
-11.06153992020048
 10
4.286230258413853
 20
-11.07280086631504
 10
4.233611313708302
 20
-11.07284863091253
 10
4.210670841270939
 20
-11.0728694173577
 10
4.187729705332609
 20
-11.07183835070772
 10
4.16478879056126
 20
-11.07183437032462
 10
4.143878557380578
 20
-11.0718306847847
 10
4.127475265146054
 20
-11.06316966595619
 10
4.114698816677496
 20
-11.04719491427492
 10
4.100807612851061
 20
-11.02982643881483
 10
4.091519557611996
 20
-11.01052865691377
 10
4.092006567326557
 20
-10.98766725274643
 10
4.092353725780387
 20
-10.97136891065959
 10
4.099851950282198
 20
-10.95941611498988
 10
4.114454427152243
 20
-10.95191088148249
 10
4.137394825867255
 20
-10.94012069183433
 10
4.154341820288436
 20
-10.93854681886392
 10
4.189333092296288
 20
-10.94593603157439
 97
        0
 97
        1
330
8A
 75
     2
 76
     1
 98
        1
 10
0.0
 20
0.0
450
        0
451
        0
460
0.0
461
0.0
452
        0
462
0.0
453
        0
470

  0
SPLINE
  5
8C
330
7C
100
AcDbEntity
  8
Layer 3
100
AcDbSpline
210
0.0
220
0.0
230
1.0
 70
     9
 71
     3
 72
    20
 73
    16
 74
     0
 42
0.0000000001
 43
0.0000000001
 40
0.0
 40
0.0
 40
0.0
 40
0.0
 40
1.0
 40
1.0
 40
1.0
 40
2.0
 40
2.0
 40
2.0
 40
3.0
 40
3.0
 40
3.0
 40
4.0
 40
4.0
 40
4.0
 40
5.0
 40
5.0
 40
5.0
 40
5.0
 10
4.222570288897157
 20
-10.27846396434577
 30
0.0
 10
4.237700986264447
 20
-10.27506714961666
 30
0.0
 10
4.254680713400325
 20
-10.27311233923936
 30
0.0
 10
4.270236936058633
 20
-10.26732943225069
 30
0.0
 10
4.293831104399588
 20
-10.25855858433235
 30
0.0
 10
4.298886760650853
 20
-10.23874998659741
 30
0.0
 10
4.285030353764366
 20
-10.2177769056671
 30
0.0
 10
4.25753966537291
 20
-10.17616723360182
 30
0.0
 10
4.18687924452921
 20
-10.17492631230839
 30
0.0
 10
4.157744400725328
 20
-10.21554155199055
 30
0.0
 10
4.140953034143623
 20
-10.23894944801825
 30
0.0
 10
4.148117370211113
 20
-10.26171532299066
 30
0.0
 10
4.175823106640336
 20
-10.26963650653417
 30
0.0
 10
4.190371766209182
 20
-10.27379593318503
 30
0.0
 10
4.205660819142167
 20
-10.27536634174794
 30
0.0
 10
4.222570288897157
 20
-10.27846396434577
 30
0.0
  0
SPLINE
  5
8D
330
7C
100
AcDbEntity
  8
Layer 3
100
AcDbSpline
210
0.0
220
0.0
230
1.0
 70
     9
 71
     3
 72
    17
 73
    13
 74
     0
 42
0.0000000001
 43
0.0000000001
 40
0.0
 40
0.0
 40
0.0
 40
0.0
 40
1.0
 40
1.0
 40
1.0
 40
2.0
 40
2.0
 40
2.0
 40
3.0
 40
3.0
 40
3.0
 40
4.0
 40
4.0
 40
4.0
 40
4.0
 10
3.934564937374716
 20
-10.07254510898934
 30
0.0
 10
3.934213576748056
 20
-10.13608624978749
 30
0.0
 10
3.982926417500114
 20
-10.1868841940232
 30
0.0
 10
4.044704698255878
 20
-10.1873992850834
 30
0.0
 10
4.105090216745868
 20
-10.18790280354824
 30
0.0
 10
4.154882352414865
 20
-10.13689360416391
 30
0.0
 10
4.155290184346591
 20
-10.07411057892871
 30
0.0
 10
4.155707600181257
 20
-10.0098483990992
 30
0.0
 10
4.106357651049973
 20
-9.95764685383771
 30
0.0
 10
4.045084810591358
 20
-9.957537245880251
 30
0.0
 10
3.984239117315079
 20
-9.957428522452421
 30
0.0
 10
3.934917625003309
 20
-10.00875276178971
 30
0.0
 10
3.934564937374716
 20
-10.07254510898934
 30
0.0
  0
SPLINE
  5
8E
330
7C
100
AcDbEntity
  8
Layer 3
100
AcDbSpline
210
0.0
220
0.0
230
1.0
 70
     9
 71
     3
 72
    17
 73
    13
 74
     0
 42
0.0000000001
 43
0.0000000001
 40
0.0
 40
0.0
 40
0.0
 40
0.0
 40
1.0
 40
1.0
 40
1.0
 40
2.0
 40
2.0
 40
2.0
 40
3.0
 40
3.0
 40
3.0
 40
4.0
 40
4.0
 40
4.0
 40
4.0
 10
4.522965267820609
 20
-10.0745667013501
 30
0.0
 10
4.522885205369801
 20
-10.01155281389386
 30
0.0
 10
4.47366434403903
 20
-9.960404890786675
 30
0.0
 10
4.413200827323483
 20
-9.96050476891868
 30
0.0
 10
4.351575004346967
 20
-9.960606563531452
 30
0.0
 10
4.301913873259081
 20
-10.01152458265804
 30
0.0
 10
4.301954862874784
 20
-10.07456640650692
 30
0.0
 10
4.301996442269127
 20
-10.13856167953488
 30
0.0
 10
4.352010777041919
 20
-10.19063084020222
 30
0.0
 10
4.413157478593221
 20
-10.19033776606723
 30
0.0
 10
4.473853220649465
 20
-10.19004682954538
 30
0.0
 10
4.523046214939388
 20
-10.13818243747639
 30
0.0
 10
4.522965267820609
 20
-10.0745667013501
 30
0.0
  0
SPLINE
  5
8F
330
7C
100
AcDbEntity
  8
Layer 3
100
AcDbSpline
210
0.0
220
0.0
230
1.0
 70
     9
 71
     3
 72
   128
 73
   124
 74
     0
 42
0.0000000001
 43
0.0000000001
 40
0.0
 40
0.0
 40
0.0
 40
0.0
 40
1.0
 40
1.0
 40
1.0
 40
2.0
 40
2.0
 40
2.0
 40
3.0
 40
3.0
 40
3.0
 40
4.0
 40
4.0
 40
4.0
 40
5.0
 40
5.0
 40
5.0
 40
6.0
 40
6.0
 40
6.0
 40
7.0
 40
7.0
 40
7.0
 40
8.0
 40
8.0
 40
8.0
 40
9.0
 40
9.0
 40
9.0
 40
10.0
 40
10.0
 40
10.0
 40
11.0
 40
11.0
 40
11.0
 40
12.0
 40
12.0
 40
12.0
 40
13.0
 40
13.0
 40
13.0
 40
14.0
 40
14.0
 40
14.0
 40
15.0
 40
15.0
 40
15.0
 40
16.0
 40
16.0
 40
16.0
 40
17.0
 40
17.0
 40
17.0
 40
18.0
 40
18.0
 40
18.0
 40
19.0
 40
19.0
 40
19.0
 40
20.0
 40
20.0
 40
20.0
 40
21.0
 40
21.0
 40
21.0
 40
22.0
 40
22.0
 40
22.0
 40
23.0
 40
23.0
 40
23.0
 40
24.0
 40
24.0
 40
24.0
 40
25.0
 40
25.0
 40
25.0
 40
26.0
 40
26.0
 40
26.0
 40
27.0
 40
27.0
 40
27.0
 40
28.0
 40
28.0
 40
28.0
 40
29.0
 40
29.0
 40
29.0
 40
30.0
 40
30.0
 40
30.0
 40
31.0
 40
31.0
 40
31.0
 40
32.0
 40
32.0
 40
32.0
 40
33.0
 40
33.0
 40
33.0
 40
34.0
 40
34.0
 40
34.0
 40
35.0
 40
35.0
 40
35.0
 40
36.0
 40
36.0
 40
36.0
 40
37.0
 40
37.0
 40
37.0
 40
38.0
 40
38.0
 40
38.0
 40
39.0
 40
39.0
 40
39.0
 40
40.0
 40
40.0
 40
40.0
 40
41.0
 40
41.0
 40
41.0
 40
41.0
 10
4.242391495813308
 20
-10.34332931963975
 30
0.0
 10
4.227856917209566
 20
-10.34332931963975
 30
0.0
 10
4.214644327434395
 20
-10.34282012544347
 30
0.0
 10
4.201546818216987
 20
-10.34382008613642
 30
0.0
 10
4.199310008990551
 20
-10.34399094776745
 30
0.0
 10
4.195902710324515
 20
-10.3505933714143
 30
0.0
 10
4.19585486453209
 20
-10.35426122074967
 30
0.0
 10
4.195434942138161
 20
-10.3864547068554
 30
0.0
 10
4.1960775796922
 20
-10.41866544128798
 30
0.0
 10
4.195421008617737
 20
-10.45085081920585
 30
0.0
 10
4.195229256836379
 20
-10.46025130476533
 30
0.0
 10
4.193105906276437
 20
-10.47006648727736
 30
0.0
 10
4.189687106926839
 20
-10.4788424949516
 30
0.0
 10
4.184354918214264
 20
-10.49253014797573
 30
0.0
 10
4.171119695683677
 20
-10.50094851085547
 30
0.0
 10
4.158811384013107
 20
-10.49974540320166
 30
0.0
 10
4.144332613213464
 20
-10.49833059813449
 30
0.0
 10
4.133822020569494
 20
-10.49040403370266
 30
0.0
 10
4.129021885915335
 20
-10.47680439137194
 30
0.0
 10
4.126138163239728
 20
-10.4686341390401
 30
0.0
 10
4.124526445652715
 20
-10.45962741656649
 30
0.0
 10
4.12435511495687
 20
-10.45095681533414
 30
0.0
 10
4.123718964967919
 20
-10.41876804671953
 30
0.0
 10
4.123645758693833
 20
-10.38655996587572
 30
0.0
 10
4.123976993124289
 20
-10.35436544781881
 30
0.0
 10
4.124069735815914
 20
-10.34534530997982
 30
0.0
 10
4.121201642274349
 20
-10.34213284595787
 30
0.0
 10
4.112170804246008
 20
-10.34281894607066
 30
0.0
 10
4.102966276407262
 20
-10.34351831412722
 30
0.0
 10
4.093630965154412
 20
-10.34344091778873
 30
0.0
 10
4.08441641107874
 20
-10.34279609572311
 30
0.0
 10
4.075476398961427
 20
-10.34217073330829
 30
0.0
 10
4.072516152506876
 20
-10.345214989288
 30
0.0
 10
4.072783690843885
 20
-10.35437340858506
 30
0.0
 10
4.073559544648913
 20
-10.38092035267942
 30
0.0
 10
4.074226068237976
 20
-10.40752331698064
 30
0.0
 10
4.07325691448265
 20
-10.43404313550106
 30
0.0
 10
4.072845396434407
 20
-10.44530481872369
 30
0.0
 10
4.069966686877275
 20
-10.4572284249172
 30
0.0
 10
4.065138906349223
 20
-10.46739329145748
 30
0.0
 10
4.05857525982977
 20
-10.48121318165426
 30
0.0
 10
4.045380068524587
 20
-10.4876933927971
 30
0.0
 10
4.030113206013083
 20
-10.48601190206081
 30
0.0
 10
4.013756653736006
 20
-10.48421026272288
 30
0.0
 10
4.003170716870398
 20
-10.4738823478962
 30
0.0
 10
3.998648146790173
 20
-10.4582586070376
 30
0.0
 10
3.996559888059487
 20
-10.45104467860604
 30
0.0
 10
3.995640349432505
 20
-10.44327452848867
 30
0.0
 10
3.995548933742838
 20
-10.43573995808346
 30
0.0
 10
3.995231485388153
 20
-10.40958250184864
 30
0.0
 10
3.995028970146575
 20
-10.38340381690381
 30
0.0
 10
3.995795313770991
 20
-10.35726272446623
 30
0.0
 10
3.996105316170289
 20
-10.34668758362128
 30
0.0
 10
3.993336674052443
 20
-10.34125893073037
 30
0.0
 10
3.98294978747885
 20
-10.33658876195644
 30
0.0
 10
3.911078256191482
 20
-10.30427321076831
 30
0.0
 10
3.862665539046449
 20
-10.25054150303988
 30
0.0
 10
3.839935101528377
 20
-10.17475427130461
 30
0.0
 10
3.824787079413428
 20
-10.1242483692527
 30
0.0
 10
3.823413706120567
 20
-10.07276115533982
 30
0.0
 10
3.830983515005199
 20
-10.02077241315368
 30
0.0
 10
3.843968081612451
 20
-9.931595909706731
 30
0.0
 10
3.877832876411932
 20
-9.851210450936882
 30
0.0
 10
3.934983385322008
 20
-9.781651339413453
 30
0.0
 10
3.990179072919418
 20
-9.714471538756141
 30
0.0
 10
4.059154053845682
 20
-9.665171176814357
 30
0.0
 10
4.143850026838713
 20
-9.643559907790303
 30
0.0
 10
4.23741914579538
 20
-9.619684464167473
 30
0.0
 10
4.326721363713608
 20
-9.632863549537079
 30
0.0
 10
4.410239548756306
 20
-9.684466526259104
 30
0.0
 10
4.523353489612443
 20
-9.754355862159981
 30
0.0
 10
4.586447861410381
 20
-9.857604715288642
 30
0.0
 10
4.615385940314429
 20
-9.984344536515031
 30
0.0
 10
4.630027784908886
 20
-10.0484710884752
 30
0.0
 10
4.631047954516867
 20
-10.11289609545868
 30
0.0
 10
4.610327703781599
 20
-10.17600809198777
 30
0.0
 10
4.584280572341513
 20
-10.25534560433476
 30
0.0
 10
4.530106160187011
 20
-10.30829929458458
 30
0.0
 10
4.452299022912812
 20
-10.33712036423549
 30
0.0
 10
4.441253795928862
 20
-10.34121175581928
 30
0.0
 10
4.437716156182659
 20
-10.34640556610606
 30
0.0
 10
4.438040976770354
 20
-10.35783118214461
 30
0.0
 10
4.438806509449149
 20
-10.38477454291347
 30
0.0
 10
4.43851383179751
 20
-10.41176522601502
 30
0.0
 10
4.437912847360141
 20
-10.43872023309005
 30
0.0
 10
4.437718662741897
 20
-10.44742488871128
 30
0.0
 10
4.436375589326795
 20
-10.45647200470254
 30
0.0
 10
4.433556447412607
 20
-10.46467498462895
 30
0.0
 10
4.427162952031721
 20
-10.48327929533732
 30
0.0
 10
4.409561893095339
 20
-10.49499547934374
 30
0.0
 10
4.393164498647239
 20
-10.49300897332306
 30
0.0
 10
4.374576592596213
 20
-10.49075710842766
 30
0.0
 10
4.359144002285979
 20
-10.47409094945608
 30
0.0
 10
4.358562775433155
 20
-10.45244474151352
 30
0.0
 10
4.357698897165619
 20
-10.42027749645204
 30
0.0
 10
4.358001232442575
 20
-10.38804789205505
 30
0.0
 10
4.358968395694975
 20
-10.35587976246405
 30
0.0
 10
4.359303832298261
 20
-10.34472304341857
 30
0.0
 10
4.355693133722651
 20
-10.34251982765019
 30
0.0
 10
4.345413881751457
 20
-10.34268921506524
 30
0.0
 10
4.314186577044059
 20
-10.34320401128222
 30
0.0
 10
4.314397349186669
 20
-10.34279388439917
 30
0.0
 10
4.314040533107572
 20
-10.3744273158576
 30
0.0
 10
4.313704801614954
 20
-10.40417905805083
 30
0.0
 10
4.3129000486564
 20
-10.433926082753
 30
0.0
 10
4.312129502859154
 20
-10.46367074870962
 30
0.0
 10
4.312048334573394
 20
-10.46680581639313
 30
0.0
 10
4.311085963272463
 20
-10.47000648668735
 30
0.0
 10
4.310056209761543
 20
-10.4730135924246
 30
0.0
 10
4.304379000542717
 20
-10.48959350976191
 30
0.0
 10
4.290808120241838
 20
-10.50041056944772
 30
0.0
 10
4.276710125278693
 20
-10.49978948225922
 30
0.0
 10
4.262379683807795
 20
-10.49915792813731
 30
0.0
 10
4.248456042155996
 20
-10.48636379741305
 30
0.0
 10
4.244812905755022
 20
-10.46960210924655
 30
0.0
 10
4.243204358228214
 20
-10.4622012502299
 30
0.0
 10
4.242282681653654
 20
-10.45450672739187
 30
0.0
 10
4.242231444634019
 20
-10.44693736548975
 30
0.0
 10
4.242029592893408
 20
-10.41715510702589
 30
0.0
 10
4.242299416622649
 20
-10.38736975270851
 30
0.0
 10
4.242389652755036
 20
-10.35758543034227
 30
0.0
 10
4.242402701607539
 20
-10.35328470009062
 30
0.0
 10
4.242391495813308
 20
-10.34898411726059
 30
0.0
 10
4.242391495813308
 20
-10.34332931963975
 30
0.0
  0
HATCH
  5
90
330
7C
100
AcDbEntity
  8
Layer 3
 62
    18
420
        0
440
 33554687
100
AcDbHatch
 10
0.0
 20
0.0
 30
0.0
210
0.0
220
0.0
230
1.0
  2
SOLID
 70
     1
 71
     1
 91
        4
 92
        1
 93
        1
 72
     4
 94
        3
 73
     0
 74
     0
 95
       20
 96
       16
 40
0.0
 40
0.0
 40
0.0
 40
0.0
 40
1.0
 40
1.0
 40
1.0
 40
2.0
 40
2.0
 40
2.0
 40
3.0
 40
3.0
 40
3.0
 40
4.0
 40
4.0
 40
4.0
 40
5.0
 40
5.0
 40
5.0
 40
5.0
 10
4.222570288897157
 20
-10.27846396434577
 10
4.237700986264447
 20
-10.27506714961666
 10
4.254680713400325
 20
-10.27311233923936
 10
4.270236936058633
 20
-10.26732943225069
 10
4.293831104399588
 20
-10.25855858433235
 10
4.298886760650853
 20
-10.23874998659741
 10
4.285030353764366
 20
-10.2177769056671
 10
4.25753966537291
 20
-10.17616723360182
 10
4.18687924452921
 20
-10.17492631230839
 10
4.157744400725328
 20
-10.21554155199055
 10
4.140953034143623
 20
-10.23894944801825
 10
4.148117370211113
 20
-10.26171532299066
 10
4.175823106640336
 20
-10.26963650653417
 10
4.190371766209182
 20
-10.27379593318503
 10
4.205660819142167
 20
-10.27536634174794
 10
4.222570288897157
 20
-10.27846396434577
 97
        0
 97
        1
330
8C
 92
        1
 93
        1
 72
     4
 94
        3
 73
     0
 74
     0
 95
       17
 96
       13
 40
0.0
 40
0.0
 40
0.0
 40
0.0
 40
1.0
 40
1.0
 40
1.0
 40
2.0
 40
2.0
 40
2.0
 40
3.0
 40
3.0
 40
3.0
 40
4.0
 40
4.0
 40
4.0
 40
4.0
 10
3.934564937374716
 20
-10.07254510898934
 10
3.934213576748056
 20
-10.13608624978749
 10
3.982926417500114
 20
-10.1868841940232
 10
4.044704698255878
 20
-10.1873992850834
 10
4.105090216745868
 20
-10.18790280354824
 10
4.154882352414865
 20
-10.13689360416391
 10
4.155290184346591
 20
-10.07411057892871
 10
4.155707600181257
 20
-10.0098483990992
 10
4.106357651049973
 20
-9.95764685383771
 10
4.045084810591358
 20
-9.957537245880251
 10
3.984239117315079
 20
-9.957428522452421
 10
3.934917625003309
 20
-10.00875276178971
 10
3.934564937374716
 20
-10.07254510898934
 97
        0
 97
        1
330
8D
 92
        1
 93
        1
 72
     4
 94
        3
 73
     0
 74
     0
 95
       17
 96
       13
 40
0.0
 40
0.0
 40
0.0
 40
0.0
 40
1.0
 40
1.0
 40
1.0
 40
2.0
 40
2.0
 40
2.0
 40
3.0
 40
3.0
 40
3.0
 40
4.0
 40
4.0
 40
4.0
 40
4.0
 10
4.522965267820609
 20
-10.0745667013501
 10
4.522885205369801
 20
-10.01155281389386
 10
4.47366434403903
 20
-9.960404890786675
 10
4.413200827323483
 20
-9.96050476891868
 10
4.351575004346967
 20
-9.960606563531452
 10
4.301913873259081
 20
-10.01152458265804
 10
4.301954862874784
 20
-10.07456640650692
 10
4.301996442269127
 20
-10.13856167953488
 10
4.352010777041919
 20
-10.19063084020222
 10
4.413157478593221
 20
-10.19033776606723
 10
4.473853220649465
 20
-10.19004682954538
 10
4.523046214939388
 20
-10.13818243747639
 10
4.522965267820609
 20
-10.0745667013501
 97
        0
 97
        1
330
8E
 92
        1
 93
        1
 72
     4
 94
        3
 73
     0
 74
     0
 95
      128
 96
      124
 40
0.0
 40
0.0
 40
0.0
 40
0.0
 40
1.0
 40
1.0
 40
1.0
 40
2.0
 40
2.0
 40
2.0
 40
3.0
 40
3.0
 40
3.0
 40
4.0
 40
4.0
 40
4.0
 40
5.0
 40
5.0
 40
5.0
 40
6.0
 40
6.0
 40
6.0
 40
7.0
 40
7.0
 40
7.0
 40
8.0
 40
8.0
 40
8.0
 40
9.0
 40
9.0
 40
9.0
 40
10.0
 40
10.0
 40
10.0
 40
11.0
 40
11.0
 40
11.0
 40
12.0
 40
12.0
 40
12.0
 40
13.0
 40
13.0
 40
13.0
 40
14.0
 40
14.0
 40
14.0
 40
15.0
 40
15.0
 40
15.0
 40
16.0
 40
16.0
 40
16.0
 40
17.0
 40
17.0
 40
17.0
 40
18.0
 40
18.0
 40
18.0
 40
19.0
 40
19.0
 40
19.0
 40
20.0
 40
20.0
 40
20.0
 40
21.0
 40
21.0
 40
21.0
 40
22.0
 40
22.0
 40
22.0
 40
23.0
 40
23.0
 40
23.0
 40
24.0
 40
24.0
 40
24.0
 40
25.0
 40
25.0
 40
25.0
 40
26.0
 40
26.0
 40
26.0
 40
27.0
 40
27.0
 40
27.0
 40
28.0
 40
28.0
 40
28.0
 40
29.0
 40
29.0
 40
29.0
 40
30.0
 40
30.0
 40
30.0
 40
31.0
 40
31.0
 40
31.0
 40
32.0
 40
32.0
 40
32.0
 40
33.0
 40
33.0
 40
33.0
 40
34.0
 40
34.0
 40
34.0
 40
35.0
 40
35.0
 40
35.0
 40
36.0
 40
36.0
 40
36.0
 40
37.0
 40
37.0
 40
37.0
 40
38.0
 40
38.0
 40
38.0
 40
39.0
 40
39.0
 40
39.0
 40
40.0
 40
40.0
 40
40.0
 40
41.0
 40
41.0
 40
41.0
 40
41.0
 10
4.242391495813308
 20
-10.34332931963975
 10
4.227856917209566
 20
-10.34332931963975
 10
4.214644327434395
 20
-10.34282012544347
 10
4.201546818216987
 20
-10.34382008613642
 10
4.199310008990551
 20
-10.34399094776745
 10
4.195902710324515
 20
-10.3505933714143
 10
4.19585486453209
 20
-10.35426122074967
 10
4.195434942138161
 20
-10.3864547068554
 10
4.1960775796922
 20
-10.41866544128798
 10
4.195421008617737
 20
-10.45085081920585
 10
4.195229256836379
 20
-10.46025130476533
 10
4.193105906276437
 20
-10.47006648727736
 10
4.189687106926839
 20
-10.4788424949516
 10
4.184354918214264
 20
-10.49253014797573
 10
4.171119695683677
 20
-10.50094851085547
 10
4.158811384013107
 20
-10.49974540320166
 10
4.144332613213464
 20
-10.49833059813449
 10
4.133822020569494
 20
-10.49040403370266
 10
4.129021885915335
 20
-10.47680439137194
 10
4.126138163239728
 20
-10.4686341390401
 10
4.124526445652715
 20
-10.45962741656649
 10
4.12435511495687
 20
-10.45095681533414
 10
4.123718964967919
 20
-10.41876804671953
 10
4.123645758693833
 20
-10.38655996587572
 10
4.123976993124289
 20
-10.35436544781881
 10
4.124069735815914
 20
-10.34534530997982
 10
4.121201642274349
 20
-10.34213284595787
 10
4.112170804246008
 20
-10.34281894607066
 10
4.102966276407262
 20
-10.34351831412722
 10
4.093630965154412
 20
-10.34344091778873
 10
4.08441641107874
 20
-10.34279609572311
 10
4.075476398961427
 20
-10.34217073330829
 10
4.072516152506876
 20
-10.345214989288
 10
4.072783690843885
 20
-10.35437340858506
 10
4.073559544648913
 20
-10.38092035267942
 10
4.074226068237976
 20
-10.40752331698064
 10
4.07325691448265
 20
-10.43404313550106
 10
4.072845396434407
 20
-10.44530481872369
 10
4.069966686877275
 20
-10.4572284249172
 10
4.065138906349223
 20
-10.46739329145748
 10
4.05857525982977
 20
-10.48121318165426
 10
4.045380068524587
 20
-10.4876933927971
 10
4.030113206013083
 20
-10.48601190206081
 10
4.013756653736006
 20
-10.48421026272288
 10
4.003170716870398
 20
-10.4738823478962
 10
3.998648146790173
 20
-10.4582586070376
 10
3.996559888059487
 20
-10.45104467860604
 10
3.995640349432505
 20
-10.44327452848867
 10
3.995548933742838
 20
-10.43573995808346
 10
3.995231485388153
 20
-10.40958250184864
 10
3.995028970146575
 20
-10.38340381690381
 10
3.995795313770991
 20
-10.35726272446623
 10
3.996105316170289
 20
-10.34668758362128
 10
3.993336674052443
 20
-10.34125893073037
 10
3.98294978747885
 20
-10.33658876195644
 10
3.911078256191482
 20
-10.30427321076831
 10
3.862665539046449
 20
-10.25054150303988
 10
3.839935101528377
 20
-10.17475427130461
 10
3.824787079413428
 20
-10.1242483692527
 10
3.823413706120567
 20
-10.07276115533982
 10
3.830983515005199
 20
-10.02077241315368
 10
3.843968081612451
 20
-9.931595909706731
 10
3.877832876411932
 20
-9.851210450936882
 10
3.934983385322008
 20
-9.781651339413453
 10
3.990179072919418
 20
-9.714471538756141
 10
4.059154053845682
 20
-9.665171176814357
 10
4.143850026838713
 20
-9.643559907790303
 10
4.23741914579538
 20
-9.619684464167473
 10
4.326721363713608
 20
-9.632863549537079
 10
4.410239548756306
 20
-9.684466526259104
 10
4.523353489612443
 20
-9.754355862159981
 10
4.586447861410381
 20
-9.857604715288642
 10
4.615385940314429
 20
-9.984344536515031
 10
4.630027784908886
 20
-10.0484710884752
 10
4.631047954516867
 20
-10.11289609545868
 10
4.610327703781599
 20
-10.17600809198777
 10
4.584280572341513
 20
-10.25534560433476
 10
4.530106160187011
 20
-10.30829929458458
 10
4.452299022912812
 20
-10.33712036423549
 10
4.441253795928862
 20
-10.34121175581928
 10
4.437716156182659
 20
-10.34640556610606
 10
4.438040976770354
 20
-10.35783118214461
 10
4.438806509449149
 20
-10.38477454291347
 10
4.43851383179751
 20
-10.41176522601502
 10
4.437912847360141
 20
-10.43872023309005
 10
4.437718662741897
 20
-10.44742488871128
 10
4.436375589326795
 20
-10.45647200470254
 10
4.433556447412607
 20
-10.46467498462895
 10
4.427162952031721
 20
-10.48327929533732
 10
4.409561893095339
 20
-10.49499547934374
 10
4.393164498647239
 20
-10.49300897332306
 10
4.374576592596213
 20
-10.49075710842766
 10
4.359144002285979
 20
-10.47409094945608
 10
4.358562775433155
 20
-10.45244474151352
 10
4.357698897165619
 20
-10.42027749645204
 10
4.358001232442575
 20
-10.38804789205505
 10
4.358968395694975
 20
-10.35587976246405
 10
4.359303832298261
 20
-10.34472304341857
 10
4.355693133722651
 20
-10.34251982765019
 10
4.345413881751457
 20
-10.34268921506524
 10
4.314186577044059
 20
-10.34320401128222
 10
4.314397349186669
 20
-10.34279388439917
 10
4.314040533107572
 20
-10.3744273158576
 10
4.313704801614954
 20
-10.40417905805083
 10
4.3129000486564
 20
-10.433926082753
 10
4.312129502859154
 20
-10.46367074870962
 10
4.312048334573394
 20
-10.46680581639313
 10
4.311085963272463
 20
-10.47000648668735
 10
4.310056209761543
 20
-10.4730135924246
 10
4.304379000542717
 20
-10.48959350976191
 10
4.290808120241838
 20
-10.50041056944772
 10
4.276710125278693
 20
-10.49978948225922
 10
4.262379683807795
 20
-10.49915792813731
 10
4.248456042155996
 20
-10.48636379741305
 10
4.244812905755022
 20
-10.46960210924655
 10
4.243204358228214
 20
-10.4622012502299
 10
4.242282681653654
 20
-10.45450672739187
 10
4.242231444634019
 20
-10.44693736548975
 10
4.242029592893408
 20
-10.41715510702589
 10
4.242299416622649
 20
-10.38736975270851
 10
4.242389652755036
 20
-10.35758543034227
 10
4.242402701607539
 20
-10.35328470009062
 10
4.242391495813308
 20
-10.34898411726059
 10
4.242391495813308
 20
-10.34332931963975
 97
        0
 97
        1
330
8F
 75
     2
 76
     1
 98
        1
 10
0.0
 20
0.0
450
        0
451
        0
460
0.0
461
0.0
452
        0
462
0.0
453
        0
470

  0
ENDBLK
  5
7F
330
7C
100
AcDbEntity
  8
0
100
AcDbBlockEnd
  0
ENDSEC
  0
SECTION
  2
ENTITIES
  0
LWPOLYLINE
  5
79
330
70
100
AcDbEntity
  8
Layer 2
 62
   250
420
  2301728
370
    35
100
AcDbPolyline
 90
        4
 70
     1
 43
0.0
 10
2.610524549195613
 20
-11.59639533589903
 10
2.610524549195613
 20
-8.566395335899034
 10
5.840524549195631
 20
-8.566395335899034
 10
5.840524549195631
 20
-11.59639533589901
  0
INSERT
  5
7D
330
70
100
AcDbEntity
  8
Layer 3
100
AcDbBlockReference
  2
Block_0
 10
0.0
 20
0.0
 30
0.0
  0
ENDSEC
  0
SECTION
  2
OBJECTS
  0
DICTIONARY
  5
C
330
0
100
AcDbDictionary
281
     1
  3
ACAD_COLOR
350
63
  3
ACAD_DETAILVIEWSTYLE
350
6A
  3
ACAD_GROUP
350
D
  3
ACAD_LAYOUT
350
62
  3
ACAD_MATERIAL
350
10
  3
ACAD_MLEADERSTYLE
350
66
  3
ACAD_MLINESTYLE
350
5F
  3
ACAD_PLOTSETTINGS
350
61
  3
ACAD_PLOTSTYLENAME
350
E
  3
ACAD_SCALELIST
350
42
  3
ACAD_SECTIONVIEWSTYLE
350
68
  3
ACAD_TABLESTYLE
350
64
  3
ACAD_VISUALSTYLE
350
29
  3
ACDB_RECOMPOSE_DATA
350
99
  3
AcDbVariableDictionary
350
91
  0
DICTIONARY
  5
63
102
{ACAD_REACTORS
330
C
102
}
330
C
100
AcDbDictionary
281
     1
  0
DICTIONARY
  5
6A
102
{ACAD_REACTORS
330
C
102
}
330
C
100
AcDbDictionary
281
     1
  3
Imperial24
350
6B
  0
DICTIONARY
  5
D
102
{ACAD_REACTORS
330
C
102
}
330
C
100
AcDbDictionary
281
     1
  0
DICTIONARY
  5
62
102
{ACAD_REACTORS
330
C
102
}
330
C
100
AcDbDictionary
281
     1
  3
Layout1
350
6F
  3
Layout2
350
77
  3
Model
350
73
  0
DICTIONARY
  5
10
102
{ACAD_REACTORS
330
C
102
}
330
C
100
AcDbDictionary
281
     1
  3
ByBlock
350
19
  3
ByLayer
350
11
  3
Global
350
21
  0
DICTIONARY
  5
66
102
{ACAD_REACTORS
330
C
102
}
330
C
100
AcDbDictionary
281
     1
  3
Standard
350
67
  0
DICTIONARY
  5
5F
102
{ACAD_REACTORS
330
C
102
}
330
C
100
AcDbDictionary
281
     1
  3
Standard
350
60
  0
DICTIONARY
  5
61
102
{ACAD_REACTORS
330
C
102
}
330
C
100
AcDbDictionary
281
     1
  0
ACDBDICTIONARYWDFLT
  5
E
102
{ACAD_REACTORS
330
C
102
}
330
C
100
AcDbDictionary
281
     1
  3
Normal
350
F
100
AcDbDictionaryWithDefault
340
F
  0
DICTIONARY
  5
42
102
{ACAD_REACTORS
330
C
102
}
330
C
100
AcDbDictionary
281
     1
  3
A0
350
43
  3
A1
350
44
  3
A2
350
45
  3
A3
350
46
  3
A4
350
47
  3
A5
350
48
  3
A6
350
49
  3
A7
350
4A
  3
A8
350
4B
  3
A9
350
4C
  3
B0
350
4D
  3
B1
350
4E
  3
B2
350
4F
  3
B3
350
50
  3
B4
350
51
  3
B5
350
52
  3
B6
350
53
  0
DICTIONARY
  5
68
102
{ACAD_REACTORS
330
C
102
}
330
C
100
AcDbDictionary
281
     1
  3
Imperial24
350
69
  0
DICTIONARY
  5
64
102
{ACAD_REACTORS
330
C
102
}
330
C
100
AcDbDictionary
281
     1
  3
Standard
350
65
  0
DICTIONARY
  5
29
102
{ACAD_REACTORS
330
C
102
}
330
C
100
AcDbDictionary
281
     1
  3
2dWireframe
350
2F
  3
Basic
350
2E
  3
Brighten
350
35
  3
ColorChange
350
39
  3
Conceptual
350
32
  3
Dim
350
34
  3
EdgeColorOff
350
41
  3
Facepattern
350
38
  3
Flat
350
2A
  3
FlatWithEdges
350
2B
  3
Gouraud
350
2C
  3
GouraudWithEdges
350
2D
  3
Hidden
350
31
  3
JitterOff
350
3F
  3
Linepattern
350
37
  3
OverhangOff
350
40
  3
Realistic
350
33
  3
Shaded
350
3E
  3
Shaded with edges
350
3D
  3
Shades of Gray
350
3A
  3
Sketchy
350
3B
  3
Thicken
350
36
  3
Wireframe
350
30
  3
X-Ray
350
3C
  0
XRECORD
  5
99
102
{ACAD_REACTORS
330
C
102
}
330
C
100
AcDbXrecord
280
     1
 90
        1
330
65
  0
DICTIONARY
  5
91
102
{ACAD_REACTORS
330
C
102
}
330
C
100
AcDbDictionary
281
     1
  3
CANNOSCALE
350
96
  3
CMLEADERSTYLE
350
93
  3
CTABLESTYLE
350
92
  3
CVIEWDETAILSTYLE
350
94
  3
CVIEWSECTIONSTYLE
350
95
  0
ACDBDETAILVIEWSTYLE
  5
6B
102
{ACAD_REACTORS
330
6A
102
}
330
6A
100
AcDbModelDocViewStyle
 70
     0
  3
Imperial24
290
     1
300
Imperial24
 90
        0
100
AcDbDetailViewStyle
 70
     0
 71
     0
 90
        3
 71
     1
340
55
 62
   256
 40
0.24
340
0
 62
   256
 40
0.24
300

 40
0.36
280
     3
 71
     2
340
5D
 90
       25
 62
   256
 71
     3
340
55
 62
   256
 40
0.24
 90
        1
 40
0.75
 90
        1
300
%<\AcVar ViewType \f "%tc1">% %<\AcVar ViewDetailId>%\PSCALE %<\AcVar ViewScale \f "%sn">%
 71
     4
340
5D
 90
       25
 62
   256
340
5D
 90
       25
 62
   256
280
     0
  0
LAYOUT
  5
6F
102
{ACAD_REACTORS
330
62
102
}
330
62
100
AcDbPlotSettings
  1

  2

  4

  6

 40
0.0
 41
0.0
 42
0.0
 43
0.0
 44
0.0
 45
0.0
 46
0.0
 47
0.0
 48
0.0
 49
0.0
140
0.0
141
0.0
142
1.0
143
1.0
 70
   688
 72
     0
 73
     0
 74
     5
  7

 75
    16
147
1.0
 76
     0
 77
     2
 78
   300
148
0.0
149
0.0
100
AcDbLayout
  1
Layout1
 70
     1
 71
     1
 10
0.0
 20
0.0
 11
12.0
 21
9.0
 12
0.0
 22
0.0
 32
0.0
 14
0.0
 24
0.0
 34
0.0
 15
0.0
 25
0.0
 35
0.0
146
0.0
 13
0.0
 23
0.0
 33
0.0
 16
1.0
 26
0.0
 36
0.0
 17
0.0
 27
1.0
 37
0.0
 76
     0
330
6C
  0
LAYOUT
  5
77
102
{ACAD_REACTORS
330
62
102
}
330
62
100
AcDbPlotSettings
  1

  2

  4

  6

 40
0.0
 41
0.0
 42
0.0
 43
0.0
 44
0.0
 45
0.0
 46
0.0
 47
0.0
 48
0.0
 49
0.0
140
0.0
141
0.0
142
1.0
143
1.0
 70
   688
 72
     0
 73
     0
 74
     5
  7

 75
    16
147
1.0
 76
     0
 77
     2
 78
   300
148
0.0
149
0.0
100
AcDbLayout
  1
Layout2
 70
     1
 71
     2
 10
0.0
 20
0.0
 11
12.0
 21
9.0
 12
0.0
 22
0.0
 32
0.0
 14
0.0
 24
0.0
 34
0.0
 15
0.0
 25
0.0
 35
0.0
146
0.0
 13
0.0
 23
0.0
 33
0.0
 16
1.0
 26
0.0
 36
0.0
 17
0.0
 27
1.0
 37
0.0
 76
     0
330
74
  0
LAYOUT
  5
73
102
{ACAD_REACTORS
330
62
102
}
330
62
100
AcDbPlotSettings
  1

  2

  4

  6

 40
0.0
 41
0.0
 42
0.0
 43
0.0
 44
0.0
 45
0.0
 46
0.0
 47
0.0
 48
0.0
 49
0.0
140
0.0
141
0.0
142
1.0
143
1.0
 70
  1712
 72
     0
 73
     0
 74
     0
  7

 75
     0
147
1.0
 76
     0
 77
     2
 78
   300
148
0.0
149
0.0
100
AcDbLayout
  1
Model
 70
     1
 71
     0
 10
0.0
 20
0.0
 11
12.0
 21
9.0
 12
0.0
 22
0.0
 32
0.0
 14
0.0
 24
0.0
 34
0.0
 15
0.0
 25
0.0
 35
0.0
146
0.0
 13
0.0
 23
0.0
 33
0.0
 16
1.0
 26
0.0
 36
0.0
 17
0.0
 27
1.0
 37
0.0
 76
     0
330
70
  0
MATERIAL
  5
19
102
{ACAD_XDICTIONARY
360
1A
102
}
102
{ACAD_REACTORS
330
10
102
}
330
10
100
AcDbMaterial
  1
ByBlock
 72
     0
 43
0.0208333333333333
 43
0.0
 43
0.0
 43
0.0
 43
0.0
 43
0.0208333333333333
 43
0.0
 43
0.0
 43
0.0
 43
0.0
 43
1.0
 43
0.0
 43
0.0
 43
0.0
 43
0.0
 43
1.0
 77
     0
 47
0.0208333333333333
 47
0.0
 47
0.0
 47
0.0
 47
0.0
 47
0.0208333333333333
 47
0.0
 47
0.0
 47
0.0
 47
0.0
 47
1.0
 47
0.0
 47
0.0
 47
0.0
 47
0.0
 47
1.0
171
     0
 49
0.0208333333333333
 49
0.0
 49
0.0
 49
0.0
 49
0.0
 49
0.0208333333333333
 49
0.0
 49
0.0
 49
0.0
 49
0.0
 49
1.0
 49
0.0
 49
0.0
 49
0.0
 49
0.0
 49
1.0
175
     0
142
0.0208333333333333
142
0.0
142
0.0
142
0.0
142
0.0
142
0.0208333333333333
142
0.0
142
0.0
142
0.0
142
0.0
142
1.0
142
0.0
142
0.0
142
0.0
142
0.0
142
1.0
179
     0
144
0.0208333333333333
144
0.0
144
0.0
144
0.0
144
0.0
144
0.0208333333333333
144
0.0
144
0.0
144
0.0
144
0.0
144
1.0
144
0.0
144
0.0
144
0.0
144
0.0
144
1.0
147
0.0208333333333333
147
0.0
147
0.0
147
0.0
147
0.0
147
0.0208333333333333
147
0.0
147
0.0
147
0.0
147
0.0
147
1.0
147
0.0
147
0.0
147
0.0
147
0.0
147
1.0
  0
MATERIAL
  5
11
102
{ACAD_XDICTIONARY
360
12
102
}
102
{ACAD_REACTORS
330
10
102
}
330
10
100
AcDbMaterial
  1
ByLayer
 72
     0
 43
0.0208333333333333
 43
0.0
 43
0.0
 43
0.0
 43
0.0
 43
0.0208333333333333
 43
0.0
 43
0.0
 43
0.0
 43
0.0
 43
1.0
 43
0.0
 43
0.0
 43
0.0
 43
0.0
 43
1.0
 77
     0
 47
0.0208333333333333
 47
0.0
 47
0.0
 47
0.0
 47
0.0
 47
0.0208333333333333
 47
0.0
 47
0.0
 47
0.0
 47
0.0
 47
1.0
 47
0.0
 47
0.0
 47
0.0
 47
0.0
 47
1.0
171
     0
 49
0.0208333333333333
 49
0.0
 49
0.0
 49
0.0
 49
0.0
 49
0.0208333333333333
 49
0.0
 49
0.0
 49
0.0
 49
0.0
 49
1.0
 49
0.0
 49
0.0
 49
0.0
 49
0.0
 49
1.0
175
     0
142
0.0208333333333333
142
0.0
142
0.0
142
0.0
142
0.0
142
0.0208333333333333
142
0.0
142
0.0
142
0.0
142
0.0
142
1.0
142
0.0
142
0.0
142
0.0
142
0.0
142
1.0
179
     0
144
0.0208333333333333
144
0.0
144
0.0
144
0.0
144
0.0
144
0.0208333333333333
144
0.0
144
0.0
144
0.0
144
0.0
144
1.0
144
0.0
144
0.0
144
0.0
144
0.0
144
1.0
147
0.0208333333333333
147
0.0
147
0.0
147
0.0
147
0.0
147
0.0208333333333333
147
0.0
147
0.0
147
0.0
147
0.0
147
1.0
147
0.0
147
0.0
147
0.0
147
0.0
147
1.0
  0
MATERIAL
  5
21
102
{ACAD_XDICTIONARY
360
22
102
}
102
{ACAD_REACTORS
330
10
102
}
330
10
100
AcDbMaterial
  1
Global
 72
     0
 43
0.0208333333333333
 43
0.0
 43
0.0
 43
0.0
 43
0.0
 43
0.0208333333333333
 43
0.0
 43
0.0
 43
0.0
 43
0.0
 43
1.0
 43
0.0
 43
0.0
 43
0.0
 43
0.0
 43
1.0
 77
     0
 47
0.0208333333333333
 47
0.0
 47
0.0
 47
0.0
 47
0.0
 47
0.0208333333333333
 47
0.0
 47
0.0
 47
0.0
 47
0.0
 47
1.0
 47
0.0
 47
0.0
 47
0.0
 47
0.0
 47
1.0
171
     0
 49
0.0208333333333333
 49
0.0
 49
0.0
 49
0.0
 49
0.0
 49
0.0208333333333333
 49
0.0
 49
0.0
 49
0.0
 49
0.0
 49
1.0
 49
0.0
 49
0.0
 49
0.0
 49
0.0
 49
1.0
175
     0
142
0.0208333333333333
142
0.0
142
0.0
142
0.0
142
0.0
142
0.0208333333333333
142
0.0
142
0.0
142
0.0
142
0.0
142
1.0
142
0.0
142
0.0
142
0.0
142
0.0
142
1.0
179
     0
144
0.0208333333333333
144
0.0
144
0.0
144
0.0
144
0.0
144
0.0208333333333333
144
0.0
144
0.0
144
0.0
144
0.0
144
1.0
144
0.0
144
0.0
144
0.0
144
0.0
144
1.0
147
0.0208333333333333
147
0.0
147
0.0
147
0.0
147
0.0
147
0.0208333333333333
147
0.0
147
0.0
147
0.0
147
0.0
147
1.0
147
0.0
147
0.0
147
0.0
147
0.0
147
1.0
  0
MLEADERSTYLE
  5
67
102
{ACAD_REACTORS
330
66
102
}
330
66
100
AcDbMLeaderStyle
179
     2
170
     2
171
     1
172
     0
 90
        2
 40
0.0
 41
0.0
173
     1
 91
-1056964608
340
5B
 92
       -2
290
     1
 42
0.09
291
     1
 43
0.36
  3
Standard
 44
0.18
300

342
55
174
     1
178
     6
175
     1
176
     0
 93
-1056964608
 45
0.18
292
     0
297
     0
 46
0.18
 94
-1056964608
 47
1.0
 49
1.0
140
1.0
293
     1
141
0.0
294
     1
177
     0
142
1.0
295
     1
296
     0
143
0.125
271
     0
272
     9
273
     9
298
     1
  0
MLINESTYLE
  5
60
102
{ACAD_REACTORS
330
5F
102
}
330
5F
100
AcDbMlineStyle
  2
STANDARD
 70
     0
  3

 62
   256
 51
90.0
 52
90.0
 71
     2
 49
0.5
 62
   256
  6
BYLAYER
 49
-0.5
 62
   256
  6
BYLAYER
  0
ACDBPLACEHOLDER
  5
F
102
{ACAD_REACTORS
330
E
102
}
330
E
  0
SCALE
  5
43
102
{ACAD_REACTORS
330
42
102
}
330
42
100
AcDbScale
 70
     0
300
1:1
140
1.0
141
1.0
290
     1
  0
SCALE
  5
44
102
{ACAD_REACTORS
330
42
102
}
330
42
100
AcDbScale
 70
     0
300
1/128" = 1'-0"
140
0.0078125
141
12.0
290
     0
  0
SCALE
  5
45
102
{ACAD_REACTORS
330
42
102
}
330
42
100
AcDbScale
 70
     0
300
1/64" = 1'-0"
140
0.015625
141
12.0
290
     0
  0
SCALE
  5
46
102
{ACAD_REACTORS
330
42
102
}
330
42
100
AcDbScale
 70
     0
300
1/32" = 1'-0"
140
0.03125
141
12.0
290
     0
  0
SCALE
  5
47
102
{ACAD_REACTORS
330
42
102
}
330
42
100
AcDbScale
 70
     0
300
1/16" = 1'-0"
140
0.0625
141
12.0
290
     0
  0
SCALE
  5
48
102
{ACAD_REACTORS
330
42
102
}
330
42
100
AcDbScale
 70
     0
300
3/32" = 1'-0"
140
0.09375
141
12.0
290
     0
  0
SCALE
  5
49
102
{ACAD_REACTORS
330
42
102
}
330
42
100
AcDbScale
 70
     0
300
1/8" = 1'-0"
140
0.125
141
12.0
290
     0
  0
SCALE
  5
4A
102
{ACAD_REACTORS
330
42
102
}
330
42
100
AcDbScale
 70
     0
300
3/16" = 1'-0"
140
0.1875
141
12.0
290
     0
  0
SCALE
  5
4B
102
{ACAD_REACTORS
330
42
102
}
330
42
100
AcDbScale
 70
     0
300
1/4" = 1'-0"
140
0.25
141
12.0
290
     0
  0
SCALE
  5
4C
102
{ACAD_REACTORS
330
42
102
}
330
42
100
AcDbScale
 70
     0
300
3/8" = 1'-0"
140
0.375
141
12.0
290
     0
  0
SCALE
  5
4D
102
{ACAD_REACTORS
330
42
102
}
330
42
100
AcDbScale
 70
     0
300
1/2" = 1'-0"
140
0.5
141
12.0
290
     0
  0
SCALE
  5
4E
102
{ACAD_REACTORS
330
42
102
}
330
42
100
AcDbScale
 70
     0
300
3/4" = 1'-0"
140
0.75
141
12.0
290
     0
  0
SCALE
  5
4F
102
{ACAD_REACTORS
330
42
102
}
330
42
100
AcDbScale
 70
     0
300
1" = 1'-0"
140
1.0
141
12.0
290
     0
  0
SCALE
  5
50
102
{ACAD_REACTORS
330
42
102
}
330
42
100
AcDbScale
 70
     0
300
1-1/2" = 1'-0"
140
1.5
141
12.0
290
     0
  0
SCALE
  5
51
102
{ACAD_REACTORS
330
42
102
}
330
42
100
AcDbScale
 70
     0
300
3" = 1'-0"
140
3.0
141
12.0
290
     0
  0
SCALE
  5
52
102
{ACAD_REACTORS
330
42
102
}
330
42
100
AcDbScale
 70
     0
300
6" = 1'-0"
140
6.0
141
12.0
290
     0
  0
SCALE
  5
53
102
{ACAD_REACTORS
330
42
102
}
330
42
100
AcDbScale
 70
     0
300
1'-0" = 1'-0"
140
12.0
141
12.0
290
     0
  0
ACDBSECTIONVIEWSTYLE
  5
69
102
{ACAD_REACTORS
330
68
102
}
330
68
100
AcDbModelDocViewStyle
 70
     0
  3
Imperial24
290
     1
300
Imperial24
 90
        0
100
AcDbSectionViewStyle
 70
     0
 71
     0
 90
       78
 71
     1
340
55
 62
   256
 40
0.24
340
0
340
0
 62
   256
 40
0.24
300
I, O, Q, S, X, Z
 40
0.48
 90
        3
 40
0.18
 90
        1
 71
     2
340
5D
 90
       25
 62
   256
340
5D
 90
       50
 62
   256
 40
0.24
 40
0.0
 40
0.24
 71
     3
340
55
 62
   256
 40
0.24
 90
        1
 40
0.75
 90
        1
300
%<\AcVar ViewType \f "%tc1">% %<\AcVar ViewSectionStartId>%-%<\AcVar ViewSectionEndId>%\PSCALE %<\AcVar ViewScale \f "%sn">%
 71
     4
 62
   256
 62
   257
300
ANSI31
 40
1.0
 90
        0
290
     0
290
     0
 90
        6
 40
0.0
 40
1.570796326794896
 40
0.2617993877991494
 40
1.308996938995747
 40
-0.2617993877991494
 40
1.832595714594046
  0
TABLESTYLE
  5
65
102
{ACAD_XDICTIONARY
360
97
102
}
102
{ACAD_REACTORS
330
64
102
}
330
64
100
AcDbTableStyle
280
     0
  3
Standard
 70
     0
 71
     0
 40
0.06
 41
0.06
280
     0
281
     0
  7
Standard
140
0.18
170
     2
 62
     0
 63
     7
283
     0
 90
      512
 91
        0
  1

274
    -2
284
     1
 64
     0
275
    -2
285
     1
 65
     0
276
    -2
286
     1
 66
     0
277
    -2
287
     1
 67
     0
278
    -2
288
     1
 68
     0
279
    -2
289
     1
 69
     0
  7
Standard
140
0.25
170
     5
 62
     0
 63
     7
283
     0
 90
      512
 91
        0
  1

274
    -2
284
     1
 64
     0
275
    -2
285
     1
 65
     0
276
    -2
286
     1
 66
     0
277
    -2
287
     1
 67
     0
278
    -2
288
     1
 68
     0
279
    -2
289
     1
 69
     0
  7
Standard
140
0.18
170
     5
 62
     0
 63
     7
283
     0
 90
      512
 91
        0
  1

274
    -2
284
     1
 64
     0
275
    -2
285
     1
 65
     0
276
    -2
286
     1
 66
     0
277
    -2
287
     1
 67
     0
278
    -2
288
     1
 68
     0
279
    -2
289
     1
 69
     0
  0
VISUALSTYLE
  5
2F
102
{ACAD_REACTORS
330
29
102
}
330
29
100
AcDbVisualStyle
  2
2dWireframe
 70
     4
177
     3
291
     0
 70
    58
 90
        0
176
     1
 90
        2
176
     1
 90
        0
176
     1
 90
        0
176
     1
 40
0.6
176
     1
 40
30.0
176
     1
 62
     7
420
 16777215
176
     1
 90
        1
176
     1
 90
        4
176
     1
 62
     7
176
     1
 62
   257
176
     1
 90
        1
176
     1
 90
        1
176
     1
 40
1.0
176
     1
 90
        0
176
     1
 62
   257
176
     1
 40
1.0
176
     1
 90
        1
176
     1
 90
        6
176
     1
 90
        2
176
     1
 62
     7
176
     1
 90
        5
176
     1
 90
        0
176
     1
 90
        0
176
     1
290
     0
176
     1
 90
        1
176
     1
 40
0.0
176
     1
 90
        0
176
     1
290
     1
176
     1
290
     1
176
     1
290
     0
176
     1
290
     0
176
     1
290
     0
176
     1
290
     0
176
     1
290
     0
176
     1
290
     0
176
     1
290
     0
176
     1
 90
       50
176
     1
 40
0.0
176
     1
 40
1.0
176
     1
 90
        0
176
     1
 62
    18
420
        0
176
     1
 90
       50
176
     1
 90
        3
176
     1
 62
     5
420
      255
176
     1
290
     0
176
     1
 90
       50
176
     1
 90
       50
176
     1
 90
       50
176
     1
290
     0
176
     1
 90
       50
176
     1
 62
   256
176
     0
 40
1.0
176
     0
 90
        2
176
     1
  1
strokes_ogs.tif
176
     1
290
     0
176
     1
 40
1.0
176
     1
 40
1.0
176
     1
  0
VISUALSTYLE
  5
2E
102
{ACAD_REACTORS
330
29
102
}
330
29
100
AcDbVisualStyle
  2
Basic
 70
     7
177
     3
291
     1
 70
    58
 90
        1
176
     1
 90
        0
176
     1
 90
        1
176
     1
 90
        0
176
     1
 40
0.6
176
     1
 40
30.0
176
     1
 62
     7
420
 16777215
176
     1
 90
        0
176
     1
 90
        4
176
     1
 62
     7
176
     1
 62
   257
176
     1
 90
        1
176
     1
 90
        1
176
     1
 40
1.0
176
     1
 90
        8
176
     1
 62
     7
176
     1
 40
1.0
176
     1
 90
        1
176
     1
 90
        6
176
     1
 90
        2
176
     1
 62
     7
176
     1
 90
        5
176
     1
 90
        0
176
     1
 90
        0
176
     1
290
     0
176
     1
 90
        1
176
     1
 40
0.0
176
     1
 90
        0
176
     1
290
     0
176
     1
290
     1
176
     1
290
     1
176
     1
290
     0
176
     1
290
     0
176
     1
290
     0
176
     1
290
     0
176
     1
290
     0
176
     1
290
     0
176
     1
 90
       50
176
     1
 40
0.0
176
     1
 40
1.0
176
     1
 90
        0
176
     1
 62
    18
420
        0
176
     1
 90
       50
176
     1
 90
        3
176
     1
 62
     5
420
      255
176
     1
290
     0
176
     1
 90
       50
176
     1
 90
       50
176
     1
 90
       50
176
     1
290
     0
176
     1
 90
       50
176
     1
 62
   256
176
     0
 40
1.0
176
     0
 90
        2
176
     1
  1
strokes_ogs.tif
176
     1
290
     0
176
     1
 40
1.0
176
     1
 40
1.0
176
     1
  0
VISUALSTYLE
  5
35
102
{ACAD_REACTORS
330
29
102
}
330
29
100
AcDbVisualStyle
  2
Brighten
 70
    12
177
     3
291
     1
 70
    58
 90
        2
176
     1
 90
        2
176
     1
 90
        0
176
     1
 90
        0
176
     1
 40
0.6
176
     1
 40
30.0
176
     1
 62
     7
420
 16777215
176
     1
 90
        1
176
     1
 90
        4
176
     1
 62
     7
176
     1
 62
   257
176
     1
 90
        1
176
     1
 90
        1
176
     1
 40
1.0
176
     1
 90
        8
176
     1
 62
     7
176
     1
 40
1.0
176
     1
 90
        1
176
     1
 90
        6
176
     1
 90
        2
176
     1
 62
     7
176
     1
 90
        5
176
     1
 90
        0
176
     1
 90
        0
176
     1
290
     0
176
     1
 90
        1
176
     1
 40
50.0
176
     1
 90
        0
176
     1
290
     0
176
     1
290
     1
176
     1
290
     1
176
     1
290
     0
176
     1
290
     0
176
     1
290
     0
176
     1
290
     0
176
     1
290
     0
176
     1
290
     0
176
     1
 90
       50
176
     1
 40
0.0
176
     1
 40
1.0
176
     1
 90
        0
176
     1
 62
    18
420
        0
176
     1
 90
       50
176
     1
 90
        3
176
     1
 62
     5
420
      255
176
     1
290
     0
176
     1
 90
       50
176
     1
 90
       50
176
     1
 90
       50
176
     1
290
     0
176
     1
 90
       50
176
     1
 62
   256
176
     0
 40
1.0
176
     0
 90
        2
176
     1
  1
strokes_ogs.tif
176
     1
290
     0
176
     1
 40
1.0
176
     1
 40
1.0
176
     1
  0
VISUALSTYLE
  5
39
102
{ACAD_REACTORS
330
29
102
}
330
29
100
AcDbVisualStyle
  2
ColorChange
 70
    16
177
     3
291
     1
 70
    58
 90
        2
176
     1
 90
        2
176
     1
 90
        3
176
     1
 90
        0
176
     1
 40
0.6
176
     1
 40
30.0
176
     1
 62
     8
420
  8421504
176
     1
 90
        1
176
     1
 90
        4
176
     1
 62
     7
176
     1
 62
   257
176
     1
 90
        1
176
     1
 90
        1
176
     1
 40
1.0
176
     1
 90
        8
176
     1
 62
     8
420
  8421504
176
     1
 40
1.0
176
     1
 90
        1
176
     1
 90
        6
176
     1
 90
        2
176
     1
 62
     7
176
     1
 90
        5
176
     1
 90
        0
176
     1
 90
        0
176
     1
290
     0
176
     1
 90
        1
176
     1
 40
0.0
176
     1
 90
        0
176
     1
290
     0
176
     1
290
     1
176
     1
290
     1
176
     1
290
     0
176
     1
290
     0
176
     1
290
     0
176
     1
290
     0
176
     1
290
     0
176
     1
290
     0
176
     1
 90
       50
176
     1
 40
0.0
176
     1
 40
1.0
176
     1
 90
        0
176
     1
 62
    18
420
        0
176
     1
 90
       50
176
     1
 90
        3
176
     1
 62
     5
420
      255
176
     1
290
     0
176
     1
 90
       50
176
     1
 90
       50
176
     1
 90
       50
176
     1
290
     0
176
     1
 90
       50
176
     1
 62
   256
176
     0
 40
1.0
176
     0
 90
        2
176
     1
  1
strokes_ogs.tif
176
     1
290
     0
176
     1
 40
1.0
176
     1
 40
1.0
176
     1
  0
VISUALSTYLE
  5
32
102
{ACAD_REACTORS
330
29
102
}
330
29
100
AcDbVisualStyle
  2
Conceptual
 70
     9
177
     3
291
     0
 70
    58
 90
        3
176
     1
 90
        2
176
     1
 90
        0
176
     1
 90
        0
176
     1
 40
0.6
176
     1
 40
30.0
176
     1
 62
     7
420
 16777215
176
     1
 90
        2
176
     1
 90
        2
176
     1
 62
     7
176
     1
 62
   257
176
     1
 90
        1
176
     1
 90
        1
176
     1
 40
179.0
176
     1
 90
        8
176
     1
 62
     7
176
     1
 40
1.0
176
     1
 90
        1
176
     1
 90
        6
176
     1
 90
        2
176
     1
 62
     7
176
     1
 90
        3
176
     1
 90
        0
176
     1
 90
        0
176
     1
290
     0
176
     1
 90
        1
176
     1
 40
0.0
176
     1
 90
        0
176
     1
290
     0
176
     1
290
     1
176
     1
290
     1
176
     1
290
     0
176
     1
290
     0
176
     1
290
     0
176
     1
290
     0
176
     1
290
     0
176
     1
290
     0
176
     1
 90
       50
176
     1
 40
0.0
176
     1
 40
1.0
176
     1
 90
        0
176
     1
 62
    18
420
        0
176
     1
 90
       50
176
     1
 90
        3
176
     1
 62
     5
420
      255
176
     1
290
     0
176
     1
 90
       50
176
     1
 90
       50
176
     1
 90
       50
176
     1
290
     0
176
     1
 90
       50
176
     1
 62
   256
176
     0
 40
1.0
176
     0
 90
        2
176
     1
  1
strokes_ogs.tif
176
     1
290
     0
176
     1
 40
1.0
176
     1
 40
1.0
176
     1
  0
VISUALSTYLE
  5
34
102
{ACAD_REACTORS
330
29
102
}
330
29
100
AcDbVisualStyle
  2
Dim
 70
    11
177
     3
291
     1
 70
    58
 90
        2
176
     1
 90
        2
176
     1
 90
        0
176
     1
 90
        0
176
     1
 40
0.6
176
     1
 40
30.0
176
     1
 62
     7
420
 16777215
176
     1
 90
        1
176
     1
 90
        4
176
     1
 62
     7
176
     1
 62
   257
176
     1
 90
        1
176
     1
 90
        1
176
     1
 40
1.0
176
     1
 90
        8
176
     1
 62
     7
176
     1
 40
1.0
176
     1
 90
        1
176
     1
 90
        6
176
     1
 90
        2
176
     1
 62
     7
176
     1
 90
        5
176
     1
 90
        0
176
     1
 90
        0
176
     1
290
     0
176
     1
 90
        1
176
     1
 40
-50.0
176
     1
 90
        0
176
     1
290
     0
176
     1
290
     1
176
     1
290
     1
176
     1
290
     0
176
     1
290
     0
176
     1
290
     0
176
     1
290
     0
176
     1
290
     0
176
     1
290
     0
176
     1
 90
       50
176
     1
 40
0.0
176
     1
 40
1.0
176
     1
 90
        0
176
     1
 62
    18
420
        0
176
     1
 90
       50
176
     1
 90
        3
176
     1
 62
     5
420
      255
176
     1
290
     0
176
     1
 90
       50
176
     1
 90
       50
176
     1
 90
       50
176
     1
290
     0
176
     1
 90
       50
176
     1
 62
   256
176
     0
 40
1.0
176
     0
 90
        2
176
     1
  1
strokes_ogs.tif
176
     1
290
     0
176
     1
 40
1.0
176
     1
 40
1.0
176
     1
  0
VISUALSTYLE
  5
41
102
{ACAD_REACTORS
330
29
102
}
330
29
100
AcDbVisualStyle
  2
EdgeColorOff
 70
    22
177
     3
291
     1
 70
    58
 90
        2
176
     0
 90
        2
176
     0
 90
        0
176
     0
 90
        0
176
     0
 40
0.6
176
     0
 40
30.0
176
     0
 62
     7
420
 16777215
176
     0
 90
        1
176
     0
 90
        4
176
     0
 62
     7
176
     0
 62
   257
176
     0
 90
        1
176
     0
 90
        1
176
     0
 40
1.0
176
     0
 90
        8
176
     2
 62
     7
176
     0
 40
1.0
176
     0
 90
        1
176
     0
 90
        6
176
     0
 90
        2
176
     0
 62
     7
176
     0
 90
        5
176
     0
 90
        0
176
     0
 90
        0
176
     0
290
     0
176
     0
 90
        1
176
     0
 40
0.0
176
     0
 90
        0
176
     0
290
     0
176
     0
290
     1
176
     0
290
     1
176
     0
290
     0
176
     0
290
     0
176
     0
290
     0
176
     0
290
     0
176
     0
290
     0
176
     0
290
     0
176
     0
 90
       50
176
     0
 40
0.0
176
     0
 40
1.0
176
     0
 90
        0
176
     0
 62
    18
420
        0
176
     0
 90
       50
176
     0
 90
        3
176
     0
 62
     5
420
      255
176
     0
290
     0
176
     0
 90
       50
176
     0
 90
       50
176
     0
 90
       50
176
     0
290
     0
176
     0
 90
       50
176
     0
 62
   256
176
     0
 40
1.0
176
     0
 90
        2
176
     0
  1
strokes_ogs.tif
176
     0
290
     0
176
     0
 40
1.0
176
     0
 40
1.0
176
     0
  0
VISUALSTYLE
  5
38
102
{ACAD_REACTORS
330
29
102
}
330
29
100
AcDbVisualStyle
  2
Facepattern
 70
    15
177
     3
291
     1
 70
    58
 90
        2
176
     1
 90
        2
176
     1
 90
        0
176
     1
 90
        0
176
     1
 40
0.6
176
     1
 40
30.0
176
     1
 62
     7
420
 16777215
176
     1
 90
        1
176
     1
 90
        4
176
     1
 62
     7
176
     1
 62
   257
176
     1
 90
        1
176
     1
 90
        1
176
     1
 40
1.0
176
     1
 90
        8
176
     1
 62
     7
176
     1
 40
1.0
176
     1
 90
        1
176
     1
 90
        6
176
     1
 90
        2
176
     1
 62
     7
176
     1
 90
        5
176
     1
 90
        0
176
     1
 90
        0
176
     1
290
     0
176
     1
 90
        1
176
     1
 40
0.0
176
     1
 90
        0
176
     1
290
     0
176
     1
290
     1
176
     1
290
     1
176
     1
290
     0
176
     1
290
     0
176
     1
290
     0
176
     1
290
     0
176
     1
290
     0
176
     1
290
     0
176
     1
 90
       50
176
     1
 40
0.0
176
     1
 40
1.0
176
     1
 90
        0
176
     1
 62
    18
420
        0
176
     1
 90
       50
176
     1
 90
        3
176
     1
 62
     5
420
      255
176
     1
290
     0
176
     1
 90
       50
176
     1
 90
       50
176
     1
 90
       50
176
     1
290
     0
176
     1
 90
       50
176
     1
 62
   256
176
     0
 40
1.0
176
     0
 90
        2
176
     1
  1
strokes_ogs.tif
176
     1
290
     0
176
     1
 40
1.0
176
     1
 40
1.0
176
     1
  0
VISUALSTYLE
  5
2A
102
{ACAD_REACTORS
330
29
102
}
330
29
100
AcDbVisualStyle
  2
Flat
 70
     0
177
     3
291
     1
 70
    58
 90
        2
176
     1
 90
        1
176
     1
 90
        1
176
     1
 90
        2
176
     1
 40
0.6
176
     1
 40
30.0
176
     1
 62
     7
420
 16777215
176
     1
 90
        0
176
     1
 90
        0
176
     1
 62
     7
176
     1
 62
   257
176
     1
 90
        1
176
     1
 90
        1
176
     1
 40
1.0
176
     1
 90
        8
176
     1
 62
     7
176
     1
 40
1.0
176
     1
 90
        1
176
     1
 90
        6
176
     1
 90
        2
176
     1
 62
     7
176
     1
 90
        5
176
     1
 90
        0
176
     1
 90
        0
176
     1
290
     0
176
     1
 90
       13
176
     1
 40
0.0
176
     1
 90
        0
176
     1
290
     0
176
     1
290
     1
176
     1
290
     1
176
     1
290
     0
176
     1
290
     0
176
     1
290
     0
176
     1
290
     0
176
     1
290
     0
176
     1
290
     0
176
     1
 90
       50
176
     1
 40
0.0
176
     1
 40
1.0
176
     1
 90
        0
176
     1
 62
    18
420
        0
176
     1
 90
       50
176
     1
 90
        3
176
     1
 62
     5
420
      255
176
     1
290
     0
176
     1
 90
       50
176
     1
 90
       50
176
     1
 90
       50
176
     1
290
     0
176
     1
 90
       50
176
     1
 62
   256
176
     0
 40
1.0
176
     0
 90
        2
176
     1
  1
strokes_ogs.tif
176
     1
290
     0
176
     1
 40
1.0
176
     1
 40
1.0
176
     1
  0
VISUALSTYLE
  5
2B
102
{ACAD_REACTORS
330
29
102
}
330
29
100
AcDbVisualStyle
  2
FlatWithEdges
 70
     1
177
     3
291
     1
 70
    58
 90
        2
176
     1
 90
        1
176
     1
 90
        1
176
     1
 90
        2
176
     1
 40
0.6
176
     1
 40
30.0
176
     1
 62
     7
420
 16777215
176
     1
 90
        1
176
     1
 90
        0
176
     1
 62
     7
176
     1
 62
   257
176
     1
 90
        1
176
     1
 90
        1
176
     1
 40
1.0
176
     1
 90
        0
176
     1
 62
   257
176
     1
 40
1.0
176
     1
 90
        1
176
     1
 90
        6
176
     1
 90
        2
176
     1
 62
     7
176
     1
 90
        5
176
     1
 90
        0
176
     1
 90
        0
176
     1
290
     0
176
     1
 90
       13
176
     1
 40
0.0
176
     1
 90
        0
176
     1
290
     0
176
     1
290
     1
176
     1
290
     1
176
     1
290
     0
176
     1
290
     0
176
     1
290
     0
176
     1
290
     0
176
     1
290
     0
176
     1
290
     0
176
     1
 90
       50
176
     1
 40
0.0
176
     1
 40
1.0
176
     1
 90
        0
176
     1
 62
    18
420
        0
176
     1
 90
       50
176
     1
 90
        3
176
     1
 62
     5
420
      255
176
     1
290
     0
176
     1
 90
       50
176
     1
 90
       50
176
     1
 90
       50
176
     1
290
     0
176
     1
 90
       50
176
     1
 62
   256
176
     0
 40
1.0
176
     0
 90
        2
176
     1
  1
strokes_ogs.tif
176
     1
290
     0
176
     1
 40
1.0
176
     1
 40
1.0
176
     1
  0
VISUALSTYLE
  5
2C
102
{ACAD_REACTORS
330
29
102
}
330
29
100
AcDbVisualStyle
  2
Gouraud
 70
     2
177
     3
291
     1
 70
    58
 90
        2
176
     1
 90
        2
176
     1
 90
        1
176
     1
 90
        2
176
     1
 40
0.6
176
     1
 40
30.0
176
     1
 62
     7
420
 16777215
176
     1
 90
        0
176
     1
 90
        0
176
     1
 62
     7
176
     1
 62
   257
176
     1
 90
        1
176
     1
 90
        1
176
     1
 40
1.0
176
     1
 90
        0
176
     1
 62
     7
176
     1
 40
1.0
176
     1
 90
        1
176
     1
 90
        6
176
     1
 90
        2
176
     1
 62
     7
176
     1
 90
        5
176
     1
 90
        0
176
     1
 90
        0
176
     1
290
     0
176
     1
 90
       13
176
     1
 40
0.0
176
     1
 90
        0
176
     1
290
     0
176
     1
290
     1
176
     1
290
     1
176
     1
290
     0
176
     1
290
     0
176
     1
290
     0
176
     1
290
     0
176
     1
290
     0
176
     1
290
     0
176
     1
 90
       50
176
     1
 40
0.0
176
     1
 40
1.0
176
     1
 90
        0
176
     1
 62
    18
420
        0
176
     1
 90
       50
176
     1
 90
        3
176
     1
 62
     5
420
      255
176
     1
290
     0
176
     1
 90
       50
176
     1
 90
       50
176
     1
 90
       50
176
     1
290
     0
176
     1
 90
       50
176
     1
 62
   256
176
     0
 40
1.0
176
     0
 90
        2
176
     1
  1
strokes_ogs.tif
176
     1
290
     0
176
     1
 40
1.0
176
     1
 40
1.0
176
     1
  0
VISUALSTYLE
  5
2D
102
{ACAD_REACTORS
330
29
102
}
330
29
100
AcDbVisualStyle
  2
GouraudWithEdges
 70
     3
177
     3
291
     1
 70
    58
 90
        2
176
     1
 90
        2
176
     1
 90
        1
176
     1
 90
        2
176
     1
 40
0.6
176
     1
 40
30.0
176
     1
 62
     7
420
 16777215
176
     1
 90
        1
176
     1
 90
        0
176
     1
 62
     7
176
     1
 62
   257
176
     1
 90
        1
176
     1
 90
        1
176
     1
 40
1.0
176
     1
 90
        0
176
     1
 62
   257
176
     1
 40
1.0
176
     1
 90
        1
176
     1
 90
        6
176
     1
 90
        2
176
     1
 62
     7
176
     1
 90
        5
176
     1
 90
        0
176
     1
 90
        0
176
     1
290
     0
176
     1
 90
       13
176
     1
 40
0.0
176
     1
 90
        0
176
     1
290
     0
176
     1
290
     1
176
     1
290
     1
176
     1
290
     0
176
     1
290
     0
176
     1
290
     0
176
     1
290
     0
176
     1
290
     0
176
     1
290
     0
176
     1
 90
       50
176
     1
 40
0.0
176
     1
 40
1.0
176
     1
 90
        0
176
     1
 62
    18
420
        0
176
     1
 90
       50
176
     1
 90
        3
176
     1
 62
     5
420
      255
176
     1
290
     0
176
     1
 90
       50
176
     1
 90
       50
176
     1
 90
       50
176
     1
290
     0
176
     1
 90
       50
176
     1
 62
   256
176
     0
 40
1.0
176
     0
 90
        2
176
     1
  1
strokes_ogs.tif
176
     1
290
     0
176
     1
 40
1.0
176
     1
 40
1.0
176
     1
  0
VISUALSTYLE
  5
31
102
{ACAD_REACTORS
330
29
102
}
330
29
100
AcDbVisualStyle
  2
Hidden
 70
     6
177
     3
291
     0
 70
    58
 90
        1
176
     1
 90
        2
176
     1
 90
        2
176
     1
 90
        0
176
     1
 40
0.6
176
     1
 40
30.0
176
     1
 62
     7
420
 16777215
176
     1
 90
        2
176
     1
 90
        2
176
     1
 62
     7
176
     1
 62
   257
176
     1
 90
        2
176
     1
 90
        1
176
     1
 40
40.0
176
     1
 90
        0
176
     1
 62
   257
176
     1
 40
1.0
176
     1
 90
        1
176
     1
 90
        6
176
     1
 90
        2
176
     1
 62
     7
176
     1
 90
        3
176
     1
 90
        0
176
     1
 90
        0
176
     1
290
     0
176
     1
 90
        1
176
     1
 40
0.0
176
     1
 90
        0
176
     1
290
     0
176
     1
290
     1
176
     1
290
     1
176
     1
290
     0
176
     1
290
     0
176
     1
290
     0
176
     1
290
     0
176
     1
290
     0
176
     1
290
     0
176
     1
 90
       50
176
     1
 40
0.0
176
     1
 40
1.0
176
     1
 90
        0
176
     1
 62
    18
420
        0
176
     1
 90
       50
176
     1
 90
        3
176
     1
 62
     5
420
      255
176
     1
290
     0
176
     1
 90
       50
176
     1
 90
       50
176
     1
 90
       50
176
     1
290
     0
176
     1
 90
       50
176
     1
 62
   256
176
     0
 40
1.0
176
     0
 90
        2
176
     1
  1
strokes_ogs.tif
176
     1
290
     0
176
     1
 40
1.0
176
     1
 40
1.0
176
     1
  0
VISUALSTYLE
  5
3F
102
{ACAD_REACTORS
330
29
102
}
330
29
100
AcDbVisualStyle
  2
JitterOff
 70
    20
177
     3
291
     1
 70
    58
 90
        2
176
     0
 90
        2
176
     0
 90
        0
176
     0
 90
        0
176
     0
 40
0.6
176
     0
 40
30.0
176
     0
 62
     7
420
 16777215
176
     0
 90
        1
176
     0
 90
        4
176
     0
 62
     7
176
     0
 62
   257
176
     0
 90
        1
176
     0
 90
        1
176
     0
 40
1.0
176
     0
 90
       10
176
     2
 62
     7
176
     0
 40
1.0
176
     0
 90
        1
176
     0
 90
        6
176
     0
 90
        2
176
     0
 62
     7
176
     0
 90
        5
176
     0
 90
        0
176
     0
 90
        0
176
     0
290
     0
176
     0
 90
        1
176
     0
 40
0.0
176
     0
 90
        0
176
     0
290
     0
176
     0
290
     1
176
     0
290
     1
176
     0
290
     0
176
     0
290
     0
176
     0
290
     0
176
     0
290
     0
176
     0
290
     0
176
     0
290
     0
176
     0
 90
       50
176
     0
 40
0.0
176
     0
 40
1.0
176
     0
 90
        0
176
     0
 62
    18
420
        0
176
     0
 90
       50
176
     0
 90
        3
176
     0
 62
     5
420
      255
176
     0
290
     0
176
     0
 90
       50
176
     0
 90
       50
176
     0
 90
       50
176
     0
290
     0
176
     0
 90
       50
176
     0
 62
   256
176
     0
 40
1.0
176
     0
 90
        2
176
     0
  1
strokes_ogs.tif
176
     0
290
     0
176
     0
 40
1.0
176
     0
 40
1.0
176
     0
  0
VISUALSTYLE
  5
37
102
{ACAD_REACTORS
330
29
102
}
330
29
100
AcDbVisualStyle
  2
Linepattern
 70
    14
177
     3
291
     1
 70
    58
 90
        2
176
     1
 90
        2
176
     1
 90
        0
176
     1
 90
        0
176
     1
 40
0.6
176
     1
 40
30.0
176
     1
 62
     7
420
 16777215
176
     1
 90
        1
176
     1
 90
        4
176
     1
 62
     7
176
     1
 62
   257
176
     1
 90
        7
176
     1
 90
        7
176
     1
 40
1.0
176
     1
 90
        8
176
     1
 62
     7
176
     1
 40
1.0
176
     1
 90
        1
176
     1
 90
        6
176
     1
 90
        2
176
     1
 62
     7
176
     1
 90
        5
176
     1
 90
        0
176
     1
 90
        0
176
     1
290
     0
176
     1
 90
        1
176
     1
 40
0.0
176
     1
 90
        0
176
     1
290
     0
176
     1
290
     1
176
     1
290
     1
176
     1
290
     0
176
     1
290
     0
176
     1
290
     0
176
     1
290
     0
176
     1
290
     0
176
     1
290
     0
176
     1
 90
       50
176
     1
 40
0.0
176
     1
 40
1.0
176
     1
 90
        0
176
     1
 62
    18
420
        0
176
     1
 90
       50
176
     1
 90
        3
176
     1
 62
     5
420
      255
176
     1
290
     0
176
     1
 90
       50
176
     1
 90
       50
176
     1
 90
       50
176
     1
290
     0
176
     1
 90
       50
176
     1
 62
   256
176
     0
 40
1.0
176
     0
 90
        2
176
     1
  1
strokes_ogs.tif
176
     1
290
     0
176
     1
 40
1.0
176
     1
 40
1.0
176
     1
  0
VISUALSTYLE
  5
40
102
{ACAD_REACTORS
330
29
102
}
330
29
100
AcDbVisualStyle
  2
OverhangOff
 70
    21
177
     3
291
     1
 70
    58
 90
        2
176
     0
 90
        2
176
     0
 90
        0
176
     0
 90
        0
176
     0
 40
0.6
176
     0
 40
30.0
176
     0
 62
     7
420
 16777215
176
     0
 90
        1
176
     0
 90
        4
176
     0
 62
     7
176
     0
 62
   257
176
     0
 90
        1
176
     0
 90
        1
176
     0
 40
1.0
176
     0
 90
        9
176
     2
 62
     7
176
     0
 40
1.0
176
     0
 90
        1
176
     0
 90
        6
176
     0
 90
        2
176
     0
 62
     7
176
     0
 90
        5
176
     0
 90
        0
176
     0
 90
        0
176
     0
290
     0
176
     0
 90
        1
176
     0
 40
0.0
176
     0
 90
        0
176
     0
290
     0
176
     0
290
     1
176
     0
290
     1
176
     0
290
     0
176
     0
290
     0
176
     0
290
     0
176
     0
290
     0
176
     0
290
     0
176
     0
290
     0
176
     0
 90
       50
176
     0
 40
0.0
176
     0
 40
1.0
176
     0
 90
        0
176
     0
 62
    18
420
        0
176
     0
 90
       50
176
     0
 90
        3
176
     0
 62
     5
420
      255
176
     0
290
     0
176
     0
 90
       50
176
     0
 90
       50
176
     0
 90
       50
176
     0
290
     0
176
     0
 90
       50
176
     0
 62
   256
176
     0
 40
1.0
176
     0
 90
        2
176
     0
  1
strokes_ogs.tif
176
     0
290
     0
176
     0
 40
1.0
176
     0
 40
1.0
176
     0
  0
VISUALSTYLE
  5
33
102
{ACAD_REACTORS
330
29
102
}
330
29
100
AcDbVisualStyle
  2
Realistic
 70
     8
177
     3
291
     0
 70
    58
 90
        2
176
     1
 90
        3
176
     1
 90
        0
176
     1
 90
        2
176
     1
 40
0.6
176
     1
 40
30.0
176
     1
 62
     7
420
 16777215
176
     1
 90
        0
176
     1
 90
        0
176
     1
 62
     7
176
     1
 62
   257
176
     1
 90
        1
176
     1
 90
        1
176
     1
 40
1.0
176
     1
 90
        8
176
     1
 62
   257
176
     1
 40
1.0
176
     1
 90
        1
176
     1
 90
        6
176
     1
 90
        2
176
     1
 62
     7
176
     1
 90
        3
176
     1
 90
        0
176
     1
 90
        0
176
     1
290
     0
176
     1
 90
       13
176
     1
 40
0.0
176
     1
 90
        0
176
     1
290
     0
176
     1
290
     1
176
     1
290
     1
176
     1
290
     0
176
     1
290
     0
176
     1
290
     0
176
     1
290
     0
176
     1
290
     0
176
     1
290
     0
176
     1
 90
       50
176
     1
 40
0.0
176
     1
 40
1.0
176
     1
 90
        0
176
     1
 62
    18
420
        0
176
     1
 90
       50
176
     1
 90
        3
176
     1
 62
     5
420
      255
176
     1
290
     0
176
     1
 90
       50
176
     1
 90
       50
176
     1
 90
       50
176
     1
290
     0
176
     1
 90
       50
176
     1
 62
   256
176
     0
 40
1.0
176
     0
 90
        2
176
     1
  1
strokes_ogs.tif
176
     1
290
     0
176
     1
 40
1.0
176
     1
 40
1.0
176
     1
  0
VISUALSTYLE
  5
3E
102
{ACAD_REACTORS
330
29
102
}
330
29
100
AcDbVisualStyle
  2
Shaded
 70
    27
177
     3
291
     0
 70
    58
 90
        2
176
     1
 90
        2
176
     1
 90
        1
176
     1
 90
        2
176
     1
 40
0.6
176
     1
 40
30.0
176
     1
 62
     7
420
 16777215
176
     1
 90
        0
176
     1
 90
        4
176
     1
 62
     7
176
     1
 62
   257
176
     1
 90
        1
176
     1
 90
        1
176
     1
 40
1.0
176
     1
 90
        8
176
     1
 62
   257
176
     1
 40
1.0
176
     1
 90
        1
176
     1
 90
        6
176
     1
 90
        2
176
     1
 62
     8
420
  7895160
176
     1
 90
        3
176
     1
 90
        0
176
     1
 90
        0
176
     1
290
     0
176
     1
 90
        5
176
     1
 40
0.0
176
     1
 90
        0
176
     1
290
     0
176
     1
290
     1
176
     1
290
     1
176
     1
290
     0
176
     1
290
     0
176
     1
290
     0
176
     1
290
     0
176
     1
290
     0
176
     1
290
     0
176
     1
 90
       50
176
     1
 40
0.0
176
     1
 40
1.0
176
     1
 90
        0
176
     1
 62
    18
420
        0
176
     1
 90
       50
176
     1
 90
        3
176
     1
 62
     5
420
      255
176
     1
290
     0
176
     1
 90
       50
176
     1
 90
       50
176
     1
 90
       50
176
     1
290
     0
176
     1
 90
       50
176
     1
 62
   256
176
     0
 40
1.0
176
     0
 90
        2
176
     1
  1
strokes_ogs.tif
176
     1
290
     0
176
     1
 40
1.0
176
     1
 40
1.0
176
     1
  0
VISUALSTYLE
  5
3D
102
{ACAD_REACTORS
330
29
102
}
330
29
100
AcDbVisualStyle
  2
Shaded with edges
 70
    26
177
     3
291
     0
 70
    58
 90
        2
176
     1
 90
        2
176
     1
 90
        1
176
     1
 90
        2
176
     1
 40
0.6
176
     1
 40
30.0
176
     1
 62
     7
420
 16777215
176
     1
 90
        1
176
     1
 90
        2
176
     1
 62
     7
176
     1
 62
   257
176
     1
 90
        2
176
     1
 90
        1
176
     1
 40
1.0
176
     1
 90
        8
176
     1
 62
   257
176
     1
 40
1.0
176
     1
 90
        1
176
     1
 90
        6
176
     1
 90
        2
176
     1
 62
     7
176
     1
 90
        3
176
     1
 90
        0
176
     1
 90
        0
176
     1
290
     0
176
     1
 90
        5
176
     1
 40
0.0
176
     1
 90
        0
176
     1
290
     0
176
     1
290
     1
176
     1
290
     1
176
     1
290
     0
176
     1
290
     0
176
     1
290
     0
176
     1
290
     0
176
     1
290
     0
176
     1
290
     0
176
     1
 90
       50
176
     1
 40
0.0
176
     1
 40
1.0
176
     1
 90
        0
176
     1
 62
    18
420
        0
176
     1
 90
       50
176
     1
 90
        3
176
     1
 62
     5
420
      255
176
     1
290
     0
176
     1
 90
       50
176
     1
 90
       50
176
     1
 90
       50
176
     1
290
     0
176
     1
 90
       50
176
     1
 62
   256
176
     0
 40
1.0
176
     0
 90
        2
176
     1
  1
strokes_ogs.tif
176
     1
290
     0
176
     1
 40
1.0
176
     1
 40
1.0
176
     1
  0
VISUALSTYLE
  5
3A
102
{ACAD_REACTORS
330
29
102
}
330
29
100
AcDbVisualStyle
  2
Shades of Gray
 70
    23
177
     3
291
     0
 70
    58
 90
        2
176
     1
 90
        2
176
     1
 90
        3
176
     1
 90
        0
176
     1
 40
0.6
176
     1
 40
30.0
176
     1
 62
     7
420
 16777215
176
     1
 90
        2
176
     1
 90
        2
176
     1
 62
     7
176
     1
 62
     7
176
     1
 90
        1
176
     1
 90
        1
176
     1
 40
40.0
176
     1
 90
        8
176
     1
 62
     7
176
     1
 40
1.0
176
     1
 90
        1
176
     1
 90
        6
176
     1
 90
        2
176
     1
 62
     7
176
     1
 90
        3
176
     1
 90
        0
176
     1
 90
        0
176
     1
290
     0
176
     1
 90
        1
176
     1
 40
0.0
176
     1
 90
        0
176
     1
290
     0
176
     1
290
     1
176
     1
290
     1
176
     1
290
     0
176
     1
290
     0
176
     1
290
     0
176
     1
290
     0
176
     1
290
     0
176
     1
290
     0
176
     1
 90
       50
176
     1
 40
0.0
176
     1
 40
1.0
176
     1
 90
        0
176
     1
 62
    18
420
        0
176
     1
 90
       50
176
     1
 90
        3
176
     1
 62
     5
420
      255
176
     1
290
     0
176
     1
 90
       50
176
     1
 90
       50
176
     1
 90
       50
176
     1
290
     0
176
     1
 90
       50
176
     1
 62
   256
176
     0
 40
1.0
176
     0
 90
        2
176
     1
  1
strokes_ogs.tif
176
     1
290
     0
176
     1
 40
1.0
176
     1
 40
1.0
176
     1
  0
VISUALSTYLE
  5
3B
102
{ACAD_REACTORS
330
29
102
}
330
29
100
AcDbVisualStyle
  2
Sketchy
 70
    24
177
     3
291
     0
 70
    58
 90
        1
176
     1
 90
        2
176
     1
 90
        2
176
     1
 90
        0
176
     1
 40
0.6
176
     1
 40
30.0
176
     1
 62
     7
420
 16777215
176
     1
 90
        2
176
     1
 90
        2
176
     1
 62
     7
176
     1
 62
     7
176
     1
 90
        1
176
     1
 90
        1
176
     1
 40
40.0
176
     1
 90
       11
176
     1
 62
     7
176
     1
 40
1.0
176
     1
 90
        1
176
     1
 90
        6
176
     1
 90
        2
176
     1
 62
     7
176
     1
 90
        6
176
     1
 90
        0
176
     1
 90
        0
176
     1
290
     0
176
     1
 90
        1
176
     1
 40
0.0
176
     1
 90
        0
176
     1
290
     0
176
     1
290
     1
176
     1
290
     1
176
     1
290
     0
176
     1
290
     0
176
     1
290
     0
176
     1
290
     0
176
     1
290
     0
176
     1
290
     0
176
     1
 90
       50
176
     1
 40
0.0
176
     1
 40
1.0
176
     1
 90
        0
176
     1
 62
    18
420
        0
176
     1
 90
       50
176
     1
 90
        3
176
     1
 62
     5
420
      255
176
     1
290
     0
176
     1
 90
       50
176
     1
 90
       50
176
     1
 90
       50
176
     1
290
     0
176
     1
 90
       50
176
     1
 62
   256
176
     0
 40
1.0
176
     0
 90
        2
176
     1
  1
strokes_ogs.tif
176
     1
290
     0
176
     1
 40
1.0
176
     1
 40
1.0
176
     1
  0
VISUALSTYLE
  5
36
102
{ACAD_REACTORS
330
29
102
}
330
29
100
AcDbVisualStyle
  2
Thicken
 70
    13
177
     3
291
     1
 70
    58
 90
        2
176
     1
 90
        2
176
     1
 90
        0
176
     1
 90
        0
176
     1
 40
0.6
176
     1
 40
30.0
176
     1
 62
     7
420
 16777215
176
     1
 90
        1
176
     1
 90
        4
176
     1
 62
     7
176
     1
 62
   257
176
     1
 90
        1
176
     1
 90
        1
176
     1
 40
1.0
176
     1
 90
       12
176
     1
 62
     7
176
     1
 40
1.0
176
     1
 90
        1
176
     1
 90
        6
176
     1
 90
        2
176
     1
 62
     7
176
     1
 90
        5
176
     1
 90
        0
176
     1
 90
        0
176
     1
290
     0
176
     1
 90
        1
176
     1
 40
0.0
176
     1
 90
        0
176
     1
290
     0
176
     1
290
     1
176
     1
290
     1
176
     1
290
     0
176
     1
290
     0
176
     1
290
     0
176
     1
290
     0
176
     1
290
     0
176
     1
290
     0
176
     1
 90
       50
176
     1
 40
0.0
176
     1
 40
1.0
176
     1
 90
        0
176
     1
 62
    18
420
        0
176
     1
 90
       50
176
     1
 90
        3
176
     1
 62
     5
420
      255
176
     1
290
     0
176
     1
 90
       50
176
     1
 90
       50
176
     1
 90
       50
176
     1
290
     0
176
     1
 90
       50
176
     1
 62
   256
176
     0
 40
1.0
176
     0
 90
        2
176
     1
  1
strokes_ogs.tif
176
     1
290
     0
176
     1
 40
1.0
176
     1
 40
1.0
176
     1
  0
VISUALSTYLE
  5
30
102
{ACAD_REACTORS
330
29
102
}
330
29
100
AcDbVisualStyle
  2
Wireframe
 70
     5
177
     3
291
     0
 70
    58
 90
        0
176
     1
 90
        2
176
     1
 90
        0
176
     1
 90
        0
176
     1
 40
0.6
176
     1
 40
30.0
176
     1
 62
     7
420
 16777215
176
     1
 90
        1
176
     1
 90
        4
176
     1
 62
     7
176
     1
 62
   257
176
     1
 90
        1
176
     1
 90
        1
176
     1
 40
1.0
176
     1
 90
        0
176
     1
 62
   257
176
     1
 40
1.0
176
     1
 90
        1
176
     1
 90
        6
176
     1
 90
        2
176
     1
 62
     7
176
     1
 90
        3
176
     1
 90
        0
176
     1
 90
        0
176
     1
290
     0
176
     1
 90
        1
176
     1
 40
0.0
176
     1
 90
        0
176
     1
290
     0
176
     1
290
     1
176
     1
290
     1
176
     1
290
     0
176
     1
290
     0
176
     1
290
     0
176
     1
290
     0
176
     1
290
     0
176
     1
290
     0
176
     1
 90
       50
176
     1
 40
0.0
176
     1
 40
1.0
176
     1
 90
        0
176
     1
 62
    18
420
        0
176
     1
 90
       50
176
     1
 90
        3
176
     1
 62
     5
420
      255
176
     1
290
     0
176
     1
 90
       50
176
     1
 90
       50
176
     1
 90
       50
176
     1
290
     0
176
     1
 90
       50
176
     1
 62
   256
176
     0
 40
1.0
176
     0
 90
        2
176
     1
  1
strokes_ogs.tif
176
     1
290
     0
176
     1
 40
1.0
176
     1
 40
1.0
176
     1
  0
VISUALSTYLE
  5
3C
102
{ACAD_REACTORS
330
29
102
}
330
29
100
AcDbVisualStyle
  2
X-Ray
 70
    25
177
     3
291
     0
 70
    58
 90
        2
176
     1
 90
        2
176
     1
 90
        1
176
     1
 90
        1
176
     1
 40
0.5
176
     1
 40
30.0
176
     1
 62
     7
420
 16777215
176
     1
 90
        1
176
     1
 90
        0
176
     1
 62
     7
176
     1
 62
   257
176
     1
 90
        1
176
     1
 90
        1
176
     1
 40
1.0
176
     1
 90
        8
176
     1
 62
     7
176
     1
 40
1.0
176
     1
 90
        1
176
     1
 90
        6
176
     1
 90
        2
176
     1
 62
     7
176
     1
 90
        3
176
     1
 90
        0
176
     1
 90
        0
176
     1
290
     0
176
     1
 90
       13
176
     1
 40
0.0
176
     1
 90
        0
176
     1
290
     0
176
     1
290
     1
176
     1
290
     1
176
     1
290
     0
176
     1
290
     0
176
     1
290
     0
176
     1
290
     0
176
     1
290
     0
176
     1
290
     0
176
     1
 90
       50
176
     1
 40
0.0
176
     1
 40
1.0
176
     1
 90
        0
176
     1
 62
    18
420
        0
176
     1
 90
       50
176
     1
 90
        3
176
     1
 62
     5
420
      255
176
     1
290
     0
176
     1
 90
       50
176
     1
 90
       50
176
     1
 90
       50
176
     1
290
     0
176
     1
 90
       50
176
     1
 62
   256
176
     0
 40
1.0
176
     0
 90
        2
176
     1
  1
strokes_ogs.tif
176
     1
290
     0
176
     1
 40
1.0
176
     1
 40
1.0
176
     1
  0
DICTIONARYVAR
  5
96
102
{ACAD_REACTORS
330
91
102
}
330
91
100
DictionaryVariables
280
     0
  1
1:1
  0
DICTIONARYVAR
  5
93
102
{ACAD_REACTORS
330
91
102
}
330
91
100
DictionaryVariables
280
     0
  1
STANDARD
  0
DICTIONARYVAR
  5
92
102
{ACAD_REACTORS
330
91
102
}
330
91
100
DictionaryVariables
280
     0
  1
STANDARD
  0
DICTIONARYVAR
  5
94
102
{ACAD_REACTORS
330
91
102
}
330
91
100
DictionaryVariables
280
     0
  1
Imperial24
  0
DICTIONARYVAR
  5
95
102
{ACAD_REACTORS
330
91
102
}
330
91
100
DictionaryVariables
280
     0
  1
Imperial24
  0
DICTIONARY
  5
1A
330
19
100
AcDbDictionary
280
     1
281
     1
  3
BUMPTILE
360
1C
  3
DIFFUSETILE
360
1B
  3
OPACITYTILE
360
1F
  3
REFLECTIONTILE
360
1E
  3
REFRACTIONTILE
360
20
  3
SPECULARTILE
360
1D
  0
DICTIONARY
  5
12
330
11
100
AcDbDictionary
280
     1
281
     1
  3
BUMPTILE
360
14
  3
DIFFUSETILE
360
13
  3
OPACITYTILE
360
17
  3
REFLECTIONTILE
360
16
  3
REFRACTIONTILE
360
18
  3
SPECULARTILE
360
15
  0
DICTIONARY
  5
22
330
21
100
AcDbDictionary
280
     1
281
     1
  3
BUMPTILE
360
24
  3
DIFFUSETILE
360
23
  3
OPACITYTILE
360
27
  3
REFLECTIONTILE
360
26
  3
REFRACTIONTILE
360
28
  3
SPECULARTILE
360
25
  0
DICTIONARY
  5
97
330
65
100
AcDbDictionary
280
     1
281
     1
  3
ACAD_ROUNDTRIP_2008_TABLESTYLE_CELLSTYLEMAP
360
98
  0
XRECORD
  5
1C
102
{ACAD_REACTORS
330
1A
102
}
330
1A
100
AcDbXrecord
280
     1
270
     1
271
     1
  0
XRECORD
  5
1B
102
{ACAD_REACTORS
330
1A
102
}
330
1A
100
AcDbXrecord
280
     1
270
     1
271
     1
  0
XRECORD
  5
1F
102
{ACAD_REACTORS
330
1A
102
}
330
1A
100
AcDbXrecord
280
     1
270
     1
271
     1
  0
XRECORD
  5
1E
102
{ACAD_REACTORS
330
1A
102
}
330
1A
100
AcDbXrecord
280
     1
270
     1
271
     1
  0
XRECORD
  5
20
102
{ACAD_REACTORS
330
1A
102
}
330
1A
100
AcDbXrecord
280
     1
270
     1
271
     1
  0
XRECORD
  5
1D
102
{ACAD_REACTORS
330
1A
102
}
330
1A
100
AcDbXrecord
280
     1
270
     1
271
     1
  0
XRECORD
  5
14
102
{ACAD_REACTORS
330
12
102
}
330
12
100
AcDbXrecord
280
     1
270
     1
271
     1
  0
XRECORD
  5
13
102
{ACAD_REACTORS
330
12
102
}
330
12
100
AcDbXrecord
280
     1
270
     1
271
     1
  0
XRECORD
  5
17
102
{ACAD_REACTORS
330
12
102
}
330
12
100
AcDbXrecord
280
     1
270
     1
271
     1
  0
XRECORD
  5
16
102
{ACAD_REACTORS
330
12
102
}
330
12
100
AcDbXrecord
280
     1
270
     1
271
     1
  0
XRECORD
  5
18
102
{ACAD_REACTORS
330
12
102
}
330
12
100
AcDbXrecord
280
     1
270
     1
271
     1
  0
XRECORD
  5
15
102
{ACAD_REACTORS
330
12
102
}
330
12
100
AcDbXrecord
280
     1
270
     1
271
     1
  0
XRECORD
  5
24
102
{ACAD_REACTORS
330
22
102
}
330
22
100
AcDbXrecord
280
     1
270
     1
271
     1
  0
XRECORD
  5
23
102
{ACAD_REACTORS
330
22
102
}
330
22
100
AcDbXrecord
280
     1
270
     1
271
     1
  0
XRECORD
  5
27
102
{ACAD_REACTORS
330
22
102
}
330
22
100
AcDbXrecord
280
     1
270
     1
271
     1
  0
XRECORD
  5
26
102
{ACAD_REACTORS
330
22
102
}
330
22
100
AcDbXrecord
280
     1
270
     1
271
     1
  0
XRECORD
  5
28
102
{ACAD_REACTORS
330
22
102
}
330
22
100
AcDbXrecord
280
     1
270
     1
271
     1
  0
XRECORD
  5
25
102
{ACAD_REACTORS
330
22
102
}
330
22
100
AcDbXrecord
280
     1
270
     1
271
     1
  0
CELLSTYLEMAP
  5
98
102
{ACAD_REACTORS
330
97
102
}
330
97
100
AcDbCellStyleMap
 90
        3
300
CELLSTYLE
  1
TABLEFORMAT_BEGIN
 90
        5
170
     1
 91
        0
 92
    32768
 62
   257
 93
        1
300
CONTENTFORMAT
  1
CONTENTFORMAT_BEGIN
 90
        0
 91
        0
 92
      512
 93
        0
300

 40
0.0
140
1.0
 94
        5
 62
     0
340
55
144
0.25
309
CONTENTFORMAT_END
171
     0
 94
        0
309
TABLEFORMAT_END
  1
CELLSTYLE_BEGIN
 90
        1
 91
        1
300
_TITLE
309
CELLSTYLE_END
300
CELLSTYLE
  1
TABLEFORMAT_BEGIN
 90
        5
170
     1
 91
        0
 92
        0
 62
   257
 93
        1
300
CONTENTFORMAT
  1
CONTENTFORMAT_BEGIN
 90
        0
 91
        0
 92
      512
 93
        0
300

 40
0.0
140
1.0
 94
        5
 62
     0
340
55
144
0.18
309
CONTENTFORMAT_END
171
     0
 94
        0
309
TABLEFORMAT_END
  1
CELLSTYLE_BEGIN
 90
        2
 91
        1
300
_HEADER
309
CELLSTYLE_END
300
CELLSTYLE
  1
TABLEFORMAT_BEGIN
 90
        5
170
     1
 91
        0
 92
        0
 62
   257
 93
        1
300
CONTENTFORMAT
  1
CONTENTFORMAT_BEGIN
 90
        0
 91
        0
 92
      512
 93
        0
300

 40
0.0
140
1.0
 94
        2
 62
     0
340
55
144
0.18
309
CONTENTFORMAT_END
171
     0
 94
        0
309
TABLEFORMAT_END
  1
CELLSTYLE_BEGIN
 90
        3
 91
        2
300
_DATA
309
CELLSTYLE_END
  0
ENDSEC
  0
EOF
