  0
SECTION
  2
HEADER
  9
$ACADVER
  1
AC1032
  9
$ACADMAINTVER
 90
      228
  9
$DWGCODEPAGE
  3
ANSI_1252
  9
$REQUIREDVERSIONS
160
                 0
  9
$INSBASE
 10
0.0
 20
0.0
 30
0.0
  9
$EXTMIN
 10
1.000000000000000E+20
 20
1.000000000000000E+20
 30
1.000000000000000E+20
  9
$EXTMAX
 10
-1.000000000000000E+20
 20
-1.000000000000000E+20
 30
-1.000000000000000E+20
  9
$LIMMIN
 10
0.0
 20
0.0
  9
$LIMMAX
 10
12.0
 20
9.0
  9
$ORTHOMODE
 70
     0
  9
$REGENMODE
 70
     1
  9
$FILLMODE
 70
     1
  9
$QTEXTMODE
 70
     0
  9
$MIRRTEXT
 70
     0
  9
$LTSCALE
 40
1.0
  9
$ATTMODE
 70
     1
  9
$TEXTSIZE
 40
0.2
  9
$TRACEWID
 40
0.05
  9
$TEXTSTYLE
  7
Standard
  9
$CLAYER
  8
0
  9
$CELTYPE
  6
ByLayer
  9
$CECOLOR
 62
   256
  9
$CELTSCALE
 40
1.0
  9
$DISPSILH
 70
     0
  9
$DIMSCALE
 40
1.0
  9
$DIMASZ
 40
0.18
  9
$DIMEXO
 40
0.0625
  9
$DIMDLI
 40
0.38
  9
$DIMRND
 40
0.0
  9
$DIMDLE
 40
0.0
  9
$DIMEXE
 40
0.18
  9
$DIMTP
 40
0.0
  9
$DIMTM
 40
0.0
  9
$DIMTXT
 40
0.18
  9
$DIMCEN
 40
0.09
  9
$DIMTSZ
 40
0.0
  9
$DIMTOL
 70
     0
  9
$DIMLIM
 70
     0
  9
$DIMTIH
 70
     1
  9
$DIMTOH
 70
     1
  9
$DIMSE1
 70
     0
  9
$DIMSE2
 70
     0
  9
$DIMTAD
 70
     0
  9
$DIMZIN
 70
     0
  9
$DIMBLK
  1

  9
$DIMASO
 70
     1
  9
$DIMSHO
 70
     1
  9
$DIMPOST
  1

  9
$DIMAPOST
  1

  9
$DIMALT
 70
     0
  9
$DIMALTD
 70
     2
  9
$DIMALTF
 40
25.4
  9
$DIMLFAC
 40
1.0
  9
$DIMTOFL
 70
     0
  9
$DIMTVP
 40
0.0
  9
$DIMTIX
 70
     0
  9
$DIMSOXD
 70
     0
  9
$DIMSAH
 70
     0
  9
$DIMBLK1
  1

  9
$DIMBLK2
  1

  9
$DIMSTYLE
  2
Standard
  9
$DIMCLRD
 70
     0
  9
$DIMCLRE
 70
     0
  9
$DIMCLRT
 70
     0
  9
$DIMTFAC
 40
1.0
  9
$DIMGAP
 40
0.09
  9
$DIMJUST
 70
     0
  9
$DIMSD1
 70
     0
  9
$DIMSD2
 70
     0
  9
$DIMTOLJ
 70
     1
  9
$DIMTZIN
 70
     0
  9
$DIMALTZ
 70
     0
  9
$DIMALTTZ
 70
     0
  9
$DIMUPT
 70
     0
  9
$DIMDEC
 70
     4
  9
$DIMTDEC
 70
     4
  9
$DIMALTU
 70
     2
  9
$DIMALTTD
 70
     2
  9
$DIMTXSTY
  7
Standard
  9
$DIMAUNIT
 70
     0
  9
$DIMADEC
 70
     0
  9
$DIMALTRND
 40
0.0
  9
$DIMAZIN
 70
     0
  9
$DIMDSEP
 70
    46
  9
$DIMATFIT
 70
     3
  9
$DIMFRAC
 70
     0
  9
$DIMLDRBLK
  1

  9
$DIMLUNIT
 70
     2
  9
$DIMLWD
 70
    -2
  9
$DIMLWE
 70
    -2
  9
$DIMTMOVE
 70
     0
  9
$DIMFXL
 40
1.0
  9
$DIMFXLON
 70
     0
  9
$DIMJOGANG
 40
0.7853981633974483
  9
$DIMTFILL
 70
     0
  9
$DIMTFILLCLR
 70
     0
  9
$DIMARCSYM
 70
     0
  9
$DIMLTYPE
  6

  9
$DIMLTEX1
  6

  9
$DIMLTEX2
  6

  9
$DIMTXTDIRECTION
 70
     0
  9
$LUNITS
 70
     2
  9
$LUPREC
 70
     4
  9
$SKETCHINC
 40
0.1
  9
$FILLETRAD
 40
0.0
  9
$AUNITS
 70
     0
  9
$AUPREC
 70
     0
  9
$MENU
  1
.
  9
$ELEVATION
 40
0.0
  9
$PELEVATION
 40
0.0
  9
$THICKNESS
 40
0.0
  9
$LIMCHECK
 70
     0
  9
$CHAMFERA
 40
0.0
  9
$CHAMFERB
 40
0.0
  9
$CHAMFERC
 40
0.0
  9
$CHAMFERD
 40
0.0
  9
$SKPOLY
 70
     0
  9
$TDCREATE
 40
2460332.587337963
  9
$TDUCREATE
 40
2460332.920671297
  9
$TDUPDATE
 40
2460332.587337963
  9
$TDUUPDATE
 40
2460332.920671297
  9
$TDINDWG
 40
0.0000000000
  9
$TDUSRTIMER
 40
0.0000000000
  9
$USRTIMER
 70
     1
  9
$ANGBASE
 50
0.0
  9
$ANGDIR
 70
     0
  9
$PDMODE
 70
     0
  9
$PDSIZE
 40
0.0
  9
$PLINEWID
 40
0.0
  9
$SPLFRAME
 70
     0
  9
$SPLINETYPE
 70
     6
  9
$SPLINESEGS
 70
     8
  9
$HANDSEED
  5
AB
  9
$SURFTAB1
 70
     6
  9
$SURFTAB2
 70
     6
  9
$SURFTYPE
 70
     6
  9
$SURFU
 70
     6
  9
$SURFV
 70
     6
  9
$UCSBASE
  2

  9
$UCSNAME
  2

  9
$UCSORG
 10
0.0
 20
0.0
 30
0.0
  9
$UCSXDIR
 10
1.0
 20
0.0
 30
0.0
  9
$UCSYDIR
 10
0.0
 20
1.0
 30
0.0
  9
$UCSORTHOREF
  2

  9
$UCSORTHOVIEW
 70
     0
  9
$UCSORGTOP
 10
0.0
 20
0.0
 30
0.0
  9
$UCSORGBOTTOM
 10
0.0
 20
0.0
 30
0.0
  9
$UCSORGLEFT
 10
0.0
 20
0.0
 30
0.0
  9
$UCSORGRIGHT
 10
0.0
 20
0.0
 30
0.0
  9
$UCSORGFRONT
 10
0.0
 20
0.0
 30
0.0
  9
$UCSORGBACK
 10
0.0
 20
0.0
 30
0.0
  9
$PUCSBASE
  2

  9
$PUCSNAME
  2

  9
$PUCSORG
 10
0.0
 20
0.0
 30
0.0
  9
$PUCSXDIR
 10
1.0
 20
0.0
 30
0.0
  9
$PUCSYDIR
 10
0.0
 20
1.0
 30
0.0
  9
$PUCSORTHOREF
  2

  9
$PUCSORTHOVIEW
 70
     0
  9
$PUCSORGTOP
 10
0.0
 20
0.0
 30
0.0
  9
$PUCSORGBOTTOM
 10
0.0
 20
0.0
 30
0.0
  9
$PUCSORGLEFT
 10
0.0
 20
0.0
 30
0.0
  9
$PUCSORGRIGHT
 10
0.0
 20
0.0
 30
0.0
  9
$PUCSORGFRONT
 10
0.0
 20
0.0
 30
0.0
  9
$PUCSORGBACK
 10
0.0
 20
0.0
 30
0.0
  9
$USERI1
 70
     0
  9
$USERI2
 70
     0
  9
$USERI3
 70
     0
  9
$USERI4
 70
     0
  9
$USERI5
 70
     0
  9
$USERR1
 40
0.0
  9
$USERR2
 40
0.0
  9
$USERR3
 40
0.0
  9
$USERR4
 40
0.0
  9
$USERR5
 40
0.0
  9
$WORLDVIEW
 70
     1
  9
$SHADEDGE
 70
     3
  9
$SHADEDIF
 70
    70
  9
$TILEMODE
 70
     1
  9
$MAXACTVP
 70
    64
  9
$PINSBASE
 10
0.0
 20
0.0
 30
0.0
  9
$PLIMCHECK
 70
     0
  9
$PEXTMIN
 10
1.000000000000000E+20
 20
1.000000000000000E+20
 30
1.000000000000000E+20
  9
$PEXTMAX
 10
-1.000000000000000E+20
 20
-1.000000000000000E+20
 30
-1.000000000000000E+20
  9
$PLIMMIN
 10
0.0
 20
0.0
  9
$PLIMMAX
 10
12.0
 20
9.0
  9
$UNITMODE
 70
     0
  9
$VISRETAIN
 70
     1
  9
$PLINEGEN
 70
     0
  9
$PSLTSCALE
 70
     1
  9
$TREEDEPTH
 70
  3020
  9
$CMLSTYLE
  2
Standard
  9
$CMLJUST
 70
     0
  9
$CMLSCALE
 40
1.0
  9
$PROXYGRAPHICS
 70
     1
  9
$MEASUREMENT
 70
     0
  9
$CELWEIGHT
370
    -1
  9
$ENDCAPS
280
     0
  9
$JOINSTYLE
280
     0
  9
$LWDISPLAY
290
     1
  9
$INSUNITS
 70
     1
  9
$HYPERLINKBASE
  1

  9
$STYLESHEET
  1

  9
$XEDIT
290
     1
  9
$CEPSNTYPE
380
     0
  9
$PSTYLEMODE
290
     1
  9
$FINGERPRINTGUID
  2
{45423FFA-33B7-AA4B-8F99-078DAB07AEF2}
  9
$VERSIONGUID
  2
{4FD06F3D-69A7-5343-B9BE-E20D2756B1E4}
  9
$EXTNAMES
290
     1
  9
$PSVPSCALE
 40
0.0
  9
$OLESTARTUP
290
     0
  9
$SORTENTS
280
   127
  9
$INDEXCTL
280
     0
  9
$HIDETEXT
280
     1
  9
$XCLIPFRAME
280
     2
  9
$HALOGAP
280
     0
  9
$OBSCOLOR
 70
   257
  9
$OBSLTYPE
280
     0
  9
$INTERSECTIONDISPLAY
280
     0
  9
$INTERSECTIONCOLOR
 70
   257
  9
$DIMASSOC
280
     2
  9
$PROJECTNAME
  1

  9
$CAMERADISPLAY
290
     0
  9
$LENSLENGTH
 40
50.0
  9
$CAMERAHEIGHT
 40
0.0
  9
$STEPSPERSEC
 40
2.0
  9
$STEPSIZE
 40
6.0
  9
$3DDWFPREC
 40
2.0
  9
$PSOLWIDTH
 40
0.25
  9
$PSOLHEIGHT
 40
4.0
  9
$LOFTANG1
 40
1.570796326794896
  9
$LOFTANG2
 40
1.570796326794896
  9
$LOFTMAG1
 40
0.0
  9
$LOFTMAG2
 40
0.0
  9
$LOFTPARAM
 70
     7
  9
$LOFTNORMALS
280
     1
  9
$LATITUDE
 40
37.795
  9
$LONGITUDE
 40
-122.394
  9
$NORTHDIRECTION
 40
0.0
  9
$TIMEZONE
 70
 -8000
  9
$LIGHTGLYPHDISPLAY
280
     1
  9
$TILEMODELIGHTSYNCH
280
     1
  9
$CMATERIAL
347
11
  9
$SOLIDHIST
280
     0
  9
$SHOWHIST
280
     1
  9
$DWFFRAME
280
     2
  9
$DGNFRAME
280
     0
  9
$REALWORLDSCALE
290
     1
  9
$INTERFERECOLOR
 62
     1
  9
$INTERFEREOBJVS
345
33
  9
$INTERFEREVPVS
346
30
  9
$CSHADOW
280
     0
  9
$SHADOWPLANELOCATION
 40
0.0
  0
ENDSEC
  0
SECTION
  2
CLASSES
  0
CLASS
  1
ACDBDICTIONARYWDFLT
  2
AcDbDictionaryWithDefault
  3
ObjectDBX Classes
 90
        0
 91
        1
280
     0
281
     0
  0
CLASS
  1
MATERIAL
  2
AcDbMaterial
  3
ObjectDBX Classes
 90
     1153
 91
        3
280
     0
281
     0
  0
CLASS
  1
VISUALSTYLE
  2
AcDbVisualStyle
  3
ObjectDBX Classes
 90
     4095
 91
       24
280
     0
281
     0
  0
CLASS
  1
SCALE
  2
AcDbScale
  3
ObjectDBX Classes
 90
     1153
 91
       17
280
     0
281
     0
  0
CLASS
  1
TABLESTYLE
  2
AcDbTableStyle
  3
ObjectDBX Classes
 90
     4095
 91
        1
280
     0
281
     0
  0
CLASS
  1
MLEADERSTYLE
  2
AcDbMLeaderStyle
  3
ACDB_MLEADERSTYLE_CLASS
 90
     4095
 91
        1
280
     0
281
     0
  0
CLASS
  1
ACDBSECTIONVIEWSTYLE
  2
AcDbSectionViewStyle
  3
ObjectDBX Classes
 90
     1025
 91
        1
280
     0
281
     0
  0
CLASS
  1
ACDBDETAILVIEWSTYLE
  2
AcDbDetailViewStyle
  3
ObjectDBX Classes
 90
     1025
 91
        1
280
     0
281
     0
  0
CLASS
  1
DICTIONARYVAR
  2
AcDbDictionaryVar
  3
ObjectDBX Classes
 90
        0
 91
        5
280
     0
281
     0
  0
CLASS
  1
CELLSTYLEMAP
  2
AcDbCellStyleMap
  3
ObjectDBX Classes
 90
     1152
 91
        1
280
     0
281
     0
  0
ENDSEC
  0
SECTION
  2
TABLES
  0
TABLE
  2
VPORT
  5
8
330
0
100
AcDbSymbolTable
 70
     1
  0
VPORT
  5
57
330
8
100
AcDbSymbolTableRecord
100
AcDbViewportTableRecord
  2
*Active
 70
     0
 10
0.0
 20
0.0
 11
1.0
 21
1.0
 12
0.0
 22
0.0
 13
0.0
 23
0.0
 14
1.0
 24
1.0
 15
0.0
 25
0.0
 16
0.0
 26
0.0
 36
1.0
 17
1.760047281323889
 27
-8.781748809255102
 37
0.0
 40
20.29674592374499
 41
0.7344502616633943
 42
50.0
 43
0.0
 44
0.0
 50
0.0
 51
0.0
 71
     0
 72
   100
 73
     1
 74
     1
 75
     0
 76
     0
 77
     0
 78
     0
281
     0
 65
     1
110
0.0
120
0.0
130
0.0
111
1.0
121
0.0
131
0.0
112
0.0
122
1.0
132
0.0
 79
     0
146
0.0
 60
     3
 61
     5
292
     1
282
     1
141
0.0
142
0.0
 63
   250
421
  3355443
  0
ENDTAB
  0
TABLE
  2
LTYPE
  5
5
330
0
100
AcDbSymbolTable
 70
     1
  0
LTYPE
  5
5B
330
5
100
AcDbSymbolTableRecord
100
AcDbLinetypeTableRecord
  2
ByBlock
 70
     0
  3

 72
    65
 73
     0
 40
0.0
  0
LTYPE
  5
5C
330
5
100
AcDbSymbolTableRecord
100
AcDbLinetypeTableRecord
  2
ByLayer
 70
     0
  3

 72
    65
 73
     0
 40
0.0
  0
LTYPE
  5
5D
330
5
100
AcDbSymbolTableRecord
100
AcDbLinetypeTableRecord
  2
Continuous
 70
     0
  3
Solid line
 72
    65
 73
     0
 40
0.0
  0
ENDTAB
  0
TABLE
  2
LAYER
  5
2
330
0
100
AcDbSymbolTable
 70
     4
  0
LAYER
  5
54
330
2
100
AcDbSymbolTableRecord
100
AcDbLayerTableRecord
  2
0
 70
     0
 62
     7
  6
Continuous
370
    -3
390
F
347
21
348
0
  0
LAYER
  5
78
330
2
100
AcDbSymbolTableRecord
100
AcDbLayerTableRecord
  2
Layer 2
 70
     0
 62
     7
  6
Continuous
370
     0
390
F
347
21
348
0
  0
LAYER
  5
7A
330
2
100
AcDbSymbolTableRecord
100
AcDbLayerTableRecord
  2
Whitebeard
 70
     1
 62
     7
  6
Continuous
370
     0
390
F
347
21
348
0
  0
LAYER
  5
7B
330
2
100
AcDbSymbolTableRecord
100
AcDbLayerTableRecord
  2
Layer 3
 70
     0
 62
     7
  6
Continuous
370
     0
390
F
347
21
348
0
  0
ENDTAB
  0
TABLE
  2
STYLE
  5
3
330
0
100
AcDbSymbolTable
 70
     2
  0
STYLE
  5
55
330
3
100
AcDbSymbolTableRecord
100
AcDbTextStyleTableRecord
  2
Standard
 70
     0
 40
0.0
 41
1.0
 50
0.0
 71
     0
 42
0.2
  3
txt
  4

  0
STYLE
  5
5A
330
3
100
AcDbSymbolTableRecord
100
AcDbTextStyleTableRecord
  2
Annotative
 70
     0
 40
0.0
 41
1.0
 50
0.0
 71
     0
 42
0.2
  3
txt
  4

1001
AcadAnnotative
1000
AnnotativeData
1002
{
1070
     1
1070
     1
1002
}
  0
ENDTAB
  0
TABLE
  2
VIEW
  5
6
330
0
100
AcDbSymbolTable
 70
     0
  0
ENDTAB
  0
TABLE
  2
UCS
  5
7
330
0
100
AcDbSymbolTable
 70
     0
  0
ENDTAB
  0
TABLE
  2
APPID
  5
9
330
0
100
AcDbSymbolTable
 70
     2
  0
APPID
  5
56
330
9
100
AcDbSymbolTableRecord
100
AcDbRegAppTableRecord
  2
ACAD
 70
     0
  0
APPID
  5
5E
330
9
100
AcDbSymbolTableRecord
100
AcDbRegAppTableRecord
  2
AcadAnnotative
 70
     0
  0
ENDTAB
  0
TABLE
  2
DIMSTYLE
  5
A
330
0
100
AcDbSymbolTable
 70
     2
100
AcDbDimStyleTable
 71
     0
  0
DIMSTYLE
105
58
330
A
100
AcDbSymbolTableRecord
100
AcDbDimStyleTableRecord
  2
Standard
 70
     0
340
55
  0
DIMSTYLE
105
59
330
A
100
AcDbSymbolTableRecord
100
AcDbDimStyleTableRecord
  2
Annotative
 70
     0
340
55
1001
AcadAnnotative
1000
AnnotativeData
1002
{
1070
     1
1070
     1
1002
}
  0
ENDTAB
  0
TABLE
  2
BLOCK_RECORD
  5
1
330
0
100
AcDbSymbolTable
 70
     2
  0
BLOCK_RECORD
  5
70
330
1
100
AcDbSymbolTableRecord
100
AcDbBlockTableRecord
  2
*Model_Space
340
73
 70
     0
280
     1
281
     0
  0
BLOCK_RECORD
  5
6C
330
1
100
AcDbSymbolTableRecord
100
AcDbBlockTableRecord
  2
*Paper_Space
340
6F
 70
     0
280
     1
281
     0
  0
BLOCK_RECORD
  5
74
330
1
100
AcDbSymbolTableRecord
100
AcDbBlockTableRecord
  2
*Paper_Space0
340
77
 70
     0
280
     1
281
     0
  0
BLOCK_RECORD
  5
7C
330
1
100
AcDbSymbolTableRecord
100
AcDbBlockTableRecord
  2
Block_0
340
0
102
{BLKREFS
331
7D
102
}
 70
     0
280
     1
281
     0
  0
ENDTAB
  0
ENDSEC
  0
SECTION
  2
BLOCKS
  0
BLOCK
  5
71
330
70
100
AcDbEntity
  8
0
100
AcDbBlockBegin
  2
*Model_Space
 70
     0
 10
0.0
 20
0.0
 30
0.0
  3
*Model_Space
  1

  0
ENDBLK
  5
72
330
70
100
AcDbEntity
  8
0
100
AcDbBlockEnd
  0
BLOCK
  5
6D
330
6C
100
AcDbEntity
 67
     1
  8
0
100
AcDbBlockBegin
  2
*Paper_Space
 70
     0
 10
0.0
 20
0.0
 30
0.0
  3
*Paper_Space
  1

  0
ENDBLK
  5
6E
330
6C
100
AcDbEntity
 67
     1
  8
0
100
AcDbBlockEnd
  0
BLOCK
  5
75
330
74
100
AcDbEntity
 67
     1
  8
0
100
AcDbBlockBegin
  2
*Paper_Space0
 70
     0
 10
0.0
 20
0.0
 30
0.0
  3
*Paper_Space0
  1

  0
ENDBLK
  5
76
330
74
100
AcDbEntity
 67
     1
  8
0
100
AcDbBlockEnd
  0
BLOCK
  5
7E
330
7C
100
AcDbEntity
  8
0
100
AcDbBlockBegin
  2
Block_0
 70
     0
 10
0.0
 20
0.0
 30
0.0
  3
Block_0
  1

  0
SPLINE
  5
80
330
7C
100
AcDbEntity
  8
Layer 3
100
AcDbSpline
210
0.0
220
0.0
230
1.0
 70
     9
 71
     3
 72
    44
 73
    40
 74
     0
 42
0.0000000001
 43
0.0000000001
 40
0.0
 40
0.0
 40
0.0
 40
0.0
 40
1.0
 40
1.0
 40
1.0
 40
2.0
 40
2.0
 40
2.0
 40
3.0
 40
3.0
 40
3.0
 40
4.0
 40
4.0
 40
4.0
 40
5.0
 40
5.0
 40
5.0
 40
6.0
 40
6.0
 40
6.0
 40
7.0
 40
7.0
 40
7.0
 40
8.0
 40
8.0
 40
8.0
 40
9.0
 40
9.0
 40
9.0
 40
10.0
 40
10.0
 40
10.0
 40
11.0
 40
11.0
 40
11.0
 40
12.0
 40
12.0
 40
12.0
 40
13.0
 40
13.0
 40
13.0
 40
13.0
 10
4.392364108483231
 20
-10.40353319854107
 30
0.0
 10
4.392225158093929
 20
-10.40354983693411
 30
0.0
 10
4.392086207704601
 20
-10.4035664753271
 30
0.0
 10
4.391947257315274
 20
-10.40358311372013
 30
0.0
 10
4.392841570940037
 20
-10.41081615989464
 30
0.0
 10
4.393837299531721
 20
-10.41803841092127
 30
0.0
 10
4.394611083845145
 20
-10.42528433204274
 30
0.0
 10
4.396819236290007
 20
-10.44596288342306
 30
0.0
 10
4.398919833408601
 20
-10.46665282417952
 30
0.0
 10
4.401101938845335
 20
-10.48733424766338
 30
0.0
 10
4.401705971934764
 20
-10.49305924139447
 30
0.0
 10
4.402841047067997
 20
-10.49748089433913
 30
0.0
 10
4.410664756194642
 20
-10.49459878793896
 30
0.0
 10
4.428044746159027
 20
-10.48819637392067
 30
0.0
 10
4.44595478778673
 20
-10.4831412735847
 30
0.0
 10
4.463058758695524
 20
-10.4761032333379
 30
0.0
 10
4.487121737484256
 20
-10.46620180488306
 30
0.0
 10
4.50894853605895
 20
-10.45224070756979
 30
0.0
 10
4.528387725235486
 20
-10.43488092136835
 30
0.0
 10
4.530781474992964
 20
-10.43274328401771
 30
0.0
 10
4.532859590473359
 20
-10.42730322276702
 30
0.0
 10
4.531812560169858
 20
-10.42471902283235
 30
0.0
 10
4.521616295429212
 20
-10.39955503800082
 30
0.0
 10
4.510735281585438
 20
-10.37466796356739
 30
0.0
 10
4.500017680530214
 20
-10.34971572209464
 30
0.0
 10
4.497863999014851
 20
-10.34470152447481
 30
0.0
 10
4.494513640696873
 20
-10.34356545896104
 30
0.0
 10
4.489672759670989
 20
-10.34645321053027
 30
0.0
 10
4.484387692974349
 20
-10.34960588889309
 30
0.0
 10
4.479155908750574
 20
-10.35301874022295
 30
0.0
 10
4.473502321456205
 20
-10.35535326522434
 30
0.0
 10
4.448190769924697
 20
-10.36580514718151
 30
0.0
 10
4.422671238480461
 20
-10.37575639177733
 30
0.0
 10
4.397432083766185
 20
-10.38637653938773
 30
0.0
 10
4.394768653388533
 20
-10.38749715496515
 30
0.0
 10
4.392723121427833
 20
-10.39159247752291
 30
0.0
 10
4.391738485098104
 20
-10.39473059729185
 30
0.0
 10
4.390919044241956
 20
-10.39734223076741
 30
0.0
 10
4.392080265421378
 20
-10.40057532802984
 30
0.0
 10
4.392364108483231
 20
-10.40353319854107
 30
0.0
  0
SPLINE
  5
81
330
7C
100
AcDbEntity
  8
Layer 3
100
AcDbSpline
210
0.0
220
0.0
230
1.0
 70
     9
 71
     3
 72
    35
 73
    31
 74
     0
 42
0.0000000001
 43
0.0000000001
 40
0.0
 40
0.0
 40
0.0
 40
0.0
 40
1.0
 40
1.0
 40
1.0
 40
2.0
 40
2.0
 40
2.0
 40
3.0
 40
3.0
 40
3.0
 40
4.0
 40
4.0
 40
4.0
 40
5.0
 40
5.0
 40
5.0
 40
6.0
 40
6.0
 40
6.0
 40
7.0
 40
7.0
 40
7.0
 40
8.0
 40
8.0
 40
8.0
 40
9.0
 40
9.0
 40
9.0
 40
10.0
 40
10.0
 40
10.0
 40
10.0
 10
4.058880401062575
 20
-10.40291648858081
 30
0.0
 10
4.059708260153304
 20
-10.38907582154082
 30
0.0
 10
4.059708260153304
 20
-10.38907582154082
 30
0.0
 10
4.045926817869409
 20
-10.38420057431032
 30
0.0
 10
4.045672488147551
 20
-10.38411064775758
 30
0.0
 10
4.0454166728549
 20
-10.38402200869953
 30
0.0
 10
4.045170761367595
 20
-10.38391207645994
 30
0.0
 10
4.017186717476558
 20
-10.37140872025879
 30
0.0
 10
3.989137556065189
 20
-10.35904718655054
 30
0.0
 10
3.961279389540347
 20
-10.34626929686457
 30
0.0
 10
3.956089894565517
 20
-10.34388881820629
 30
0.0
 10
3.953316482429247
 20
-10.34455544334565
 30
0.0
 10
3.951124621744206
 20
-10.34965788387128
 30
0.0
 10
3.940316549426951
 20
-10.3748178081426
 30
0.0
 10
3.929279451610581
 20
-10.39988166550185
 30
0.0
 10
3.918823162460006
 20
-10.42518618533156
 30
0.0
 10
3.917859670754751
 20
-10.42751793726741
 30
0.0
 10
3.919431355147657
 20
-10.43256174726528
 30
0.0
 10
3.921515511949312
 20
-10.43421073085907
 30
0.0
 10
3.932679576550526
 20
-10.44304413294301
 30
0.0
 10
3.943973727635238
 20
-10.45183970249046
 30
0.0
 10
3.955977733969726
 20
-10.4594591951504
 30
0.0
 10
3.982551773090537
 20
-10.4763268612631
 30
0.0
 10
4.011831977509144
 20
-10.48702574412616
 30
0.0
 10
4.042010060922418
 20
-10.49551607839213
 30
0.0
 10
4.047956899893758
 20
-10.49718912823297
 30
0.0
 10
4.04925479358725
 20
-10.49432098619837
 30
0.0
 10
4.049748597322907
 20
-10.48963599106898
 30
0.0
 10
4.052773417558429
 20
-10.46093565445466
 30
0.0
 10
4.055793583005449
 20
-10.43223482265009
 30
0.0
 10
4.058880401062575
 20
-10.40291648858081
 30
0.0
  0
SPLINE
  5
82
330
7C
100
AcDbEntity
  8
Layer 3
100
AcDbSpline
210
0.0
220
0.0
230
1.0
 70
     9
 71
     3
 72
    38
 73
    34
 74
     0
 42
0.0000000001
 43
0.0000000001
 40
0.0
 40
0.0
 40
0.0
 40
0.0
 40
1.0
 40
1.0
 40
1.0
 40
2.0
 40
2.0
 40
2.0
 40
3.0
 40
3.0
 40
3.0
 40
4.0
 40
4.0
 40
4.0
 40
5.0
 40
5.0
 40
5.0
 40
6.0
 40
6.0
 40
6.0
 40
7.0
 40
7.0
 40
7.0
 40
8.0
 40
8.0
 40
8.0
 40
9.0
 40
9.0
 40
9.0
 40
10.0
 40
10.0
 40
10.0
 40
11.0
 40
11.0
 40
11.0
 40
11.0
 10
4.21332202561987
 20
-10.46423570144139
 30
0.0
 10
4.213276765229339
 20
-10.46423570144139
 30
0.0
 10
4.213231603876869
 20
-10.46423570144139
 30
0.0
 10
4.213186343486313
 20
-10.46423570144139
 30
0.0
 10
4.213186343486313
 20
-10.45018230066208
 30
0.0
 10
4.212906263870536
 20
-10.43612087780042
 30
0.0
 10
4.213314102575572
 20
-10.42207936158759
 30
0.0
 10
4.213495837404075
 20
-10.41582193927989
 30
0.0
 10
4.211638180631199
 20
-10.41322011057163
 30
0.0
 10
4.205161389034603
 20
-10.41334103603518
 30
0.0
 10
4.198700641602701
 20
-10.4134615653465
 30
0.0
 10
4.192169081962447
 20
-10.41301094220226
 30
0.0
 10
4.185760626622898
 20
-10.41213584195993
 30
0.0
 10
4.158225076557906
 20
-10.40837635744219
 30
0.0
 10
4.130459064942038
 20
-10.40564785906329
 30
0.0
 10
4.103295897958913
 20
-10.40003329276204
 30
0.0
 10
4.082706777941085
 20
-10.39577772663344
 30
0.0
 10
4.083101345546942
 20
-10.394094376835
 30
0.0
 10
4.080874177795774
 20
-10.41471459480168
 30
0.0
 10
4.078207479162352
 20
-10.4394034940897
 30
0.0
 10
4.075801250610108
 20
-10.46412844322925
 30
0.0
 10
4.07259162536641
 20
-10.48874771876553
 30
0.0
 10
4.070953932110746
 20
-10.50130940838027
 30
0.0
 10
4.071066637415823
 20
-10.50281954062279
 30
0.0
 10
4.08358435413475
 20
-10.50502095848002
 30
0.0
 10
4.12382767494364
 20
-10.51209861394831
 30
0.0
 10
4.164383956002185
 20
-10.51565388199934
 30
0.0
 10
4.205271816464447
 20
-10.51576074405928
 30
0.0
 10
4.212117623849053
 20
-10.51577866994699
 30
0.0
 10
4.213496530670454
 20
-10.51312415299415
 30
0.0
 10
4.213398780111472
 20
-10.50720722351505
 30
0.0
 10
4.213162475315382
 20
-10.49288691518106
 30
0.0
 10
4.21332202561987
 20
-10.4785599712975
 30
0.0
 10
4.21332202561987
 20
-10.46423570144139
 30
0.0
  0
SPLINE
  5
83
330
7C
100
AcDbEntity
  8
Layer 3
100
AcDbSpline
210
0.0
220
0.0
230
1.0
 70
     9
 71
     3
 72
    41
 73
    37
 74
     0
 42
0.0000000001
 43
0.0000000001
 40
0.0
 40
0.0
 40
0.0
 40
0.0
 40
1.0
 40
1.0
 40
1.0
 40
2.0
 40
2.0
 40
2.0
 40
3.0
 40
3.0
 40
3.0
 40
4.0
 40
4.0
 40
4.0
 40
5.0
 40
5.0
 40
5.0
 40
6.0
 40
6.0
 40
6.0
 40
7.0
 40
7.0
 40
7.0
 40
8.0
 40
8.0
 40
8.0
 40
9.0
 40
9.0
 40
9.0
 40
10.0
 40
10.0
 40
10.0
 40
11.0
 40
11.0
 40
11.0
 40
12.0
 40
12.0
 40
12.0
 40
12.0
 10
4.23730854703116
 20
-10.46450765993679
 30
0.0
 10
4.23730854703116
 20
-10.47883490093451
 30
0.0
 10
4.237430363837221
 20
-10.49316372654112
 30
0.0
 10
4.237247737666216
 20
-10.50748859062554
 30
0.0
 10
4.237176133153399
 20
-10.51310692037282
 30
0.0
 10
4.238771537160169
 20
-10.51618353751044
 30
0.0
 10
4.245090660175264
 20
-10.51573053745288
 30
0.0
 10
4.278747455224118
 20
-10.51331707912274
 30
0.0
 10
4.312430891509393
 20
-10.51125887029113
 30
0.0
 10
4.346068275099696
 20
-10.50860871101268
 30
0.0
 10
4.354906331972162
 20
-10.5079124734953
 30
0.0
 10
4.363595336573831
 20
-10.50544256347454
 30
0.0
 10
4.372385855180507
 20
-10.50398630793322
 30
0.0
 10
4.378147790105609
 20
-10.50303177917183
 30
0.0
 10
4.379863327271499
 20
-10.49987355467801
 30
0.0
 10
4.379135199500827
 20
-10.49427126909543
 30
0.0
 10
4.377533952248919
 20
-10.48195123233166
 30
0.0
 10
4.376360648426927
 20
-10.46957613041003
 30
0.0
 10
4.374919050517569
 20
-10.4572344043125
 30
0.0
 10
4.37285232441334
 20
-10.43954016660377
 30
0.0
 10
4.370498486991512
 20
-10.42187643261559
 30
0.0
 10
4.368687477141898
 20
-10.40415674212707
 30
0.0
 10
4.367961231094239
 20
-10.39705056369934
 30
0.0
 10
4.364720805015874
 20
-10.39540534355157
 30
0.0
 10
4.358412576186639
 20
-10.39737223929771
 30
0.0
 10
4.353525741503846
 20
-10.39889603879161
 30
0.0
 10
4.348645047180399
 20
-10.40082044721271
 30
0.0
 10
4.343620648641035
 20
-10.40146072822974
 30
0.0
 10
4.310963444668004
 20
-10.40562210916932
 30
0.0
 10
4.278287621540887
 20
-10.40966068292235
 30
0.0
 10
4.245567132251531
 20
-10.41328131608881
 30
0.0
 10
4.239306441688086
 20
-10.41397398823627
 30
0.0
 10
4.237109480543267
 20
-10.41624126639918
 30
0.0
 10
4.237220304125356
 20
-10.42233884128821
 30
0.0
 10
4.237475624227752
 20
-10.43639095457284
 30
0.0
 10
4.23730131725324
 20
-10.45045089186366
 30
0.0
 10
4.23730854703116
 20
-10.46450765993679
 30
0.0
  0
SPLINE
  5
84
330
7C
100
AcDbEntity
  8
Layer 3
100
AcDbSpline
210
0.0
220
0.0
230
1.0
 70
     9
 71
     3
 72
    32
 73
    28
 74
     0
 42
0.0000000001
 43
0.0000000001
 40
0.0
 40
0.0
 40
0.0
 40
0.0
 40
1.0
 40
1.0
 40
1.0
 40
2.0
 40
2.0
 40
2.0
 40
3.0
 40
3.0
 40
3.0
 40
4.0
 40
4.0
 40
4.0
 40
5.0
 40
5.0
 40
5.0
 40
6.0
 40
6.0
 40
6.0
 40
7.0
 40
7.0
 40
7.0
 40
8.0
 40
8.0
 40
8.0
 40
9.0
 40
9.0
 40
9.0
 40
9.0
 10
4.541450943554082
 20
-10.45730739535805
 30
0.0
 10
4.537669274512331
 20
-10.45911008601117
 30
0.0
 10
4.535805576418144
 20
-10.45963221463019
 30
0.0
 10
4.534385766880581
 20
-10.46072886299859
 30
0.0
 10
4.499137232232972
 20
-10.48795432491748
 30
0.0
 10
4.459285606926388
 20
-10.50558557442405
 30
0.0
 10
4.416663193991957
 20
-10.51754164634056
 30
0.0
 10
4.40408258810895
 20
-10.52107066930736
 30
0.0
 10
4.404396241624959
 20
-10.52121823600737
 30
0.0
 10
4.405860816362797
 20
-10.53324838838802
 30
0.0
 10
4.40967695064723
 20
-10.56459640832943
 30
0.0
 10
4.413464165819984
 20
-10.59595175708684
 30
0.0
 10
4.416737076379982
 20
-10.62735900178434
 30
0.0
 10
4.417502541496913
 20
-10.63470485230199
 30
0.0
 10
4.420278974293801
 20
-10.63608960236858
 30
0.0
 10
4.426606119391282
 20
-10.63399405619071
 30
0.0
 10
4.467691956922812
 20
-10.6203867228052
 30
0.0
 10
4.50532305002783
 20
-10.60082165626244
 30
0.0
 10
4.537292632794181
 20
-10.57108052874198
 30
0.0
 10
4.54686406645414
 20
-10.56217611637357
 30
0.0
 10
4.553478322869245
 20
-10.552895062287
 30
0.0
 10
4.551354352770001
 20
-10.53880650299867
 30
0.0
 10
4.549912358708373
 20
-10.52924111065997
 30
0.0
 10
4.550918981485993
 20
-10.51932066689884
 30
0.0
 10
4.549677638521163
 20
-10.50970783533244
 30
0.0
 10
4.547480875452467
 20
-10.4926980496127
 30
0.0
 10
4.544405941961763
 20
-10.47580146438832
 30
0.0
 10
4.541450943554082
 20
-10.45730739535805
 30
0.0
  0
SPLINE
  5
85
330
7C
100
AcDbEntity
  8
Layer 3
100
AcDbSpline
210
0.0
220
0.0
230
1.0
 70
     9
 71
     3
 72
    35
 73
    31
 74
     0
 42
0.0000000001
 43
0.0000000001
 40
0.0
 40
0.0
 40
0.0
 40
0.0
 40
1.0
 40
1.0
 40
1.0
 40
2.0
 40
2.0
 40
2.0
 40
3.0
 40
3.0
 40
3.0
 40
4.0
 40
4.0
 40
4.0
 40
5.0
 40
5.0
 40
5.0
 40
6.0
 40
6.0
 40
6.0
 40
7.0
 40
7.0
 40
7.0
 40
8.0
 40
8.0
 40
8.0
 40
9.0
 40
9.0
 40
9.0
 40
10.0
 40
10.0
 40
10.0
 40
10.0
 10
3.9105351629377
 20
-10.45702672151393
 30
0.0
 10
3.902233694240091
 20
-10.48964619198851
 30
0.0
 10
3.898979303796118
 20
-10.52064936142703
 30
0.0
 10
3.89996428675901
 20
-10.55207106568039
 30
0.0
 10
3.900060106075948
 20
-10.55512807328336
 30
0.0
 10
3.902286927193951
 20
-10.55861114259328
 30
0.0
 10
3.904478738359961
 20
-10.56103282108188
 30
0.0
 10
3.924968919362147
 20
-10.58367153362064
 30
0.0
 10
3.949267559199622
 20
-10.60142450089521
 30
0.0
 10
3.976742200861584
 20
-10.61447623079955
 30
0.0
 10
3.992490093220339
 20
-10.6219572682605
 30
0.0
 10
4.009033904897503
 20
-10.62777951736029
 30
0.0
 10
4.025304123951374
 20
-10.63413152100924
 30
0.0
 10
4.028999233734237
 20
-10.63557410929914
 30
0.0
 10
4.033367752763069
 20
-10.63736422211943
 30
0.0
 10
4.034118015538726
 20
-10.63043294489451
 30
0.0
 10
4.037834468022158
 20
-10.59609664975937
 30
0.0
 10
4.041815005475705
 20
-10.56178749105094
 30
0.0
 10
4.045205919876656
 20
-10.52741989989085
 30
0.0
 10
4.04546510246314
 20
-10.52479281647887
 30
0.0
 10
4.042484354161514
 20
-10.52022854873692
 30
0.0
 10
4.03995868571653
 20
-10.51923420667799
 30
0.0
 10
4.030767607701742
 20
-10.51561585138673
 30
0.0
 10
4.021100107129718
 20
-10.51322487469477
 30
0.0
 10
4.011665742136023
 20
-10.51020401598139
 30
0.0
 10
3.982253470472844
 20
-10.50078559611435
 30
0.0
 10
3.954615217946209
 20
-10.48775832860924
 30
0.0
 10
3.929431574061027
 20
-10.46971775482681
 30
0.0
 10
3.923640175314933
 20
-10.46556895172004
 30
0.0
 10
3.917605341032917
 20
-10.46176014625158
 30
0.0
 10
3.9105351629377
 20
-10.45702672151393
 30
0.0
  0
SPLINE
  5
86
330
7C
100
AcDbEntity
  8
Layer 3
100
AcDbSpline
210
0.0
220
0.0
230
1.0
 70
     9
 71
     3
 72
    35
 73
    31
 74
     0
 42
0.0000000001
 43
0.0000000001
 40
0.0
 40
0.0
 40
0.0
 40
0.0
 40
1.0
 40
1.0
 40
1.0
 40
2.0
 40
2.0
 40
2.0
 40
3.0
 40
3.0
 40
3.0
 40
4.0
 40
4.0
 40
4.0
 40
5.0
 40
5.0
 40
5.0
 40
6.0
 40
6.0
 40
6.0
 40
7.0
 40
7.0
 40
7.0
 40
8.0
 40
8.0
 40
8.0
 40
9.0
 40
9.0
 40
9.0
 40
10.0
 40
10.0
 40
10.0
 40
10.0
 10
4.213210805885586
 20
-10.60000201733017
 30
0.0
 10
4.213246261508806
 20
-10.60000201733017
 30
0.0
 10
4.213281717132026
 20
-10.60000201733017
 30
0.0
 10
4.213317172755245
 20
-10.60000201733017
 30
0.0
 10
4.213317172755245
 20
-10.58243603390095
 30
0.0
 10
4.213163564733981
 20
-10.56486797067264
 30
0.0
 10
4.213403335861938
 20
-10.54730525549919
 30
0.0
 10
4.213483358609311
 20
-10.5414413113788
 30
0.0
 10
4.21150398406846
 20
-10.53927118954652
 30
0.0
 10
4.205458602233698
 20
-10.53920938980102
 30
0.0
 10
4.162455387982845
 20
-10.53876916565241
 30
0.0
 10
4.11968233816876
 20
-10.5356884879546
 30
0.0
 10
4.077464297607522
 20
-10.52694194224376
 30
0.0
 10
4.071555588286855
 20
-10.5257177328622
 30
0.0
 10
4.068289511352556
 20
-10.52765679891523
 30
0.0
 10
4.067663689891357
 20
-10.53414844621989
 30
0.0
 10
4.064709582826152
 20
-10.56479101810492
 30
0.0
 10
4.061296533420192
 20
-10.59539080555078
 30
0.0
 10
4.058524953487903
 20
-10.62604902544831
 30
0.0
 10
4.056924498540436
 20
-10.64375306792435
 30
0.0
 10
4.057336001653462
 20
-10.64377119188819
 30
0.0
 10
4.075076193019109
 20
-10.64703885343134
 30
0.0
 10
4.117941447261172
 20
-10.65493456322299
 30
0.0
 10
4.161217907502102
 20
-10.65859520776318
 30
0.0
 10
4.204739387887861
 20
-10.66002511918224
 30
0.0
 10
4.211160916250491
 20
-10.66023616927461
 30
0.0
 10
4.213404029128317
 20
-10.65826610431077
 30
0.0
 10
4.213303901656041
 20
-10.65188825172981
 30
0.0
 10
4.213032537388951
 20
-10.63459660370932
 30
0.0
 10
4.213210805885586
 20
-10.617297923987
 30
0.0
 10
4.213210805885586
 20
-10.60000201733017
 30
0.0
  0
SPLINE
  5
87
330
7C
100
AcDbEntity
  8
Layer 3
100
AcDbSpline
210
0.0
220
0.0
230
1.0
 70
     9
 71
     3
 72
    35
 73
    31
 74
     0
 42
0.0000000001
 43
0.0000000001
 40
0.0
 40
0.0
 40
0.0
 40
0.0
 40
1.0
 40
1.0
 40
1.0
 40
2.0
 40
2.0
 40
2.0
 40
3.0
 40
3.0
 40
3.0
 40
4.0
 40
4.0
 40
4.0
 40
5.0
 40
5.0
 40
5.0
 40
6.0
 40
6.0
 40
6.0
 40
7.0
 40
7.0
 40
7.0
 40
8.0
 40
8.0
 40
8.0
 40
9.0
 40
9.0
 40
9.0
 40
10.0
 40
10.0
 40
10.0
 40
10.0
 10
4.23729200767621
 20
-10.59979255184665
 30
0.0
 10
4.23729200767621
 20
-10.61682650285148
 30
0.0
 10
4.237470375210881
 20
-10.63386342499792
 30
0.0
 10
4.23720010036239
 20
-10.65089301832838
 30
0.0
 10
4.237098586357356
 20
-10.65728770737847
 30
0.0
 10
4.238802437032896
 20
-10.66030678340689
 30
0.0
 10
4.245907427003986
 20
-10.65999669526081
 30
0.0
 10
4.292900983475697
 20
-10.65794640947352
 30
0.0
 10
4.339753707835066
 20
-10.65505737040959
 30
0.0
 10
4.385870579455564
 20
-10.64467214106253
 30
0.0
 10
4.393458280900278
 20
-10.6429633384843
 30
0.0
 10
4.394739041010502
 20
-10.63999596031989
 30
0.0
 10
4.39396139421299
 20
-10.63322066802953
 30
0.0
 10
4.390141298406407
 20
-10.59993813778556
 30
0.0
 10
4.386518783516925
 20
-10.56663124418037
 30
0.0
 10
4.383158620431609
 20
-10.53329939298565
 30
0.0
 10
4.382536166264243
 20
-10.52712456841477
 30
0.0
 10
4.379223145292497
 20
-10.52608031117673
 30
0.0
 10
4.374420790069481
 20
-10.52689816742402
 30
0.0
 10
4.368842273619798
 20
-10.52784814043495
 30
0.0
 10
4.363411026755935
 20
-10.53000558539634
 30
0.0
 10
4.357818347864546
 20
-10.53047393635218
 30
0.0
 10
4.320409099999778
 20
-10.53360660902818
 30
0.0
 10
4.282985689693355
 20
-10.53659963804848
 30
0.0
 10
4.245535737188522
 20
-10.53918641297256
 30
0.0
 10
4.239171452820906
 20
-10.53962604289288
 30
0.0
 10
4.237104429602519
 20
-10.54167484310937
 30
0.0
 10
4.237207330140336
 20
-10.54788126081939
 30
0.0
 10
4.237493946267654
 20
-10.56518083188421
 30
0.0
 10
4.237306962422331
 20
-10.58248822695524
 30
0.0
 10
4.23729200767621
 20
-10.59979255184665
 30
0.0
  0
SPLINE
  5
88
330
7C
100
AcDbEntity
  8
Layer 3
100
AcDbSpline
210
0.0
220
0.0
230
1.0
 70
     9
 71
     3
 72
    38
 73
    34
 74
     0
 42
0.0000000001
 43
0.0000000001
 40
0.0
 40
0.0
 40
0.0
 40
0.0
 40
1.0
 40
1.0
 40
1.0
 40
2.0
 40
2.0
 40
2.0
 40
3.0
 40
3.0
 40
3.0
 40
4.0
 40
4.0
 40
4.0
 40
5.0
 40
5.0
 40
5.0
 40
6.0
 40
6.0
 40
6.0
 40
7.0
 40
7.0
 40
7.0
 40
8.0
 40
8.0
 40
8.0
 40
9.0
 40
9.0
 40
9.0
 40
10.0
 40
10.0
 40
10.0
 40
11.0
 40
11.0
 40
11.0
 40
11.0
 10
4.226201429310827
 20
-9.827692430057746
 30
0.0
 10
4.226201429310827
 20
-9.827709959793258
 30
0.0
 10
4.226201429310827
 20
-9.827727489528745
 30
0.0
 10
4.226201429310827
 20
-9.827745019264257
 30
0.0
 10
4.053137382405717
 20
-9.827745019264257
 30
0.0
 10
3.880073434538669
 20
-9.827747891367808
 30
0.0
 10
3.707009437152565
 20
-9.827743781288592
 30
0.0
 10
3.619936616407888
 20
-9.827741701489458
 30
0.0
 10
3.532863572827586
 20
-9.827835341969223
 30
0.0
 10
3.445791197754159
 20
-9.82763627548133
 30
0.0
 10
3.425781995059651
 20
-9.827590519900518
 30
0.0
 10
3.416330248887561
 20
-9.838128614483416
 30
0.0
 10
3.410611556452648
 20
-9.853031365611084
 30
0.0
 10
3.405962982567491
 20
-9.865145452742252
 30
0.0
 10
3.412467269603742
 20
-9.880797129631849
 30
0.0
 10
3.4246487521304
 20
-9.889918286780735
 30
0.0
 10
3.434721169784931
 20
-9.897460133606626
 30
0.0
 10
3.446415855518226
 20
-9.896642574473464
 30
0.0
 10
3.458028017793316
 20
-9.896641633611958
 30
0.0
 10
3.91448534522778
 20
-9.896605039051134
 30
0.0
 10
4.370942672662269
 20
-9.896601622238272
 30
0.0
 10
4.827399950577702
 20
-9.896590480457259
 30
0.0
 10
4.887161096777768
 20
-9.896589044405446
 30
0.0
 10
4.946922044901738
 20
-9.896611327967573
 30
0.0
 10
5.006683191101804
 20
-9.896533434538316
 30
0.0
 10
5.025609363160254
 20
-9.89650877406297
 30
0.0
 10
5.041850019355099
 20
-9.879464424062486
 30
0.0
 10
5.041064251437192
 20
-9.861099797768398
 30
0.0
 10
5.04017924738951
 20
-9.840419067550934
 30
0.0
 10
5.025582622885748
 20
-9.827680396934256
 30
0.0
 10
5.001743371060279
 20
-9.827681932024081
 30
0.0
 10
4.743229390477128
 20
-9.827698669455129
 30
0.0
 10
4.484715409893977
 20
-9.827692430057746
 30
0.0
 10
4.226201429310827
 20
-9.827692430057746
 30
0.0
  0
SPLINE
  5
89
330
7C
100
AcDbEntity
  8
Layer 3
100
AcDbSpline
210
0.0
220
0.0
230
1.0
 70
     9
 71
     3
 72
    71
 73
    67
 74
     0
 42
0.0000000001
 43
0.0000000001
 40
0.0
 40
0.0
 40
0.0
 40
0.0
 40
1.0
 40
1.0
 40
1.0
 40
2.0
 40
2.0
 40
2.0
 40
3.0
 40
3.0
 40
3.0
 40
4.0
 40
4.0
 40
4.0
 40
5.0
 40
5.0
 40
5.0
 40
6.0
 40
6.0
 40
6.0
 40
7.0
 40
7.0
 40
7.0
 40
8.0
 40
8.0
 40
8.0
 40
9.0
 40
9.0
 40
9.0
 40
10.0
 40
10.0
 40
10.0
 40
11.0
 40
11.0
 40
11.0
 40
12.0
 40
12.0
 40
12.0
 40
13.0
 40
13.0
 40
13.0
 40
14.0
 40
14.0
 40
14.0
 40
15.0
 40
15.0
 40
15.0
 40
16.0
 40
16.0
 40
16.0
 40
17.0
 40
17.0
 40
17.0
 40
18.0
 40
18.0
 40
18.0
 40
19.0
 40
19.0
 40
19.0
 40
20.0
 40
20.0
 40
20.0
 40
21.0
 40
21.0
 40
21.0
 40
22.0
 40
22.0
 40
22.0
 40
22.0
 10
3.546245941274188
 20
-9.42927008982623
 30
0.0
 10
3.548970403852409
 20
-9.426389939427609
 30
0.0
 10
3.550631197734092
 20
-9.424646275454506
 30
0.0
 10
3.552278992871227
 20
-9.422890380281765
 30
0.0
 10
3.577932597080638
 20
-9.395554193818851
 30
0.0
 10
3.586042402384868
 20
-9.36283679946867
 30
0.0
 10
3.578640496328842
 20
-9.326970700657586
 30
0.0
 10
3.568864598607054
 20
-9.279601208113868
 30
0.0
 10
3.525796563950077
 20
-9.24637658727685
 30
0.0
 10
3.477374705427715
 20
-9.246609462880339
 30
0.0
 10
3.440283914424551
 20
-9.246787842794748
 30
0.0
 10
3.411160932916168
 20
-9.262307371971372
 30
0.0
 10
3.39058050348755
 20
-9.292895562680136
 30
0.0
 10
3.374484975180621
 20
-9.316817950761787
 30
0.0
 10
3.369439877688035
 20
-9.343299921631947
 30
0.0
 10
3.375431692315512
 20
-9.37177960146265
 30
0.0
 10
3.377386356861986
 20
-9.38107027462019
 30
0.0
 10
3.376749740252913
 20
-9.381498762759443
 30
0.0
 10
3.367145933529172
 20
-9.380825192576594
 30
0.0
 10
3.350535803495302
 20
-9.37966019557138
 30
0.0
 10
3.33420220008707
 20
-9.380545348176156
 30
0.0
 10
3.31843900634903
 20
-9.386552154689018
 30
0.0
 10
3.264957002739795
 20
-9.406932304413581
 30
0.0
 10
3.237145295894429
 20
-9.464389355054258
 30
0.0
 10
3.256367333305964
 20
-9.519265226420884
 30
0.0
 10
3.267730823408025
 20
-9.551706180803698
 30
0.0
 10
3.290865735165349
 20
-9.574413799068299
 30
0.0
 10
3.32392051502514
 20
-9.583977359202991
 30
0.0
 10
3.365163847821577
 20
-9.595910082898322
 30
0.0
 10
3.40172666696056
 20
-9.585902361852378
 30
0.0
 10
3.431610334999756
 20
-9.554301943431154
 30
0.0
 10
3.439246664128833
 20
-9.546226925243292
 30
0.0
 10
3.439113433187129
 20
-9.546089509943813
 30
0.0
 10
3.447218856057487
 20
-9.553142504936708
 30
0.0
 10
3.448030670983497
 20
-9.55384891861412
 30
0.0
 10
3.448685386796872
 20
-9.554733551269084
 30
0.0
 10
3.449480266215712
 20
-9.555462099951505
 30
0.0
 10
3.48647454463556
 20
-9.589368990845388
 30
0.0
 10
3.523499574371069
 20
-9.623242357358119
 30
0.0
 10
3.560469761784335
 20
-9.657175443817196
 30
0.0
 10
3.58966283747524
 20
-9.683970337797719
 30
0.0
 10
3.618757196986128
 20
-9.710872836623567
 30
0.0
 10
3.647963840890345
 20
-9.737652874896031
 30
0.0
 10
3.657801340281543
 20
-9.746673013230166
 30
0.0
 10
3.667849047941647
 20
-9.755463828951
 30
0.0
 10
3.679235799606557
 20
-9.765642266842
 30
0.0
 10
3.681008927400625
 20
-9.759594260498817
 30
0.0
 10
3.682482167968171
 20
-9.755131902914095
 30
0.0
 10
3.683621204623553
 20
-9.750585858174037
 30
0.0
 10
3.688397760433569
 20
-9.731522171778022
 30
0.0
 10
3.691560540677881
 20
-9.711892581943301
 30
0.0
 10
3.698139787140992
 20
-9.693479872674135
 30
0.0
 10
3.708177244362559
 20
-9.665388966723133
 30
0.0
 10
3.720369769632219
 20
-9.638055503806702
 30
0.0
 10
3.732088051181815
 20
-9.610588438555875
 30
0.0
 10
3.73441296949199
 20
-9.605138795373527
 30
0.0
 10
3.733840331465595
 20
-9.6015260357323
 30
0.0
 10
3.729655726102439
 20
-9.597777074007781
 30
0.0
 10
3.722230694660866
 20
-9.591125009815691
 30
0.0
 10
3.714967937070266
 20
-9.584292077378096
 30
0.0
 10
3.707618521182717
 20
-9.577555310890575
 30
0.0
 10
3.66725610711425
 20
-9.540557343303236
 30
0.0
 10
3.626872622699895
 20
-9.50358250110144
 30
0.0
 10
3.586530783787086
 20
-9.466562150913961
 30
0.0
 10
3.573256639173652
 20
-9.454380965501462
 30
0.0
 10
3.560085469376543
 20
-9.442087569974116
 30
0.0
 10
3.546245941274188
 20
-9.42927008982623
 30
0.0
  0
SPLINE
  5
8A
330
7C
100
AcDbEntity
  8
Layer 3
100
AcDbSpline
210
0.0
220
0.0
230
1.0
 70
     9
 71
     3
 72
    68
 73
    64
 74
     0
 42
0.0000000001
 43
0.0000000001
 40
0.0
 40
0.0
 40
0.0
 40
0.0
 40
1.0
 40
1.0
 40
1.0
 40
2.0
 40
2.0
 40
2.0
 40
3.0
 40
3.0
 40
3.0
 40
4.0
 40
4.0
 40
4.0
 40
5.0
 40
5.0
 40
5.0
 40
6.0
 40
6.0
 40
6.0
 40
7.0
 40
7.0
 40
7.0
 40
8.0
 40
8.0
 40
8.0
 40
9.0
 40
9.0
 40
9.0
 40
10.0
 40
10.0
 40
10.0
 40
11.0
 40
11.0
 40
11.0
 40
12.0
 40
12.0
 40
12.0
 40
13.0
 40
13.0
 40
13.0
 40
14.0
 40
14.0
 40
14.0
 40
15.0
 40
15.0
 40
15.0
 40
16.0
 40
16.0
 40
16.0
 40
17.0
 40
17.0
 40
17.0
 40
18.0
 40
18.0
 40
18.0
 40
19.0
 40
19.0
 40
19.0
 40
20.0
 40
20.0
 40
20.0
 40
21.0
 40
21.0
 40
21.0
 40
21.0
 10
4.771971124997864
 20
-9.765731549647398
 30
0.0
 10
4.790126285808455
 20
-9.749060474071256
 30
0.0
 10
4.806572346926637
 20
-9.733920823919156
 30
0.0
 10
4.82305960787514
 20
-9.718826236081515
 30
0.0
 10
4.883743689697439
 20
-9.663268116322594
 30
0.0
 10
4.944506506772439
 20
-9.607795565442048
 30
0.0
 10
5.005020936408805
 20
-9.552053432979391
 30
0.0
 10
5.010352154838452
 20
-9.547142556809097
 30
0.0
 10
5.01323257759173
 20
-9.547329738730542
 30
0.0
 10
5.017845968208297
 20
-9.552665537670185
 30
0.0
 10
5.03328223733115
 20
-9.57051949899998
 30
0.0
 10
5.052596836636135
 20
-9.581955125944405
 30
0.0
 10
5.075980315338584
 20
-9.586356946518789
 30
0.0
 10
5.113772840471104
 20
-9.593471246066908
 30
0.0
 10
5.146657039663169
 20
-9.583388454176276
 30
0.0
 10
5.172319978209139
 20
-9.555283336264588
 30
0.0
 10
5.201618405629637
 20
-9.52319654196175
 30
0.0
 10
5.208358341334839
 20
-9.485596868679268
 30
0.0
 10
5.192242473087642
 20
-9.444768876720445
 30
0.0
 10
5.180292145378264
 20
-9.414493129406485
 30
0.0
 10
5.157973325752891
 20
-9.395185957955517
 30
0.0
 10
5.127319463529702
 20
-9.384956664023976
 30
0.0
 10
5.112340155986556
 20
-9.379958040138085
 30
0.0
 10
5.097021940223688
 20
-9.379852156078943
 30
0.0
 10
5.081591613384059
 20
-9.381043546725448
 30
0.0
 10
5.076179976054819
 20
-9.381461375894179
 30
0.0
 10
5.073831387649836
 20
-9.379880505721782
 30
0.0
 10
5.075146414926621
 20
-9.374240560919309
 30
0.0
 10
5.07582066599606
 20
-9.371348922106461
 30
0.0
 10
5.076226920092267
 20
-9.368394629344921
 30
0.0
 10
5.076748058330722
 20
-9.365467485389848
 30
0.0
 10
5.080962325590967
 20
-9.341793268101051
 30
0.0
 10
5.075783823840083
 20
-9.319664601538734
 30
0.0
 10
5.064330469084072
 20
-9.299130057678388
 30
0.0
 10
5.038560173287931
 20
-9.252927183888004
 30
0.0
 10
4.98144096620788
 20
-9.233252951103091
 30
0.0
 10
4.931300970770735
 20
-9.255472158563582
 30
0.0
 10
4.898782816225042
 20
-9.269882350121127
 30
0.0
 10
4.878674922110045
 20
-9.295173679320061
 30
0.0
 10
4.871743644885125
 20
-9.329276145610466
 30
0.0
 10
4.864482570941441
 20
-9.365001152334292
 30
0.0
 10
4.873893364878338
 20
-9.397289650013261
 30
0.0
 10
4.899852823356998
 20
-9.423818490642309
 30
0.0
 10
4.903764430325205
 20
-9.42781586456499
 30
0.0
 10
4.903830587745056
 20
-9.430375775417031
 30
0.0
 10
4.899580468709372
 20
-9.434257918564247
 30
0.0
 10
4.858744306111146
 20
-9.471557803658216
 30
0.0
 10
4.818077894736916
 20
-9.509043286064802
 30
0.0
 10
4.777354140329609
 20
-9.546466201180994
 30
0.0
 10
4.758505911219395
 20
-9.563786793072695
 30
0.0
 10
4.739498726033034
 20
-9.580939738299017
 30
0.0
 10
4.720962070639668
 20
-9.598587254805933
 30
0.0
 10
4.718710638565349
 20
-9.600730586844671
 30
0.0
 10
4.717218333172468
 20
-9.60616430965989
 30
0.0
 10
4.718299729680615
 20
-9.608928734092765
 30
0.0
 10
4.72887867746067
 20
-9.635972684018774
 30
0.0
 10
4.741114928031038
 20
-9.662408267940538
 30
0.0
 10
4.75076004600295
 20
-9.689764311533204
 30
0.0
 10
4.757885140698918
 20
-9.709972630234636
 30
0.0
 10
4.761811504337123
 20
-9.731304139502828
 30
0.0
 10
4.767287516401261
 20
-9.75210242789007
 30
0.0
 10
4.768348412032259
 20
-9.756131791104078
 30
0.0
 10
4.769984421641033
 20
-9.760009675614986
 30
0.0
 10
4.771971124997864
 20
-9.765731549647398
 30
0.0
  0
SPLINE
  5
8B
330
7C
100
AcDbEntity
  8
Layer 3
100
AcDbSpline
210
0.0
220
0.0
230
1.0
 70
     9
 71
     3
 72
    62
 73
    58
 74
     0
 42
0.0000000001
 43
0.0000000001
 40
0.0
 40
0.0
 40
0.0
 40
0.0
 40
1.0
 40
1.0
 40
1.0
 40
2.0
 40
2.0
 40
2.0
 40
3.0
 40
3.0
 40
3.0
 40
4.0
 40
4.0
 40
4.0
 40
5.0
 40
5.0
 40
5.0
 40
6.0
 40
6.0
 40
6.0
 40
7.0
 40
7.0
 40
7.0
 40
8.0
 40
8.0
 40
8.0
 40
9.0
 40
9.0
 40
9.0
 40
10.0
 40
10.0
 40
10.0
 40
11.0
 40
11.0
 40
11.0
 40
12.0
 40
12.0
 40
12.0
 40
13.0
 40
13.0
 40
13.0
 40
14.0
 40
14.0
 40
14.0
 40
15.0
 40
15.0
 40
15.0
 40
16.0
 40
16.0
 40
16.0
 40
17.0
 40
17.0
 40
17.0
 40
18.0
 40
18.0
 40
18.0
 40
19.0
 40
19.0
 40
19.0
 40
19.0
 10
4.892185099164913
 20
-10.76964647831778
 30
0.0
 10
4.896426700927981
 20
-10.7700736294433
 30
0.0
 10
4.899066065058554
 20
-10.7703212245775
 30
0.0
 10
4.901701071514808
 20
-10.77060744455265
 30
0.0
 10
4.922031008946153
 20
-10.77281638930198
 30
0.0
 10
4.941302823811964
 20
-10.76961587555918
 30
0.0
 10
4.959863149300139
 20
-10.76068046427998
 30
0.0
 10
5.01671574593969
 20
-10.73331080295492
 30
0.0
 10
5.034289058184867
 20
-10.66394484727081
 30
0.0
 10
5.003021160028866
 20
-10.61222866120933
 30
0.0
 10
4.96739737019589
 20
-10.55330785289475
 30
0.0
 10
4.882334180117468
 20
-10.54615502754374
 30
0.0
 10
4.836632872170184
 20
-10.59750695164378
 30
0.0
 10
4.829526891818582
 20
-10.60549149856964
 30
0.0
 10
4.82950490537064
 20
-10.6055019966033
 30
0.0
 10
4.821511544058036
 20
-10.59818674884425
 30
0.0
 10
4.778919634844164
 20
-10.55920754975255
 30
0.0
 10
4.736359021655212
 20
-10.52019418253232
 30
0.0
 10
4.693735222188049
 20
-10.4812500429116
 30
0.0
 10
4.660472994745077
 20
-10.45085912672094
 30
0.0
 10
4.627123217662629
 20
-10.42056407936626
 30
0.0
 10
4.593833358602674
 20
-10.39020327074392
 30
0.0
 10
4.572306249178457
 20
-10.37057026409633
 30
0.0
 10
4.550914722849685
 20
-10.35078602634078
 30
0.0
 10
4.529159825901993
 20
-10.33140923113804
 30
0.0
 10
4.526987327156448
 20
-10.32947432468328
 30
0.0
 10
4.522709378427685
 20
-10.32990325849376
 30
0.0
 10
4.519408638174581
 20
-10.32923504874558
 30
0.0
 10
4.519685647610736
 20
-10.3323332561789
 30
0.0
 10
4.519030708961736
 20
-10.3359288327178
 30
0.0
 10
4.520379013024567
 20
-10.33845539250526
 30
0.0
 10
4.541820949722628
 20
-10.37863562607395
 30
0.0
 10
4.557505210131921
 20
-10.42086990887603
 30
0.0
 10
4.566569271842859
 20
-10.46553508070567
 30
0.0
 10
4.574086062041133
 20
-10.50257481759217
 30
0.0
 10
4.576166059244567
 20
-10.54002813739079
 30
0.0
 10
4.574552729350089
 20
-10.57768517846587
 30
0.0
 10
4.574246305612001
 20
-10.58483770670273
 30
0.0
 10
4.577192588670969
 20
-10.58936939092503
 30
0.0
 10
4.581904125998739
 20
-10.59366685015036
 30
0.0
 10
4.626150663975471
 20
-10.63402475798736
 30
0.0
 10
4.670413048040826
 20
-10.67436523512692
 30
0.0
 10
4.714607392963267
 20
-10.71478018888284
 30
0.0
 10
4.722476065366309
 20
-10.72197589771112
 30
0.0
 10
4.722335233253968
 20
-10.72211910673675
 30
0.0
 10
4.715114467798128
 20
-10.73041948601576
 30
0.0
 10
4.68829417055685
 20
-10.76124983405058
 30
0.0
 10
4.68020107792419
 20
-10.79639309124713
 30
0.0
 10
4.693030467398052
 20
-10.83521283907243
 30
0.0
 10
4.714436651358735
 20
-10.89998422137015
 30
0.0
 10
4.794378682719348
 20
-10.92602964487944
 30
0.0
 10
4.850621502062393
 20
-10.8871387877316
 30
0.0
 10
4.885895786603946
 20
-10.8627472997188
 30
0.0
 10
4.902615985054707
 20
-10.82006952451236
 30
0.0
 10
4.893185383507089
 20
-10.77867805554713
 30
0.0
 10
4.89261076471962
 20
-10.77615605151017
 30
0.0
 10
4.892595710935463
 20
-10.77350648646001
 30
0.0
 10
4.892185099164913
 20
-10.76964647831778
 30
0.0
  0
SPLINE
  5
8C
330
7C
100
AcDbEntity
  8
Layer 3
100
AcDbSpline
210
0.0
220
0.0
230
1.0
 70
     9
 71
     3
 72
    74
 73
    70
 74
     0
 42
0.0000000001
 43
0.0000000001
 40
0.0
 40
0.0
 40
0.0
 40
0.0
 40
1.0
 40
1.0
 40
1.0
 40
2.0
 40
2.0
 40
2.0
 40
3.0
 40
3.0
 40
3.0
 40
4.0
 40
4.0
 40
4.0
 40
5.0
 40
5.0
 40
5.0
 40
6.0
 40
6.0
 40
6.0
 40
7.0
 40
7.0
 40
7.0
 40
8.0
 40
8.0
 40
8.0
 40
9.0
 40
9.0
 40
9.0
 40
10.0
 40
10.0
 40
10.0
 40
11.0
 40
11.0
 40
11.0
 40
12.0
 40
12.0
 40
12.0
 40
13.0
 40
13.0
 40
13.0
 40
14.0
 40
14.0
 40
14.0
 40
15.0
 40
15.0
 40
15.0
 40
16.0
 40
16.0
 40
16.0
 40
17.0
 40
17.0
 40
17.0
 40
18.0
 40
18.0
 40
18.0
 40
19.0
 40
19.0
 40
19.0
 40
20.0
 40
20.0
 40
20.0
 40
21.0
 40
21.0
 40
21.0
 40
22.0
 40
22.0
 40
22.0
 40
23.0
 40
23.0
 40
23.0
 40
23.0
 10
3.554620970486161
 20
-10.79735138345457
 30
0.0
 10
3.555767558793124
 20
-10.83105829175855
 30
0.0
 10
3.565911704758011
 20
-10.85753859136154
 30
0.0
 10
3.588771148358925
 20
-10.87769808430248
 30
0.0
 10
3.616122859036724
 20
-10.90181959458098
 30
0.0
 10
3.647640382607025
 20
-10.91084314972798
 30
0.0
 10
3.684107134833943
 20
-10.90228329074832
 30
0.0
 10
3.728066165340856
 20
-10.89196511016358
 30
0.0
 10
3.760449033905185
 20
-10.85216676732989
 30
0.0
 10
3.763134054578535
 20
-10.80882999291424
 30
0.0
 10
3.765077478305935
 20
-10.77746275959041
 30
0.0
 10
3.75505349025967
 20
-10.75051886285812
 30
0.0
 10
3.733319589379334
 20
-10.7279198645789
 30
0.0
 10
3.729762538643323
 20
-10.72422128846417
 30
0.0
 10
3.728611419345396
 20
-10.72153547548638
 30
0.0
 10
3.733256848772346
 20
-10.71732259475892
 30
0.0
 10
3.779031543917375
 20
-10.67581049744429
 30
0.0
 10
3.824675756426712
 20
-10.63415301226688
 30
0.0
 10
3.870079108389493
 20
-10.59223584931272
 30
0.0
 10
3.873237629997472
 20
-10.58931977286013
 30
0.0
 10
3.875996434020837
 20
-10.58395369303555
 30
0.0
 10
3.875877340761285
 20
-10.5798149918103
 30
0.0
 10
3.874612129625499
 20
-10.53585566418923
 30
0.0
 10
3.876906395658048
 20
-10.49220137377349
 30
0.0
 10
3.88840213870104
 20
-10.44961273281534
 30
0.0
 10
3.89476672018279
 20
-10.42603345588082
 30
0.0
 10
3.902663519393071
 20
-10.40279595926949
 30
0.0
 10
3.91120015394914
 20
-10.37990054009558
 30
0.0
 10
3.916728755219789
 20
-10.3650728598126
 30
0.0
 10
3.92480813108202
 20
-10.35120773037334
 30
0.0
 10
3.931355734886968
 20
-10.33673549766503
 30
0.0
 10
3.932313878537317
 20
-10.33461766792511
 30
0.0
 10
3.931108090233742
 20
-10.33152074798648
 30
0.0
 10
3.930903576652882
 20
-10.32887692714348
 30
0.0
 10
3.928243513569062
 20
-10.32926337362894
 30
0.0
 10
3.925525166590659
 20
-10.32943451138569
 30
0.0
 10
3.922949582966616
 20
-10.33013272966415
 30
0.0
 10
3.921775041168984
 20
-10.33045113700675
 30
0.0
 10
3.920860919933501
 20
-10.33178636804647
 30
0.0
 10
3.919865438936944
 20
-10.33270029120586
 30
0.0
 10
3.887075226857809
 20
-10.36280409607886
 30
0.0
 10
3.85428754024906
 20
-10.39291057497934
 30
0.0
 10
3.821504013238558
 20
-10.42302160963032
 30
0.0
 10
3.807018806545202
 20
-10.4363259856096
 30
0.0
 10
3.792605006288542
 20
-10.44970879972743
 30
0.0
 10
3.778050373919565
 20
-10.4629367183293
 30
0.0
 10
3.751102911817345
 20
-10.48742764054799
 30
0.0
 10
3.724030958881662
 20
-10.51178159313846
 30
0.0
 10
3.697095232788822
 20
-10.53628539030415
 30
0.0
 10
3.673739088589197
 20
-10.55753251915063
 30
0.0
 10
3.650524370730231
 20
-10.5789351377414
 30
0.0
 10
3.627183379352825
 20
-10.60019920209505
 30
0.0
 10
3.623419611439253
 20
-10.60362780047545
 30
0.0
 10
3.620566473669795
 20
-10.60458916286251
 30
0.0
 10
3.616010450845806
 20
-10.59954228268498
 30
0.0
 10
3.580095241539866
 20
-10.55975820133102
 30
0.0
 10
3.526589115974679
 20
-10.55161301468211
 30
0.0
 10
3.48154584161557
 20
-10.57848600016794
 30
0.0
 10
3.430623049402129
 20
-10.60886681447712
 30
0.0
 10
3.416646675469084
 20
-10.68223786905208
 30
0.0
 10
3.453068489179132
 20
-10.72928381665418
 30
0.0
 10
3.477942787703644
 20
-10.7614140391436
 30
0.0
 10
3.510930580699853
 20
-10.77497294292086
 30
0.0
 10
3.551210471310064
 20
-10.77022179037163
 30
0.0
 10
3.558195055767403
 20
-10.76939789280305
 30
0.0
 10
3.559254242992007
 20
-10.77160089526913
 30
0.0
 10
3.557998589028405
 20
-10.77764182039146
 30
0.0
 10
3.556414821992954
 20
-10.78526131305142
 30
0.0
 10
3.555352168436481
 20
-10.79298915334213
 30
0.0
 10
3.554620970486161
 20
-10.79735138345457
 30
0.0
  0
SPLINE
  5
8D
330
7C
100
AcDbEntity
  8
Layer 3
100
AcDbSpline
210
0.0
220
0.0
230
1.0
 70
     9
 71
     3
 72
    59
 73
    55
 74
     0
 42
0.0000000001
 43
0.0000000001
 40
0.0
 40
0.0
 40
0.0
 40
0.0
 40
1.0
 40
1.0
 40
1.0
 40
2.0
 40
2.0
 40
2.0
 40
3.0
 40
3.0
 40
3.0
 40
4.0
 40
4.0
 40
4.0
 40
5.0
 40
5.0
 40
5.0
 40
6.0
 40
6.0
 40
6.0
 40
7.0
 40
7.0
 40
7.0
 40
8.0
 40
8.0
 40
8.0
 40
9.0
 40
9.0
 40
9.0
 40
10.0
 40
10.0
 40
10.0
 40
11.0
 40
11.0
 40
11.0
 40
12.0
 40
12.0
 40
12.0
 40
13.0
 40
13.0
 40
13.0
 40
14.0
 40
14.0
 40
14.0
 40
15.0
 40
15.0
 40
15.0
 40
16.0
 40
16.0
 40
16.0
 40
17.0
 40
17.0
 40
17.0
 40
18.0
 40
18.0
 40
18.0
 40
18.0
 10
4.548992295189691
 20
-10.59373578063572
 30
0.0
 10
4.547824042308471
 20
-10.59402101023033
 30
0.0
 10
4.546956567996276
 20
-10.59403606401449
 30
0.0
 10
4.546322031186339
 20
-10.59442825470705
 30
0.0
 10
4.544952433941968
 20
-10.5952746339138
 30
0.0
 10
4.543630374963387
 20
-10.59623153958849
 30
0.0
 10
4.542414286702245
 20
-10.59728768139295
 30
0.0
 10
4.520041590375689
 20
-10.61671706580215
 30
0.0
 10
4.494785698230316
 20
-10.63154276532406
 30
0.0
 10
4.467690471352043
 20
-10.64318498564843
 30
0.0
 10
4.426497375608328
 20
-10.66088457141207
 30
0.0
 10
4.383173872291889
 20
-10.67105429395431
 30
0.0
 10
4.338870486472337
 20
-10.67640888536465
 30
0.0
 10
4.287301569996644
 20
-10.6826415481589
 30
0.0
 10
4.235496942953229
 20
-10.68473719337478
 30
0.0
 10
4.183499884971499
 20
-10.682204493228
 30
0.0
 10
4.128295677697425
 20
-10.67951541199446
 30
0.0
 10
4.073736010076698
 20
-10.67336326713782
 30
0.0
 10
4.020727625009814
 20
-10.65684084768026
 30
0.0
 10
3.979181755718879
 20
-10.64389112697118
 30
0.0
 10
3.940687595495091
 20
-10.6252722699933
 30
0.0
 10
3.907570607357835
 20
-10.59651528361228
 30
0.0
 10
3.905963615898801
 20
-10.59511983743591
 30
0.0
 10
3.903880498996689
 20
-10.59427256688667
 30
0.0
 10
3.900396785939442
 20
-10.59220901000018
 30
0.0
 10
3.900396785939442
 20
-10.59740939916092
 30
0.0
 10
3.900340779920068
 20
-10.60058446012388
 30
0.0
 10
3.900405402250119
 20
-10.6037570451355
 30
0.0
 10
3.901105650808656
 20
-10.63814672178159
 30
0.0
 10
3.905457927596696
 20
-10.67207349456475
 30
0.0
 10
3.912276301440442
 20
-10.70579020763605
 30
0.0
 10
3.91951548797427
 20
-10.74158820540548
 30
0.0
 10
3.931856322729294
 20
-10.77519399585667
 30
0.0
 10
3.951640362408751
 20
-10.80600829972683
 30
0.0
 10
3.971215134680783
 20
-10.83649696647646
 30
0.0
 10
3.997739011027407
 20
-10.85945002579759
 30
0.0
 10
4.029350670267705
 20
-10.87637592628584
 30
0.0
 10
4.071679484892001
 20
-10.89903979449023
 30
0.0
 10
4.117764664335355
 20
-10.9094421574206
 30
0.0
 10
4.165142983645611
 20
-10.91296454483783
 30
0.0
 10
4.23736499872176
 20
-10.91833399195621
 30
0.0
 10
4.309219384542656
 20
-10.91739629966395
 30
0.0
 10
4.379152432122181
 20
-10.89422080087423
 30
0.0
 10
4.404514195946881
 20
-10.88581603548664
 30
0.0
 10
4.428256984708089
 20
-10.8744266593133
 30
0.0
 10
4.449585720910792
 20
-10.85868931450727
 30
0.0
 10
4.499856644654906
 20
-10.82159679033816
 30
0.0
 10
4.525284863013666
 20
-10.76915851782728
 30
0.0
 10
4.537733649247229
 20
-10.70970745977332
 30
0.0
 10
4.542920569232667
 20
-10.68493675505296
 30
0.0
 10
4.5459562836541
 20
-10.65965313225262
 30
0.0
 10
4.548734102983744
 20
-10.63446626963067
 30
0.0
 10
4.550195310427751
 20
-10.62121765207558
 30
0.0
 10
4.548992295189691
 20
-10.60767508957719
 30
0.0
 10
4.548992295189691
 20
-10.59373578063572
 30
0.0
  0
SPLINE
  5
8E
330
7C
100
AcDbEntity
  8
Layer 3
100
AcDbSpline
210
0.0
220
0.0
230
1.0
 70
     9
 71
     3
 72
    17
 73
    13
 74
     0
 42
0.0000000001
 43
0.0000000001
 40
0.0
 40
0.0
 40
0.0
 40
0.0
 40
1.0
 40
1.0
 40
1.0
 40
2.0
 40
2.0
 40
2.0
 40
3.0
 40
3.0
 40
3.0
 40
4.0
 40
4.0
 40
4.0
 40
4.0
 10
3.748755214754838
 20
-9.635944854325694
 30
0.0
 10
4.06701499063974
 20
-9.635944854325694
 30
0.0
 10
4.384453443945454
 20
-9.635944854325694
 30
0.0
 10
4.703508099249195
 20
-9.635944854325694
 30
0.0
 10
4.666786769705291
 20
-9.557805885010868
 30
0.0
 10
4.614957680262604
 20
-9.493328620973089
 30
0.0
 10
4.547870986345919
 20
-9.441661904419383
 30
0.0
 10
4.455475117810995
 20
-9.37050331044462
 30
0.0
 10
4.350154585194609
 20
-9.333648948035135
 30
0.0
 10
4.233641960207781
 20
-9.331910075027861
 30
0.0
 10
3.990398260969514
 20
-9.328279835170178
 30
0.0
 10
3.812511457002351
 20
-9.486442282265013
 30
0.0
 10
3.748755214754838
 20
-9.635944854325694
 30
0.0
  0
SPLINE
  5
8F
330
7C
100
AcDbEntity
  8
Layer 3
100
AcDbSpline
210
0.0
220
0.0
230
1.0
 70
     9
 71
     3
 72
    59
 73
    55
 74
     0
 42
0.0000000001
 43
0.0000000001
 40
0.0
 40
0.0
 40
0.0
 40
0.0
 40
1.0
 40
1.0
 40
1.0
 40
2.0
 40
2.0
 40
2.0
 40
3.0
 40
3.0
 40
3.0
 40
4.0
 40
4.0
 40
4.0
 40
5.0
 40
5.0
 40
5.0
 40
6.0
 40
6.0
 40
6.0
 40
7.0
 40
7.0
 40
7.0
 40
8.0
 40
8.0
 40
8.0
 40
9.0
 40
9.0
 40
9.0
 40
10.0
 40
10.0
 40
10.0
 40
11.0
 40
11.0
 40
11.0
 40
12.0
 40
12.0
 40
12.0
 40
13.0
 40
13.0
 40
13.0
 40
14.0
 40
14.0
 40
14.0
 40
15.0
 40
15.0
 40
15.0
 40
16.0
 40
16.0
 40
16.0
 40
17.0
 40
17.0
 40
17.0
 40
18.0
 40
18.0
 40
18.0
 40
18.0
 10
4.225397240314956
 20
-9.921664538736042
 30
0.0
 10
4.053680408054055
 20
-9.921664538736042
 30
0.0
 10
3.881963575793179
 20
-9.921664489216986
 30
0.0
 10
3.710246743532277
 20
-9.921664588255048
 30
0.0
 10
3.700083210868392
 20
-9.921664588255048
 30
0.0
 10
3.699561577439655
 20
-9.922065048625098
 30
0.0
 10
3.700863383136265
 20
-9.932292956023905
 30
0.0
 10
3.706375197456812
 20
-9.97559709740085
 30
0.0
 10
3.71770896376299
 20
-10.01736302924703
 30
0.0
 10
3.733868161158675
 20
-10.05789999788511
 30
0.0
 10
3.749708010350281
 20
-10.09763584770694
 30
0.0
 10
3.770320552867815
 20
-10.13475828136825
 30
0.0
 10
3.795191434579439
 20
-10.16944041738684
 30
0.0
 10
3.828423405897031
 20
-10.2157821053892
 30
0.0
 10
3.867622568505971
 20
-10.2565792469943
 30
0.0
 10
3.914587899132381
 20
-10.28902213261916
 30
0.0
 10
3.94069839064294
 20
-10.30705894295556
 30
0.0
 10
3.968068002448944
 20
-10.32365732460031
 30
0.0
 10
3.996277456950186
 20
-10.33816808311151
 30
0.0
 10
4.027396550430542
 20
-10.35417570276607
 30
0.0
 10
4.06065238991904
 20
-10.3653608624727
 30
0.0
 10
4.094793183936214
 20
-10.37394211367197
 30
0.0
 10
4.128221399157155
 20
-10.38234420503211
 30
0.0
 10
4.161952769860413
 20
-10.38792212725348
 30
0.0
 10
4.196328977331202
 20
-10.38933332048037
 30
0.0
 10
4.23203120530272
 20
-10.3907989846368
 30
0.0
 10
4.267763540842578
 20
-10.39062705457561
 30
0.0
 10
4.303105963565055
 20
-10.38466516182011
 30
0.0
 10
4.324643273908804
 20
-10.38103195082082
 30
0.0
 10
4.34646541769497
 20
-10.37762930041049
 30
0.0
 10
4.367208839000442
 20
-10.37110190036848
 30
0.0
 10
4.395373973972659
 20
-10.36223888590651
 30
0.0
 10
4.42298093047432
 20
-10.35131340397662
 30
0.0
 10
4.450188961695756
 20
-10.33976824094485
 30
0.0
 10
4.486346962790321
 20
-10.32442526566857
 30
0.0
 10
4.519158963241276
 20
-10.30312049667484
 30
0.0
 10
4.550180949909973
 20
-10.27912199165904
 30
0.0
 10
4.581469844133354
 20
-10.25491659614911
 30
0.0
 10
4.609585262002635
 20
-10.22735579138045
 30
0.0
 10
4.634675760598307
 20
-10.19682067578363
 30
0.0
 10
4.66490851301723
 20
-10.16002744461277
 30
0.0
 10
4.690455378964265
 20
-10.12013996753075
 30
0.0
 10
4.708886162678228
 20
-10.07616637842994
 30
0.0
 10
4.719279513145693
 20
-10.05136893343511
 30
0.0
 10
4.728717839661511
 20
-10.02602276810383
 30
0.0
 10
4.736343472680775
 20
-10.00025994968074
 30
0.0
 10
4.742596933466327
 20
-9.979132953993358
 30
0.0
 10
4.746277682731387
 20
-9.957140167640721
 30
0.0
 10
4.749671023564663
 20
-9.935309209467781
 30
0.0
 10
4.751772412987671
 20
-9.921791109368642
 30
0.0
 10
4.753390496708687
 20
-9.921641908540777
 30
0.0
 10
4.737301170659899
 20
-9.921644037858918
 30
0.0
 10
4.56666652721156
 20
-9.921666965168343
 30
0.0
 10
4.396031883763245
 20
-9.92165824981963
 30
0.0
 10
4.225397240314956
 20
-9.921664538736042
 30
0.0
  0
SPLINE
  5
90
330
7C
100
AcDbEntity
  8
Layer 3
100
AcDbSpline
210
0.0
220
0.0
230
1.0
 70
     9
 71
     3
 72
   395
 73
   391
 74
     0
 42
0.0000000001
 43
0.0000000001
 40
0.0
 40
0.0
 40
0.0
 40
0.0
 40
1.0
 40
1.0
 40
1.0
 40
2.0
 40
2.0
 40
2.0
 40
3.0
 40
3.0
 40
3.0
 40
4.0
 40
4.0
 40
4.0
 40
5.0
 40
5.0
 40
5.0
 40
6.0
 40
6.0
 40
6.0
 40
7.0
 40
7.0
 40
7.0
 40
8.0
 40
8.0
 40
8.0
 40
9.0
 40
9.0
 40
9.0
 40
10.0
 40
10.0
 40
10.0
 40
11.0
 40
11.0
 40
11.0
 40
12.0
 40
12.0
 40
12.0
 40
13.0
 40
13.0
 40
13.0
 40
14.0
 40
14.0
 40
14.0
 40
15.0
 40
15.0
 40
15.0
 40
16.0
 40
16.0
 40
16.0
 40
17.0
 40
17.0
 40
17.0
 40
18.0
 40
18.0
 40
18.0
 40
19.0
 40
19.0
 40
19.0
 40
20.0
 40
20.0
 40
20.0
 40
21.0
 40
21.0
 40
21.0
 40
22.0
 40
22.0
 40
22.0
 40
23.0
 40
23.0
 40
23.0
 40
24.0
 40
24.0
 40
24.0
 40
25.0
 40
25.0
 40
25.0
 40
26.0
 40
26.0
 40
26.0
 40
27.0
 40
27.0
 40
27.0
 40
28.0
 40
28.0
 40
28.0
 40
29.0
 40
29.0
 40
29.0
 40
30.0
 40
30.0
 40
30.0
 40
31.0
 40
31.0
 40
31.0
 40
32.0
 40
32.0
 40
32.0
 40
33.0
 40
33.0
 40
33.0
 40
34.0
 40
34.0
 40
34.0
 40
35.0
 40
35.0
 40
35.0
 40
36.0
 40
36.0
 40
36.0
 40
37.0
 40
37.0
 40
37.0
 40
38.0
 40
38.0
 40
38.0
 40
39.0
 40
39.0
 40
39.0
 40
40.0
 40
40.0
 40
40.0
 40
41.0
 40
41.0
 40
41.0
 40
42.0
 40
42.0
 40
42.0
 40
43.0
 40
43.0
 40
43.0
 40
44.0
 40
44.0
 40
44.0
 40
45.0
 40
45.0
 40
45.0
 40
46.0
 40
46.0
 40
46.0
 40
47.0
 40
47.0
 40
47.0
 40
48.0
 40
48.0
 40
48.0
 40
49.0
 40
49.0
 40
49.0
 40
50.0
 40
50.0
 40
50.0
 40
51.0
 40
51.0
 40
51.0
 40
52.0
 40
52.0
 40
52.0
 40
53.0
 40
53.0
 40
53.0
 40
54.0
 40
54.0
 40
54.0
 40
55.0
 40
55.0
 40
55.0
 40
56.0
 40
56.0
 40
56.0
 40
57.0
 40
57.0
 40
57.0
 40
58.0
 40
58.0
 40
58.0
 40
59.0
 40
59.0
 40
59.0
 40
60.0
 40
60.0
 40
60.0
 40
61.0
 40
61.0
 40
61.0
 40
62.0
 40
62.0
 40
62.0
 40
63.0
 40
63.0
 40
63.0
 40
64.0
 40
64.0
 40
64.0
 40
65.0
 40
65.0
 40
65.0
 40
66.0
 40
66.0
 40
66.0
 40
67.0
 40
67.0
 40
67.0
 40
68.0
 40
68.0
 40
68.0
 40
69.0
 40
69.0
 40
69.0
 40
70.0
 40
70.0
 40
70.0
 40
71.0
 40
71.0
 40
71.0
 40
72.0
 40
72.0
 40
72.0
 40
73.0
 40
73.0
 40
73.0
 40
74.0
 40
74.0
 40
74.0
 40
75.0
 40
75.0
 40
75.0
 40
76.0
 40
76.0
 40
76.0
 40
77.0
 40
77.0
 40
77.0
 40
78.0
 40
78.0
 40
78.0
 40
79.0
 40
79.0
 40
79.0
 40
80.0
 40
80.0
 40
80.0
 40
81.0
 40
81.0
 40
81.0
 40
82.0
 40
82.0
 40
82.0
 40
83.0
 40
83.0
 40
83.0
 40
84.0
 40
84.0
 40
84.0
 40
85.0
 40
85.0
 40
85.0
 40
86.0
 40
86.0
 40
86.0
 40
87.0
 40
87.0
 40
87.0
 40
88.0
 40
88.0
 40
88.0
 40
89.0
 40
89.0
 40
89.0
 40
90.0
 40
90.0
 40
90.0
 40
91.0
 40
91.0
 40
91.0
 40
92.0
 40
92.0
 40
92.0
 40
93.0
 40
93.0
 40
93.0
 40
94.0
 40
94.0
 40
94.0
 40
95.0
 40
95.0
 40
95.0
 40
96.0
 40
96.0
 40
96.0
 40
97.0
 40
97.0
 40
97.0
 40
98.0
 40
98.0
 40
98.0
 40
99.0
 40
99.0
 40
99.0
 40
100.0
 40
100.0
 40
100.0
 40
101.0
 40
101.0
 40
101.0
 40
102.0
 40
102.0
 40
102.0
 40
103.0
 40
103.0
 40
103.0
 40
104.0
 40
104.0
 40
104.0
 40
105.0
 40
105.0
 40
105.0
 40
106.0
 40
106.0
 40
106.0
 40
107.0
 40
107.0
 40
107.0
 40
108.0
 40
108.0
 40
108.0
 40
109.0
 40
109.0
 40
109.0
 40
110.0
 40
110.0
 40
110.0
 40
111.0
 40
111.0
 40
111.0
 40
112.0
 40
112.0
 40
112.0
 40
113.0
 40
113.0
 40
113.0
 40
114.0
 40
114.0
 40
114.0
 40
115.0
 40
115.0
 40
115.0
 40
116.0
 40
116.0
 40
116.0
 40
117.0
 40
117.0
 40
117.0
 40
118.0
 40
118.0
 40
118.0
 40
119.0
 40
119.0
 40
119.0
 40
120.0
 40
120.0
 40
120.0
 40
121.0
 40
121.0
 40
121.0
 40
122.0
 40
122.0
 40
122.0
 40
123.0
 40
123.0
 40
123.0
 40
124.0
 40
124.0
 40
124.0
 40
125.0
 40
125.0
 40
125.0
 40
126.0
 40
126.0
 40
126.0
 40
127.0
 40
127.0
 40
127.0
 40
128.0
 40
128.0
 40
128.0
 40
129.0
 40
129.0
 40
129.0
 40
130.0
 40
130.0
 40
130.0
 40
130.0
 10
3.554454140884722
 20
-9.801941743796229
 30
0.0
 10
3.592043019019355
 20
-9.801941743796229
 30
0.0
 10
3.629632095230085
 20
-9.801988242162451
 30
0.0
 10
3.667220403895902
 20
-9.801842012476173
 30
0.0
 10
3.669861055521197
 20
-9.801831762037609
 30
0.0
 10
3.672496210534518
 20
-9.80039694823492
 30
0.0
 10
3.675133940537231
 20
-9.799624599973286
 30
0.0
 10
3.673817675284807
 20
-9.796925169263102
 30
0.0
 10
3.67314649439499
 20
-9.793526529893975
 30
0.0
 10
3.671090167286415
 20
-9.791629257899607
 30
0.0
 10
3.628277477491337
 20
-9.752129564316772
 30
0.0
 10
3.585312566207777
 20
-9.712794719574276
 30
0.0
 10
3.542367462534937
 20
-9.673438581650239
 30
0.0
 10
3.509761659311758
 20
-9.64355766191703
 30
0.0
 10
3.47708031481314
 20
-9.613758547616145
 30
0.0
 10
3.444611778332374
 20
-9.583729268878515
 30
0.0
 10
3.44088455546062
 20
-9.580282051344029
 30
0.0
 10
3.43840937166351
 20
-9.579801048276824
 30
0.0
 10
3.434400286490977
 20
-9.583110900030835
 30
0.0
 10
3.411233243075103
 20
-9.60223707943871
 30
0.0
 10
3.384159717910329
 20
-9.611409860173099
 30
0.0
 10
3.354469372151899
 20
-9.612085497775321
 30
0.0
 10
3.329024713476251
 20
-9.612664498996663
 30
0.0
 10
3.305495692164034
 20
-9.605132729292739
 30
0.0
 10
3.284020973870206
 20
-9.591433562871946
 30
0.0
 10
3.261301242013662
 20
-9.576940185539164
 30
0.0
 10
3.244984642201264
 20
-9.556711192644039
 30
0.0
 10
3.234911921242705
 20
-9.532129947720376
 30
0.0
 10
3.223608742220423
 20
-9.504545918528139
 30
0.0
 10
3.222617334937543
 20
-9.475978367184273
 30
0.0
 10
3.231374046749856
 20
-9.447160571438315
 30
0.0
 10
3.240011130651863
 20
-9.418736439575948
 30
0.0
 10
3.256781714712461
 20
-9.396258082025875
 30
0.0
 10
3.28085947493072
 20
-9.379404640253621
 30
0.0
 10
3.295728825474775
 20
-9.368996681673225
 30
0.0
 10
3.312024652055394
 20
-9.361218492912003
 30
0.0
 10
3.330533471565786
 20
-9.359375914682788
 30
0.0
 10
3.332680678468376
 20
-9.359162178183193
 30
0.0
 10
3.33479572276302
 20
-9.358591706614207
 30
0.0
 10
3.336944043843736
 20
-9.358429073750331
 30
0.0
 10
3.345841288333
 20
-9.357755553086512
 30
0.0
 10
3.348578452541636
 20
-9.353415457979078
 30
0.0
 10
3.348957706388445
 20
-9.344205797949472
 30
0.0
 10
3.352143909132438
 20
-9.26683309224586
 30
0.0
 10
3.423443780890794
 20
-9.210307745963872
 30
0.0
 10
3.499144185728836
 20
-9.22509735849495
 30
0.0
 10
3.544452931590815
 20
-9.23394933253515
 30
0.0
 10
3.575866366166691
 20
-9.259886012261478
 30
0.0
 10
3.593914219246092
 20
-9.30217723575452
 30
0.0
 10
3.60245600378097
 20
-9.322193067808736
 30
0.0
 10
3.604538600733273
 20
-9.342913078994266
 30
0.0
 10
3.60235783231024
 20
-9.364650025294748
 30
0.0
 10
3.600218164679492
 20
-9.385977189268386
 30
0.0
 10
3.592792043819347
 20
-9.404801067397126
 30
0.0
 10
3.581054053697066
 20
-9.422301339077723
 30
0.0
 10
3.578211810113493
 20
-9.426538867900818
 30
0.0
 10
3.579651922452057
 20
-9.429360065897981
 30
0.0
 10
3.583247028560208
 20
-9.432643177377535
 30
0.0
 10
3.61849202259739
 20
-9.464829777278989
 30
0.0
 10
3.653549834713102
 20
-9.497221262153971
 30
0.0
 10
3.688687694335713
 20
-9.529525345946618
 30
0.0
 10
3.705755516354908
 20
-9.545216638057707
 30
0.0
 10
3.722977342547589
 20
-9.560742115707398
 30
0.0
 10
3.73992225834215
 20
-9.576564534201553
 30
0.0
 10
3.745270907469249
 20
-9.581558825172578
 30
0.0
 10
3.747891602926731
 20
-9.581323485997522
 30
0.0
 10
3.75191393443894
 20
-9.574547946112007
 30
0.0
 10
3.77639044662083
 20
-9.533317859655248
 30
0.0
 10
3.806054076864281
 20
-9.496095447078761
 30
0.0
 10
3.840551556431794
 20
-9.462767507887166
 30
0.0
 10
3.870687845786429
 20
-9.433652870334803
 30
0.0
 10
3.903580265136952
 20
-9.408162691293732
 30
0.0
 10
3.939369745633762
 20
-9.386263557800601
 30
0.0
 10
3.969851133086446
 20
-9.367612389657677
 30
0.0
 10
4.001979919524071
 20
-9.352302183597403
 30
0.0
 10
4.035429923116831
 20
-9.340315372744978
 30
0.0
 10
4.060977333773179
 20
-9.331160455999526
 30
0.0
 10
4.087401082647525
 20
-9.323499354977304
 30
0.0
 10
4.11406777186754
 20
-9.318661346054971
 30
0.0
 10
4.146886209791975
 20
-9.312707246356314
 30
0.0
 10
4.180287684738408
 20
-9.308289870617601
 30
0.0
 10
4.213575761113386
 20
-9.307105332166454
 30
0.0
 10
4.242814072435319
 20
-9.306064900273238
 30
0.0
 10
4.272307802897659
 20
-9.309746584209934
 30
0.0
 10
4.301564139145335
 20
-9.312613773003274
 30
0.0
 10
4.318403084222483
 20
-9.314264044091764
 30
0.0
 10
4.335215586139282
 20
-9.317560494759163
 30
0.0
 10
4.351643028103378
 20
-9.32169373032184
 30
0.0
 10
4.373552325376749
 20
-9.32720627504803
 30
0.0
 10
4.395666631421287
 20
-9.332753520232294
 30
0.0
 10
4.416618626867804
 20
-9.34101138742676
 30
0.0
 10
4.444092773339485
 20
-9.351839898722346
 30
0.0
 10
4.471639910856739
 20
-9.363397837663013
 30
0.0
 10
4.497095166604114
 20
-9.378188106321228
 30
0.0
 10
4.524960018197589
 20
-9.394378513083614
 30
0.0
 10
4.551294830899728
 20
-9.413554397214662
 30
0.0
 10
4.576822384426299
 20
-9.433331813724281
 30
0.0
 10
4.614108329914238
 20
-9.462219134183921
 30
0.0
 10
4.645523794770219
 20
-9.497110834724127
 30
0.0
 10
4.673042211251893
 20
-9.535398921517753
 30
0.0
 10
4.682166190985324
 20
-9.548093792555189
 30
0.0
 10
4.69101355743482
 20
-9.561054159855023
 30
0.0
 10
4.698963242965747
 20
-9.574498748958831
 30
0.0
 10
4.703081641390048
 20
-9.581463872438638
 30
0.0
 10
4.70628066956197
 20
-9.581040385721077
 30
0.0
 10
4.711310911346496
 20
-9.576365220118532
 30
0.0
 10
4.725539114290565
 20
-9.563141485874412
 30
0.0
 10
4.73981168628264
 20
-9.549965190858022
 30
0.0
 10
4.754127141752001
 20
-9.536835889398135
 30
0.0
 10
4.79127839548692
 20
-9.50276283740964
 30
0.0
 10
4.828392807065862
 20
-9.468648783666973
 30
0.0
 10
4.86571014761681
 20
-9.434758407368512
 30
0.0
 10
4.871088112007807
 20
-9.429874197194168
 30
0.0
 10
4.871745625646199
 20
-9.426165915350185
 30
0.0
 10
4.867691800032919
 20
-9.419732564319877
 30
0.0
 10
4.853576203355891
 20
-9.397331171717269
 30
0.0
 10
4.845433195544197
 20
-9.372580088911288
 30
0.0
 10
4.847110702097451
 20
-9.34609260904939
 30
0.0
 10
4.8497110452349
 20
-9.305036427225028
 30
0.0
 10
4.866771934590334
 20
-9.271080982925315
 30
0.0
 10
4.900992157126564
 20
-9.246641613108495
 30
0.0
 10
4.923722578903025
 20
-9.230407894219826
 30
0.0
 10
4.948923802042726
 20
-9.222223148058345
 30
0.0
 10
4.9767253683199
 20
-9.222681137157854
 30
0.0
 10
5.030617519458801
 20
-9.2235689220084
 30
0.0
 10
5.075469873209915
 20
-9.256173100388497
 30
0.0
 10
5.094618880889154
 20
-9.306377594358107
 30
0.0
 10
5.099502051163956
 20
-9.319180132139662
 30
0.0
 10
5.100209182867248
 20
-9.333676951044783
 30
0.0
 10
5.10200711969378
 20
-9.347502960452857
 30
0.0
 10
5.102691076492495
 20
-9.35276461702953
 30
0.0
 10
5.10347387326879
 20
-9.355842385484518
 30
0.0
 10
5.10943200257826
 20
-9.356827677941332
 30
0.0
 10
5.128909816595751
 20
-9.360048680181458
 30
0.0
 10
5.147620085697174
 20
-9.365127722966942
 30
0.0
 10
5.164725146024541
 20
-9.37598866922508
 30
0.0
 10
5.192671704012304
 20
-9.393733701075587
 30
0.0
 10
5.211171418211606
 20
-9.41834537544125
 30
0.0
 10
5.220384532193343
 20
-9.449703744859283
 30
0.0
 10
5.22951742535161
 20
-9.480789313958439
 30
0.0
 10
5.226290963638777
 20
-9.511580269607419
 30
0.0
 10
5.21220814855754
 20
-9.54041643691236
 30
0.0
 10
5.196367408023434
 20
-9.572851944202232
 30
0.0
 10
5.170783699920421
 20
-9.59526804395581
 30
0.0
 10
5.135874766758913
 20
-9.60585060662485
 30
0.0
 10
5.092419245716907
 20
-9.619024029537664
 30
0.0
 10
5.052608919278705
 20
-9.610957726698542
 30
0.0
 10
5.016822508961568
 20
-9.583427252333825
 30
0.0
 10
5.012224370205254
 20
-9.579889910170473
 30
0.0
 10
5.009762680342949
 20
-9.580081623082907
 30
0.0
 10
5.005943178764684
 20
-9.583602574448326
 30
0.0
 10
4.959930891328844
 20
-9.626015992329989
 30
0.0
 10
4.913830658101359
 20
-9.668334209882534
 30
0.0
 10
4.867785985221972
 20
-9.710712246419511
 30
0.0
 10
4.838628290875754
 20
-9.737548043116197
 30
0.0
 10
4.809486343580096
 20
-9.764401320029366
 30
0.0
 10
4.780475819781637
 20
-9.791395726169032
 30
0.0
 10
4.778352939100992
 20
-9.793370990630666
 30
0.0
 10
4.777357606661502
 20
-9.796558035198131
 30
0.0
 10
4.775838065803857
 20
-9.799181701797225
 30
0.0
 10
4.778696997299473
 20
-9.800058832319665
 30
0.0
 10
4.781554047072075
 20
-9.801694841928412
 30
0.0
 10
4.784415256442924
 20
-9.801702220263399
 30
0.0
 10
4.858510279190315
 20
-9.801893116111866
 30
0.0
 10
4.932605896166023
 20
-9.801838496625274
 30
0.0
 10
5.00670101795145
 20
-9.802009188710774
 30
0.0
 10
5.030535515950355
 20
-9.802064105311551
 30
0.0
 10
5.054548084369798
 20
-9.818791583059287
 30
0.0
 10
5.062079136047814
 20
-9.839996323618782
 30
0.0
 10
5.071197173498021
 20
-9.865668967894002
 30
0.0
 10
5.065407606955937
 20
-9.890102002370339
 30
0.0
 10
5.045464512162248
 20
-9.906911681702618
 30
0.0
 10
5.033374540797189
 20
-9.917102053679046
 30
0.0
 10
5.019169908909916
 20
-9.921938428473493
 30
0.0
 10
5.003094250112503
 20
-9.921888067623184
 30
0.0
 10
4.931706234486378
 20
-9.921664241621884
 30
0.0
 10
4.860317327517779
 20
-9.921723070225754
 30
0.0
 10
4.788928717663338
 20
-9.921680731457803
 30
0.0
 10
4.775691588522451
 20
-9.921672857932536
 30
0.0
 10
4.776042678422754
 20
-9.921747235510842
 30
0.0
 10
4.773374296142441
 20
-9.93472592485063
 30
0.0
 10
4.767239780059374
 20
-9.964563713511475
 30
0.0
 10
4.761704444201086
 20
-9.994579275478674
 30
0.0
 10
4.754004235527367
 20
-10.0240200205823
 30
0.0
 10
4.749406393885212
 20
-10.04159897799655
 30
0.0
 10
4.741083136815809
 20
-10.05819275437177
 30
0.0
 10
4.734596441413865
 20
-10.07529068395931
 30
0.0
 10
4.724036409902029
 20
-10.10312463568
 30
0.0
 10
4.709433050810654
 20
-10.1288433326502
 30
0.0
 10
4.693953799172504
 20
-10.15414557460465
 30
0.0
 10
4.67502049637417
 20
-10.18509417407558
 30
0.0
 10
4.652744758302181
 20
-10.21342341510275
 30
0.0
 10
4.627858971363441
 20
-10.23976060471818
 30
0.0
 10
4.604445087978521
 20
-10.26453982671114
 30
0.0
 10
4.579387172902493
 20
-10.28745733137099
 30
0.0
 10
4.551500235823064
 20
-10.30715887235174
 30
0.0
 10
4.545859721551778
 20
-10.31114396555575
 30
0.0
 10
4.544847453605067
 20
-10.31421592790485
 30
0.0
 10
4.550800631011851
 20
-10.31960726243308
 30
0.0
 10
4.595792628418672
 20
-10.36035221098389
 30
0.0
 10
4.640519005765503
 20
-10.40139100543997
 30
0.0
 10
4.685227457224628
 20
-10.44244792385987
 30
0.0
 10
4.718146220697412
 20
-10.47267770513718
 30
0.0
 10
4.750880179162044
 20
-10.50310843462539
 30
0.0
 10
4.783763090859413
 20
-10.53337743497195
 30
0.0
 10
4.796872956101323
 20
-10.54544512277496
 30
0.0
 10
4.810270229774965
 20
-10.55720202916548
 30
0.0
 10
4.823305915514638
 20
-10.56934805606895
 30
0.0
 10
4.827372616074904
 20
-10.57313715296474
 30
0.0
 10
4.830393969978532
 20
-10.57280864374067
 30
0.0
 10
4.834454134027256
 20
-10.56939519818249
 30
0.0
 10
4.866885531237913
 20
-10.54213002200408
 30
0.0
 10
4.904695388029797
 20
-10.53470385162492
 30
0.0
 10
4.944720428968417
 20
-10.54450525164553
 30
0.0
 10
4.987974110456989
 20
-10.55509737148673
 30
0.0
 10
5.01806642691579
 20
-10.58245693093029
 30
0.0
 10
5.034071570618985
 20
-10.6247877758347
 30
0.0
 10
5.044130865731403
 20
-10.65139226915701
 30
0.0
 10
5.045051919630623
 20
-10.67865011651944
 30
0.0
 10
5.036757284558714
 20
-10.70502424732889
 30
0.0
 10
5.026063353598348
 20
-10.73902589288064
 30
0.0
 10
5.005071247740084
 20
-10.76579369995349
 30
0.0
 10
4.971983624385757
 20
-10.78193898250262
 30
0.0
 10
4.958226050272792
 20
-10.78865217793337
 30
0.0
 10
4.944211769524675
 20
-10.79377502029807
 30
0.0
 10
4.928967436149857
 20
-10.79509915907579
 30
0.0
 10
4.92232792503109
 20
-10.79567585766239
 30
0.0
 10
4.919716093479412
 20
-10.79882913025353
 30
0.0
 10
4.919360150714484
 20
-10.80547141443781
 30
0.0
 10
4.916875484023724
 20
-10.85186688010334
 30
0.0
 10
4.896401743338452
 20
-10.8883708211194
 30
0.0
 10
4.856479305823464
 20
-10.91217441924555
 30
0.0
 10
4.82503254494251
 20
-10.93092450164459
 30
0.0
 10
4.791017034063239
 20
-10.93544935224114
 30
0.0
 10
4.755176053778515
 20
-10.92449812041733
 30
0.0
 10
4.719823925326762
 20
-10.91369623797843
 30
0.0
 10
4.694333610108388
 20
-10.89170048048416
 30
0.0
 10
4.677622622196596
 20
-10.85928889088427
 30
0.0
 10
4.666753096767049
 20
-10.83820715558742
 30
0.0
 10
4.662620634939154
 20
-10.81559696600811
 30
0.0
 10
4.664812049952943
 20
-10.79186437816646
 30
0.0
 10
4.666833218552483
 20
-10.7699765721507
 30
0.0
 10
4.672910886792704
 20
-10.74954304091519
 30
0.0
 10
4.685731560917828
 20
-10.7314311597341
 30
0.0
 10
4.688884041204573
 20
-10.72697751749812
 30
0.0
 10
4.688752023479006
 20
-10.72322248969282
 30
0.0
 10
4.684501607329189
 20
-10.71936426423554
 30
0.0
 10
4.649943268877677
 20
-10.68799425784621
 30
0.0
 10
4.615490802105568
 20
-10.65650778270573
 30
0.0
 10
4.580917310831864
 20
-10.62515461278551
 30
0.0
 10
4.579333791391541
 20
-10.62371856100713
 30
0.0
 10
4.576901614869231
 20
-10.62321831979802
 30
0.0
 10
4.574864798257244
 20
-10.62228211307655
 30
0.0
 10
4.574108642717393
 20
-10.62443094172727
 30
0.0
 10
4.572940191760077
 20
-10.62652728020955
 30
0.0
 10
4.572659022725651
 20
-10.62873662111107
 30
0.0
 10
4.569250330994059
 20
-10.65551423295121
 30
0.0
 10
4.567866769384131
 20
-10.68271305363365
 30
0.0
 10
4.562250420397933
 20
-10.70901082610372
 30
0.0
 10
4.551869251611075
 20
-10.75762008938318
 30
0.0
 10
4.534671095513228
 20
-10.80372765142664
 30
0.0
 10
4.501500379231856
 20
-10.8421884853454
 30
0.0
 10
4.476762158993096
 20
-10.87087208452865
 30
0.0
 10
4.446603982228629
 20
-10.89189875466763
 30
0.0
 10
4.411778538146336
 20
-10.9068645930355
 30
0.0
 10
4.379775480517865
 20
-10.920617611398
 30
0.0
 10
4.3463569710262
 20
-10.92930542754301
 30
0.0
 10
4.312169926237958
 20
-10.93371004594241
 30
0.0
 10
4.265786246100812
 20
-10.93968620017765
 30
0.0
 10
4.219053258748342
 20
-10.94299090195288
 30
0.0
 10
4.172283330201858
 20
-10.93683707344934
 30
0.0
 10
4.147689507445369
 20
-10.93360110408336
 30
0.0
 10
4.122830757895295
 20
-10.93146346673269
 30
0.0
 10
4.098642892120854
 20
-10.92626476121889
 30
0.0
 10
4.05962120570411
 20
-10.91787802075704
 30
0.0
 10
4.022996141148395
 20
-10.90296031488328
 30
0.0
 10
3.990245346214628
 20
-10.87948096734488
 30
0.0
 10
3.955890778558593
 20
-10.85485188704127
 30
0.0
 10
3.931107396967364
 20
-10.82256488731291
 30
0.0
 10
3.913168782861172
 20
-10.78458716102005
 30
0.0
 10
3.901097331612163
 20
-10.75903088645787
 30
0.0
 10
3.892922681142282
 20
-10.73222079013612
 30
0.0
 10
3.888251650378454
 20
-10.70450073217714
 30
0.0
 10
3.884042929249239
 20
-10.67952422638124
 30
0.0
 10
3.881532413626473
 20
-10.65426259002879
 30
0.0
 10
3.878165912105739
 20
-10.62914109252228
 30
0.0
 10
3.877866470550442
 20
-10.62690709114541
 30
0.0
 10
3.876777101478965
 20
-10.6247787633718
 30
0.0
 10
3.876054569358327
 20
-10.62260141176163
 30
0.0
 10
3.873754311523523
 20
-10.62370756778318
 30
0.0
 10
3.871035964545121
 20
-10.62435032475158
 30
0.0
 10
3.86921792299371
 20
-10.62599089011079
 30
0.0
 10
3.848970731856196
 20
-10.64426182640611
 30
0.0
 10
3.828863630045664
 20
-10.66268785629351
 30
0.0
 10
3.808716615899457
 20
-10.68106981424699
 30
0.0
 10
3.794574229428917
 20
-10.693973284185
 30
0.0
 10
3.780462099083782
 20
-10.70691032802319
 30
0.0
 10
3.766267519558949
 20
-10.7197560587759
 30
0.0
 10
3.760743870190986
 20
-10.72475480645936
 30
0.0
 10
3.763520501063996
 20
-10.72914575760736
 30
0.0
 10
3.766631880558457
 20
-10.73397970596948
 30
0.0
 10
3.781868786079232
 20
-10.75765257386479
 30
0.0
 10
3.789708539370596
 20
-10.78385526980332
 30
0.0
 10
3.7865770056322
 20
-10.81167555427262
 30
0.0
 10
3.78102859675083
 20
-10.8609653080189
 30
0.0
 10
3.756861974638923
 20
-10.89796978735828
 30
0.0
 10
3.710408670750034
 20
-10.91899160463264
 30
0.0
 10
3.678613196882072
 20
-10.93338044729977
 30
0.0
 10
3.646145106072556
 20
-10.93387702410091
 30
0.0
 10
3.614255199420413
 20
-10.92210199374654
 30
0.0
 10
3.578328031269468
 20
-10.90883624260818
 30
0.0
 10
3.553085954932637
 20
-10.88287519952064
 30
0.0
 10
3.539455694237681
 20
-10.84703105001818
 30
0.0
 10
3.534946194539416
 20
-10.83517223347043
 30
0.0
 10
3.533737732208414
 20
-10.82186765941499
 30
0.0
 10
3.532314976288741
 20
-10.8090800639998
 30
0.0
 10
3.530944586739956
 20
-10.79676289933958
 30
0.0
 10
3.531416280230132
 20
-10.79591800570362
 30
0.0
 10
3.518911166103533
 20
-10.79445630306936
 30
0.0
 10
3.490996151735897
 20
-10.7911934943908
 30
0.0
 10
3.467511802775763
 20
-10.77906866163084
 30
0.0
 10
3.447544047506754
 20
-10.75972068650177
 30
0.0
 10
3.429451057834385
 20
-10.74218936639136
 30
0.0
 10
3.418403734338956
 20
-10.72101017764966
 30
0.0
 10
3.412444020420631
 20
-10.69638347425936
 30
0.0
 10
3.405502901289132
 20
-10.667701459685
 30
0.0
 10
3.408716005244463
 20
-10.64055037534442
 30
0.0
 10
3.42110846358499
 20
-10.61442294832669
 30
0.0
 10
3.436888295716041
 20
-10.58115378821996
 30
0.0
 10
3.462362542010244
 20
-10.55844693750027
 30
0.0
 10
3.497731779285762
 20
-10.54717561468694
 30
0.0
 10
3.54162148315509
 20
-10.53318896555578
 30
0.0
 10
3.581254556236722
 20
-10.54183459148996
 30
0.0
 10
3.617176995320606
 20
-10.56964625964858
 30
0.0
 10
3.621435185957655
 20
-10.57294293934147
 30
0.0
 10
3.624007204211743
 20
-10.57231068040677
 30
0.0
 10
3.62755989727341
 20
-10.56905520054422
 30
0.0
 10
3.651436808318799
 20
-10.5471761098772
 30
0.0
 10
3.67544477146872
 20
-10.52544012919775
 30
0.0
 10
3.699394648800155
 20
-10.50364066512588
 30
0.0
 10
3.733679394628375
 20
-10.47243436863927
 30
0.0
 10
3.768060900635014
 20
-10.44133315152764
 30
0.0
 10
3.80219372208886
 20
-10.40996136245331
 30
0.0
 10
3.829996773936853
 20
-10.38440736576639
 30
0.0
 10
3.857468939647459
 20
-10.35849356383045
 30
0.0
 10
3.885156562643841
 20
-10.33281339266313
 30
0.0
 10
3.889495023623415
 20
-10.32878937750403
 30
0.0
 10
3.894314314353575
 20
-10.32528739192586
 30
0.0
 10
3.898708583276377
 20
-10.32131943230512
 30
0.0
 10
3.907295479644694
 20
-10.31356574308244
 30
0.0
 10
3.907053529679564
 20
-10.31279889143277
 30
0.0
 10
3.897953764750253
 20
-10.30584216142806
 30
0.0
 10
3.887280829857242
 20
-10.29768271329943
 30
0.0
 10
3.876739268942451
 20
-10.28933816304847
 30
0.0
 10
3.86638122554114
 20
-10.28078266174316
 30
0.0
 10
3.839424008190639
 20
-10.2585164313243
 30
0.0
 10
3.815544447877325
 20
-10.23318784524758
 30
0.0
 10
3.793748450137324
 20
-10.20594257571795
 30
0.0
 10
3.768936496067605
 20
-10.17492732363689
 30
0.0
 10
3.746729094252638
 20
-10.14205966379978
 30
0.0
 10
3.730178845101969
 20
-10.10588621276886
 30
0.0
 10
3.718229309697032
 20
-10.07976829340428
 30
0.0
 10
3.70618509391276
 20
-10.05337603863101
 30
0.0
 10
3.697905066953782
 20
-10.02598132067836
 30
0.0
 10
3.688588953396194
 20
-9.995158598573677
 30
0.0
 10
3.683037325778084
 20
-9.963154451526607
 30
0.0
 10
3.676786390462918
 20
-9.931479110817765
 30
0.0
 10
3.675205594569079
 20
-9.923468813997992
 30
0.0
 10
3.672328984780885
 20
-9.921709254417262
 30
0.0
 10
3.664770846195172
 20
-9.921730795193928
 30
0.0
 10
3.592848693586044
 20
-9.921935754446041
 30
0.0
 10
3.520925327760753
 20
-9.921818196276312
 30
0.0
 10
3.449002580923307
 20
-9.92166795554888
 30
0.0
 10
3.422400910185514
 20
-9.921612395200755
 30
0.0
 10
3.402245094032296
 20
-9.910486905921464
 30
0.0
 10
3.39001414199783
 20
-9.88629958485631
 30
0.0
 10
3.37507286506727
 20
-9.856752522402048
 30
0.0
 10
3.391988973167978
 20
-9.815792413679647
 30
0.0
 10
3.42367193980696
 20
-9.806067074884266
 30
0.0
 10
3.432027780396032
 20
-9.803502187370035
 30
0.0
 10
3.441043263941638
 20
-9.802311799483806
 30
0.0
 10
3.449807463185556
 20
-9.802015279551065
 30
0.0
 10
3.467363889442594
 20
-9.801421199786091
 30
0.0
 10
3.484955944639447
 20
-9.801889154589717
 30
0.0
 10
3.502533292685307
 20
-9.801901336270349
 30
0.0
 10
3.519840242085112
 20
-9.801913319874831
 30
0.0
 10
3.53714721624442
 20
-9.80190391125974
 30
0.0
 10
3.55445416564425
 20
-9.80190391125974
 30
0.0
 10
3.55445416564425
 20
-9.801916538611571
 30
0.0
 10
3.55445416564425
 20
-9.801929116444398
 30
0.0
 10
3.554454140884722
 20
-9.801941743796229
 30
0.0
  0
HATCH
  5
91
330
7C
100
AcDbEntity
  8
Layer 3
 62
    18
420
        0
440
 33554687
100
AcDbHatch
 10
0.0
 20
0.0
 30
0.0
210
0.0
220
0.0
230
1.0
  2
SOLID
 70
     1
 71
     1
 91
       17
 92
        1
 93
        1
 72
     4
 94
        3
 73
     0
 74
     0
 95
       44
 96
       40
 40
0.0
 40
0.0
 40
0.0
 40
0.0
 40
1.0
 40
1.0
 40
1.0
 40
2.0
 40
2.0
 40
2.0
 40
3.0
 40
3.0
 40
3.0
 40
4.0
 40
4.0
 40
4.0
 40
5.0
 40
5.0
 40
5.0
 40
6.0
 40
6.0
 40
6.0
 40
7.0
 40
7.0
 40
7.0
 40
8.0
 40
8.0
 40
8.0
 40
9.0
 40
9.0
 40
9.0
 40
10.0
 40
10.0
 40
10.0
 40
11.0
 40
11.0
 40
11.0
 40
12.0
 40
12.0
 40
12.0
 40
13.0
 40
13.0
 40
13.0
 40
13.0
 10
4.392364108483231
 20
-10.40353319854107
 10
4.392225158093929
 20
-10.40354983693411
 10
4.392086207704601
 20
-10.4035664753271
 10
4.391947257315274
 20
-10.40358311372013
 10
4.392841570940037
 20
-10.41081615989464
 10
4.393837299531721
 20
-10.41803841092127
 10
4.394611083845145
 20
-10.42528433204274
 10
4.396819236290007
 20
-10.44596288342306
 10
4.398919833408601
 20
-10.46665282417952
 10
4.401101938845335
 20
-10.48733424766338
 10
4.401705971934764
 20
-10.49305924139447
 10
4.402841047067997
 20
-10.49748089433913
 10
4.410664756194642
 20
-10.49459878793896
 10
4.428044746159027
 20
-10.48819637392067
 10
4.44595478778673
 20
-10.4831412735847
 10
4.463058758695524
 20
-10.4761032333379
 10
4.487121737484256
 20
-10.46620180488306
 10
4.50894853605895
 20
-10.45224070756979
 10
4.528387725235486
 20
-10.43488092136835
 10
4.530781474992964
 20
-10.43274328401771
 10
4.532859590473359
 20
-10.42730322276702
 10
4.531812560169858
 20
-10.42471902283235
 10
4.521616295429212
 20
-10.39955503800082
 10
4.510735281585438
 20
-10.37466796356739
 10
4.500017680530214
 20
-10.34971572209464
 10
4.497863999014851
 20
-10.34470152447481
 10
4.494513640696873
 20
-10.34356545896104
 10
4.489672759670989
 20
-10.34645321053027
 10
4.484387692974349
 20
-10.34960588889309
 10
4.479155908750574
 20
-10.35301874022295
 10
4.473502321456205
 20
-10.35535326522434
 10
4.448190769924697
 20
-10.36580514718151
 10
4.422671238480461
 20
-10.37575639177733
 10
4.397432083766185
 20
-10.38637653938773
 10
4.394768653388533
 20
-10.38749715496515
 10
4.392723121427833
 20
-10.39159247752291
 10
4.391738485098104
 20
-10.39473059729185
 10
4.390919044241956
 20
-10.39734223076741
 10
4.392080265421378
 20
-10.40057532802984
 10
4.392364108483231
 20
-10.40353319854107
 97
        0
 97
        1
330
80
 92
        1
 93
        1
 72
     4
 94
        3
 73
     0
 74
     0
 95
       35
 96
       31
 40
0.0
 40
0.0
 40
0.0
 40
0.0
 40
1.0
 40
1.0
 40
1.0
 40
2.0
 40
2.0
 40
2.0
 40
3.0
 40
3.0
 40
3.0
 40
4.0
 40
4.0
 40
4.0
 40
5.0
 40
5.0
 40
5.0
 40
6.0
 40
6.0
 40
6.0
 40
7.0
 40
7.0
 40
7.0
 40
8.0
 40
8.0
 40
8.0
 40
9.0
 40
9.0
 40
9.0
 40
10.0
 40
10.0
 40
10.0
 40
10.0
 10
4.058880401062575
 20
-10.40291648858081
 10
4.059708260153304
 20
-10.38907582154082
 10
4.059708260153304
 20
-10.38907582154082
 10
4.045926817869409
 20
-10.38420057431032
 10
4.045672488147551
 20
-10.38411064775758
 10
4.0454166728549
 20
-10.38402200869953
 10
4.045170761367595
 20
-10.38391207645994
 10
4.017186717476558
 20
-10.37140872025879
 10
3.989137556065189
 20
-10.35904718655054
 10
3.961279389540347
 20
-10.34626929686457
 10
3.956089894565517
 20
-10.34388881820629
 10
3.953316482429247
 20
-10.34455544334565
 10
3.951124621744206
 20
-10.34965788387128
 10
3.940316549426951
 20
-10.3748178081426
 10
3.929279451610581
 20
-10.39988166550185
 10
3.918823162460006
 20
-10.42518618533156
 10
3.917859670754751
 20
-10.42751793726741
 10
3.919431355147657
 20
-10.43256174726528
 10
3.921515511949312
 20
-10.43421073085907
 10
3.932679576550526
 20
-10.44304413294301
 10
3.943973727635238
 20
-10.45183970249046
 10
3.955977733969726
 20
-10.4594591951504
 10
3.982551773090537
 20
-10.4763268612631
 10
4.011831977509144
 20
-10.48702574412616
 10
4.042010060922418
 20
-10.49551607839213
 10
4.047956899893758
 20
-10.49718912823297
 10
4.04925479358725
 20
-10.49432098619837
 10
4.049748597322907
 20
-10.48963599106898
 10
4.052773417558429
 20
-10.46093565445466
 10
4.055793583005449
 20
-10.43223482265009
 10
4.058880401062575
 20
-10.40291648858081
 97
        0
 97
        1
330
81
 92
        1
 93
        1
 72
     4
 94
        3
 73
     0
 74
     0
 95
       38
 96
       34
 40
0.0
 40
0.0
 40
0.0
 40
0.0
 40
1.0
 40
1.0
 40
1.0
 40
2.0
 40
2.0
 40
2.0
 40
3.0
 40
3.0
 40
3.0
 40
4.0
 40
4.0
 40
4.0
 40
5.0
 40
5.0
 40
5.0
 40
6.0
 40
6.0
 40
6.0
 40
7.0
 40
7.0
 40
7.0
 40
8.0
 40
8.0
 40
8.0
 40
9.0
 40
9.0
 40
9.0
 40
10.0
 40
10.0
 40
10.0
 40
11.0
 40
11.0
 40
11.0
 40
11.0
 10
4.21332202561987
 20
-10.46423570144139
 10
4.213276765229339
 20
-10.46423570144139
 10
4.213231603876869
 20
-10.46423570144139
 10
4.213186343486313
 20
-10.46423570144139
 10
4.213186343486313
 20
-10.45018230066208
 10
4.212906263870536
 20
-10.43612087780042
 10
4.213314102575572
 20
-10.42207936158759
 10
4.213495837404075
 20
-10.41582193927989
 10
4.211638180631199
 20
-10.41322011057163
 10
4.205161389034603
 20
-10.41334103603518
 10
4.198700641602701
 20
-10.4134615653465
 10
4.192169081962447
 20
-10.41301094220226
 10
4.185760626622898
 20
-10.41213584195993
 10
4.158225076557906
 20
-10.40837635744219
 10
4.130459064942038
 20
-10.40564785906329
 10
4.103295897958913
 20
-10.40003329276204
 10
4.082706777941085
 20
-10.39577772663344
 10
4.083101345546942
 20
-10.394094376835
 10
4.080874177795774
 20
-10.41471459480168
 10
4.078207479162352
 20
-10.4394034940897
 10
4.075801250610108
 20
-10.46412844322925
 10
4.07259162536641
 20
-10.48874771876553
 10
4.070953932110746
 20
-10.50130940838027
 10
4.071066637415823
 20
-10.50281954062279
 10
4.08358435413475
 20
-10.50502095848002
 10
4.12382767494364
 20
-10.51209861394831
 10
4.164383956002185
 20
-10.51565388199934
 10
4.205271816464447
 20
-10.51576074405928
 10
4.212117623849053
 20
-10.51577866994699
 10
4.213496530670454
 20
-10.51312415299415
 10
4.213398780111472
 20
-10.50720722351505
 10
4.213162475315382
 20
-10.49288691518106
 10
4.21332202561987
 20
-10.4785599712975
 10
4.21332202561987
 20
-10.46423570144139
 97
        0
 97
        1
330
82
 92
        1
 93
        1
 72
     4
 94
        3
 73
     0
 74
     0
 95
       41
 96
       37
 40
0.0
 40
0.0
 40
0.0
 40
0.0
 40
1.0
 40
1.0
 40
1.0
 40
2.0
 40
2.0
 40
2.0
 40
3.0
 40
3.0
 40
3.0
 40
4.0
 40
4.0
 40
4.0
 40
5.0
 40
5.0
 40
5.0
 40
6.0
 40
6.0
 40
6.0
 40
7.0
 40
7.0
 40
7.0
 40
8.0
 40
8.0
 40
8.0
 40
9.0
 40
9.0
 40
9.0
 40
10.0
 40
10.0
 40
10.0
 40
11.0
 40
11.0
 40
11.0
 40
12.0
 40
12.0
 40
12.0
 40
12.0
 10
4.23730854703116
 20
-10.46450765993679
 10
4.23730854703116
 20
-10.47883490093451
 10
4.237430363837221
 20
-10.49316372654112
 10
4.237247737666216
 20
-10.50748859062554
 10
4.237176133153399
 20
-10.51310692037282
 10
4.238771537160169
 20
-10.51618353751044
 10
4.245090660175264
 20
-10.51573053745288
 10
4.278747455224118
 20
-10.51331707912274
 10
4.312430891509393
 20
-10.51125887029113
 10
4.346068275099696
 20
-10.50860871101268
 10
4.354906331972162
 20
-10.5079124734953
 10
4.363595336573831
 20
-10.50544256347454
 10
4.372385855180507
 20
-10.50398630793322
 10
4.378147790105609
 20
-10.50303177917183
 10
4.379863327271499
 20
-10.49987355467801
 10
4.379135199500827
 20
-10.49427126909543
 10
4.377533952248919
 20
-10.48195123233166
 10
4.376360648426927
 20
-10.46957613041003
 10
4.374919050517569
 20
-10.4572344043125
 10
4.37285232441334
 20
-10.43954016660377
 10
4.370498486991512
 20
-10.42187643261559
 10
4.368687477141898
 20
-10.40415674212707
 10
4.367961231094239
 20
-10.39705056369934
 10
4.364720805015874
 20
-10.39540534355157
 10
4.358412576186639
 20
-10.39737223929771
 10
4.353525741503846
 20
-10.39889603879161
 10
4.348645047180399
 20
-10.40082044721271
 10
4.343620648641035
 20
-10.40146072822974
 10
4.310963444668004
 20
-10.40562210916932
 10
4.278287621540887
 20
-10.40966068292235
 10
4.245567132251531
 20
-10.41328131608881
 10
4.239306441688086
 20
-10.41397398823627
 10
4.237109480543267
 20
-10.41624126639918
 10
4.237220304125356
 20
-10.42233884128821
 10
4.237475624227752
 20
-10.43639095457284
 10
4.23730131725324
 20
-10.45045089186366
 10
4.23730854703116
 20
-10.46450765993679
 97
        0
 97
        1
330
83
 92
        1
 93
        1
 72
     4
 94
        3
 73
     0
 74
     0
 95
       32
 96
       28
 40
0.0
 40
0.0
 40
0.0
 40
0.0
 40
1.0
 40
1.0
 40
1.0
 40
2.0
 40
2.0
 40
2.0
 40
3.0
 40
3.0
 40
3.0
 40
4.0
 40
4.0
 40
4.0
 40
5.0
 40
5.0
 40
5.0
 40
6.0
 40
6.0
 40
6.0
 40
7.0
 40
7.0
 40
7.0
 40
8.0
 40
8.0
 40
8.0
 40
9.0
 40
9.0
 40
9.0
 40
9.0
 10
4.541450943554082
 20
-10.45730739535805
 10
4.537669274512331
 20
-10.45911008601117
 10
4.535805576418144
 20
-10.45963221463019
 10
4.534385766880581
 20
-10.46072886299859
 10
4.499137232232972
 20
-10.48795432491748
 10
4.459285606926388
 20
-10.50558557442405
 10
4.416663193991957
 20
-10.51754164634056
 10
4.40408258810895
 20
-10.52107066930736
 10
4.404396241624959
 20
-10.52121823600737
 10
4.405860816362797
 20
-10.53324838838802
 10
4.40967695064723
 20
-10.56459640832943
 10
4.413464165819984
 20
-10.59595175708684
 10
4.416737076379982
 20
-10.62735900178434
 10
4.417502541496913
 20
-10.63470485230199
 10
4.420278974293801
 20
-10.63608960236858
 10
4.426606119391282
 20
-10.63399405619071
 10
4.467691956922812
 20
-10.6203867228052
 10
4.50532305002783
 20
-10.60082165626244
 10
4.537292632794181
 20
-10.57108052874198
 10
4.54686406645414
 20
-10.56217611637357
 10
4.553478322869245
 20
-10.552895062287
 10
4.551354352770001
 20
-10.53880650299867
 10
4.549912358708373
 20
-10.52924111065997
 10
4.550918981485993
 20
-10.51932066689884
 10
4.549677638521163
 20
-10.50970783533244
 10
4.547480875452467
 20
-10.4926980496127
 10
4.544405941961763
 20
-10.47580146438832
 10
4.541450943554082
 20
-10.45730739535805
 97
        0
 97
        1
330
84
 92
        1
 93
        1
 72
     4
 94
        3
 73
     0
 74
     0
 95
       35
 96
       31
 40
0.0
 40
0.0
 40
0.0
 40
0.0
 40
1.0
 40
1.0
 40
1.0
 40
2.0
 40
2.0
 40
2.0
 40
3.0
 40
3.0
 40
3.0
 40
4.0
 40
4.0
 40
4.0
 40
5.0
 40
5.0
 40
5.0
 40
6.0
 40
6.0
 40
6.0
 40
7.0
 40
7.0
 40
7.0
 40
8.0
 40
8.0
 40
8.0
 40
9.0
 40
9.0
 40
9.0
 40
10.0
 40
10.0
 40
10.0
 40
10.0
 10
3.9105351629377
 20
-10.45702672151393
 10
3.902233694240091
 20
-10.48964619198851
 10
3.898979303796118
 20
-10.52064936142703
 10
3.89996428675901
 20
-10.55207106568039
 10
3.900060106075948
 20
-10.55512807328336
 10
3.902286927193951
 20
-10.55861114259328
 10
3.904478738359961
 20
-10.56103282108188
 10
3.924968919362147
 20
-10.58367153362064
 10
3.949267559199622
 20
-10.60142450089521
 10
3.976742200861584
 20
-10.61447623079955
 10
3.992490093220339
 20
-10.6219572682605
 10
4.009033904897503
 20
-10.62777951736029
 10
4.025304123951374
 20
-10.63413152100924
 10
4.028999233734237
 20
-10.63557410929914
 10
4.033367752763069
 20
-10.63736422211943
 10
4.034118015538726
 20
-10.63043294489451
 10
4.037834468022158
 20
-10.59609664975937
 10
4.041815005475705
 20
-10.56178749105094
 10
4.045205919876656
 20
-10.52741989989085
 10
4.04546510246314
 20
-10.52479281647887
 10
4.042484354161514
 20
-10.52022854873692
 10
4.03995868571653
 20
-10.51923420667799
 10
4.030767607701742
 20
-10.51561585138673
 10
4.021100107129718
 20
-10.51322487469477
 10
4.011665742136023
 20
-10.51020401598139
 10
3.982253470472844
 20
-10.50078559611435
 10
3.954615217946209
 20
-10.48775832860924
 10
3.929431574061027
 20
-10.46971775482681
 10
3.923640175314933
 20
-10.46556895172004
 10
3.917605341032917
 20
-10.46176014625158
 10
3.9105351629377
 20
-10.45702672151393
 97
        0
 97
        1
330
85
 92
        1
 93
        1
 72
     4
 94
        3
 73
     0
 74
     0
 95
       35
 96
       31
 40
0.0
 40
0.0
 40
0.0
 40
0.0
 40
1.0
 40
1.0
 40
1.0
 40
2.0
 40
2.0
 40
2.0
 40
3.0
 40
3.0
 40
3.0
 40
4.0
 40
4.0
 40
4.0
 40
5.0
 40
5.0
 40
5.0
 40
6.0
 40
6.0
 40
6.0
 40
7.0
 40
7.0
 40
7.0
 40
8.0
 40
8.0
 40
8.0
 40
9.0
 40
9.0
 40
9.0
 40
10.0
 40
10.0
 40
10.0
 40
10.0
 10
4.213210805885586
 20
-10.60000201733017
 10
4.213246261508806
 20
-10.60000201733017
 10
4.213281717132026
 20
-10.60000201733017
 10
4.213317172755245
 20
-10.60000201733017
 10
4.213317172755245
 20
-10.58243603390095
 10
4.213163564733981
 20
-10.56486797067264
 10
4.213403335861938
 20
-10.54730525549919
 10
4.213483358609311
 20
-10.5414413113788
 10
4.21150398406846
 20
-10.53927118954652
 10
4.205458602233698
 20
-10.53920938980102
 10
4.162455387982845
 20
-10.53876916565241
 10
4.11968233816876
 20
-10.5356884879546
 10
4.077464297607522
 20
-10.52694194224376
 10
4.071555588286855
 20
-10.5257177328622
 10
4.068289511352556
 20
-10.52765679891523
 10
4.067663689891357
 20
-10.53414844621989
 10
4.064709582826152
 20
-10.56479101810492
 10
4.061296533420192
 20
-10.59539080555078
 10
4.058524953487903
 20
-10.62604902544831
 10
4.056924498540436
 20
-10.64375306792435
 10
4.057336001653462
 20
-10.64377119188819
 10
4.075076193019109
 20
-10.64703885343134
 10
4.117941447261172
 20
-10.65493456322299
 10
4.161217907502102
 20
-10.65859520776318
 10
4.204739387887861
 20
-10.66002511918224
 10
4.211160916250491
 20
-10.66023616927461
 10
4.213404029128317
 20
-10.65826610431077
 10
4.213303901656041
 20
-10.65188825172981
 10
4.213032537388951
 20
-10.63459660370932
 10
4.213210805885586
 20
-10.617297923987
 10
4.213210805885586
 20
-10.60000201733017
 97
        0
 97
        1
330
86
 92
        1
 93
        1
 72
     4
 94
        3
 73
     0
 74
     0
 95
       35
 96
       31
 40
0.0
 40
0.0
 40
0.0
 40
0.0
 40
1.0
 40
1.0
 40
1.0
 40
2.0
 40
2.0
 40
2.0
 40
3.0
 40
3.0
 40
3.0
 40
4.0
 40
4.0
 40
4.0
 40
5.0
 40
5.0
 40
5.0
 40
6.0
 40
6.0
 40
6.0
 40
7.0
 40
7.0
 40
7.0
 40
8.0
 40
8.0
 40
8.0
 40
9.0
 40
9.0
 40
9.0
 40
10.0
 40
10.0
 40
10.0
 40
10.0
 10
4.23729200767621
 20
-10.59979255184665
 10
4.23729200767621
 20
-10.61682650285148
 10
4.237470375210881
 20
-10.63386342499792
 10
4.23720010036239
 20
-10.65089301832838
 10
4.237098586357356
 20
-10.65728770737847
 10
4.238802437032896
 20
-10.66030678340689
 10
4.245907427003986
 20
-10.65999669526081
 10
4.292900983475697
 20
-10.65794640947352
 10
4.339753707835066
 20
-10.65505737040959
 10
4.385870579455564
 20
-10.64467214106253
 10
4.393458280900278
 20
-10.6429633384843
 10
4.394739041010502
 20
-10.63999596031989
 10
4.39396139421299
 20
-10.63322066802953
 10
4.390141298406407
 20
-10.59993813778556
 10
4.386518783516925
 20
-10.56663124418037
 10
4.383158620431609
 20
-10.53329939298565
 10
4.382536166264243
 20
-10.52712456841477
 10
4.379223145292497
 20
-10.52608031117673
 10
4.374420790069481
 20
-10.52689816742402
 10
4.368842273619798
 20
-10.52784814043495
 10
4.363411026755935
 20
-10.53000558539634
 10
4.357818347864546
 20
-10.53047393635218
 10
4.320409099999778
 20
-10.53360660902818
 10
4.282985689693355
 20
-10.53659963804848
 10
4.245535737188522
 20
-10.53918641297256
 10
4.239171452820906
 20
-10.53962604289288
 10
4.237104429602519
 20
-10.54167484310937
 10
4.237207330140336
 20
-10.54788126081939
 10
4.237493946267654
 20
-10.56518083188421
 10
4.237306962422331
 20
-10.58248822695524
 10
4.23729200767621
 20
-10.59979255184665
 97
        0
 97
        1
330
87
 92
        1
 93
        1
 72
     4
 94
        3
 73
     0
 74
     0
 95
       38
 96
       34
 40
0.0
 40
0.0
 40
0.0
 40
0.0
 40
1.0
 40
1.0
 40
1.0
 40
2.0
 40
2.0
 40
2.0
 40
3.0
 40
3.0
 40
3.0
 40
4.0
 40
4.0
 40
4.0
 40
5.0
 40
5.0
 40
5.0
 40
6.0
 40
6.0
 40
6.0
 40
7.0
 40
7.0
 40
7.0
 40
8.0
 40
8.0
 40
8.0
 40
9.0
 40
9.0
 40
9.0
 40
10.0
 40
10.0
 40
10.0
 40
11.0
 40
11.0
 40
11.0
 40
11.0
 10
4.226201429310827
 20
-9.827692430057746
 10
4.226201429310827
 20
-9.827709959793258
 10
4.226201429310827
 20
-9.827727489528745
 10
4.226201429310827
 20
-9.827745019264257
 10
4.053137382405717
 20
-9.827745019264257
 10
3.880073434538669
 20
-9.827747891367808
 10
3.707009437152565
 20
-9.827743781288592
 10
3.619936616407888
 20
-9.827741701489458
 10
3.532863572827586
 20
-9.827835341969223
 10
3.445791197754159
 20
-9.82763627548133
 10
3.425781995059651
 20
-9.827590519900518
 10
3.416330248887561
 20
-9.838128614483416
 10
3.410611556452648
 20
-9.853031365611084
 10
3.405962982567491
 20
-9.865145452742252
 10
3.412467269603742
 20
-9.880797129631849
 10
3.4246487521304
 20
-9.889918286780735
 10
3.434721169784931
 20
-9.897460133606626
 10
3.446415855518226
 20
-9.896642574473464
 10
3.458028017793316
 20
-9.896641633611958
 10
3.91448534522778
 20
-9.896605039051134
 10
4.370942672662269
 20
-9.896601622238272
 10
4.827399950577702
 20
-9.896590480457259
 10
4.887161096777768
 20
-9.896589044405446
 10
4.946922044901738
 20
-9.896611327967573
 10
5.006683191101804
 20
-9.896533434538316
 10
5.025609363160254
 20
-9.89650877406297
 10
5.041850019355099
 20
-9.879464424062486
 10
5.041064251437192
 20
-9.861099797768398
 10
5.04017924738951
 20
-9.840419067550934
 10
5.025582622885748
 20
-9.827680396934256
 10
5.001743371060279
 20
-9.827681932024081
 10
4.743229390477128
 20
-9.827698669455129
 10
4.484715409893977
 20
-9.827692430057746
 10
4.226201429310827
 20
-9.827692430057746
 97
        0
 97
        1
330
88
 92
        1
 93
        1
 72
     4
 94
        3
 73
     0
 74
     0
 95
       71
 96
       67
 40
0.0
 40
0.0
 40
0.0
 40
0.0
 40
1.0
 40
1.0
 40
1.0
 40
2.0
 40
2.0
 40
2.0
 40
3.0
 40
3.0
 40
3.0
 40
4.0
 40
4.0
 40
4.0
 40
5.0
 40
5.0
 40
5.0
 40
6.0
 40
6.0
 40
6.0
 40
7.0
 40
7.0
 40
7.0
 40
8.0
 40
8.0
 40
8.0
 40
9.0
 40
9.0
 40
9.0
 40
10.0
 40
10.0
 40
10.0
 40
11.0
 40
11.0
 40
11.0
 40
12.0
 40
12.0
 40
12.0
 40
13.0
 40
13.0
 40
13.0
 40
14.0
 40
14.0
 40
14.0
 40
15.0
 40
15.0
 40
15.0
 40
16.0
 40
16.0
 40
16.0
 40
17.0
 40
17.0
 40
17.0
 40
18.0
 40
18.0
 40
18.0
 40
19.0
 40
19.0
 40
19.0
 40
20.0
 40
20.0
 40
20.0
 40
21.0
 40
21.0
 40
21.0
 40
22.0
 40
22.0
 40
22.0
 40
22.0
 10
3.546245941274188
 20
-9.42927008982623
 10
3.548970403852409
 20
-9.426389939427609
 10
3.550631197734092
 20
-9.424646275454506
 10
3.552278992871227
 20
-9.422890380281765
 10
3.577932597080638
 20
-9.395554193818851
 10
3.586042402384868
 20
-9.36283679946867
 10
3.578640496328842
 20
-9.326970700657586
 10
3.568864598607054
 20
-9.279601208113868
 10
3.525796563950077
 20
-9.24637658727685
 10
3.477374705427715
 20
-9.246609462880339
 10
3.440283914424551
 20
-9.246787842794748
 10
3.411160932916168
 20
-9.262307371971372
 10
3.39058050348755
 20
-9.292895562680136
 10
3.374484975180621
 20
-9.316817950761787
 10
3.369439877688035
 20
-9.343299921631947
 10
3.375431692315512
 20
-9.37177960146265
 10
3.377386356861986
 20
-9.38107027462019
 10
3.376749740252913
 20
-9.381498762759443
 10
3.367145933529172
 20
-9.380825192576594
 10
3.350535803495302
 20
-9.37966019557138
 10
3.33420220008707
 20
-9.380545348176156
 10
3.31843900634903
 20
-9.386552154689018
 10
3.264957002739795
 20
-9.406932304413581
 10
3.237145295894429
 20
-9.464389355054258
 10
3.256367333305964
 20
-9.519265226420884
 10
3.267730823408025
 20
-9.551706180803698
 10
3.290865735165349
 20
-9.574413799068299
 10
3.32392051502514
 20
-9.583977359202991
 10
3.365163847821577
 20
-9.595910082898322
 10
3.40172666696056
 20
-9.585902361852378
 10
3.431610334999756
 20
-9.554301943431154
 10
3.439246664128833
 20
-9.546226925243292
 10
3.439113433187129
 20
-9.546089509943813
 10
3.447218856057487
 20
-9.553142504936708
 10
3.448030670983497
 20
-9.55384891861412
 10
3.448685386796872
 20
-9.554733551269084
 10
3.449480266215712
 20
-9.555462099951505
 10
3.48647454463556
 20
-9.589368990845388
 10
3.523499574371069
 20
-9.623242357358119
 10
3.560469761784335
 20
-9.657175443817196
 10
3.58966283747524
 20
-9.683970337797719
 10
3.618757196986128
 20
-9.710872836623567
 10
3.647963840890345
 20
-9.737652874896031
 10
3.657801340281543
 20
-9.746673013230166
 10
3.667849047941647
 20
-9.755463828951
 10
3.679235799606557
 20
-9.765642266842
 10
3.681008927400625
 20
-9.759594260498817
 10
3.682482167968171
 20
-9.755131902914095
 10
3.683621204623553
 20
-9.750585858174037
 10
3.688397760433569
 20
-9.731522171778022
 10
3.691560540677881
 20
-9.711892581943301
 10
3.698139787140992
 20
-9.693479872674135
 10
3.708177244362559
 20
-9.665388966723133
 10
3.720369769632219
 20
-9.638055503806702
 10
3.732088051181815
 20
-9.610588438555875
 10
3.73441296949199
 20
-9.605138795373527
 10
3.733840331465595
 20
-9.6015260357323
 10
3.729655726102439
 20
-9.597777074007781
 10
3.722230694660866
 20
-9.591125009815691
 10
3.714967937070266
 20
-9.584292077378096
 10
3.707618521182717
 20
-9.577555310890575
 10
3.66725610711425
 20
-9.540557343303236
 10
3.626872622699895
 20
-9.50358250110144
 10
3.586530783787086
 20
-9.466562150913961
 10
3.573256639173652
 20
-9.454380965501462
 10
3.560085469376543
 20
-9.442087569974116
 10
3.546245941274188
 20
-9.42927008982623
 97
        0
 97
        1
330
89
 92
        1
 93
        1
 72
     4
 94
        3
 73
     0
 74
     0
 95
       68
 96
       64
 40
0.0
 40
0.0
 40
0.0
 40
0.0
 40
1.0
 40
1.0
 40
1.0
 40
2.0
 40
2.0
 40
2.0
 40
3.0
 40
3.0
 40
3.0
 40
4.0
 40
4.0
 40
4.0
 40
5.0
 40
5.0
 40
5.0
 40
6.0
 40
6.0
 40
6.0
 40
7.0
 40
7.0
 40
7.0
 40
8.0
 40
8.0
 40
8.0
 40
9.0
 40
9.0
 40
9.0
 40
10.0
 40
10.0
 40
10.0
 40
11.0
 40
11.0
 40
11.0
 40
12.0
 40
12.0
 40
12.0
 40
13.0
 40
13.0
 40
13.0
 40
14.0
 40
14.0
 40
14.0
 40
15.0
 40
15.0
 40
15.0
 40
16.0
 40
16.0
 40
16.0
 40
17.0
 40
17.0
 40
17.0
 40
18.0
 40
18.0
 40
18.0
 40
19.0
 40
19.0
 40
19.0
 40
20.0
 40
20.0
 40
20.0
 40
21.0
 40
21.0
 40
21.0
 40
21.0
 10
4.771971124997864
 20
-9.765731549647398
 10
4.790126285808455
 20
-9.749060474071256
 10
4.806572346926637
 20
-9.733920823919156
 10
4.82305960787514
 20
-9.718826236081515
 10
4.883743689697439
 20
-9.663268116322594
 10
4.944506506772439
 20
-9.607795565442048
 10
5.005020936408805
 20
-9.552053432979391
 10
5.010352154838452
 20
-9.547142556809097
 10
5.01323257759173
 20
-9.547329738730542
 10
5.017845968208297
 20
-9.552665537670185
 10
5.03328223733115
 20
-9.57051949899998
 10
5.052596836636135
 20
-9.581955125944405
 10
5.075980315338584
 20
-9.586356946518789
 10
5.113772840471104
 20
-9.593471246066908
 10
5.146657039663169
 20
-9.583388454176276
 10
5.172319978209139
 20
-9.555283336264588
 10
5.201618405629637
 20
-9.52319654196175
 10
5.208358341334839
 20
-9.485596868679268
 10
5.192242473087642
 20
-9.444768876720445
 10
5.180292145378264
 20
-9.414493129406485
 10
5.157973325752891
 20
-9.395185957955517
 10
5.127319463529702
 20
-9.384956664023976
 10
5.112340155986556
 20
-9.379958040138085
 10
5.097021940223688
 20
-9.379852156078943
 10
5.081591613384059
 20
-9.381043546725448
 10
5.076179976054819
 20
-9.381461375894179
 10
5.073831387649836
 20
-9.379880505721782
 10
5.075146414926621
 20
-9.374240560919309
 10
5.07582066599606
 20
-9.371348922106461
 10
5.076226920092267
 20
-9.368394629344921
 10
5.076748058330722
 20
-9.365467485389848
 10
5.080962325590967
 20
-9.341793268101051
 10
5.075783823840083
 20
-9.319664601538734
 10
5.064330469084072
 20
-9.299130057678388
 10
5.038560173287931
 20
-9.252927183888004
 10
4.98144096620788
 20
-9.233252951103091
 10
4.931300970770735
 20
-9.255472158563582
 10
4.898782816225042
 20
-9.269882350121127
 10
4.878674922110045
 20
-9.295173679320061
 10
4.871743644885125
 20
-9.329276145610466
 10
4.864482570941441
 20
-9.365001152334292
 10
4.873893364878338
 20
-9.397289650013261
 10
4.899852823356998
 20
-9.423818490642309
 10
4.903764430325205
 20
-9.42781586456499
 10
4.903830587745056
 20
-9.430375775417031
 10
4.899580468709372
 20
-9.434257918564247
 10
4.858744306111146
 20
-9.471557803658216
 10
4.818077894736916
 20
-9.509043286064802
 10
4.777354140329609
 20
-9.546466201180994
 10
4.758505911219395
 20
-9.563786793072695
 10
4.739498726033034
 20
-9.580939738299017
 10
4.720962070639668
 20
-9.598587254805933
 10
4.718710638565349
 20
-9.600730586844671
 10
4.717218333172468
 20
-9.60616430965989
 10
4.718299729680615
 20
-9.608928734092765
 10
4.72887867746067
 20
-9.635972684018774
 10
4.741114928031038
 20
-9.662408267940538
 10
4.75076004600295
 20
-9.689764311533204
 10
4.757885140698918
 20
-9.709972630234636
 10
4.761811504337123
 20
-9.731304139502828
 10
4.767287516401261
 20
-9.75210242789007
 10
4.768348412032259
 20
-9.756131791104078
 10
4.769984421641033
 20
-9.760009675614986
 10
4.771971124997864
 20
-9.765731549647398
 97
        0
 97
        1
330
8A
 92
        1
 93
        1
 72
     4
 94
        3
 73
     0
 74
     0
 95
       62
 96
       58
 40
0.0
 40
0.0
 40
0.0
 40
0.0
 40
1.0
 40
1.0
 40
1.0
 40
2.0
 40
2.0
 40
2.0
 40
3.0
 40
3.0
 40
3.0
 40
4.0
 40
4.0
 40
4.0
 40
5.0
 40
5.0
 40
5.0
 40
6.0
 40
6.0
 40
6.0
 40
7.0
 40
7.0
 40
7.0
 40
8.0
 40
8.0
 40
8.0
 40
9.0
 40
9.0
 40
9.0
 40
10.0
 40
10.0
 40
10.0
 40
11.0
 40
11.0
 40
11.0
 40
12.0
 40
12.0
 40
12.0
 40
13.0
 40
13.0
 40
13.0
 40
14.0
 40
14.0
 40
14.0
 40
15.0
 40
15.0
 40
15.0
 40
16.0
 40
16.0
 40
16.0
 40
17.0
 40
17.0
 40
17.0
 40
18.0
 40
18.0
 40
18.0
 40
19.0
 40
19.0
 40
19.0
 40
19.0
 10
4.892185099164913
 20
-10.76964647831778
 10
4.896426700927981
 20
-10.7700736294433
 10
4.899066065058554
 20
-10.7703212245775
 10
4.901701071514808
 20
-10.77060744455265
 10
4.922031008946153
 20
-10.77281638930198
 10
4.941302823811964
 20
-10.76961587555918
 10
4.959863149300139
 20
-10.76068046427998
 10
5.01671574593969
 20
-10.73331080295492
 10
5.034289058184867
 20
-10.66394484727081
 10
5.003021160028866
 20
-10.61222866120933
 10
4.96739737019589
 20
-10.55330785289475
 10
4.882334180117468
 20
-10.54615502754374
 10
4.836632872170184
 20
-10.59750695164378
 10
4.829526891818582
 20
-10.60549149856964
 10
4.82950490537064
 20
-10.6055019966033
 10
4.821511544058036
 20
-10.59818674884425
 10
4.778919634844164
 20
-10.55920754975255
 10
4.736359021655212
 20
-10.52019418253232
 10
4.693735222188049
 20
-10.4812500429116
 10
4.660472994745077
 20
-10.45085912672094
 10
4.627123217662629
 20
-10.42056407936626
 10
4.593833358602674
 20
-10.39020327074392
 10
4.572306249178457
 20
-10.37057026409633
 10
4.550914722849685
 20
-10.35078602634078
 10
4.529159825901993
 20
-10.33140923113804
 10
4.526987327156448
 20
-10.32947432468328
 10
4.522709378427685
 20
-10.32990325849376
 10
4.519408638174581
 20
-10.32923504874558
 10
4.519685647610736
 20
-10.3323332561789
 10
4.519030708961736
 20
-10.3359288327178
 10
4.520379013024567
 20
-10.33845539250526
 10
4.541820949722628
 20
-10.37863562607395
 10
4.557505210131921
 20
-10.42086990887603
 10
4.566569271842859
 20
-10.46553508070567
 10
4.574086062041133
 20
-10.50257481759217
 10
4.576166059244567
 20
-10.54002813739079
 10
4.574552729350089
 20
-10.57768517846587
 10
4.574246305612001
 20
-10.58483770670273
 10
4.577192588670969
 20
-10.58936939092503
 10
4.581904125998739
 20
-10.59366685015036
 10
4.626150663975471
 20
-10.63402475798736
 10
4.670413048040826
 20
-10.67436523512692
 10
4.714607392963267
 20
-10.71478018888284
 10
4.722476065366309
 20
-10.72197589771112
 10
4.722335233253968
 20
-10.72211910673675
 10
4.715114467798128
 20
-10.73041948601576
 10
4.68829417055685
 20
-10.76124983405058
 10
4.68020107792419
 20
-10.79639309124713
 10
4.693030467398052
 20
-10.83521283907243
 10
4.714436651358735
 20
-10.89998422137015
 10
4.794378682719348
 20
-10.92602964487944
 10
4.850621502062393
 20
-10.8871387877316
 10
4.885895786603946
 20
-10.8627472997188
 10
4.902615985054707
 20
-10.82006952451236
 10
4.893185383507089
 20
-10.77867805554713
 10
4.89261076471962
 20
-10.77615605151017
 10
4.892595710935463
 20
-10.77350648646001
 10
4.892185099164913
 20
-10.76964647831778
 97
        0
 97
        1
330
8B
 92
        1
 93
        1
 72
     4
 94
        3
 73
     0
 74
     0
 95
       74
 96
       70
 40
0.0
 40
0.0
 40
0.0
 40
0.0
 40
1.0
 40
1.0
 40
1.0
 40
2.0
 40
2.0
 40
2.0
 40
3.0
 40
3.0
 40
3.0
 40
4.0
 40
4.0
 40
4.0
 40
5.0
 40
5.0
 40
5.0
 40
6.0
 40
6.0
 40
6.0
 40
7.0
 40
7.0
 40
7.0
 40
8.0
 40
8.0
 40
8.0
 40
9.0
 40
9.0
 40
9.0
 40
10.0
 40
10.0
 40
10.0
 40
11.0
 40
11.0
 40
11.0
 40
12.0
 40
12.0
 40
12.0
 40
13.0
 40
13.0
 40
13.0
 40
14.0
 40
14.0
 40
14.0
 40
15.0
 40
15.0
 40
15.0
 40
16.0
 40
16.0
 40
16.0
 40
17.0
 40
17.0
 40
17.0
 40
18.0
 40
18.0
 40
18.0
 40
19.0
 40
19.0
 40
19.0
 40
20.0
 40
20.0
 40
20.0
 40
21.0
 40
21.0
 40
21.0
 40
22.0
 40
22.0
 40
22.0
 40
23.0
 40
23.0
 40
23.0
 40
23.0
 10
3.554620970486161
 20
-10.79735138345457
 10
3.555767558793124
 20
-10.83105829175855
 10
3.565911704758011
 20
-10.85753859136154
 10
3.588771148358925
 20
-10.87769808430248
 10
3.616122859036724
 20
-10.90181959458098
 10
3.647640382607025
 20
-10.91084314972798
 10
3.684107134833943
 20
-10.90228329074832
 10
3.728066165340856
 20
-10.89196511016358
 10
3.760449033905185
 20
-10.85216676732989
 10
3.763134054578535
 20
-10.80882999291424
 10
3.765077478305935
 20
-10.77746275959041
 10
3.75505349025967
 20
-10.75051886285812
 10
3.733319589379334
 20
-10.7279198645789
 10
3.729762538643323
 20
-10.72422128846417
 10
3.728611419345396
 20
-10.72153547548638
 10
3.733256848772346
 20
-10.71732259475892
 10
3.779031543917375
 20
-10.67581049744429
 10
3.824675756426712
 20
-10.63415301226688
 10
3.870079108389493
 20
-10.59223584931272
 10
3.873237629997472
 20
-10.58931977286013
 10
3.875996434020837
 20
-10.58395369303555
 10
3.875877340761285
 20
-10.5798149918103
 10
3.874612129625499
 20
-10.53585566418923
 10
3.876906395658048
 20
-10.49220137377349
 10
3.88840213870104
 20
-10.44961273281534
 10
3.89476672018279
 20
-10.42603345588082
 10
3.902663519393071
 20
-10.40279595926949
 10
3.91120015394914
 20
-10.37990054009558
 10
3.916728755219789
 20
-10.3650728598126
 10
3.92480813108202
 20
-10.35120773037334
 10
3.931355734886968
 20
-10.33673549766503
 10
3.932313878537317
 20
-10.33461766792511
 10
3.931108090233742
 20
-10.33152074798648
 10
3.930903576652882
 20
-10.32887692714348
 10
3.928243513569062
 20
-10.32926337362894
 10
3.925525166590659
 20
-10.32943451138569
 10
3.922949582966616
 20
-10.33013272966415
 10
3.921775041168984
 20
-10.33045113700675
 10
3.920860919933501
 20
-10.33178636804647
 10
3.919865438936944
 20
-10.33270029120586
 10
3.887075226857809
 20
-10.36280409607886
 10
3.85428754024906
 20
-10.39291057497934
 10
3.821504013238558
 20
-10.42302160963032
 10
3.807018806545202
 20
-10.4363259856096
 10
3.792605006288542
 20
-10.44970879972743
 10
3.778050373919565
 20
-10.4629367183293
 10
3.751102911817345
 20
-10.48742764054799
 10
3.724030958881662
 20
-10.51178159313846
 10
3.697095232788822
 20
-10.53628539030415
 10
3.673739088589197
 20
-10.55753251915063
 10
3.650524370730231
 20
-10.5789351377414
 10
3.627183379352825
 20
-10.60019920209505
 10
3.623419611439253
 20
-10.60362780047545
 10
3.620566473669795
 20
-10.60458916286251
 10
3.616010450845806
 20
-10.59954228268498
 10
3.580095241539866
 20
-10.55975820133102
 10
3.526589115974679
 20
-10.55161301468211
 10
3.48154584161557
 20
-10.57848600016794
 10
3.430623049402129
 20
-10.60886681447712
 10
3.416646675469084
 20
-10.68223786905208
 10
3.453068489179132
 20
-10.72928381665418
 10
3.477942787703644
 20
-10.7614140391436
 10
3.510930580699853
 20
-10.77497294292086
 10
3.551210471310064
 20
-10.77022179037163
 10
3.558195055767403
 20
-10.76939789280305
 10
3.559254242992007
 20
-10.77160089526913
 10
3.557998589028405
 20
-10.77764182039146
 10
3.556414821992954
 20
-10.78526131305142
 10
3.555352168436481
 20
-10.79298915334213
 10
3.554620970486161
 20
-10.79735138345457
 97
        0
 97
        1
330
8C
 92
        1
 93
        1
 72
     4
 94
        3
 73
     0
 74
     0
 95
       59
 96
       55
 40
0.0
 40
0.0
 40
0.0
 40
0.0
 40
1.0
 40
1.0
 40
1.0
 40
2.0
 40
2.0
 40
2.0
 40
3.0
 40
3.0
 40
3.0
 40
4.0
 40
4.0
 40
4.0
 40
5.0
 40
5.0
 40
5.0
 40
6.0
 40
6.0
 40
6.0
 40
7.0
 40
7.0
 40
7.0
 40
8.0
 40
8.0
 40
8.0
 40
9.0
 40
9.0
 40
9.0
 40
10.0
 40
10.0
 40
10.0
 40
11.0
 40
11.0
 40
11.0
 40
12.0
 40
12.0
 40
12.0
 40
13.0
 40
13.0
 40
13.0
 40
14.0
 40
14.0
 40
14.0
 40
15.0
 40
15.0
 40
15.0
 40
16.0
 40
16.0
 40
16.0
 40
17.0
 40
17.0
 40
17.0
 40
18.0
 40
18.0
 40
18.0
 40
18.0
 10
4.548992295189691
 20
-10.59373578063572
 10
4.547824042308471
 20
-10.59402101023033
 10
4.546956567996276
 20
-10.59403606401449
 10
4.546322031186339
 20
-10.59442825470705
 10
4.544952433941968
 20
-10.5952746339138
 10
4.543630374963387
 20
-10.59623153958849
 10
4.542414286702245
 20
-10.59728768139295
 10
4.520041590375689
 20
-10.61671706580215
 10
4.494785698230316
 20
-10.63154276532406
 10
4.467690471352043
 20
-10.64318498564843
 10
4.426497375608328
 20
-10.66088457141207
 10
4.383173872291889
 20
-10.67105429395431
 10
4.338870486472337
 20
-10.67640888536465
 10
4.287301569996644
 20
-10.6826415481589
 10
4.235496942953229
 20
-10.68473719337478
 10
4.183499884971499
 20
-10.682204493228
 10
4.128295677697425
 20
-10.67951541199446
 10
4.073736010076698
 20
-10.67336326713782
 10
4.020727625009814
 20
-10.65684084768026
 10
3.979181755718879
 20
-10.64389112697118
 10
3.940687595495091
 20
-10.6252722699933
 10
3.907570607357835
 20
-10.59651528361228
 10
3.905963615898801
 20
-10.59511983743591
 10
3.903880498996689
 20
-10.59427256688667
 10
3.900396785939442
 20
-10.59220901000018
 10
3.900396785939442
 20
-10.59740939916092
 10
3.900340779920068
 20
-10.60058446012388
 10
3.900405402250119
 20
-10.6037570451355
 10
3.901105650808656
 20
-10.63814672178159
 10
3.905457927596696
 20
-10.67207349456475
 10
3.912276301440442
 20
-10.70579020763605
 10
3.91951548797427
 20
-10.74158820540548
 10
3.931856322729294
 20
-10.77519399585667
 10
3.951640362408751
 20
-10.80600829972683
 10
3.971215134680783
 20
-10.83649696647646
 10
3.997739011027407
 20
-10.85945002579759
 10
4.029350670267705
 20
-10.87637592628584
 10
4.071679484892001
 20
-10.89903979449023
 10
4.117764664335355
 20
-10.9094421574206
 10
4.165142983645611
 20
-10.91296454483783
 10
4.23736499872176
 20
-10.91833399195621
 10
4.309219384542656
 20
-10.91739629966395
 10
4.379152432122181
 20
-10.89422080087423
 10
4.404514195946881
 20
-10.88581603548664
 10
4.428256984708089
 20
-10.8744266593133
 10
4.449585720910792
 20
-10.85868931450727
 10
4.499856644654906
 20
-10.82159679033816
 10
4.525284863013666
 20
-10.76915851782728
 10
4.537733649247229
 20
-10.70970745977332
 10
4.542920569232667
 20
-10.68493675505296
 10
4.5459562836541
 20
-10.65965313225262
 10
4.548734102983744
 20
-10.63446626963067
 10
4.550195310427751
 20
-10.62121765207558
 10
4.548992295189691
 20
-10.60767508957719
 10
4.548992295189691
 20
-10.59373578063572
 97
        0
 97
        1
330
8D
 92
        1
 93
        1
 72
     4
 94
        3
 73
     0
 74
     0
 95
       17
 96
       13
 40
0.0
 40
0.0
 40
0.0
 40
0.0
 40
1.0
 40
1.0
 40
1.0
 40
2.0
 40
2.0
 40
2.0
 40
3.0
 40
3.0
 40
3.0
 40
4.0
 40
4.0
 40
4.0
 40
4.0
 10
3.748755214754838
 20
-9.635944854325694
 10
4.06701499063974
 20
-9.635944854325694
 10
4.384453443945454
 20
-9.635944854325694
 10
4.703508099249195
 20
-9.635944854325694
 10
4.666786769705291
 20
-9.557805885010868
 10
4.614957680262604
 20
-9.493328620973089
 10
4.547870986345919
 20
-9.441661904419383
 10
4.455475117810995
 20
-9.37050331044462
 10
4.350154585194609
 20
-9.333648948035135
 10
4.233641960207781
 20
-9.331910075027861
 10
3.990398260969514
 20
-9.328279835170178
 10
3.812511457002351
 20
-9.486442282265013
 10
3.748755214754838
 20
-9.635944854325694
 97
        0
 97
        1
330
8E
 92
        1
 93
        1
 72
     4
 94
        3
 73
     0
 74
     0
 95
       59
 96
       55
 40
0.0
 40
0.0
 40
0.0
 40
0.0
 40
1.0
 40
1.0
 40
1.0
 40
2.0
 40
2.0
 40
2.0
 40
3.0
 40
3.0
 40
3.0
 40
4.0
 40
4.0
 40
4.0
 40
5.0
 40
5.0
 40
5.0
 40
6.0
 40
6.0
 40
6.0
 40
7.0
 40
7.0
 40
7.0
 40
8.0
 40
8.0
 40
8.0
 40
9.0
 40
9.0
 40
9.0
 40
10.0
 40
10.0
 40
10.0
 40
11.0
 40
11.0
 40
11.0
 40
12.0
 40
12.0
 40
12.0
 40
13.0
 40
13.0
 40
13.0
 40
14.0
 40
14.0
 40
14.0
 40
15.0
 40
15.0
 40
15.0
 40
16.0
 40
16.0
 40
16.0
 40
17.0
 40
17.0
 40
17.0
 40
18.0
 40
18.0
 40
18.0
 40
18.0
 10
4.225397240314956
 20
-9.921664538736042
 10
4.053680408054055
 20
-9.921664538736042
 10
3.881963575793179
 20
-9.921664489216986
 10
3.710246743532277
 20
-9.921664588255048
 10
3.700083210868392
 20
-9.921664588255048
 10
3.699561577439655
 20
-9.922065048625098
 10
3.700863383136265
 20
-9.932292956023905
 10
3.706375197456812
 20
-9.97559709740085
 10
3.71770896376299
 20
-10.01736302924703
 10
3.733868161158675
 20
-10.05789999788511
 10
3.749708010350281
 20
-10.09763584770694
 10
3.770320552867815
 20
-10.13475828136825
 10
3.795191434579439
 20
-10.16944041738684
 10
3.828423405897031
 20
-10.2157821053892
 10
3.867622568505971
 20
-10.2565792469943
 10
3.914587899132381
 20
-10.28902213261916
 10
3.94069839064294
 20
-10.30705894295556
 10
3.968068002448944
 20
-10.32365732460031
 10
3.996277456950186
 20
-10.33816808311151
 10
4.027396550430542
 20
-10.35417570276607
 10
4.06065238991904
 20
-10.3653608624727
 10
4.094793183936214
 20
-10.37394211367197
 10
4.128221399157155
 20
-10.38234420503211
 10
4.161952769860413
 20
-10.38792212725348
 10
4.196328977331202
 20
-10.38933332048037
 10
4.23203120530272
 20
-10.3907989846368
 10
4.267763540842578
 20
-10.39062705457561
 10
4.303105963565055
 20
-10.38466516182011
 10
4.324643273908804
 20
-10.38103195082082
 10
4.34646541769497
 20
-10.37762930041049
 10
4.367208839000442
 20
-10.37110190036848
 10
4.395373973972659
 20
-10.36223888590651
 10
4.42298093047432
 20
-10.35131340397662
 10
4.450188961695756
 20
-10.33976824094485
 10
4.486346962790321
 20
-10.32442526566857
 10
4.519158963241276
 20
-10.30312049667484
 10
4.550180949909973
 20
-10.27912199165904
 10
4.581469844133354
 20
-10.25491659614911
 10
4.609585262002635
 20
-10.22735579138045
 10
4.634675760598307
 20
-10.19682067578363
 10
4.66490851301723
 20
-10.16002744461277
 10
4.690455378964265
 20
-10.12013996753075
 10
4.708886162678228
 20
-10.07616637842994
 10
4.719279513145693
 20
-10.05136893343511
 10
4.728717839661511
 20
-10.02602276810383
 10
4.736343472680775
 20
-10.00025994968074
 10
4.742596933466327
 20
-9.979132953993358
 10
4.746277682731387
 20
-9.957140167640721
 10
4.749671023564663
 20
-9.935309209467781
 10
4.751772412987671
 20
-9.921791109368642
 10
4.753390496708687
 20
-9.921641908540777
 10
4.737301170659899
 20
-9.921644037858918
 10
4.56666652721156
 20
-9.921666965168343
 10
4.396031883763245
 20
-9.92165824981963
 10
4.225397240314956
 20
-9.921664538736042
 97
        0
 97
        1
330
8F
 92
        1
 93
        1
 72
     4
 94
        3
 73
     0
 74
     0
 95
      395
 96
      391
 40
0.0
 40
0.0
 40
0.0
 40
0.0
 40
1.0
 40
1.0
 40
1.0
 40
2.0
 40
2.0
 40
2.0
 40
3.0
 40
3.0
 40
3.0
 40
4.0
 40
4.0
 40
4.0
 40
5.0
 40
5.0
 40
5.0
 40
6.0
 40
6.0
 40
6.0
 40
7.0
 40
7.0
 40
7.0
 40
8.0
 40
8.0
 40
8.0
 40
9.0
 40
9.0
 40
9.0
 40
10.0
 40
10.0
 40
10.0
 40
11.0
 40
11.0
 40
11.0
 40
12.0
 40
12.0
 40
12.0
 40
13.0
 40
13.0
 40
13.0
 40
14.0
 40
14.0
 40
14.0
 40
15.0
 40
15.0
 40
15.0
 40
16.0
 40
16.0
 40
16.0
 40
17.0
 40
17.0
 40
17.0
 40
18.0
 40
18.0
 40
18.0
 40
19.0
 40
19.0
 40
19.0
 40
20.0
 40
20.0
 40
20.0
 40
21.0
 40
21.0
 40
21.0
 40
22.0
 40
22.0
 40
22.0
 40
23.0
 40
23.0
 40
23.0
 40
24.0
 40
24.0
 40
24.0
 40
25.0
 40
25.0
 40
25.0
 40
26.0
 40
26.0
 40
26.0
 40
27.0
 40
27.0
 40
27.0
 40
28.0
 40
28.0
 40
28.0
 40
29.0
 40
29.0
 40
29.0
 40
30.0
 40
30.0
 40
30.0
 40
31.0
 40
31.0
 40
31.0
 40
32.0
 40
32.0
 40
32.0
 40
33.0
 40
33.0
 40
33.0
 40
34.0
 40
34.0
 40
34.0
 40
35.0
 40
35.0
 40
35.0
 40
36.0
 40
36.0
 40
36.0
 40
37.0
 40
37.0
 40
37.0
 40
38.0
 40
38.0
 40
38.0
 40
39.0
 40
39.0
 40
39.0
 40
40.0
 40
40.0
 40
40.0
 40
41.0
 40
41.0
 40
41.0
 40
42.0
 40
42.0
 40
42.0
 40
43.0
 40
43.0
 40
43.0
 40
44.0
 40
44.0
 40
44.0
 40
45.0
 40
45.0
 40
45.0
 40
46.0
 40
46.0
 40
46.0
 40
47.0
 40
47.0
 40
47.0
 40
48.0
 40
48.0
 40
48.0
 40
49.0
 40
49.0
 40
49.0
 40
50.0
 40
50.0
 40
50.0
 40
51.0
 40
51.0
 40
51.0
 40
52.0
 40
52.0
 40
52.0
 40
53.0
 40
53.0
 40
53.0
 40
54.0
 40
54.0
 40
54.0
 40
55.0
 40
55.0
 40
55.0
 40
56.0
 40
56.0
 40
56.0
 40
57.0
 40
57.0
 40
57.0
 40
58.0
 40
58.0
 40
58.0
 40
59.0
 40
59.0
 40
59.0
 40
60.0
 40
60.0
 40
60.0
 40
61.0
 40
61.0
 40
61.0
 40
62.0
 40
62.0
 40
62.0
 40
63.0
 40
63.0
 40
63.0
 40
64.0
 40
64.0
 40
64.0
 40
65.0
 40
65.0
 40
65.0
 40
66.0
 40
66.0
 40
66.0
 40
67.0
 40
67.0
 40
67.0
 40
68.0
 40
68.0
 40
68.0
 40
69.0
 40
69.0
 40
69.0
 40
70.0
 40
70.0
 40
70.0
 40
71.0
 40
71.0
 40
71.0
 40
72.0
 40
72.0
 40
72.0
 40
73.0
 40
73.0
 40
73.0
 40
74.0
 40
74.0
 40
74.0
 40
75.0
 40
75.0
 40
75.0
 40
76.0
 40
76.0
 40
76.0
 40
77.0
 40
77.0
 40
77.0
 40
78.0
 40
78.0
 40
78.0
 40
79.0
 40
79.0
 40
79.0
 40
80.0
 40
80.0
 40
80.0
 40
81.0
 40
81.0
 40
81.0
 40
82.0
 40
82.0
 40
82.0
 40
83.0
 40
83.0
 40
83.0
 40
84.0
 40
84.0
 40
84.0
 40
85.0
 40
85.0
 40
85.0
 40
86.0
 40
86.0
 40
86.0
 40
87.0
 40
87.0
 40
87.0
 40
88.0
 40
88.0
 40
88.0
 40
89.0
 40
89.0
 40
89.0
 40
90.0
 40
90.0
 40
90.0
 40
91.0
 40
91.0
 40
91.0
 40
92.0
 40
92.0
 40
92.0
 40
93.0
 40
93.0
 40
93.0
 40
94.0
 40
94.0
 40
94.0
 40
95.0
 40
95.0
 40
95.0
 40
96.0
 40
96.0
 40
96.0
 40
97.0
 40
97.0
 40
97.0
 40
98.0
 40
98.0
 40
98.0
 40
99.0
 40
99.0
 40
99.0
 40
100.0
 40
100.0
 40
100.0
 40
101.0
 40
101.0
 40
101.0
 40
102.0
 40
102.0
 40
102.0
 40
103.0
 40
103.0
 40
103.0
 40
104.0
 40
104.0
 40
104.0
 40
105.0
 40
105.0
 40
105.0
 40
106.0
 40
106.0
 40
106.0
 40
107.0
 40
107.0
 40
107.0
 40
108.0
 40
108.0
 40
108.0
 40
109.0
 40
109.0
 40
109.0
 40
110.0
 40
110.0
 40
110.0
 40
111.0
 40
111.0
 40
111.0
 40
112.0
 40
112.0
 40
112.0
 40
113.0
 40
113.0
 40
113.0
 40
114.0
 40
114.0
 40
114.0
 40
115.0
 40
115.0
 40
115.0
 40
116.0
 40
116.0
 40
116.0
 40
117.0
 40
117.0
 40
117.0
 40
118.0
 40
118.0
 40
118.0
 40
119.0
 40
119.0
 40
119.0
 40
120.0
 40
120.0
 40
120.0
 40
121.0
 40
121.0
 40
121.0
 40
122.0
 40
122.0
 40
122.0
 40
123.0
 40
123.0
 40
123.0
 40
124.0
 40
124.0
 40
124.0
 40
125.0
 40
125.0
 40
125.0
 40
126.0
 40
126.0
 40
126.0
 40
127.0
 40
127.0
 40
127.0
 40
128.0
 40
128.0
 40
128.0
 40
129.0
 40
129.0
 40
129.0
 40
130.0
 40
130.0
 40
130.0
 40
130.0
 10
3.554454140884722
 20
-9.801941743796229
 10
3.592043019019355
 20
-9.801941743796229
 10
3.629632095230085
 20
-9.801988242162451
 10
3.667220403895902
 20
-9.801842012476173
 10
3.669861055521197
 20
-9.801831762037609
 10
3.672496210534518
 20
-9.80039694823492
 10
3.675133940537231
 20
-9.799624599973286
 10
3.673817675284807
 20
-9.796925169263102
 10
3.67314649439499
 20
-9.793526529893975
 10
3.671090167286415
 20
-9.791629257899607
 10
3.628277477491337
 20
-9.752129564316772
 10
3.585312566207777
 20
-9.712794719574276
 10
3.542367462534937
 20
-9.673438581650239
 10
3.509761659311758
 20
-9.64355766191703
 10
3.47708031481314
 20
-9.613758547616145
 10
3.444611778332374
 20
-9.583729268878515
 10
3.44088455546062
 20
-9.580282051344029
 10
3.43840937166351
 20
-9.579801048276824
 10
3.434400286490977
 20
-9.583110900030835
 10
3.411233243075103
 20
-9.60223707943871
 10
3.384159717910329
 20
-9.611409860173099
 10
3.354469372151899
 20
-9.612085497775321
 10
3.329024713476251
 20
-9.612664498996663
 10
3.305495692164034
 20
-9.605132729292739
 10
3.284020973870206
 20
-9.591433562871946
 10
3.261301242013662
 20
-9.576940185539164
 10
3.244984642201264
 20
-9.556711192644039
 10
3.234911921242705
 20
-9.532129947720376
 10
3.223608742220423
 20
-9.504545918528139
 10
3.222617334937543
 20
-9.475978367184273
 10
3.231374046749856
 20
-9.447160571438315
 10
3.240011130651863
 20
-9.418736439575948
 10
3.256781714712461
 20
-9.396258082025875
 10
3.28085947493072
 20
-9.379404640253621
 10
3.295728825474775
 20
-9.368996681673225
 10
3.312024652055394
 20
-9.361218492912003
 10
3.330533471565786
 20
-9.359375914682788
 10
3.332680678468376
 20
-9.359162178183193
 10
3.33479572276302
 20
-9.358591706614207
 10
3.336944043843736
 20
-9.358429073750331
 10
3.345841288333
 20
-9.357755553086512
 10
3.348578452541636
 20
-9.353415457979078
 10
3.348957706388445
 20
-9.344205797949472
 10
3.352143909132438
 20
-9.26683309224586
 10
3.423443780890794
 20
-9.210307745963872
 10
3.499144185728836
 20
-9.22509735849495
 10
3.544452931590815
 20
-9.23394933253515
 10
3.575866366166691
 20
-9.259886012261478
 10
3.593914219246092
 20
-9.30217723575452
 10
3.60245600378097
 20
-9.322193067808736
 10
3.604538600733273
 20
-9.342913078994266
 10
3.60235783231024
 20
-9.364650025294748
 10
3.600218164679492
 20
-9.385977189268386
 10
3.592792043819347
 20
-9.404801067397126
 10
3.581054053697066
 20
-9.422301339077723
 10
3.578211810113493
 20
-9.426538867900818
 10
3.579651922452057
 20
-9.429360065897981
 10
3.583247028560208
 20
-9.432643177377535
 10
3.61849202259739
 20
-9.464829777278989
 10
3.653549834713102
 20
-9.497221262153971
 10
3.688687694335713
 20
-9.529525345946618
 10
3.705755516354908
 20
-9.545216638057707
 10
3.722977342547589
 20
-9.560742115707398
 10
3.73992225834215
 20
-9.576564534201553
 10
3.745270907469249
 20
-9.581558825172578
 10
3.747891602926731
 20
-9.581323485997522
 10
3.75191393443894
 20
-9.574547946112007
 10
3.77639044662083
 20
-9.533317859655248
 10
3.806054076864281
 20
-9.496095447078761
 10
3.840551556431794
 20
-9.462767507887166
 10
3.870687845786429
 20
-9.433652870334803
 10
3.903580265136952
 20
-9.408162691293732
 10
3.939369745633762
 20
-9.386263557800601
 10
3.969851133086446
 20
-9.367612389657677
 10
4.001979919524071
 20
-9.352302183597403
 10
4.035429923116831
 20
-9.340315372744978
 10
4.060977333773179
 20
-9.331160455999526
 10
4.087401082647525
 20
-9.323499354977304
 10
4.11406777186754
 20
-9.318661346054971
 10
4.146886209791975
 20
-9.312707246356314
 10
4.180287684738408
 20
-9.308289870617601
 10
4.213575761113386
 20
-9.307105332166454
 10
4.242814072435319
 20
-9.306064900273238
 10
4.272307802897659
 20
-9.309746584209934
 10
4.301564139145335
 20
-9.312613773003274
 10
4.318403084222483
 20
-9.314264044091764
 10
4.335215586139282
 20
-9.317560494759163
 10
4.351643028103378
 20
-9.32169373032184
 10
4.373552325376749
 20
-9.32720627504803
 10
4.395666631421287
 20
-9.332753520232294
 10
4.416618626867804
 20
-9.34101138742676
 10
4.444092773339485
 20
-9.351839898722346
 10
4.471639910856739
 20
-9.363397837663013
 10
4.497095166604114
 20
-9.378188106321228
 10
4.524960018197589
 20
-9.394378513083614
 10
4.551294830899728
 20
-9.413554397214662
 10
4.576822384426299
 20
-9.433331813724281
 10
4.614108329914238
 20
-9.462219134183921
 10
4.645523794770219
 20
-9.497110834724127
 10
4.673042211251893
 20
-9.535398921517753
 10
4.682166190985324
 20
-9.548093792555189
 10
4.69101355743482
 20
-9.561054159855023
 10
4.698963242965747
 20
-9.574498748958831
 10
4.703081641390048
 20
-9.581463872438638
 10
4.70628066956197
 20
-9.581040385721077
 10
4.711310911346496
 20
-9.576365220118532
 10
4.725539114290565
 20
-9.563141485874412
 10
4.73981168628264
 20
-9.549965190858022
 10
4.754127141752001
 20
-9.536835889398135
 10
4.79127839548692
 20
-9.50276283740964
 10
4.828392807065862
 20
-9.468648783666973
 10
4.86571014761681
 20
-9.434758407368512
 10
4.871088112007807
 20
-9.429874197194168
 10
4.871745625646199
 20
-9.426165915350185
 10
4.867691800032919
 20
-9.419732564319877
 10
4.853576203355891
 20
-9.397331171717269
 10
4.845433195544197
 20
-9.372580088911288
 10
4.847110702097451
 20
-9.34609260904939
 10
4.8497110452349
 20
-9.305036427225028
 10
4.866771934590334
 20
-9.271080982925315
 10
4.900992157126564
 20
-9.246641613108495
 10
4.923722578903025
 20
-9.230407894219826
 10
4.948923802042726
 20
-9.222223148058345
 10
4.9767253683199
 20
-9.222681137157854
 10
5.030617519458801
 20
-9.2235689220084
 10
5.075469873209915
 20
-9.256173100388497
 10
5.094618880889154
 20
-9.306377594358107
 10
5.099502051163956
 20
-9.319180132139662
 10
5.100209182867248
 20
-9.333676951044783
 10
5.10200711969378
 20
-9.347502960452857
 10
5.102691076492495
 20
-9.35276461702953
 10
5.10347387326879
 20
-9.355842385484518
 10
5.10943200257826
 20
-9.356827677941332
 10
5.128909816595751
 20
-9.360048680181458
 10
5.147620085697174
 20
-9.365127722966942
 10
5.164725146024541
 20
-9.37598866922508
 10
5.192671704012304
 20
-9.393733701075587
 10
5.211171418211606
 20
-9.41834537544125
 10
5.220384532193343
 20
-9.449703744859283
 10
5.22951742535161
 20
-9.480789313958439
 10
5.226290963638777
 20
-9.511580269607419
 10
5.21220814855754
 20
-9.54041643691236
 10
5.196367408023434
 20
-9.572851944202232
 10
5.170783699920421
 20
-9.59526804395581
 10
5.135874766758913
 20
-9.60585060662485
 10
5.092419245716907
 20
-9.619024029537664
 10
5.052608919278705
 20
-9.610957726698542
 10
5.016822508961568
 20
-9.583427252333825
 10
5.012224370205254
 20
-9.579889910170473
 10
5.009762680342949
 20
-9.580081623082907
 10
5.005943178764684
 20
-9.583602574448326
 10
4.959930891328844
 20
-9.626015992329989
 10
4.913830658101359
 20
-9.668334209882534
 10
4.867785985221972
 20
-9.710712246419511
 10
4.838628290875754
 20
-9.737548043116197
 10
4.809486343580096
 20
-9.764401320029366
 10
4.780475819781637
 20
-9.791395726169032
 10
4.778352939100992
 20
-9.793370990630666
 10
4.777357606661502
 20
-9.796558035198131
 10
4.775838065803857
 20
-9.799181701797225
 10
4.778696997299473
 20
-9.800058832319665
 10
4.781554047072075
 20
-9.801694841928412
 10
4.784415256442924
 20
-9.801702220263399
 10
4.858510279190315
 20
-9.801893116111866
 10
4.932605896166023
 20
-9.801838496625274
 10
5.00670101795145
 20
-9.802009188710774
 10
5.030535515950355
 20
-9.802064105311551
 10
5.054548084369798
 20
-9.818791583059287
 10
5.062079136047814
 20
-9.839996323618782
 10
5.071197173498021
 20
-9.865668967894002
 10
5.065407606955937
 20
-9.890102002370339
 10
5.045464512162248
 20
-9.906911681702618
 10
5.033374540797189
 20
-9.917102053679046
 10
5.019169908909916
 20
-9.921938428473493
 10
5.003094250112503
 20
-9.921888067623184
 10
4.931706234486378
 20
-9.921664241621884
 10
4.860317327517779
 20
-9.921723070225754
 10
4.788928717663338
 20
-9.921680731457803
 10
4.775691588522451
 20
-9.921672857932536
 10
4.776042678422754
 20
-9.921747235510842
 10
4.773374296142441
 20
-9.93472592485063
 10
4.767239780059374
 20
-9.964563713511475
 10
4.761704444201086
 20
-9.994579275478674
 10
4.754004235527367
 20
-10.0240200205823
 10
4.749406393885212
 20
-10.04159897799655
 10
4.741083136815809
 20
-10.05819275437177
 10
4.734596441413865
 20
-10.07529068395931
 10
4.724036409902029
 20
-10.10312463568
 10
4.709433050810654
 20
-10.1288433326502
 10
4.693953799172504
 20
-10.15414557460465
 10
4.67502049637417
 20
-10.18509417407558
 10
4.652744758302181
 20
-10.21342341510275
 10
4.627858971363441
 20
-10.23976060471818
 10
4.604445087978521
 20
-10.26453982671114
 10
4.579387172902493
 20
-10.28745733137099
 10
4.551500235823064
 20
-10.30715887235174
 10
4.545859721551778
 20
-10.31114396555575
 10
4.544847453605067
 20
-10.31421592790485
 10
4.550800631011851
 20
-10.31960726243308
 10
4.595792628418672
 20
-10.36035221098389
 10
4.640519005765503
 20
-10.40139100543997
 10
4.685227457224628
 20
-10.44244792385987
 10
4.718146220697412
 20
-10.47267770513718
 10
4.750880179162044
 20
-10.50310843462539
 10
4.783763090859413
 20
-10.53337743497195
 10
4.796872956101323
 20
-10.54544512277496
 10
4.810270229774965
 20
-10.55720202916548
 10
4.823305915514638
 20
-10.56934805606895
 10
4.827372616074904
 20
-10.57313715296474
 10
4.830393969978532
 20
-10.57280864374067
 10
4.834454134027256
 20
-10.56939519818249
 10
4.866885531237913
 20
-10.54213002200408
 10
4.904695388029797
 20
-10.53470385162492
 10
4.944720428968417
 20
-10.54450525164553
 10
4.987974110456989
 20
-10.55509737148673
 10
5.01806642691579
 20
-10.58245693093029
 10
5.034071570618985
 20
-10.6247877758347
 10
5.044130865731403
 20
-10.65139226915701
 10
5.045051919630623
 20
-10.67865011651944
 10
5.036757284558714
 20
-10.70502424732889
 10
5.026063353598348
 20
-10.73902589288064
 10
5.005071247740084
 20
-10.76579369995349
 10
4.971983624385757
 20
-10.78193898250262
 10
4.958226050272792
 20
-10.78865217793337
 10
4.944211769524675
 20
-10.79377502029807
 10
4.928967436149857
 20
-10.79509915907579
 10
4.92232792503109
 20
-10.79567585766239
 10
4.919716093479412
 20
-10.79882913025353
 10
4.919360150714484
 20
-10.80547141443781
 10
4.916875484023724
 20
-10.85186688010334
 10
4.896401743338452
 20
-10.8883708211194
 10
4.856479305823464
 20
-10.91217441924555
 10
4.82503254494251
 20
-10.93092450164459
 10
4.791017034063239
 20
-10.93544935224114
 10
4.755176053778515
 20
-10.92449812041733
 10
4.719823925326762
 20
-10.91369623797843
 10
4.694333610108388
 20
-10.89170048048416
 10
4.677622622196596
 20
-10.85928889088427
 10
4.666753096767049
 20
-10.83820715558742
 10
4.662620634939154
 20
-10.81559696600811
 10
4.664812049952943
 20
-10.79186437816646
 10
4.666833218552483
 20
-10.7699765721507
 10
4.672910886792704
 20
-10.74954304091519
 10
4.685731560917828
 20
-10.7314311597341
 10
4.688884041204573
 20
-10.72697751749812
 10
4.688752023479006
 20
-10.72322248969282
 10
4.684501607329189
 20
-10.71936426423554
 10
4.649943268877677
 20
-10.68799425784621
 10
4.615490802105568
 20
-10.65650778270573
 10
4.580917310831864
 20
-10.62515461278551
 10
4.579333791391541
 20
-10.62371856100713
 10
4.576901614869231
 20
-10.62321831979802
 10
4.574864798257244
 20
-10.62228211307655
 10
4.574108642717393
 20
-10.62443094172727
 10
4.572940191760077
 20
-10.62652728020955
 10
4.572659022725651
 20
-10.62873662111107
 10
4.569250330994059
 20
-10.65551423295121
 10
4.567866769384131
 20
-10.68271305363365
 10
4.562250420397933
 20
-10.70901082610372
 10
4.551869251611075
 20
-10.75762008938318
 10
4.534671095513228
 20
-10.80372765142664
 10
4.501500379231856
 20
-10.8421884853454
 10
4.476762158993096
 20
-10.87087208452865
 10
4.446603982228629
 20
-10.89189875466763
 10
4.411778538146336
 20
-10.9068645930355
 10
4.379775480517865
 20
-10.920617611398
 10
4.3463569710262
 20
-10.92930542754301
 10
4.312169926237958
 20
-10.93371004594241
 10
4.265786246100812
 20
-10.93968620017765
 10
4.219053258748342
 20
-10.94299090195288
 10
4.172283330201858
 20
-10.93683707344934
 10
4.147689507445369
 20
-10.93360110408336
 10
4.122830757895295
 20
-10.93146346673269
 10
4.098642892120854
 20
-10.92626476121889
 10
4.05962120570411
 20
-10.91787802075704
 10
4.022996141148395
 20
-10.90296031488328
 10
3.990245346214628
 20
-10.87948096734488
 10
3.955890778558593
 20
-10.85485188704127
 10
3.931107396967364
 20
-10.82256488731291
 10
3.913168782861172
 20
-10.78458716102005
 10
3.901097331612163
 20
-10.75903088645787
 10
3.892922681142282
 20
-10.73222079013612
 10
3.888251650378454
 20
-10.70450073217714
 10
3.884042929249239
 20
-10.67952422638124
 10
3.881532413626473
 20
-10.65426259002879
 10
3.878165912105739
 20
-10.62914109252228
 10
3.877866470550442
 20
-10.62690709114541
 10
3.876777101478965
 20
-10.6247787633718
 10
3.876054569358327
 20
-10.62260141176163
 10
3.873754311523523
 20
-10.62370756778318
 10
3.871035964545121
 20
-10.62435032475158
 10
3.86921792299371
 20
-10.62599089011079
 10
3.848970731856196
 20
-10.64426182640611
 10
3.828863630045664
 20
-10.66268785629351
 10
3.808716615899457
 20
-10.68106981424699
 10
3.794574229428917
 20
-10.693973284185
 10
3.780462099083782
 20
-10.70691032802319
 10
3.766267519558949
 20
-10.7197560587759
 10
3.760743870190986
 20
-10.72475480645936
 10
3.763520501063996
 20
-10.72914575760736
 10
3.766631880558457
 20
-10.73397970596948
 10
3.781868786079232
 20
-10.75765257386479
 10
3.789708539370596
 20
-10.78385526980332
 10
3.7865770056322
 20
-10.81167555427262
 10
3.78102859675083
 20
-10.8609653080189
 10
3.756861974638923
 20
-10.89796978735828
 10
3.710408670750034
 20
-10.91899160463264
 10
3.678613196882072
 20
-10.93338044729977
 10
3.646145106072556
 20
-10.93387702410091
 10
3.614255199420413
 20
-10.92210199374654
 10
3.578328031269468
 20
-10.90883624260818
 10
3.553085954932637
 20
-10.88287519952064
 10
3.539455694237681
 20
-10.84703105001818
 10
3.534946194539416
 20
-10.83517223347043
 10
3.533737732208414
 20
-10.82186765941499
 10
3.532314976288741
 20
-10.8090800639998
 10
3.530944586739956
 20
-10.79676289933958
 10
3.531416280230132
 20
-10.79591800570362
 10
3.518911166103533
 20
-10.79445630306936
 10
3.490996151735897
 20
-10.7911934943908
 10
3.467511802775763
 20
-10.77906866163084
 10
3.447544047506754
 20
-10.75972068650177
 10
3.429451057834385
 20
-10.74218936639136
 10
3.418403734338956
 20
-10.72101017764966
 10
3.412444020420631
 20
-10.69638347425936
 10
3.405502901289132
 20
-10.667701459685
 10
3.408716005244463
 20
-10.64055037534442
 10
3.42110846358499
 20
-10.61442294832669
 10
3.436888295716041
 20
-10.58115378821996
 10
3.462362542010244
 20
-10.55844693750027
 10
3.497731779285762
 20
-10.54717561468694
 10
3.54162148315509
 20
-10.53318896555578
 10
3.581254556236722
 20
-10.54183459148996
 10
3.617176995320606
 20
-10.56964625964858
 10
3.621435185957655
 20
-10.57294293934147
 10
3.624007204211743
 20
-10.57231068040677
 10
3.62755989727341
 20
-10.56905520054422
 10
3.651436808318799
 20
-10.5471761098772
 10
3.67544477146872
 20
-10.52544012919775
 10
3.699394648800155
 20
-10.50364066512588
 10
3.733679394628375
 20
-10.47243436863927
 10
3.768060900635014
 20
-10.44133315152764
 10
3.80219372208886
 20
-10.40996136245331
 10
3.829996773936853
 20
-10.38440736576639
 10
3.857468939647459
 20
-10.35849356383045
 10
3.885156562643841
 20
-10.33281339266313
 10
3.889495023623415
 20
-10.32878937750403
 10
3.894314314353575
 20
-10.32528739192586
 10
3.898708583276377
 20
-10.32131943230512
 10
3.907295479644694
 20
-10.31356574308244
 10
3.907053529679564
 20
-10.31279889143277
 10
3.897953764750253
 20
-10.30584216142806
 10
3.887280829857242
 20
-10.29768271329943
 10
3.876739268942451
 20
-10.28933816304847
 10
3.86638122554114
 20
-10.28078266174316
 10
3.839424008190639
 20
-10.2585164313243
 10
3.815544447877325
 20
-10.23318784524758
 10
3.793748450137324
 20
-10.20594257571795
 10
3.768936496067605
 20
-10.17492732363689
 10
3.746729094252638
 20
-10.14205966379978
 10
3.730178845101969
 20
-10.10588621276886
 10
3.718229309697032
 20
-10.07976829340428
 10
3.70618509391276
 20
-10.05337603863101
 10
3.697905066953782
 20
-10.02598132067836
 10
3.688588953396194
 20
-9.995158598573677
 10
3.683037325778084
 20
-9.963154451526607
 10
3.676786390462918
 20
-9.931479110817765
 10
3.675205594569079
 20
-9.923468813997992
 10
3.672328984780885
 20
-9.921709254417262
 10
3.664770846195172
 20
-9.921730795193928
 10
3.592848693586044
 20
-9.921935754446041
 10
3.520925327760753
 20
-9.921818196276312
 10
3.449002580923307
 20
-9.92166795554888
 10
3.422400910185514
 20
-9.921612395200755
 10
3.402245094032296
 20
-9.910486905921464
 10
3.39001414199783
 20
-9.88629958485631
 10
3.37507286506727
 20
-9.856752522402048
 10
3.391988973167978
 20
-9.815792413679647
 10
3.42367193980696
 20
-9.806067074884266
 10
3.432027780396032
 20
-9.803502187370035
 10
3.441043263941638
 20
-9.802311799483806
 10
3.449807463185556
 20
-9.802015279551065
 10
3.467363889442594
 20
-9.801421199786091
 10
3.484955944639447
 20
-9.801889154589717
 10
3.502533292685307
 20
-9.801901336270349
 10
3.519840242085112
 20
-9.801913319874831
 10
3.53714721624442
 20
-9.80190391125974
 10
3.55445416564425
 20
-9.80190391125974
 10
3.55445416564425
 20
-9.801916538611571
 10
3.55445416564425
 20
-9.801929116444398
 10
3.554454140884722
 20
-9.801941743796229
 97
        0
 97
        1
330
90
 75
     2
 76
     1
 98
        1
 10
0.0
 20
0.0
450
        0
451
        0
460
0.0
461
0.0
452
        0
462
0.0
453
        0
470

  0
SPLINE
  5
92
330
7C
100
AcDbEntity
  8
Layer 3
100
AcDbSpline
210
0.0
220
0.0
230
1.0
 70
     9
 71
     3
 72
    17
 73
    13
 74
     0
 42
0.0000000001
 43
0.0000000001
 40
0.0
 40
0.0
 40
0.0
 40
0.0
 40
1.0
 40
1.0
 40
1.0
 40
2.0
 40
2.0
 40
2.0
 40
3.0
 40
3.0
 40
3.0
 40
4.0
 40
4.0
 40
4.0
 40
4.0
 10
4.170853319744739
 20
-10.09523813642734
 30
0.0
 10
4.170627314906242
 20
-10.17654352563489
 30
0.0
 10
4.104895263487807
 20
-10.24142474113417
 30
0.0
 10
4.023443941708111
 20
-10.24073949684076
 30
0.0
 10
3.94415660140137
 20
-10.24007247554919
 30
0.0
 10
3.879209178963214
 20
-10.17438261434164
 30
0.0
 10
3.880050358672153
 20
-10.09456180555872
 30
0.0
 10
3.880897975854572
 20
-10.01412923871824
 30
0.0
 10
3.945411413541503
 20
-9.950433112569321
 30
0.0
 10
4.025364339088026
 20
-9.950372105128254
 30
0.0
 10
4.106896030248283
 20
-9.950309909230554
 30
0.0
 10
4.170191844584198
 20
-10.01610727624539
 30
0.0
 10
4.170853319744739
 20
-10.09523813642734
 30
0.0
  0
HATCH
  5
93
330
7C
100
AcDbEntity
  8
Layer 3
 62
    18
420
        0
440
 33554687
100
AcDbHatch
 10
0.0
 20
0.0
 30
0.0
210
0.0
220
0.0
230
1.0
  2
SOLID
 70
     1
 71
     1
 91
        1
 92
        1
 93
        1
 72
     4
 94
        3
 73
     0
 74
     0
 95
       17
 96
       13
 40
0.0
 40
0.0
 40
0.0
 40
0.0
 40
1.0
 40
1.0
 40
1.0
 40
2.0
 40
2.0
 40
2.0
 40
3.0
 40
3.0
 40
3.0
 40
4.0
 40
4.0
 40
4.0
 40
4.0
 10
4.170853319744739
 20
-10.09523813642734
 10
4.170627314906242
 20
-10.17654352563489
 10
4.104895263487807
 20
-10.24142474113417
 10
4.023443941708111
 20
-10.24073949684076
 10
3.94415660140137
 20
-10.24007247554919
 10
3.879209178963214
 20
-10.17438261434164
 10
3.880050358672153
 20
-10.09456180555872
 10
3.880897975854572
 20
-10.01412923871824
 10
3.945411413541503
 20
-9.950433112569321
 10
4.025364339088026
 20
-9.950372105128254
 10
4.106896030248283
 20
-9.950309909230554
 10
4.170191844584198
 20
-10.01610727624539
 10
4.170853319744739
 20
-10.09523813642734
 97
        0
 97
        1
330
92
 75
     2
 76
     1
 98
        1
 10
0.0
 20
0.0
450
        0
451
        0
460
0.0
461
0.0
452
        0
462
0.0
453
        0
470

  0
SPLINE
  5
94
330
7C
100
AcDbEntity
  8
Layer 3
100
AcDbSpline
210
0.0
220
0.0
230
1.0
 70
     9
 71
     3
 72
    17
 73
    13
 74
     0
 42
0.0000000001
 43
0.0000000001
 40
0.0
 40
0.0
 40
0.0
 40
0.0
 40
1.0
 40
1.0
 40
1.0
 40
2.0
 40
2.0
 40
2.0
 40
3.0
 40
3.0
 40
3.0
 40
4.0
 40
4.0
 40
4.0
 40
4.0
 10
4.452344029743875
 20
-9.950401073758964
 30
0.0
 10
4.530702343588093
 20
-9.950215674522469
 30
0.0
 10
4.599068510120281
 20
-10.01631842537583
 30
0.0
 10
4.596215421869828
 20
-10.10064194975032
 30
0.0
 10
4.593639640169688
 20
-10.17676982758755
 30
0.0
 10
4.531524557509732
 20
-10.2409799612351
 30
0.0
 10
4.450883614604284
 20
-10.24069879220069
 30
0.0
 10
4.368184066715027
 20
-10.24041059146447
 30
0.0
 10
4.305362545618183
 20
-10.17498070514782
 30
0.0
 10
4.305748397875301
 20
-10.09468798003912
 30
0.0
 10
4.306136528007704
 20
-10.01390650213552
 30
0.0
 10
4.371045771276132
 20
-9.949652692706321
 30
0.0
 10
4.452344029743875
 20
-9.950401073758964
 30
0.0
  0
HATCH
  5
95
330
7C
100
AcDbEntity
  8
Layer 3
 62
    18
420
        0
440
 33554687
100
AcDbHatch
 10
0.0
 20
0.0
 30
0.0
210
0.0
220
0.0
230
1.0
  2
SOLID
 70
     1
 71
     1
 91
        1
 92
        1
 93
        1
 72
     4
 94
        3
 73
     0
 74
     0
 95
       17
 96
       13
 40
0.0
 40
0.0
 40
0.0
 40
0.0
 40
1.0
 40
1.0
 40
1.0
 40
2.0
 40
2.0
 40
2.0
 40
3.0
 40
3.0
 40
3.0
 40
4.0
 40
4.0
 40
4.0
 40
4.0
 10
4.452344029743875
 20
-9.950401073758964
 10
4.530702343588093
 20
-9.950215674522469
 10
4.599068510120281
 20
-10.01631842537583
 10
4.596215421869828
 20
-10.10064194975032
 10
4.593639640169688
 20
-10.17676982758755
 10
4.531524557509732
 20
-10.2409799612351
 10
4.450883614604284
 20
-10.24069879220069
 10
4.368184066715027
 20
-10.24041059146447
 10
4.305362545618183
 20
-10.17498070514782
 10
4.305748397875301
 20
-10.09468798003912
 10
4.306136528007704
 20
-10.01390650213552
 10
4.371045771276132
 20
-9.949652692706321
 10
4.452344029743875
 20
-9.950401073758964
 97
        0
 97
        1
330
94
 75
     2
 76
     1
 98
        1
 10
0.0
 20
0.0
450
        0
451
        0
460
0.0
461
0.0
452
        0
462
0.0
453
        0
470

  0
SPLINE
  5
96
330
7C
100
AcDbEntity
  8
Layer 3
100
AcDbSpline
210
0.0
220
0.0
230
1.0
 70
     9
 71
     3
 72
    23
 73
    19
 74
     0
 42
0.0000000001
 43
0.0000000001
 40
0.0
 40
0.0
 40
0.0
 40
0.0
 40
1.0
 40
1.0
 40
1.0
 40
2.0
 40
2.0
 40
2.0
 40
3.0
 40
3.0
 40
3.0
 40
4.0
 40
4.0
 40
4.0
 40
5.0
 40
5.0
 40
5.0
 40
6.0
 40
6.0
 40
6.0
 40
6.0
 10
4.221556445555127
 20
-10.32822911923436
 30
0.0
 10
4.206504345042503
 20
-10.32770897137642
 30
0.0
 10
4.18930925912433
 20
-10.32440278403037
 30
0.0
 10
4.175947143959723
 20
-10.31051487583878
 30
0.0
 10
4.163769920069372
 20
-10.29785850584471
 30
0.0
 10
4.163911742562226
 20
-10.28341598455249
 30
0.0
 10
4.176708647554479
 20
-10.27140979938083
 30
0.0
 10
4.191911087832598
 20
-10.25714653696579
 30
0.0
 10
4.210710788296511
 20
-10.25382876216748
 30
0.0
 10
4.230609018851863
 20
-10.25473496035867
 30
0.0
 10
4.245675975072546
 20
-10.25542119503262
 30
0.0
 10
4.259804149582375
 20
-10.25923495240375
 30
0.0
 10
4.271713574575591
 20
-10.26914598754979
 30
0.0
 10
4.287908079037404
 20
-10.28262318493277
 30
0.0
 10
4.287834592801573
 20
-10.30053411790294
 30
0.0
 10
4.271530651290428
 20
-10.31372786837631
 30
0.0
 10
4.259174168522905
 20
-10.32372734450428
 30
0.0
 10
4.243904283330215
 20
-10.32846780094372
 30
0.0
 10
4.221556445555127
 20
-10.32822911923436
 30
0.0
  0
HATCH
  5
97
330
7C
100
AcDbEntity
  8
Layer 3
 62
    18
420
        0
440
 33554687
100
AcDbHatch
 10
0.0
 20
0.0
 30
0.0
210
0.0
220
0.0
230
1.0
  2
SOLID
 70
     1
 71
     1
 91
        1
 92
        1
 93
        1
 72
     4
 94
        3
 73
     0
 74
     0
 95
       23
 96
       19
 40
0.0
 40
0.0
 40
0.0
 40
0.0
 40
1.0
 40
1.0
 40
1.0
 40
2.0
 40
2.0
 40
2.0
 40
3.0
 40
3.0
 40
3.0
 40
4.0
 40
4.0
 40
4.0
 40
5.0
 40
5.0
 40
5.0
 40
6.0
 40
6.0
 40
6.0
 40
6.0
 10
4.221556445555127
 20
-10.32822911923436
 10
4.206504345042503
 20
-10.32770897137642
 10
4.18930925912433
 20
-10.32440278403037
 10
4.175947143959723
 20
-10.31051487583878
 10
4.163769920069372
 20
-10.29785850584471
 10
4.163911742562226
 20
-10.28341598455249
 10
4.176708647554479
 20
-10.27140979938083
 10
4.191911087832598
 20
-10.25714653696579
 10
4.210710788296511
 20
-10.25382876216748
 10
4.230609018851863
 20
-10.25473496035867
 10
4.245675975072546
 20
-10.25542119503262
 10
4.259804149582375
 20
-10.25923495240375
 10
4.271713574575591
 20
-10.26914598754979
 10
4.287908079037404
 20
-10.28262318493277
 10
4.287834592801573
 20
-10.30053411790294
 10
4.271530651290428
 20
-10.31372786837631
 10
4.259174168522905
 20
-10.32372734450428
 10
4.243904283330215
 20
-10.32846780094372
 10
4.221556445555127
 20
-10.32822911923436
 97
        0
 97
        1
330
96
 75
     2
 76
     1
 98
        1
 10
0.0
 20
0.0
450
        0
451
        0
460
0.0
461
0.0
452
        0
462
0.0
453
        0
470

  0
SPLINE
  5
98
330
7C
100
AcDbEntity
  8
Layer 3
100
AcDbSpline
210
0.0
220
0.0
230
1.0
 70
     9
 71
     3
 72
    32
 73
    28
 74
     0
 42
0.0000000001
 43
0.0000000001
 40
0.0
 40
0.0
 40
0.0
 40
0.0
 40
1.0
 40
1.0
 40
1.0
 40
2.0
 40
2.0
 40
2.0
 40
3.0
 40
3.0
 40
3.0
 40
4.0
 40
4.0
 40
4.0
 40
5.0
 40
5.0
 40
5.0
 40
6.0
 40
6.0
 40
6.0
 40
7.0
 40
7.0
 40
7.0
 40
8.0
 40
8.0
 40
8.0
 40
9.0
 40
9.0
 40
9.0
 40
9.0
 10
3.877358207258945
 20
-9.602660516637241
 30
0.0
 10
3.86945298981411
 20
-9.603871405400569
 30
0.0
 10
3.864900804714705
 20
-9.599084871506647
 30
0.0
 10
3.861053324886294
 20
-9.592593471797146
 30
0.0
 10
3.856627958014617
 20
-9.58512704244913
 30
0.0
 10
3.858596091736393
 20
-9.578195740464707
 30
0.0
 10
3.863033739326712
 20
-9.572117453236614
 30
0.0
 10
3.88691235877852
 20
-9.539410334084523
 30
0.0
 10
3.912089614709252
 20
-9.507843316246912
 30
0.0
 10
3.943994525626521
 20
-9.482328885262429
 30
0.0
 10
3.951540433012597
 20
-9.476294422373104
 30
0.0
 10
3.958515485057255
 20
-9.469551812640423
 30
0.0
 10
3.965915459871212
 20
-9.463327914713923
 30
0.0
 10
3.977461266650329
 20
-9.453617084993412
 30
0.0
 10
3.990955746173691
 20
-9.455487963346461
 30
0.0
 10
3.9984022688729
 20
-9.467660408650745
 30
0.0
 10
4.003174962198802
 20
-9.47546210656997
 30
0.0
 10
4.000031692451076
 20
-9.485141764063074
 30
0.0
 10
3.990718054844844
 20
-9.493009272768984
 30
0.0
 10
3.97673710040183
 20
-9.504819387353865
 30
0.0
 10
3.961802062868652
 20
-9.515796047197984
 30
0.0
 10
3.949397843759243
 20
-9.529107430119589
 30
0.0
 10
3.930713770223014
 20
-9.54915798120151
 30
0.0
 10
3.913729239206961
 20
-9.57080727882448
 30
0.0
 10
3.896320924359214
 20
-9.592022046986913
 30
0.0
 10
3.891327623768726
 20
-9.598107143081177
 30
0.0
 10
3.886636240684866
 20
-9.603794848985064
 30
0.0
 10
3.877358207258945
 20
-9.602660516637241
 30
0.0
  0
HATCH
  5
99
330
7C
100
AcDbEntity
  8
Layer 3
 62
    18
420
        0
440
 33554687
100
AcDbHatch
 10
0.0
 20
0.0
 30
0.0
210
0.0
220
0.0
230
1.0
  2
SOLID
 70
     1
 71
     1
 91
        1
 92
        1
 93
        1
 72
     4
 94
        3
 73
     0
 74
     0
 95
       32
 96
       28
 40
0.0
 40
0.0
 40
0.0
 40
0.0
 40
1.0
 40
1.0
 40
1.0
 40
2.0
 40
2.0
 40
2.0
 40
3.0
 40
3.0
 40
3.0
 40
4.0
 40
4.0
 40
4.0
 40
5.0
 40
5.0
 40
5.0
 40
6.0
 40
6.0
 40
6.0
 40
7.0
 40
7.0
 40
7.0
 40
8.0
 40
8.0
 40
8.0
 40
9.0
 40
9.0
 40
9.0
 40
9.0
 10
3.877358207258945
 20
-9.602660516637241
 10
3.86945298981411
 20
-9.603871405400569
 10
3.864900804714705
 20
-9.599084871506647
 10
3.861053324886294
 20
-9.592593471797146
 10
3.856627958014617
 20
-9.58512704244913
 10
3.858596091736393
 20
-9.578195740464707
 10
3.863033739326712
 20
-9.572117453236614
 10
3.88691235877852
 20
-9.539410334084523
 10
3.912089614709252
 20
-9.507843316246912
 10
3.943994525626521
 20
-9.482328885262429
 10
3.951540433012597
 20
-9.476294422373104
 10
3.958515485057255
 20
-9.469551812640423
 10
3.965915459871212
 20
-9.463327914713923
 10
3.977461266650329
 20
-9.453617084993412
 10
3.990955746173691
 20
-9.455487963346461
 10
3.9984022688729
 20
-9.467660408650745
 10
4.003174962198802
 20
-9.47546210656997
 10
4.000031692451076
 20
-9.485141764063074
 10
3.990718054844844
 20
-9.493009272768984
 10
3.97673710040183
 20
-9.504819387353865
 10
3.961802062868652
 20
-9.515796047197984
 10
3.949397843759243
 20
-9.529107430119589
 10
3.930713770223014
 20
-9.54915798120151
 10
3.913729239206961
 20
-9.57080727882448
 10
3.896320924359214
 20
-9.592022046986913
 10
3.891327623768726
 20
-9.598107143081177
 10
3.886636240684866
 20
-9.603794848985064
 10
3.877358207258945
 20
-9.602660516637241
 97
        0
 97
        1
330
98
 75
     2
 76
     1
 98
        1
 10
0.0
 20
0.0
450
        0
451
        0
460
0.0
461
0.0
452
        0
462
0.0
453
        0
470

  0
SPLINE
  5
9A
330
7C
100
AcDbEntity
  8
Layer 3
100
AcDbSpline
210
0.0
220
0.0
230
1.0
 70
     9
 71
     3
 72
    32
 73
    28
 74
     0
 42
0.0000000001
 43
0.0000000001
 40
0.0
 40
0.0
 40
0.0
 40
0.0
 40
1.0
 40
1.0
 40
1.0
 40
2.0
 40
2.0
 40
2.0
 40
3.0
 40
3.0
 40
3.0
 40
4.0
 40
4.0
 40
4.0
 40
5.0
 40
5.0
 40
5.0
 40
6.0
 40
6.0
 40
6.0
 40
7.0
 40
7.0
 40
7.0
 40
8.0
 40
8.0
 40
8.0
 40
9.0
 40
9.0
 40
9.0
 40
9.0
 10
4.535618394496698
 20
-9.486876638408931
 30
0.0
 10
4.539984982283486
 20
-9.489170285453635
 30
0.0
 10
4.545320756463625
 20
-9.490536292568574
 30
0.0
 10
4.548553853726034
 20
-9.493914703415232
 30
0.0
 10
4.564335567580124
 20
-9.510405331657567
 30
0.0
 10
4.580165512966358
 20
-9.52692458189742
 30
0.0
 10
4.594777389330374
 20
-9.54443584680199
 30
0.0
 10
4.605967699015814
 20
-9.557846688688995
 30
0.0
 10
4.615728988624671
 20
-9.572509742967238
 30
0.0
 10
4.625457595675824
 20
-9.587062518372729
 30
0.0
 10
4.634088960130232
 20
-9.599973985633569
 30
0.0
 10
4.629554898994683
 20
-9.612073662727905
 30
0.0
 10
4.614992739733603
 20
-9.61728658020244
 30
0.0
 10
4.607543889640131
 20
-9.619953105519268
 30
0.0
 10
4.5987381191732
 20
-9.615585477832887
 30
0.0
 10
4.592515756336498
 20
-9.607205967148981
 30
0.0
 10
4.577653214658639
 20
-9.587191267842525
 30
0.0
 10
4.562828208403112
 20
-9.567126182926232
 30
0.0
 10
4.547226743806706
 20
-9.54769258939973
 30
0.0
 10
4.539847913617222
 20
-9.538501313308819
 30
0.0
 10
4.530795835510742
 20
-9.530637964201179
 30
0.0
 10
4.522364825038923
 20
-9.52231178550917
 30
0.0
 10
4.515939137078046
 20
-9.515966244093229
 30
0.0
 10
4.513538850809027
 20
-9.505777506244687
 30
0.0
 10
4.516894260067727
 20
-9.497760152963564
 30
0.0
 10
4.519718033054307
 20
-9.491012913201908
 30
0.0
 10
4.525487098719268
 20
-9.487968409153204
 30
0.0
 10
4.535618394496698
 20
-9.486876638408931
 30
0.0
  0
HATCH
  5
9B
330
7C
100
AcDbEntity
  8
Layer 3
 62
    18
420
        0
440
 33554687
100
AcDbHatch
 10
0.0
 20
0.0
 30
0.0
210
0.0
220
0.0
230
1.0
  2
SOLID
 70
     1
 71
     1
 91
        1
 92
        1
 93
        1
 72
     4
 94
        3
 73
     0
 74
     0
 95
       32
 96
       28
 40
0.0
 40
0.0
 40
0.0
 40
0.0
 40
1.0
 40
1.0
 40
1.0
 40
2.0
 40
2.0
 40
2.0
 40
3.0
 40
3.0
 40
3.0
 40
4.0
 40
4.0
 40
4.0
 40
5.0
 40
5.0
 40
5.0
 40
6.0
 40
6.0
 40
6.0
 40
7.0
 40
7.0
 40
7.0
 40
8.0
 40
8.0
 40
8.0
 40
9.0
 40
9.0
 40
9.0
 40
9.0
 10
4.535618394496698
 20
-9.486876638408931
 10
4.539984982283486
 20
-9.489170285453635
 10
4.545320756463625
 20
-9.490536292568574
 10
4.548553853726034
 20
-9.493914703415232
 10
4.564335567580124
 20
-9.510405331657567
 10
4.580165512966358
 20
-9.52692458189742
 10
4.594777389330374
 20
-9.54443584680199
 10
4.605967699015814
 20
-9.557846688688995
 10
4.615728988624671
 20
-9.572509742967238
 10
4.625457595675824
 20
-9.587062518372729
 10
4.634088960130232
 20
-9.599973985633569
 10
4.629554898994683
 20
-9.612073662727905
 10
4.614992739733603
 20
-9.61728658020244
 10
4.607543889640131
 20
-9.619953105519268
 10
4.5987381191732
 20
-9.615585477832887
 10
4.592515756336498
 20
-9.607205967148981
 10
4.577653214658639
 20
-9.587191267842525
 10
4.562828208403112
 20
-9.567126182926232
 10
4.547226743806706
 20
-9.54769258939973
 10
4.539847913617222
 20
-9.538501313308819
 10
4.530795835510742
 20
-9.530637964201179
 10
4.522364825038923
 20
-9.52231178550917
 10
4.515939137078046
 20
-9.515966244093229
 10
4.513538850809027
 20
-9.505777506244687
 10
4.516894260067727
 20
-9.497760152963564
 10
4.519718033054307
 20
-9.491012913201908
 10
4.525487098719268
 20
-9.487968409153204
 10
4.535618394496698
 20
-9.486876638408931
 97
        0
 97
        1
330
9A
 75
     2
 76
     1
 98
        1
 10
0.0
 20
0.0
450
        0
451
        0
460
0.0
461
0.0
452
        0
462
0.0
453
        0
470

  0
SPLINE
  5
9C
330
7C
100
AcDbEntity
  8
Layer 3
100
AcDbSpline
210
0.0
220
0.0
230
1.0
 70
     9
 71
     3
 72
    26
 73
    22
 74
     0
 42
0.0000000001
 43
0.0000000001
 40
0.0
 40
0.0
 40
0.0
 40
0.0
 40
1.0
 40
1.0
 40
1.0
 40
2.0
 40
2.0
 40
2.0
 40
3.0
 40
3.0
 40
3.0
 40
4.0
 40
4.0
 40
4.0
 40
5.0
 40
5.0
 40
5.0
 40
6.0
 40
6.0
 40
6.0
 40
7.0
 40
7.0
 40
7.0
 40
7.0
 10
3.964555221722927
 20
-9.616049372076329
 30
0.0
 10
3.949309551334383
 20
-9.616009434981201
 30
0.0
 10
3.94012124638511
 20
-9.600388955078489
 30
0.0
 10
3.948064593480593
 20
-9.587583210939959
 30
0.0
 10
3.967274856196051
 20
-9.556613590642124
 30
0.0
 10
3.988841679879821
 20
-9.52733571361778
 30
0.0
 10
4.016249966045809
 20
-9.50296628633143
 30
0.0
 10
4.029818476514289
 20
-9.490902139138849
 30
0.0
 10
4.044676462441682
 20
-9.494061304494202
 30
0.0
 10
4.050129200563207
 20
-9.509180924199931
 30
0.0
 10
4.052839574978305
 20
-9.516696426903509
 30
0.0
 10
4.049530515528709
 20
-9.522084790290136
 30
0.0
 10
4.044966148748699
 20
-9.527444878312456
 30
0.0
 10
4.027691485754404
 20
-9.547731040924064
 30
0.0
 10
4.010365966719518
 20
-9.567977439757138
 30
0.0
 10
3.993386437125182
 20
-9.588509092944301
 30
0.0
 10
3.988603641917784
 20
-9.594292444848532
 30
0.0
 10
3.984876245729436
 20
-9.60095961234381
 30
0.0
 10
3.980777209244656
 20
-9.60729421005481
 30
0.0
 10
3.97674754891649
 20
-9.61352167335124
 30
0.0
 10
3.971153780606528
 20
-9.616524531898397
 30
0.0
 10
3.964555221722927
 20
-9.616049372076329
 30
0.0
  0
HATCH
  5
9D
330
7C
100
AcDbEntity
  8
Layer 3
 62
    18
420
        0
440
 33554687
100
AcDbHatch
 10
0.0
 20
0.0
 30
0.0
210
0.0
220
0.0
230
1.0
  2
SOLID
 70
     1
 71
     1
 91
        1
 92
        1
 93
        1
 72
     4
 94
        3
 73
     0
 74
     0
 95
       26
 96
       22
 40
0.0
 40
0.0
 40
0.0
 40
0.0
 40
1.0
 40
1.0
 40
1.0
 40
2.0
 40
2.0
 40
2.0
 40
3.0
 40
3.0
 40
3.0
 40
4.0
 40
4.0
 40
4.0
 40
5.0
 40
5.0
 40
5.0
 40
6.0
 40
6.0
 40
6.0
 40
7.0
 40
7.0
 40
7.0
 40
7.0
 10
3.964555221722927
 20
-9.616049372076329
 10
3.949309551334383
 20
-9.616009434981201
 10
3.94012124638511
 20
-9.600388955078489
 10
3.948064593480593
 20
-9.587583210939959
 10
3.967274856196051
 20
-9.556613590642124
 10
3.988841679879821
 20
-9.52733571361778
 10
4.016249966045809
 20
-9.50296628633143
 10
4.029818476514289
 20
-9.490902139138849
 10
4.044676462441682
 20
-9.494061304494202
 10
4.050129200563207
 20
-9.509180924199931
 10
4.052839574978305
 20
-9.516696426903509
 10
4.049530515528709
 20
-9.522084790290136
 10
4.044966148748699
 20
-9.527444878312456
 10
4.027691485754404
 20
-9.547731040924064
 10
4.010365966719518
 20
-9.567977439757138
 10
3.993386437125182
 20
-9.588509092944301
 10
3.988603641917784
 20
-9.594292444848532
 10
3.984876245729436
 20
-9.60095961234381
 10
3.980777209244656
 20
-9.60729421005481
 10
3.97674754891649
 20
-9.61352167335124
 10
3.971153780606528
 20
-9.616524531898397
 10
3.964555221722927
 20
-9.616049372076329
 97
        0
 97
        1
330
9C
 75
     2
 76
     1
 98
        1
 10
0.0
 20
0.0
450
        0
451
        0
460
0.0
461
0.0
452
        0
462
0.0
453
        0
470

  0
SPLINE
  5
9E
330
7C
100
AcDbEntity
  8
Layer 3
100
AcDbSpline
210
0.0
220
0.0
230
1.0
 70
     9
 71
     3
 72
    29
 73
    25
 74
     0
 42
0.0000000001
 43
0.0000000001
 40
0.0
 40
0.0
 40
0.0
 40
0.0
 40
1.0
 40
1.0
 40
1.0
 40
2.0
 40
2.0
 40
2.0
 40
3.0
 40
3.0
 40
3.0
 40
4.0
 40
4.0
 40
4.0
 40
5.0
 40
5.0
 40
5.0
 40
6.0
 40
6.0
 40
6.0
 40
7.0
 40
7.0
 40
7.0
 40
8.0
 40
8.0
 40
8.0
 40
8.0
 10
4.437487034196995
 20
-9.511569672535692
 30
0.0
 10
4.441810441392387
 20
-9.513900062698313
 30
0.0
 10
4.447008354601797
 20
-9.515364043207833
 30
0.0
 10
4.450315334252283
 20
-9.518701576097857
 30
0.0
 10
4.471611189821183
 20
-9.540194542153079
 30
0.0
 10
4.489075857321444
 20
-9.564678630746103
 30
0.0
 10
4.504481820799861
 20
-9.590635464716342
 30
0.0
 10
4.508173860403076
 20
-9.596856143906126
 30
0.0
 10
4.505060203033381
 20
-9.606174535338924
 30
0.0
 10
4.498121101802198
 20
-9.612080620151168
 30
0.0
 10
4.492485242319414
 20
-9.616877528281216
 30
0.0
 10
4.48131186814117
 20
-9.617530015738388
 30
0.0
 10
4.475557658184243
 20
-9.612849056409686
 30
0.0
 10
4.472492133308656
 20
-9.610355179179931
 30
0.0
 10
4.470033711702121
 20
-9.607028169083099
 30
0.0
 10
4.467616390887895
 20
-9.603838376209674
 30
0.0
 10
4.45398132684732
 20
-9.585846232035464
 30
0.0
 10
4.440437674930308
 20
-9.567784686945135
 30
0.0
 10
4.426873819250355
 20
-9.549738567031706
 30
0.0
 10
4.424613968941482
 20
-9.546731796481454
 30
0.0
 10
4.422054429482133
 20
-9.543881629853583
 30
0.0
 10
4.420237972539577
 20
-9.540622188468887
 30
0.0
 10
4.41265967970993
 20
-9.527023669470155
 30
0.0
 10
4.42108544116493
 20
-9.513015875714573
 30
0.0
 10
4.437487034196995
 20
-9.511569672535692
 30
0.0
  0
HATCH
  5
9F
330
7C
100
AcDbEntity
  8
Layer 3
 62
    18
420
        0
440
 33554687
100
AcDbHatch
 10
0.0
 20
0.0
 30
0.0
210
0.0
220
0.0
230
1.0
  2
SOLID
 70
     1
 71
     1
 91
        1
 92
        1
 93
        1
 72
     4
 94
        3
 73
     0
 74
     0
 95
       29
 96
       25
 40
0.0
 40
0.0
 40
0.0
 40
0.0
 40
1.0
 40
1.0
 40
1.0
 40
2.0
 40
2.0
 40
2.0
 40
3.0
 40
3.0
 40
3.0
 40
4.0
 40
4.0
 40
4.0
 40
5.0
 40
5.0
 40
5.0
 40
6.0
 40
6.0
 40
6.0
 40
7.0
 40
7.0
 40
7.0
 40
8.0
 40
8.0
 40
8.0
 40
8.0
 10
4.437487034196995
 20
-9.511569672535692
 10
4.441810441392387
 20
-9.513900062698313
 10
4.447008354601797
 20
-9.515364043207833
 10
4.450315334252283
 20
-9.518701576097857
 10
4.471611189821183
 20
-9.540194542153079
 10
4.489075857321444
 20
-9.564678630746103
 10
4.504481820799861
 20
-9.590635464716342
 10
4.508173860403076
 20
-9.596856143906126
 10
4.505060203033381
 20
-9.606174535338924
 10
4.498121101802198
 20
-9.612080620151168
 10
4.492485242319414
 20
-9.616877528281216
 10
4.48131186814117
 20
-9.617530015738388
 10
4.475557658184243
 20
-9.612849056409686
 10
4.472492133308656
 20
-9.610355179179931
 10
4.470033711702121
 20
-9.607028169083099
 10
4.467616390887895
 20
-9.603838376209674
 10
4.45398132684732
 20
-9.585846232035464
 10
4.440437674930308
 20
-9.567784686945135
 10
4.426873819250355
 20
-9.549738567031706
 10
4.424613968941482
 20
-9.546731796481454
 10
4.422054429482133
 20
-9.543881629853583
 10
4.420237972539577
 20
-9.540622188468887
 10
4.41265967970993
 20
-9.527023669470155
 10
4.42108544116493
 20
-9.513015875714573
 10
4.437487034196995
 20
-9.511569672535692
 97
        0
 97
        1
330
9E
 75
     2
 76
     1
 98
        1
 10
0.0
 20
0.0
450
        0
451
        0
460
0.0
461
0.0
452
        0
462
0.0
453
        0
470

  0
SPLINE
  5
A0
330
7C
100
AcDbEntity
  8
Layer 3
100
AcDbSpline
210
0.0
220
0.0
230
1.0
 70
     9
 71
     3
 72
    29
 73
    25
 74
     0
 42
0.0000000001
 43
0.0000000001
 40
0.0
 40
0.0
 40
0.0
 40
0.0
 40
1.0
 40
1.0
 40
1.0
 40
2.0
 40
2.0
 40
2.0
 40
3.0
 40
3.0
 40
3.0
 40
4.0
 40
4.0
 40
4.0
 40
5.0
 40
5.0
 40
5.0
 40
6.0
 40
6.0
 40
6.0
 40
7.0
 40
7.0
 40
7.0
 40
8.0
 40
8.0
 40
8.0
 40
8.0
 10
4.097216744147847
 20
-9.533546266166542
 30
0.0
 10
4.106751632766013
 20
-9.534694909513138
 30
0.0
 10
4.112748287878351
 20
-9.538838438843564
 30
0.0
 10
4.116147471956789
 20
-9.546196718636918
 30
0.0
 10
4.119673919934206
 20
-9.553830596574167
 30
0.0
 10
4.116616318102917
 20
-9.560345814935594
 30
0.0
 10
4.111607666614089
 20
-9.566201167504837
 30
0.0
 10
4.100758443985543
 20
-9.578884475849513
 30
0.0
 10
4.089846629307051
 20
-9.591514254126169
 30
0.0
 10
4.079008895092733
 20
-9.604207317719151
 30
0.0
 10
4.076241177644558
 20
-9.607448932254175
 30
0.0
 10
4.074150088179142
 20
-9.611472724577676
 30
0.0
 10
4.070888765071432
 20
-9.614049150025165
 30
0.0
 10
4.062051896655601
 20
-9.621030045314984
 30
0.0
 10
4.052967631181697
 20
-9.620623048433394
 30
0.0
 10
4.04516343255164
 20
-9.613661564602098
 30
0.0
 10
4.039596107401999
 20
-9.608695449957318
 30
0.0
 10
4.037497590082542
 20
-9.595665409386709
 30
0.0
 10
4.043555648788165
 20
-9.588073696900815
 30
0.0
 10
4.057624400465783
 20
-9.570443140660598
 30
0.0
 10
4.072841201261679
 20
-9.553710909086298
 30
0.0
 10
4.088027696413165
 20
-9.537010072575032
 30
0.0
 10
4.090211683572937
 20
-9.534608251216164
 30
0.0
 10
4.094803979084064
 20
-9.534396359300343
 30
0.0
 10
4.097216744147847
 20
-9.533546266166542
 30
0.0
  0
HATCH
  5
A1
330
7C
100
AcDbEntity
  8
Layer 3
 62
    18
420
        0
440
 33554687
100
AcDbHatch
 10
0.0
 20
0.0
 30
0.0
210
0.0
220
0.0
230
1.0
  2
SOLID
 70
     1
 71
     1
 91
        1
 92
        1
 93
        1
 72
     4
 94
        3
 73
     0
 74
     0
 95
       29
 96
       25
 40
0.0
 40
0.0
 40
0.0
 40
0.0
 40
1.0
 40
1.0
 40
1.0
 40
2.0
 40
2.0
 40
2.0
 40
3.0
 40
3.0
 40
3.0
 40
4.0
 40
4.0
 40
4.0
 40
5.0
 40
5.0
 40
5.0
 40
6.0
 40
6.0
 40
6.0
 40
7.0
 40
7.0
 40
7.0
 40
8.0
 40
8.0
 40
8.0
 40
8.0
 10
4.097216744147847
 20
-9.533546266166542
 10
4.106751632766013
 20
-9.534694909513138
 10
4.112748287878351
 20
-9.538838438843564
 10
4.116147471956789
 20
-9.546196718636918
 10
4.119673919934206
 20
-9.553830596574167
 10
4.116616318102917
 20
-9.560345814935594
 10
4.111607666614089
 20
-9.566201167504837
 10
4.100758443985543
 20
-9.578884475849513
 10
4.089846629307051
 20
-9.591514254126169
 10
4.079008895092733
 20
-9.604207317719151
 10
4.076241177644558
 20
-9.607448932254175
 10
4.074150088179142
 20
-9.611472724577676
 10
4.070888765071432
 20
-9.614049150025165
 10
4.062051896655601
 20
-9.621030045314984
 10
4.052967631181697
 20
-9.620623048433394
 10
4.04516343255164
 20
-9.613661564602098
 10
4.039596107401999
 20
-9.608695449957318
 10
4.037497590082542
 20
-9.595665409386709
 10
4.043555648788165
 20
-9.588073696900815
 10
4.057624400465783
 20
-9.570443140660598
 10
4.072841201261679
 20
-9.553710909086298
 10
4.088027696413165
 20
-9.537010072575032
 10
4.090211683572937
 20
-9.534608251216164
 10
4.094803979084064
 20
-9.534396359300343
 10
4.097216744147847
 20
-9.533546266166542
 97
        0
 97
        1
330
A0
 75
     2
 76
     1
 98
        1
 10
0.0
 20
0.0
450
        0
451
        0
460
0.0
461
0.0
452
        0
462
0.0
453
        0
470

  0
ENDBLK
  5
7F
330
7C
100
AcDbEntity
  8
0
100
AcDbBlockEnd
  0
ENDSEC
  0
SECTION
  2
ENTITIES
  0
LWPOLYLINE
  5
79
330
70
100
AcDbEntity
  8
Layer 2
 62
   250
420
  2301728
370
    35
100
AcDbPolyline
 90
        4
 70
     1
 43
0.0
 10
2.610524549195613
 20
-11.59639533589903
 10
2.610524549195613
 20
-8.566395335899034
 10
5.840524549195631
 20
-8.566395335899034
 10
5.840524549195631
 20
-11.59639533589901
  0
INSERT
  5
7D
330
70
100
AcDbEntity
  8
Layer 3
100
AcDbBlockReference
  2
Block_0
 10
0.0
 20
0.0
 30
0.0
  0
ENDSEC
  0
SECTION
  2
OBJECTS
  0
DICTIONARY
  5
C
330
0
100
AcDbDictionary
281
     1
  3
ACAD_COLOR
350
63
  3
ACAD_DETAILVIEWSTYLE
350
6A
  3
ACAD_GROUP
350
D
  3
ACAD_LAYOUT
350
62
  3
ACAD_MATERIAL
350
10
  3
ACAD_MLEADERSTYLE
350
66
  3
ACAD_MLINESTYLE
350
5F
  3
ACAD_PLOTSETTINGS
350
61
  3
ACAD_PLOTSTYLENAME
350
E
  3
ACAD_SCALELIST
350
42
  3
ACAD_SECTIONVIEWSTYLE
350
68
  3
ACAD_TABLESTYLE
350
64
  3
ACAD_VISUALSTYLE
350
29
  3
ACDB_RECOMPOSE_DATA
350
AA
  3
AcDbVariableDictionary
350
A2
  0
DICTIONARY
  5
63
102
{ACAD_REACTORS
330
C
102
}
330
C
100
AcDbDictionary
281
     1
  0
DICTIONARY
  5
6A
102
{ACAD_REACTORS
330
C
102
}
330
C
100
AcDbDictionary
281
     1
  3
Imperial24
350
6B
  0
DICTIONARY
  5
D
102
{ACAD_REACTORS
330
C
102
}
330
C
100
AcDbDictionary
281
     1
  0
DICTIONARY
  5
62
102
{ACAD_REACTORS
330
C
102
}
330
C
100
AcDbDictionary
281
     1
  3
Layout1
350
6F
  3
Layout2
350
77
  3
Model
350
73
  0
DICTIONARY
  5
10
102
{ACAD_REACTORS
330
C
102
}
330
C
100
AcDbDictionary
281
     1
  3
ByBlock
350
19
  3
ByLayer
350
11
  3
Global
350
21
  0
DICTIONARY
  5
66
102
{ACAD_REACTORS
330
C
102
}
330
C
100
AcDbDictionary
281
     1
  3
Standard
350
67
  0
DICTIONARY
  5
5F
102
{ACAD_REACTORS
330
C
102
}
330
C
100
AcDbDictionary
281
     1
  3
Standard
350
60
  0
DICTIONARY
  5
61
102
{ACAD_REACTORS
330
C
102
}
330
C
100
AcDbDictionary
281
     1
  0
ACDBDICTIONARYWDFLT
  5
E
102
{ACAD_REACTORS
330
C
102
}
330
C
100
AcDbDictionary
281
     1
  3
Normal
350
F
100
AcDbDictionaryWithDefault
340
F
  0
DICTIONARY
  5
42
102
{ACAD_REACTORS
330
C
102
}
330
C
100
AcDbDictionary
281
     1
  3
A0
350
43
  3
A1
350
44
  3
A2
350
45
  3
A3
350
46
  3
A4
350
47
  3
A5
350
48
  3
A6
350
49
  3
A7
350
4A
  3
A8
350
4B
  3
A9
350
4C
  3
B0
350
4D
  3
B1
350
4E
  3
B2
350
4F
  3
B3
350
50
  3
B4
350
51
  3
B5
350
52
  3
B6
350
53
  0
DICTIONARY
  5
68
102
{ACAD_REACTORS
330
C
102
}
330
C
100
AcDbDictionary
281
     1
  3
Imperial24
350
69
  0
DICTIONARY
  5
64
102
{ACAD_REACTORS
330
C
102
}
330
C
100
AcDbDictionary
281
     1
  3
Standard
350
65
  0
DICTIONARY
  5
29
102
{ACAD_REACTORS
330
C
102
}
330
C
100
AcDbDictionary
281
     1
  3
2dWireframe
350
2F
  3
Basic
350
2E
  3
Brighten
350
35
  3
ColorChange
350
39
  3
Conceptual
350
32
  3
Dim
350
34
  3
EdgeColorOff
350
41
  3
Facepattern
350
38
  3
Flat
350
2A
  3
FlatWithEdges
350
2B
  3
Gouraud
350
2C
  3
GouraudWithEdges
350
2D
  3
Hidden
350
31
  3
JitterOff
350
3F
  3
Linepattern
350
37
  3
OverhangOff
350
40
  3
Realistic
350
33
  3
Shaded
350
3E
  3
Shaded with edges
350
3D
  3
Shades of Gray
350
3A
  3
Sketchy
350
3B
  3
Thicken
350
36
  3
Wireframe
350
30
  3
X-Ray
350
3C
  0
XRECORD
  5
AA
102
{ACAD_REACTORS
330
C
102
}
330
C
100
AcDbXrecord
280
     1
 90
        1
330
65
  0
DICTIONARY
  5
A2
102
{ACAD_REACTORS
330
C
102
}
330
C
100
AcDbDictionary
281
     1
  3
CANNOSCALE
350
A7
  3
CMLEADERSTYLE
350
A4
  3
CTABLESTYLE
350
A3
  3
CVIEWDETAILSTYLE
350
A5
  3
CVIEWSECTIONSTYLE
350
A6
  0
ACDBDETAILVIEWSTYLE
  5
6B
102
{ACAD_REACTORS
330
6A
102
}
330
6A
100
AcDbModelDocViewStyle
 70
     0
  3
Imperial24
290
     1
300
Imperial24
 90
        0
100
AcDbDetailViewStyle
 70
     0
 71
     0
 90
        3
 71
     1
340
55
 62
   256
 40
0.24
340
0
 62
   256
 40
0.24
300

 40
0.36
280
     3
 71
     2
340
5D
 90
       25
 62
   256
 71
     3
340
55
 62
   256
 40
0.24
 90
        1
 40
0.75
 90
        1
300
%<\AcVar ViewType \f "%tc1">% %<\AcVar ViewDetailId>%\PSCALE %<\AcVar ViewScale \f "%sn">%
 71
     4
340
5D
 90
       25
 62
   256
340
5D
 90
       25
 62
   256
280
     0
  0
LAYOUT
  5
6F
102
{ACAD_REACTORS
330
62
102
}
330
62
100
AcDbPlotSettings
  1

  2

  4

  6

 40
0.0
 41
0.0
 42
0.0
 43
0.0
 44
0.0
 45
0.0
 46
0.0
 47
0.0
 48
0.0
 49
0.0
140
0.0
141
0.0
142
1.0
143
1.0
 70
   688
 72
     0
 73
     0
 74
     5
  7

 75
    16
147
1.0
 76
     0
 77
     2
 78
   300
148
0.0
149
0.0
100
AcDbLayout
  1
Layout1
 70
     1
 71
     1
 10
0.0
 20
0.0
 11
12.0
 21
9.0
 12
0.0
 22
0.0
 32
0.0
 14
0.0
 24
0.0
 34
0.0
 15
0.0
 25
0.0
 35
0.0
146
0.0
 13
0.0
 23
0.0
 33
0.0
 16
1.0
 26
0.0
 36
0.0
 17
0.0
 27
1.0
 37
0.0
 76
     0
330
6C
  0
LAYOUT
  5
77
102
{ACAD_REACTORS
330
62
102
}
330
62
100
AcDbPlotSettings
  1

  2

  4

  6

 40
0.0
 41
0.0
 42
0.0
 43
0.0
 44
0.0
 45
0.0
 46
0.0
 47
0.0
 48
0.0
 49
0.0
140
0.0
141
0.0
142
1.0
143
1.0
 70
   688
 72
     0
 73
     0
 74
     5
  7

 75
    16
147
1.0
 76
     0
 77
     2
 78
   300
148
0.0
149
0.0
100
AcDbLayout
  1
Layout2
 70
     1
 71
     2
 10
0.0
 20
0.0
 11
12.0
 21
9.0
 12
0.0
 22
0.0
 32
0.0
 14
0.0
 24
0.0
 34
0.0
 15
0.0
 25
0.0
 35
0.0
146
0.0
 13
0.0
 23
0.0
 33
0.0
 16
1.0
 26
0.0
 36
0.0
 17
0.0
 27
1.0
 37
0.0
 76
     0
330
74
  0
LAYOUT
  5
73
102
{ACAD_REACTORS
330
62
102
}
330
62
100
AcDbPlotSettings
  1

  2

  4

  6

 40
0.0
 41
0.0
 42
0.0
 43
0.0
 44
0.0
 45
0.0
 46
0.0
 47
0.0
 48
0.0
 49
0.0
140
0.0
141
0.0
142
1.0
143
1.0
 70
  1712
 72
     0
 73
     0
 74
     0
  7

 75
     0
147
1.0
 76
     0
 77
     2
 78
   300
148
0.0
149
0.0
100
AcDbLayout
  1
Model
 70
     1
 71
     0
 10
0.0
 20
0.0
 11
12.0
 21
9.0
 12
0.0
 22
0.0
 32
0.0
 14
0.0
 24
0.0
 34
0.0
 15
0.0
 25
0.0
 35
0.0
146
0.0
 13
0.0
 23
0.0
 33
0.0
 16
1.0
 26
0.0
 36
0.0
 17
0.0
 27
1.0
 37
0.0
 76
     0
330
70
  0
MATERIAL
  5
19
102
{ACAD_XDICTIONARY
360
1A
102
}
102
{ACAD_REACTORS
330
10
102
}
330
10
100
AcDbMaterial
  1
ByBlock
 72
     0
 43
0.0208333333333333
 43
0.0
 43
0.0
 43
0.0
 43
0.0
 43
0.0208333333333333
 43
0.0
 43
0.0
 43
0.0
 43
0.0
 43
1.0
 43
0.0
 43
0.0
 43
0.0
 43
0.0
 43
1.0
 77
     0
 47
0.0208333333333333
 47
0.0
 47
0.0
 47
0.0
 47
0.0
 47
0.0208333333333333
 47
0.0
 47
0.0
 47
0.0
 47
0.0
 47
1.0
 47
0.0
 47
0.0
 47
0.0
 47
0.0
 47
1.0
171
     0
 49
0.0208333333333333
 49
0.0
 49
0.0
 49
0.0
 49
0.0
 49
0.0208333333333333
 49
0.0
 49
0.0
 49
0.0
 49
0.0
 49
1.0
 49
0.0
 49
0.0
 49
0.0
 49
0.0
 49
1.0
175
     0
142
0.0208333333333333
142
0.0
142
0.0
142
0.0
142
0.0
142
0.0208333333333333
142
0.0
142
0.0
142
0.0
142
0.0
142
1.0
142
0.0
142
0.0
142
0.0
142
0.0
142
1.0
179
     0
144
0.0208333333333333
144
0.0
144
0.0
144
0.0
144
0.0
144
0.0208333333333333
144
0.0
144
0.0
144
0.0
144
0.0
144
1.0
144
0.0
144
0.0
144
0.0
144
0.0
144
1.0
147
0.0208333333333333
147
0.0
147
0.0
147
0.0
147
0.0
147
0.0208333333333333
147
0.0
147
0.0
147
0.0
147
0.0
147
1.0
147
0.0
147
0.0
147
0.0
147
0.0
147
1.0
  0
MATERIAL
  5
11
102
{ACAD_XDICTIONARY
360
12
102
}
102
{ACAD_REACTORS
330
10
102
}
330
10
100
AcDbMaterial
  1
ByLayer
 72
     0
 43
0.0208333333333333
 43
0.0
 43
0.0
 43
0.0
 43
0.0
 43
0.0208333333333333
 43
0.0
 43
0.0
 43
0.0
 43
0.0
 43
1.0
 43
0.0
 43
0.0
 43
0.0
 43
0.0
 43
1.0
 77
     0
 47
0.0208333333333333
 47
0.0
 47
0.0
 47
0.0
 47
0.0
 47
0.0208333333333333
 47
0.0
 47
0.0
 47
0.0
 47
0.0
 47
1.0
 47
0.0
 47
0.0
 47
0.0
 47
0.0
 47
1.0
171
     0
 49
0.0208333333333333
 49
0.0
 49
0.0
 49
0.0
 49
0.0
 49
0.0208333333333333
 49
0.0
 49
0.0
 49
0.0
 49
0.0
 49
1.0
 49
0.0
 49
0.0
 49
0.0
 49
0.0
 49
1.0
175
     0
142
0.0208333333333333
142
0.0
142
0.0
142
0.0
142
0.0
142
0.0208333333333333
142
0.0
142
0.0
142
0.0
142
0.0
142
1.0
142
0.0
142
0.0
142
0.0
142
0.0
142
1.0
179
     0
144
0.0208333333333333
144
0.0
144
0.0
144
0.0
144
0.0
144
0.0208333333333333
144
0.0
144
0.0
144
0.0
144
0.0
144
1.0
144
0.0
144
0.0
144
0.0
144
0.0
144
1.0
147
0.0208333333333333
147
0.0
147
0.0
147
0.0
147
0.0
147
0.0208333333333333
147
0.0
147
0.0
147
0.0
147
0.0
147
1.0
147
0.0
147
0.0
147
0.0
147
0.0
147
1.0
  0
MATERIAL
  5
21
102
{ACAD_XDICTIONARY
360
22
102
}
102
{ACAD_REACTORS
330
10
102
}
330
10
100
AcDbMaterial
  1
Global
 72
     0
 43
0.0208333333333333
 43
0.0
 43
0.0
 43
0.0
 43
0.0
 43
0.0208333333333333
 43
0.0
 43
0.0
 43
0.0
 43
0.0
 43
1.0
 43
0.0
 43
0.0
 43
0.0
 43
0.0
 43
1.0
 77
     0
 47
0.0208333333333333
 47
0.0
 47
0.0
 47
0.0
 47
0.0
 47
0.0208333333333333
 47
0.0
 47
0.0
 47
0.0
 47
0.0
 47
1.0
 47
0.0
 47
0.0
 47
0.0
 47
0.0
 47
1.0
171
     0
 49
0.0208333333333333
 49
0.0
 49
0.0
 49
0.0
 49
0.0
 49
0.0208333333333333
 49
0.0
 49
0.0
 49
0.0
 49
0.0
 49
1.0
 49
0.0
 49
0.0
 49
0.0
 49
0.0
 49
1.0
175
     0
142
0.0208333333333333
142
0.0
142
0.0
142
0.0
142
0.0
142
0.0208333333333333
142
0.0
142
0.0
142
0.0
142
0.0
142
1.0
142
0.0
142
0.0
142
0.0
142
0.0
142
1.0
179
     0
144
0.0208333333333333
144
0.0
144
0.0
144
0.0
144
0.0
144
0.0208333333333333
144
0.0
144
0.0
144
0.0
144
0.0
144
1.0
144
0.0
144
0.0
144
0.0
144
0.0
144
1.0
147
0.0208333333333333
147
0.0
147
0.0
147
0.0
147
0.0
147
0.0208333333333333
147
0.0
147
0.0
147
0.0
147
0.0
147
1.0
147
0.0
147
0.0
147
0.0
147
0.0
147
1.0
  0
MLEADERSTYLE
  5
67
102
{ACAD_REACTORS
330
66
102
}
330
66
100
AcDbMLeaderStyle
179
     2
170
     2
171
     1
172
     0
 90
        2
 40
0.0
 41
0.0
173
     1
 91
-1056964608
340
5B
 92
       -2
290
     1
 42
0.09
291
     1
 43
0.36
  3
Standard
 44
0.18
300

342
55
174
     1
178
     6
175
     1
176
     0
 93
-1056964608
 45
0.18
292
     0
297
     0
 46
0.18
 94
-1056964608
 47
1.0
 49
1.0
140
1.0
293
     1
141
0.0
294
     1
177
     0
142
1.0
295
     1
296
     0
143
0.125
271
     0
272
     9
273
     9
298
     1
  0
MLINESTYLE
  5
60
102
{ACAD_REACTORS
330
5F
102
}
330
5F
100
AcDbMlineStyle
  2
STANDARD
 70
     0
  3

 62
   256
 51
90.0
 52
90.0
 71
     2
 49
0.5
 62
   256
  6
BYLAYER
 49
-0.5
 62
   256
  6
BYLAYER
  0
ACDBPLACEHOLDER
  5
F
102
{ACAD_REACTORS
330
E
102
}
330
E
  0
SCALE
  5
43
102
{ACAD_REACTORS
330
42
102
}
330
42
100
AcDbScale
 70
     0
300
1:1
140
1.0
141
1.0
290
     1
  0
SCALE
  5
44
102
{ACAD_REACTORS
330
42
102
}
330
42
100
AcDbScale
 70
     0
300
1/128" = 1'-0"
140
0.0078125
141
12.0
290
     0
  0
SCALE
  5
45
102
{ACAD_REACTORS
330
42
102
}
330
42
100
AcDbScale
 70
     0
300
1/64" = 1'-0"
140
0.015625
141
12.0
290
     0
  0
SCALE
  5
46
102
{ACAD_REACTORS
330
42
102
}
330
42
100
AcDbScale
 70
     0
300
1/32" = 1'-0"
140
0.03125
141
12.0
290
     0
  0
SCALE
  5
47
102
{ACAD_REACTORS
330
42
102
}
330
42
100
AcDbScale
 70
     0
300
1/16" = 1'-0"
140
0.0625
141
12.0
290
     0
  0
SCALE
  5
48
102
{ACAD_REACTORS
330
42
102
}
330
42
100
AcDbScale
 70
     0
300
3/32" = 1'-0"
140
0.09375
141
12.0
290
     0
  0
SCALE
  5
49
102
{ACAD_REACTORS
330
42
102
}
330
42
100
AcDbScale
 70
     0
300
1/8" = 1'-0"
140
0.125
141
12.0
290
     0
  0
SCALE
  5
4A
102
{ACAD_REACTORS
330
42
102
}
330
42
100
AcDbScale
 70
     0
300
3/16" = 1'-0"
140
0.1875
141
12.0
290
     0
  0
SCALE
  5
4B
102
{ACAD_REACTORS
330
42
102
}
330
42
100
AcDbScale
 70
     0
300
1/4" = 1'-0"
140
0.25
141
12.0
290
     0
  0
SCALE
  5
4C
102
{ACAD_REACTORS
330
42
102
}
330
42
100
AcDbScale
 70
     0
300
3/8" = 1'-0"
140
0.375
141
12.0
290
     0
  0
SCALE
  5
4D
102
{ACAD_REACTORS
330
42
102
}
330
42
100
AcDbScale
 70
     0
300
1/2" = 1'-0"
140
0.5
141
12.0
290
     0
  0
SCALE
  5
4E
102
{ACAD_REACTORS
330
42
102
}
330
42
100
AcDbScale
 70
     0
300
3/4" = 1'-0"
140
0.75
141
12.0
290
     0
  0
SCALE
  5
4F
102
{ACAD_REACTORS
330
42
102
}
330
42
100
AcDbScale
 70
     0
300
1" = 1'-0"
140
1.0
141
12.0
290
     0
  0
SCALE
  5
50
102
{ACAD_REACTORS
330
42
102
}
330
42
100
AcDbScale
 70
     0
300
1-1/2" = 1'-0"
140
1.5
141
12.0
290
     0
  0
SCALE
  5
51
102
{ACAD_REACTORS
330
42
102
}
330
42
100
AcDbScale
 70
     0
300
3" = 1'-0"
140
3.0
141
12.0
290
     0
  0
SCALE
  5
52
102
{ACAD_REACTORS
330
42
102
}
330
42
100
AcDbScale
 70
     0
300
6" = 1'-0"
140
6.0
141
12.0
290
     0
  0
SCALE
  5
53
102
{ACAD_REACTORS
330
42
102
}
330
42
100
AcDbScale
 70
     0
300
1'-0" = 1'-0"
140
12.0
141
12.0
290
     0
  0
ACDBSECTIONVIEWSTYLE
  5
69
102
{ACAD_REACTORS
330
68
102
}
330
68
100
AcDbModelDocViewStyle
 70
     0
  3
Imperial24
290
     1
300
Imperial24
 90
        0
100
AcDbSectionViewStyle
 70
     0
 71
     0
 90
       78
 71
     1
340
55
 62
   256
 40
0.24
340
0
340
0
 62
   256
 40
0.24
300
I, O, Q, S, X, Z
 40
0.48
 90
        3
 40
0.18
 90
        1
 71
     2
340
5D
 90
       25
 62
   256
340
5D
 90
       50
 62
   256
 40
0.24
 40
0.0
 40
0.24
 71
     3
340
55
 62
   256
 40
0.24
 90
        1
 40
0.75
 90
        1
300
%<\AcVar ViewType \f "%tc1">% %<\AcVar ViewSectionStartId>%-%<\AcVar ViewSectionEndId>%\PSCALE %<\AcVar ViewScale \f "%sn">%
 71
     4
 62
   256
 62
   257
300
ANSI31
 40
1.0
 90
        0
290
     0
290
     0
 90
        6
 40
0.0
 40
1.570796326794896
 40
0.2617993877991494
 40
1.308996938995747
 40
-0.2617993877991494
 40
1.832595714594046
  0
TABLESTYLE
  5
65
102
{ACAD_XDICTIONARY
360
A8
102
}
102
{ACAD_REACTORS
330
64
102
}
330
64
100
AcDbTableStyle
280
     0
  3
Standard
 70
     0
 71
     0
 40
0.06
 41
0.06
280
     0
281
     0
  7
Standard
140
0.18
170
     2
 62
     0
 63
     7
283
     0
 90
      512
 91
        0
  1

274
    -2
284
     1
 64
     0
275
    -2
285
     1
 65
     0
276
    -2
286
     1
 66
     0
277
    -2
287
     1
 67
     0
278
    -2
288
     1
 68
     0
279
    -2
289
     1
 69
     0
  7
Standard
140
0.25
170
     5
 62
     0
 63
     7
283
     0
 90
      512
 91
        0
  1

274
    -2
284
     1
 64
     0
275
    -2
285
     1
 65
     0
276
    -2
286
     1
 66
     0
277
    -2
287
     1
 67
     0
278
    -2
288
     1
 68
     0
279
    -2
289
     1
 69
     0
  7
Standard
140
0.18
170
     5
 62
     0
 63
     7
283
     0
 90
      512
 91
        0
  1

274
    -2
284
     1
 64
     0
275
    -2
285
     1
 65
     0
276
    -2
286
     1
 66
     0
277
    -2
287
     1
 67
     0
278
    -2
288
     1
 68
     0
279
    -2
289
     1
 69
     0
  0
VISUALSTYLE
  5
2F
102
{ACAD_REACTORS
330
29
102
}
330
29
100
AcDbVisualStyle
  2
2dWireframe
 70
     4
177
     3
291
     0
 70
    58
 90
        0
176
     1
 90
        2
176
     1
 90
        0
176
     1
 90
        0
176
     1
 40
0.6
176
     1
 40
30.0
176
     1
 62
     7
420
 16777215
176
     1
 90
        1
176
     1
 90
        4
176
     1
 62
     7
176
     1
 62
   257
176
     1
 90
        1
176
     1
 90
        1
176
     1
 40
1.0
176
     1
 90
        0
176
     1
 62
   257
176
     1
 40
1.0
176
     1
 90
        1
176
     1
 90
        6
176
     1
 90
        2
176
     1
 62
     7
176
     1
 90
        5
176
     1
 90
        0
176
     1
 90
        0
176
     1
290
     0
176
     1
 90
        1
176
     1
 40
0.0
176
     1
 90
        0
176
     1
290
     1
176
     1
290
     1
176
     1
290
     0
176
     1
290
     0
176
     1
290
     0
176
     1
290
     0
176
     1
290
     0
176
     1
290
     0
176
     1
290
     0
176
     1
 90
       50
176
     1
 40
0.0
176
     1
 40
1.0
176
     1
 90
        0
176
     1
 62
    18
420
        0
176
     1
 90
       50
176
     1
 90
        3
176
     1
 62
     5
420
      255
176
     1
290
     0
176
     1
 90
       50
176
     1
 90
       50
176
     1
 90
       50
176
     1
290
     0
176
     1
 90
       50
176
     1
 62
   256
176
     0
 40
1.0
176
     0
 90
        2
176
     1
  1
strokes_ogs.tif
176
     1
290
     0
176
     1
 40
1.0
176
     1
 40
1.0
176
     1
  0
VISUALSTYLE
  5
2E
102
{ACAD_REACTORS
330
29
102
}
330
29
100
AcDbVisualStyle
  2
Basic
 70
     7
177
     3
291
     1
 70
    58
 90
        1
176
     1
 90
        0
176
     1
 90
        1
176
     1
 90
        0
176
     1
 40
0.6
176
     1
 40
30.0
176
     1
 62
     7
420
 16777215
176
     1
 90
        0
176
     1
 90
        4
176
     1
 62
     7
176
     1
 62
   257
176
     1
 90
        1
176
     1
 90
        1
176
     1
 40
1.0
176
     1
 90
        8
176
     1
 62
     7
176
     1
 40
1.0
176
     1
 90
        1
176
     1
 90
        6
176
     1
 90
        2
176
     1
 62
     7
176
     1
 90
        5
176
     1
 90
        0
176
     1
 90
        0
176
     1
290
     0
176
     1
 90
        1
176
     1
 40
0.0
176
     1
 90
        0
176
     1
290
     0
176
     1
290
     1
176
     1
290
     1
176
     1
290
     0
176
     1
290
     0
176
     1
290
     0
176
     1
290
     0
176
     1
290
     0
176
     1
290
     0
176
     1
 90
       50
176
     1
 40
0.0
176
     1
 40
1.0
176
     1
 90
        0
176
     1
 62
    18
420
        0
176
     1
 90
       50
176
     1
 90
        3
176
     1
 62
     5
420
      255
176
     1
290
     0
176
     1
 90
       50
176
     1
 90
       50
176
     1
 90
       50
176
     1
290
     0
176
     1
 90
       50
176
     1
 62
   256
176
     0
 40
1.0
176
     0
 90
        2
176
     1
  1
strokes_ogs.tif
176
     1
290
     0
176
     1
 40
1.0
176
     1
 40
1.0
176
     1
  0
VISUALSTYLE
  5
35
102
{ACAD_REACTORS
330
29
102
}
330
29
100
AcDbVisualStyle
  2
Brighten
 70
    12
177
     3
291
     1
 70
    58
 90
        2
176
     1
 90
        2
176
     1
 90
        0
176
     1
 90
        0
176
     1
 40
0.6
176
     1
 40
30.0
176
     1
 62
     7
420
 16777215
176
     1
 90
        1
176
     1
 90
        4
176
     1
 62
     7
176
     1
 62
   257
176
     1
 90
        1
176
     1
 90
        1
176
     1
 40
1.0
176
     1
 90
        8
176
     1
 62
     7
176
     1
 40
1.0
176
     1
 90
        1
176
     1
 90
        6
176
     1
 90
        2
176
     1
 62
     7
176
     1
 90
        5
176
     1
 90
        0
176
     1
 90
        0
176
     1
290
     0
176
     1
 90
        1
176
     1
 40
50.0
176
     1
 90
        0
176
     1
290
     0
176
     1
290
     1
176
     1
290
     1
176
     1
290
     0
176
     1
290
     0
176
     1
290
     0
176
     1
290
     0
176
     1
290
     0
176
     1
290
     0
176
     1
 90
       50
176
     1
 40
0.0
176
     1
 40
1.0
176
     1
 90
        0
176
     1
 62
    18
420
        0
176
     1
 90
       50
176
     1
 90
        3
176
     1
 62
     5
420
      255
176
     1
290
     0
176
     1
 90
       50
176
     1
 90
       50
176
     1
 90
       50
176
     1
290
     0
176
     1
 90
       50
176
     1
 62
   256
176
     0
 40
1.0
176
     0
 90
        2
176
     1
  1
strokes_ogs.tif
176
     1
290
     0
176
     1
 40
1.0
176
     1
 40
1.0
176
     1
  0
VISUALSTYLE
  5
39
102
{ACAD_REACTORS
330
29
102
}
330
29
100
AcDbVisualStyle
  2
ColorChange
 70
    16
177
     3
291
     1
 70
    58
 90
        2
176
     1
 90
        2
176
     1
 90
        3
176
     1
 90
        0
176
     1
 40
0.6
176
     1
 40
30.0
176
     1
 62
     8
420
  8421504
176
     1
 90
        1
176
     1
 90
        4
176
     1
 62
     7
176
     1
 62
   257
176
     1
 90
        1
176
     1
 90
        1
176
     1
 40
1.0
176
     1
 90
        8
176
     1
 62
     8
420
  8421504
176
     1
 40
1.0
176
     1
 90
        1
176
     1
 90
        6
176
     1
 90
        2
176
     1
 62
     7
176
     1
 90
        5
176
     1
 90
        0
176
     1
 90
        0
176
     1
290
     0
176
     1
 90
        1
176
     1
 40
0.0
176
     1
 90
        0
176
     1
290
     0
176
     1
290
     1
176
     1
290
     1
176
     1
290
     0
176
     1
290
     0
176
     1
290
     0
176
     1
290
     0
176
     1
290
     0
176
     1
290
     0
176
     1
 90
       50
176
     1
 40
0.0
176
     1
 40
1.0
176
     1
 90
        0
176
     1
 62
    18
420
        0
176
     1
 90
       50
176
     1
 90
        3
176
     1
 62
     5
420
      255
176
     1
290
     0
176
     1
 90
       50
176
     1
 90
       50
176
     1
 90
       50
176
     1
290
     0
176
     1
 90
       50
176
     1
 62
   256
176
     0
 40
1.0
176
     0
 90
        2
176
     1
  1
strokes_ogs.tif
176
     1
290
     0
176
     1
 40
1.0
176
     1
 40
1.0
176
     1
  0
VISUALSTYLE
  5
32
102
{ACAD_REACTORS
330
29
102
}
330
29
100
AcDbVisualStyle
  2
Conceptual
 70
     9
177
     3
291
     0
 70
    58
 90
        3
176
     1
 90
        2
176
     1
 90
        0
176
     1
 90
        0
176
     1
 40
0.6
176
     1
 40
30.0
176
     1
 62
     7
420
 16777215
176
     1
 90
        2
176
     1
 90
        2
176
     1
 62
     7
176
     1
 62
   257
176
     1
 90
        1
176
     1
 90
        1
176
     1
 40
179.0
176
     1
 90
        8
176
     1
 62
     7
176
     1
 40
1.0
176
     1
 90
        1
176
     1
 90
        6
176
     1
 90
        2
176
     1
 62
     7
176
     1
 90
        3
176
     1
 90
        0
176
     1
 90
        0
176
     1
290
     0
176
     1
 90
        1
176
     1
 40
0.0
176
     1
 90
        0
176
     1
290
     0
176
     1
290
     1
176
     1
290
     1
176
     1
290
     0
176
     1
290
     0
176
     1
290
     0
176
     1
290
     0
176
     1
290
     0
176
     1
290
     0
176
     1
 90
       50
176
     1
 40
0.0
176
     1
 40
1.0
176
     1
 90
        0
176
     1
 62
    18
420
        0
176
     1
 90
       50
176
     1
 90
        3
176
     1
 62
     5
420
      255
176
     1
290
     0
176
     1
 90
       50
176
     1
 90
       50
176
     1
 90
       50
176
     1
290
     0
176
     1
 90
       50
176
     1
 62
   256
176
     0
 40
1.0
176
     0
 90
        2
176
     1
  1
strokes_ogs.tif
176
     1
290
     0
176
     1
 40
1.0
176
     1
 40
1.0
176
     1
  0
VISUALSTYLE
  5
34
102
{ACAD_REACTORS
330
29
102
}
330
29
100
AcDbVisualStyle
  2
Dim
 70
    11
177
     3
291
     1
 70
    58
 90
        2
176
     1
 90
        2
176
     1
 90
        0
176
     1
 90
        0
176
     1
 40
0.6
176
     1
 40
30.0
176
     1
 62
     7
420
 16777215
176
     1
 90
        1
176
     1
 90
        4
176
     1
 62
     7
176
     1
 62
   257
176
     1
 90
        1
176
     1
 90
        1
176
     1
 40
1.0
176
     1
 90
        8
176
     1
 62
     7
176
     1
 40
1.0
176
     1
 90
        1
176
     1
 90
        6
176
     1
 90
        2
176
     1
 62
     7
176
     1
 90
        5
176
     1
 90
        0
176
     1
 90
        0
176
     1
290
     0
176
     1
 90
        1
176
     1
 40
-50.0
176
     1
 90
        0
176
     1
290
     0
176
     1
290
     1
176
     1
290
     1
176
     1
290
     0
176
     1
290
     0
176
     1
290
     0
176
     1
290
     0
176
     1
290
     0
176
     1
290
     0
176
     1
 90
       50
176
     1
 40
0.0
176
     1
 40
1.0
176
     1
 90
        0
176
     1
 62
    18
420
        0
176
     1
 90
       50
176
     1
 90
        3
176
     1
 62
     5
420
      255
176
     1
290
     0
176
     1
 90
       50
176
     1
 90
       50
176
     1
 90
       50
176
     1
290
     0
176
     1
 90
       50
176
     1
 62
   256
176
     0
 40
1.0
176
     0
 90
        2
176
     1
  1
strokes_ogs.tif
176
     1
290
     0
176
     1
 40
1.0
176
     1
 40
1.0
176
     1
  0
VISUALSTYLE
  5
41
102
{ACAD_REACTORS
330
29
102
}
330
29
100
AcDbVisualStyle
  2
EdgeColorOff
 70
    22
177
     3
291
     1
 70
    58
 90
        2
176
     0
 90
        2
176
     0
 90
        0
176
     0
 90
        0
176
     0
 40
0.6
176
     0
 40
30.0
176
     0
 62
     7
420
 16777215
176
     0
 90
        1
176
     0
 90
        4
176
     0
 62
     7
176
     0
 62
   257
176
     0
 90
        1
176
     0
 90
        1
176
     0
 40
1.0
176
     0
 90
        8
176
     2
 62
     7
176
     0
 40
1.0
176
     0
 90
        1
176
     0
 90
        6
176
     0
 90
        2
176
     0
 62
     7
176
     0
 90
        5
176
     0
 90
        0
176
     0
 90
        0
176
     0
290
     0
176
     0
 90
        1
176
     0
 40
0.0
176
     0
 90
        0
176
     0
290
     0
176
     0
290
     1
176
     0
290
     1
176
     0
290
     0
176
     0
290
     0
176
     0
290
     0
176
     0
290
     0
176
     0
290
     0
176
     0
290
     0
176
     0
 90
       50
176
     0
 40
0.0
176
     0
 40
1.0
176
     0
 90
        0
176
     0
 62
    18
420
        0
176
     0
 90
       50
176
     0
 90
        3
176
     0
 62
     5
420
      255
176
     0
290
     0
176
     0
 90
       50
176
     0
 90
       50
176
     0
 90
       50
176
     0
290
     0
176
     0
 90
       50
176
     0
 62
   256
176
     0
 40
1.0
176
     0
 90
        2
176
     0
  1
strokes_ogs.tif
176
     0
290
     0
176
     0
 40
1.0
176
     0
 40
1.0
176
     0
  0
VISUALSTYLE
  5
38
102
{ACAD_REACTORS
330
29
102
}
330
29
100
AcDbVisualStyle
  2
Facepattern
 70
    15
177
     3
291
     1
 70
    58
 90
        2
176
     1
 90
        2
176
     1
 90
        0
176
     1
 90
        0
176
     1
 40
0.6
176
     1
 40
30.0
176
     1
 62
     7
420
 16777215
176
     1
 90
        1
176
     1
 90
        4
176
     1
 62
     7
176
     1
 62
   257
176
     1
 90
        1
176
     1
 90
        1
176
     1
 40
1.0
176
     1
 90
        8
176
     1
 62
     7
176
     1
 40
1.0
176
     1
 90
        1
176
     1
 90
        6
176
     1
 90
        2
176
     1
 62
     7
176
     1
 90
        5
176
     1
 90
        0
176
     1
 90
        0
176
     1
290
     0
176
     1
 90
        1
176
     1
 40
0.0
176
     1
 90
        0
176
     1
290
     0
176
     1
290
     1
176
     1
290
     1
176
     1
290
     0
176
     1
290
     0
176
     1
290
     0
176
     1
290
     0
176
     1
290
     0
176
     1
290
     0
176
     1
 90
       50
176
     1
 40
0.0
176
     1
 40
1.0
176
     1
 90
        0
176
     1
 62
    18
420
        0
176
     1
 90
       50
176
     1
 90
        3
176
     1
 62
     5
420
      255
176
     1
290
     0
176
     1
 90
       50
176
     1
 90
       50
176
     1
 90
       50
176
     1
290
     0
176
     1
 90
       50
176
     1
 62
   256
176
     0
 40
1.0
176
     0
 90
        2
176
     1
  1
strokes_ogs.tif
176
     1
290
     0
176
     1
 40
1.0
176
     1
 40
1.0
176
     1
  0
VISUALSTYLE
  5
2A
102
{ACAD_REACTORS
330
29
102
}
330
29
100
AcDbVisualStyle
  2
Flat
 70
     0
177
     3
291
     1
 70
    58
 90
        2
176
     1
 90
        1
176
     1
 90
        1
176
     1
 90
        2
176
     1
 40
0.6
176
     1
 40
30.0
176
     1
 62
     7
420
 16777215
176
     1
 90
        0
176
     1
 90
        0
176
     1
 62
     7
176
     1
 62
   257
176
     1
 90
        1
176
     1
 90
        1
176
     1
 40
1.0
176
     1
 90
        8
176
     1
 62
     7
176
     1
 40
1.0
176
     1
 90
        1
176
     1
 90
        6
176
     1
 90
        2
176
     1
 62
     7
176
     1
 90
        5
176
     1
 90
        0
176
     1
 90
        0
176
     1
290
     0
176
     1
 90
       13
176
     1
 40
0.0
176
     1
 90
        0
176
     1
290
     0
176
     1
290
     1
176
     1
290
     1
176
     1
290
     0
176
     1
290
     0
176
     1
290
     0
176
     1
290
     0
176
     1
290
     0
176
     1
290
     0
176
     1
 90
       50
176
     1
 40
0.0
176
     1
 40
1.0
176
     1
 90
        0
176
     1
 62
    18
420
        0
176
     1
 90
       50
176
     1
 90
        3
176
     1
 62
     5
420
      255
176
     1
290
     0
176
     1
 90
       50
176
     1
 90
       50
176
     1
 90
       50
176
     1
290
     0
176
     1
 90
       50
176
     1
 62
   256
176
     0
 40
1.0
176
     0
 90
        2
176
     1
  1
strokes_ogs.tif
176
     1
290
     0
176
     1
 40
1.0
176
     1
 40
1.0
176
     1
  0
VISUALSTYLE
  5
2B
102
{ACAD_REACTORS
330
29
102
}
330
29
100
AcDbVisualStyle
  2
FlatWithEdges
 70
     1
177
     3
291
     1
 70
    58
 90
        2
176
     1
 90
        1
176
     1
 90
        1
176
     1
 90
        2
176
     1
 40
0.6
176
     1
 40
30.0
176
     1
 62
     7
420
 16777215
176
     1
 90
        1
176
     1
 90
        0
176
     1
 62
     7
176
     1
 62
   257
176
     1
 90
        1
176
     1
 90
        1
176
     1
 40
1.0
176
     1
 90
        0
176
     1
 62
   257
176
     1
 40
1.0
176
     1
 90
        1
176
     1
 90
        6
176
     1
 90
        2
176
     1
 62
     7
176
     1
 90
        5
176
     1
 90
        0
176
     1
 90
        0
176
     1
290
     0
176
     1
 90
       13
176
     1
 40
0.0
176
     1
 90
        0
176
     1
290
     0
176
     1
290
     1
176
     1
290
     1
176
     1
290
     0
176
     1
290
     0
176
     1
290
     0
176
     1
290
     0
176
     1
290
     0
176
     1
290
     0
176
     1
 90
       50
176
     1
 40
0.0
176
     1
 40
1.0
176
     1
 90
        0
176
     1
 62
    18
420
        0
176
     1
 90
       50
176
     1
 90
        3
176
     1
 62
     5
420
      255
176
     1
290
     0
176
     1
 90
       50
176
     1
 90
       50
176
     1
 90
       50
176
     1
290
     0
176
     1
 90
       50
176
     1
 62
   256
176
     0
 40
1.0
176
     0
 90
        2
176
     1
  1
strokes_ogs.tif
176
     1
290
     0
176
     1
 40
1.0
176
     1
 40
1.0
176
     1
  0
VISUALSTYLE
  5
2C
102
{ACAD_REACTORS
330
29
102
}
330
29
100
AcDbVisualStyle
  2
Gouraud
 70
     2
177
     3
291
     1
 70
    58
 90
        2
176
     1
 90
        2
176
     1
 90
        1
176
     1
 90
        2
176
     1
 40
0.6
176
     1
 40
30.0
176
     1
 62
     7
420
 16777215
176
     1
 90
        0
176
     1
 90
        0
176
     1
 62
     7
176
     1
 62
   257
176
     1
 90
        1
176
     1
 90
        1
176
     1
 40
1.0
176
     1
 90
        0
176
     1
 62
     7
176
     1
 40
1.0
176
     1
 90
        1
176
     1
 90
        6
176
     1
 90
        2
176
     1
 62
     7
176
     1
 90
        5
176
     1
 90
        0
176
     1
 90
        0
176
     1
290
     0
176
     1
 90
       13
176
     1
 40
0.0
176
     1
 90
        0
176
     1
290
     0
176
     1
290
     1
176
     1
290
     1
176
     1
290
     0
176
     1
290
     0
176
     1
290
     0
176
     1
290
     0
176
     1
290
     0
176
     1
290
     0
176
     1
 90
       50
176
     1
 40
0.0
176
     1
 40
1.0
176
     1
 90
        0
176
     1
 62
    18
420
        0
176
     1
 90
       50
176
     1
 90
        3
176
     1
 62
     5
420
      255
176
     1
290
     0
176
     1
 90
       50
176
     1
 90
       50
176
     1
 90
       50
176
     1
290
     0
176
     1
 90
       50
176
     1
 62
   256
176
     0
 40
1.0
176
     0
 90
        2
176
     1
  1
strokes_ogs.tif
176
     1
290
     0
176
     1
 40
1.0
176
     1
 40
1.0
176
     1
  0
VISUALSTYLE
  5
2D
102
{ACAD_REACTORS
330
29
102
}
330
29
100
AcDbVisualStyle
  2
GouraudWithEdges
 70
     3
177
     3
291
     1
 70
    58
 90
        2
176
     1
 90
        2
176
     1
 90
        1
176
     1
 90
        2
176
     1
 40
0.6
176
     1
 40
30.0
176
     1
 62
     7
420
 16777215
176
     1
 90
        1
176
     1
 90
        0
176
     1
 62
     7
176
     1
 62
   257
176
     1
 90
        1
176
     1
 90
        1
176
     1
 40
1.0
176
     1
 90
        0
176
     1
 62
   257
176
     1
 40
1.0
176
     1
 90
        1
176
     1
 90
        6
176
     1
 90
        2
176
     1
 62
     7
176
     1
 90
        5
176
     1
 90
        0
176
     1
 90
        0
176
     1
290
     0
176
     1
 90
       13
176
     1
 40
0.0
176
     1
 90
        0
176
     1
290
     0
176
     1
290
     1
176
     1
290
     1
176
     1
290
     0
176
     1
290
     0
176
     1
290
     0
176
     1
290
     0
176
     1
290
     0
176
     1
290
     0
176
     1
 90
       50
176
     1
 40
0.0
176
     1
 40
1.0
176
     1
 90
        0
176
     1
 62
    18
420
        0
176
     1
 90
       50
176
     1
 90
        3
176
     1
 62
     5
420
      255
176
     1
290
     0
176
     1
 90
       50
176
     1
 90
       50
176
     1
 90
       50
176
     1
290
     0
176
     1
 90
       50
176
     1
 62
   256
176
     0
 40
1.0
176
     0
 90
        2
176
     1
  1
strokes_ogs.tif
176
     1
290
     0
176
     1
 40
1.0
176
     1
 40
1.0
176
     1
  0
VISUALSTYLE
  5
31
102
{ACAD_REACTORS
330
29
102
}
330
29
100
AcDbVisualStyle
  2
Hidden
 70
     6
177
     3
291
     0
 70
    58
 90
        1
176
     1
 90
        2
176
     1
 90
        2
176
     1
 90
        0
176
     1
 40
0.6
176
     1
 40
30.0
176
     1
 62
     7
420
 16777215
176
     1
 90
        2
176
     1
 90
        2
176
     1
 62
     7
176
     1
 62
   257
176
     1
 90
        2
176
     1
 90
        1
176
     1
 40
40.0
176
     1
 90
        0
176
     1
 62
   257
176
     1
 40
1.0
176
     1
 90
        1
176
     1
 90
        6
176
     1
 90
        2
176
     1
 62
     7
176
     1
 90
        3
176
     1
 90
        0
176
     1
 90
        0
176
     1
290
     0
176
     1
 90
        1
176
     1
 40
0.0
176
     1
 90
        0
176
     1
290
     0
176
     1
290
     1
176
     1
290
     1
176
     1
290
     0
176
     1
290
     0
176
     1
290
     0
176
     1
290
     0
176
     1
290
     0
176
     1
290
     0
176
     1
 90
       50
176
     1
 40
0.0
176
     1
 40
1.0
176
     1
 90
        0
176
     1
 62
    18
420
        0
176
     1
 90
       50
176
     1
 90
        3
176
     1
 62
     5
420
      255
176
     1
290
     0
176
     1
 90
       50
176
     1
 90
       50
176
     1
 90
       50
176
     1
290
     0
176
     1
 90
       50
176
     1
 62
   256
176
     0
 40
1.0
176
     0
 90
        2
176
     1
  1
strokes_ogs.tif
176
     1
290
     0
176
     1
 40
1.0
176
     1
 40
1.0
176
     1
  0
VISUALSTYLE
  5
3F
102
{ACAD_REACTORS
330
29
102
}
330
29
100
AcDbVisualStyle
  2
JitterOff
 70
    20
177
     3
291
     1
 70
    58
 90
        2
176
     0
 90
        2
176
     0
 90
        0
176
     0
 90
        0
176
     0
 40
0.6
176
     0
 40
30.0
176
     0
 62
     7
420
 16777215
176
     0
 90
        1
176
     0
 90
        4
176
     0
 62
     7
176
     0
 62
   257
176
     0
 90
        1
176
     0
 90
        1
176
     0
 40
1.0
176
     0
 90
       10
176
     2
 62
     7
176
     0
 40
1.0
176
     0
 90
        1
176
     0
 90
        6
176
     0
 90
        2
176
     0
 62
     7
176
     0
 90
        5
176
     0
 90
        0
176
     0
 90
        0
176
     0
290
     0
176
     0
 90
        1
176
     0
 40
0.0
176
     0
 90
        0
176
     0
290
     0
176
     0
290
     1
176
     0
290
     1
176
     0
290
     0
176
     0
290
     0
176
     0
290
     0
176
     0
290
     0
176
     0
290
     0
176
     0
290
     0
176
     0
 90
       50
176
     0
 40
0.0
176
     0
 40
1.0
176
     0
 90
        0
176
     0
 62
    18
420
        0
176
     0
 90
       50
176
     0
 90
        3
176
     0
 62
     5
420
      255
176
     0
290
     0
176
     0
 90
       50
176
     0
 90
       50
176
     0
 90
       50
176
     0
290
     0
176
     0
 90
       50
176
     0
 62
   256
176
     0
 40
1.0
176
     0
 90
        2
176
     0
  1
strokes_ogs.tif
176
     0
290
     0
176
     0
 40
1.0
176
     0
 40
1.0
176
     0
  0
VISUALSTYLE
  5
37
102
{ACAD_REACTORS
330
29
102
}
330
29
100
AcDbVisualStyle
  2
Linepattern
 70
    14
177
     3
291
     1
 70
    58
 90
        2
176
     1
 90
        2
176
     1
 90
        0
176
     1
 90
        0
176
     1
 40
0.6
176
     1
 40
30.0
176
     1
 62
     7
420
 16777215
176
     1
 90
        1
176
     1
 90
        4
176
     1
 62
     7
176
     1
 62
   257
176
     1
 90
        7
176
     1
 90
        7
176
     1
 40
1.0
176
     1
 90
        8
176
     1
 62
     7
176
     1
 40
1.0
176
     1
 90
        1
176
     1
 90
        6
176
     1
 90
        2
176
     1
 62
     7
176
     1
 90
        5
176
     1
 90
        0
176
     1
 90
        0
176
     1
290
     0
176
     1
 90
        1
176
     1
 40
0.0
176
     1
 90
        0
176
     1
290
     0
176
     1
290
     1
176
     1
290
     1
176
     1
290
     0
176
     1
290
     0
176
     1
290
     0
176
     1
290
     0
176
     1
290
     0
176
     1
290
     0
176
     1
 90
       50
176
     1
 40
0.0
176
     1
 40
1.0
176
     1
 90
        0
176
     1
 62
    18
420
        0
176
     1
 90
       50
176
     1
 90
        3
176
     1
 62
     5
420
      255
176
     1
290
     0
176
     1
 90
       50
176
     1
 90
       50
176
     1
 90
       50
176
     1
290
     0
176
     1
 90
       50
176
     1
 62
   256
176
     0
 40
1.0
176
     0
 90
        2
176
     1
  1
strokes_ogs.tif
176
     1
290
     0
176
     1
 40
1.0
176
     1
 40
1.0
176
     1
  0
VISUALSTYLE
  5
40
102
{ACAD_REACTORS
330
29
102
}
330
29
100
AcDbVisualStyle
  2
OverhangOff
 70
    21
177
     3
291
     1
 70
    58
 90
        2
176
     0
 90
        2
176
     0
 90
        0
176
     0
 90
        0
176
     0
 40
0.6
176
     0
 40
30.0
176
     0
 62
     7
420
 16777215
176
     0
 90
        1
176
     0
 90
        4
176
     0
 62
     7
176
     0
 62
   257
176
     0
 90
        1
176
     0
 90
        1
176
     0
 40
1.0
176
     0
 90
        9
176
     2
 62
     7
176
     0
 40
1.0
176
     0
 90
        1
176
     0
 90
        6
176
     0
 90
        2
176
     0
 62
     7
176
     0
 90
        5
176
     0
 90
        0
176
     0
 90
        0
176
     0
290
     0
176
     0
 90
        1
176
     0
 40
0.0
176
     0
 90
        0
176
     0
290
     0
176
     0
290
     1
176
     0
290
     1
176
     0
290
     0
176
     0
290
     0
176
     0
290
     0
176
     0
290
     0
176
     0
290
     0
176
     0
290
     0
176
     0
 90
       50
176
     0
 40
0.0
176
     0
 40
1.0
176
     0
 90
        0
176
     0
 62
    18
420
        0
176
     0
 90
       50
176
     0
 90
        3
176
     0
 62
     5
420
      255
176
     0
290
     0
176
     0
 90
       50
176
     0
 90
       50
176
     0
 90
       50
176
     0
290
     0
176
     0
 90
       50
176
     0
 62
   256
176
     0
 40
1.0
176
     0
 90
        2
176
     0
  1
strokes_ogs.tif
176
     0
290
     0
176
     0
 40
1.0
176
     0
 40
1.0
176
     0
  0
VISUALSTYLE
  5
33
102
{ACAD_REACTORS
330
29
102
}
330
29
100
AcDbVisualStyle
  2
Realistic
 70
     8
177
     3
291
     0
 70
    58
 90
        2
176
     1
 90
        3
176
     1
 90
        0
176
     1
 90
        2
176
     1
 40
0.6
176
     1
 40
30.0
176
     1
 62
     7
420
 16777215
176
     1
 90
        0
176
     1
 90
        0
176
     1
 62
     7
176
     1
 62
   257
176
     1
 90
        1
176
     1
 90
        1
176
     1
 40
1.0
176
     1
 90
        8
176
     1
 62
   257
176
     1
 40
1.0
176
     1
 90
        1
176
     1
 90
        6
176
     1
 90
        2
176
     1
 62
     7
176
     1
 90
        3
176
     1
 90
        0
176
     1
 90
        0
176
     1
290
     0
176
     1
 90
       13
176
     1
 40
0.0
176
     1
 90
        0
176
     1
290
     0
176
     1
290
     1
176
     1
290
     1
176
     1
290
     0
176
     1
290
     0
176
     1
290
     0
176
     1
290
     0
176
     1
290
     0
176
     1
290
     0
176
     1
 90
       50
176
     1
 40
0.0
176
     1
 40
1.0
176
     1
 90
        0
176
     1
 62
    18
420
        0
176
     1
 90
       50
176
     1
 90
        3
176
     1
 62
     5
420
      255
176
     1
290
     0
176
     1
 90
       50
176
     1
 90
       50
176
     1
 90
       50
176
     1
290
     0
176
     1
 90
       50
176
     1
 62
   256
176
     0
 40
1.0
176
     0
 90
        2
176
     1
  1
strokes_ogs.tif
176
     1
290
     0
176
     1
 40
1.0
176
     1
 40
1.0
176
     1
  0
VISUALSTYLE
  5
3E
102
{ACAD_REACTORS
330
29
102
}
330
29
100
AcDbVisualStyle
  2
Shaded
 70
    27
177
     3
291
     0
 70
    58
 90
        2
176
     1
 90
        2
176
     1
 90
        1
176
     1
 90
        2
176
     1
 40
0.6
176
     1
 40
30.0
176
     1
 62
     7
420
 16777215
176
     1
 90
        0
176
     1
 90
        4
176
     1
 62
     7
176
     1
 62
   257
176
     1
 90
        1
176
     1
 90
        1
176
     1
 40
1.0
176
     1
 90
        8
176
     1
 62
   257
176
     1
 40
1.0
176
     1
 90
        1
176
     1
 90
        6
176
     1
 90
        2
176
     1
 62
     8
420
  7895160
176
     1
 90
        3
176
     1
 90
        0
176
     1
 90
        0
176
     1
290
     0
176
     1
 90
        5
176
     1
 40
0.0
176
     1
 90
        0
176
     1
290
     0
176
     1
290
     1
176
     1
290
     1
176
     1
290
     0
176
     1
290
     0
176
     1
290
     0
176
     1
290
     0
176
     1
290
     0
176
     1
290
     0
176
     1
 90
       50
176
     1
 40
0.0
176
     1
 40
1.0
176
     1
 90
        0
176
     1
 62
    18
420
        0
176
     1
 90
       50
176
     1
 90
        3
176
     1
 62
     5
420
      255
176
     1
290
     0
176
     1
 90
       50
176
     1
 90
       50
176
     1
 90
       50
176
     1
290
     0
176
     1
 90
       50
176
     1
 62
   256
176
     0
 40
1.0
176
     0
 90
        2
176
     1
  1
strokes_ogs.tif
176
     1
290
     0
176
     1
 40
1.0
176
     1
 40
1.0
176
     1
  0
VISUALSTYLE
  5
3D
102
{ACAD_REACTORS
330
29
102
}
330
29
100
AcDbVisualStyle
  2
Shaded with edges
 70
    26
177
     3
291
     0
 70
    58
 90
        2
176
     1
 90
        2
176
     1
 90
        1
176
     1
 90
        2
176
     1
 40
0.6
176
     1
 40
30.0
176
     1
 62
     7
420
 16777215
176
     1
 90
        1
176
     1
 90
        2
176
     1
 62
     7
176
     1
 62
   257
176
     1
 90
        2
176
     1
 90
        1
176
     1
 40
1.0
176
     1
 90
        8
176
     1
 62
   257
176
     1
 40
1.0
176
     1
 90
        1
176
     1
 90
        6
176
     1
 90
        2
176
     1
 62
     7
176
     1
 90
        3
176
     1
 90
        0
176
     1
 90
        0
176
     1
290
     0
176
     1
 90
        5
176
     1
 40
0.0
176
     1
 90
        0
176
     1
290
     0
176
     1
290
     1
176
     1
290
     1
176
     1
290
     0
176
     1
290
     0
176
     1
290
     0
176
     1
290
     0
176
     1
290
     0
176
     1
290
     0
176
     1
 90
       50
176
     1
 40
0.0
176
     1
 40
1.0
176
     1
 90
        0
176
     1
 62
    18
420
        0
176
     1
 90
       50
176
     1
 90
        3
176
     1
 62
     5
420
      255
176
     1
290
     0
176
     1
 90
       50
176
     1
 90
       50
176
     1
 90
       50
176
     1
290
     0
176
     1
 90
       50
176
     1
 62
   256
176
     0
 40
1.0
176
     0
 90
        2
176
     1
  1
strokes_ogs.tif
176
     1
290
     0
176
     1
 40
1.0
176
     1
 40
1.0
176
     1
  0
VISUALSTYLE
  5
3A
102
{ACAD_REACTORS
330
29
102
}
330
29
100
AcDbVisualStyle
  2
Shades of Gray
 70
    23
177
     3
291
     0
 70
    58
 90
        2
176
     1
 90
        2
176
     1
 90
        3
176
     1
 90
        0
176
     1
 40
0.6
176
     1
 40
30.0
176
     1
 62
     7
420
 16777215
176
     1
 90
        2
176
     1
 90
        2
176
     1
 62
     7
176
     1
 62
     7
176
     1
 90
        1
176
     1
 90
        1
176
     1
 40
40.0
176
     1
 90
        8
176
     1
 62
     7
176
     1
 40
1.0
176
     1
 90
        1
176
     1
 90
        6
176
     1
 90
        2
176
     1
 62
     7
176
     1
 90
        3
176
     1
 90
        0
176
     1
 90
        0
176
     1
290
     0
176
     1
 90
        1
176
     1
 40
0.0
176
     1
 90
        0
176
     1
290
     0
176
     1
290
     1
176
     1
290
     1
176
     1
290
     0
176
     1
290
     0
176
     1
290
     0
176
     1
290
     0
176
     1
290
     0
176
     1
290
     0
176
     1
 90
       50
176
     1
 40
0.0
176
     1
 40
1.0
176
     1
 90
        0
176
     1
 62
    18
420
        0
176
     1
 90
       50
176
     1
 90
        3
176
     1
 62
     5
420
      255
176
     1
290
     0
176
     1
 90
       50
176
     1
 90
       50
176
     1
 90
       50
176
     1
290
     0
176
     1
 90
       50
176
     1
 62
   256
176
     0
 40
1.0
176
     0
 90
        2
176
     1
  1
strokes_ogs.tif
176
     1
290
     0
176
     1
 40
1.0
176
     1
 40
1.0
176
     1
  0
VISUALSTYLE
  5
3B
102
{ACAD_REACTORS
330
29
102
}
330
29
100
AcDbVisualStyle
  2
Sketchy
 70
    24
177
     3
291
     0
 70
    58
 90
        1
176
     1
 90
        2
176
     1
 90
        2
176
     1
 90
        0
176
     1
 40
0.6
176
     1
 40
30.0
176
     1
 62
     7
420
 16777215
176
     1
 90
        2
176
     1
 90
        2
176
     1
 62
     7
176
     1
 62
     7
176
     1
 90
        1
176
     1
 90
        1
176
     1
 40
40.0
176
     1
 90
       11
176
     1
 62
     7
176
     1
 40
1.0
176
     1
 90
        1
176
     1
 90
        6
176
     1
 90
        2
176
     1
 62
     7
176
     1
 90
        6
176
     1
 90
        0
176
     1
 90
        0
176
     1
290
     0
176
     1
 90
        1
176
     1
 40
0.0
176
     1
 90
        0
176
     1
290
     0
176
     1
290
     1
176
     1
290
     1
176
     1
290
     0
176
     1
290
     0
176
     1
290
     0
176
     1
290
     0
176
     1
290
     0
176
     1
290
     0
176
     1
 90
       50
176
     1
 40
0.0
176
     1
 40
1.0
176
     1
 90
        0
176
     1
 62
    18
420
        0
176
     1
 90
       50
176
     1
 90
        3
176
     1
 62
     5
420
      255
176
     1
290
     0
176
     1
 90
       50
176
     1
 90
       50
176
     1
 90
       50
176
     1
290
     0
176
     1
 90
       50
176
     1
 62
   256
176
     0
 40
1.0
176
     0
 90
        2
176
     1
  1
strokes_ogs.tif
176
     1
290
     0
176
     1
 40
1.0
176
     1
 40
1.0
176
     1
  0
VISUALSTYLE
  5
36
102
{ACAD_REACTORS
330
29
102
}
330
29
100
AcDbVisualStyle
  2
Thicken
 70
    13
177
     3
291
     1
 70
    58
 90
        2
176
     1
 90
        2
176
     1
 90
        0
176
     1
 90
        0
176
     1
 40
0.6
176
     1
 40
30.0
176
     1
 62
     7
420
 16777215
176
     1
 90
        1
176
     1
 90
        4
176
     1
 62
     7
176
     1
 62
   257
176
     1
 90
        1
176
     1
 90
        1
176
     1
 40
1.0
176
     1
 90
       12
176
     1
 62
     7
176
     1
 40
1.0
176
     1
 90
        1
176
     1
 90
        6
176
     1
 90
        2
176
     1
 62
     7
176
     1
 90
        5
176
     1
 90
        0
176
     1
 90
        0
176
     1
290
     0
176
     1
 90
        1
176
     1
 40
0.0
176
     1
 90
        0
176
     1
290
     0
176
     1
290
     1
176
     1
290
     1
176
     1
290
     0
176
     1
290
     0
176
     1
290
     0
176
     1
290
     0
176
     1
290
     0
176
     1
290
     0
176
     1
 90
       50
176
     1
 40
0.0
176
     1
 40
1.0
176
     1
 90
        0
176
     1
 62
    18
420
        0
176
     1
 90
       50
176
     1
 90
        3
176
     1
 62
     5
420
      255
176
     1
290
     0
176
     1
 90
       50
176
     1
 90
       50
176
     1
 90
       50
176
     1
290
     0
176
     1
 90
       50
176
     1
 62
   256
176
     0
 40
1.0
176
     0
 90
        2
176
     1
  1
strokes_ogs.tif
176
     1
290
     0
176
     1
 40
1.0
176
     1
 40
1.0
176
     1
  0
VISUALSTYLE
  5
30
102
{ACAD_REACTORS
330
29
102
}
330
29
100
AcDbVisualStyle
  2
Wireframe
 70
     5
177
     3
291
     0
 70
    58
 90
        0
176
     1
 90
        2
176
     1
 90
        0
176
     1
 90
        0
176
     1
 40
0.6
176
     1
 40
30.0
176
     1
 62
     7
420
 16777215
176
     1
 90
        1
176
     1
 90
        4
176
     1
 62
     7
176
     1
 62
   257
176
     1
 90
        1
176
     1
 90
        1
176
     1
 40
1.0
176
     1
 90
        0
176
     1
 62
   257
176
     1
 40
1.0
176
     1
 90
        1
176
     1
 90
        6
176
     1
 90
        2
176
     1
 62
     7
176
     1
 90
        3
176
     1
 90
        0
176
     1
 90
        0
176
     1
290
     0
176
     1
 90
        1
176
     1
 40
0.0
176
     1
 90
        0
176
     1
290
     0
176
     1
290
     1
176
     1
290
     1
176
     1
290
     0
176
     1
290
     0
176
     1
290
     0
176
     1
290
     0
176
     1
290
     0
176
     1
290
     0
176
     1
 90
       50
176
     1
 40
0.0
176
     1
 40
1.0
176
     1
 90
        0
176
     1
 62
    18
420
        0
176
     1
 90
       50
176
     1
 90
        3
176
     1
 62
     5
420
      255
176
     1
290
     0
176
     1
 90
       50
176
     1
 90
       50
176
     1
 90
       50
176
     1
290
     0
176
     1
 90
       50
176
     1
 62
   256
176
     0
 40
1.0
176
     0
 90
        2
176
     1
  1
strokes_ogs.tif
176
     1
290
     0
176
     1
 40
1.0
176
     1
 40
1.0
176
     1
  0
VISUALSTYLE
  5
3C
102
{ACAD_REACTORS
330
29
102
}
330
29
100
AcDbVisualStyle
  2
X-Ray
 70
    25
177
     3
291
     0
 70
    58
 90
        2
176
     1
 90
        2
176
     1
 90
        1
176
     1
 90
        1
176
     1
 40
0.5
176
     1
 40
30.0
176
     1
 62
     7
420
 16777215
176
     1
 90
        1
176
     1
 90
        0
176
     1
 62
     7
176
     1
 62
   257
176
     1
 90
        1
176
     1
 90
        1
176
     1
 40
1.0
176
     1
 90
        8
176
     1
 62
     7
176
     1
 40
1.0
176
     1
 90
        1
176
     1
 90
        6
176
     1
 90
        2
176
     1
 62
     7
176
     1
 90
        3
176
     1
 90
        0
176
     1
 90
        0
176
     1
290
     0
176
     1
 90
       13
176
     1
 40
0.0
176
     1
 90
        0
176
     1
290
     0
176
     1
290
     1
176
     1
290
     1
176
     1
290
     0
176
     1
290
     0
176
     1
290
     0
176
     1
290
     0
176
     1
290
     0
176
     1
290
     0
176
     1
 90
       50
176
     1
 40
0.0
176
     1
 40
1.0
176
     1
 90
        0
176
     1
 62
    18
420
        0
176
     1
 90
       50
176
     1
 90
        3
176
     1
 62
     5
420
      255
176
     1
290
     0
176
     1
 90
       50
176
     1
 90
       50
176
     1
 90
       50
176
     1
290
     0
176
     1
 90
       50
176
     1
 62
   256
176
     0
 40
1.0
176
     0
 90
        2
176
     1
  1
strokes_ogs.tif
176
     1
290
     0
176
     1
 40
1.0
176
     1
 40
1.0
176
     1
  0
DICTIONARYVAR
  5
A7
102
{ACAD_REACTORS
330
A2
102
}
330
A2
100
DictionaryVariables
280
     0
  1
1:1
  0
DICTIONARYVAR
  5
A4
102
{ACAD_REACTORS
330
A2
102
}
330
A2
100
DictionaryVariables
280
     0
  1
STANDARD
  0
DICTIONARYVAR
  5
A3
102
{ACAD_REACTORS
330
A2
102
}
330
A2
100
DictionaryVariables
280
     0
  1
STANDARD
  0
DICTIONARYVAR
  5
A5
102
{ACAD_REACTORS
330
A2
102
}
330
A2
100
DictionaryVariables
280
     0
  1
Imperial24
  0
DICTIONARYVAR
  5
A6
102
{ACAD_REACTORS
330
A2
102
}
330
A2
100
DictionaryVariables
280
     0
  1
Imperial24
  0
DICTIONARY
  5
1A
330
19
100
AcDbDictionary
280
     1
281
     1
  3
BUMPTILE
360
1C
  3
DIFFUSETILE
360
1B
  3
OPACITYTILE
360
1F
  3
REFLECTIONTILE
360
1E
  3
REFRACTIONTILE
360
20
  3
SPECULARTILE
360
1D
  0
DICTIONARY
  5
12
330
11
100
AcDbDictionary
280
     1
281
     1
  3
BUMPTILE
360
14
  3
DIFFUSETILE
360
13
  3
OPACITYTILE
360
17
  3
REFLECTIONTILE
360
16
  3
REFRACTIONTILE
360
18
  3
SPECULARTILE
360
15
  0
DICTIONARY
  5
22
330
21
100
AcDbDictionary
280
     1
281
     1
  3
BUMPTILE
360
24
  3
DIFFUSETILE
360
23
  3
OPACITYTILE
360
27
  3
REFLECTIONTILE
360
26
  3
REFRACTIONTILE
360
28
  3
SPECULARTILE
360
25
  0
DICTIONARY
  5
A8
330
65
100
AcDbDictionary
280
     1
281
     1
  3
ACAD_ROUNDTRIP_2008_TABLESTYLE_CELLSTYLEMAP
360
A9
  0
XRECORD
  5
1C
102
{ACAD_REACTORS
330
1A
102
}
330
1A
100
AcDbXrecord
280
     1
270
     1
271
     1
  0
XRECORD
  5
1B
102
{ACAD_REACTORS
330
1A
102
}
330
1A
100
AcDbXrecord
280
     1
270
     1
271
     1
  0
XRECORD
  5
1F
102
{ACAD_REACTORS
330
1A
102
}
330
1A
100
AcDbXrecord
280
     1
270
     1
271
     1
  0
XRECORD
  5
1E
102
{ACAD_REACTORS
330
1A
102
}
330
1A
100
AcDbXrecord
280
     1
270
     1
271
     1
  0
XRECORD
  5
20
102
{ACAD_REACTORS
330
1A
102
}
330
1A
100
AcDbXrecord
280
     1
270
     1
271
     1
  0
XRECORD
  5
1D
102
{ACAD_REACTORS
330
1A
102
}
330
1A
100
AcDbXrecord
280
     1
270
     1
271
     1
  0
XRECORD
  5
14
102
{ACAD_REACTORS
330
12
102
}
330
12
100
AcDbXrecord
280
     1
270
     1
271
     1
  0
XRECORD
  5
13
102
{ACAD_REACTORS
330
12
102
}
330
12
100
AcDbXrecord
280
     1
270
     1
271
     1
  0
XRECORD
  5
17
102
{ACAD_REACTORS
330
12
102
}
330
12
100
AcDbXrecord
280
     1
270
     1
271
     1
  0
XRECORD
  5
16
102
{ACAD_REACTORS
330
12
102
}
330
12
100
AcDbXrecord
280
     1
270
     1
271
     1
  0
XRECORD
  5
18
102
{ACAD_REACTORS
330
12
102
}
330
12
100
AcDbXrecord
280
     1
270
     1
271
     1
  0
XRECORD
  5
15
102
{ACAD_REACTORS
330
12
102
}
330
12
100
AcDbXrecord
280
     1
270
     1
271
     1
  0
XRECORD
  5
24
102
{ACAD_REACTORS
330
22
102
}
330
22
100
AcDbXrecord
280
     1
270
     1
271
     1
  0
XRECORD
  5
23
102
{ACAD_REACTORS
330
22
102
}
330
22
100
AcDbXrecord
280
     1
270
     1
271
     1
  0
XRECORD
  5
27
102
{ACAD_REACTORS
330
22
102
}
330
22
100
AcDbXrecord
280
     1
270
     1
271
     1
  0
XRECORD
  5
26
102
{ACAD_REACTORS
330
22
102
}
330
22
100
AcDbXrecord
280
     1
270
     1
271
     1
  0
XRECORD
  5
28
102
{ACAD_REACTORS
330
22
102
}
330
22
100
AcDbXrecord
280
     1
270
     1
271
     1
  0
XRECORD
  5
25
102
{ACAD_REACTORS
330
22
102
}
330
22
100
AcDbXrecord
280
     1
270
     1
271
     1
  0
CELLSTYLEMAP
  5
A9
102
{ACAD_REACTORS
330
A8
102
}
330
A8
100
AcDbCellStyleMap
 90
        3
300
CELLSTYLE
  1
TABLEFORMAT_BEGIN
 90
        5
170
     1
 91
        0
 92
    32768
 62
   257
 93
        1
300
CONTENTFORMAT
  1
CONTENTFORMAT_BEGIN
 90
        0
 91
        0
 92
      512
 93
        0
300

 40
0.0
140
1.0
 94
        5
 62
     0
340
55
144
0.25
309
CONTENTFORMAT_END
171
     0
 94
        0
309
TABLEFORMAT_END
  1
CELLSTYLE_BEGIN
 90
        1
 91
        1
300
_TITLE
309
CELLSTYLE_END
300
CELLSTYLE
  1
TABLEFORMAT_BEGIN
 90
        5
170
     1
 91
        0
 92
        0
 62
   257
 93
        1
300
CONTENTFORMAT
  1
CONTENTFORMAT_BEGIN
 90
        0
 91
        0
 92
      512
 93
        0
300

 40
0.0
140
1.0
 94
        5
 62
     0
340
55
144
0.18
309
CONTENTFORMAT_END
171
     0
 94
        0
309
TABLEFORMAT_END
  1
CELLSTYLE_BEGIN
 90
        2
 91
        1
300
_HEADER
309
CELLSTYLE_END
300
CELLSTYLE
  1
TABLEFORMAT_BEGIN
 90
        5
170
     1
 91
        0
 92
        0
 62
   257
 93
        1
300
CONTENTFORMAT
  1
CONTENTFORMAT_BEGIN
 90
        0
 91
        0
 92
      512
 93
        0
300

 40
0.0
140
1.0
 94
        2
 62
     0
340
55
144
0.18
309
CONTENTFORMAT_END
171
     0
 94
        0
309
TABLEFORMAT_END
  1
CELLSTYLE_BEGIN
 90
        3
 91
        2
300
_DATA
309
CELLSTYLE_END
  0
ENDSEC
  0
EOF
