  0
SECTION
  2
HEADER
  9
$ACADVER
  1
AC1032
  9
$ACADMAINTVER
 90
      228
  9
$DWGCODEPAGE
  3
ANSI_1252
  9
$REQUIREDVERSIONS
160
                 0
  9
$INSBASE
 10
0.0
 20
0.0
 30
0.0
  9
$EXTMIN
 10
1.000000000000000E+20
 20
1.000000000000000E+20
 30
1.000000000000000E+20
  9
$EXTMAX
 10
-1.000000000000000E+20
 20
-1.000000000000000E+20
 30
-1.000000000000000E+20
  9
$LIMMIN
 10
0.0
 20
0.0
  9
$LIMMAX
 10
12.0
 20
9.0
  9
$ORTHOMODE
 70
     0
  9
$REGENMODE
 70
     1
  9
$FILLMODE
 70
     1
  9
$QTEXTMODE
 70
     0
  9
$MIRRTEXT
 70
     0
  9
$LTSCALE
 40
1.0
  9
$ATTMODE
 70
     1
  9
$TEXTSIZE
 40
0.2
  9
$TRACEWID
 40
0.05
  9
$TEXTSTYLE
  7
Standard
  9
$CLAYER
  8
0
  9
$CELTYPE
  6
ByLayer
  9
$CECOLOR
 62
   256
  9
$CELTSCALE
 40
1.0
  9
$DISPSILH
 70
     0
  9
$DIMSCALE
 40
1.0
  9
$DIMASZ
 40
0.18
  9
$DIMEXO
 40
0.0625
  9
$DIMDLI
 40
0.38
  9
$DIMRND
 40
0.0
  9
$DIMDLE
 40
0.0
  9
$DIMEXE
 40
0.18
  9
$DIMTP
 40
0.0
  9
$DIMTM
 40
0.0
  9
$DIMTXT
 40
0.18
  9
$DIMCEN
 40
0.09
  9
$DIMTSZ
 40
0.0
  9
$DIMTOL
 70
     0
  9
$DIMLIM
 70
     0
  9
$DIMTIH
 70
     1
  9
$DIMTOH
 70
     1
  9
$DIMSE1
 70
     0
  9
$DIMSE2
 70
     0
  9
$DIMTAD
 70
     0
  9
$DIMZIN
 70
     0
  9
$DIMBLK
  1

  9
$DIMASO
 70
     1
  9
$DIMSHO
 70
     1
  9
$DIMPOST
  1

  9
$DIMAPOST
  1

  9
$DIMALT
 70
     0
  9
$DIMALTD
 70
     2
  9
$DIMALTF
 40
25.4
  9
$DIMLFAC
 40
1.0
  9
$DIMTOFL
 70
     0
  9
$DIMTVP
 40
0.0
  9
$DIMTIX
 70
     0
  9
$DIMSOXD
 70
     0
  9
$DIMSAH
 70
     0
  9
$DIMBLK1
  1

  9
$DIMBLK2
  1

  9
$DIMSTYLE
  2
Standard
  9
$DIMCLRD
 70
     0
  9
$DIMCLRE
 70
     0
  9
$DIMCLRT
 70
     0
  9
$DIMTFAC
 40
1.0
  9
$DIMGAP
 40
0.09
  9
$DIMJUST
 70
     0
  9
$DIMSD1
 70
     0
  9
$DIMSD2
 70
     0
  9
$DIMTOLJ
 70
     1
  9
$DIMTZIN
 70
     0
  9
$DIMALTZ
 70
     0
  9
$DIMALTTZ
 70
     0
  9
$DIMUPT
 70
     0
  9
$DIMDEC
 70
     4
  9
$DIMTDEC
 70
     4
  9
$DIMALTU
 70
     2
  9
$DIMALTTD
 70
     2
  9
$DIMTXSTY
  7
Standard
  9
$DIMAUNIT
 70
     0
  9
$DIMADEC
 70
     0
  9
$DIMALTRND
 40
0.0
  9
$DIMAZIN
 70
     0
  9
$DIMDSEP
 70
    46
  9
$DIMATFIT
 70
     3
  9
$DIMFRAC
 70
     0
  9
$DIMLDRBLK
  1

  9
$DIMLUNIT
 70
     2
  9
$DIMLWD
 70
    -2
  9
$DIMLWE
 70
    -2
  9
$DIMTMOVE
 70
     0
  9
$DIMFXL
 40
1.0
  9
$DIMFXLON
 70
     0
  9
$DIMJOGANG
 40
0.7853981633974483
  9
$DIMTFILL
 70
     0
  9
$DIMTFILLCLR
 70
     0
  9
$DIMARCSYM
 70
     0
  9
$DIMLTYPE
  6

  9
$DIMLTEX1
  6

  9
$DIMLTEX2
  6

  9
$DIMTXTDIRECTION
 70
     0
  9
$LUNITS
 70
     2
  9
$LUPREC
 70
     4
  9
$SKETCHINC
 40
0.1
  9
$FILLETRAD
 40
0.0
  9
$AUNITS
 70
     0
  9
$AUPREC
 70
     0
  9
$MENU
  1
.
  9
$ELEVATION
 40
0.0
  9
$PELEVATION
 40
0.0
  9
$THICKNESS
 40
0.0
  9
$LIMCHECK
 70
     0
  9
$CHAMFERA
 40
0.0
  9
$CHAMFERB
 40
0.0
  9
$CHAMFERC
 40
0.0
  9
$CHAMFERD
 40
0.0
  9
$SKPOLY
 70
     0
  9
$TDCREATE
 40
2460332.588877315
  9
$TDUCREATE
 40
2460332.922210648
  9
$TDUPDATE
 40
2460332.588877315
  9
$TDUUPDATE
 40
2460332.922210648
  9
$TDINDWG
 40
0.0000000000
  9
$TDUSRTIMER
 40
0.0000000000
  9
$USRTIMER
 70
     1
  9
$ANGBASE
 50
0.0
  9
$ANGDIR
 70
     0
  9
$PDMODE
 70
     0
  9
$PDSIZE
 40
0.0
  9
$PLINEWID
 40
0.0
  9
$SPLFRAME
 70
     0
  9
$SPLINETYPE
 70
     6
  9
$SPLINESEGS
 70
     8
  9
$HANDSEED
  5
9E
  9
$SURFTAB1
 70
     6
  9
$SURFTAB2
 70
     6
  9
$SURFTYPE
 70
     6
  9
$SURFU
 70
     6
  9
$SURFV
 70
     6
  9
$UCSBASE
  2

  9
$UCSNAME
  2

  9
$UCSORG
 10
0.0
 20
0.0
 30
0.0
  9
$UCSXDIR
 10
1.0
 20
0.0
 30
0.0
  9
$UCSYDIR
 10
0.0
 20
1.0
 30
0.0
  9
$UCSORTHOREF
  2

  9
$UCSORTHOVIEW
 70
     0
  9
$UCSORGTOP
 10
0.0
 20
0.0
 30
0.0
  9
$UCSORGBOTTOM
 10
0.0
 20
0.0
 30
0.0
  9
$UCSORGLEFT
 10
0.0
 20
0.0
 30
0.0
  9
$UCSORGRIGHT
 10
0.0
 20
0.0
 30
0.0
  9
$UCSORGFRONT
 10
0.0
 20
0.0
 30
0.0
  9
$UCSORGBACK
 10
0.0
 20
0.0
 30
0.0
  9
$PUCSBASE
  2

  9
$PUCSNAME
  2

  9
$PUCSORG
 10
0.0
 20
0.0
 30
0.0
  9
$PUCSXDIR
 10
1.0
 20
0.0
 30
0.0
  9
$PUCSYDIR
 10
0.0
 20
1.0
 30
0.0
  9
$PUCSORTHOREF
  2

  9
$PUCSORTHOVIEW
 70
     0
  9
$PUCSORGTOP
 10
0.0
 20
0.0
 30
0.0
  9
$PUCSORGBOTTOM
 10
0.0
 20
0.0
 30
0.0
  9
$PUCSORGLEFT
 10
0.0
 20
0.0
 30
0.0
  9
$PUCSORGRIGHT
 10
0.0
 20
0.0
 30
0.0
  9
$PUCSORGFRONT
 10
0.0
 20
0.0
 30
0.0
  9
$PUCSORGBACK
 10
0.0
 20
0.0
 30
0.0
  9
$USERI1
 70
     0
  9
$USERI2
 70
     0
  9
$USERI3
 70
     0
  9
$USERI4
 70
     0
  9
$USERI5
 70
     0
  9
$USERR1
 40
0.0
  9
$USERR2
 40
0.0
  9
$USERR3
 40
0.0
  9
$USERR4
 40
0.0
  9
$USERR5
 40
0.0
  9
$WORLDVIEW
 70
     1
  9
$SHADEDGE
 70
     3
  9
$SHADEDIF
 70
    70
  9
$TILEMODE
 70
     1
  9
$MAXACTVP
 70
    64
  9
$PINSBASE
 10
0.0
 20
0.0
 30
0.0
  9
$PLIMCHECK
 70
     0
  9
$PEXTMIN
 10
1.000000000000000E+20
 20
1.000000000000000E+20
 30
1.000000000000000E+20
  9
$PEXTMAX
 10
-1.000000000000000E+20
 20
-1.000000000000000E+20
 30
-1.000000000000000E+20
  9
$PLIMMIN
 10
0.0
 20
0.0
  9
$PLIMMAX
 10
12.0
 20
9.0
  9
$UNITMODE
 70
     0
  9
$VISRETAIN
 70
     1
  9
$PLINEGEN
 70
     0
  9
$PSLTSCALE
 70
     1
  9
$TREEDEPTH
 70
  3020
  9
$CMLSTYLE
  2
Standard
  9
$CMLJUST
 70
     0
  9
$CMLSCALE
 40
1.0
  9
$PROXYGRAPHICS
 70
     1
  9
$MEASUREMENT
 70
     0
  9
$CELWEIGHT
370
    -1
  9
$ENDCAPS
280
     0
  9
$JOINSTYLE
280
     0
  9
$LWDISPLAY
290
     1
  9
$INSUNITS
 70
     1
  9
$HYPERLINKBASE
  1

  9
$STYLESHEET
  1

  9
$XEDIT
290
     1
  9
$CEPSNTYPE
380
     0
  9
$PSTYLEMODE
290
     1
  9
$FINGERPRINTGUID
  2
{3A904C4C-BE3C-0244-9FFA-4F645D8CAAE6}
  9
$VERSIONGUID
  2
{C834CACD-199F-8049-B208-B817F0581167}
  9
$EXTNAMES
290
     1
  9
$PSVPSCALE
 40
0.0
  9
$OLESTARTUP
290
     0
  9
$SORTENTS
280
   127
  9
$INDEXCTL
280
     0
  9
$HIDETEXT
280
     1
  9
$XCLIPFRAME
280
     2
  9
$HALOGAP
280
     0
  9
$OBSCOLOR
 70
   257
  9
$OBSLTYPE
280
     0
  9
$INTERSECTIONDISPLAY
280
     0
  9
$INTERSECTIONCOLOR
 70
   257
  9
$DIMASSOC
280
     2
  9
$PROJECTNAME
  1

  9
$CAMERADISPLAY
290
     0
  9
$LENSLENGTH
 40
50.0
  9
$CAMERAHEIGHT
 40
0.0
  9
$STEPSPERSEC
 40
2.0
  9
$STEPSIZE
 40
6.0
  9
$3DDWFPREC
 40
2.0
  9
$PSOLWIDTH
 40
0.25
  9
$PSOLHEIGHT
 40
4.0
  9
$LOFTANG1
 40
1.570796326794896
  9
$LOFTANG2
 40
1.570796326794896
  9
$LOFTMAG1
 40
0.0
  9
$LOFTMAG2
 40
0.0
  9
$LOFTPARAM
 70
     7
  9
$LOFTNORMALS
280
     1
  9
$LATITUDE
 40
37.795
  9
$LONGITUDE
 40
-122.394
  9
$NORTHDIRECTION
 40
0.0
  9
$TIMEZONE
 70
 -8000
  9
$LIGHTGLYPHDISPLAY
280
     1
  9
$TILEMODELIGHTSYNCH
280
     1
  9
$CMATERIAL
347
11
  9
$SOLIDHIST
280
     0
  9
$SHOWHIST
280
     1
  9
$DWFFRAME
280
     2
  9
$DGNFRAME
280
     0
  9
$REALWORLDSCALE
290
     1
  9
$INTERFERECOLOR
 62
     1
  9
$INTERFEREOBJVS
345
33
  9
$INTERFEREVPVS
346
30
  9
$CSHADOW
280
     0
  9
$SHADOWPLANELOCATION
 40
0.0
  0
ENDSEC
  0
SECTION
  2
CLASSES
  0
CLASS
  1
ACDBDICTIONARYWDFLT
  2
AcDbDictionaryWithDefault
  3
ObjectDBX Classes
 90
        0
 91
        1
280
     0
281
     0
  0
CLASS
  1
MATERIAL
  2
AcDbMaterial
  3
ObjectDBX Classes
 90
     1153
 91
        3
280
     0
281
     0
  0
CLASS
  1
VISUALSTYLE
  2
AcDbVisualStyle
  3
ObjectDBX Classes
 90
     4095
 91
       24
280
     0
281
     0
  0
CLASS
  1
SCALE
  2
AcDbScale
  3
ObjectDBX Classes
 90
     1153
 91
       17
280
     0
281
     0
  0
CLASS
  1
TABLESTYLE
  2
AcDbTableStyle
  3
ObjectDBX Classes
 90
     4095
 91
        1
280
     0
281
     0
  0
CLASS
  1
MLEADERSTYLE
  2
AcDbMLeaderStyle
  3
ACDB_MLEADERSTYLE_CLASS
 90
     4095
 91
        1
280
     0
281
     0
  0
CLASS
  1
ACDBSECTIONVIEWSTYLE
  2
AcDbSectionViewStyle
  3
ObjectDBX Classes
 90
     1025
 91
        1
280
     0
281
     0
  0
CLASS
  1
ACDBDETAILVIEWSTYLE
  2
AcDbDetailViewStyle
  3
ObjectDBX Classes
 90
     1025
 91
        1
280
     0
281
     0
  0
CLASS
  1
DICTIONARYVAR
  2
AcDbDictionaryVar
  3
ObjectDBX Classes
 90
        0
 91
        5
280
     0
281
     0
  0
CLASS
  1
CELLSTYLEMAP
  2
AcDbCellStyleMap
  3
ObjectDBX Classes
 90
     1152
 91
        1
280
     0
281
     0
  0
ENDSEC
  0
SECTION
  2
TABLES
  0
TABLE
  2
VPORT
  5
8
330
0
100
AcDbSymbolTable
 70
     1
  0
VPORT
  5
57
330
8
100
AcDbSymbolTableRecord
100
AcDbViewportTableRecord
  2
*Active
 70
     0
 10
0.0
 20
0.0
 11
1.0
 21
1.0
 12
0.0
 22
0.0
 13
0.0
 23
0.0
 14
1.0
 24
1.0
 15
0.0
 25
0.0
 16
0.0
 26
0.0
 36
1.0
 17
2.099759910531626
 27
-8.781748809255102
 37
0.0
 40
20.29674592374499
 41
0.7685943439802071
 42
50.0
 43
0.0
 44
0.0
 50
0.0
 51
0.0
 71
     0
 72
   100
 73
     1
 74
     1
 75
     0
 76
     0
 77
     0
 78
     0
281
     0
 65
     1
110
0.0
120
0.0
130
0.0
111
1.0
121
0.0
131
0.0
112
0.0
122
1.0
132
0.0
 79
     0
146
0.0
 60
     3
 61
     5
292
     1
282
     1
141
0.0
142
0.0
 63
   250
421
  3355443
  0
ENDTAB
  0
TABLE
  2
LTYPE
  5
5
330
0
100
AcDbSymbolTable
 70
     1
  0
LTYPE
  5
5B
330
5
100
AcDbSymbolTableRecord
100
AcDbLinetypeTableRecord
  2
ByBlock
 70
     0
  3

 72
    65
 73
     0
 40
0.0
  0
LTYPE
  5
5C
330
5
100
AcDbSymbolTableRecord
100
AcDbLinetypeTableRecord
  2
ByLayer
 70
     0
  3

 72
    65
 73
     0
 40
0.0
  0
LTYPE
  5
5D
330
5
100
AcDbSymbolTableRecord
100
AcDbLinetypeTableRecord
  2
Continuous
 70
     0
  3
Solid line
 72
    65
 73
     0
 40
0.0
  0
ENDTAB
  0
TABLE
  2
LAYER
  5
2
330
0
100
AcDbSymbolTable
 70
     4
  0
LAYER
  5
54
330
2
100
AcDbSymbolTableRecord
100
AcDbLayerTableRecord
  2
0
 70
     0
 62
     7
  6
Continuous
370
    -3
390
F
347
21
348
0
  0
LAYER
  5
78
330
2
100
AcDbSymbolTableRecord
100
AcDbLayerTableRecord
  2
Layer 2
 70
     0
 62
     7
  6
Continuous
370
     0
390
F
347
21
348
0
  0
LAYER
  5
7A
330
2
100
AcDbSymbolTableRecord
100
AcDbLayerTableRecord
  2
Whitebeard
 70
     1
 62
     7
  6
Continuous
370
     0
390
F
347
21
348
0
  0
LAYER
  5
7B
330
2
100
AcDbSymbolTableRecord
100
AcDbLayerTableRecord
  2
Layer 3
 70
     0
 62
     7
  6
Continuous
370
     0
390
F
347
21
348
0
  0
ENDTAB
  0
TABLE
  2
STYLE
  5
3
330
0
100
AcDbSymbolTable
 70
     2
  0
STYLE
  5
55
330
3
100
AcDbSymbolTableRecord
100
AcDbTextStyleTableRecord
  2
Standard
 70
     0
 40
0.0
 41
1.0
 50
0.0
 71
     0
 42
0.2
  3
txt
  4

  0
STYLE
  5
5A
330
3
100
AcDbSymbolTableRecord
100
AcDbTextStyleTableRecord
  2
Annotative
 70
     0
 40
0.0
 41
1.0
 50
0.0
 71
     0
 42
0.2
  3
txt
  4

1001
AcadAnnotative
1000
AnnotativeData
1002
{
1070
     1
1070
     1
1002
}
  0
ENDTAB
  0
TABLE
  2
VIEW
  5
6
330
0
100
AcDbSymbolTable
 70
     0
  0
ENDTAB
  0
TABLE
  2
UCS
  5
7
330
0
100
AcDbSymbolTable
 70
     0
  0
ENDTAB
  0
TABLE
  2
APPID
  5
9
330
0
100
AcDbSymbolTable
 70
     2
  0
APPID
  5
56
330
9
100
AcDbSymbolTableRecord
100
AcDbRegAppTableRecord
  2
ACAD
 70
     0
  0
APPID
  5
5E
330
9
100
AcDbSymbolTableRecord
100
AcDbRegAppTableRecord
  2
AcadAnnotative
 70
     0
  0
ENDTAB
  0
TABLE
  2
DIMSTYLE
  5
A
330
0
100
AcDbSymbolTable
 70
     2
100
AcDbDimStyleTable
 71
     0
  0
DIMSTYLE
105
58
330
A
100
AcDbSymbolTableRecord
100
AcDbDimStyleTableRecord
  2
Standard
 70
     0
340
55
  0
DIMSTYLE
105
59
330
A
100
AcDbSymbolTableRecord
100
AcDbDimStyleTableRecord
  2
Annotative
 70
     0
340
55
1001
AcadAnnotative
1000
AnnotativeData
1002
{
1070
     1
1070
     1
1002
}
  0
ENDTAB
  0
TABLE
  2
BLOCK_RECORD
  5
1
330
0
100
AcDbSymbolTable
 70
     2
  0
BLOCK_RECORD
  5
70
330
1
100
AcDbSymbolTableRecord
100
AcDbBlockTableRecord
  2
*Model_Space
340
73
 70
     0
280
     1
281
     0
  0
BLOCK_RECORD
  5
6C
330
1
100
AcDbSymbolTableRecord
100
AcDbBlockTableRecord
  2
*Paper_Space
340
6F
 70
     0
280
     1
281
     0
  0
BLOCK_RECORD
  5
74
330
1
100
AcDbSymbolTableRecord
100
AcDbBlockTableRecord
  2
*Paper_Space0
340
77
 70
     0
280
     1
281
     0
  0
BLOCK_RECORD
  5
7C
330
1
100
AcDbSymbolTableRecord
100
AcDbBlockTableRecord
  2
Block_0
340
0
102
{BLKREFS
331
7D
102
}
 70
     0
280
     1
281
     0
  0
ENDTAB
  0
ENDSEC
  0
SECTION
  2
BLOCKS
  0
BLOCK
  5
71
330
70
100
AcDbEntity
  8
0
100
AcDbBlockBegin
  2
*Model_Space
 70
     0
 10
0.0
 20
0.0
 30
0.0
  3
*Model_Space
  1

  0
ENDBLK
  5
72
330
70
100
AcDbEntity
  8
0
100
AcDbBlockEnd
  0
BLOCK
  5
6D
330
6C
100
AcDbEntity
 67
     1
  8
0
100
AcDbBlockBegin
  2
*Paper_Space
 70
     0
 10
0.0
 20
0.0
 30
0.0
  3
*Paper_Space
  1

  0
ENDBLK
  5
6E
330
6C
100
AcDbEntity
 67
     1
  8
0
100
AcDbBlockEnd
  0
BLOCK
  5
75
330
74
100
AcDbEntity
 67
     1
  8
0
100
AcDbBlockBegin
  2
*Paper_Space0
 70
     0
 10
0.0
 20
0.0
 30
0.0
  3
*Paper_Space0
  1

  0
ENDBLK
  5
76
330
74
100
AcDbEntity
 67
     1
  8
0
100
AcDbBlockEnd
  0
BLOCK
  5
7E
330
7C
100
AcDbEntity
  8
0
100
AcDbBlockBegin
  2
Block_0
 70
     0
 10
0.0
 20
0.0
 30
0.0
  3
Block_0
  1

  0
SPLINE
  5
80
330
7C
100
AcDbEntity
  8
Layer 3
100
AcDbSpline
210
0.0
220
0.0
230
1.0
 70
     9
 71
     3
 72
    35
 73
    31
 74
     0
 42
0.0000000001
 43
0.0000000001
 40
0.0
 40
0.0
 40
0.0
 40
0.0
 40
1.0
 40
1.0
 40
1.0
 40
2.0
 40
2.0
 40
2.0
 40
3.0
 40
3.0
 40
3.0
 40
4.0
 40
4.0
 40
4.0
 40
5.0
 40
5.0
 40
5.0
 40
6.0
 40
6.0
 40
6.0
 40
7.0
 40
7.0
 40
7.0
 40
8.0
 40
8.0
 40
8.0
 40
9.0
 40
9.0
 40
9.0
 40
10.0
 40
10.0
 40
10.0
 40
10.0
 10
4.761503101599246
 20
-9.528347724234789
 30
0.0
 10
4.729974901129101
 20
-9.525612046389268
 30
0.0
 10
4.678275701163076
 20
-9.570905117354893
 30
0.0
 10
4.672437013378334
 20
-9.596631433055183
 30
0.0
 10
4.67187748345355
 20
-9.59909673090101
 30
0.0
 10
4.671374883798332
 20
-9.601594876116298
 30
0.0
 10
4.67111629317325
 20
-9.604105625103757
 30
0.0
 10
4.663554960582612
 20
-9.677494327042444
 30
0.0
 10
4.706135544643605
 20
-9.733362156803069
 30
0.0
 10
4.7686570802718
 20
-9.75767444560304
 30
0.0
 10
4.780676192582151
 20
-9.76234823458814
 30
0.0
 10
4.796600845484868
 20
-9.761910243808364
 30
0.0
 10
4.809345004334848
 20
-9.758570011485591
 30
0.0
 10
4.826211566221066
 20
-9.754149306246619
 30
0.0
 10
4.842721654648079
 20
-9.746155993906034
 30
0.0
 10
4.857624044671839
 20
-9.736871628701084
 30
0.0
 10
4.901038882111126
 20
-9.709823584493934
 30
0.0
 10
4.912229635730454
 20
-9.675463995071064
 30
0.0
 10
4.891756300824732
 20
-9.628556439055602
 30
0.0
 10
4.88150900742236
 20
-9.605078209729779
 30
0.0
 10
4.866992719417667
 20
-9.583445521684147
 30
0.0
 10
4.854044573361963
 20
-9.561189005085047
 30
0.0
 10
4.852618679525297
 20
-9.558737978587435
 30
0.0
 10
4.849005236201693
 20
-9.557077809710916
 30
0.0
 10
4.846057892544573
 20
-9.556072649181309
 30
0.0
 10
4.828246939701304
 20
-9.549998639274058
 30
0.0
 10
4.810340120627516
 20
-9.544203967740005
 30
0.0
 10
4.792453312465921
 20
-9.538352870087237
 30
0.0
 10
4.782148313177205
 20
-9.534981884560263
 30
0.0
 10
4.77182066587933
 20
-9.531680433075077
 30
0.0
 10
4.761503101599246
 20
-9.528347724234789
 30
0.0
  0
SPLINE
  5
81
330
7C
100
AcDbEntity
  8
Layer 3
100
AcDbSpline
210
0.0
220
0.0
230
1.0
 70
     9
 71
     3
 72
    47
 73
    43
 74
     0
 42
0.0000000001
 43
0.0000000001
 40
0.0
 40
0.0
 40
0.0
 40
0.0
 40
1.0
 40
1.0
 40
1.0
 40
2.0
 40
2.0
 40
2.0
 40
3.0
 40
3.0
 40
3.0
 40
4.0
 40
4.0
 40
4.0
 40
5.0
 40
5.0
 40
5.0
 40
6.0
 40
6.0
 40
6.0
 40
7.0
 40
7.0
 40
7.0
 40
8.0
 40
8.0
 40
8.0
 40
9.0
 40
9.0
 40
9.0
 40
10.0
 40
10.0
 40
10.0
 40
11.0
 40
11.0
 40
11.0
 40
12.0
 40
12.0
 40
12.0
 40
13.0
 40
13.0
 40
13.0
 40
14.0
 40
14.0
 40
14.0
 40
14.0
 10
4.254531837688192
 20
-9.435174939216922
 30
0.0
 10
4.255174048358766
 20
-9.433720541464632
 30
0.0
 10
4.255816181467631
 20
-9.432266163102768
 30
0.0
 10
4.25645839213818
 20
-9.430811765350528
 30
0.0
 10
4.24516595516267
 20
-9.421873557901966
 30
0.0
 10
4.234925952557761
 20
-9.410941976620252
 30
0.0
 10
4.22240462840058
 20
-9.404331317482375
 30
0.0
 10
4.157208766211902
 20
-9.369910725801975
 30
0.0
 10
4.090268154139872
 20
-9.341079189654717
 30
0.0
 10
4.013795444872408
 20
-9.346927087888388
 30
0.0
 10
4.001195162929889
 20
-9.34789061718882
 30
0.0
 10
3.988420987711581
 20
-9.346712319609801
 30
0.0
 10
3.975731820089297
 20
-9.346357242260788
 30
0.0
 10
3.929792117437651
 20
-9.345071735056231
 30
0.0
 10
3.884261164814233
 20
-9.346029660525623
 30
0.0
 10
3.841706253667755
 20
-9.367068536386012
 30
0.0
 10
3.835350074386168
 20
-9.370210967046608
 30
0.0
 10
3.828044462638596
 20
-9.371486662699275
 30
0.0
 10
3.821119368469529
 20
-9.37341521436239
 30
0.0
 10
3.789016668671264
 20
-9.382355593537845
 30
0.0
 10
3.758650264533748
 20
-9.394913003264415
 30
0.0
 10
3.733229968422897
 20
-9.417103902686323
 30
0.0
 10
3.726236464856305
 20
-9.423208956654081
 30
0.0
 10
3.720516368872924
 20
-9.430772557923722
 30
0.0
 10
3.712102206882768
 20
-9.439973990307432
 30
0.0
 10
3.721576171602666
 20
-9.442394360552901
 30
0.0
 10
3.72709522772397
 20
-9.444627128496524
 30
0.0
 10
3.732764133001713
 20
-9.445113983131678
 30
0.0
 10
3.761367870508946
 20
-9.447570419556111
 30
0.0
 10
3.789993092600222
 20
-9.450996105454526
 30
0.0
 10
3.818644452976008
 20
-9.451349418275412
 30
0.0
 10
3.849899403664443
 20
-9.451734822239409
 30
0.0
 10
3.881184913652962
 20
-9.448219048455282
 30
0.0
 10
3.912468407037901
 20
-9.447997861948072
 30
0.0
 10
3.994143100298515
 20
-9.447420337714598
 30
0.0
 10
4.075832685400756
 20
-9.448374540223614
 30
0.0
 10
4.157497450766943
 20
-9.447292942663125
 30
0.0
 10
4.185242115159805
 20
-9.446925436055657
 30
0.0
 10
4.212945749426504
 20
-9.442443301969937
 30
0.0
 10
4.240629760589349
 20
-9.439482481971783
 30
0.0
 10
4.245363194502664
 20
-9.438976217527397
 30
0.0
 10
4.249902724228023
 20
-9.436656774411781
 30
0.0
 10
4.254531837688192
 20
-9.435174939216922
 30
0.0
  0
SPLINE
  5
82
330
7C
100
AcDbEntity
  8
Layer 3
100
AcDbSpline
210
0.0
220
0.0
230
1.0
 70
     9
 71
     3
 72
    35
 73
    31
 74
     0
 42
0.0000000001
 43
0.0000000001
 40
0.0
 40
0.0
 40
0.0
 40
0.0
 40
1.0
 40
1.0
 40
1.0
 40
2.0
 40
2.0
 40
2.0
 40
3.0
 40
3.0
 40
3.0
 40
4.0
 40
4.0
 40
4.0
 40
5.0
 40
5.0
 40
5.0
 40
6.0
 40
6.0
 40
6.0
 40
7.0
 40
7.0
 40
7.0
 40
8.0
 40
8.0
 40
8.0
 40
9.0
 40
9.0
 40
9.0
 40
10.0
 40
10.0
 40
10.0
 40
10.0
 10
3.958805923521595
 20
-10.49326468059626
 30
0.0
 10
3.958704085042073
 20
-10.4932645254729
 30
0.0
 10
3.958602324124234
 20
-10.49326437034953
 30
0.0
 10
3.958500485644713
 20
-10.49326437034953
 30
0.0
 10
3.958500485644713
 20
-10.44038049335672
 30
0.0
 10
3.958690744433953
 20
-10.38749553050042
 30
0.0
 10
3.958396010068251
 20
-10.33461343742611
 30
0.0
 10
3.958294404273727
 20
-10.31639373455462
 30
0.0
 10
3.95754849364347
 20
-10.31612552628182
 30
0.0
 10
3.939879245980768
 20
-10.31559469417688
 30
0.0
 10
3.931847269145085
 20
-10.31535339980534
 30
0.0
 10
3.923801408769552
 20
-10.31527467470505
 30
0.0
 10
3.915768346070409
 20
-10.31543895033307
 30
0.0
 10
3.896603554186766
 20
-10.31583063679277
 30
0.0
 10
3.880952538874124
 20
-10.32315998241291
 30
0.0
 10
3.867723541992543
 20
-10.33746856025143
 30
0.0
 10
3.838796915231493
 20
-10.36875593172014
 30
0.0
 10
3.818743033865151
 20
-10.4040280342516
 30
0.0
 10
3.81369307075541
 20
-10.447031407004
 30
0.0
 10
3.810252977775841
 20
-10.47632552098207
 30
0.0
 10
3.811580833655018
 20
-10.50529883987158
 30
0.0
 10
3.817988591450607
 20
-10.53402877022431
 30
0.0
 10
3.83297389490513
 20
-10.60121703672522
 30
0.0
 10
3.871676938138484
 20
-10.64680142934283
 30
0.0
 10
3.939033435912834
 20
-10.66585538559267
 30
0.0
 10
3.956715791498658
 20
-10.67085733802547
 30
0.0
 10
3.958564086218352
 20
-10.66972524781444
 30
0.0
 10
3.958681281909573
 20
-10.65190715929705
 30
0.0
 10
3.959029223584467
 20
-10.59902824625146
 30
0.0
 10
3.958805923521595
 20
-10.54614576536876
 30
0.0
 10
3.958805923521595
 20
-10.49326468059626
 30
0.0
  0
SPLINE
  5
83
330
7C
100
AcDbEntity
  8
Layer 3
100
AcDbSpline
210
0.0
220
0.0
230
1.0
 70
     9
 71
     3
 72
    29
 73
    25
 74
     0
 42
0.0000000001
 43
0.0000000001
 40
0.0
 40
0.0
 40
0.0
 40
0.0
 40
1.0
 40
1.0
 40
1.0
 40
2.0
 40
2.0
 40
2.0
 40
3.0
 40
3.0
 40
3.0
 40
4.0
 40
4.0
 40
4.0
 40
5.0
 40
5.0
 40
5.0
 40
6.0
 40
6.0
 40
6.0
 40
7.0
 40
7.0
 40
7.0
 40
8.0
 40
8.0
 40
8.0
 40
8.0
 10
3.997689530334759
 20
-10.4860125088429
 30
0.0
 10
3.997538905561542
 20
-10.4860146805698
 30
0.0
 10
3.99738828078835
 20
-10.48601685229672
 30
0.0
 10
3.997237656015133
 20
-10.48601902402361
 30
0.0
 10
3.997237656015133
 20
-10.54098062317136
 30
0.0
 10
3.996774845499304
 20
-10.59594811700642
 30
0.0
 10
3.997492601241471
 20
-10.65090040875313
 30
0.0
 10
3.997738549313503
 20
-10.66973486546216
 30
0.0
 10
4.000475545707508
 20
-10.67106768528859
 30
0.0
 10
4.019163023042058
 20
-10.66700826233263
 30
0.0
 10
4.061719562983701
 20
-10.65776384139045
 30
0.0
 10
4.095721670645641
 20
-10.63418385114674
 30
0.0
 10
4.114996987916457
 20
-10.59597029964551
 30
0.0
 10
4.151152052558194
 20
-10.52429260826145
 30
0.0
 10
4.155731759231305
 20
-10.44976545605436
 30
0.0
 10
4.120587711025589
 20
-10.37589556148279
 30
0.0
 10
4.096081169010125
 20
-10.32438499151082
 30
0.0
 10
4.070905579984481
 20
-10.31154318251176
 30
0.0
 10
4.014489776988688
 20
-10.31522984405678
 30
0.0
 10
4.002349435780009
 20
-10.31602314487059
 30
0.0
 10
3.997337633014467
 20
-10.31969553506734
 30
0.0
 10
3.997470496164042
 20
-10.33250042470899
 30
0.0
 10
3.998001173145667
 20
-10.38366638815811
 30
0.0
 10
3.997689530334759
 20
-10.43484103851483
 30
0.0
 10
3.997689530334759
 20
-10.4860125088429
 30
0.0
  0
SPLINE
  5
84
330
7C
100
AcDbEntity
  8
Layer 3
100
AcDbSpline
210
0.0
220
0.0
230
1.0
 70
     9
 71
     3
 72
    41
 73
    37
 74
     0
 42
0.0000000001
 43
0.0000000001
 40
0.0
 40
0.0
 40
0.0
 40
0.0
 40
1.0
 40
1.0
 40
1.0
 40
2.0
 40
2.0
 40
2.0
 40
3.0
 40
3.0
 40
3.0
 40
4.0
 40
4.0
 40
4.0
 40
5.0
 40
5.0
 40
5.0
 40
6.0
 40
6.0
 40
6.0
 40
7.0
 40
7.0
 40
7.0
 40
8.0
 40
8.0
 40
8.0
 40
9.0
 40
9.0
 40
9.0
 40
10.0
 40
10.0
 40
10.0
 40
11.0
 40
11.0
 40
11.0
 40
12.0
 40
12.0
 40
12.0
 40
12.0
 10
3.582541866101741
 20
-9.562432900450858
 30
0.0
 10
3.593693295951753
 20
-9.565299618746594
 30
0.0
 10
3.602347433764963
 20
-9.569343141559127
 30
0.0
 10
3.611035388468533
 20
-9.569417212958947
 30
0.0
 10
3.637271051689771
 20
-9.569640978391841
 30
0.0
 10
3.663523196766997
 20
-9.567615067435982
 30
0.0
 10
3.68976297075705
 20
-9.567737304636061
 30
0.0
 10
3.771914862224245
 20
-9.568120110283945
 30
0.0
 10
3.854062759265161
 20
-9.569454907933074
 30
0.0
 10
3.936214534389844
 20
-9.569738046828357
 30
0.0
 10
4.051419760327259
 20
-9.570135123824456
 30
0.0
 10
4.166627235553201
 20
-9.569873469513215
 30
0.0
 10
4.281833547354052
 20
-9.570030958494699
 30
0.0
 10
4.293671398029497
 20
-9.570047130103956
 30
0.0
 10
4.305511575555202
 20
-9.571493732907885
 30
0.0
 10
4.317344307160055
 20
-9.571406825050845
 30
0.0
 10
4.338140065949573
 20
-9.571254106112393
 30
0.0
 10
4.358930783230158
 20
-9.570428694765041
 30
0.0
 10
4.38162059812771
 20
-9.569835425511529
 30
0.0
 10
4.379424361733122
 20
-9.562904397874312
 30
0.0
 10
4.379142192358787
 20
-9.558768886915004
 30
0.0
 10
4.377064315080537
 20
-9.555963132095964
 30
0.0
 10
4.358250412215435
 20
-9.530556409278258
 30
0.0
 10
4.339331103033726
 20
-9.505218173419759
 30
0.0
 10
4.319797660507926
 20
-9.480366811586817
 30
0.0
 10
4.31758692008005
 20
-9.477554134388254
 30
0.0
 10
4.311400678428804
 20
-9.476875702415402
 30
0.0
 10
4.307056604124909
 20
-9.476872328482537
 30
0.0
 10
4.091891985371603
 20
-9.476705629052123
 30
0.0
 10
3.876727366618297
 20
-9.476691125018886
 30
0.0
 10
3.661562825426648
 20
-9.476896353211435
 30
0.0
 10
3.656387445088133
 20
-9.476901297768209
 30
0.0
 10
3.649899837547915
 20
-9.478075077379646
 30
0.0
 10
3.646252034402222
 20
-9.481257355350912
 30
0.0
 10
3.620803660964939
 20
-9.503457988763075
 30
0.0
 10
3.603276351167828
 20
-9.531906331454036
 30
0.0
 10
3.582541866101741
 20
-9.562432900450858
 30
0.0
  0
SPLINE
  5
85
330
7C
100
AcDbEntity
  8
Layer 3
100
AcDbSpline
210
0.0
220
0.0
230
1.0
 70
     9
 71
     3
 72
    41
 73
    37
 74
     0
 42
0.0000000001
 43
0.0000000001
 40
0.0
 40
0.0
 40
0.0
 40
0.0
 40
1.0
 40
1.0
 40
1.0
 40
2.0
 40
2.0
 40
2.0
 40
3.0
 40
3.0
 40
3.0
 40
4.0
 40
4.0
 40
4.0
 40
5.0
 40
5.0
 40
5.0
 40
6.0
 40
6.0
 40
6.0
 40
7.0
 40
7.0
 40
7.0
 40
8.0
 40
8.0
 40
8.0
 40
9.0
 40
9.0
 40
9.0
 40
10.0
 40
10.0
 40
10.0
 40
11.0
 40
11.0
 40
11.0
 40
12.0
 40
12.0
 40
12.0
 40
12.0
 10
3.989404004382903
 20
-9.68694502325982
 30
0.0
 10
3.98940392682122
 20
-9.687466198936236
 30
0.0
 10
3.989403849259563
 20
-9.687987335831822
 30
0.0
 10
3.989403849259563
 20
-9.688508511508238
 30
0.0
 10
4.103678490218044
 20
-9.688508511508238
 30
0.0
 10
4.217953286299916
 20
-9.688569358642427
 30
0.0
 10
4.33222784969674
 20
-9.688456428843336
 30
0.0
 10
4.354655428570493
 20
-9.688434246204248
 30
0.0
 10
4.377129622011024
 20
-9.688524489213325
 30
0.0
 10
4.399498564258339
 20
-9.687173364831576
 30
0.0
 10
4.433515253515224
 20
-9.685118717275019
 30
0.0
 10
4.43870397446186
 20
-9.676654993374414
 30
0.0
 10
4.427749163458454
 20
-9.644358738415727
 30
0.0
 10
4.417264841576701
 20
-9.613449247428508
 30
0.0
 10
4.406222230756965
 20
-9.605426228966329
 30
0.0
 10
4.373954091905539
 20
-9.605227671077853
 30
0.0
 10
4.249059551257055
 20
-9.604459228780948
 30
0.0
 10
4.124165553540326
 20
-9.603553153291411
 30
0.0
 10
3.999270159713432
 20
-9.602955695707425
 30
0.0
 10
3.907397347152507
 20
-9.602516231255826
 30
0.0
 10
3.815522595549737
 20
-9.602348232667356
 30
0.0
 10
3.723648619563669
 20
-9.602316044572161
 30
0.0
 10
3.679639969939166
 20
-9.602300648579632
 30
0.0
 10
3.635630971287102
 20
-9.60286006216193
 30
0.0
 10
3.591622476785939
 20
-9.603198541312444
 30
0.0
 10
3.564792186981877
 20
-9.603404894149282
 30
0.0
 10
3.548100643015762
 20
-9.618687607847302
 30
0.0
 10
3.538555593020519
 20
-9.641729048599346
 30
0.0
 10
3.524090689625659
 20
-9.676646926960176
 30
0.0
 10
3.535532432825903
 20
-9.685145708737991
 30
0.0
 10
3.562814364264593
 20
-9.686452894430759
 30
0.0
 10
3.597396516914411
 20
-9.688109766936095
 30
0.0
 10
3.632115488359254
 20
-9.686936452694681
 30
0.0
 10
3.666775435369269
 20
-9.686940485901812
 30
0.0
 10
3.774318265853253
 20
-9.686952973331496
 30
0.0
 10
3.881861173898919
 20
-9.68694502325982
 30
0.0
 10
3.989404004382903
 20
-9.68694502325982
 30
0.0
  0
SPLINE
  5
86
330
7C
100
AcDbEntity
  8
Layer 3
100
AcDbSpline
210
0.0
220
0.0
230
1.0
 70
     9
 71
     3
 72
    44
 73
    40
 74
     0
 42
0.0000000001
 43
0.0000000001
 40
0.0
 40
0.0
 40
0.0
 40
0.0
 40
1.0
 40
1.0
 40
1.0
 40
2.0
 40
2.0
 40
2.0
 40
3.0
 40
3.0
 40
3.0
 40
4.0
 40
4.0
 40
4.0
 40
5.0
 40
5.0
 40
5.0
 40
6.0
 40
6.0
 40
6.0
 40
7.0
 40
7.0
 40
7.0
 40
8.0
 40
8.0
 40
8.0
 40
9.0
 40
9.0
 40
9.0
 40
10.0
 40
10.0
 40
10.0
 40
11.0
 40
11.0
 40
11.0
 40
12.0
 40
12.0
 40
12.0
 40
13.0
 40
13.0
 40
13.0
 40
13.0
 10
3.983496984762344
 20
-9.810956756921287
 30
0.0
 10
3.983498225749144
 20
-9.811766966180305
 30
0.0
 10
3.983499466735944
 20
-9.812577136658495
 30
0.0
 10
3.983500785284427
 20
-9.813387345917464
 30
0.0
 10
4.080445510909157
 20
-9.813387345917464
 30
0.0
 10
4.177390314095595
 20
-9.813438652965613
 30
0.0
 10
4.274335117282008
 20
-9.813367412566952
 30
0.0
 10
4.329369081472679
 20
-9.813326964153349
 30
0.0
 10
4.384403045663374
 20
-9.813117663972837
 30
0.0
 10
4.439436777169046
 20
-9.81291825290595
 30
0.0
 10
4.459177619614339
 20
-9.812846702260584
 30
0.0
 10
4.459503378650095
 20
-9.812751495304281
 30
0.0
 10
4.459111537067074
 20
-9.793641074154948
 30
0.0
 10
4.458791362471881
 20
-9.778032562640293
 30
0.0
 10
4.458230746683637
 20
-9.76237297676251
 30
0.0
 10
4.456596677310799
 20
-9.7468603314784
 30
0.0
 10
4.454044277703738
 20
-9.722631033670898
 30
0.0
 10
4.448771169654466
 20
-9.718445572992751
 30
0.0
 10
4.424107177438372
 20
-9.718447589596305
 30
0.0
 10
4.272552207054483
 20
-9.718459921902674
 30
0.0
 10
4.120997159108911
 20
-9.71851475800703
 30
0.0
 10
3.969442188725022
 20
-9.718471905181507
 30
0.0
 10
3.918643247122897
 20
-9.718457556271561
 30
0.0
 10
3.867843607465702
 20
-9.718315346940118
 30
0.0
 10
3.817045519042014
 20
-9.718025886768321
 30
0.0
 10
3.723929547951178
 20
-9.717495287348381
 30
0.0
 10
3.630814972970559
 20
-9.716675033852425
 30
0.0
 10
3.537698536509701
 20
-9.716301807071431
 30
0.0
 10
3.517938109741432
 20
-9.716222577820239
 30
0.0
 10
3.51055644877134
 20
-9.72219808439998
 30
0.0
 10
3.507754998625285
 20
-9.74171896193444
 30
0.0
 10
3.505426635916996
 20
-9.757943545835106
 30
0.0
 10
3.505111696734906
 20
-9.774509245983255
 30
0.0
 10
3.504706243077837
 20
-9.790943634215283
 30
0.0
 10
3.504250141646934
 20
-9.80942921850932
 30
0.0
 10
3.506013545113142
 20
-9.810928253005663
 30
0.0
 10
3.525060598373859
 20
-9.810933449637913
 30
0.0
 10
3.677872727170021
 20
-9.810975139038317
 30
0.0
 10
3.830684817185353
 20
-9.810956756921287
 30
0.0
 10
3.983496984762344
 20
-9.810956756921287
 30
0.0
  0
SPLINE
  5
87
330
7C
100
AcDbEntity
  8
Layer 3
100
AcDbSpline
210
0.0
220
0.0
230
1.0
 70
     9
 71
     3
 72
    77
 73
    73
 74
     0
 42
0.0000000001
 43
0.0000000001
 40
0.0
 40
0.0
 40
0.0
 40
0.0
 40
1.0
 40
1.0
 40
1.0
 40
2.0
 40
2.0
 40
2.0
 40
3.0
 40
3.0
 40
3.0
 40
4.0
 40
4.0
 40
4.0
 40
5.0
 40
5.0
 40
5.0
 40
6.0
 40
6.0
 40
6.0
 40
7.0
 40
7.0
 40
7.0
 40
8.0
 40
8.0
 40
8.0
 40
9.0
 40
9.0
 40
9.0
 40
10.0
 40
10.0
 40
10.0
 40
11.0
 40
11.0
 40
11.0
 40
12.0
 40
12.0
 40
12.0
 40
13.0
 40
13.0
 40
13.0
 40
14.0
 40
14.0
 40
14.0
 40
15.0
 40
15.0
 40
15.0
 40
16.0
 40
16.0
 40
16.0
 40
17.0
 40
17.0
 40
17.0
 40
18.0
 40
18.0
 40
18.0
 40
19.0
 40
19.0
 40
19.0
 40
20.0
 40
20.0
 40
20.0
 40
21.0
 40
21.0
 40
21.0
 40
22.0
 40
22.0
 40
22.0
 40
23.0
 40
23.0
 40
23.0
 40
24.0
 40
24.0
 40
24.0
 40
24.0
 10
3.647022764768532
 20
-10.43711103606253
 30
0.0
 10
3.64146624635815
 20
-10.43959999021932
 30
0.0
 10
3.637567453631491
 20
-10.44095941370031
 30
0.0
 10
3.634054995608973
 20
-10.44298788419147
 30
0.0
 10
3.620127904869857
 20
-10.45103102990838
 30
0.0
 10
3.606354269905118
 20
-10.45933920386942
 30
0.0
 10
3.592463827057549
 20
-10.46744649309168
 30
0.0
 10
3.561846627243287
 20
-10.48531662549311
 30
0.0
 10
3.529298102936031
 20
-10.49563108730619
 30
0.0
 10
3.493334499289479
 20
-10.493881295914
 30
0.0
 10
3.438082392887331
 20
-10.49119300825198
 30
0.0
 10
3.395595037959941
 20
-10.45672095440012
 30
0.0
 10
3.387355486691022
 20
-10.40566861880514
 30
0.0
 10
3.381595388273682
 20
-10.36997907933785
 30
0.0
 10
3.388858728908265
 20
-10.33628442615635
 30
0.0
 10
3.409904003606824
 20
-10.3066201878643
 30
0.0
 10
3.441095082255767
 20
-10.26265528302459
 30
0.0
 10
3.477133222672187
 20
-10.25213334373036
 30
0.0
 10
3.531358722741565
 20
-10.26451715103745
 30
0.0
 10
3.536945179958618
 20
-10.26579304059429
 30
0.0
 10
3.54397164723716
 20
-10.26820489844592
 30
0.0
 10
3.546765341215707
 20
-10.27244069665122
 30
0.0
 10
3.550508390098558
 20
-10.27811588442467
 30
0.0
 10
3.552978496768243
 20
-10.28655149221802
 30
0.0
 10
3.551640014939544
 20
-10.29288075759831
 30
0.0
 10
3.550926137281142
 20
-10.29625670707249
 30
0.0
 10
3.541042608135386
 20
-10.29961241294947
 30
0.0
 10
3.535313864025233
 20
-10.29958503367814
 30
0.0
 10
3.525269704650175
 20
-10.29953710056285
 30
0.0
 10
3.515273206924525
 20
-10.29594839941362
 30
0.0
 10
3.50519154647951
 20
-10.29556687353336
 30
0.0
 10
3.494343072532753
 20
-10.29515633958661
 30
0.0
 10
3.482625830262248
 20
-10.2944205895358
 30
0.0
 10
3.472669936073568
 20
-10.29784524774201
 30
0.0
 10
3.434900386381943
 20
-10.31083752639092
 30
0.0
 10
3.411615401969811
 20
-10.35228842465279
 30
0.0
 10
3.41667773616675
 20
-10.39452773734294
 30
0.0
 10
3.420262442889729
 20
-10.42443831151541
 30
0.0
 10
3.458860661519035
 20
-10.46113964303552
 30
0.0
 10
3.492921250684073
 20
-10.46308954354973
 30
0.0
 10
3.534178477442992
 20
-10.46545145168253
 30
0.0
 10
3.572665705315153
 20
-10.45428388900404
 30
0.0
 10
3.601832424241719
 20
-10.42377492650752
 30
0.0
 10
3.637982602497938
 20
-10.3859610503185
 30
0.0
 10
3.644330017310216
 20
-10.33856357598175
 30
0.0
 10
3.642331485625668
 20
-10.28802718065013
 30
0.0
 10
3.640615666247185
 20
-10.24463832637204
 30
0.0
 10
3.620817156696425
 20
-10.21190598089459
 30
0.0
 10
3.589747423288296
 20
-10.18519777316725
 30
0.0
 10
3.541824546163777
 20
-10.14400228550178
 30
0.0
 10
3.488108044587811
 20
-10.13345226888112
 30
0.0
 10
3.42630337274252
 20
-10.15247225311724
 30
0.0
 10
3.334863024692013
 20
-10.18061263717689
 30
0.0
 10
3.268647400988381
 20
-10.25243125812479
 30
0.0
 10
3.26012337288532
 20
-10.34623023732729
 30
0.0
 10
3.257850369822714
 20
-10.37124263658832
 30
0.0
 10
3.261074608660262
 20
-10.39691772280215
 30
0.0
 10
3.263390794185523
 20
-10.42214008151796
 30
0.0
 10
3.265910404594377
 20
-10.44957736899204
 30
0.0
 10
3.275981497261151
 20
-10.47491048577995
 30
0.0
 10
3.291339969325437
 20
-10.4976659954164
 30
0.0
 10
3.343645720981839
 20
-10.57516375978318
 30
0.0
 10
3.420059774232463
 20
-10.60297939310882
 30
0.0
 10
3.509578512389755
 20
-10.59866680884506
 30
0.0
 10
3.554235383714664
 20
-10.59651555822208
 30
0.0
 10
3.597819654633389
 20
-10.58547853184296
 30
0.0
 10
3.633721674309855
 20
-10.55601610902971
 30
0.0
 10
3.641784326788082
 20
-10.5493996327662
 30
0.0
 10
3.650772949325528
 20
-10.5398617184451
 30
0.0
 10
3.652558186403287
 20
-10.53039112765805
 30
0.0
 10
3.65833110188747
 20
-10.49976698607388
 30
0.0
 10
3.652020800336736
 20
-10.46928687652052
 30
0.0
 10
3.647022764768532
 20
-10.43711103606253
 30
0.0
  0
SPLINE
  5
88
330
7C
100
AcDbEntity
  8
Layer 3
100
AcDbSpline
210
0.0
220
0.0
230
1.0
 70
     9
 71
     3
 72
    95
 73
    91
 74
     0
 42
0.0000000001
 43
0.0000000001
 40
0.0
 40
0.0
 40
0.0
 40
0.0
 40
1.0
 40
1.0
 40
1.0
 40
2.0
 40
2.0
 40
2.0
 40
3.0
 40
3.0
 40
3.0
 40
4.0
 40
4.0
 40
4.0
 40
5.0
 40
5.0
 40
5.0
 40
6.0
 40
6.0
 40
6.0
 40
7.0
 40
7.0
 40
7.0
 40
8.0
 40
8.0
 40
8.0
 40
9.0
 40
9.0
 40
9.0
 40
10.0
 40
10.0
 40
10.0
 40
11.0
 40
11.0
 40
11.0
 40
12.0
 40
12.0
 40
12.0
 40
13.0
 40
13.0
 40
13.0
 40
14.0
 40
14.0
 40
14.0
 40
15.0
 40
15.0
 40
15.0
 40
16.0
 40
16.0
 40
16.0
 40
17.0
 40
17.0
 40
17.0
 40
18.0
 40
18.0
 40
18.0
 40
19.0
 40
19.0
 40
19.0
 40
20.0
 40
20.0
 40
20.0
 40
21.0
 40
21.0
 40
21.0
 40
22.0
 40
22.0
 40
22.0
 40
23.0
 40
23.0
 40
23.0
 40
24.0
 40
24.0
 40
24.0
 40
25.0
 40
25.0
 40
25.0
 40
26.0
 40
26.0
 40
26.0
 40
27.0
 40
27.0
 40
27.0
 40
28.0
 40
28.0
 40
28.0
 40
29.0
 40
29.0
 40
29.0
 40
30.0
 40
30.0
 40
30.0
 40
30.0
 10
4.373243626960806
 20
-10.17890620276113
 30
0.0
 10
4.35597870831086
 20
-10.17826282866543
 30
0.0
 10
4.344800597244582
 20
-10.18277296251588
 30
0.0
 10
4.334621790801394
 20
-10.19130048089432
 30
0.0
 10
4.3197066806629
 20
-10.20379605457535
 30
0.0
 10
4.304652812687537
 20
-10.21617769015552
 30
0.0
 10
4.289045309474659
 20
-10.2277837089838
 30
0.0
 10
4.26057179802006
 20
-10.24895696044644
 30
0.0
 10
4.256673936033545
 20
-10.26784850254843
 30
0.0
 10
4.270209379093785
 20
-10.30030302210533
 30
0.0
 10
4.28137763982732
 20
-10.32708150071039
 30
0.0
 10
4.292962639441636
 20
-10.35478792719737
 30
0.0
 10
4.297096754290779
 20
-10.38314261416558
 30
0.0
 10
4.303479149418586
 20
-10.42691632947597
 30
0.0
 10
4.305247400489482
 20
-10.47157176590985
 30
0.0
 10
4.305887982364891
 20
-10.51589779790925
 30
0.0
 10
4.30629169088421
 20
-10.54383303133803
 30
0.0
 10
4.318897402144001
 20
-10.56094158565083
 30
0.0
 10
4.342573879111644
 20
-10.57080774098131
 30
0.0
 10
4.362023089658198
 20
-10.57891262579167
 30
0.0
 10
4.382410641351169
 20
-10.58494366653083
 30
0.0
 10
4.402683712011594
 20
-10.59086177747099
 30
0.0
 10
4.482381745980066
 20
-10.61412748780683
 30
0.0
 10
4.554659144236666
 20
-10.59657512558861
 30
0.0
 10
4.621981282188926
 20
-10.5508154435851
 30
0.0
 10
4.740446037526049
 20
-10.47029339437944
 30
0.0
 10
4.744164344234528
 20
-10.28077865429552
 30
0.0
 10
4.633218727936738
 20
-10.19831120315282
 30
0.0
 10
4.574753512797466
 20
-10.15485331898379
 30
0.0
 10
4.512019303055845
 20
-10.13898008947171
 30
0.0
 10
4.44342034480668
 20
-10.17488416453261
 30
0.0
 10
4.406708852707096
 20
-10.19409859588839
 30
0.0
 10
4.38157359575257
 20
-10.22460050027247
 30
0.0
 10
4.364274394842191
 20
-10.26120495726026
 30
0.0
 10
4.352788441487088
 20
-10.28550906330348
 30
0.0
 10
4.354196263453407
 20
-10.31208851865001
 30
0.0
 10
4.356487745585101
 20
-10.33860375292948
 30
0.0
 10
4.36100718683661
 20
-10.39090010023276
 30
0.0
 10
4.382408469624275
 20
-10.4325633623613
 30
0.0
 10
4.42795609800785
 20
-10.46068164134352
 30
0.0
 10
4.46146320705874
 20
-10.48136671962255
 30
0.0
 10
4.496557848477373
 20
-10.4838750641981
 30
0.0
 10
4.532578886544393
 20
-10.4696670838523
 30
0.0
 10
4.568410519000634
 20
-10.45553395052302
 30
0.0
 10
4.586481768825832
 20
-10.42373381881968
 30
0.0
 10
4.582044000018337
 20
-10.38567321894189
 30
0.0
 10
4.581112639422699
 20
-10.37768700349458
 30
0.0
 10
4.580072071988372
 20
-10.36970978520159
 30
0.0
 10
4.578882586137701
 20
-10.3617582398231
 30
0.0
 10
4.574154426418317
 20
-10.33015433915797
 30
0.0
 10
4.555180203570544
 20
-10.31041489282284
 30
0.0
 10
4.523962560047872
 20
-10.30328201092591
 30
0.0
 10
4.502793652039043
 20
-10.29844510973791
 30
0.0
 10
4.483981998462518
 20
-10.30621213589112
 30
0.0
 10
4.464596388489604
 20
-10.31221587492069
 30
0.0
 10
4.460573729767702
 20
-10.31346167054754
 30
0.0
 10
4.452953605427283
 20
-10.3130453970368
 30
0.0
 10
4.451591932657669
 20
-10.31071133354539
 30
0.0
 10
4.449267874622364
 20
-10.30672761078444
 30
0.0
 10
4.448849972316438
 20
-10.29980034488845
 30
0.0
 10
4.450824847690076
 20
-10.29561697837557
 30
0.0
 10
4.453143941778155
 20
-10.29070406674585
 30
0.0
 10
4.458211201141517
 20
-10.28583342622912
 30
0.0
 10
4.463251469041854
 20
-10.2837129675912
 30
0.0
 10
4.474865088914308
 20
-10.27882704742443
 30
0.0
 10
4.486925464035872
 20
-10.2739586561963
 30
0.0
 10
4.499264750941392
 20
-10.2720369105702
 30
0.0
 10
4.536116164302989
 20
-10.26629726904467
 30
0.0
 10
4.566139047781107
 20
-10.27706065783372
 30
0.0
 10
4.588858258553575
 20
-10.30875088464336
 30
0.0
 10
4.613415060534558
 20
-10.34300452481792
 30
0.0
 10
4.616254283216449
 20
-10.38083895485083
 30
0.0
 10
4.611669612596137
 20
-10.4202640972802
 30
0.0
 10
4.608951075880844
 20
-10.44364157398995
 30
0.0
 10
4.596247559348638
 20
-10.46196109873742
 30
0.0
 10
4.577490198944738
 20
-10.47615550579007
 30
0.0
 10
4.538888063450839
 20
-10.50536724926908
 30
0.0
 10
4.496034307169868
 20
-10.51717027475236
 30
0.0
 10
4.448393909666365
 20
-10.50614845046157
 30
0.0
 10
4.417978098741741
 20
-10.4991117450419
 30
0.0
 10
4.38773866306648
 20
-10.48805796534091
 30
0.0
 10
4.367278979015584
 20
-10.4642621209552
 30
0.0
 10
4.346139311758305
 20
-10.43967561285262
 30
0.0
 10
4.330713690673746
 20
-10.41035396447985
 30
0.0
 10
4.324068904398775
 20
-10.37755739793536
 30
0.0
 10
4.311640654251833
 20
-10.31621503245499
 30
0.0
 10
4.324923091127629
 20
-10.26000267373319
 30
0.0
 10
4.357449743042479
 20
-10.20747433945942
 30
0.0
 10
4.362684458062529
 20
-10.19902073735743
 30
0.0
 10
4.367106947220008
 20
-10.19006422535353
 30
0.0
 10
4.373243626960806
 20
-10.17890620276113
 30
0.0
  0
SPLINE
  5
89
330
7C
100
AcDbEntity
  8
Layer 3
100
AcDbSpline
210
0.0
220
0.0
230
1.0
 70
     9
 71
     3
 72
    62
 73
    58
 74
     0
 42
0.0000000001
 43
0.0000000001
 40
0.0
 40
0.0
 40
0.0
 40
0.0
 40
1.0
 40
1.0
 40
1.0
 40
2.0
 40
2.0
 40
2.0
 40
3.0
 40
3.0
 40
3.0
 40
4.0
 40
4.0
 40
4.0
 40
5.0
 40
5.0
 40
5.0
 40
6.0
 40
6.0
 40
6.0
 40
7.0
 40
7.0
 40
7.0
 40
8.0
 40
8.0
 40
8.0
 40
9.0
 40
9.0
 40
9.0
 40
10.0
 40
10.0
 40
10.0
 40
11.0
 40
11.0
 40
11.0
 40
12.0
 40
12.0
 40
12.0
 40
13.0
 40
13.0
 40
13.0
 40
14.0
 40
14.0
 40
14.0
 40
15.0
 40
15.0
 40
15.0
 40
16.0
 40
16.0
 40
16.0
 40
17.0
 40
17.0
 40
17.0
 40
18.0
 40
18.0
 40
18.0
 40
19.0
 40
19.0
 40
19.0
 40
19.0
 10
3.847569295818478
 20
-10.3055930385998
 30
0.0
 10
3.840846327374947
 20
-10.3026297172376
 30
0.0
 10
3.835644265820165
 20
-10.29998975049926
 30
0.0
 10
3.830204477730906
 20
-10.29799913010558
 30
0.0
 10
3.806385907774357
 20
-10.289282283678
 30
0.0
 10
3.782439361053724
 20
-10.2809130686786
 30
0.0
 10
3.758656547029431
 20
-10.27210128676061
 30
0.0
 10
3.74259810023702
 20
-10.26615153065697
 30
0.0
 10
3.738026149731442
 20
-10.26725034690937
 30
0.0
 10
3.730771883812874
 20
-10.28318461745981
 30
0.0
 10
3.693564190896267
 20
-10.36491228534459
 30
0.0
 10
3.672093684313519
 20
-10.44911998779346
 30
0.0
 10
3.684580454744364
 20
-10.54027124409011
 30
0.0
 10
3.696160374068995
 20
-10.62480292165623
 30
0.0
 10
3.731131537300724
 20
-10.69573384923157
 30
0.0
 10
3.796053063844232
 20
-10.75161470935364
 30
0.0
 10
3.891838785356664
 20
-10.83406152909075
 30
0.0
 10
4.028286835579339
 20
-10.84170197459007
 30
0.0
 10
4.132428431482998
 20
-10.77020422629243
 30
0.0
 10
4.246772179894125
 20
-10.69170188310866
 30
0.0
 10
4.305611087184463
 20
-10.53639378082415
 30
0.0
 10
4.272469060938671
 20
-10.40082054873589
 30
0.0
 10
4.262084793617936
 20
-10.35834195827778
 30
0.0
 10
4.249235616259738
 20
-10.31689548103142
 30
0.0
 10
4.22545885204608
 20
-10.27957668101514
 30
0.0
 10
4.220436888701089
 20
-10.27169455333592
 30
0.0
 10
4.215492564592927
 20
-10.26859945468757
 30
0.0
 10
4.205834972607009
 20
-10.27193941554449
 30
0.0
 10
4.179480446118532
 20
-10.28105353287239
 30
0.0
 10
4.152748892326952
 20
-10.28907185885322
 30
0.0
 10
4.12625917583864
 20
-10.29780476054758
 30
0.0
 10
4.120006463831765
 20
-10.29986603962733
 30
0.0
 10
4.114117748766501
 20
-10.30303117646837
 30
0.0
 10
4.10716713680631
 20
-10.30608097909839
 30
0.0
 10
4.109443339288014
 20
-10.30891058413256
 30
0.0
 10
4.110488095052763
 20
-10.31074809777942
 30
0.0
 10
4.112007450708006
 20
-10.31201762727889
 30
0.0
 10
4.136243535162116
 20
-10.33226812749181
 30
0.0
 10
4.151019034285253
 20
-10.35858046042898
 30
0.0
 10
4.159893563598517
 20
-10.3883117895701
 30
0.0
 10
4.174482914701229
 20
-10.43718859773773
 30
0.0
 10
4.173509438115944
 20
-10.48686320529635
 30
0.0
 10
4.165500109289395
 20
-10.53661033302127
 30
0.0
 10
4.150177412547792
 20
-10.63178347242307
 30
0.0
 10
4.076089647230648
 20
-10.7097317149993
 30
0.0
 10
3.97007943544837
 20
-10.70348846551678
 30
0.0
 10
3.913131404237421
 20
-10.70013438843499
 30
0.0
 10
3.86458392294263
 20
-10.68185837578731
 30
0.0
 10
3.830074251678272
 20
-10.63381760491653
 30
0.0
 10
3.79252563641843
 20
-10.58154631003433
 30
0.0
 10
3.779448039926794
 20
-10.52325297156724
 30
0.0
 10
3.785121521343373
 20
-10.4598768614018
 30
0.0
 10
3.790025203133735
 20
-10.4051013327128
 30
0.0
 10
3.805224809496798
 20
-10.3545121178804
 30
0.0
 10
3.843128114297289
 20
-10.31279526063432
 30
0.0
 10
3.844507471128811
 20
-10.3112770684042
 30
0.0
 10
3.845337691299997
 20
-10.30925984435594
 30
0.0
 10
3.847569295818478
 20
-10.3055930385998
 30
0.0
  0
SPLINE
  5
8A
330
7C
100
AcDbEntity
  8
Layer 3
100
AcDbSpline
210
0.0
220
0.0
230
1.0
 70
     9
 71
     3
 72
   161
 73
   157
 74
     0
 42
0.0000000001
 43
0.0000000001
 40
0.0
 40
0.0
 40
0.0
 40
0.0
 40
1.0
 40
1.0
 40
1.0
 40
2.0
 40
2.0
 40
2.0
 40
3.0
 40
3.0
 40
3.0
 40
4.0
 40
4.0
 40
4.0
 40
5.0
 40
5.0
 40
5.0
 40
6.0
 40
6.0
 40
6.0
 40
7.0
 40
7.0
 40
7.0
 40
8.0
 40
8.0
 40
8.0
 40
9.0
 40
9.0
 40
9.0
 40
10.0
 40
10.0
 40
10.0
 40
11.0
 40
11.0
 40
11.0
 40
12.0
 40
12.0
 40
12.0
 40
13.0
 40
13.0
 40
13.0
 40
14.0
 40
14.0
 40
14.0
 40
15.0
 40
15.0
 40
15.0
 40
16.0
 40
16.0
 40
16.0
 40
17.0
 40
17.0
 40
17.0
 40
18.0
 40
18.0
 40
18.0
 40
19.0
 40
19.0
 40
19.0
 40
20.0
 40
20.0
 40
20.0
 40
21.0
 40
21.0
 40
21.0
 40
22.0
 40
22.0
 40
22.0
 40
23.0
 40
23.0
 40
23.0
 40
24.0
 40
24.0
 40
24.0
 40
25.0
 40
25.0
 40
25.0
 40
26.0
 40
26.0
 40
26.0
 40
27.0
 40
27.0
 40
27.0
 40
28.0
 40
28.0
 40
28.0
 40
29.0
 40
29.0
 40
29.0
 40
30.0
 40
30.0
 40
30.0
 40
31.0
 40
31.0
 40
31.0
 40
32.0
 40
32.0
 40
32.0
 40
33.0
 40
33.0
 40
33.0
 40
34.0
 40
34.0
 40
34.0
 40
35.0
 40
35.0
 40
35.0
 40
36.0
 40
36.0
 40
36.0
 40
37.0
 40
37.0
 40
37.0
 40
38.0
 40
38.0
 40
38.0
 40
39.0
 40
39.0
 40
39.0
 40
40.0
 40
40.0
 40
40.0
 40
41.0
 40
41.0
 40
41.0
 40
42.0
 40
42.0
 40
42.0
 40
43.0
 40
43.0
 40
43.0
 40
44.0
 40
44.0
 40
44.0
 40
45.0
 40
45.0
 40
45.0
 40
46.0
 40
46.0
 40
46.0
 40
47.0
 40
47.0
 40
47.0
 40
48.0
 40
48.0
 40
48.0
 40
49.0
 40
49.0
 40
49.0
 40
50.0
 40
50.0
 40
50.0
 40
51.0
 40
51.0
 40
51.0
 40
52.0
 40
52.0
 40
52.0
 40
52.0
 10
4.639146611647927
 20
-9.851667290212692
 30
0.0
 10
4.640949920596009
 20
-9.851354871785032
 30
0.0
 10
4.642753229544116
 20
-9.851042375795714
 30
0.0
 10
4.644556538492224
 20
-9.850729879806344
 30
0.0
 10
4.635255807773849
 20
-9.854100942895001
 30
0.0
 10
4.6259890490692
 20
-9.857569423447708
 30
0.0
 10
4.616647986279708
 20
-9.860824686955311
 30
0.0
 10
4.589575393802356
 20
-9.870259211563405
 30
0.0
 10
4.561991204515455
 20
-9.878433824319749
 30
0.0
 10
4.535505598795907
 20
-9.889292148599249
 30
0.0
 10
4.503424848951731
 20
-9.902444281860727
 30
0.0
 10
4.483826875112147
 20
-9.924522678072763
 30
0.0
 10
4.474640935673025
 20
-9.960919424894427
 30
0.0
 10
4.463991717669841
 20
-10.00311444986806
 30
0.0
 10
4.443450593859981
 20
-10.04280725763846
 30
0.0
 10
4.427310164376876
 20
-10.08362843265947
 30
0.0
 10
4.42496299296239
 20
-10.08956484815495
 30
0.0
 10
4.423208702993002
 20
-10.09573573259452
 30
0.0
 10
4.421081496489326
 20
-10.10209245480781
 30
0.0
 10
4.44476185154071
 20
-10.10654092712649
 30
0.0
 10
4.460377343606119
 20
-10.10060567505616
 30
0.0
 10
4.475555853193554
 20
-10.08320215369265
 30
0.0
 10
4.498209291665438
 20
-10.05722798965929
 30
0.0
 10
4.523504325670854
 20
-10.03295188338079
 30
0.0
 10
4.550463367855753
 20
-10.0114484518669
 30
0.0
 10
4.641878644094705
 20
-9.938532333215132
 30
0.0
 10
4.752411787403843
 20
-9.944304473082562
 30
0.0
 10
4.839702178633059
 20
-10.00707955782698
 30
0.0
 10
4.874464545835153
 20
-10.03207884916489
 30
0.0
 10
4.901196332311756
 20
-10.06490279498073
 30
0.0
 10
4.928238210365734
 20
-10.09760675288503
 30
0.0
 10
4.941847802387479
 20
-10.11406588329148
 30
0.0
 10
4.957195551550158
 20
-10.12963227881652
 30
0.0
 10
4.973978036580446
 20
-10.14276385823407
 30
0.0
 10
4.989504487842723
 20
-10.15491257610362
 30
0.0
 10
5.014843576879658
 20
-10.1486215486292
 30
0.0
 10
5.031266175737073
 20
-10.13212557642706
 30
0.0
 10
5.045737167723447
 20
-10.11759005312696
 30
0.0
 10
5.046636262662205
 20
-10.10499985420221
 30
0.0
 10
5.033813146026886
 20
-10.08423333616426
 30
0.0
 10
5.028045349613269
 20
-10.07489242849813
 30
0.0
 10
5.022183238202615
 20
-10.06530464201988
 30
0.0
 10
5.01472382165318
 20
-10.05737085826498
 30
0.0
 10
4.992416308252611
 20
-10.03364466426357
 30
0.0
 10
4.969238863103151
 20
-10.01073845229224
 30
0.0
 10
4.94652616751139
 20
-9.987390371457371
 30
0.0
 10
4.937098080522369
 20
-9.977698497210996
 30
0.0
 10
4.927959919075166
 20
-9.967723677973582
 30
0.0
 10
4.918741869102505
 20
-9.957828979946599
 30
0.0
 10
4.913165184656564
 20
-9.951842847417335
 30
0.0
 10
4.912825309395909
 20
-9.944430510804723
 30
0.0
 10
4.918936393783925
 20
-9.940072940769368
 30
0.0
 10
4.92299581673986
 20
-9.937178416613075
 30
0.0
 10
4.930557149330474
 20
-9.937150029039937
 30
0.0
 10
4.935811177207672
 20
-9.938571967231155
 30
0.0
 10
4.9407048535419
 20
-9.939896410396638
 30
0.0
 10
4.944854403164425
 20
-9.944574542835551
 30
0.0
 10
4.948930734565565
 20
-9.948223819653119
 30
0.0
 10
4.996469060904498
 20
-9.990781212773198
 30
0.0
 10
5.037631507296333
 20
-10.03908476259953
 30
0.0
 10
5.075494635149096
 20
-10.09022831072449
 30
0.0
 10
5.08767864358088
 20
-10.10668588989741
 30
0.0
 10
5.105976683744302
 20
-10.10275839935098
 30
0.0
 10
5.116818875195349
 20
-10.09132224059132
 30
0.0
 10
5.137639841529309
 20
-10.06936119519383
 30
0.0
 10
5.140705854549423
 20
-10.04971373700548
 30
0.0
 10
5.126485386773942
 20
-10.02207595260104
 30
0.0
 10
5.110362331106115
 20
-9.990740415332057
 30
0.0
 10
5.087846642169324
 20
-9.964219984420347
 30
0.0
 10
5.060804608992005
 20
-9.94209396533971
 30
0.0
 10
5.032005958995013
 20
-9.918530573294521
 30
0.0
 10
5.001873403308157
 20
-9.896576973817824
 30
0.0
 10
4.971959881792043
 20
-9.874411165597848
 30
0.0
 10
4.964995618977026
 20
-9.869250754662617
 30
0.0
 10
4.963064023018154
 20
-9.863549661289678
 30
0.0
 10
4.968324255829328
 20
-9.857649389534824
 30
0.0
 10
4.970872777352647
 20
-9.854790776434128
 30
0.0
 10
4.977351193834313
 20
-9.854141662774482
 30
0.0
 10
4.981806801827107
 20
-9.854645736101524
 30
0.0
 10
4.986146067307117
 20
-9.855136701505468
 30
0.0
 10
4.990524578994786
 20
-9.857872146665966
 30
0.0
 10
4.994286785611418
 20
-9.860484734132972
 30
0.0
 10
5.050414602107265
 20
-9.899460251531257
 30
0.0
 10
5.103624548382564
 20
-9.941925346257852
 30
0.0
 10
5.150309386047764
 20
-9.992095883167621
 30
0.0
 10
5.163706924449519
 20
-10.00649373449427
 30
0.0
 10
5.170356131739961
 20
-10.00703495986373
 30
0.0
 10
5.1837966393098
 20
-9.992524954354747
 30
0.0
 10
5.188802159579684
 20
-9.987120999759452
 30
0.0
 10
5.194197349705669
 20
-9.980087164121743
 30
0.0
 10
5.195100477851585
 20
-9.973228385184938
 30
0.0
 10
5.198479684916113
 20
-9.947568888867811
 30
0.0
 10
5.197569731342834
 20
-9.921835010904183
 30
0.0
 10
5.178726587726158
 20
-9.90144846751299
 30
0.0
 10
5.161804491680514
 20
-9.883140111646753
 30
0.0
 10
5.144152385148092
 20
-9.865334975929119
 30
0.0
 10
5.125415966396454
 20
-9.848912454633364
 30
0.0
 10
5.091700681809369
 20
-9.819361029797871
 30
0.0
 10
5.053295708093779
 20
-9.797055494220026
 30
0.0
 10
5.011357955196772
 20
-9.781186336695908
 30
0.0
 10
4.999264693924916
 20
-9.776610314202393
 30
0.0
 10
4.996093662396585
 20
-9.77027286606537
 30
0.0
 10
5.001122606292356
 20
-9.758165061979424
 30
0.0
 10
5.007767470128984
 20
-9.7421674623212
 30
0.0
 10
5.013903839623101
 20
-9.725869466294978
 30
0.0
 10
5.01889260657112
 20
-9.709289533579445
 30
0.0
 10
5.034905214413507
 20
-9.656072102602466
 30
0.0
 10
5.036778949362668
 20
-9.603369099436196
 30
0.0
 10
5.002154641942397
 20
-9.556446612798227
 30
0.0
 10
4.978528424940299
 20
-9.524428726691793
 30
0.0
 10
4.946416960672725
 20
-9.502992502369426
 30
0.0
 10
4.904655272778401
 20
-9.502407570996005
 30
0.0
 10
4.879108318451977
 20
-9.502049778988343
 30
0.0
 10
4.864591254830529
 20
-9.524413330699239
 30
0.0
 10
4.874408701429021
 20
-9.547912385334887
 30
0.0
 10
4.879107853081904
 20
-9.559160418251343
 30
0.0
 10
4.886136957457412
 20
-9.569415584163758
 30
0.0
 10
4.891758937921697
 20
-9.580302218454713
 30
0.0
 10
4.901061840366966
 20
-9.598317119722851
 30
0.0
 10
4.912131287526335
 20
-9.615758529964699
 30
0.0
 10
4.918795386658403
 20
-9.634727750084367
 30
0.0
 10
4.933063787549169
 20
-9.675342843734444
 30
0.0
 10
4.924065702487369
 20
-9.711284613769445
 30
0.0
 10
4.89184006743393
 20
-9.740870825016271
 30
0.0
 10
4.871742906652849
 20
-9.759322088269021
 30
0.0
 10
4.847323854206984
 20
-9.769579503470014
 30
0.0
 10
4.82258803987967
 20
-9.779832807902215
 30
0.0
 10
4.801619551239556
 20
-9.788524524347041
 30
0.0
 10
4.781405892822324
 20
-9.787037356786994
 30
0.0
 10
4.760744858662619
 20
-9.780018723237642
 30
0.0
 10
4.695795332354337
 20
-9.75795518008638
 30
0.0
 10
4.646532965099368
 20
-9.689676900583233
 30
0.0
 10
4.646059838880723
 20
-9.620952331201097
 30
0.0
 10
4.64560160450368
 20
-9.554407826604245
 30
0.0
 10
4.710135400232982
 20
-9.499133925371399
 30
0.0
 10
4.775823779059085
 20
-9.511039913978466
 30
0.0
 10
4.792195652580958
 20
-9.514007346109464
 30
0.0
 10
4.807747544072728
 20
-9.521574573387397
 30
0.0
 10
4.823624418983525
 20
-9.527174914144273
 30
0.0
 10
4.839022738358405
 20
-9.532606558257661
 30
0.0
 10
4.843170581624058
 20
-9.531251904819656
 30
0.0
 10
4.851755107833796
 20
-9.517470940276627
 30
0.0
 10
4.865758092672067
 20
-9.494991763498445
 30
0.0
 10
4.860968504105913
 20
-9.473042410523449
 30
0.0
 10
4.838348262030977
 20
-9.458491956600886
 30
0.0
 10
4.802163258582595
 20
-9.435215969343087
 30
0.0
 10
4.762000271937191
 20
-9.432865191310686
 30
0.0
 10
4.720100524261018
 20
-9.432758834863584
 30
0.0
 10
4.628649569651441
 20
-9.432526750941001
 30
0.0
 10
4.545558677763589
 20
-9.522228612213439
 30
0.0
 10
4.534272523283763
 20
-9.586541240825908
 30
0.0
 10
4.520432728210102
 20
-9.66540614606035
 30
0.0
 10
4.545928646954254
 20
-9.734255512177872
 30
0.0
 10
4.592326041051188
 20
-9.796618317837832
 30
0.0
 10
4.606674640714092
 20
-9.815904183496462
 30
0.0
 10
4.623470931722573
 20
-9.833368784679173
 30
0.0
 10
4.639146611647927
 20
-9.851667290212692
 30
0.0
  0
SPLINE
  5
8B
330
7C
100
AcDbEntity
  8
Layer 3
100
AcDbSpline
210
0.0
220
0.0
230
1.0
 70
     9
 71
     3
 72
    65
 73
    61
 74
     0
 42
0.0000000001
 43
0.0000000001
 40
0.0
 40
0.0
 40
0.0
 40
0.0
 40
1.0
 40
1.0
 40
1.0
 40
2.0
 40
2.0
 40
2.0
 40
3.0
 40
3.0
 40
3.0
 40
4.0
 40
4.0
 40
4.0
 40
5.0
 40
5.0
 40
5.0
 40
6.0
 40
6.0
 40
6.0
 40
7.0
 40
7.0
 40
7.0
 40
8.0
 40
8.0
 40
8.0
 40
9.0
 40
9.0
 40
9.0
 40
10.0
 40
10.0
 40
10.0
 40
11.0
 40
11.0
 40
11.0
 40
12.0
 40
12.0
 40
12.0
 40
13.0
 40
13.0
 40
13.0
 40
14.0
 40
14.0
 40
14.0
 40
15.0
 40
15.0
 40
15.0
 40
16.0
 40
16.0
 40
16.0
 40
17.0
 40
17.0
 40
17.0
 40
18.0
 40
18.0
 40
18.0
 40
19.0
 40
19.0
 40
19.0
 40
20.0
 40
20.0
 40
20.0
 40
20.0
 10
3.700522209996481
 20
-9.842302571112263
 30
0.0
 10
3.692848063949289
 20
-9.841454201509046
 30
0.0
 10
3.688043583541482
 20
-9.840546807471051
 30
0.0
 10
3.683222621277738
 20
-9.840448847075295
 30
0.0
 10
3.639217151681906
 20
-9.839555181453761
 30
0.0
 10
3.595210984030977
 20
-9.838588530295913
 30
0.0
 10
3.551199929994532
 20
-9.838139758443301
 30
0.0
 10
3.53816119190219
 20
-9.838006662608677
 30
0.0
 10
3.525091700605621
 20
-9.839253388975622
 30
0.0
 10
3.51206417017531
 20
-9.840237103702014
 30
0.0
 10
3.503668661768036
 20
-9.840871092835008
 30
0.0
 10
3.500484871344117
 20
-9.845719705835966
 30
0.0
 10
3.501580934157042
 20
-9.854142903761308
 30
0.0
 10
3.505337439990524
 20
-9.883011669512647
 30
0.0
 10
3.507150948298936
 20
-9.912243423903847
 30
0.0
 10
3.512731316924448
 20
-9.940744237068125
 30
0.0
 10
3.529575153239799
 20
-10.02677122617016
 30
0.0
 10
3.567535310748199
 20
-10.10214674798046
 30
0.0
 10
3.630474632339832
 20
-10.16404375700007
 30
0.0
 10
3.685768156676506
 20
-10.21842170454202
 30
0.0
 10
3.752760618728416
 20
-10.25171520873944
 30
0.0
 10
3.827630438416463
 20
-10.26830425495182
 30
0.0
 10
3.945516893903408
 20
-10.29442446761954
 30
0.0
 10
4.0628542902917
 20
-10.2912034863724
 30
0.0
 10
4.178269475683842
 20
-10.25397869110644
 30
0.0
 10
4.264219135795731
 20
-10.22625737277781
 30
0.0
 10
4.333215442506899
 20
-10.17498142687327
 30
0.0
 10
4.382906725825679
 20
-10.09931310973916
 30
0.0
 10
4.429798032670204
 20
-10.02790812520506
 30
0.0
 10
4.457536414567357
 20
-9.949847340638116
 30
0.0
 10
4.4591177420011
 20
-9.863635677187428
 30
0.0
 10
4.459429384811983
 20
-9.846640595605473
 30
0.0
 10
4.454994253101454
 20
-9.842924383062229
 30
0.0
 10
4.438057885707595
 20
-9.842769104588517
 30
0.0
 10
4.358478521102142
 20
-9.842039404348344
 30
0.0
 10
4.278900630168537
 20
-9.840929108968035
 30
0.0
 10
4.199319714329627
 20
-9.84063057408025
 30
0.0
 10
4.094304773963332
 20
-9.840236560770309
 30
0.0
 10
3.989287351623412
 20
-9.84042588881943
 30
0.0
 10
3.884271325393708
 20
-9.84054432549745
 30
0.0
 10
3.877269367604488
 20
-9.840552159226641
 30
0.0
 10
3.87026911617214
 20
-9.842078030062591
 30
0.0
 10
3.860056260153568
 20
-9.843274031093995
 30
0.0
 10
3.871186282981246
 20
-9.855865393443838
 30
0.0
 10
3.880300555432464
 20
-9.866188619726218
 30
0.0
 10
3.889427935806831
 20
-9.876500134195641
 30
0.0
 10
3.938622359034348
 20
-9.932077262797671
 30
0.0
 10
3.940040186456776
 20
-10.0086051959779
 30
0.0
 10
3.892925579549379
 20
-10.06548985930021
 30
0.0
 10
3.852421166409815
 20
-10.11439365893082
 30
0.0
 10
3.781586958243426
 20
-10.13211572609432
 30
0.0
 10
3.726298203949732
 20
-10.10632003147556
 30
0.0
 10
3.677896112015105
 20
-10.08373732925143
 30
0.0
 10
3.629187806586792
 20
-10.02556428894258
 30
0.0
 10
3.642418509825246
 20
-9.950154484871871
 30
0.0
 10
3.648586640825341
 20
-9.914998569729858
 30
0.0
 10
3.666768067010151
 20
-9.886596802824795
 30
0.0
 10
3.687804616020255
 20
-9.859249952263981
 30
0.0
 10
3.691542623394196
 20
-9.854390713313502
 30
0.0
 10
3.695168127558341
 20
-9.849445070656908
 30
0.0
 10
3.700522209996481
 20
-9.842302571112263
 30
0.0
  0
SPLINE
  5
8C
330
7C
100
AcDbEntity
  8
Layer 3
100
AcDbSpline
210
0.0
220
0.0
230
1.0
 70
     9
 71
     3
 72
   173
 73
   169
 74
     0
 42
0.0000000001
 43
0.0000000001
 40
0.0
 40
0.0
 40
0.0
 40
0.0
 40
1.0
 40
1.0
 40
1.0
 40
2.0
 40
2.0
 40
2.0
 40
3.0
 40
3.0
 40
3.0
 40
4.0
 40
4.0
 40
4.0
 40
5.0
 40
5.0
 40
5.0
 40
6.0
 40
6.0
 40
6.0
 40
7.0
 40
7.0
 40
7.0
 40
8.0
 40
8.0
 40
8.0
 40
9.0
 40
9.0
 40
9.0
 40
10.0
 40
10.0
 40
10.0
 40
11.0
 40
11.0
 40
11.0
 40
12.0
 40
12.0
 40
12.0
 40
13.0
 40
13.0
 40
13.0
 40
14.0
 40
14.0
 40
14.0
 40
15.0
 40
15.0
 40
15.0
 40
16.0
 40
16.0
 40
16.0
 40
17.0
 40
17.0
 40
17.0
 40
18.0
 40
18.0
 40
18.0
 40
19.0
 40
19.0
 40
19.0
 40
20.0
 40
20.0
 40
20.0
 40
21.0
 40
21.0
 40
21.0
 40
22.0
 40
22.0
 40
22.0
 40
23.0
 40
23.0
 40
23.0
 40
24.0
 40
24.0
 40
24.0
 40
25.0
 40
25.0
 40
25.0
 40
26.0
 40
26.0
 40
26.0
 40
27.0
 40
27.0
 40
27.0
 40
28.0
 40
28.0
 40
28.0
 40
29.0
 40
29.0
 40
29.0
 40
30.0
 40
30.0
 40
30.0
 40
31.0
 40
31.0
 40
31.0
 40
32.0
 40
32.0
 40
32.0
 40
33.0
 40
33.0
 40
33.0
 40
34.0
 40
34.0
 40
34.0
 40
35.0
 40
35.0
 40
35.0
 40
36.0
 40
36.0
 40
36.0
 40
37.0
 40
37.0
 40
37.0
 40
38.0
 40
38.0
 40
38.0
 40
39.0
 40
39.0
 40
39.0
 40
40.0
 40
40.0
 40
40.0
 40
41.0
 40
41.0
 40
41.0
 40
42.0
 40
42.0
 40
42.0
 40
43.0
 40
43.0
 40
43.0
 40
44.0
 40
44.0
 40
44.0
 40
45.0
 40
45.0
 40
45.0
 40
46.0
 40
46.0
 40
46.0
 40
47.0
 40
47.0
 40
47.0
 40
48.0
 40
48.0
 40
48.0
 40
49.0
 40
49.0
 40
49.0
 40
50.0
 40
50.0
 40
50.0
 40
51.0
 40
51.0
 40
51.0
 40
52.0
 40
52.0
 40
52.0
 40
53.0
 40
53.0
 40
53.0
 40
54.0
 40
54.0
 40
54.0
 40
55.0
 40
55.0
 40
55.0
 40
56.0
 40
56.0
 40
56.0
 40
56.0
 10
4.505372422615664
 20
-10.10029744495897
 30
0.0
 10
4.529098073685341
 20
-10.1080916952602
 30
0.0
 10
4.550053842210748
 20
-10.11349487423877
 30
0.0
 10
4.569826950312895
 20
-10.12173619003576
 30
0.0
 10
4.643071852905828
 20
-10.15226462051274
 30
0.0
 10
4.699020501931979
 20
-10.20185879661418
 30
0.0
 10
4.725115972425328
 20
-10.27804964675404
 30
0.0
 10
4.759842040763461
 20
-10.3794393544221
 30
0.0
 10
4.742232127782269
 20
-10.47291110091699
 30
0.0
 10
4.671168569742349
 20
-10.55398228678296
 30
0.0
 10
4.629340333930687
 20
-10.60170102157839
 30
0.0
 10
4.574732105775106
 20
-10.62677112672577
 30
0.0
 10
4.51210089793815
 20
-10.63610055526396
 30
0.0
 10
4.454781578988053
 20
-10.64463885471526
 30
0.0
 10
4.399868998819051
 20
-10.63916563754401
 30
0.0
 10
4.347803397499445
 20
-10.61285423534693
 30
0.0
 10
4.338429758806392
 20
-10.60811723359655
 30
0.0
 10
4.330179135608355
 20
-10.6012071088308
 30
0.0
 10
4.32114669072444
 20
-10.595734977523
 30
0.0
 10
4.305117717368602
 20
-10.58602425578957
 30
0.0
 10
4.299029591236477
 20
-10.58869610037641
 30
0.0
 10
4.292090923774215
 20
-10.60602244787312
 30
0.0
 10
4.261165765328643
 20
-10.68324471316961
 30
0.0
 10
4.217179065658178
 20
-10.75142654472963
 30
0.0
 10
4.148931927167672
 20
-10.80076181995931
 30
0.0
 10
4.105400436968895
 20
-10.83223014281621
 30
0.0
 10
4.056862263075117
 20
-10.8511598452624
 30
0.0
 10
4.001570716561142
 20
-10.85232699335059
 30
0.0
 10
3.869539028123603
 20
-10.85511409458677
 30
0.0
 10
3.774292205130374
 20
-10.79266639767332
 30
0.0
 10
3.702450548364999
 20
-10.68734090035958
 30
0.0
 10
3.683701952430384
 20
-10.65985412853673
 30
0.0
 10
3.669320389055504
 20
-10.63021424461067
 30
0.0
 10
3.664336818739734
 20
-10.59684969391878
 30
0.0
 10
3.663156136139175
 20
-10.5889449182304
 30
0.0
 10
3.658868953324043
 20
-10.58798687641853
 30
0.0
 10
3.652770201242421
 20
-10.59024376604311
 30
0.0
 10
3.6424716007919
 20
-10.59405437114504
 30
0.0
 10
3.632242883410728
 20
-10.59808214893749
 30
0.0
 10
3.622129228774711
 20
-10.60236014069412
 30
0.0
 10
3.563123059731828
 20
-10.62731855702923
 30
0.0
 10
3.50137365058011
 20
-10.6361779618158
 30
0.0
 10
3.438259621315132
 20
-10.62820617284006
 30
0.0
 10
3.377548607870771
 20
-10.62053796026104
 30
0.0
 10
3.32775946110832
 20
-10.58891110134004
 30
0.0
 10
3.290301302152152
 20
-10.54196177836247
 30
0.0
 10
3.153115068381111
 20
-10.37001592113354
 30
0.0
 10
3.248158437405107
 20
-10.15414774042463
 30
0.0
 10
3.441219258497742
 20
-10.10910193607949
 30
0.0
 10
3.466170461597054
 20
-10.10328015673995
 30
0.0
 10
3.492168786092254
 20
-10.10194345882978
 30
0.0
 10
3.517684366721065
 20
-10.09854649014161
 30
0.0
 10
3.520961192374367
 20
-10.09811036084203
 30
0.0
 10
3.524252056690885
 20
-10.0977797154207
 30
0.0
 10
3.529375819734569
 20
-10.09718760959236
 30
0.0
 10
3.526436891519223
 20
-10.08872291617081
 30
0.0
 10
3.524413501317768
 20
-10.08103492536459
 30
0.0
 10
3.52118410462885
 20
-10.07389211557327
 30
0.0
 10
3.498069019066229
 20
-10.02276570857849
 30
0.0
 10
3.481035932263441
 20
-9.96991828557298
 30
0.0
 10
3.472236598994287
 20
-9.914301755639977
 30
0.0
 10
3.455848592643986
 20
-9.810720814305391
 30
0.0
 10
3.468696567796238
 20
-9.711631702265902
 30
0.0
 10
3.512394505349927
 20
-9.615965348171584
 30
0.0
 10
3.554047335433172
 20
-9.524776474462466
 30
0.0
 10
3.617365468246412
 20
-9.452649545855718
 30
0.0
 10
3.699543459217288
 20
-9.396611041628855
 30
0.0
 10
3.760182572988721
 20
-9.355260236708822
 30
0.0
 10
3.82685939780342
 20
-9.328907261453851
 30
0.0
 10
3.899821975898652
 20
-9.31802948858429
 30
0.0
 10
4.037749670198865
 20
-9.297466279087428
 30
0.0
 10
4.167582562706481
 20
-9.316377773930373
 30
0.0
 10
4.28318242244725
 20
-9.398628731047159
 30
0.0
 10
4.367375000369469
 20
-9.458532850994135
 30
0.0
 10
4.423827334914297
 20
-9.539339609718959
 30
0.0
 10
4.458529204009765
 20
-9.637182809789059
 30
0.0
 10
4.484411845266397
 20
-9.710160434849258
 30
0.0
 10
4.495776647284881
 20
-9.784442686066944
 30
0.0
 10
4.495850175752947
 20
-9.861165492956084
 30
0.0
 10
4.495854208960054
 20
-9.865249580524732
 30
0.0
 10
4.496275523979672
 20
-9.869333357846699
 30
0.0
 10
4.496524496957008
 20
-9.873809364560049
 30
0.0
 10
4.525688462444122
 20
-9.860354740765361
 30
0.0
 10
4.553825356228395
 20
-9.84737409636773
 30
0.0
 10
4.583343933694449
 20
-9.8337559725617
 30
0.0
 10
4.580679224781735
 20
-9.830523744871646
 30
0.0
 10
4.578007069948196
 20
-9.826966611324223
 30
0.0
 10
4.57501660199965
 20
-9.823701187237171
 30
0.0
 10
4.508422613054082
 20
-9.750989017010295
 30
0.0
 10
4.478336594372371
 20
-9.613674059944059
 30
0.0
 10
4.530005700408385
 20
-9.513593748476523
 30
0.0
 10
4.544006048149715
 20
-9.486476092665876
 30
0.0
 10
4.564393754966027
 20
-9.466354441785824
 30
0.0
 10
4.588450129018736
 20
-9.449674260605155
 30
0.0
 10
4.65097864519771
 20
-9.406318719066549
 30
0.0
 10
4.720431247244024
 20
-9.388495298183972
 30
0.0
 10
4.795551436019599
 20
-9.402581118891349
 30
0.0
 10
4.818538855064844
 20
-9.40689145386654
 30
0.0
 10
4.84038953019856
 20
-9.419662119419019
 30
0.0
 10
4.86136655062296
 20
-9.431112471965207
 30
0.0
 10
4.869701793608606
 20
-9.435662298002979
 30
0.0
 10
4.876730587737433
 20
-9.446290554963423
 30
0.0
 10
4.879961652002369
 20
-9.455665395862473
 30
0.0
 10
4.885163713557176
 20
-9.470758432483812
 30
0.0
 10
4.894433264482131
 20
-9.476189824521698
 30
0.0
 10
4.909044022607177
 20
-9.475334028388134
 30
0.0
 10
4.937331230917985
 20
-9.473677155882796
 30
0.0
 10
4.962400560448586
 20
-9.484323833741099
 30
0.0
 10
4.986064317301472
 20
-9.497521185459213
 30
0.0
 10
4.998258408751047
 20
-9.504321870701307
 30
0.0
 10
5.009538823666919
 20
-9.514357498292079
 30
0.0
 10
5.018425840409867
 20
-9.525225905589346
 30
0.0
 10
5.066636471349308
 20
-9.584185266161258
 30
0.0
 10
5.067606923029239
 20
-9.650502708953984
 30
0.0
 10
5.046614700516506
 20
-9.719770985679183
 30
0.0
 10
5.044898570891316
 20
-9.725433414557073
 30
0.0
 10
5.043256900474312
 20
-9.731119073156655
 30
0.0
 10
5.041643772753786
 20
-9.736811828649528
 30
0.0
 10
5.035777628135999
 20
-9.75751590953895
 30
0.0
 10
5.035200103902575
 20
-9.758646642420645
 30
0.0
 10
5.054513891764271
 20
-9.768709532940293
 30
0.0
 10
5.091815007718574
 20
-9.788144045549415
 30
0.0
 10
5.127598862182897
 20
-9.809714102542303
 30
0.0
 10
5.159834735377469
 20
-9.836814151852674
 30
0.0
 10
5.192696686414162
 20
-9.86444022444415
 30
0.0
 10
5.218524879374828
 20
-9.896412310381416
 30
0.0
 10
5.224611299150106
 20
-9.940956833619793
 30
0.0
 10
5.228061242462419
 20
-9.966205718428479
 30
0.0
 10
5.221509452636054
 20
-9.98915838984327
 30
0.0
 10
5.208795697962689
 20
-10.01003845817369
 30
0.0
 10
5.204143858931678
 20
-10.01767843830293
 30
0.0
 10
5.194442134352584
 20
-10.02328738840581
 30
0.0
 10
5.18585621203273
 20
-10.02724675680075
 30
0.0
 10
5.172521033217789
 20
-10.03339615665628
 30
0.0
 10
5.165332927408144
 20
-10.04246404722574
 30
0.0
 10
5.164028340031513
 20
-10.05699468414033
 30
0.0
 10
5.163467413996537
 20
-10.06324398343349
 30
0.0
 10
5.161542798588445
 20
-10.06939842479793
 30
0.0
 10
5.159958368687739
 20
-10.0755236254108
 30
0.0
 10
5.150894821572061
 20
-10.11055963020297
 30
0.0
 10
5.130272258003287
 20
-10.12825617957535
 30
0.0
 10
5.094584890262871
 20
-10.12725307443015
 30
0.0
 10
5.076444300300054
 20
-10.12674310641579
 30
0.0
 10
5.066704880746834
 20
-10.13292190214621
 30
0.0
 10
5.057426022420839
 20
-10.14804906590466
 30
0.0
 10
5.034686025119425
 20
-10.18512261590402
 30
0.0
 10
4.98634726229256
 20
-10.19367410084007
 30
0.0
 10
4.952909028009242
 20
-10.16524751419898
 30
0.0
 10
4.928210598409375
 20
-10.14425087067075
 30
0.0
 10
4.907253899143875
 20
-10.11886051336652
 30
0.0
 10
4.884559663230826
 20
-10.09549614457986
 30
0.0
 10
4.868630046380884
 20
-10.07909634885494
 30
0.0
 10
4.853359238399989
 20
-10.06195134055484
 30
0.0
 10
4.83642364662291
 20
-10.04665679870135
 30
0.0
 10
4.80208507641401
 20
-10.01564577948132
 30
0.0
 10
4.760500849632484
 20
-9.999946598368397
 30
0.0
 10
4.715291235029376
 20
-9.992994978106379
 30
0.0
 10
4.708607280108455
 20
-9.991967208348492
 30
0.0
 10
4.701785265405684
 20
-9.991848849232129
 30
0.0
 10
4.695092778700478
 20
-9.990864048642302
 30
0.0
 10
4.660434499266481
 20
-9.985764523622087
 30
0.0
 10
4.629267115709277
 20
-9.9953724761359
 30
0.0
 10
4.601787014190474
 20
-10.01557861107062
 30
0.0
 10
4.573511285007649
 20
-10.03637018152964
 30
0.0
 10
4.546446914067852
 20
-10.05884003151638
 30
0.0
 10
4.519352138951413
 20
-10.08118143936902
 30
0.0
 10
4.513878766656767
 20
-10.08569467568645
 30
0.0
 10
4.510641807704536
 20
-10.09292024378523
 30
0.0
 10
4.505372422615664
 20
-10.10029744495897
 30
0.0
  0
HATCH
  5
8D
330
7C
100
AcDbEntity
  8
Layer 3
 62
    18
420
        0
440
 33554687
100
AcDbHatch
 10
0.0
 20
0.0
 30
0.0
210
0.0
220
0.0
230
1.0
  2
SOLID
 70
     1
 71
     1
 91
       13
 92
        1
 93
        1
 72
     4
 94
        3
 73
     0
 74
     0
 95
       35
 96
       31
 40
0.0
 40
0.0
 40
0.0
 40
0.0
 40
1.0
 40
1.0
 40
1.0
 40
2.0
 40
2.0
 40
2.0
 40
3.0
 40
3.0
 40
3.0
 40
4.0
 40
4.0
 40
4.0
 40
5.0
 40
5.0
 40
5.0
 40
6.0
 40
6.0
 40
6.0
 40
7.0
 40
7.0
 40
7.0
 40
8.0
 40
8.0
 40
8.0
 40
9.0
 40
9.0
 40
9.0
 40
10.0
 40
10.0
 40
10.0
 40
10.0
 10
4.761503101599246
 20
-9.528347724234789
 10
4.729974901129101
 20
-9.525612046389268
 10
4.678275701163076
 20
-9.570905117354893
 10
4.672437013378334
 20
-9.596631433055183
 10
4.67187748345355
 20
-9.59909673090101
 10
4.671374883798332
 20
-9.601594876116298
 10
4.67111629317325
 20
-9.604105625103757
 10
4.663554960582612
 20
-9.677494327042444
 10
4.706135544643605
 20
-9.733362156803069
 10
4.7686570802718
 20
-9.75767444560304
 10
4.780676192582151
 20
-9.76234823458814
 10
4.796600845484868
 20
-9.761910243808364
 10
4.809345004334848
 20
-9.758570011485591
 10
4.826211566221066
 20
-9.754149306246619
 10
4.842721654648079
 20
-9.746155993906034
 10
4.857624044671839
 20
-9.736871628701084
 10
4.901038882111126
 20
-9.709823584493934
 10
4.912229635730454
 20
-9.675463995071064
 10
4.891756300824732
 20
-9.628556439055602
 10
4.88150900742236
 20
-9.605078209729779
 10
4.866992719417667
 20
-9.583445521684147
 10
4.854044573361963
 20
-9.561189005085047
 10
4.852618679525297
 20
-9.558737978587435
 10
4.849005236201693
 20
-9.557077809710916
 10
4.846057892544573
 20
-9.556072649181309
 10
4.828246939701304
 20
-9.549998639274058
 10
4.810340120627516
 20
-9.544203967740005
 10
4.792453312465921
 20
-9.538352870087237
 10
4.782148313177205
 20
-9.534981884560263
 10
4.77182066587933
 20
-9.531680433075077
 10
4.761503101599246
 20
-9.528347724234789
 97
        0
 97
        1
330
80
 92
        1
 93
        1
 72
     4
 94
        3
 73
     0
 74
     0
 95
       47
 96
       43
 40
0.0
 40
0.0
 40
0.0
 40
0.0
 40
1.0
 40
1.0
 40
1.0
 40
2.0
 40
2.0
 40
2.0
 40
3.0
 40
3.0
 40
3.0
 40
4.0
 40
4.0
 40
4.0
 40
5.0
 40
5.0
 40
5.0
 40
6.0
 40
6.0
 40
6.0
 40
7.0
 40
7.0
 40
7.0
 40
8.0
 40
8.0
 40
8.0
 40
9.0
 40
9.0
 40
9.0
 40
10.0
 40
10.0
 40
10.0
 40
11.0
 40
11.0
 40
11.0
 40
12.0
 40
12.0
 40
12.0
 40
13.0
 40
13.0
 40
13.0
 40
14.0
 40
14.0
 40
14.0
 40
14.0
 10
4.254531837688192
 20
-9.435174939216922
 10
4.255174048358766
 20
-9.433720541464632
 10
4.255816181467631
 20
-9.432266163102768
 10
4.25645839213818
 20
-9.430811765350528
 10
4.24516595516267
 20
-9.421873557901966
 10
4.234925952557761
 20
-9.410941976620252
 10
4.22240462840058
 20
-9.404331317482375
 10
4.157208766211902
 20
-9.369910725801975
 10
4.090268154139872
 20
-9.341079189654717
 10
4.013795444872408
 20
-9.346927087888388
 10
4.001195162929889
 20
-9.34789061718882
 10
3.988420987711581
 20
-9.346712319609801
 10
3.975731820089297
 20
-9.346357242260788
 10
3.929792117437651
 20
-9.345071735056231
 10
3.884261164814233
 20
-9.346029660525623
 10
3.841706253667755
 20
-9.367068536386012
 10
3.835350074386168
 20
-9.370210967046608
 10
3.828044462638596
 20
-9.371486662699275
 10
3.821119368469529
 20
-9.37341521436239
 10
3.789016668671264
 20
-9.382355593537845
 10
3.758650264533748
 20
-9.394913003264415
 10
3.733229968422897
 20
-9.417103902686323
 10
3.726236464856305
 20
-9.423208956654081
 10
3.720516368872924
 20
-9.430772557923722
 10
3.712102206882768
 20
-9.439973990307432
 10
3.721576171602666
 20
-9.442394360552901
 10
3.72709522772397
 20
-9.444627128496524
 10
3.732764133001713
 20
-9.445113983131678
 10
3.761367870508946
 20
-9.447570419556111
 10
3.789993092600222
 20
-9.450996105454526
 10
3.818644452976008
 20
-9.451349418275412
 10
3.849899403664443
 20
-9.451734822239409
 10
3.881184913652962
 20
-9.448219048455282
 10
3.912468407037901
 20
-9.447997861948072
 10
3.994143100298515
 20
-9.447420337714598
 10
4.075832685400756
 20
-9.448374540223614
 10
4.157497450766943
 20
-9.447292942663125
 10
4.185242115159805
 20
-9.446925436055657
 10
4.212945749426504
 20
-9.442443301969937
 10
4.240629760589349
 20
-9.439482481971783
 10
4.245363194502664
 20
-9.438976217527397
 10
4.249902724228023
 20
-9.436656774411781
 10
4.254531837688192
 20
-9.435174939216922
 97
        0
 97
        1
330
81
 92
        1
 93
        1
 72
     4
 94
        3
 73
     0
 74
     0
 95
       35
 96
       31
 40
0.0
 40
0.0
 40
0.0
 40
0.0
 40
1.0
 40
1.0
 40
1.0
 40
2.0
 40
2.0
 40
2.0
 40
3.0
 40
3.0
 40
3.0
 40
4.0
 40
4.0
 40
4.0
 40
5.0
 40
5.0
 40
5.0
 40
6.0
 40
6.0
 40
6.0
 40
7.0
 40
7.0
 40
7.0
 40
8.0
 40
8.0
 40
8.0
 40
9.0
 40
9.0
 40
9.0
 40
10.0
 40
10.0
 40
10.0
 40
10.0
 10
3.958805923521595
 20
-10.49326468059626
 10
3.958704085042073
 20
-10.4932645254729
 10
3.958602324124234
 20
-10.49326437034953
 10
3.958500485644713
 20
-10.49326437034953
 10
3.958500485644713
 20
-10.44038049335672
 10
3.958690744433953
 20
-10.38749553050042
 10
3.958396010068251
 20
-10.33461343742611
 10
3.958294404273727
 20
-10.31639373455462
 10
3.95754849364347
 20
-10.31612552628182
 10
3.939879245980768
 20
-10.31559469417688
 10
3.931847269145085
 20
-10.31535339980534
 10
3.923801408769552
 20
-10.31527467470505
 10
3.915768346070409
 20
-10.31543895033307
 10
3.896603554186766
 20
-10.31583063679277
 10
3.880952538874124
 20
-10.32315998241291
 10
3.867723541992543
 20
-10.33746856025143
 10
3.838796915231493
 20
-10.36875593172014
 10
3.818743033865151
 20
-10.4040280342516
 10
3.81369307075541
 20
-10.447031407004
 10
3.810252977775841
 20
-10.47632552098207
 10
3.811580833655018
 20
-10.50529883987158
 10
3.817988591450607
 20
-10.53402877022431
 10
3.83297389490513
 20
-10.60121703672522
 10
3.871676938138484
 20
-10.64680142934283
 10
3.939033435912834
 20
-10.66585538559267
 10
3.956715791498658
 20
-10.67085733802547
 10
3.958564086218352
 20
-10.66972524781444
 10
3.958681281909573
 20
-10.65190715929705
 10
3.959029223584467
 20
-10.59902824625146
 10
3.958805923521595
 20
-10.54614576536876
 10
3.958805923521595
 20
-10.49326468059626
 97
        0
 97
        1
330
82
 92
        1
 93
        1
 72
     4
 94
        3
 73
     0
 74
     0
 95
       29
 96
       25
 40
0.0
 40
0.0
 40
0.0
 40
0.0
 40
1.0
 40
1.0
 40
1.0
 40
2.0
 40
2.0
 40
2.0
 40
3.0
 40
3.0
 40
3.0
 40
4.0
 40
4.0
 40
4.0
 40
5.0
 40
5.0
 40
5.0
 40
6.0
 40
6.0
 40
6.0
 40
7.0
 40
7.0
 40
7.0
 40
8.0
 40
8.0
 40
8.0
 40
8.0
 10
3.997689530334759
 20
-10.4860125088429
 10
3.997538905561542
 20
-10.4860146805698
 10
3.99738828078835
 20
-10.48601685229672
 10
3.997237656015133
 20
-10.48601902402361
 10
3.997237656015133
 20
-10.54098062317136
 10
3.996774845499304
 20
-10.59594811700642
 10
3.997492601241471
 20
-10.65090040875313
 10
3.997738549313503
 20
-10.66973486546216
 10
4.000475545707508
 20
-10.67106768528859
 10
4.019163023042058
 20
-10.66700826233263
 10
4.061719562983701
 20
-10.65776384139045
 10
4.095721670645641
 20
-10.63418385114674
 10
4.114996987916457
 20
-10.59597029964551
 10
4.151152052558194
 20
-10.52429260826145
 10
4.155731759231305
 20
-10.44976545605436
 10
4.120587711025589
 20
-10.37589556148279
 10
4.096081169010125
 20
-10.32438499151082
 10
4.070905579984481
 20
-10.31154318251176
 10
4.014489776988688
 20
-10.31522984405678
 10
4.002349435780009
 20
-10.31602314487059
 10
3.997337633014467
 20
-10.31969553506734
 10
3.997470496164042
 20
-10.33250042470899
 10
3.998001173145667
 20
-10.38366638815811
 10
3.997689530334759
 20
-10.43484103851483
 10
3.997689530334759
 20
-10.4860125088429
 97
        0
 97
        1
330
83
 92
        1
 93
        1
 72
     4
 94
        3
 73
     0
 74
     0
 95
       41
 96
       37
 40
0.0
 40
0.0
 40
0.0
 40
0.0
 40
1.0
 40
1.0
 40
1.0
 40
2.0
 40
2.0
 40
2.0
 40
3.0
 40
3.0
 40
3.0
 40
4.0
 40
4.0
 40
4.0
 40
5.0
 40
5.0
 40
5.0
 40
6.0
 40
6.0
 40
6.0
 40
7.0
 40
7.0
 40
7.0
 40
8.0
 40
8.0
 40
8.0
 40
9.0
 40
9.0
 40
9.0
 40
10.0
 40
10.0
 40
10.0
 40
11.0
 40
11.0
 40
11.0
 40
12.0
 40
12.0
 40
12.0
 40
12.0
 10
3.582541866101741
 20
-9.562432900450858
 10
3.593693295951753
 20
-9.565299618746594
 10
3.602347433764963
 20
-9.569343141559127
 10
3.611035388468533
 20
-9.569417212958947
 10
3.637271051689771
 20
-9.569640978391841
 10
3.663523196766997
 20
-9.567615067435982
 10
3.68976297075705
 20
-9.567737304636061
 10
3.771914862224245
 20
-9.568120110283945
 10
3.854062759265161
 20
-9.569454907933074
 10
3.936214534389844
 20
-9.569738046828357
 10
4.051419760327259
 20
-9.570135123824456
 10
4.166627235553201
 20
-9.569873469513215
 10
4.281833547354052
 20
-9.570030958494699
 10
4.293671398029497
 20
-9.570047130103956
 10
4.305511575555202
 20
-9.571493732907885
 10
4.317344307160055
 20
-9.571406825050845
 10
4.338140065949573
 20
-9.571254106112393
 10
4.358930783230158
 20
-9.570428694765041
 10
4.38162059812771
 20
-9.569835425511529
 10
4.379424361733122
 20
-9.562904397874312
 10
4.379142192358787
 20
-9.558768886915004
 10
4.377064315080537
 20
-9.555963132095964
 10
4.358250412215435
 20
-9.530556409278258
 10
4.339331103033726
 20
-9.505218173419759
 10
4.319797660507926
 20
-9.480366811586817
 10
4.31758692008005
 20
-9.477554134388254
 10
4.311400678428804
 20
-9.476875702415402
 10
4.307056604124909
 20
-9.476872328482537
 10
4.091891985371603
 20
-9.476705629052123
 10
3.876727366618297
 20
-9.476691125018886
 10
3.661562825426648
 20
-9.476896353211435
 10
3.656387445088133
 20
-9.476901297768209
 10
3.649899837547915
 20
-9.478075077379646
 10
3.646252034402222
 20
-9.481257355350912
 10
3.620803660964939
 20
-9.503457988763075
 10
3.603276351167828
 20
-9.531906331454036
 10
3.582541866101741
 20
-9.562432900450858
 97
        0
 97
        1
330
84
 92
        1
 93
        1
 72
     4
 94
        3
 73
     0
 74
     0
 95
       41
 96
       37
 40
0.0
 40
0.0
 40
0.0
 40
0.0
 40
1.0
 40
1.0
 40
1.0
 40
2.0
 40
2.0
 40
2.0
 40
3.0
 40
3.0
 40
3.0
 40
4.0
 40
4.0
 40
4.0
 40
5.0
 40
5.0
 40
5.0
 40
6.0
 40
6.0
 40
6.0
 40
7.0
 40
7.0
 40
7.0
 40
8.0
 40
8.0
 40
8.0
 40
9.0
 40
9.0
 40
9.0
 40
10.0
 40
10.0
 40
10.0
 40
11.0
 40
11.0
 40
11.0
 40
12.0
 40
12.0
 40
12.0
 40
12.0
 10
3.989404004382903
 20
-9.68694502325982
 10
3.98940392682122
 20
-9.687466198936236
 10
3.989403849259563
 20
-9.687987335831822
 10
3.989403849259563
 20
-9.688508511508238
 10
4.103678490218044
 20
-9.688508511508238
 10
4.217953286299916
 20
-9.688569358642427
 10
4.33222784969674
 20
-9.688456428843336
 10
4.354655428570493
 20
-9.688434246204248
 10
4.377129622011024
 20
-9.688524489213325
 10
4.399498564258339
 20
-9.687173364831576
 10
4.433515253515224
 20
-9.685118717275019
 10
4.43870397446186
 20
-9.676654993374414
 10
4.427749163458454
 20
-9.644358738415727
 10
4.417264841576701
 20
-9.613449247428508
 10
4.406222230756965
 20
-9.605426228966329
 10
4.373954091905539
 20
-9.605227671077853
 10
4.249059551257055
 20
-9.604459228780948
 10
4.124165553540326
 20
-9.603553153291411
 10
3.999270159713432
 20
-9.602955695707425
 10
3.907397347152507
 20
-9.602516231255826
 10
3.815522595549737
 20
-9.602348232667356
 10
3.723648619563669
 20
-9.602316044572161
 10
3.679639969939166
 20
-9.602300648579632
 10
3.635630971287102
 20
-9.60286006216193
 10
3.591622476785939
 20
-9.603198541312444
 10
3.564792186981877
 20
-9.603404894149282
 10
3.548100643015762
 20
-9.618687607847302
 10
3.538555593020519
 20
-9.641729048599346
 10
3.524090689625659
 20
-9.676646926960176
 10
3.535532432825903
 20
-9.685145708737991
 10
3.562814364264593
 20
-9.686452894430759
 10
3.597396516914411
 20
-9.688109766936095
 10
3.632115488359254
 20
-9.686936452694681
 10
3.666775435369269
 20
-9.686940485901812
 10
3.774318265853253
 20
-9.686952973331496
 10
3.881861173898919
 20
-9.68694502325982
 10
3.989404004382903
 20
-9.68694502325982
 97
        0
 97
        1
330
85
 92
        1
 93
        1
 72
     4
 94
        3
 73
     0
 74
     0
 95
       44
 96
       40
 40
0.0
 40
0.0
 40
0.0
 40
0.0
 40
1.0
 40
1.0
 40
1.0
 40
2.0
 40
2.0
 40
2.0
 40
3.0
 40
3.0
 40
3.0
 40
4.0
 40
4.0
 40
4.0
 40
5.0
 40
5.0
 40
5.0
 40
6.0
 40
6.0
 40
6.0
 40
7.0
 40
7.0
 40
7.0
 40
8.0
 40
8.0
 40
8.0
 40
9.0
 40
9.0
 40
9.0
 40
10.0
 40
10.0
 40
10.0
 40
11.0
 40
11.0
 40
11.0
 40
12.0
 40
12.0
 40
12.0
 40
13.0
 40
13.0
 40
13.0
 40
13.0
 10
3.983496984762344
 20
-9.810956756921287
 10
3.983498225749144
 20
-9.811766966180305
 10
3.983499466735944
 20
-9.812577136658495
 10
3.983500785284427
 20
-9.813387345917464
 10
4.080445510909157
 20
-9.813387345917464
 10
4.177390314095595
 20
-9.813438652965613
 10
4.274335117282008
 20
-9.813367412566952
 10
4.329369081472679
 20
-9.813326964153349
 10
4.384403045663374
 20
-9.813117663972837
 10
4.439436777169046
 20
-9.81291825290595
 10
4.459177619614339
 20
-9.812846702260584
 10
4.459503378650095
 20
-9.812751495304281
 10
4.459111537067074
 20
-9.793641074154948
 10
4.458791362471881
 20
-9.778032562640293
 10
4.458230746683637
 20
-9.76237297676251
 10
4.456596677310799
 20
-9.7468603314784
 10
4.454044277703738
 20
-9.722631033670898
 10
4.448771169654466
 20
-9.718445572992751
 10
4.424107177438372
 20
-9.718447589596305
 10
4.272552207054483
 20
-9.718459921902674
 10
4.120997159108911
 20
-9.71851475800703
 10
3.969442188725022
 20
-9.718471905181507
 10
3.918643247122897
 20
-9.718457556271561
 10
3.867843607465702
 20
-9.718315346940118
 10
3.817045519042014
 20
-9.718025886768321
 10
3.723929547951178
 20
-9.717495287348381
 10
3.630814972970559
 20
-9.716675033852425
 10
3.537698536509701
 20
-9.716301807071431
 10
3.517938109741432
 20
-9.716222577820239
 10
3.51055644877134
 20
-9.72219808439998
 10
3.507754998625285
 20
-9.74171896193444
 10
3.505426635916996
 20
-9.757943545835106
 10
3.505111696734906
 20
-9.774509245983255
 10
3.504706243077837
 20
-9.790943634215283
 10
3.504250141646934
 20
-9.80942921850932
 10
3.506013545113142
 20
-9.810928253005663
 10
3.525060598373859
 20
-9.810933449637913
 10
3.677872727170021
 20
-9.810975139038317
 10
3.830684817185353
 20
-9.810956756921287
 10
3.983496984762344
 20
-9.810956756921287
 97
        0
 97
        1
330
86
 92
        1
 93
        1
 72
     4
 94
        3
 73
     0
 74
     0
 95
       77
 96
       73
 40
0.0
 40
0.0
 40
0.0
 40
0.0
 40
1.0
 40
1.0
 40
1.0
 40
2.0
 40
2.0
 40
2.0
 40
3.0
 40
3.0
 40
3.0
 40
4.0
 40
4.0
 40
4.0
 40
5.0
 40
5.0
 40
5.0
 40
6.0
 40
6.0
 40
6.0
 40
7.0
 40
7.0
 40
7.0
 40
8.0
 40
8.0
 40
8.0
 40
9.0
 40
9.0
 40
9.0
 40
10.0
 40
10.0
 40
10.0
 40
11.0
 40
11.0
 40
11.0
 40
12.0
 40
12.0
 40
12.0
 40
13.0
 40
13.0
 40
13.0
 40
14.0
 40
14.0
 40
14.0
 40
15.0
 40
15.0
 40
15.0
 40
16.0
 40
16.0
 40
16.0
 40
17.0
 40
17.0
 40
17.0
 40
18.0
 40
18.0
 40
18.0
 40
19.0
 40
19.0
 40
19.0
 40
20.0
 40
20.0
 40
20.0
 40
21.0
 40
21.0
 40
21.0
 40
22.0
 40
22.0
 40
22.0
 40
23.0
 40
23.0
 40
23.0
 40
24.0
 40
24.0
 40
24.0
 40
24.0
 10
3.647022764768532
 20
-10.43711103606253
 10
3.64146624635815
 20
-10.43959999021932
 10
3.637567453631491
 20
-10.44095941370031
 10
3.634054995608973
 20
-10.44298788419147
 10
3.620127904869857
 20
-10.45103102990838
 10
3.606354269905118
 20
-10.45933920386942
 10
3.592463827057549
 20
-10.46744649309168
 10
3.561846627243287
 20
-10.48531662549311
 10
3.529298102936031
 20
-10.49563108730619
 10
3.493334499289479
 20
-10.493881295914
 10
3.438082392887331
 20
-10.49119300825198
 10
3.395595037959941
 20
-10.45672095440012
 10
3.387355486691022
 20
-10.40566861880514
 10
3.381595388273682
 20
-10.36997907933785
 10
3.388858728908265
 20
-10.33628442615635
 10
3.409904003606824
 20
-10.3066201878643
 10
3.441095082255767
 20
-10.26265528302459
 10
3.477133222672187
 20
-10.25213334373036
 10
3.531358722741565
 20
-10.26451715103745
 10
3.536945179958618
 20
-10.26579304059429
 10
3.54397164723716
 20
-10.26820489844592
 10
3.546765341215707
 20
-10.27244069665122
 10
3.550508390098558
 20
-10.27811588442467
 10
3.552978496768243
 20
-10.28655149221802
 10
3.551640014939544
 20
-10.29288075759831
 10
3.550926137281142
 20
-10.29625670707249
 10
3.541042608135386
 20
-10.29961241294947
 10
3.535313864025233
 20
-10.29958503367814
 10
3.525269704650175
 20
-10.29953710056285
 10
3.515273206924525
 20
-10.29594839941362
 10
3.50519154647951
 20
-10.29556687353336
 10
3.494343072532753
 20
-10.29515633958661
 10
3.482625830262248
 20
-10.2944205895358
 10
3.472669936073568
 20
-10.29784524774201
 10
3.434900386381943
 20
-10.31083752639092
 10
3.411615401969811
 20
-10.35228842465279
 10
3.41667773616675
 20
-10.39452773734294
 10
3.420262442889729
 20
-10.42443831151541
 10
3.458860661519035
 20
-10.46113964303552
 10
3.492921250684073
 20
-10.46308954354973
 10
3.534178477442992
 20
-10.46545145168253
 10
3.572665705315153
 20
-10.45428388900404
 10
3.601832424241719
 20
-10.42377492650752
 10
3.637982602497938
 20
-10.3859610503185
 10
3.644330017310216
 20
-10.33856357598175
 10
3.642331485625668
 20
-10.28802718065013
 10
3.640615666247185
 20
-10.24463832637204
 10
3.620817156696425
 20
-10.21190598089459
 10
3.589747423288296
 20
-10.18519777316725
 10
3.541824546163777
 20
-10.14400228550178
 10
3.488108044587811
 20
-10.13345226888112
 10
3.42630337274252
 20
-10.15247225311724
 10
3.334863024692013
 20
-10.18061263717689
 10
3.268647400988381
 20
-10.25243125812479
 10
3.26012337288532
 20
-10.34623023732729
 10
3.257850369822714
 20
-10.37124263658832
 10
3.261074608660262
 20
-10.39691772280215
 10
3.263390794185523
 20
-10.42214008151796
 10
3.265910404594377
 20
-10.44957736899204
 10
3.275981497261151
 20
-10.47491048577995
 10
3.291339969325437
 20
-10.4976659954164
 10
3.343645720981839
 20
-10.57516375978318
 10
3.420059774232463
 20
-10.60297939310882
 10
3.509578512389755
 20
-10.59866680884506
 10
3.554235383714664
 20
-10.59651555822208
 10
3.597819654633389
 20
-10.58547853184296
 10
3.633721674309855
 20
-10.55601610902971
 10
3.641784326788082
 20
-10.5493996327662
 10
3.650772949325528
 20
-10.5398617184451
 10
3.652558186403287
 20
-10.53039112765805
 10
3.65833110188747
 20
-10.49976698607388
 10
3.652020800336736
 20
-10.46928687652052
 10
3.647022764768532
 20
-10.43711103606253
 97
        0
 97
        1
330
87
 92
        1
 93
        1
 72
     4
 94
        3
 73
     0
 74
     0
 95
       95
 96
       91
 40
0.0
 40
0.0
 40
0.0
 40
0.0
 40
1.0
 40
1.0
 40
1.0
 40
2.0
 40
2.0
 40
2.0
 40
3.0
 40
3.0
 40
3.0
 40
4.0
 40
4.0
 40
4.0
 40
5.0
 40
5.0
 40
5.0
 40
6.0
 40
6.0
 40
6.0
 40
7.0
 40
7.0
 40
7.0
 40
8.0
 40
8.0
 40
8.0
 40
9.0
 40
9.0
 40
9.0
 40
10.0
 40
10.0
 40
10.0
 40
11.0
 40
11.0
 40
11.0
 40
12.0
 40
12.0
 40
12.0
 40
13.0
 40
13.0
 40
13.0
 40
14.0
 40
14.0
 40
14.0
 40
15.0
 40
15.0
 40
15.0
 40
16.0
 40
16.0
 40
16.0
 40
17.0
 40
17.0
 40
17.0
 40
18.0
 40
18.0
 40
18.0
 40
19.0
 40
19.0
 40
19.0
 40
20.0
 40
20.0
 40
20.0
 40
21.0
 40
21.0
 40
21.0
 40
22.0
 40
22.0
 40
22.0
 40
23.0
 40
23.0
 40
23.0
 40
24.0
 40
24.0
 40
24.0
 40
25.0
 40
25.0
 40
25.0
 40
26.0
 40
26.0
 40
26.0
 40
27.0
 40
27.0
 40
27.0
 40
28.0
 40
28.0
 40
28.0
 40
29.0
 40
29.0
 40
29.0
 40
30.0
 40
30.0
 40
30.0
 40
30.0
 10
4.373243626960806
 20
-10.17890620276113
 10
4.35597870831086
 20
-10.17826282866543
 10
4.344800597244582
 20
-10.18277296251588
 10
4.334621790801394
 20
-10.19130048089432
 10
4.3197066806629
 20
-10.20379605457535
 10
4.304652812687537
 20
-10.21617769015552
 10
4.289045309474659
 20
-10.2277837089838
 10
4.26057179802006
 20
-10.24895696044644
 10
4.256673936033545
 20
-10.26784850254843
 10
4.270209379093785
 20
-10.30030302210533
 10
4.28137763982732
 20
-10.32708150071039
 10
4.292962639441636
 20
-10.35478792719737
 10
4.297096754290779
 20
-10.38314261416558
 10
4.303479149418586
 20
-10.42691632947597
 10
4.305247400489482
 20
-10.47157176590985
 10
4.305887982364891
 20
-10.51589779790925
 10
4.30629169088421
 20
-10.54383303133803
 10
4.318897402144001
 20
-10.56094158565083
 10
4.342573879111644
 20
-10.57080774098131
 10
4.362023089658198
 20
-10.57891262579167
 10
4.382410641351169
 20
-10.58494366653083
 10
4.402683712011594
 20
-10.59086177747099
 10
4.482381745980066
 20
-10.61412748780683
 10
4.554659144236666
 20
-10.59657512558861
 10
4.621981282188926
 20
-10.5508154435851
 10
4.740446037526049
 20
-10.47029339437944
 10
4.744164344234528
 20
-10.28077865429552
 10
4.633218727936738
 20
-10.19831120315282
 10
4.574753512797466
 20
-10.15485331898379
 10
4.512019303055845
 20
-10.13898008947171
 10
4.44342034480668
 20
-10.17488416453261
 10
4.406708852707096
 20
-10.19409859588839
 10
4.38157359575257
 20
-10.22460050027247
 10
4.364274394842191
 20
-10.26120495726026
 10
4.352788441487088
 20
-10.28550906330348
 10
4.354196263453407
 20
-10.31208851865001
 10
4.356487745585101
 20
-10.33860375292948
 10
4.36100718683661
 20
-10.39090010023276
 10
4.382408469624275
 20
-10.4325633623613
 10
4.42795609800785
 20
-10.46068164134352
 10
4.46146320705874
 20
-10.48136671962255
 10
4.496557848477373
 20
-10.4838750641981
 10
4.532578886544393
 20
-10.4696670838523
 10
4.568410519000634
 20
-10.45553395052302
 10
4.586481768825832
 20
-10.42373381881968
 10
4.582044000018337
 20
-10.38567321894189
 10
4.581112639422699
 20
-10.37768700349458
 10
4.580072071988372
 20
-10.36970978520159
 10
4.578882586137701
 20
-10.3617582398231
 10
4.574154426418317
 20
-10.33015433915797
 10
4.555180203570544
 20
-10.31041489282284
 10
4.523962560047872
 20
-10.30328201092591
 10
4.502793652039043
 20
-10.29844510973791
 10
4.483981998462518
 20
-10.30621213589112
 10
4.464596388489604
 20
-10.31221587492069
 10
4.460573729767702
 20
-10.31346167054754
 10
4.452953605427283
 20
-10.3130453970368
 10
4.451591932657669
 20
-10.31071133354539
 10
4.449267874622364
 20
-10.30672761078444
 10
4.448849972316438
 20
-10.29980034488845
 10
4.450824847690076
 20
-10.29561697837557
 10
4.453143941778155
 20
-10.29070406674585
 10
4.458211201141517
 20
-10.28583342622912
 10
4.463251469041854
 20
-10.2837129675912
 10
4.474865088914308
 20
-10.27882704742443
 10
4.486925464035872
 20
-10.2739586561963
 10
4.499264750941392
 20
-10.2720369105702
 10
4.536116164302989
 20
-10.26629726904467
 10
4.566139047781107
 20
-10.27706065783372
 10
4.588858258553575
 20
-10.30875088464336
 10
4.613415060534558
 20
-10.34300452481792
 10
4.616254283216449
 20
-10.38083895485083
 10
4.611669612596137
 20
-10.4202640972802
 10
4.608951075880844
 20
-10.44364157398995
 10
4.596247559348638
 20
-10.46196109873742
 10
4.577490198944738
 20
-10.47615550579007
 10
4.538888063450839
 20
-10.50536724926908
 10
4.496034307169868
 20
-10.51717027475236
 10
4.448393909666365
 20
-10.50614845046157
 10
4.417978098741741
 20
-10.4991117450419
 10
4.38773866306648
 20
-10.48805796534091
 10
4.367278979015584
 20
-10.4642621209552
 10
4.346139311758305
 20
-10.43967561285262
 10
4.330713690673746
 20
-10.41035396447985
 10
4.324068904398775
 20
-10.37755739793536
 10
4.311640654251833
 20
-10.31621503245499
 10
4.324923091127629
 20
-10.26000267373319
 10
4.357449743042479
 20
-10.20747433945942
 10
4.362684458062529
 20
-10.19902073735743
 10
4.367106947220008
 20
-10.19006422535353
 10
4.373243626960806
 20
-10.17890620276113
 97
        0
 97
        1
330
88
 92
        1
 93
        1
 72
     4
 94
        3
 73
     0
 74
     0
 95
       62
 96
       58
 40
0.0
 40
0.0
 40
0.0
 40
0.0
 40
1.0
 40
1.0
 40
1.0
 40
2.0
 40
2.0
 40
2.0
 40
3.0
 40
3.0
 40
3.0
 40
4.0
 40
4.0
 40
4.0
 40
5.0
 40
5.0
 40
5.0
 40
6.0
 40
6.0
 40
6.0
 40
7.0
 40
7.0
 40
7.0
 40
8.0
 40
8.0
 40
8.0
 40
9.0
 40
9.0
 40
9.0
 40
10.0
 40
10.0
 40
10.0
 40
11.0
 40
11.0
 40
11.0
 40
12.0
 40
12.0
 40
12.0
 40
13.0
 40
13.0
 40
13.0
 40
14.0
 40
14.0
 40
14.0
 40
15.0
 40
15.0
 40
15.0
 40
16.0
 40
16.0
 40
16.0
 40
17.0
 40
17.0
 40
17.0
 40
18.0
 40
18.0
 40
18.0
 40
19.0
 40
19.0
 40
19.0
 40
19.0
 10
3.847569295818478
 20
-10.3055930385998
 10
3.840846327374947
 20
-10.3026297172376
 10
3.835644265820165
 20
-10.29998975049926
 10
3.830204477730906
 20
-10.29799913010558
 10
3.806385907774357
 20
-10.289282283678
 10
3.782439361053724
 20
-10.2809130686786
 10
3.758656547029431
 20
-10.27210128676061
 10
3.74259810023702
 20
-10.26615153065697
 10
3.738026149731442
 20
-10.26725034690937
 10
3.730771883812874
 20
-10.28318461745981
 10
3.693564190896267
 20
-10.36491228534459
 10
3.672093684313519
 20
-10.44911998779346
 10
3.684580454744364
 20
-10.54027124409011
 10
3.696160374068995
 20
-10.62480292165623
 10
3.731131537300724
 20
-10.69573384923157
 10
3.796053063844232
 20
-10.75161470935364
 10
3.891838785356664
 20
-10.83406152909075
 10
4.028286835579339
 20
-10.84170197459007
 10
4.132428431482998
 20
-10.77020422629243
 10
4.246772179894125
 20
-10.69170188310866
 10
4.305611087184463
 20
-10.53639378082415
 10
4.272469060938671
 20
-10.40082054873589
 10
4.262084793617936
 20
-10.35834195827778
 10
4.249235616259738
 20
-10.31689548103142
 10
4.22545885204608
 20
-10.27957668101514
 10
4.220436888701089
 20
-10.27169455333592
 10
4.215492564592927
 20
-10.26859945468757
 10
4.205834972607009
 20
-10.27193941554449
 10
4.179480446118532
 20
-10.28105353287239
 10
4.152748892326952
 20
-10.28907185885322
 10
4.12625917583864
 20
-10.29780476054758
 10
4.120006463831765
 20
-10.29986603962733
 10
4.114117748766501
 20
-10.30303117646837
 10
4.10716713680631
 20
-10.30608097909839
 10
4.109443339288014
 20
-10.30891058413256
 10
4.110488095052763
 20
-10.31074809777942
 10
4.112007450708006
 20
-10.31201762727889
 10
4.136243535162116
 20
-10.33226812749181
 10
4.151019034285253
 20
-10.35858046042898
 10
4.159893563598517
 20
-10.3883117895701
 10
4.174482914701229
 20
-10.43718859773773
 10
4.173509438115944
 20
-10.48686320529635
 10
4.165500109289395
 20
-10.53661033302127
 10
4.150177412547792
 20
-10.63178347242307
 10
4.076089647230648
 20
-10.7097317149993
 10
3.97007943544837
 20
-10.70348846551678
 10
3.913131404237421
 20
-10.70013438843499
 10
3.86458392294263
 20
-10.68185837578731
 10
3.830074251678272
 20
-10.63381760491653
 10
3.79252563641843
 20
-10.58154631003433
 10
3.779448039926794
 20
-10.52325297156724
 10
3.785121521343373
 20
-10.4598768614018
 10
3.790025203133735
 20
-10.4051013327128
 10
3.805224809496798
 20
-10.3545121178804
 10
3.843128114297289
 20
-10.31279526063432
 10
3.844507471128811
 20
-10.3112770684042
 10
3.845337691299997
 20
-10.30925984435594
 10
3.847569295818478
 20
-10.3055930385998
 97
        0
 97
        1
330
89
 92
        1
 93
        1
 72
     4
 94
        3
 73
     0
 74
     0
 95
      161
 96
      157
 40
0.0
 40
0.0
 40
0.0
 40
0.0
 40
1.0
 40
1.0
 40
1.0
 40
2.0
 40
2.0
 40
2.0
 40
3.0
 40
3.0
 40
3.0
 40
4.0
 40
4.0
 40
4.0
 40
5.0
 40
5.0
 40
5.0
 40
6.0
 40
6.0
 40
6.0
 40
7.0
 40
7.0
 40
7.0
 40
8.0
 40
8.0
 40
8.0
 40
9.0
 40
9.0
 40
9.0
 40
10.0
 40
10.0
 40
10.0
 40
11.0
 40
11.0
 40
11.0
 40
12.0
 40
12.0
 40
12.0
 40
13.0
 40
13.0
 40
13.0
 40
14.0
 40
14.0
 40
14.0
 40
15.0
 40
15.0
 40
15.0
 40
16.0
 40
16.0
 40
16.0
 40
17.0
 40
17.0
 40
17.0
 40
18.0
 40
18.0
 40
18.0
 40
19.0
 40
19.0
 40
19.0
 40
20.0
 40
20.0
 40
20.0
 40
21.0
 40
21.0
 40
21.0
 40
22.0
 40
22.0
 40
22.0
 40
23.0
 40
23.0
 40
23.0
 40
24.0
 40
24.0
 40
24.0
 40
25.0
 40
25.0
 40
25.0
 40
26.0
 40
26.0
 40
26.0
 40
27.0
 40
27.0
 40
27.0
 40
28.0
 40
28.0
 40
28.0
 40
29.0
 40
29.0
 40
29.0
 40
30.0
 40
30.0
 40
30.0
 40
31.0
 40
31.0
 40
31.0
 40
32.0
 40
32.0
 40
32.0
 40
33.0
 40
33.0
 40
33.0
 40
34.0
 40
34.0
 40
34.0
 40
35.0
 40
35.0
 40
35.0
 40
36.0
 40
36.0
 40
36.0
 40
37.0
 40
37.0
 40
37.0
 40
38.0
 40
38.0
 40
38.0
 40
39.0
 40
39.0
 40
39.0
 40
40.0
 40
40.0
 40
40.0
 40
41.0
 40
41.0
 40
41.0
 40
42.0
 40
42.0
 40
42.0
 40
43.0
 40
43.0
 40
43.0
 40
44.0
 40
44.0
 40
44.0
 40
45.0
 40
45.0
 40
45.0
 40
46.0
 40
46.0
 40
46.0
 40
47.0
 40
47.0
 40
47.0
 40
48.0
 40
48.0
 40
48.0
 40
49.0
 40
49.0
 40
49.0
 40
50.0
 40
50.0
 40
50.0
 40
51.0
 40
51.0
 40
51.0
 40
52.0
 40
52.0
 40
52.0
 40
52.0
 10
4.639146611647927
 20
-9.851667290212692
 10
4.640949920596009
 20
-9.851354871785032
 10
4.642753229544116
 20
-9.851042375795714
 10
4.644556538492224
 20
-9.850729879806344
 10
4.635255807773849
 20
-9.854100942895001
 10
4.6259890490692
 20
-9.857569423447708
 10
4.616647986279708
 20
-9.860824686955311
 10
4.589575393802356
 20
-9.870259211563405
 10
4.561991204515455
 20
-9.878433824319749
 10
4.535505598795907
 20
-9.889292148599249
 10
4.503424848951731
 20
-9.902444281860727
 10
4.483826875112147
 20
-9.924522678072763
 10
4.474640935673025
 20
-9.960919424894427
 10
4.463991717669841
 20
-10.00311444986806
 10
4.443450593859981
 20
-10.04280725763846
 10
4.427310164376876
 20
-10.08362843265947
 10
4.42496299296239
 20
-10.08956484815495
 10
4.423208702993002
 20
-10.09573573259452
 10
4.421081496489326
 20
-10.10209245480781
 10
4.44476185154071
 20
-10.10654092712649
 10
4.460377343606119
 20
-10.10060567505616
 10
4.475555853193554
 20
-10.08320215369265
 10
4.498209291665438
 20
-10.05722798965929
 10
4.523504325670854
 20
-10.03295188338079
 10
4.550463367855753
 20
-10.0114484518669
 10
4.641878644094705
 20
-9.938532333215132
 10
4.752411787403843
 20
-9.944304473082562
 10
4.839702178633059
 20
-10.00707955782698
 10
4.874464545835153
 20
-10.03207884916489
 10
4.901196332311756
 20
-10.06490279498073
 10
4.928238210365734
 20
-10.09760675288503
 10
4.941847802387479
 20
-10.11406588329148
 10
4.957195551550158
 20
-10.12963227881652
 10
4.973978036580446
 20
-10.14276385823407
 10
4.989504487842723
 20
-10.15491257610362
 10
5.014843576879658
 20
-10.1486215486292
 10
5.031266175737073
 20
-10.13212557642706
 10
5.045737167723447
 20
-10.11759005312696
 10
5.046636262662205
 20
-10.10499985420221
 10
5.033813146026886
 20
-10.08423333616426
 10
5.028045349613269
 20
-10.07489242849813
 10
5.022183238202615
 20
-10.06530464201988
 10
5.01472382165318
 20
-10.05737085826498
 10
4.992416308252611
 20
-10.03364466426357
 10
4.969238863103151
 20
-10.01073845229224
 10
4.94652616751139
 20
-9.987390371457371
 10
4.937098080522369
 20
-9.977698497210996
 10
4.927959919075166
 20
-9.967723677973582
 10
4.918741869102505
 20
-9.957828979946599
 10
4.913165184656564
 20
-9.951842847417335
 10
4.912825309395909
 20
-9.944430510804723
 10
4.918936393783925
 20
-9.940072940769368
 10
4.92299581673986
 20
-9.937178416613075
 10
4.930557149330474
 20
-9.937150029039937
 10
4.935811177207672
 20
-9.938571967231155
 10
4.9407048535419
 20
-9.939896410396638
 10
4.944854403164425
 20
-9.944574542835551
 10
4.948930734565565
 20
-9.948223819653119
 10
4.996469060904498
 20
-9.990781212773198
 10
5.037631507296333
 20
-10.03908476259953
 10
5.075494635149096
 20
-10.09022831072449
 10
5.08767864358088
 20
-10.10668588989741
 10
5.105976683744302
 20
-10.10275839935098
 10
5.116818875195349
 20
-10.09132224059132
 10
5.137639841529309
 20
-10.06936119519383
 10
5.140705854549423
 20
-10.04971373700548
 10
5.126485386773942
 20
-10.02207595260104
 10
5.110362331106115
 20
-9.990740415332057
 10
5.087846642169324
 20
-9.964219984420347
 10
5.060804608992005
 20
-9.94209396533971
 10
5.032005958995013
 20
-9.918530573294521
 10
5.001873403308157
 20
-9.896576973817824
 10
4.971959881792043
 20
-9.874411165597848
 10
4.964995618977026
 20
-9.869250754662617
 10
4.963064023018154
 20
-9.863549661289678
 10
4.968324255829328
 20
-9.857649389534824
 10
4.970872777352647
 20
-9.854790776434128
 10
4.977351193834313
 20
-9.854141662774482
 10
4.981806801827107
 20
-9.854645736101524
 10
4.986146067307117
 20
-9.855136701505468
 10
4.990524578994786
 20
-9.857872146665966
 10
4.994286785611418
 20
-9.860484734132972
 10
5.050414602107265
 20
-9.899460251531257
 10
5.103624548382564
 20
-9.941925346257852
 10
5.150309386047764
 20
-9.992095883167621
 10
5.163706924449519
 20
-10.00649373449427
 10
5.170356131739961
 20
-10.00703495986373
 10
5.1837966393098
 20
-9.992524954354747
 10
5.188802159579684
 20
-9.987120999759452
 10
5.194197349705669
 20
-9.980087164121743
 10
5.195100477851585
 20
-9.973228385184938
 10
5.198479684916113
 20
-9.947568888867811
 10
5.197569731342834
 20
-9.921835010904183
 10
5.178726587726158
 20
-9.90144846751299
 10
5.161804491680514
 20
-9.883140111646753
 10
5.144152385148092
 20
-9.865334975929119
 10
5.125415966396454
 20
-9.848912454633364
 10
5.091700681809369
 20
-9.819361029797871
 10
5.053295708093779
 20
-9.797055494220026
 10
5.011357955196772
 20
-9.781186336695908
 10
4.999264693924916
 20
-9.776610314202393
 10
4.996093662396585
 20
-9.77027286606537
 10
5.001122606292356
 20
-9.758165061979424
 10
5.007767470128984
 20
-9.7421674623212
 10
5.013903839623101
 20
-9.725869466294978
 10
5.01889260657112
 20
-9.709289533579445
 10
5.034905214413507
 20
-9.656072102602466
 10
5.036778949362668
 20
-9.603369099436196
 10
5.002154641942397
 20
-9.556446612798227
 10
4.978528424940299
 20
-9.524428726691793
 10
4.946416960672725
 20
-9.502992502369426
 10
4.904655272778401
 20
-9.502407570996005
 10
4.879108318451977
 20
-9.502049778988343
 10
4.864591254830529
 20
-9.524413330699239
 10
4.874408701429021
 20
-9.547912385334887
 10
4.879107853081904
 20
-9.559160418251343
 10
4.886136957457412
 20
-9.569415584163758
 10
4.891758937921697
 20
-9.580302218454713
 10
4.901061840366966
 20
-9.598317119722851
 10
4.912131287526335
 20
-9.615758529964699
 10
4.918795386658403
 20
-9.634727750084367
 10
4.933063787549169
 20
-9.675342843734444
 10
4.924065702487369
 20
-9.711284613769445
 10
4.89184006743393
 20
-9.740870825016271
 10
4.871742906652849
 20
-9.759322088269021
 10
4.847323854206984
 20
-9.769579503470014
 10
4.82258803987967
 20
-9.779832807902215
 10
4.801619551239556
 20
-9.788524524347041
 10
4.781405892822324
 20
-9.787037356786994
 10
4.760744858662619
 20
-9.780018723237642
 10
4.695795332354337
 20
-9.75795518008638
 10
4.646532965099368
 20
-9.689676900583233
 10
4.646059838880723
 20
-9.620952331201097
 10
4.64560160450368
 20
-9.554407826604245
 10
4.710135400232982
 20
-9.499133925371399
 10
4.775823779059085
 20
-9.511039913978466
 10
4.792195652580958
 20
-9.514007346109464
 10
4.807747544072728
 20
-9.521574573387397
 10
4.823624418983525
 20
-9.527174914144273
 10
4.839022738358405
 20
-9.532606558257661
 10
4.843170581624058
 20
-9.531251904819656
 10
4.851755107833796
 20
-9.517470940276627
 10
4.865758092672067
 20
-9.494991763498445
 10
4.860968504105913
 20
-9.473042410523449
 10
4.838348262030977
 20
-9.458491956600886
 10
4.802163258582595
 20
-9.435215969343087
 10
4.762000271937191
 20
-9.432865191310686
 10
4.720100524261018
 20
-9.432758834863584
 10
4.628649569651441
 20
-9.432526750941001
 10
4.545558677763589
 20
-9.522228612213439
 10
4.534272523283763
 20
-9.586541240825908
 10
4.520432728210102
 20
-9.66540614606035
 10
4.545928646954254
 20
-9.734255512177872
 10
4.592326041051188
 20
-9.796618317837832
 10
4.606674640714092
 20
-9.815904183496462
 10
4.623470931722573
 20
-9.833368784679173
 10
4.639146611647927
 20
-9.851667290212692
 97
        0
 97
        1
330
8A
 92
        1
 93
        1
 72
     4
 94
        3
 73
     0
 74
     0
 95
       65
 96
       61
 40
0.0
 40
0.0
 40
0.0
 40
0.0
 40
1.0
 40
1.0
 40
1.0
 40
2.0
 40
2.0
 40
2.0
 40
3.0
 40
3.0
 40
3.0
 40
4.0
 40
4.0
 40
4.0
 40
5.0
 40
5.0
 40
5.0
 40
6.0
 40
6.0
 40
6.0
 40
7.0
 40
7.0
 40
7.0
 40
8.0
 40
8.0
 40
8.0
 40
9.0
 40
9.0
 40
9.0
 40
10.0
 40
10.0
 40
10.0
 40
11.0
 40
11.0
 40
11.0
 40
12.0
 40
12.0
 40
12.0
 40
13.0
 40
13.0
 40
13.0
 40
14.0
 40
14.0
 40
14.0
 40
15.0
 40
15.0
 40
15.0
 40
16.0
 40
16.0
 40
16.0
 40
17.0
 40
17.0
 40
17.0
 40
18.0
 40
18.0
 40
18.0
 40
19.0
 40
19.0
 40
19.0
 40
20.0
 40
20.0
 40
20.0
 40
20.0
 10
3.700522209996481
 20
-9.842302571112263
 10
3.692848063949289
 20
-9.841454201509046
 10
3.688043583541482
 20
-9.840546807471051
 10
3.683222621277738
 20
-9.840448847075295
 10
3.639217151681906
 20
-9.839555181453761
 10
3.595210984030977
 20
-9.838588530295913
 10
3.551199929994532
 20
-9.838139758443301
 10
3.53816119190219
 20
-9.838006662608677
 10
3.525091700605621
 20
-9.839253388975622
 10
3.51206417017531
 20
-9.840237103702014
 10
3.503668661768036
 20
-9.840871092835008
 10
3.500484871344117
 20
-9.845719705835966
 10
3.501580934157042
 20
-9.854142903761308
 10
3.505337439990524
 20
-9.883011669512647
 10
3.507150948298936
 20
-9.912243423903847
 10
3.512731316924448
 20
-9.940744237068125
 10
3.529575153239799
 20
-10.02677122617016
 10
3.567535310748199
 20
-10.10214674798046
 10
3.630474632339832
 20
-10.16404375700007
 10
3.685768156676506
 20
-10.21842170454202
 10
3.752760618728416
 20
-10.25171520873944
 10
3.827630438416463
 20
-10.26830425495182
 10
3.945516893903408
 20
-10.29442446761954
 10
4.0628542902917
 20
-10.2912034863724
 10
4.178269475683842
 20
-10.25397869110644
 10
4.264219135795731
 20
-10.22625737277781
 10
4.333215442506899
 20
-10.17498142687327
 10
4.382906725825679
 20
-10.09931310973916
 10
4.429798032670204
 20
-10.02790812520506
 10
4.457536414567357
 20
-9.949847340638116
 10
4.4591177420011
 20
-9.863635677187428
 10
4.459429384811983
 20
-9.846640595605473
 10
4.454994253101454
 20
-9.842924383062229
 10
4.438057885707595
 20
-9.842769104588517
 10
4.358478521102142
 20
-9.842039404348344
 10
4.278900630168537
 20
-9.840929108968035
 10
4.199319714329627
 20
-9.84063057408025
 10
4.094304773963332
 20
-9.840236560770309
 10
3.989287351623412
 20
-9.84042588881943
 10
3.884271325393708
 20
-9.84054432549745
 10
3.877269367604488
 20
-9.840552159226641
 10
3.87026911617214
 20
-9.842078030062591
 10
3.860056260153568
 20
-9.843274031093995
 10
3.871186282981246
 20
-9.855865393443838
 10
3.880300555432464
 20
-9.866188619726218
 10
3.889427935806831
 20
-9.876500134195641
 10
3.938622359034348
 20
-9.932077262797671
 10
3.940040186456776
 20
-10.0086051959779
 10
3.892925579549379
 20
-10.06548985930021
 10
3.852421166409815
 20
-10.11439365893082
 10
3.781586958243426
 20
-10.13211572609432
 10
3.726298203949732
 20
-10.10632003147556
 10
3.677896112015105
 20
-10.08373732925143
 10
3.629187806586792
 20
-10.02556428894258
 10
3.642418509825246
 20
-9.950154484871871
 10
3.648586640825341
 20
-9.914998569729858
 10
3.666768067010151
 20
-9.886596802824795
 10
3.687804616020255
 20
-9.859249952263981
 10
3.691542623394196
 20
-9.854390713313502
 10
3.695168127558341
 20
-9.849445070656908
 10
3.700522209996481
 20
-9.842302571112263
 97
        0
 97
        1
330
8B
 92
        1
 93
        1
 72
     4
 94
        3
 73
     0
 74
     0
 95
      173
 96
      169
 40
0.0
 40
0.0
 40
0.0
 40
0.0
 40
1.0
 40
1.0
 40
1.0
 40
2.0
 40
2.0
 40
2.0
 40
3.0
 40
3.0
 40
3.0
 40
4.0
 40
4.0
 40
4.0
 40
5.0
 40
5.0
 40
5.0
 40
6.0
 40
6.0
 40
6.0
 40
7.0
 40
7.0
 40
7.0
 40
8.0
 40
8.0
 40
8.0
 40
9.0
 40
9.0
 40
9.0
 40
10.0
 40
10.0
 40
10.0
 40
11.0
 40
11.0
 40
11.0
 40
12.0
 40
12.0
 40
12.0
 40
13.0
 40
13.0
 40
13.0
 40
14.0
 40
14.0
 40
14.0
 40
15.0
 40
15.0
 40
15.0
 40
16.0
 40
16.0
 40
16.0
 40
17.0
 40
17.0
 40
17.0
 40
18.0
 40
18.0
 40
18.0
 40
19.0
 40
19.0
 40
19.0
 40
20.0
 40
20.0
 40
20.0
 40
21.0
 40
21.0
 40
21.0
 40
22.0
 40
22.0
 40
22.0
 40
23.0
 40
23.0
 40
23.0
 40
24.0
 40
24.0
 40
24.0
 40
25.0
 40
25.0
 40
25.0
 40
26.0
 40
26.0
 40
26.0
 40
27.0
 40
27.0
 40
27.0
 40
28.0
 40
28.0
 40
28.0
 40
29.0
 40
29.0
 40
29.0
 40
30.0
 40
30.0
 40
30.0
 40
31.0
 40
31.0
 40
31.0
 40
32.0
 40
32.0
 40
32.0
 40
33.0
 40
33.0
 40
33.0
 40
34.0
 40
34.0
 40
34.0
 40
35.0
 40
35.0
 40
35.0
 40
36.0
 40
36.0
 40
36.0
 40
37.0
 40
37.0
 40
37.0
 40
38.0
 40
38.0
 40
38.0
 40
39.0
 40
39.0
 40
39.0
 40
40.0
 40
40.0
 40
40.0
 40
41.0
 40
41.0
 40
41.0
 40
42.0
 40
42.0
 40
42.0
 40
43.0
 40
43.0
 40
43.0
 40
44.0
 40
44.0
 40
44.0
 40
45.0
 40
45.0
 40
45.0
 40
46.0
 40
46.0
 40
46.0
 40
47.0
 40
47.0
 40
47.0
 40
48.0
 40
48.0
 40
48.0
 40
49.0
 40
49.0
 40
49.0
 40
50.0
 40
50.0
 40
50.0
 40
51.0
 40
51.0
 40
51.0
 40
52.0
 40
52.0
 40
52.0
 40
53.0
 40
53.0
 40
53.0
 40
54.0
 40
54.0
 40
54.0
 40
55.0
 40
55.0
 40
55.0
 40
56.0
 40
56.0
 40
56.0
 40
56.0
 10
4.505372422615664
 20
-10.10029744495897
 10
4.529098073685341
 20
-10.1080916952602
 10
4.550053842210748
 20
-10.11349487423877
 10
4.569826950312895
 20
-10.12173619003576
 10
4.643071852905828
 20
-10.15226462051274
 10
4.699020501931979
 20
-10.20185879661418
 10
4.725115972425328
 20
-10.27804964675404
 10
4.759842040763461
 20
-10.3794393544221
 10
4.742232127782269
 20
-10.47291110091699
 10
4.671168569742349
 20
-10.55398228678296
 10
4.629340333930687
 20
-10.60170102157839
 10
4.574732105775106
 20
-10.62677112672577
 10
4.51210089793815
 20
-10.63610055526396
 10
4.454781578988053
 20
-10.64463885471526
 10
4.399868998819051
 20
-10.63916563754401
 10
4.347803397499445
 20
-10.61285423534693
 10
4.338429758806392
 20
-10.60811723359655
 10
4.330179135608355
 20
-10.6012071088308
 10
4.32114669072444
 20
-10.595734977523
 10
4.305117717368602
 20
-10.58602425578957
 10
4.299029591236477
 20
-10.58869610037641
 10
4.292090923774215
 20
-10.60602244787312
 10
4.261165765328643
 20
-10.68324471316961
 10
4.217179065658178
 20
-10.75142654472963
 10
4.148931927167672
 20
-10.80076181995931
 10
4.105400436968895
 20
-10.83223014281621
 10
4.056862263075117
 20
-10.8511598452624
 10
4.001570716561142
 20
-10.85232699335059
 10
3.869539028123603
 20
-10.85511409458677
 10
3.774292205130374
 20
-10.79266639767332
 10
3.702450548364999
 20
-10.68734090035958
 10
3.683701952430384
 20
-10.65985412853673
 10
3.669320389055504
 20
-10.63021424461067
 10
3.664336818739734
 20
-10.59684969391878
 10
3.663156136139175
 20
-10.5889449182304
 10
3.658868953324043
 20
-10.58798687641853
 10
3.652770201242421
 20
-10.59024376604311
 10
3.6424716007919
 20
-10.59405437114504
 10
3.632242883410728
 20
-10.59808214893749
 10
3.622129228774711
 20
-10.60236014069412
 10
3.563123059731828
 20
-10.62731855702923
 10
3.50137365058011
 20
-10.6361779618158
 10
3.438259621315132
 20
-10.62820617284006
 10
3.377548607870771
 20
-10.62053796026104
 10
3.32775946110832
 20
-10.58891110134004
 10
3.290301302152152
 20
-10.54196177836247
 10
3.153115068381111
 20
-10.37001592113354
 10
3.248158437405107
 20
-10.15414774042463
 10
3.441219258497742
 20
-10.10910193607949
 10
3.466170461597054
 20
-10.10328015673995
 10
3.492168786092254
 20
-10.10194345882978
 10
3.517684366721065
 20
-10.09854649014161
 10
3.520961192374367
 20
-10.09811036084203
 10
3.524252056690885
 20
-10.0977797154207
 10
3.529375819734569
 20
-10.09718760959236
 10
3.526436891519223
 20
-10.08872291617081
 10
3.524413501317768
 20
-10.08103492536459
 10
3.52118410462885
 20
-10.07389211557327
 10
3.498069019066229
 20
-10.02276570857849
 10
3.481035932263441
 20
-9.96991828557298
 10
3.472236598994287
 20
-9.914301755639977
 10
3.455848592643986
 20
-9.810720814305391
 10
3.468696567796238
 20
-9.711631702265902
 10
3.512394505349927
 20
-9.615965348171584
 10
3.554047335433172
 20
-9.524776474462466
 10
3.617365468246412
 20
-9.452649545855718
 10
3.699543459217288
 20
-9.396611041628855
 10
3.760182572988721
 20
-9.355260236708822
 10
3.82685939780342
 20
-9.328907261453851
 10
3.899821975898652
 20
-9.31802948858429
 10
4.037749670198865
 20
-9.297466279087428
 10
4.167582562706481
 20
-9.316377773930373
 10
4.28318242244725
 20
-9.398628731047159
 10
4.367375000369469
 20
-9.458532850994135
 10
4.423827334914297
 20
-9.539339609718959
 10
4.458529204009765
 20
-9.637182809789059
 10
4.484411845266397
 20
-9.710160434849258
 10
4.495776647284881
 20
-9.784442686066944
 10
4.495850175752947
 20
-9.861165492956084
 10
4.495854208960054
 20
-9.865249580524732
 10
4.496275523979672
 20
-9.869333357846699
 10
4.496524496957008
 20
-9.873809364560049
 10
4.525688462444122
 20
-9.860354740765361
 10
4.553825356228395
 20
-9.84737409636773
 10
4.583343933694449
 20
-9.8337559725617
 10
4.580679224781735
 20
-9.830523744871646
 10
4.578007069948196
 20
-9.826966611324223
 10
4.57501660199965
 20
-9.823701187237171
 10
4.508422613054082
 20
-9.750989017010295
 10
4.478336594372371
 20
-9.613674059944059
 10
4.530005700408385
 20
-9.513593748476523
 10
4.544006048149715
 20
-9.486476092665876
 10
4.564393754966027
 20
-9.466354441785824
 10
4.588450129018736
 20
-9.449674260605155
 10
4.65097864519771
 20
-9.406318719066549
 10
4.720431247244024
 20
-9.388495298183972
 10
4.795551436019599
 20
-9.402581118891349
 10
4.818538855064844
 20
-9.40689145386654
 10
4.84038953019856
 20
-9.419662119419019
 10
4.86136655062296
 20
-9.431112471965207
 10
4.869701793608606
 20
-9.435662298002979
 10
4.876730587737433
 20
-9.446290554963423
 10
4.879961652002369
 20
-9.455665395862473
 10
4.885163713557176
 20
-9.470758432483812
 10
4.894433264482131
 20
-9.476189824521698
 10
4.909044022607177
 20
-9.475334028388134
 10
4.937331230917985
 20
-9.473677155882796
 10
4.962400560448586
 20
-9.484323833741099
 10
4.986064317301472
 20
-9.497521185459213
 10
4.998258408751047
 20
-9.504321870701307
 10
5.009538823666919
 20
-9.514357498292079
 10
5.018425840409867
 20
-9.525225905589346
 10
5.066636471349308
 20
-9.584185266161258
 10
5.067606923029239
 20
-9.650502708953984
 10
5.046614700516506
 20
-9.719770985679183
 10
5.044898570891316
 20
-9.725433414557073
 10
5.043256900474312
 20
-9.731119073156655
 10
5.041643772753786
 20
-9.736811828649528
 10
5.035777628135999
 20
-9.75751590953895
 10
5.035200103902575
 20
-9.758646642420645
 10
5.054513891764271
 20
-9.768709532940293
 10
5.091815007718574
 20
-9.788144045549415
 10
5.127598862182897
 20
-9.809714102542303
 10
5.159834735377469
 20
-9.836814151852674
 10
5.192696686414162
 20
-9.86444022444415
 10
5.218524879374828
 20
-9.896412310381416
 10
5.224611299150106
 20
-9.940956833619793
 10
5.228061242462419
 20
-9.966205718428479
 10
5.221509452636054
 20
-9.98915838984327
 10
5.208795697962689
 20
-10.01003845817369
 10
5.204143858931678
 20
-10.01767843830293
 10
5.194442134352584
 20
-10.02328738840581
 10
5.18585621203273
 20
-10.02724675680075
 10
5.172521033217789
 20
-10.03339615665628
 10
5.165332927408144
 20
-10.04246404722574
 10
5.164028340031513
 20
-10.05699468414033
 10
5.163467413996537
 20
-10.06324398343349
 10
5.161542798588445
 20
-10.06939842479793
 10
5.159958368687739
 20
-10.0755236254108
 10
5.150894821572061
 20
-10.11055963020297
 10
5.130272258003287
 20
-10.12825617957535
 10
5.094584890262871
 20
-10.12725307443015
 10
5.076444300300054
 20
-10.12674310641579
 10
5.066704880746834
 20
-10.13292190214621
 10
5.057426022420839
 20
-10.14804906590466
 10
5.034686025119425
 20
-10.18512261590402
 10
4.98634726229256
 20
-10.19367410084007
 10
4.952909028009242
 20
-10.16524751419898
 10
4.928210598409375
 20
-10.14425087067075
 10
4.907253899143875
 20
-10.11886051336652
 10
4.884559663230826
 20
-10.09549614457986
 10
4.868630046380884
 20
-10.07909634885494
 10
4.853359238399989
 20
-10.06195134055484
 10
4.83642364662291
 20
-10.04665679870135
 10
4.80208507641401
 20
-10.01564577948132
 10
4.760500849632484
 20
-9.999946598368397
 10
4.715291235029376
 20
-9.992994978106379
 10
4.708607280108455
 20
-9.991967208348492
 10
4.701785265405684
 20
-9.991848849232129
 10
4.695092778700478
 20
-9.990864048642302
 10
4.660434499266481
 20
-9.985764523622087
 10
4.629267115709277
 20
-9.9953724761359
 10
4.601787014190474
 20
-10.01557861107062
 10
4.573511285007649
 20
-10.03637018152964
 10
4.546446914067852
 20
-10.05884003151638
 10
4.519352138951413
 20
-10.08118143936902
 10
4.513878766656767
 20
-10.08569467568645
 10
4.510641807704536
 20
-10.09292024378523
 10
4.505372422615664
 20
-10.10029744495897
 97
        0
 97
        1
330
8C
 75
     2
 76
     1
 98
        1
 10
0.0
 20
0.0
450
        0
451
        0
460
0.0
461
0.0
452
        0
462
0.0
453
        0
470

  0
SPLINE
  5
8E
330
7C
100
AcDbEntity
  8
Layer 3
100
AcDbSpline
210
0.0
220
0.0
230
1.0
 70
     9
 71
     3
 72
    50
 73
    46
 74
     0
 42
0.0000000001
 43
0.0000000001
 40
0.0
 40
0.0
 40
0.0
 40
0.0
 40
1.0
 40
1.0
 40
1.0
 40
2.0
 40
2.0
 40
2.0
 40
3.0
 40
3.0
 40
3.0
 40
4.0
 40
4.0
 40
4.0
 40
5.0
 40
5.0
 40
5.0
 40
6.0
 40
6.0
 40
6.0
 40
7.0
 40
7.0
 40
7.0
 40
8.0
 40
8.0
 40
8.0
 40
9.0
 40
9.0
 40
9.0
 40
10.0
 40
10.0
 40
10.0
 40
11.0
 40
11.0
 40
11.0
 40
12.0
 40
12.0
 40
12.0
 40
13.0
 40
13.0
 40
13.0
 40
14.0
 40
14.0
 40
14.0
 40
15.0
 40
15.0
 40
15.0
 40
15.0
 10
4.912494741536268
 20
-10.33516792584204
 30
0.0
 10
4.909435553943517
 20
-10.34057793024802
 30
0.0
 10
4.9073488346343
 20
-10.34416383917694
 30
0.0
 10
4.905359532789083
 20
-10.34780295541506
 30
0.0
 10
4.891564102993621
 20
-10.37303671569707
 30
0.0
 10
4.878284923708179
 20
-10.3985690108669
 30
0.0
 10
4.863871327361468
 20
-10.42344404840118
 30
0.0
 10
4.848534902203355
 20
-10.44991173737377
 30
0.0
 10
4.827434248468711
 20
-10.4709902084693
 30
0.0
 10
4.800795846249027
 20
-10.48640481579599
 30
0.0
 10
4.792386144055196
 20
-10.4912711904206
 30
0.0
 10
4.783882126864353
 20
-10.49624413478687
 30
0.0
 10
4.776484139161639
 20
-10.50243789992062
 30
0.0
 10
4.774017988137402
 20
-10.50450274683746
 30
0.0
 10
4.772792823916132
 20
-10.51206749214182
 30
0.0
 10
4.774572709238352
 20
-10.51446011469799
 30
0.0
 10
4.780816424090895
 20
-10.52285259819991
 30
0.0
 10
4.787933328282709
 20
-10.53090086298738
 30
0.0
 10
4.795941416122407
 20
-10.53762359874592
 30
0.0
 10
4.835220199670705
 20
-10.57059739371822
 30
0.0
 10
4.869884994285408
 20
-10.607138095009
 30
0.0
 10
4.891373301272651
 20
-10.65463283168646
 30
0.0
 10
4.89446537501567
 20
-10.66146694601055
 30
0.0
 10
4.899335782847351
 20
-10.66756453466708
 30
0.0
 10
4.903816986192977
 20
-10.67368523670279
 30
0.0
 10
4.910007028366306
 20
-10.68213945929819
 30
0.0
 10
4.916495217619058
 20
-10.6818158719893
 30
0.0
 10
4.921127045737875
 20
-10.67246767352569
 30
0.0
 10
4.929930761241672
 20
-10.65469984497384
 30
0.0
 10
4.938040144629161
 20
-10.63658950406435
 30
0.0
 10
4.946570687912981
 20
-10.61868470159412
 30
0.0
 10
4.96554335952717
 20
-10.57886252094949
 30
0.0
 10
4.991881132693833
 20
-10.54545282936265
 30
0.0
 10
5.030743099799615
 20
-10.52320178086163
 30
0.0
 10
5.042744993418081
 20
-10.51632997156338
 30
0.0
 10
5.045313680976934
 20
-10.50076334335333
 30
0.0
 10
5.035522605347978
 20
-10.49050720791999
 30
0.0
 10
5.033205372740111
 20
-10.48807999285668
 30
0.0
 10
5.030388487820673
 20
-10.48610046378257
 30
0.0
 10
5.02767460480585
 20
-10.4840860319546
 30
0.0
 10
4.992894243295116
 20
-10.45827055910867
 30
0.0
 10
4.963927129339632
 20
-10.42740217580934
 30
0.0
 10
4.943382747939444
 20
-10.38889513092918
 30
0.0
 10
4.934088222155044
 20
-10.37147423575043
 30
0.0
 10
4.923726292596736
 20
-10.35462279839089
 30
0.0
 10
4.912494741536268
 20
-10.33516792584204
 30
0.0
  0
SPLINE
  5
8F
330
7C
100
AcDbEntity
  8
Layer 3
100
AcDbSpline
210
0.0
220
0.0
230
1.0
 70
     9
 71
     3
 72
    59
 73
    55
 74
     0
 42
0.0000000001
 43
0.0000000001
 40
0.0
 40
0.0
 40
0.0
 40
0.0
 40
1.0
 40
1.0
 40
1.0
 40
2.0
 40
2.0
 40
2.0
 40
3.0
 40
3.0
 40
3.0
 40
4.0
 40
4.0
 40
4.0
 40
5.0
 40
5.0
 40
5.0
 40
6.0
 40
6.0
 40
6.0
 40
7.0
 40
7.0
 40
7.0
 40
8.0
 40
8.0
 40
8.0
 40
9.0
 40
9.0
 40
9.0
 40
10.0
 40
10.0
 40
10.0
 40
11.0
 40
11.0
 40
11.0
 40
12.0
 40
12.0
 40
12.0
 40
13.0
 40
13.0
 40
13.0
 40
14.0
 40
14.0
 40
14.0
 40
15.0
 40
15.0
 40
15.0
 40
16.0
 40
16.0
 40
16.0
 40
17.0
 40
17.0
 40
17.0
 40
18.0
 40
18.0
 40
18.0
 40
18.0
 10
4.910018042124193
 20
-10.76451026859359
 30
0.0
 10
4.9054620693237
 20
-10.7497786693786
 30
0.0
 10
4.89983776200918
 20
-10.73528099617596
 30
0.0
 10
4.896553025065006
 20
-10.72027141591711
 30
0.0
 10
4.887193812843507
 20
-10.67750421846568
 30
0.0
 10
4.86611053292409
 20
-10.64204379618685
 30
0.0
 10
4.838551318496633
 20
-10.60790502485325
 30
0.0
 10
4.809489889544111
 20
-10.57190570405527
 30
0.0
 10
4.774534393770787
 20
-10.54448160206594
 30
0.0
 10
4.737522582864913
 20
-10.51845376535337
 30
0.0
 10
4.725680621420679
 20
-10.51012612341189
 30
0.0
 10
4.726162589670315
 20
-10.49961558568391
 30
0.0
 10
4.739311620464755
 20
-10.49248177304689
 30
0.0
 10
4.747451873398985
 20
-10.48806525613839
 30
0.0
 10
4.756230148673339
 20
-10.48472514015816
 30
0.0
 10
4.764931172519178
 20
-10.48145855264596
 30
0.0
 10
4.81866760744568
 20
-10.46128367506634
 30
0.0
 10
4.851726254890611
 20
-10.42070961154245
 30
0.0
 10
4.872081696050043
 20
-10.36935781031959
 30
0.0
 10
4.885921801370462
 20
-10.33444318954909
 30
0.0
 10
4.895983256999064
 20
-10.2980384538749
 30
0.0
 10
4.908134689527287
 20
-10.26243671422392
 30
0.0
 10
4.909651951017293
 20
-10.2579914994956
 30
0.0
 10
4.913622488293488
 20
-10.25438371817426
 30
0.0
 10
4.916456126534765
 20
-10.25038789579197
 30
0.0
 10
4.9204773891465
 20
-10.25505687595321
 30
0.0
 10
4.926785169942781
 20
-10.25915414900664
 30
0.0
 10
4.92812062686615
 20
-10.26449473571331
 30
0.0
 10
4.933629057037933
 20
-10.28652349245327
 30
0.0
 10
4.937867647463563
 20
-10.30888382535464
 30
0.0
 10
4.942137417682614
 20
-10.33120568766511
 30
0.0
 10
4.953054843958625
 20
-10.38828161807845
 30
0.0
 10
4.987975592101443
 20
-10.4292493071039
 30
0.0
 10
5.031886669138581
 20
-10.46370158272864
 30
0.0
 10
5.048119086768438
 20
-10.4764373649177
 30
0.0
 10
5.066296440965288
 20
-10.48669412084445
 30
0.0
 10
5.083585869104581
 20
-10.49808312210557
 30
0.0
 10
5.08805093962178
 20
-10.50102441595201
 30
0.0
 10
5.092511821808506
 20
-10.50397222497918
 30
0.0
 10
5.099700237864832
 20
-10.50871558678692
 30
0.0
 10
5.090058701145683
 20
-10.51443141687814
 30
0.0
 10
5.083115224859587
 20
-10.51990308281592
 30
0.0
 10
5.075238681620981
 20
-10.52300430883661
 30
0.0
 10
5.008189405642016
 20
-10.54940273523321
 30
0.0
 10
4.968991131112589
 20
-10.60026985354784
 30
0.0
 10
4.948142397698953
 20
-10.66714182353732
 30
0.0
 10
4.941486364981098
 20
-10.68849082975591
 30
0.0
 10
4.936706394062664
 20
-10.71042154853841
 30
0.0
 10
4.930184853289574
 20
-10.73181678151543
 30
0.0
 10
4.926728394796555
 20
-10.74315676379784
 30
0.0
 10
4.921377414825378
 20
-10.75391906672343
 30
0.0
 10
4.916881629884831
 20
-10.76494197687768
 30
0.0
 10
4.914593715590171
 20
-10.76479802240854
 30
0.0
 10
4.912305956418852
 20
-10.76465406793939
 30
0.0
 10
4.910018042124193
 20
-10.76451026859359
 30
0.0
  0
HATCH
  5
90
330
7C
100
AcDbEntity
  8
Layer 3
 62
    18
420
        0
440
 33554687
100
AcDbHatch
 10
0.0
 20
0.0
 30
0.0
210
0.0
220
0.0
230
1.0
  2
SOLID
 70
     1
 71
     1
 91
        2
 92
        1
 93
        1
 72
     4
 94
        3
 73
     0
 74
     0
 95
       50
 96
       46
 40
0.0
 40
0.0
 40
0.0
 40
0.0
 40
1.0
 40
1.0
 40
1.0
 40
2.0
 40
2.0
 40
2.0
 40
3.0
 40
3.0
 40
3.0
 40
4.0
 40
4.0
 40
4.0
 40
5.0
 40
5.0
 40
5.0
 40
6.0
 40
6.0
 40
6.0
 40
7.0
 40
7.0
 40
7.0
 40
8.0
 40
8.0
 40
8.0
 40
9.0
 40
9.0
 40
9.0
 40
10.0
 40
10.0
 40
10.0
 40
11.0
 40
11.0
 40
11.0
 40
12.0
 40
12.0
 40
12.0
 40
13.0
 40
13.0
 40
13.0
 40
14.0
 40
14.0
 40
14.0
 40
15.0
 40
15.0
 40
15.0
 40
15.0
 10
4.912494741536268
 20
-10.33516792584204
 10
4.909435553943517
 20
-10.34057793024802
 10
4.9073488346343
 20
-10.34416383917694
 10
4.905359532789083
 20
-10.34780295541506
 10
4.891564102993621
 20
-10.37303671569707
 10
4.878284923708179
 20
-10.3985690108669
 10
4.863871327361468
 20
-10.42344404840118
 10
4.848534902203355
 20
-10.44991173737377
 10
4.827434248468711
 20
-10.4709902084693
 10
4.800795846249027
 20
-10.48640481579599
 10
4.792386144055196
 20
-10.4912711904206
 10
4.783882126864353
 20
-10.49624413478687
 10
4.776484139161639
 20
-10.50243789992062
 10
4.774017988137402
 20
-10.50450274683746
 10
4.772792823916132
 20
-10.51206749214182
 10
4.774572709238352
 20
-10.51446011469799
 10
4.780816424090895
 20
-10.52285259819991
 10
4.787933328282709
 20
-10.53090086298738
 10
4.795941416122407
 20
-10.53762359874592
 10
4.835220199670705
 20
-10.57059739371822
 10
4.869884994285408
 20
-10.607138095009
 10
4.891373301272651
 20
-10.65463283168646
 10
4.89446537501567
 20
-10.66146694601055
 10
4.899335782847351
 20
-10.66756453466708
 10
4.903816986192977
 20
-10.67368523670279
 10
4.910007028366306
 20
-10.68213945929819
 10
4.916495217619058
 20
-10.6818158719893
 10
4.921127045737875
 20
-10.67246767352569
 10
4.929930761241672
 20
-10.65469984497384
 10
4.938040144629161
 20
-10.63658950406435
 10
4.946570687912981
 20
-10.61868470159412
 10
4.96554335952717
 20
-10.57886252094949
 10
4.991881132693833
 20
-10.54545282936265
 10
5.030743099799615
 20
-10.52320178086163
 10
5.042744993418081
 20
-10.51632997156338
 10
5.045313680976934
 20
-10.50076334335333
 10
5.035522605347978
 20
-10.49050720791999
 10
5.033205372740111
 20
-10.48807999285668
 10
5.030388487820673
 20
-10.48610046378257
 10
5.02767460480585
 20
-10.4840860319546
 10
4.992894243295116
 20
-10.45827055910867
 10
4.963927129339632
 20
-10.42740217580934
 10
4.943382747939444
 20
-10.38889513092918
 10
4.934088222155044
 20
-10.37147423575043
 10
4.923726292596736
 20
-10.35462279839089
 10
4.912494741536268
 20
-10.33516792584204
 97
        0
 97
        1
330
8E
 92
        1
 93
        1
 72
     4
 94
        3
 73
     0
 74
     0
 95
       59
 96
       55
 40
0.0
 40
0.0
 40
0.0
 40
0.0
 40
1.0
 40
1.0
 40
1.0
 40
2.0
 40
2.0
 40
2.0
 40
3.0
 40
3.0
 40
3.0
 40
4.0
 40
4.0
 40
4.0
 40
5.0
 40
5.0
 40
5.0
 40
6.0
 40
6.0
 40
6.0
 40
7.0
 40
7.0
 40
7.0
 40
8.0
 40
8.0
 40
8.0
 40
9.0
 40
9.0
 40
9.0
 40
10.0
 40
10.0
 40
10.0
 40
11.0
 40
11.0
 40
11.0
 40
12.0
 40
12.0
 40
12.0
 40
13.0
 40
13.0
 40
13.0
 40
14.0
 40
14.0
 40
14.0
 40
15.0
 40
15.0
 40
15.0
 40
16.0
 40
16.0
 40
16.0
 40
17.0
 40
17.0
 40
17.0
 40
18.0
 40
18.0
 40
18.0
 40
18.0
 10
4.910018042124193
 20
-10.76451026859359
 10
4.9054620693237
 20
-10.7497786693786
 10
4.89983776200918
 20
-10.73528099617596
 10
4.896553025065006
 20
-10.72027141591711
 10
4.887193812843507
 20
-10.67750421846568
 10
4.86611053292409
 20
-10.64204379618685
 10
4.838551318496633
 20
-10.60790502485325
 10
4.809489889544111
 20
-10.57190570405527
 10
4.774534393770787
 20
-10.54448160206594
 10
4.737522582864913
 20
-10.51845376535337
 10
4.725680621420679
 20
-10.51012612341189
 10
4.726162589670315
 20
-10.49961558568391
 10
4.739311620464755
 20
-10.49248177304689
 10
4.747451873398985
 20
-10.48806525613839
 10
4.756230148673339
 20
-10.48472514015816
 10
4.764931172519178
 20
-10.48145855264596
 10
4.81866760744568
 20
-10.46128367506634
 10
4.851726254890611
 20
-10.42070961154245
 10
4.872081696050043
 20
-10.36935781031959
 10
4.885921801370462
 20
-10.33444318954909
 10
4.895983256999064
 20
-10.2980384538749
 10
4.908134689527287
 20
-10.26243671422392
 10
4.909651951017293
 20
-10.2579914994956
 10
4.913622488293488
 20
-10.25438371817426
 10
4.916456126534765
 20
-10.25038789579197
 10
4.9204773891465
 20
-10.25505687595321
 10
4.926785169942781
 20
-10.25915414900664
 10
4.92812062686615
 20
-10.26449473571331
 10
4.933629057037933
 20
-10.28652349245327
 10
4.937867647463563
 20
-10.30888382535464
 10
4.942137417682614
 20
-10.33120568766511
 10
4.953054843958625
 20
-10.38828161807845
 10
4.987975592101443
 20
-10.4292493071039
 10
5.031886669138581
 20
-10.46370158272864
 10
5.048119086768438
 20
-10.4764373649177
 10
5.066296440965288
 20
-10.48669412084445
 10
5.083585869104581
 20
-10.49808312210557
 10
5.08805093962178
 20
-10.50102441595201
 10
5.092511821808506
 20
-10.50397222497918
 10
5.099700237864832
 20
-10.50871558678692
 10
5.090058701145683
 20
-10.51443141687814
 10
5.083115224859587
 20
-10.51990308281592
 10
5.075238681620981
 20
-10.52300430883661
 10
5.008189405642016
 20
-10.54940273523321
 10
4.968991131112589
 20
-10.60026985354784
 10
4.948142397698953
 20
-10.66714182353732
 10
4.941486364981098
 20
-10.68849082975591
 10
4.936706394062664
 20
-10.71042154853841
 10
4.930184853289574
 20
-10.73181678151543
 10
4.926728394796555
 20
-10.74315676379784
 10
4.921377414825378
 20
-10.75391906672343
 10
4.916881629884831
 20
-10.76494197687768
 10
4.914593715590171
 20
-10.76479802240854
 10
4.912305956418852
 20
-10.76465406793939
 10
4.910018042124193
 20
-10.76451026859359
 97
        0
 97
        1
330
8F
 75
     2
 76
     1
 98
        1
 10
0.0
 20
0.0
450
        0
451
        0
460
0.0
461
0.0
452
        0
462
0.0
453
        0
470

  0
SPLINE
  5
91
330
7C
100
AcDbEntity
  8
Layer 3
100
AcDbSpline
210
0.0
220
0.0
230
1.0
 70
     9
 71
     3
 72
    35
 73
    31
 74
     0
 42
0.0000000001
 43
0.0000000001
 40
0.0
 40
0.0
 40
0.0
 40
0.0
 40
1.0
 40
1.0
 40
1.0
 40
2.0
 40
2.0
 40
2.0
 40
3.0
 40
3.0
 40
3.0
 40
4.0
 40
4.0
 40
4.0
 40
5.0
 40
5.0
 40
5.0
 40
6.0
 40
6.0
 40
6.0
 40
7.0
 40
7.0
 40
7.0
 40
8.0
 40
8.0
 40
8.0
 40
9.0
 40
9.0
 40
9.0
 40
10.0
 40
10.0
 40
10.0
 40
10.0
 10
4.09375284508269
 20
-10.01629186823564
 30
0.0
 10
4.094772393303022
 20
-10.00898974676347
 30
0.0
 10
4.093464703459377
 20
-10.00010761640608
 30
0.0
 10
4.097179830139162
 20
-9.994635562659949
 30
0.0
 10
4.126829099027923
 20
-9.950965392185935
 30
0.0
 10
4.165079104516482
 20
-9.920938010130662
 30
0.0
 10
4.221341800765508
 20
-9.925920727268021
 30
0.0
 10
4.259333060505645
 20
-9.929285352737627
 30
0.0
 10
4.289950919594149
 20
-9.94826647857447
 30
0.0
 10
4.314392542487464
 20
-9.977090568800878
 30
0.0
 10
4.318510291823157
 20
-9.981946627722688
 30
0.0
 10
4.320634473421502
 20
-9.988493143355173
 30
0.0
 10
4.323936041249175
 20
-9.994743683635153
 30
0.0
 10
4.313274646063013
 20
-10.0007758102378
 30
0.0
 10
4.305720449146469
 20
-9.998452527819255
 30
0.0
 10
4.298250794455902
 20
-9.99218213175042
 30
0.0
 10
4.278100891735675
 20
-9.975267404063943
 30
0.0
 10
4.257250607088558
 20
-9.959604909623369
 30
0.0
 10
4.231069663629138
 20
-9.952733875941904
 30
0.0
 10
4.203316389890334
 20
-9.945450369271762
 30
0.0
 10
4.178006308919925
 20
-9.950530271188148
 30
0.0
 10
4.15584631782556
 20
-9.96811164147286
 30
0.0
 10
4.143667816272706
 20
-9.977773887159299
 30
0.0
 10
4.133469619410712
 20
-9.989894139894078
 30
0.0
 10
4.12193860272234
 20
-10.0004245334109
 30
0.0
 10
4.11468247532356
 20
-10.0070510151305
 30
0.0
 10
4.106611872773631
 20
-10.01278553758546
 30
0.0
 10
4.098906585713848
 20
-10.01892027828439
 30
0.0
 10
4.097188672170128
 20
-10.01804414160147
 30
0.0
 10
4.095470758626409
 20
-10.01716800491855
 30
0.0
 10
4.09375284508269
 20
-10.01629186823564
 30
0.0
  0
HATCH
  5
92
330
7C
100
AcDbEntity
  8
Layer 3
 62
    18
420
        0
440
 33554687
100
AcDbHatch
 10
0.0
 20
0.0
 30
0.0
210
0.0
220
0.0
230
1.0
  2
SOLID
 70
     1
 71
     1
 91
        1
 92
        1
 93
        1
 72
     4
 94
        3
 73
     0
 74
     0
 95
       35
 96
       31
 40
0.0
 40
0.0
 40
0.0
 40
0.0
 40
1.0
 40
1.0
 40
1.0
 40
2.0
 40
2.0
 40
2.0
 40
3.0
 40
3.0
 40
3.0
 40
4.0
 40
4.0
 40
4.0
 40
5.0
 40
5.0
 40
5.0
 40
6.0
 40
6.0
 40
6.0
 40
7.0
 40
7.0
 40
7.0
 40
8.0
 40
8.0
 40
8.0
 40
9.0
 40
9.0
 40
9.0
 40
10.0
 40
10.0
 40
10.0
 40
10.0
 10
4.09375284508269
 20
-10.01629186823564
 10
4.094772393303022
 20
-10.00898974676347
 10
4.093464703459377
 20
-10.00010761640608
 10
4.097179830139162
 20
-9.994635562659949
 10
4.126829099027923
 20
-9.950965392185935
 10
4.165079104516482
 20
-9.920938010130662
 10
4.221341800765508
 20
-9.925920727268021
 10
4.259333060505645
 20
-9.929285352737627
 10
4.289950919594149
 20
-9.94826647857447
 10
4.314392542487464
 20
-9.977090568800878
 10
4.318510291823157
 20
-9.981946627722688
 10
4.320634473421502
 20
-9.988493143355173
 10
4.323936041249175
 20
-9.994743683635153
 10
4.313274646063013
 20
-10.0007758102378
 10
4.305720449146469
 20
-9.998452527819255
 10
4.298250794455902
 20
-9.99218213175042
 10
4.278100891735675
 20
-9.975267404063943
 10
4.257250607088558
 20
-9.959604909623369
 10
4.231069663629138
 20
-9.952733875941904
 10
4.203316389890334
 20
-9.945450369271762
 10
4.178006308919925
 20
-9.950530271188148
 10
4.15584631782556
 20
-9.96811164147286
 10
4.143667816272706
 20
-9.977773887159299
 10
4.133469619410712
 20
-9.989894139894078
 10
4.12193860272234
 20
-10.0004245334109
 10
4.11468247532356
 20
-10.0070510151305
 10
4.106611872773631
 20
-10.01278553758546
 10
4.098906585713848
 20
-10.01892027828439
 10
4.097188672170128
 20
-10.01804414160147
 10
4.095470758626409
 20
-10.01716800491855
 10
4.09375284508269
 20
-10.01629186823564
 97
        0
 97
        1
330
91
 75
     2
 76
     1
 98
        1
 10
0.0
 20
0.0
450
        0
451
        0
460
0.0
461
0.0
452
        0
462
0.0
453
        0
470

  0
SPLINE
  5
93
330
7C
100
AcDbEntity
  8
Layer 3
100
AcDbSpline
210
0.0
220
0.0
230
1.0
 70
     9
 71
     3
 72
    17
 73
    13
 74
     0
 42
0.0000000001
 43
0.0000000001
 40
0.0
 40
0.0
 40
0.0
 40
0.0
 40
1.0
 40
1.0
 40
1.0
 40
2.0
 40
2.0
 40
2.0
 40
3.0
 40
3.0
 40
3.0
 40
4.0
 40
4.0
 40
4.0
 40
4.0
 10
3.982025639784018
 20
-10.20233300869628
 30
0.0
 10
3.963001544779166
 20
-10.20246517379082
 30
0.0
 10
3.945884303558765
 20
-10.18583323597206
 30
0.0
 10
3.945887095779097
 20
-10.16721905442055
 30
0.0
 10
3.945889732876013
 20
-10.14982398727966
 30
0.0
 10
3.962558434928824
 20
-10.13407221935093
 30
0.0
 10
3.980874391839228
 20
-10.13415637376849
 30
0.0
 10
3.998832324056971
 20
-10.13423882182921
 30
0.0
 10
4.015563773505012
 20
-10.15062209691733
 30
0.0
 10
4.015394223683061
 20
-10.1679579069384
 30
0.0
 10
4.015210014704481
 20
-10.18679251877077
 30
0.0
 10
4.000247436820775
 20
-10.20220642804239
 30
0.0
 10
3.982025639784018
 20
-10.20233300869628
 30
0.0
  0
HATCH
  5
94
330
7C
100
AcDbEntity
  8
Layer 3
 62
    18
420
        0
440
 33554687
100
AcDbHatch
 10
0.0
 20
0.0
 30
0.0
210
0.0
220
0.0
230
1.0
  2
SOLID
 70
     1
 71
     1
 91
        1
 92
        1
 93
        1
 72
     4
 94
        3
 73
     0
 74
     0
 95
       17
 96
       13
 40
0.0
 40
0.0
 40
0.0
 40
0.0
 40
1.0
 40
1.0
 40
1.0
 40
2.0
 40
2.0
 40
2.0
 40
3.0
 40
3.0
 40
3.0
 40
4.0
 40
4.0
 40
4.0
 40
4.0
 10
3.982025639784018
 20
-10.20233300869628
 10
3.963001544779166
 20
-10.20246517379082
 10
3.945884303558765
 20
-10.18583323597206
 10
3.945887095779097
 20
-10.16721905442055
 10
3.945889732876013
 20
-10.14982398727966
 10
3.962558434928824
 20
-10.13407221935093
 10
3.980874391839228
 20
-10.13415637376849
 10
3.998832324056971
 20
-10.13423882182921
 10
4.015563773505012
 20
-10.15062209691733
 10
4.015394223683061
 20
-10.1679579069384
 10
4.015210014704481
 20
-10.18679251877077
 10
4.000247436820775
 20
-10.20220642804239
 10
3.982025639784018
 20
-10.20233300869628
 97
        0
 97
        1
330
93
 75
     2
 76
     1
 98
        1
 10
0.0
 20
0.0
450
        0
451
        0
460
0.0
461
0.0
452
        0
462
0.0
453
        0
470

  0
ENDBLK
  5
7F
330
7C
100
AcDbEntity
  8
0
100
AcDbBlockEnd
  0
ENDSEC
  0
SECTION
  2
ENTITIES
  0
LWPOLYLINE
  5
79
330
70
100
AcDbEntity
  8
Layer 2
 62
   250
420
  2301728
370
    35
100
AcDbPolyline
 90
        4
 70
     1
 43
0.0
 10
2.610524549195613
 20
-11.59639533589903
 10
2.610524549195613
 20
-8.566395335899034
 10
5.840524549195631
 20
-8.566395335899034
 10
5.840524549195631
 20
-11.59639533589901
  0
INSERT
  5
7D
330
70
100
AcDbEntity
  8
Layer 3
100
AcDbBlockReference
  2
Block_0
 10
0.0
 20
0.0
 30
0.0
  0
ENDSEC
  0
SECTION
  2
OBJECTS
  0
DICTIONARY
  5
C
330
0
100
AcDbDictionary
281
     1
  3
ACAD_COLOR
350
63
  3
ACAD_DETAILVIEWSTYLE
350
6A
  3
ACAD_GROUP
350
D
  3
ACAD_LAYOUT
350
62
  3
ACAD_MATERIAL
350
10
  3
ACAD_MLEADERSTYLE
350
66
  3
ACAD_MLINESTYLE
350
5F
  3
ACAD_PLOTSETTINGS
350
61
  3
ACAD_PLOTSTYLENAME
350
E
  3
ACAD_SCALELIST
350
42
  3
ACAD_SECTIONVIEWSTYLE
350
68
  3
ACAD_TABLESTYLE
350
64
  3
ACAD_VISUALSTYLE
350
29
  3
ACDB_RECOMPOSE_DATA
350
9D
  3
AcDbVariableDictionary
350
95
  0
DICTIONARY
  5
63
102
{ACAD_REACTORS
330
C
102
}
330
C
100
AcDbDictionary
281
     1
  0
DICTIONARY
  5
6A
102
{ACAD_REACTORS
330
C
102
}
330
C
100
AcDbDictionary
281
     1
  3
Imperial24
350
6B
  0
DICTIONARY
  5
D
102
{ACAD_REACTORS
330
C
102
}
330
C
100
AcDbDictionary
281
     1
  0
DICTIONARY
  5
62
102
{ACAD_REACTORS
330
C
102
}
330
C
100
AcDbDictionary
281
     1
  3
Layout1
350
6F
  3
Layout2
350
77
  3
Model
350
73
  0
DICTIONARY
  5
10
102
{ACAD_REACTORS
330
C
102
}
330
C
100
AcDbDictionary
281
     1
  3
ByBlock
350
19
  3
ByLayer
350
11
  3
Global
350
21
  0
DICTIONARY
  5
66
102
{ACAD_REACTORS
330
C
102
}
330
C
100
AcDbDictionary
281
     1
  3
Standard
350
67
  0
DICTIONARY
  5
5F
102
{ACAD_REACTORS
330
C
102
}
330
C
100
AcDbDictionary
281
     1
  3
Standard
350
60
  0
DICTIONARY
  5
61
102
{ACAD_REACTORS
330
C
102
}
330
C
100
AcDbDictionary
281
     1
  0
ACDBDICTIONARYWDFLT
  5
E
102
{ACAD_REACTORS
330
C
102
}
330
C
100
AcDbDictionary
281
     1
  3
Normal
350
F
100
AcDbDictionaryWithDefault
340
F
  0
DICTIONARY
  5
42
102
{ACAD_REACTORS
330
C
102
}
330
C
100
AcDbDictionary
281
     1
  3
A0
350
43
  3
A1
350
44
  3
A2
350
45
  3
A3
350
46
  3
A4
350
47
  3
A5
350
48
  3
A6
350
49
  3
A7
350
4A
  3
A8
350
4B
  3
A9
350
4C
  3
B0
350
4D
  3
B1
350
4E
  3
B2
350
4F
  3
B3
350
50
  3
B4
350
51
  3
B5
350
52
  3
B6
350
53
  0
DICTIONARY
  5
68
102
{ACAD_REACTORS
330
C
102
}
330
C
100
AcDbDictionary
281
     1
  3
Imperial24
350
69
  0
DICTIONARY
  5
64
102
{ACAD_REACTORS
330
C
102
}
330
C
100
AcDbDictionary
281
     1
  3
Standard
350
65
  0
DICTIONARY
  5
29
102
{ACAD_REACTORS
330
C
102
}
330
C
100
AcDbDictionary
281
     1
  3
2dWireframe
350
2F
  3
Basic
350
2E
  3
Brighten
350
35
  3
ColorChange
350
39
  3
Conceptual
350
32
  3
Dim
350
34
  3
EdgeColorOff
350
41
  3
Facepattern
350
38
  3
Flat
350
2A
  3
FlatWithEdges
350
2B
  3
Gouraud
350
2C
  3
GouraudWithEdges
350
2D
  3
Hidden
350
31
  3
JitterOff
350
3F
  3
Linepattern
350
37
  3
OverhangOff
350
40
  3
Realistic
350
33
  3
Shaded
350
3E
  3
Shaded with edges
350
3D
  3
Shades of Gray
350
3A
  3
Sketchy
350
3B
  3
Thicken
350
36
  3
Wireframe
350
30
  3
X-Ray
350
3C
  0
XRECORD
  5
9D
102
{ACAD_REACTORS
330
C
102
}
330
C
100
AcDbXrecord
280
     1
 90
        1
330
65
  0
DICTIONARY
  5
95
102
{ACAD_REACTORS
330
C
102
}
330
C
100
AcDbDictionary
281
     1
  3
CANNOSCALE
350
9A
  3
CMLEADERSTYLE
350
97
  3
CTABLESTYLE
350
96
  3
CVIEWDETAILSTYLE
350
98
  3
CVIEWSECTIONSTYLE
350
99
  0
ACDBDETAILVIEWSTYLE
  5
6B
102
{ACAD_REACTORS
330
6A
102
}
330
6A
100
AcDbModelDocViewStyle
 70
     0
  3
Imperial24
290
     1
300
Imperial24
 90
        0
100
AcDbDetailViewStyle
 70
     0
 71
     0
 90
        3
 71
     1
340
55
 62
   256
 40
0.24
340
0
 62
   256
 40
0.24
300

 40
0.36
280
     3
 71
     2
340
5D
 90
       25
 62
   256
 71
     3
340
55
 62
   256
 40
0.24
 90
        1
 40
0.75
 90
        1
300
%<\AcVar ViewType \f "%tc1">% %<\AcVar ViewDetailId>%\PSCALE %<\AcVar ViewScale \f "%sn">%
 71
     4
340
5D
 90
       25
 62
   256
340
5D
 90
       25
 62
   256
280
     0
  0
LAYOUT
  5
6F
102
{ACAD_REACTORS
330
62
102
}
330
62
100
AcDbPlotSettings
  1

  2

  4

  6

 40
0.0
 41
0.0
 42
0.0
 43
0.0
 44
0.0
 45
0.0
 46
0.0
 47
0.0
 48
0.0
 49
0.0
140
0.0
141
0.0
142
1.0
143
1.0
 70
   688
 72
     0
 73
     0
 74
     5
  7

 75
    16
147
1.0
 76
     0
 77
     2
 78
   300
148
0.0
149
0.0
100
AcDbLayout
  1
Layout1
 70
     1
 71
     1
 10
0.0
 20
0.0
 11
12.0
 21
9.0
 12
0.0
 22
0.0
 32
0.0
 14
0.0
 24
0.0
 34
0.0
 15
0.0
 25
0.0
 35
0.0
146
0.0
 13
0.0
 23
0.0
 33
0.0
 16
1.0
 26
0.0
 36
0.0
 17
0.0
 27
1.0
 37
0.0
 76
     0
330
6C
  0
LAYOUT
  5
77
102
{ACAD_REACTORS
330
62
102
}
330
62
100
AcDbPlotSettings
  1

  2

  4

  6

 40
0.0
 41
0.0
 42
0.0
 43
0.0
 44
0.0
 45
0.0
 46
0.0
 47
0.0
 48
0.0
 49
0.0
140
0.0
141
0.0
142
1.0
143
1.0
 70
   688
 72
     0
 73
     0
 74
     5
  7

 75
    16
147
1.0
 76
     0
 77
     2
 78
   300
148
0.0
149
0.0
100
AcDbLayout
  1
Layout2
 70
     1
 71
     2
 10
0.0
 20
0.0
 11
12.0
 21
9.0
 12
0.0
 22
0.0
 32
0.0
 14
0.0
 24
0.0
 34
0.0
 15
0.0
 25
0.0
 35
0.0
146
0.0
 13
0.0
 23
0.0
 33
0.0
 16
1.0
 26
0.0
 36
0.0
 17
0.0
 27
1.0
 37
0.0
 76
     0
330
74
  0
LAYOUT
  5
73
102
{ACAD_REACTORS
330
62
102
}
330
62
100
AcDbPlotSettings
  1

  2

  4

  6

 40
0.0
 41
0.0
 42
0.0
 43
0.0
 44
0.0
 45
0.0
 46
0.0
 47
0.0
 48
0.0
 49
0.0
140
0.0
141
0.0
142
1.0
143
1.0
 70
  1712
 72
     0
 73
     0
 74
     0
  7

 75
     0
147
1.0
 76
     0
 77
     2
 78
   300
148
0.0
149
0.0
100
AcDbLayout
  1
Model
 70
     1
 71
     0
 10
0.0
 20
0.0
 11
12.0
 21
9.0
 12
0.0
 22
0.0
 32
0.0
 14
0.0
 24
0.0
 34
0.0
 15
0.0
 25
0.0
 35
0.0
146
0.0
 13
0.0
 23
0.0
 33
0.0
 16
1.0
 26
0.0
 36
0.0
 17
0.0
 27
1.0
 37
0.0
 76
     0
330
70
  0
MATERIAL
  5
19
102
{ACAD_XDICTIONARY
360
1A
102
}
102
{ACAD_REACTORS
330
10
102
}
330
10
100
AcDbMaterial
  1
ByBlock
 72
     0
 43
0.0208333333333333
 43
0.0
 43
0.0
 43
0.0
 43
0.0
 43
0.0208333333333333
 43
0.0
 43
0.0
 43
0.0
 43
0.0
 43
1.0
 43
0.0
 43
0.0
 43
0.0
 43
0.0
 43
1.0
 77
     0
 47
0.0208333333333333
 47
0.0
 47
0.0
 47
0.0
 47
0.0
 47
0.0208333333333333
 47
0.0
 47
0.0
 47
0.0
 47
0.0
 47
1.0
 47
0.0
 47
0.0
 47
0.0
 47
0.0
 47
1.0
171
     0
 49
0.0208333333333333
 49
0.0
 49
0.0
 49
0.0
 49
0.0
 49
0.0208333333333333
 49
0.0
 49
0.0
 49
0.0
 49
0.0
 49
1.0
 49
0.0
 49
0.0
 49
0.0
 49
0.0
 49
1.0
175
     0
142
0.0208333333333333
142
0.0
142
0.0
142
0.0
142
0.0
142
0.0208333333333333
142
0.0
142
0.0
142
0.0
142
0.0
142
1.0
142
0.0
142
0.0
142
0.0
142
0.0
142
1.0
179
     0
144
0.0208333333333333
144
0.0
144
0.0
144
0.0
144
0.0
144
0.0208333333333333
144
0.0
144
0.0
144
0.0
144
0.0
144
1.0
144
0.0
144
0.0
144
0.0
144
0.0
144
1.0
147
0.0208333333333333
147
0.0
147
0.0
147
0.0
147
0.0
147
0.0208333333333333
147
0.0
147
0.0
147
0.0
147
0.0
147
1.0
147
0.0
147
0.0
147
0.0
147
0.0
147
1.0
  0
MATERIAL
  5
11
102
{ACAD_XDICTIONARY
360
12
102
}
102
{ACAD_REACTORS
330
10
102
}
330
10
100
AcDbMaterial
  1
ByLayer
 72
     0
 43
0.0208333333333333
 43
0.0
 43
0.0
 43
0.0
 43
0.0
 43
0.0208333333333333
 43
0.0
 43
0.0
 43
0.0
 43
0.0
 43
1.0
 43
0.0
 43
0.0
 43
0.0
 43
0.0
 43
1.0
 77
     0
 47
0.0208333333333333
 47
0.0
 47
0.0
 47
0.0
 47
0.0
 47
0.0208333333333333
 47
0.0
 47
0.0
 47
0.0
 47
0.0
 47
1.0
 47
0.0
 47
0.0
 47
0.0
 47
0.0
 47
1.0
171
     0
 49
0.0208333333333333
 49
0.0
 49
0.0
 49
0.0
 49
0.0
 49
0.0208333333333333
 49
0.0
 49
0.0
 49
0.0
 49
0.0
 49
1.0
 49
0.0
 49
0.0
 49
0.0
 49
0.0
 49
1.0
175
     0
142
0.0208333333333333
142
0.0
142
0.0
142
0.0
142
0.0
142
0.0208333333333333
142
0.0
142
0.0
142
0.0
142
0.0
142
1.0
142
0.0
142
0.0
142
0.0
142
0.0
142
1.0
179
     0
144
0.0208333333333333
144
0.0
144
0.0
144
0.0
144
0.0
144
0.0208333333333333
144
0.0
144
0.0
144
0.0
144
0.0
144
1.0
144
0.0
144
0.0
144
0.0
144
0.0
144
1.0
147
0.0208333333333333
147
0.0
147
0.0
147
0.0
147
0.0
147
0.0208333333333333
147
0.0
147
0.0
147
0.0
147
0.0
147
1.0
147
0.0
147
0.0
147
0.0
147
0.0
147
1.0
  0
MATERIAL
  5
21
102
{ACAD_XDICTIONARY
360
22
102
}
102
{ACAD_REACTORS
330
10
102
}
330
10
100
AcDbMaterial
  1
Global
 72
     0
 43
0.0208333333333333
 43
0.0
 43
0.0
 43
0.0
 43
0.0
 43
0.0208333333333333
 43
0.0
 43
0.0
 43
0.0
 43
0.0
 43
1.0
 43
0.0
 43
0.0
 43
0.0
 43
0.0
 43
1.0
 77
     0
 47
0.0208333333333333
 47
0.0
 47
0.0
 47
0.0
 47
0.0
 47
0.0208333333333333
 47
0.0
 47
0.0
 47
0.0
 47
0.0
 47
1.0
 47
0.0
 47
0.0
 47
0.0
 47
0.0
 47
1.0
171
     0
 49
0.0208333333333333
 49
0.0
 49
0.0
 49
0.0
 49
0.0
 49
0.0208333333333333
 49
0.0
 49
0.0
 49
0.0
 49
0.0
 49
1.0
 49
0.0
 49
0.0
 49
0.0
 49
0.0
 49
1.0
175
     0
142
0.0208333333333333
142
0.0
142
0.0
142
0.0
142
0.0
142
0.0208333333333333
142
0.0
142
0.0
142
0.0
142
0.0
142
1.0
142
0.0
142
0.0
142
0.0
142
0.0
142
1.0
179
     0
144
0.0208333333333333
144
0.0
144
0.0
144
0.0
144
0.0
144
0.0208333333333333
144
0.0
144
0.0
144
0.0
144
0.0
144
1.0
144
0.0
144
0.0
144
0.0
144
0.0
144
1.0
147
0.0208333333333333
147
0.0
147
0.0
147
0.0
147
0.0
147
0.0208333333333333
147
0.0
147
0.0
147
0.0
147
0.0
147
1.0
147
0.0
147
0.0
147
0.0
147
0.0
147
1.0
  0
MLEADERSTYLE
  5
67
102
{ACAD_REACTORS
330
66
102
}
330
66
100
AcDbMLeaderStyle
179
     2
170
     2
171
     1
172
     0
 90
        2
 40
0.0
 41
0.0
173
     1
 91
-1056964608
340
5B
 92
       -2
290
     1
 42
0.09
291
     1
 43
0.36
  3
Standard
 44
0.18
300

342
55
174
     1
178
     6
175
     1
176
     0
 93
-1056964608
 45
0.18
292
     0
297
     0
 46
0.18
 94
-1056964608
 47
1.0
 49
1.0
140
1.0
293
     1
141
0.0
294
     1
177
     0
142
1.0
295
     1
296
     0
143
0.125
271
     0
272
     9
273
     9
298
     1
  0
MLINESTYLE
  5
60
102
{ACAD_REACTORS
330
5F
102
}
330
5F
100
AcDbMlineStyle
  2
STANDARD
 70
     0
  3

 62
   256
 51
90.0
 52
90.0
 71
     2
 49
0.5
 62
   256
  6
BYLAYER
 49
-0.5
 62
   256
  6
BYLAYER
  0
ACDBPLACEHOLDER
  5
F
102
{ACAD_REACTORS
330
E
102
}
330
E
  0
SCALE
  5
43
102
{ACAD_REACTORS
330
42
102
}
330
42
100
AcDbScale
 70
     0
300
1:1
140
1.0
141
1.0
290
     1
  0
SCALE
  5
44
102
{ACAD_REACTORS
330
42
102
}
330
42
100
AcDbScale
 70
     0
300
1/128" = 1'-0"
140
0.0078125
141
12.0
290
     0
  0
SCALE
  5
45
102
{ACAD_REACTORS
330
42
102
}
330
42
100
AcDbScale
 70
     0
300
1/64" = 1'-0"
140
0.015625
141
12.0
290
     0
  0
SCALE
  5
46
102
{ACAD_REACTORS
330
42
102
}
330
42
100
AcDbScale
 70
     0
300
1/32" = 1'-0"
140
0.03125
141
12.0
290
     0
  0
SCALE
  5
47
102
{ACAD_REACTORS
330
42
102
}
330
42
100
AcDbScale
 70
     0
300
1/16" = 1'-0"
140
0.0625
141
12.0
290
     0
  0
SCALE
  5
48
102
{ACAD_REACTORS
330
42
102
}
330
42
100
AcDbScale
 70
     0
300
3/32" = 1'-0"
140
0.09375
141
12.0
290
     0
  0
SCALE
  5
49
102
{ACAD_REACTORS
330
42
102
}
330
42
100
AcDbScale
 70
     0
300
1/8" = 1'-0"
140
0.125
141
12.0
290
     0
  0
SCALE
  5
4A
102
{ACAD_REACTORS
330
42
102
}
330
42
100
AcDbScale
 70
     0
300
3/16" = 1'-0"
140
0.1875
141
12.0
290
     0
  0
SCALE
  5
4B
102
{ACAD_REACTORS
330
42
102
}
330
42
100
AcDbScale
 70
     0
300
1/4" = 1'-0"
140
0.25
141
12.0
290
     0
  0
SCALE
  5
4C
102
{ACAD_REACTORS
330
42
102
}
330
42
100
AcDbScale
 70
     0
300
3/8" = 1'-0"
140
0.375
141
12.0
290
     0
  0
SCALE
  5
4D
102
{ACAD_REACTORS
330
42
102
}
330
42
100
AcDbScale
 70
     0
300
1/2" = 1'-0"
140
0.5
141
12.0
290
     0
  0
SCALE
  5
4E
102
{ACAD_REACTORS
330
42
102
}
330
42
100
AcDbScale
 70
     0
300
3/4" = 1'-0"
140
0.75
141
12.0
290
     0
  0
SCALE
  5
4F
102
{ACAD_REACTORS
330
42
102
}
330
42
100
AcDbScale
 70
     0
300
1" = 1'-0"
140
1.0
141
12.0
290
     0
  0
SCALE
  5
50
102
{ACAD_REACTORS
330
42
102
}
330
42
100
AcDbScale
 70
     0
300
1-1/2" = 1'-0"
140
1.5
141
12.0
290
     0
  0
SCALE
  5
51
102
{ACAD_REACTORS
330
42
102
}
330
42
100
AcDbScale
 70
     0
300
3" = 1'-0"
140
3.0
141
12.0
290
     0
  0
SCALE
  5
52
102
{ACAD_REACTORS
330
42
102
}
330
42
100
AcDbScale
 70
     0
300
6" = 1'-0"
140
6.0
141
12.0
290
     0
  0
SCALE
  5
53
102
{ACAD_REACTORS
330
42
102
}
330
42
100
AcDbScale
 70
     0
300
1'-0" = 1'-0"
140
12.0
141
12.0
290
     0
  0
ACDBSECTIONVIEWSTYLE
  5
69
102
{ACAD_REACTORS
330
68
102
}
330
68
100
AcDbModelDocViewStyle
 70
     0
  3
Imperial24
290
     1
300
Imperial24
 90
        0
100
AcDbSectionViewStyle
 70
     0
 71
     0
 90
       78
 71
     1
340
55
 62
   256
 40
0.24
340
0
340
0
 62
   256
 40
0.24
300
I, O, Q, S, X, Z
 40
0.48
 90
        3
 40
0.18
 90
        1
 71
     2
340
5D
 90
       25
 62
   256
340
5D
 90
       50
 62
   256
 40
0.24
 40
0.0
 40
0.24
 71
     3
340
55
 62
   256
 40
0.24
 90
        1
 40
0.75
 90
        1
300
%<\AcVar ViewType \f "%tc1">% %<\AcVar ViewSectionStartId>%-%<\AcVar ViewSectionEndId>%\PSCALE %<\AcVar ViewScale \f "%sn">%
 71
     4
 62
   256
 62
   257
300
ANSI31
 40
1.0
 90
        0
290
     0
290
     0
 90
        6
 40
0.0
 40
1.570796326794896
 40
0.2617993877991494
 40
1.308996938995747
 40
-0.2617993877991494
 40
1.832595714594046
  0
TABLESTYLE
  5
65
102
{ACAD_XDICTIONARY
360
9B
102
}
102
{ACAD_REACTORS
330
64
102
}
330
64
100
AcDbTableStyle
280
     0
  3
Standard
 70
     0
 71
     0
 40
0.06
 41
0.06
280
     0
281
     0
  7
Standard
140
0.18
170
     2
 62
     0
 63
     7
283
     0
 90
      512
 91
        0
  1

274
    -2
284
     1
 64
     0
275
    -2
285
     1
 65
     0
276
    -2
286
     1
 66
     0
277
    -2
287
     1
 67
     0
278
    -2
288
     1
 68
     0
279
    -2
289
     1
 69
     0
  7
Standard
140
0.25
170
     5
 62
     0
 63
     7
283
     0
 90
      512
 91
        0
  1

274
    -2
284
     1
 64
     0
275
    -2
285
     1
 65
     0
276
    -2
286
     1
 66
     0
277
    -2
287
     1
 67
     0
278
    -2
288
     1
 68
     0
279
    -2
289
     1
 69
     0
  7
Standard
140
0.18
170
     5
 62
     0
 63
     7
283
     0
 90
      512
 91
        0
  1

274
    -2
284
     1
 64
     0
275
    -2
285
     1
 65
     0
276
    -2
286
     1
 66
     0
277
    -2
287
     1
 67
     0
278
    -2
288
     1
 68
     0
279
    -2
289
     1
 69
     0
  0
VISUALSTYLE
  5
2F
102
{ACAD_REACTORS
330
29
102
}
330
29
100
AcDbVisualStyle
  2
2dWireframe
 70
     4
177
     3
291
     0
 70
    58
 90
        0
176
     1
 90
        2
176
     1
 90
        0
176
     1
 90
        0
176
     1
 40
0.6
176
     1
 40
30.0
176
     1
 62
     7
420
 16777215
176
     1
 90
        1
176
     1
 90
        4
176
     1
 62
     7
176
     1
 62
   257
176
     1
 90
        1
176
     1
 90
        1
176
     1
 40
1.0
176
     1
 90
        0
176
     1
 62
   257
176
     1
 40
1.0
176
     1
 90
        1
176
     1
 90
        6
176
     1
 90
        2
176
     1
 62
     7
176
     1
 90
        5
176
     1
 90
        0
176
     1
 90
        0
176
     1
290
     0
176
     1
 90
        1
176
     1
 40
0.0
176
     1
 90
        0
176
     1
290
     1
176
     1
290
     1
176
     1
290
     0
176
     1
290
     0
176
     1
290
     0
176
     1
290
     0
176
     1
290
     0
176
     1
290
     0
176
     1
290
     0
176
     1
 90
       50
176
     1
 40
0.0
176
     1
 40
1.0
176
     1
 90
        0
176
     1
 62
    18
420
        0
176
     1
 90
       50
176
     1
 90
        3
176
     1
 62
     5
420
      255
176
     1
290
     0
176
     1
 90
       50
176
     1
 90
       50
176
     1
 90
       50
176
     1
290
     0
176
     1
 90
       50
176
     1
 62
   256
176
     0
 40
1.0
176
     0
 90
        2
176
     1
  1
strokes_ogs.tif
176
     1
290
     0
176
     1
 40
1.0
176
     1
 40
1.0
176
     1
  0
VISUALSTYLE
  5
2E
102
{ACAD_REACTORS
330
29
102
}
330
29
100
AcDbVisualStyle
  2
Basic
 70
     7
177
     3
291
     1
 70
    58
 90
        1
176
     1
 90
        0
176
     1
 90
        1
176
     1
 90
        0
176
     1
 40
0.6
176
     1
 40
30.0
176
     1
 62
     7
420
 16777215
176
     1
 90
        0
176
     1
 90
        4
176
     1
 62
     7
176
     1
 62
   257
176
     1
 90
        1
176
     1
 90
        1
176
     1
 40
1.0
176
     1
 90
        8
176
     1
 62
     7
176
     1
 40
1.0
176
     1
 90
        1
176
     1
 90
        6
176
     1
 90
        2
176
     1
 62
     7
176
     1
 90
        5
176
     1
 90
        0
176
     1
 90
        0
176
     1
290
     0
176
     1
 90
        1
176
     1
 40
0.0
176
     1
 90
        0
176
     1
290
     0
176
     1
290
     1
176
     1
290
     1
176
     1
290
     0
176
     1
290
     0
176
     1
290
     0
176
     1
290
     0
176
     1
290
     0
176
     1
290
     0
176
     1
 90
       50
176
     1
 40
0.0
176
     1
 40
1.0
176
     1
 90
        0
176
     1
 62
    18
420
        0
176
     1
 90
       50
176
     1
 90
        3
176
     1
 62
     5
420
      255
176
     1
290
     0
176
     1
 90
       50
176
     1
 90
       50
176
     1
 90
       50
176
     1
290
     0
176
     1
 90
       50
176
     1
 62
   256
176
     0
 40
1.0
176
     0
 90
        2
176
     1
  1
strokes_ogs.tif
176
     1
290
     0
176
     1
 40
1.0
176
     1
 40
1.0
176
     1
  0
VISUALSTYLE
  5
35
102
{ACAD_REACTORS
330
29
102
}
330
29
100
AcDbVisualStyle
  2
Brighten
 70
    12
177
     3
291
     1
 70
    58
 90
        2
176
     1
 90
        2
176
     1
 90
        0
176
     1
 90
        0
176
     1
 40
0.6
176
     1
 40
30.0
176
     1
 62
     7
420
 16777215
176
     1
 90
        1
176
     1
 90
        4
176
     1
 62
     7
176
     1
 62
   257
176
     1
 90
        1
176
     1
 90
        1
176
     1
 40
1.0
176
     1
 90
        8
176
     1
 62
     7
176
     1
 40
1.0
176
     1
 90
        1
176
     1
 90
        6
176
     1
 90
        2
176
     1
 62
     7
176
     1
 90
        5
176
     1
 90
        0
176
     1
 90
        0
176
     1
290
     0
176
     1
 90
        1
176
     1
 40
50.0
176
     1
 90
        0
176
     1
290
     0
176
     1
290
     1
176
     1
290
     1
176
     1
290
     0
176
     1
290
     0
176
     1
290
     0
176
     1
290
     0
176
     1
290
     0
176
     1
290
     0
176
     1
 90
       50
176
     1
 40
0.0
176
     1
 40
1.0
176
     1
 90
        0
176
     1
 62
    18
420
        0
176
     1
 90
       50
176
     1
 90
        3
176
     1
 62
     5
420
      255
176
     1
290
     0
176
     1
 90
       50
176
     1
 90
       50
176
     1
 90
       50
176
     1
290
     0
176
     1
 90
       50
176
     1
 62
   256
176
     0
 40
1.0
176
     0
 90
        2
176
     1
  1
strokes_ogs.tif
176
     1
290
     0
176
     1
 40
1.0
176
     1
 40
1.0
176
     1
  0
VISUALSTYLE
  5
39
102
{ACAD_REACTORS
330
29
102
}
330
29
100
AcDbVisualStyle
  2
ColorChange
 70
    16
177
     3
291
     1
 70
    58
 90
        2
176
     1
 90
        2
176
     1
 90
        3
176
     1
 90
        0
176
     1
 40
0.6
176
     1
 40
30.0
176
     1
 62
     8
420
  8421504
176
     1
 90
        1
176
     1
 90
        4
176
     1
 62
     7
176
     1
 62
   257
176
     1
 90
        1
176
     1
 90
        1
176
     1
 40
1.0
176
     1
 90
        8
176
     1
 62
     8
420
  8421504
176
     1
 40
1.0
176
     1
 90
        1
176
     1
 90
        6
176
     1
 90
        2
176
     1
 62
     7
176
     1
 90
        5
176
     1
 90
        0
176
     1
 90
        0
176
     1
290
     0
176
     1
 90
        1
176
     1
 40
0.0
176
     1
 90
        0
176
     1
290
     0
176
     1
290
     1
176
     1
290
     1
176
     1
290
     0
176
     1
290
     0
176
     1
290
     0
176
     1
290
     0
176
     1
290
     0
176
     1
290
     0
176
     1
 90
       50
176
     1
 40
0.0
176
     1
 40
1.0
176
     1
 90
        0
176
     1
 62
    18
420
        0
176
     1
 90
       50
176
     1
 90
        3
176
     1
 62
     5
420
      255
176
     1
290
     0
176
     1
 90
       50
176
     1
 90
       50
176
     1
 90
       50
176
     1
290
     0
176
     1
 90
       50
176
     1
 62
   256
176
     0
 40
1.0
176
     0
 90
        2
176
     1
  1
strokes_ogs.tif
176
     1
290
     0
176
     1
 40
1.0
176
     1
 40
1.0
176
     1
  0
VISUALSTYLE
  5
32
102
{ACAD_REACTORS
330
29
102
}
330
29
100
AcDbVisualStyle
  2
Conceptual
 70
     9
177
     3
291
     0
 70
    58
 90
        3
176
     1
 90
        2
176
     1
 90
        0
176
     1
 90
        0
176
     1
 40
0.6
176
     1
 40
30.0
176
     1
 62
     7
420
 16777215
176
     1
 90
        2
176
     1
 90
        2
176
     1
 62
     7
176
     1
 62
   257
176
     1
 90
        1
176
     1
 90
        1
176
     1
 40
179.0
176
     1
 90
        8
176
     1
 62
     7
176
     1
 40
1.0
176
     1
 90
        1
176
     1
 90
        6
176
     1
 90
        2
176
     1
 62
     7
176
     1
 90
        3
176
     1
 90
        0
176
     1
 90
        0
176
     1
290
     0
176
     1
 90
        1
176
     1
 40
0.0
176
     1
 90
        0
176
     1
290
     0
176
     1
290
     1
176
     1
290
     1
176
     1
290
     0
176
     1
290
     0
176
     1
290
     0
176
     1
290
     0
176
     1
290
     0
176
     1
290
     0
176
     1
 90
       50
176
     1
 40
0.0
176
     1
 40
1.0
176
     1
 90
        0
176
     1
 62
    18
420
        0
176
     1
 90
       50
176
     1
 90
        3
176
     1
 62
     5
420
      255
176
     1
290
     0
176
     1
 90
       50
176
     1
 90
       50
176
     1
 90
       50
176
     1
290
     0
176
     1
 90
       50
176
     1
 62
   256
176
     0
 40
1.0
176
     0
 90
        2
176
     1
  1
strokes_ogs.tif
176
     1
290
     0
176
     1
 40
1.0
176
     1
 40
1.0
176
     1
  0
VISUALSTYLE
  5
34
102
{ACAD_REACTORS
330
29
102
}
330
29
100
AcDbVisualStyle
  2
Dim
 70
    11
177
     3
291
     1
 70
    58
 90
        2
176
     1
 90
        2
176
     1
 90
        0
176
     1
 90
        0
176
     1
 40
0.6
176
     1
 40
30.0
176
     1
 62
     7
420
 16777215
176
     1
 90
        1
176
     1
 90
        4
176
     1
 62
     7
176
     1
 62
   257
176
     1
 90
        1
176
     1
 90
        1
176
     1
 40
1.0
176
     1
 90
        8
176
     1
 62
     7
176
     1
 40
1.0
176
     1
 90
        1
176
     1
 90
        6
176
     1
 90
        2
176
     1
 62
     7
176
     1
 90
        5
176
     1
 90
        0
176
     1
 90
        0
176
     1
290
     0
176
     1
 90
        1
176
     1
 40
-50.0
176
     1
 90
        0
176
     1
290
     0
176
     1
290
     1
176
     1
290
     1
176
     1
290
     0
176
     1
290
     0
176
     1
290
     0
176
     1
290
     0
176
     1
290
     0
176
     1
290
     0
176
     1
 90
       50
176
     1
 40
0.0
176
     1
 40
1.0
176
     1
 90
        0
176
     1
 62
    18
420
        0
176
     1
 90
       50
176
     1
 90
        3
176
     1
 62
     5
420
      255
176
     1
290
     0
176
     1
 90
       50
176
     1
 90
       50
176
     1
 90
       50
176
     1
290
     0
176
     1
 90
       50
176
     1
 62
   256
176
     0
 40
1.0
176
     0
 90
        2
176
     1
  1
strokes_ogs.tif
176
     1
290
     0
176
     1
 40
1.0
176
     1
 40
1.0
176
     1
  0
VISUALSTYLE
  5
41
102
{ACAD_REACTORS
330
29
102
}
330
29
100
AcDbVisualStyle
  2
EdgeColorOff
 70
    22
177
     3
291
     1
 70
    58
 90
        2
176
     0
 90
        2
176
     0
 90
        0
176
     0
 90
        0
176
     0
 40
0.6
176
     0
 40
30.0
176
     0
 62
     7
420
 16777215
176
     0
 90
        1
176
     0
 90
        4
176
     0
 62
     7
176
     0
 62
   257
176
     0
 90
        1
176
     0
 90
        1
176
     0
 40
1.0
176
     0
 90
        8
176
     2
 62
     7
176
     0
 40
1.0
176
     0
 90
        1
176
     0
 90
        6
176
     0
 90
        2
176
     0
 62
     7
176
     0
 90
        5
176
     0
 90
        0
176
     0
 90
        0
176
     0
290
     0
176
     0
 90
        1
176
     0
 40
0.0
176
     0
 90
        0
176
     0
290
     0
176
     0
290
     1
176
     0
290
     1
176
     0
290
     0
176
     0
290
     0
176
     0
290
     0
176
     0
290
     0
176
     0
290
     0
176
     0
290
     0
176
     0
 90
       50
176
     0
 40
0.0
176
     0
 40
1.0
176
     0
 90
        0
176
     0
 62
    18
420
        0
176
     0
 90
       50
176
     0
 90
        3
176
     0
 62
     5
420
      255
176
     0
290
     0
176
     0
 90
       50
176
     0
 90
       50
176
     0
 90
       50
176
     0
290
     0
176
     0
 90
       50
176
     0
 62
   256
176
     0
 40
1.0
176
     0
 90
        2
176
     0
  1
strokes_ogs.tif
176
     0
290
     0
176
     0
 40
1.0
176
     0
 40
1.0
176
     0
  0
VISUALSTYLE
  5
38
102
{ACAD_REACTORS
330
29
102
}
330
29
100
AcDbVisualStyle
  2
Facepattern
 70
    15
177
     3
291
     1
 70
    58
 90
        2
176
     1
 90
        2
176
     1
 90
        0
176
     1
 90
        0
176
     1
 40
0.6
176
     1
 40
30.0
176
     1
 62
     7
420
 16777215
176
     1
 90
        1
176
     1
 90
        4
176
     1
 62
     7
176
     1
 62
   257
176
     1
 90
        1
176
     1
 90
        1
176
     1
 40
1.0
176
     1
 90
        8
176
     1
 62
     7
176
     1
 40
1.0
176
     1
 90
        1
176
     1
 90
        6
176
     1
 90
        2
176
     1
 62
     7
176
     1
 90
        5
176
     1
 90
        0
176
     1
 90
        0
176
     1
290
     0
176
     1
 90
        1
176
     1
 40
0.0
176
     1
 90
        0
176
     1
290
     0
176
     1
290
     1
176
     1
290
     1
176
     1
290
     0
176
     1
290
     0
176
     1
290
     0
176
     1
290
     0
176
     1
290
     0
176
     1
290
     0
176
     1
 90
       50
176
     1
 40
0.0
176
     1
 40
1.0
176
     1
 90
        0
176
     1
 62
    18
420
        0
176
     1
 90
       50
176
     1
 90
        3
176
     1
 62
     5
420
      255
176
     1
290
     0
176
     1
 90
       50
176
     1
 90
       50
176
     1
 90
       50
176
     1
290
     0
176
     1
 90
       50
176
     1
 62
   256
176
     0
 40
1.0
176
     0
 90
        2
176
     1
  1
strokes_ogs.tif
176
     1
290
     0
176
     1
 40
1.0
176
     1
 40
1.0
176
     1
  0
VISUALSTYLE
  5
2A
102
{ACAD_REACTORS
330
29
102
}
330
29
100
AcDbVisualStyle
  2
Flat
 70
     0
177
     3
291
     1
 70
    58
 90
        2
176
     1
 90
        1
176
     1
 90
        1
176
     1
 90
        2
176
     1
 40
0.6
176
     1
 40
30.0
176
     1
 62
     7
420
 16777215
176
     1
 90
        0
176
     1
 90
        0
176
     1
 62
     7
176
     1
 62
   257
176
     1
 90
        1
176
     1
 90
        1
176
     1
 40
1.0
176
     1
 90
        8
176
     1
 62
     7
176
     1
 40
1.0
176
     1
 90
        1
176
     1
 90
        6
176
     1
 90
        2
176
     1
 62
     7
176
     1
 90
        5
176
     1
 90
        0
176
     1
 90
        0
176
     1
290
     0
176
     1
 90
       13
176
     1
 40
0.0
176
     1
 90
        0
176
     1
290
     0
176
     1
290
     1
176
     1
290
     1
176
     1
290
     0
176
     1
290
     0
176
     1
290
     0
176
     1
290
     0
176
     1
290
     0
176
     1
290
     0
176
     1
 90
       50
176
     1
 40
0.0
176
     1
 40
1.0
176
     1
 90
        0
176
     1
 62
    18
420
        0
176
     1
 90
       50
176
     1
 90
        3
176
     1
 62
     5
420
      255
176
     1
290
     0
176
     1
 90
       50
176
     1
 90
       50
176
     1
 90
       50
176
     1
290
     0
176
     1
 90
       50
176
     1
 62
   256
176
     0
 40
1.0
176
     0
 90
        2
176
     1
  1
strokes_ogs.tif
176
     1
290
     0
176
     1
 40
1.0
176
     1
 40
1.0
176
     1
  0
VISUALSTYLE
  5
2B
102
{ACAD_REACTORS
330
29
102
}
330
29
100
AcDbVisualStyle
  2
FlatWithEdges
 70
     1
177
     3
291
     1
 70
    58
 90
        2
176
     1
 90
        1
176
     1
 90
        1
176
     1
 90
        2
176
     1
 40
0.6
176
     1
 40
30.0
176
     1
 62
     7
420
 16777215
176
     1
 90
        1
176
     1
 90
        0
176
     1
 62
     7
176
     1
 62
   257
176
     1
 90
        1
176
     1
 90
        1
176
     1
 40
1.0
176
     1
 90
        0
176
     1
 62
   257
176
     1
 40
1.0
176
     1
 90
        1
176
     1
 90
        6
176
     1
 90
        2
176
     1
 62
     7
176
     1
 90
        5
176
     1
 90
        0
176
     1
 90
        0
176
     1
290
     0
176
     1
 90
       13
176
     1
 40
0.0
176
     1
 90
        0
176
     1
290
     0
176
     1
290
     1
176
     1
290
     1
176
     1
290
     0
176
     1
290
     0
176
     1
290
     0
176
     1
290
     0
176
     1
290
     0
176
     1
290
     0
176
     1
 90
       50
176
     1
 40
0.0
176
     1
 40
1.0
176
     1
 90
        0
176
     1
 62
    18
420
        0
176
     1
 90
       50
176
     1
 90
        3
176
     1
 62
     5
420
      255
176
     1
290
     0
176
     1
 90
       50
176
     1
 90
       50
176
     1
 90
       50
176
     1
290
     0
176
     1
 90
       50
176
     1
 62
   256
176
     0
 40
1.0
176
     0
 90
        2
176
     1
  1
strokes_ogs.tif
176
     1
290
     0
176
     1
 40
1.0
176
     1
 40
1.0
176
     1
  0
VISUALSTYLE
  5
2C
102
{ACAD_REACTORS
330
29
102
}
330
29
100
AcDbVisualStyle
  2
Gouraud
 70
     2
177
     3
291
     1
 70
    58
 90
        2
176
     1
 90
        2
176
     1
 90
        1
176
     1
 90
        2
176
     1
 40
0.6
176
     1
 40
30.0
176
     1
 62
     7
420
 16777215
176
     1
 90
        0
176
     1
 90
        0
176
     1
 62
     7
176
     1
 62
   257
176
     1
 90
        1
176
     1
 90
        1
176
     1
 40
1.0
176
     1
 90
        0
176
     1
 62
     7
176
     1
 40
1.0
176
     1
 90
        1
176
     1
 90
        6
176
     1
 90
        2
176
     1
 62
     7
176
     1
 90
        5
176
     1
 90
        0
176
     1
 90
        0
176
     1
290
     0
176
     1
 90
       13
176
     1
 40
0.0
176
     1
 90
        0
176
     1
290
     0
176
     1
290
     1
176
     1
290
     1
176
     1
290
     0
176
     1
290
     0
176
     1
290
     0
176
     1
290
     0
176
     1
290
     0
176
     1
290
     0
176
     1
 90
       50
176
     1
 40
0.0
176
     1
 40
1.0
176
     1
 90
        0
176
     1
 62
    18
420
        0
176
     1
 90
       50
176
     1
 90
        3
176
     1
 62
     5
420
      255
176
     1
290
     0
176
     1
 90
       50
176
     1
 90
       50
176
     1
 90
       50
176
     1
290
     0
176
     1
 90
       50
176
     1
 62
   256
176
     0
 40
1.0
176
     0
 90
        2
176
     1
  1
strokes_ogs.tif
176
     1
290
     0
176
     1
 40
1.0
176
     1
 40
1.0
176
     1
  0
VISUALSTYLE
  5
2D
102
{ACAD_REACTORS
330
29
102
}
330
29
100
AcDbVisualStyle
  2
GouraudWithEdges
 70
     3
177
     3
291
     1
 70
    58
 90
        2
176
     1
 90
        2
176
     1
 90
        1
176
     1
 90
        2
176
     1
 40
0.6
176
     1
 40
30.0
176
     1
 62
     7
420
 16777215
176
     1
 90
        1
176
     1
 90
        0
176
     1
 62
     7
176
     1
 62
   257
176
     1
 90
        1
176
     1
 90
        1
176
     1
 40
1.0
176
     1
 90
        0
176
     1
 62
   257
176
     1
 40
1.0
176
     1
 90
        1
176
     1
 90
        6
176
     1
 90
        2
176
     1
 62
     7
176
     1
 90
        5
176
     1
 90
        0
176
     1
 90
        0
176
     1
290
     0
176
     1
 90
       13
176
     1
 40
0.0
176
     1
 90
        0
176
     1
290
     0
176
     1
290
     1
176
     1
290
     1
176
     1
290
     0
176
     1
290
     0
176
     1
290
     0
176
     1
290
     0
176
     1
290
     0
176
     1
290
     0
176
     1
 90
       50
176
     1
 40
0.0
176
     1
 40
1.0
176
     1
 90
        0
176
     1
 62
    18
420
        0
176
     1
 90
       50
176
     1
 90
        3
176
     1
 62
     5
420
      255
176
     1
290
     0
176
     1
 90
       50
176
     1
 90
       50
176
     1
 90
       50
176
     1
290
     0
176
     1
 90
       50
176
     1
 62
   256
176
     0
 40
1.0
176
     0
 90
        2
176
     1
  1
strokes_ogs.tif
176
     1
290
     0
176
     1
 40
1.0
176
     1
 40
1.0
176
     1
  0
VISUALSTYLE
  5
31
102
{ACAD_REACTORS
330
29
102
}
330
29
100
AcDbVisualStyle
  2
Hidden
 70
     6
177
     3
291
     0
 70
    58
 90
        1
176
     1
 90
        2
176
     1
 90
        2
176
     1
 90
        0
176
     1
 40
0.6
176
     1
 40
30.0
176
     1
 62
     7
420
 16777215
176
     1
 90
        2
176
     1
 90
        2
176
     1
 62
     7
176
     1
 62
   257
176
     1
 90
        2
176
     1
 90
        1
176
     1
 40
40.0
176
     1
 90
        0
176
     1
 62
   257
176
     1
 40
1.0
176
     1
 90
        1
176
     1
 90
        6
176
     1
 90
        2
176
     1
 62
     7
176
     1
 90
        3
176
     1
 90
        0
176
     1
 90
        0
176
     1
290
     0
176
     1
 90
        1
176
     1
 40
0.0
176
     1
 90
        0
176
     1
290
     0
176
     1
290
     1
176
     1
290
     1
176
     1
290
     0
176
     1
290
     0
176
     1
290
     0
176
     1
290
     0
176
     1
290
     0
176
     1
290
     0
176
     1
 90
       50
176
     1
 40
0.0
176
     1
 40
1.0
176
     1
 90
        0
176
     1
 62
    18
420
        0
176
     1
 90
       50
176
     1
 90
        3
176
     1
 62
     5
420
      255
176
     1
290
     0
176
     1
 90
       50
176
     1
 90
       50
176
     1
 90
       50
176
     1
290
     0
176
     1
 90
       50
176
     1
 62
   256
176
     0
 40
1.0
176
     0
 90
        2
176
     1
  1
strokes_ogs.tif
176
     1
290
     0
176
     1
 40
1.0
176
     1
 40
1.0
176
     1
  0
VISUALSTYLE
  5
3F
102
{ACAD_REACTORS
330
29
102
}
330
29
100
AcDbVisualStyle
  2
JitterOff
 70
    20
177
     3
291
     1
 70
    58
 90
        2
176
     0
 90
        2
176
     0
 90
        0
176
     0
 90
        0
176
     0
 40
0.6
176
     0
 40
30.0
176
     0
 62
     7
420
 16777215
176
     0
 90
        1
176
     0
 90
        4
176
     0
 62
     7
176
     0
 62
   257
176
     0
 90
        1
176
     0
 90
        1
176
     0
 40
1.0
176
     0
 90
       10
176
     2
 62
     7
176
     0
 40
1.0
176
     0
 90
        1
176
     0
 90
        6
176
     0
 90
        2
176
     0
 62
     7
176
     0
 90
        5
176
     0
 90
        0
176
     0
 90
        0
176
     0
290
     0
176
     0
 90
        1
176
     0
 40
0.0
176
     0
 90
        0
176
     0
290
     0
176
     0
290
     1
176
     0
290
     1
176
     0
290
     0
176
     0
290
     0
176
     0
290
     0
176
     0
290
     0
176
     0
290
     0
176
     0
290
     0
176
     0
 90
       50
176
     0
 40
0.0
176
     0
 40
1.0
176
     0
 90
        0
176
     0
 62
    18
420
        0
176
     0
 90
       50
176
     0
 90
        3
176
     0
 62
     5
420
      255
176
     0
290
     0
176
     0
 90
       50
176
     0
 90
       50
176
     0
 90
       50
176
     0
290
     0
176
     0
 90
       50
176
     0
 62
   256
176
     0
 40
1.0
176
     0
 90
        2
176
     0
  1
strokes_ogs.tif
176
     0
290
     0
176
     0
 40
1.0
176
     0
 40
1.0
176
     0
  0
VISUALSTYLE
  5
37
102
{ACAD_REACTORS
330
29
102
}
330
29
100
AcDbVisualStyle
  2
Linepattern
 70
    14
177
     3
291
     1
 70
    58
 90
        2
176
     1
 90
        2
176
     1
 90
        0
176
     1
 90
        0
176
     1
 40
0.6
176
     1
 40
30.0
176
     1
 62
     7
420
 16777215
176
     1
 90
        1
176
     1
 90
        4
176
     1
 62
     7
176
     1
 62
   257
176
     1
 90
        7
176
     1
 90
        7
176
     1
 40
1.0
176
     1
 90
        8
176
     1
 62
     7
176
     1
 40
1.0
176
     1
 90
        1
176
     1
 90
        6
176
     1
 90
        2
176
     1
 62
     7
176
     1
 90
        5
176
     1
 90
        0
176
     1
 90
        0
176
     1
290
     0
176
     1
 90
        1
176
     1
 40
0.0
176
     1
 90
        0
176
     1
290
     0
176
     1
290
     1
176
     1
290
     1
176
     1
290
     0
176
     1
290
     0
176
     1
290
     0
176
     1
290
     0
176
     1
290
     0
176
     1
290
     0
176
     1
 90
       50
176
     1
 40
0.0
176
     1
 40
1.0
176
     1
 90
        0
176
     1
 62
    18
420
        0
176
     1
 90
       50
176
     1
 90
        3
176
     1
 62
     5
420
      255
176
     1
290
     0
176
     1
 90
       50
176
     1
 90
       50
176
     1
 90
       50
176
     1
290
     0
176
     1
 90
       50
176
     1
 62
   256
176
     0
 40
1.0
176
     0
 90
        2
176
     1
  1
strokes_ogs.tif
176
     1
290
     0
176
     1
 40
1.0
176
     1
 40
1.0
176
     1
  0
VISUALSTYLE
  5
40
102
{ACAD_REACTORS
330
29
102
}
330
29
100
AcDbVisualStyle
  2
OverhangOff
 70
    21
177
     3
291
     1
 70
    58
 90
        2
176
     0
 90
        2
176
     0
 90
        0
176
     0
 90
        0
176
     0
 40
0.6
176
     0
 40
30.0
176
     0
 62
     7
420
 16777215
176
     0
 90
        1
176
     0
 90
        4
176
     0
 62
     7
176
     0
 62
   257
176
     0
 90
        1
176
     0
 90
        1
176
     0
 40
1.0
176
     0
 90
        9
176
     2
 62
     7
176
     0
 40
1.0
176
     0
 90
        1
176
     0
 90
        6
176
     0
 90
        2
176
     0
 62
     7
176
     0
 90
        5
176
     0
 90
        0
176
     0
 90
        0
176
     0
290
     0
176
     0
 90
        1
176
     0
 40
0.0
176
     0
 90
        0
176
     0
290
     0
176
     0
290
     1
176
     0
290
     1
176
     0
290
     0
176
     0
290
     0
176
     0
290
     0
176
     0
290
     0
176
     0
290
     0
176
     0
290
     0
176
     0
 90
       50
176
     0
 40
0.0
176
     0
 40
1.0
176
     0
 90
        0
176
     0
 62
    18
420
        0
176
     0
 90
       50
176
     0
 90
        3
176
     0
 62
     5
420
      255
176
     0
290
     0
176
     0
 90
       50
176
     0
 90
       50
176
     0
 90
       50
176
     0
290
     0
176
     0
 90
       50
176
     0
 62
   256
176
     0
 40
1.0
176
     0
 90
        2
176
     0
  1
strokes_ogs.tif
176
     0
290
     0
176
     0
 40
1.0
176
     0
 40
1.0
176
     0
  0
VISUALSTYLE
  5
33
102
{ACAD_REACTORS
330
29
102
}
330
29
100
AcDbVisualStyle
  2
Realistic
 70
     8
177
     3
291
     0
 70
    58
 90
        2
176
     1
 90
        3
176
     1
 90
        0
176
     1
 90
        2
176
     1
 40
0.6
176
     1
 40
30.0
176
     1
 62
     7
420
 16777215
176
     1
 90
        0
176
     1
 90
        0
176
     1
 62
     7
176
     1
 62
   257
176
     1
 90
        1
176
     1
 90
        1
176
     1
 40
1.0
176
     1
 90
        8
176
     1
 62
   257
176
     1
 40
1.0
176
     1
 90
        1
176
     1
 90
        6
176
     1
 90
        2
176
     1
 62
     7
176
     1
 90
        3
176
     1
 90
        0
176
     1
 90
        0
176
     1
290
     0
176
     1
 90
       13
176
     1
 40
0.0
176
     1
 90
        0
176
     1
290
     0
176
     1
290
     1
176
     1
290
     1
176
     1
290
     0
176
     1
290
     0
176
     1
290
     0
176
     1
290
     0
176
     1
290
     0
176
     1
290
     0
176
     1
 90
       50
176
     1
 40
0.0
176
     1
 40
1.0
176
     1
 90
        0
176
     1
 62
    18
420
        0
176
     1
 90
       50
176
     1
 90
        3
176
     1
 62
     5
420
      255
176
     1
290
     0
176
     1
 90
       50
176
     1
 90
       50
176
     1
 90
       50
176
     1
290
     0
176
     1
 90
       50
176
     1
 62
   256
176
     0
 40
1.0
176
     0
 90
        2
176
     1
  1
strokes_ogs.tif
176
     1
290
     0
176
     1
 40
1.0
176
     1
 40
1.0
176
     1
  0
VISUALSTYLE
  5
3E
102
{ACAD_REACTORS
330
29
102
}
330
29
100
AcDbVisualStyle
  2
Shaded
 70
    27
177
     3
291
     0
 70
    58
 90
        2
176
     1
 90
        2
176
     1
 90
        1
176
     1
 90
        2
176
     1
 40
0.6
176
     1
 40
30.0
176
     1
 62
     7
420
 16777215
176
     1
 90
        0
176
     1
 90
        4
176
     1
 62
     7
176
     1
 62
   257
176
     1
 90
        1
176
     1
 90
        1
176
     1
 40
1.0
176
     1
 90
        8
176
     1
 62
   257
176
     1
 40
1.0
176
     1
 90
        1
176
     1
 90
        6
176
     1
 90
        2
176
     1
 62
     8
420
  7895160
176
     1
 90
        3
176
     1
 90
        0
176
     1
 90
        0
176
     1
290
     0
176
     1
 90
        5
176
     1
 40
0.0
176
     1
 90
        0
176
     1
290
     0
176
     1
290
     1
176
     1
290
     1
176
     1
290
     0
176
     1
290
     0
176
     1
290
     0
176
     1
290
     0
176
     1
290
     0
176
     1
290
     0
176
     1
 90
       50
176
     1
 40
0.0
176
     1
 40
1.0
176
     1
 90
        0
176
     1
 62
    18
420
        0
176
     1
 90
       50
176
     1
 90
        3
176
     1
 62
     5
420
      255
176
     1
290
     0
176
     1
 90
       50
176
     1
 90
       50
176
     1
 90
       50
176
     1
290
     0
176
     1
 90
       50
176
     1
 62
   256
176
     0
 40
1.0
176
     0
 90
        2
176
     1
  1
strokes_ogs.tif
176
     1
290
     0
176
     1
 40
1.0
176
     1
 40
1.0
176
     1
  0
VISUALSTYLE
  5
3D
102
{ACAD_REACTORS
330
29
102
}
330
29
100
AcDbVisualStyle
  2
Shaded with edges
 70
    26
177
     3
291
     0
 70
    58
 90
        2
176
     1
 90
        2
176
     1
 90
        1
176
     1
 90
        2
176
     1
 40
0.6
176
     1
 40
30.0
176
     1
 62
     7
420
 16777215
176
     1
 90
        1
176
     1
 90
        2
176
     1
 62
     7
176
     1
 62
   257
176
     1
 90
        2
176
     1
 90
        1
176
     1
 40
1.0
176
     1
 90
        8
176
     1
 62
   257
176
     1
 40
1.0
176
     1
 90
        1
176
     1
 90
        6
176
     1
 90
        2
176
     1
 62
     7
176
     1
 90
        3
176
     1
 90
        0
176
     1
 90
        0
176
     1
290
     0
176
     1
 90
        5
176
     1
 40
0.0
176
     1
 90
        0
176
     1
290
     0
176
     1
290
     1
176
     1
290
     1
176
     1
290
     0
176
     1
290
     0
176
     1
290
     0
176
     1
290
     0
176
     1
290
     0
176
     1
290
     0
176
     1
 90
       50
176
     1
 40
0.0
176
     1
 40
1.0
176
     1
 90
        0
176
     1
 62
    18
420
        0
176
     1
 90
       50
176
     1
 90
        3
176
     1
 62
     5
420
      255
176
     1
290
     0
176
     1
 90
       50
176
     1
 90
       50
176
     1
 90
       50
176
     1
290
     0
176
     1
 90
       50
176
     1
 62
   256
176
     0
 40
1.0
176
     0
 90
        2
176
     1
  1
strokes_ogs.tif
176
     1
290
     0
176
     1
 40
1.0
176
     1
 40
1.0
176
     1
  0
VISUALSTYLE
  5
3A
102
{ACAD_REACTORS
330
29
102
}
330
29
100
AcDbVisualStyle
  2
Shades of Gray
 70
    23
177
     3
291
     0
 70
    58
 90
        2
176
     1
 90
        2
176
     1
 90
        3
176
     1
 90
        0
176
     1
 40
0.6
176
     1
 40
30.0
176
     1
 62
     7
420
 16777215
176
     1
 90
        2
176
     1
 90
        2
176
     1
 62
     7
176
     1
 62
     7
176
     1
 90
        1
176
     1
 90
        1
176
     1
 40
40.0
176
     1
 90
        8
176
     1
 62
     7
176
     1
 40
1.0
176
     1
 90
        1
176
     1
 90
        6
176
     1
 90
        2
176
     1
 62
     7
176
     1
 90
        3
176
     1
 90
        0
176
     1
 90
        0
176
     1
290
     0
176
     1
 90
        1
176
     1
 40
0.0
176
     1
 90
        0
176
     1
290
     0
176
     1
290
     1
176
     1
290
     1
176
     1
290
     0
176
     1
290
     0
176
     1
290
     0
176
     1
290
     0
176
     1
290
     0
176
     1
290
     0
176
     1
 90
       50
176
     1
 40
0.0
176
     1
 40
1.0
176
     1
 90
        0
176
     1
 62
    18
420
        0
176
     1
 90
       50
176
     1
 90
        3
176
     1
 62
     5
420
      255
176
     1
290
     0
176
     1
 90
       50
176
     1
 90
       50
176
     1
 90
       50
176
     1
290
     0
176
     1
 90
       50
176
     1
 62
   256
176
     0
 40
1.0
176
     0
 90
        2
176
     1
  1
strokes_ogs.tif
176
     1
290
     0
176
     1
 40
1.0
176
     1
 40
1.0
176
     1
  0
VISUALSTYLE
  5
3B
102
{ACAD_REACTORS
330
29
102
}
330
29
100
AcDbVisualStyle
  2
Sketchy
 70
    24
177
     3
291
     0
 70
    58
 90
        1
176
     1
 90
        2
176
     1
 90
        2
176
     1
 90
        0
176
     1
 40
0.6
176
     1
 40
30.0
176
     1
 62
     7
420
 16777215
176
     1
 90
        2
176
     1
 90
        2
176
     1
 62
     7
176
     1
 62
     7
176
     1
 90
        1
176
     1
 90
        1
176
     1
 40
40.0
176
     1
 90
       11
176
     1
 62
     7
176
     1
 40
1.0
176
     1
 90
        1
176
     1
 90
        6
176
     1
 90
        2
176
     1
 62
     7
176
     1
 90
        6
176
     1
 90
        0
176
     1
 90
        0
176
     1
290
     0
176
     1
 90
        1
176
     1
 40
0.0
176
     1
 90
        0
176
     1
290
     0
176
     1
290
     1
176
     1
290
     1
176
     1
290
     0
176
     1
290
     0
176
     1
290
     0
176
     1
290
     0
176
     1
290
     0
176
     1
290
     0
176
     1
 90
       50
176
     1
 40
0.0
176
     1
 40
1.0
176
     1
 90
        0
176
     1
 62
    18
420
        0
176
     1
 90
       50
176
     1
 90
        3
176
     1
 62
     5
420
      255
176
     1
290
     0
176
     1
 90
       50
176
     1
 90
       50
176
     1
 90
       50
176
     1
290
     0
176
     1
 90
       50
176
     1
 62
   256
176
     0
 40
1.0
176
     0
 90
        2
176
     1
  1
strokes_ogs.tif
176
     1
290
     0
176
     1
 40
1.0
176
     1
 40
1.0
176
     1
  0
VISUALSTYLE
  5
36
102
{ACAD_REACTORS
330
29
102
}
330
29
100
AcDbVisualStyle
  2
Thicken
 70
    13
177
     3
291
     1
 70
    58
 90
        2
176
     1
 90
        2
176
     1
 90
        0
176
     1
 90
        0
176
     1
 40
0.6
176
     1
 40
30.0
176
     1
 62
     7
420
 16777215
176
     1
 90
        1
176
     1
 90
        4
176
     1
 62
     7
176
     1
 62
   257
176
     1
 90
        1
176
     1
 90
        1
176
     1
 40
1.0
176
     1
 90
       12
176
     1
 62
     7
176
     1
 40
1.0
176
     1
 90
        1
176
     1
 90
        6
176
     1
 90
        2
176
     1
 62
     7
176
     1
 90
        5
176
     1
 90
        0
176
     1
 90
        0
176
     1
290
     0
176
     1
 90
        1
176
     1
 40
0.0
176
     1
 90
        0
176
     1
290
     0
176
     1
290
     1
176
     1
290
     1
176
     1
290
     0
176
     1
290
     0
176
     1
290
     0
176
     1
290
     0
176
     1
290
     0
176
     1
290
     0
176
     1
 90
       50
176
     1
 40
0.0
176
     1
 40
1.0
176
     1
 90
        0
176
     1
 62
    18
420
        0
176
     1
 90
       50
176
     1
 90
        3
176
     1
 62
     5
420
      255
176
     1
290
     0
176
     1
 90
       50
176
     1
 90
       50
176
     1
 90
       50
176
     1
290
     0
176
     1
 90
       50
176
     1
 62
   256
176
     0
 40
1.0
176
     0
 90
        2
176
     1
  1
strokes_ogs.tif
176
     1
290
     0
176
     1
 40
1.0
176
     1
 40
1.0
176
     1
  0
VISUALSTYLE
  5
30
102
{ACAD_REACTORS
330
29
102
}
330
29
100
AcDbVisualStyle
  2
Wireframe
 70
     5
177
     3
291
     0
 70
    58
 90
        0
176
     1
 90
        2
176
     1
 90
        0
176
     1
 90
        0
176
     1
 40
0.6
176
     1
 40
30.0
176
     1
 62
     7
420
 16777215
176
     1
 90
        1
176
     1
 90
        4
176
     1
 62
     7
176
     1
 62
   257
176
     1
 90
        1
176
     1
 90
        1
176
     1
 40
1.0
176
     1
 90
        0
176
     1
 62
   257
176
     1
 40
1.0
176
     1
 90
        1
176
     1
 90
        6
176
     1
 90
        2
176
     1
 62
     7
176
     1
 90
        3
176
     1
 90
        0
176
     1
 90
        0
176
     1
290
     0
176
     1
 90
        1
176
     1
 40
0.0
176
     1
 90
        0
176
     1
290
     0
176
     1
290
     1
176
     1
290
     1
176
     1
290
     0
176
     1
290
     0
176
     1
290
     0
176
     1
290
     0
176
     1
290
     0
176
     1
290
     0
176
     1
 90
       50
176
     1
 40
0.0
176
     1
 40
1.0
176
     1
 90
        0
176
     1
 62
    18
420
        0
176
     1
 90
       50
176
     1
 90
        3
176
     1
 62
     5
420
      255
176
     1
290
     0
176
     1
 90
       50
176
     1
 90
       50
176
     1
 90
       50
176
     1
290
     0
176
     1
 90
       50
176
     1
 62
   256
176
     0
 40
1.0
176
     0
 90
        2
176
     1
  1
strokes_ogs.tif
176
     1
290
     0
176
     1
 40
1.0
176
     1
 40
1.0
176
     1
  0
VISUALSTYLE
  5
3C
102
{ACAD_REACTORS
330
29
102
}
330
29
100
AcDbVisualStyle
  2
X-Ray
 70
    25
177
     3
291
     0
 70
    58
 90
        2
176
     1
 90
        2
176
     1
 90
        1
176
     1
 90
        1
176
     1
 40
0.5
176
     1
 40
30.0
176
     1
 62
     7
420
 16777215
176
     1
 90
        1
176
     1
 90
        0
176
     1
 62
     7
176
     1
 62
   257
176
     1
 90
        1
176
     1
 90
        1
176
     1
 40
1.0
176
     1
 90
        8
176
     1
 62
     7
176
     1
 40
1.0
176
     1
 90
        1
176
     1
 90
        6
176
     1
 90
        2
176
     1
 62
     7
176
     1
 90
        3
176
     1
 90
        0
176
     1
 90
        0
176
     1
290
     0
176
     1
 90
       13
176
     1
 40
0.0
176
     1
 90
        0
176
     1
290
     0
176
     1
290
     1
176
     1
290
     1
176
     1
290
     0
176
     1
290
     0
176
     1
290
     0
176
     1
290
     0
176
     1
290
     0
176
     1
290
     0
176
     1
 90
       50
176
     1
 40
0.0
176
     1
 40
1.0
176
     1
 90
        0
176
     1
 62
    18
420
        0
176
     1
 90
       50
176
     1
 90
        3
176
     1
 62
     5
420
      255
176
     1
290
     0
176
     1
 90
       50
176
     1
 90
       50
176
     1
 90
       50
176
     1
290
     0
176
     1
 90
       50
176
     1
 62
   256
176
     0
 40
1.0
176
     0
 90
        2
176
     1
  1
strokes_ogs.tif
176
     1
290
     0
176
     1
 40
1.0
176
     1
 40
1.0
176
     1
  0
DICTIONARYVAR
  5
9A
102
{ACAD_REACTORS
330
95
102
}
330
95
100
DictionaryVariables
280
     0
  1
1:1
  0
DICTIONARYVAR
  5
97
102
{ACAD_REACTORS
330
95
102
}
330
95
100
DictionaryVariables
280
     0
  1
STANDARD
  0
DICTIONARYVAR
  5
96
102
{ACAD_REACTORS
330
95
102
}
330
95
100
DictionaryVariables
280
     0
  1
STANDARD
  0
DICTIONARYVAR
  5
98
102
{ACAD_REACTORS
330
95
102
}
330
95
100
DictionaryVariables
280
     0
  1
Imperial24
  0
DICTIONARYVAR
  5
99
102
{ACAD_REACTORS
330
95
102
}
330
95
100
DictionaryVariables
280
     0
  1
Imperial24
  0
DICTIONARY
  5
1A
330
19
100
AcDbDictionary
280
     1
281
     1
  3
BUMPTILE
360
1C
  3
DIFFUSETILE
360
1B
  3
OPACITYTILE
360
1F
  3
REFLECTIONTILE
360
1E
  3
REFRACTIONTILE
360
20
  3
SPECULARTILE
360
1D
  0
DICTIONARY
  5
12
330
11
100
AcDbDictionary
280
     1
281
     1
  3
BUMPTILE
360
14
  3
DIFFUSETILE
360
13
  3
OPACITYTILE
360
17
  3
REFLECTIONTILE
360
16
  3
REFRACTIONTILE
360
18
  3
SPECULARTILE
360
15
  0
DICTIONARY
  5
22
330
21
100
AcDbDictionary
280
     1
281
     1
  3
BUMPTILE
360
24
  3
DIFFUSETILE
360
23
  3
OPACITYTILE
360
27
  3
REFLECTIONTILE
360
26
  3
REFRACTIONTILE
360
28
  3
SPECULARTILE
360
25
  0
DICTIONARY
  5
9B
330
65
100
AcDbDictionary
280
     1
281
     1
  3
ACAD_ROUNDTRIP_2008_TABLESTYLE_CELLSTYLEMAP
360
9C
  0
XRECORD
  5
1C
102
{ACAD_REACTORS
330
1A
102
}
330
1A
100
AcDbXrecord
280
     1
270
     1
271
     1
  0
XRECORD
  5
1B
102
{ACAD_REACTORS
330
1A
102
}
330
1A
100
AcDbXrecord
280
     1
270
     1
271
     1
  0
XRECORD
  5
1F
102
{ACAD_REACTORS
330
1A
102
}
330
1A
100
AcDbXrecord
280
     1
270
     1
271
     1
  0
XRECORD
  5
1E
102
{ACAD_REACTORS
330
1A
102
}
330
1A
100
AcDbXrecord
280
     1
270
     1
271
     1
  0
XRECORD
  5
20
102
{ACAD_REACTORS
330
1A
102
}
330
1A
100
AcDbXrecord
280
     1
270
     1
271
     1
  0
XRECORD
  5
1D
102
{ACAD_REACTORS
330
1A
102
}
330
1A
100
AcDbXrecord
280
     1
270
     1
271
     1
  0
XRECORD
  5
14
102
{ACAD_REACTORS
330
12
102
}
330
12
100
AcDbXrecord
280
     1
270
     1
271
     1
  0
XRECORD
  5
13
102
{ACAD_REACTORS
330
12
102
}
330
12
100
AcDbXrecord
280
     1
270
     1
271
     1
  0
XRECORD
  5
17
102
{ACAD_REACTORS
330
12
102
}
330
12
100
AcDbXrecord
280
     1
270
     1
271
     1
  0
XRECORD
  5
16
102
{ACAD_REACTORS
330
12
102
}
330
12
100
AcDbXrecord
280
     1
270
     1
271
     1
  0
XRECORD
  5
18
102
{ACAD_REACTORS
330
12
102
}
330
12
100
AcDbXrecord
280
     1
270
     1
271
     1
  0
XRECORD
  5
15
102
{ACAD_REACTORS
330
12
102
}
330
12
100
AcDbXrecord
280
     1
270
     1
271
     1
  0
XRECORD
  5
24
102
{ACAD_REACTORS
330
22
102
}
330
22
100
AcDbXrecord
280
     1
270
     1
271
     1
  0
XRECORD
  5
23
102
{ACAD_REACTORS
330
22
102
}
330
22
100
AcDbXrecord
280
     1
270
     1
271
     1
  0
XRECORD
  5
27
102
{ACAD_REACTORS
330
22
102
}
330
22
100
AcDbXrecord
280
     1
270
     1
271
     1
  0
XRECORD
  5
26
102
{ACAD_REACTORS
330
22
102
}
330
22
100
AcDbXrecord
280
     1
270
     1
271
     1
  0
XRECORD
  5
28
102
{ACAD_REACTORS
330
22
102
}
330
22
100
AcDbXrecord
280
     1
270
     1
271
     1
  0
XRECORD
  5
25
102
{ACAD_REACTORS
330
22
102
}
330
22
100
AcDbXrecord
280
     1
270
     1
271
     1
  0
CELLSTYLEMAP
  5
9C
102
{ACAD_REACTORS
330
9B
102
}
330
9B
100
AcDbCellStyleMap
 90
        3
300
CELLSTYLE
  1
TABLEFORMAT_BEGIN
 90
        5
170
     1
 91
        0
 92
    32768
 62
   257
 93
        1
300
CONTENTFORMAT
  1
CONTENTFORMAT_BEGIN
 90
        0
 91
        0
 92
      512
 93
        0
300

 40
0.0
140
1.0
 94
        5
 62
     0
340
55
144
0.25
309
CONTENTFORMAT_END
171
     0
 94
        0
309
TABLEFORMAT_END
  1
CELLSTYLE_BEGIN
 90
        1
 91
        1
300
_TITLE
309
CELLSTYLE_END
300
CELLSTYLE
  1
TABLEFORMAT_BEGIN
 90
        5
170
     1
 91
        0
 92
        0
 62
   257
 93
        1
300
CONTENTFORMAT
  1
CONTENTFORMAT_BEGIN
 90
        0
 91
        0
 92
      512
 93
        0
300

 40
0.0
140
1.0
 94
        5
 62
     0
340
55
144
0.18
309
CONTENTFORMAT_END
171
     0
 94
        0
309
TABLEFORMAT_END
  1
CELLSTYLE_BEGIN
 90
        2
 91
        1
300
_HEADER
309
CELLSTYLE_END
300
CELLSTYLE
  1
TABLEFORMAT_BEGIN
 90
        5
170
     1
 91
        0
 92
        0
 62
   257
 93
        1
300
CONTENTFORMAT
  1
CONTENTFORMAT_BEGIN
 90
        0
 91
        0
 92
      512
 93
        0
300

 40
0.0
140
1.0
 94
        2
 62
     0
340
55
144
0.18
309
CONTENTFORMAT_END
171
     0
 94
        0
309
TABLEFORMAT_END
  1
CELLSTYLE_BEGIN
 90
        3
 91
        2
300
_DATA
309
CELLSTYLE_END
  0
ENDSEC
  0
EOF
