  0
SECTION
  2
HEADER
  9
$ACADVER
  1
AC1032
  9
$ACADMAINTVER
 90
      228
  9
$DWGCODEPAGE
  3
ANSI_1252
  9
$REQUIREDVERSIONS
160
                 0
  9
$INSBASE
 10
0.0
 20
0.0
 30
0.0
  9
$EXTMIN
 10
1.000000000000000E+20
 20
1.000000000000000E+20
 30
1.000000000000000E+20
  9
$EXTMAX
 10
-1.000000000000000E+20
 20
-1.000000000000000E+20
 30
-1.000000000000000E+20
  9
$LIMMIN
 10
0.0
 20
0.0
  9
$LIMMAX
 10
12.0
 20
9.0
  9
$ORTHOMODE
 70
     0
  9
$REGENMODE
 70
     1
  9
$FILLMODE
 70
     1
  9
$QTEXTMODE
 70
     0
  9
$MIRRTEXT
 70
     0
  9
$LTSCALE
 40
1.0
  9
$ATTMODE
 70
     1
  9
$TEXTSIZE
 40
0.2
  9
$TRACEWID
 40
0.05
  9
$TEXTSTYLE
  7
Standard
  9
$CLAYER
  8
0
  9
$CELTYPE
  6
ByLayer
  9
$CECOLOR
 62
   256
  9
$CELTSCALE
 40
1.0
  9
$DISPSILH
 70
     0
  9
$DIMSCALE
 40
1.0
  9
$DIMASZ
 40
0.18
  9
$DIMEXO
 40
0.0625
  9
$DIMDLI
 40
0.38
  9
$DIMRND
 40
0.0
  9
$DIMDLE
 40
0.0
  9
$DIMEXE
 40
0.18
  9
$DIMTP
 40
0.0
  9
$DIMTM
 40
0.0
  9
$DIMTXT
 40
0.18
  9
$DIMCEN
 40
0.09
  9
$DIMTSZ
 40
0.0
  9
$DIMTOL
 70
     0
  9
$DIMLIM
 70
     0
  9
$DIMTIH
 70
     1
  9
$DIMTOH
 70
     1
  9
$DIMSE1
 70
     0
  9
$DIMSE2
 70
     0
  9
$DIMTAD
 70
     0
  9
$DIMZIN
 70
     0
  9
$DIMBLK
  1

  9
$DIMASO
 70
     1
  9
$DIMSHO
 70
     1
  9
$DIMPOST
  1

  9
$DIMAPOST
  1

  9
$DIMALT
 70
     0
  9
$DIMALTD
 70
     2
  9
$DIMALTF
 40
25.4
  9
$DIMLFAC
 40
1.0
  9
$DIMTOFL
 70
     0
  9
$DIMTVP
 40
0.0
  9
$DIMTIX
 70
     0
  9
$DIMSOXD
 70
     0
  9
$DIMSAH
 70
     0
  9
$DIMBLK1
  1

  9
$DIMBLK2
  1

  9
$DIMSTYLE
  2
Standard
  9
$DIMCLRD
 70
     0
  9
$DIMCLRE
 70
     0
  9
$DIMCLRT
 70
     0
  9
$DIMTFAC
 40
1.0
  9
$DIMGAP
 40
0.09
  9
$DIMJUST
 70
     0
  9
$DIMSD1
 70
     0
  9
$DIMSD2
 70
     0
  9
$DIMTOLJ
 70
     1
  9
$DIMTZIN
 70
     0
  9
$DIMALTZ
 70
     0
  9
$DIMALTTZ
 70
     0
  9
$DIMUPT
 70
     0
  9
$DIMDEC
 70
     4
  9
$DIMTDEC
 70
     4
  9
$DIMALTU
 70
     2
  9
$DIMALTTD
 70
     2
  9
$DIMTXSTY
  7
Standard
  9
$DIMAUNIT
 70
     0
  9
$DIMADEC
 70
     0
  9
$DIMALTRND
 40
0.0
  9
$DIMAZIN
 70
     0
  9
$DIMDSEP
 70
    46
  9
$DIMATFIT
 70
     3
  9
$DIMFRAC
 70
     0
  9
$DIMLDRBLK
  1

  9
$DIMLUNIT
 70
     2
  9
$DIMLWD
 70
    -2
  9
$DIMLWE
 70
    -2
  9
$DIMTMOVE
 70
     0
  9
$DIMFXL
 40
1.0
  9
$DIMFXLON
 70
     0
  9
$DIMJOGANG
 40
0.7853981633974483
  9
$DIMTFILL
 70
     0
  9
$DIMTFILLCLR
 70
     0
  9
$DIMARCSYM
 70
     0
  9
$DIMLTYPE
  6

  9
$DIMLTEX1
  6

  9
$DIMLTEX2
  6

  9
$DIMTXTDIRECTION
 70
     0
  9
$LUNITS
 70
     2
  9
$LUPREC
 70
     4
  9
$SKETCHINC
 40
0.1
  9
$FILLETRAD
 40
0.0
  9
$AUNITS
 70
     0
  9
$AUPREC
 70
     0
  9
$MENU
  1
.
  9
$ELEVATION
 40
0.0
  9
$PELEVATION
 40
0.0
  9
$THICKNESS
 40
0.0
  9
$LIMCHECK
 70
     0
  9
$CHAMFERA
 40
0.0
  9
$CHAMFERB
 40
0.0
  9
$CHAMFERC
 40
0.0
  9
$CHAMFERD
 40
0.0
  9
$SKPOLY
 70
     0
  9
$TDCREATE
 40
2460332.743761574
  9
$TDUCREATE
 40
2460333.077094908
  9
$TDUPDATE
 40
2460332.743761574
  9
$TDUUPDATE
 40
2460333.077094908
  9
$TDINDWG
 40
0.0000000000
  9
$TDUSRTIMER
 40
0.0000000000
  9
$USRTIMER
 70
     1
  9
$ANGBASE
 50
0.0
  9
$ANGDIR
 70
     0
  9
$PDMODE
 70
     0
  9
$PDSIZE
 40
0.0
  9
$PLINEWID
 40
0.0
  9
$SPLFRAME
 70
     0
  9
$SPLINETYPE
 70
     6
  9
$SPLINESEGS
 70
     8
  9
$HANDSEED
  5
D3
  9
$SURFTAB1
 70
     6
  9
$SURFTAB2
 70
     6
  9
$SURFTYPE
 70
     6
  9
$SURFU
 70
     6
  9
$SURFV
 70
     6
  9
$UCSBASE
  2

  9
$UCSNAME
  2

  9
$UCSORG
 10
0.0
 20
0.0
 30
0.0
  9
$UCSXDIR
 10
1.0
 20
0.0
 30
0.0
  9
$UCSYDIR
 10
0.0
 20
1.0
 30
0.0
  9
$UCSORTHOREF
  2

  9
$UCSORTHOVIEW
 70
     0
  9
$UCSORGTOP
 10
0.0
 20
0.0
 30
0.0
  9
$UCSORGBOTTOM
 10
0.0
 20
0.0
 30
0.0
  9
$UCSORGLEFT
 10
0.0
 20
0.0
 30
0.0
  9
$UCSORGRIGHT
 10
0.0
 20
0.0
 30
0.0
  9
$UCSORGFRONT
 10
0.0
 20
0.0
 30
0.0
  9
$UCSORGBACK
 10
0.0
 20
0.0
 30
0.0
  9
$PUCSBASE
  2

  9
$PUCSNAME
  2

  9
$PUCSORG
 10
0.0
 20
0.0
 30
0.0
  9
$PUCSXDIR
 10
1.0
 20
0.0
 30
0.0
  9
$PUCSYDIR
 10
0.0
 20
1.0
 30
0.0
  9
$PUCSORTHOREF
  2

  9
$PUCSORTHOVIEW
 70
     0
  9
$PUCSORGTOP
 10
0.0
 20
0.0
 30
0.0
  9
$PUCSORGBOTTOM
 10
0.0
 20
0.0
 30
0.0
  9
$PUCSORGLEFT
 10
0.0
 20
0.0
 30
0.0
  9
$PUCSORGRIGHT
 10
0.0
 20
0.0
 30
0.0
  9
$PUCSORGFRONT
 10
0.0
 20
0.0
 30
0.0
  9
$PUCSORGBACK
 10
0.0
 20
0.0
 30
0.0
  9
$USERI1
 70
     0
  9
$USERI2
 70
     0
  9
$USERI3
 70
     0
  9
$USERI4
 70
     0
  9
$USERI5
 70
     0
  9
$USERR1
 40
0.0
  9
$USERR2
 40
0.0
  9
$USERR3
 40
0.0
  9
$USERR4
 40
0.0
  9
$USERR5
 40
0.0
  9
$WORLDVIEW
 70
     1
  9
$SHADEDGE
 70
     3
  9
$SHADEDIF
 70
    70
  9
$TILEMODE
 70
     1
  9
$MAXACTVP
 70
    64
  9
$PINSBASE
 10
0.0
 20
0.0
 30
0.0
  9
$PLIMCHECK
 70
     0
  9
$PEXTMIN
 10
1.000000000000000E+20
 20
1.000000000000000E+20
 30
1.000000000000000E+20
  9
$PEXTMAX
 10
-1.000000000000000E+20
 20
-1.000000000000000E+20
 30
-1.000000000000000E+20
  9
$PLIMMIN
 10
0.0
 20
0.0
  9
$PLIMMAX
 10
12.0
 20
9.0
  9
$UNITMODE
 70
     0
  9
$VISRETAIN
 70
     1
  9
$PLINEGEN
 70
     0
  9
$PSLTSCALE
 70
     1
  9
$TREEDEPTH
 70
  3020
  9
$CMLSTYLE
  2
Standard
  9
$CMLJUST
 70
     0
  9
$CMLSCALE
 40
1.0
  9
$PROXYGRAPHICS
 70
     1
  9
$MEASUREMENT
 70
     0
  9
$CELWEIGHT
370
    -1
  9
$ENDCAPS
280
     0
  9
$JOINSTYLE
280
     0
  9
$LWDISPLAY
290
     1
  9
$INSUNITS
 70
     1
  9
$HYPERLINKBASE
  1

  9
$STYLESHEET
  1

  9
$XEDIT
290
     1
  9
$CEPSNTYPE
380
     0
  9
$PSTYLEMODE
290
     1
  9
$FINGERPRINTGUID
  2
{DF53994B-BE08-7646-B913-9C7648A978E4}
  9
$VERSIONGUID
  2
{2B7AE691-C693-ED4E-B5BA-2CC085A7EAB5}
  9
$EXTNAMES
290
     1
  9
$PSVPSCALE
 40
0.0
  9
$OLESTARTUP
290
     0
  9
$SORTENTS
280
   127
  9
$INDEXCTL
280
     0
  9
$HIDETEXT
280
     1
  9
$XCLIPFRAME
280
     2
  9
$HALOGAP
280
     0
  9
$OBSCOLOR
 70
   257
  9
$OBSLTYPE
280
     0
  9
$INTERSECTIONDISPLAY
280
     0
  9
$INTERSECTIONCOLOR
 70
   257
  9
$DIMASSOC
280
     2
  9
$PROJECTNAME
  1

  9
$CAMERADISPLAY
290
     0
  9
$LENSLENGTH
 40
50.0
  9
$CAMERAHEIGHT
 40
0.0
  9
$STEPSPERSEC
 40
2.0
  9
$STEPSIZE
 40
6.0
  9
$3DDWFPREC
 40
2.0
  9
$PSOLWIDTH
 40
0.25
  9
$PSOLHEIGHT
 40
4.0
  9
$LOFTANG1
 40
1.570796326794896
  9
$LOFTANG2
 40
1.570796326794896
  9
$LOFTMAG1
 40
0.0
  9
$LOFTMAG2
 40
0.0
  9
$LOFTPARAM
 70
     7
  9
$LOFTNORMALS
280
     1
  9
$LATITUDE
 40
37.795
  9
$LONGITUDE
 40
-122.394
  9
$NORTHDIRECTION
 40
0.0
  9
$TIMEZONE
 70
 -8000
  9
$LIGHTGLYPHDISPLAY
280
     1
  9
$TILEMODELIGHTSYNCH
280
     1
  9
$CMATERIAL
347
11
  9
$SOLIDHIST
280
     0
  9
$SHOWHIST
280
     1
  9
$DWFFRAME
280
     2
  9
$DGNFRAME
280
     0
  9
$REALWORLDSCALE
290
     1
  9
$INTERFERECOLOR
 62
     1
  9
$INTERFEREOBJVS
345
33
  9
$INTERFEREVPVS
346
30
  9
$CSHADOW
280
     0
  9
$SHADOWPLANELOCATION
 40
0.0
  0
ENDSEC
  0
SECTION
  2
CLASSES
  0
CLASS
  1
ACDBDICTIONARYWDFLT
  2
AcDbDictionaryWithDefault
  3
ObjectDBX Classes
 90
        0
 91
        1
280
     0
281
     0
  0
CLASS
  1
MATERIAL
  2
AcDbMaterial
  3
ObjectDBX Classes
 90
     1153
 91
        3
280
     0
281
     0
  0
CLASS
  1
VISUALSTYLE
  2
AcDbVisualStyle
  3
ObjectDBX Classes
 90
     4095
 91
       24
280
     0
281
     0
  0
CLASS
  1
SCALE
  2
AcDbScale
  3
ObjectDBX Classes
 90
     1153
 91
       17
280
     0
281
     0
  0
CLASS
  1
TABLESTYLE
  2
AcDbTableStyle
  3
ObjectDBX Classes
 90
     4095
 91
        1
280
     0
281
     0
  0
CLASS
  1
MLEADERSTYLE
  2
AcDbMLeaderStyle
  3
ACDB_MLEADERSTYLE_CLASS
 90
     4095
 91
        1
280
     0
281
     0
  0
CLASS
  1
ACDBSECTIONVIEWSTYLE
  2
AcDbSectionViewStyle
  3
ObjectDBX Classes
 90
     1025
 91
        1
280
     0
281
     0
  0
CLASS
  1
ACDBDETAILVIEWSTYLE
  2
AcDbDetailViewStyle
  3
ObjectDBX Classes
 90
     1025
 91
        1
280
     0
281
     0
  0
CLASS
  1
DICTIONARYVAR
  2
AcDbDictionaryVar
  3
ObjectDBX Classes
 90
        0
 91
        5
280
     0
281
     0
  0
CLASS
  1
CELLSTYLEMAP
  2
AcDbCellStyleMap
  3
ObjectDBX Classes
 90
     1152
 91
        1
280
     0
281
     0
  0
ENDSEC
  0
SECTION
  2
TABLES
  0
TABLE
  2
VPORT
  5
8
330
0
100
AcDbSymbolTable
 70
     1
  0
VPORT
  5
57
330
8
100
AcDbSymbolTableRecord
100
AcDbViewportTableRecord
  2
*Active
 70
     0
 10
0.0
 20
0.0
 11
1.0
 21
1.0
 12
0.0
 22
0.0
 13
0.0
 23
0.0
 14
1.0
 24
1.0
 15
0.0
 25
0.0
 16
0.0
 26
0.0
 36
1.0
 17
2.099759910531626
 27
-8.781748809255102
 37
0.0
 40
20.29674592374499
 41
0.7685943439802071
 42
50.0
 43
0.0
 44
0.0
 50
0.0
 51
0.0
 71
     0
 72
   100
 73
     1
 74
     1
 75
     0
 76
     0
 77
     0
 78
     0
281
     0
 65
     1
110
0.0
120
0.0
130
0.0
111
1.0
121
0.0
131
0.0
112
0.0
122
1.0
132
0.0
 79
     0
146
0.0
 60
     3
 61
     5
292
     1
282
     1
141
0.0
142
0.0
 63
   250
421
  3355443
  0
ENDTAB
  0
TABLE
  2
LTYPE
  5
5
330
0
100
AcDbSymbolTable
 70
     1
  0
LTYPE
  5
5B
330
5
100
AcDbSymbolTableRecord
100
AcDbLinetypeTableRecord
  2
ByBlock
 70
     0
  3

 72
    65
 73
     0
 40
0.0
  0
LTYPE
  5
5C
330
5
100
AcDbSymbolTableRecord
100
AcDbLinetypeTableRecord
  2
ByLayer
 70
     0
  3

 72
    65
 73
     0
 40
0.0
  0
LTYPE
  5
5D
330
5
100
AcDbSymbolTableRecord
100
AcDbLinetypeTableRecord
  2
Continuous
 70
     0
  3
Solid line
 72
    65
 73
     0
 40
0.0
  0
ENDTAB
  0
TABLE
  2
LAYER
  5
2
330
0
100
AcDbSymbolTable
 70
     4
  0
LAYER
  5
54
330
2
100
AcDbSymbolTableRecord
100
AcDbLayerTableRecord
  2
0
 70
     0
 62
     7
  6
Continuous
370
    -3
390
F
347
21
348
0
  0
LAYER
  5
78
330
2
100
AcDbSymbolTableRecord
100
AcDbLayerTableRecord
  2
Layer 2
 70
     0
 62
     7
  6
Continuous
370
     0
390
F
347
21
348
0
  0
LAYER
  5
7A
330
2
100
AcDbSymbolTableRecord
100
AcDbLayerTableRecord
  2
Whitebeard
 70
     1
 62
     7
  6
Continuous
370
     0
390
F
347
21
348
0
  0
LAYER
  5
7B
330
2
100
AcDbSymbolTableRecord
100
AcDbLayerTableRecord
  2
Layer 3
 70
     0
 62
     7
  6
Continuous
370
     0
390
F
347
21
348
0
  0
ENDTAB
  0
TABLE
  2
STYLE
  5
3
330
0
100
AcDbSymbolTable
 70
     2
  0
STYLE
  5
55
330
3
100
AcDbSymbolTableRecord
100
AcDbTextStyleTableRecord
  2
Standard
 70
     0
 40
0.0
 41
1.0
 50
0.0
 71
     0
 42
0.2
  3
txt
  4

  0
STYLE
  5
5A
330
3
100
AcDbSymbolTableRecord
100
AcDbTextStyleTableRecord
  2
Annotative
 70
     0
 40
0.0
 41
1.0
 50
0.0
 71
     0
 42
0.2
  3
txt
  4

1001
AcadAnnotative
1000
AnnotativeData
1002
{
1070
     1
1070
     1
1002
}
  0
ENDTAB
  0
TABLE
  2
VIEW
  5
6
330
0
100
AcDbSymbolTable
 70
     0
  0
ENDTAB
  0
TABLE
  2
UCS
  5
7
330
0
100
AcDbSymbolTable
 70
     0
  0
ENDTAB
  0
TABLE
  2
APPID
  5
9
330
0
100
AcDbSymbolTable
 70
     2
  0
APPID
  5
56
330
9
100
AcDbSymbolTableRecord
100
AcDbRegAppTableRecord
  2
ACAD
 70
     0
  0
APPID
  5
5E
330
9
100
AcDbSymbolTableRecord
100
AcDbRegAppTableRecord
  2
AcadAnnotative
 70
     0
  0
ENDTAB
  0
TABLE
  2
DIMSTYLE
  5
A
330
0
100
AcDbSymbolTable
 70
     2
100
AcDbDimStyleTable
 71
     0
  0
DIMSTYLE
105
58
330
A
100
AcDbSymbolTableRecord
100
AcDbDimStyleTableRecord
  2
Standard
 70
     0
340
55
  0
DIMSTYLE
105
59
330
A
100
AcDbSymbolTableRecord
100
AcDbDimStyleTableRecord
  2
Annotative
 70
     0
340
55
1001
AcadAnnotative
1000
AnnotativeData
1002
{
1070
     1
1070
     1
1002
}
  0
ENDTAB
  0
TABLE
  2
BLOCK_RECORD
  5
1
330
0
100
AcDbSymbolTable
 70
     2
  0
BLOCK_RECORD
  5
70
330
1
100
AcDbSymbolTableRecord
100
AcDbBlockTableRecord
  2
*Model_Space
340
73
 70
     0
280
     1
281
     0
  0
BLOCK_RECORD
  5
6C
330
1
100
AcDbSymbolTableRecord
100
AcDbBlockTableRecord
  2
*Paper_Space
340
6F
 70
     0
280
     1
281
     0
  0
BLOCK_RECORD
  5
74
330
1
100
AcDbSymbolTableRecord
100
AcDbBlockTableRecord
  2
*Paper_Space0
340
77
 70
     0
280
     1
281
     0
  0
BLOCK_RECORD
  5
7C
330
1
100
AcDbSymbolTableRecord
100
AcDbBlockTableRecord
  2
Block_0
340
0
102
{BLKREFS
331
7D
102
}
 70
     0
280
     1
281
     0
  0
ENDTAB
  0
ENDSEC
  0
SECTION
  2
BLOCKS
  0
BLOCK
  5
71
330
70
100
AcDbEntity
  8
0
100
AcDbBlockBegin
  2
*Model_Space
 70
     0
 10
0.0
 20
0.0
 30
0.0
  3
*Model_Space
  1

  0
ENDBLK
  5
72
330
70
100
AcDbEntity
  8
0
100
AcDbBlockEnd
  0
BLOCK
  5
6D
330
6C
100
AcDbEntity
 67
     1
  8
0
100
AcDbBlockBegin
  2
*Paper_Space
 70
     0
 10
0.0
 20
0.0
 30
0.0
  3
*Paper_Space
  1

  0
ENDBLK
  5
6E
330
6C
100
AcDbEntity
 67
     1
  8
0
100
AcDbBlockEnd
  0
BLOCK
  5
75
330
74
100
AcDbEntity
 67
     1
  8
0
100
AcDbBlockBegin
  2
*Paper_Space0
 70
     0
 10
0.0
 20
0.0
 30
0.0
  3
*Paper_Space0
  1

  0
ENDBLK
  5
76
330
74
100
AcDbEntity
 67
     1
  8
0
100
AcDbBlockEnd
  0
BLOCK
  5
7E
330
7C
100
AcDbEntity
  8
0
100
AcDbBlockBegin
  2
Block_0
 70
     0
 10
0.0
 20
0.0
 30
0.0
  3
Block_0
  1

  0
SPLINE
  5
80
330
7C
100
AcDbEntity
  8
Layer 3
100
AcDbSpline
210
0.0
220
0.0
230
1.0
 70
     9
 71
     3
 72
    20
 73
    16
 74
     0
 42
0.0000000001
 43
0.0000000001
 40
0.0
 40
0.0
 40
0.0
 40
0.0
 40
1.0
 40
1.0
 40
1.0
 40
2.0
 40
2.0
 40
2.0
 40
3.0
 40
3.0
 40
3.0
 40
4.0
 40
4.0
 40
4.0
 40
5.0
 40
5.0
 40
5.0
 40
5.0
 10
4.429381701680363
 20
-9.588462851693646
 30
0.0
 10
4.490051330663795
 20
-9.591725382891327
 30
0.0
 10
4.551386217167014
 20
-9.606814463617411
 30
0.0
 10
4.577879762884145
 20
-9.655363868855298
 30
0.0
 10
4.525298890340106
 20
-9.626792561984631
 30
0.0
 10
4.463604094419224
 20
-9.582922208031757
 30
0.0
 10
4.399246460124686
 20
-9.605731580885477
 30
0.0
 10
4.421480148785525
 20
-9.623249482484981
 30
0.0
 10
4.4580856778313
 20
-9.62388152905881
 30
0.0
 10
4.47599160877553
 20
-9.645340088982822
 30
0.0
 10
4.404086032070861
 20
-9.623723203033932
 30
0.0
 10
4.350746741269505
 20
-9.6006360684925
 30
0.0
 10
4.274360064819398
 20
-9.629283888320312
 30
0.0
 10
4.307574517439206
 20
-9.593868874021406
 30
0.0
 10
4.385614350278223
 20
-9.60344103817518
 30
0.0
 10
4.429381701680363
 20
-9.588462851693646
 30
0.0
  0
HATCH
  5
81
330
7C
100
AcDbEntity
  8
Layer 3
 62
    18
420
        0
440
 33554687
100
AcDbHatch
 10
0.0
 20
0.0
 30
0.0
210
0.0
220
0.0
230
1.0
  2
SOLID
 70
     1
 71
     1
 91
        1
 92
        1
 93
        1
 72
     4
 94
        3
 73
     0
 74
     0
 95
       20
 96
       16
 40
0.0
 40
0.0
 40
0.0
 40
0.0
 40
1.0
 40
1.0
 40
1.0
 40
2.0
 40
2.0
 40
2.0
 40
3.0
 40
3.0
 40
3.0
 40
4.0
 40
4.0
 40
4.0
 40
5.0
 40
5.0
 40
5.0
 40
5.0
 10
4.429381701680363
 20
-9.588462851693646
 10
4.490051330663795
 20
-9.591725382891327
 10
4.551386217167014
 20
-9.606814463617411
 10
4.577879762884145
 20
-9.655363868855298
 10
4.525298890340106
 20
-9.626792561984631
 10
4.463604094419224
 20
-9.582922208031757
 10
4.399246460124686
 20
-9.605731580885477
 10
4.421480148785525
 20
-9.623249482484981
 10
4.4580856778313
 20
-9.62388152905881
 10
4.47599160877553
 20
-9.645340088982822
 10
4.404086032070861
 20
-9.623723203033932
 10
4.350746741269505
 20
-9.6006360684925
 10
4.274360064819398
 20
-9.629283888320312
 10
4.307574517439206
 20
-9.593868874021406
 10
4.385614350278223
 20
-9.60344103817518
 10
4.429381701680363
 20
-9.588462851693646
 97
        0
 97
        1
330
80
 75
     2
 76
     1
 98
        1
 10
0.0
 20
0.0
450
        0
451
        0
460
0.0
461
0.0
452
        0
462
0.0
453
        0
470

  0
SPLINE
  5
82
330
7C
100
AcDbEntity
  8
Layer 3
100
AcDbSpline
210
0.0
220
0.0
230
1.0
 70
     9
 71
     3
 72
    20
 73
    16
 74
     0
 42
0.0000000001
 43
0.0000000001
 40
0.0
 40
0.0
 40
0.0
 40
0.0
 40
1.0
 40
1.0
 40
1.0
 40
2.0
 40
2.0
 40
2.0
 40
3.0
 40
3.0
 40
3.0
 40
4.0
 40
4.0
 40
4.0
 40
5.0
 40
5.0
 40
5.0
 40
5.0
 10
4.368751321674229
 20
-9.498470509170196
 30
0.0
 10
4.376417363526747
 20
-9.497993881891336
 30
0.0
 10
4.3834574436325
 20
-9.497199209949231
 30
0.0
 10
4.388343776778709
 20
-9.504237846749976
 30
0.0
 10
4.340831001682949
 20
-9.521108550470772
 30
0.0
 10
4.287615861572652
 20
-9.531019780093275
 30
0.0
 10
4.245062133938782
 20
-9.563431275367797
 30
0.0
 10
4.239229516205897
 20
-9.567948326375244
 30
0.0
 10
4.233424995006329
 20
-9.570709716745163
 30
0.0
 10
4.225952747299313
 20
-9.568901952723232
 30
0.0
 10
4.254078045117327
 20
-9.525096997477399
 30
0.0
 10
4.316975414595061
 20
-9.501120332900729
 30
0.0
 10
4.368750926617268
 20
-9.498344535386724
 30
0.0
 10
4.368751025381495
 20
-9.498386510187224
 30
0.0
 10
4.368751222909976
 20
-9.498428534369748
 30
0.0
 10
4.368751321674229
 20
-9.498470509170196
 30
0.0
  0
HATCH
  5
83
330
7C
100
AcDbEntity
  8
Layer 3
 62
    18
420
        0
440
 33554687
100
AcDbHatch
 10
0.0
 20
0.0
 30
0.0
210
0.0
220
0.0
230
1.0
  2
SOLID
 70
     1
 71
     1
 91
        1
 92
        1
 93
        1
 72
     4
 94
        3
 73
     0
 74
     0
 95
       20
 96
       16
 40
0.0
 40
0.0
 40
0.0
 40
0.0
 40
1.0
 40
1.0
 40
1.0
 40
2.0
 40
2.0
 40
2.0
 40
3.0
 40
3.0
 40
3.0
 40
4.0
 40
4.0
 40
4.0
 40
5.0
 40
5.0
 40
5.0
 40
5.0
 10
4.368751321674229
 20
-9.498470509170196
 10
4.376417363526747
 20
-9.497993881891336
 10
4.3834574436325
 20
-9.497199209949231
 10
4.388343776778709
 20
-9.504237846749976
 10
4.340831001682949
 20
-9.521108550470772
 10
4.287615861572652
 20
-9.531019780093275
 10
4.245062133938782
 20
-9.563431275367797
 10
4.239229516205897
 20
-9.567948326375244
 10
4.233424995006329
 20
-9.570709716745163
 10
4.225952747299313
 20
-9.568901952723232
 10
4.254078045117327
 20
-9.525096997477399
 10
4.316975414595061
 20
-9.501120332900729
 10
4.368750926617268
 20
-9.498344535386724
 10
4.368751025381495
 20
-9.498386510187224
 10
4.368751222909976
 20
-9.498428534369748
 10
4.368751321674229
 20
-9.498470509170196
 97
        0
 97
        1
330
82
 75
     2
 76
     1
 98
        1
 10
0.0
 20
0.0
450
        0
451
        0
460
0.0
461
0.0
452
        0
462
0.0
453
        0
470

  0
SPLINE
  5
84
330
7C
100
AcDbEntity
  8
Layer 3
100
AcDbSpline
210
0.0
220
0.0
230
1.0
 70
     9
 71
     3
 72
    11
 73
     7
 74
     0
 42
0.0000000001
 43
0.0000000001
 40
0.0
 40
0.0
 40
0.0
 40
0.0
 40
1.0
 40
1.0
 40
1.0
 40
2.0
 40
2.0
 40
2.0
 40
2.0
 10
5.077453006855042
 20
-11.02674770513941
 30
0.0
 10
5.077203779967021
 20
-10.9874385213829
 30
0.0
 10
5.137382748608514
 20
-10.98779710292587
 30
0.0
 10
5.138132972404087
 20
-11.02637216938638
 30
0.0
 10
5.137124196904955
 20
-11.06520493983993
 30
0.0
 10
5.078620304218323
 20
-11.06620099968151
 30
0.0
 10
5.077453006855042
 20
-11.02674770513941
 30
0.0
  0
SPLINE
  5
85
330
7C
100
AcDbEntity
  8
Layer 3
100
AcDbSpline
210
0.0
220
0.0
230
1.0
 70
     9
 71
     3
 72
    74
 73
    70
 74
     0
 42
0.0000000001
 43
0.0000000001
 40
0.0
 40
0.0
 40
0.0
 40
0.0
 40
1.0
 40
1.0
 40
1.0
 40
2.0
 40
2.0
 40
2.0
 40
3.0
 40
3.0
 40
3.0
 40
4.0
 40
4.0
 40
4.0
 40
5.0
 40
5.0
 40
5.0
 40
6.0
 40
6.0
 40
6.0
 40
7.0
 40
7.0
 40
7.0
 40
8.0
 40
8.0
 40
8.0
 40
9.0
 40
9.0
 40
9.0
 40
10.0
 40
10.0
 40
10.0
 40
11.0
 40
11.0
 40
11.0
 40
12.0
 40
12.0
 40
12.0
 40
13.0
 40
13.0
 40
13.0
 40
14.0
 40
14.0
 40
14.0
 40
15.0
 40
15.0
 40
15.0
 40
16.0
 40
16.0
 40
16.0
 40
17.0
 40
17.0
 40
17.0
 40
18.0
 40
18.0
 40
18.0
 40
19.0
 40
19.0
 40
19.0
 40
20.0
 40
20.0
 40
20.0
 40
21.0
 40
21.0
 40
21.0
 40
22.0
 40
22.0
 40
22.0
 40
23.0
 40
23.0
 40
23.0
 40
23.0
 10
4.748017446416674
 20
-10.38783084180391
 30
0.0
 10
4.764534237866326
 20
-10.35973686800834
 30
0.0
 10
4.764482527525615
 20
-10.32857418219019
 30
0.0
 10
4.757151527091587
 20
-10.29751237392196
 30
0.0
 10
4.748103912888027
 20
-10.25857787820799
 30
0.0
 10
4.727544390047316
 20
-10.22263834370278
 30
0.0
 10
4.691775245353306
 20
-10.20233398172361
 30
0.0
 10
4.686384654261726
 20
-10.19934919304089
 30
0.0
 10
4.685683597675354
 20
-10.1956896267974
 30
0.0
 10
4.688238597132819
 20
-10.19026597499618
 30
0.0
 10
4.699039276657559
 20
-10.17832597255478
 30
0.0
 10
4.700196401494799
 20
-10.1357285197553
 30
0.0
 10
4.72103397338065
 20
-10.14510843647622
 30
0.0
 10
4.781977576896275
 20
-10.17250898307995
 30
0.0
 10
4.829793535555128
 20
-10.22405062940157
 30
0.0
 10
4.884483578686639
 20
-10.25739786518716
 30
0.0
 10
4.85041409355209
 20
-10.20188639057778
 30
0.0
 10
4.780715335956604
 20
-10.16317908127874
 30
0.0
 10
4.724636743020406
 20
-10.12815253098577
 30
0.0
 10
4.709983219257385
 20
-10.10977840582301
 30
0.0
 10
4.733489383808167
 20
-10.06031704107691
 30
0.0
 10
4.739128354077264
 20
-10.03722116840981
 30
0.0
 10
4.782436188278652
 20
-10.14562638759384
 30
0.0
 10
4.906268890915371
 20
-10.18818823655217
 30
0.0
 10
4.965775625127611
 20
-10.28711096604436
 30
0.0
 10
4.997381663539069
 20
-10.34141275776528
 30
0.0
 10
5.050228784036031
 20
-10.42325581603351
 30
0.0
 10
4.997654626321187
 20
-10.47845702859861
 30
0.0
 10
4.953149824888896
 20
-10.39314683437118
 30
0.0
 10
4.899185421948358
 20
-10.28071753342717
 30
0.0
 10
4.796991377623271
 20
-10.25891187614636
 30
0.0
 10
4.803120324563375
 20
-10.27530066330998
 30
0.0
 10
4.83116597886025
 20
-10.27504465473794
 30
0.0
 10
4.832642690557299
 20
-10.29483276102049
 30
0.0
 10
4.834634810240459
 20
-10.42656612554957
 30
0.0
 10
4.918189396015198
 20
-10.58241854932344
 30
0.0
 10
5.063374230813375
 20
-10.58867550054957
 30
0.0
 10
5.073474701462246
 20
-10.58953507900009
 30
0.0
 10
5.075475298250441
 20
-10.59231472174098
 30
0.0
 10
5.071608890644104
 20
-10.60146406120495
 30
0.0
 10
5.061716109068584
 20
-10.62487104362682
 30
0.0
 10
5.058499047707906
 20
-10.62717512077526
 30
0.0
 10
5.032748145743931
 20
-10.62567297776311
 30
0.0
 10
4.900229801288635
 20
-10.60821946620712
 30
0.0
 10
4.836886329337681
 20
-10.46559726026094
 30
0.0
 10
4.792143321253913
 20
-10.35545338683429
 30
0.0
 10
4.789730737161031
 20
-10.3399275689632
 30
0.0
 10
4.772278073315545
 20
-10.34662787278264
 30
0.0
 10
4.779836260164503
 20
-10.35988436963594
 30
0.0
 10
4.824886139450527
 20
-10.47878509256346
 30
0.0
 10
4.894179691425354
 20
-10.63171376281085
 30
0.0
 10
5.038276065937073
 20
-10.64342064486381
 30
0.0
 10
5.048748681496968
 20
-10.64460743956867
 30
0.0
 10
5.050684004576396
 20
-10.64686404492891
 30
0.0
 10
5.045519752189243
 20
-10.65576246208386
 30
0.0
 10
5.032145423575962
 20
-10.66949706766111
 30
0.0
 10
5.023937890481343
 20
-10.71740712218585
 30
0.0
 10
4.999716258265632
 20
-10.70413282341198
 30
0.0
 10
4.9161879515165
 20
-10.64621978494627
 30
0.0
 10
4.844968401277784
 20
-10.56714704460339
 30
0.0
 10
4.79606822088499
 20
-10.47815439594887
 30
0.0
 10
4.79606822088499
 20
-10.47815439594887
 30
0.0
 10
4.793314009459209
 20
-10.47861470275226
 30
0.0
 10
4.793314009459209
 20
-10.47861470275226
 30
0.0
 10
4.737098935131951
 20
-10.68380557324922
 30
0.0
 10
5.061098975822056
 20
-10.78622171772622
 30
0.0
 10
4.936761037725267
 20
-10.79666296799749
 30
0.0
 10
4.808966983905823
 20
-10.70470587571233
 30
0.0
 10
4.689452518573792
 20
-10.55227735466198
 30
0.0
 10
4.748017446416674
 20
-10.38783084180391
 30
0.0
  0
SPLINE
  5
86
330
7C
100
AcDbEntity
  8
Layer 3
100
AcDbSpline
210
0.0
220
0.0
230
1.0
 70
     9
 71
     3
 72
    41
 73
    37
 74
     0
 42
0.0000000001
 43
0.0000000001
 40
0.0
 40
0.0
 40
0.0
 40
0.0
 40
1.0
 40
1.0
 40
1.0
 40
2.0
 40
2.0
 40
2.0
 40
3.0
 40
3.0
 40
3.0
 40
4.0
 40
4.0
 40
4.0
 40
5.0
 40
5.0
 40
5.0
 40
6.0
 40
6.0
 40
6.0
 40
7.0
 40
7.0
 40
7.0
 40
8.0
 40
8.0
 40
8.0
 40
9.0
 40
9.0
 40
9.0
 40
10.0
 40
10.0
 40
10.0
 40
11.0
 40
11.0
 40
11.0
 40
12.0
 40
12.0
 40
12.0
 40
12.0
 10
4.919367713615025
 20
-10.82168060037596
 30
0.0
 10
4.879497345505215
 20
-10.85747687180608
 30
0.0
 10
4.857580638148444
 20
-10.79750728765894
 30
0.0
 10
4.831228709437507
 20
-10.77330684820582
 30
0.0
 10
4.773286848814677
 20
-10.71355936421059
 30
0.0
 10
4.732690840513896
 20
-10.633337128425
 30
0.0
 10
4.681214467901049
 20
-10.57370408534775
 30
0.0
 10
4.680577837312941
 20
-10.59999328348143
 30
0.0
 10
4.70354401027301
 20
-10.62615532503959
 30
0.0
 10
4.714475237215284
 20
-10.65055158561901
 30
0.0
 10
4.743075294181431
 20
-10.70770338005261
 30
0.0
 10
4.724225603426222
 20
-10.78091165913247
 30
0.0
 10
4.784620738246101
 20
-10.82465352111164
 30
0.0
 10
4.797949290492194
 20
-10.83672576639158
 30
0.0
 10
4.797521196687941
 20
-10.83898321946233
 30
0.0
 10
4.785999115524746
 20
-10.85320356315808
 30
0.0
 10
4.754653324237854
 20
-10.88827504210773
 30
0.0
 10
4.67110721556815
 20
-10.72934882004827
 30
0.0
 10
4.661901927210944
 20
-10.70410061041285
 30
0.0
 10
4.66268436400565
 20
-10.80261898199488
 30
0.0
 10
4.690714759513462
 20
-10.89633676899575
 30
0.0
 10
4.774855113246101
 20
-10.95708539909558
 30
0.0
 10
4.676247732061205
 20
-11.00045342074271
 30
0.0
 10
4.63404446464584
 20
-10.84789265685382
 30
0.0
 10
4.609571062410597
 20
-10.77831851270235
 30
0.0
 10
4.643528649758687
 20
-10.70771524799966
 30
0.0
 10
4.668496267217455
 20
-10.62945715745061
 30
0.0
 10
4.663351512171882
 20
-10.54621113829913
 30
0.0
 10
4.665110511466587
 20
-10.52618736849662
 30
0.0
 10
4.659352861727003
 20
-10.50389851622882
 30
0.0
 10
4.666397336010858
 20
-10.48522684467934
 30
0.0
 10
4.721518016078132
 20
-10.59025817605955
 30
0.0
 10
4.788700768899312
 20
-10.69412560091849
 30
0.0
 10
4.880740089103306
 20
-10.7734238322553
 30
0.0
 10
4.889084951299486
 20
-10.78769673400226
 30
0.0
 10
4.937807112486552
 20
-10.80623955355521
 30
0.0
 10
4.919367713615025
 20
-10.82168060037596
 30
0.0
  0
SPLINE
  5
87
330
7C
100
AcDbEntity
  8
Layer 3
100
AcDbSpline
210
0.0
220
0.0
230
1.0
 70
     9
 71
     3
 72
    14
 73
    10
 74
     0
 42
0.0000000001
 43
0.0000000001
 40
0.0
 40
0.0
 40
0.0
 40
0.0
 40
1.0
 40
1.0
 40
1.0
 40
2.0
 40
2.0
 40
2.0
 40
3.0
 40
3.0
 40
3.0
 40
3.0
 10
3.982698469908452
 20
-10.73845153543455
 30
0.0
 10
3.986740353589008
 20
-10.7158812432796
 30
0.0
 10
3.981604075648469
 20
-10.6848508003
 30
0.0
 10
3.992578535826421
 20
-10.66207705762422
 30
0.0
 10
4.012173364114182
 20
-10.69086954487466
 30
0.0
 10
4.016628082809928
 20
-10.74470509581867
 30
0.0
 10
3.985008481030414
 20
-10.76641496181259
 30
0.0
 10
3.980780948749598
 20
-10.75725629753307
 30
0.0
 10
3.983271522208799
 20
-10.75054073492457
 30
0.0
 10
3.982698469908452
 20
-10.73845153543455
 30
0.0
  0
SPLINE
  5
88
330
7C
100
AcDbEntity
  8
Layer 3
100
AcDbSpline
210
0.0
220
0.0
230
1.0
 70
     9
 71
     3
 72
   176
 73
   172
 74
     0
 42
0.0000000001
 43
0.0000000001
 40
0.0
 40
0.0
 40
0.0
 40
0.0
 40
1.0
 40
1.0
 40
1.0
 40
2.0
 40
2.0
 40
2.0
 40
3.0
 40
3.0
 40
3.0
 40
4.0
 40
4.0
 40
4.0
 40
5.0
 40
5.0
 40
5.0
 40
6.0
 40
6.0
 40
6.0
 40
7.0
 40
7.0
 40
7.0
 40
8.0
 40
8.0
 40
8.0
 40
9.0
 40
9.0
 40
9.0
 40
10.0
 40
10.0
 40
10.0
 40
11.0
 40
11.0
 40
11.0
 40
12.0
 40
12.0
 40
12.0
 40
13.0
 40
13.0
 40
13.0
 40
14.0
 40
14.0
 40
14.0
 40
15.0
 40
15.0
 40
15.0
 40
16.0
 40
16.0
 40
16.0
 40
17.0
 40
17.0
 40
17.0
 40
18.0
 40
18.0
 40
18.0
 40
19.0
 40
19.0
 40
19.0
 40
20.0
 40
20.0
 40
20.0
 40
21.0
 40
21.0
 40
21.0
 40
22.0
 40
22.0
 40
22.0
 40
23.0
 40
23.0
 40
23.0
 40
24.0
 40
24.0
 40
24.0
 40
25.0
 40
25.0
 40
25.0
 40
26.0
 40
26.0
 40
26.0
 40
27.0
 40
27.0
 40
27.0
 40
28.0
 40
28.0
 40
28.0
 40
29.0
 40
29.0
 40
29.0
 40
30.0
 40
30.0
 40
30.0
 40
31.0
 40
31.0
 40
31.0
 40
32.0
 40
32.0
 40
32.0
 40
33.0
 40
33.0
 40
33.0
 40
34.0
 40
34.0
 40
34.0
 40
35.0
 40
35.0
 40
35.0
 40
36.0
 40
36.0
 40
36.0
 40
37.0
 40
37.0
 40
37.0
 40
38.0
 40
38.0
 40
38.0
 40
39.0
 40
39.0
 40
39.0
 40
40.0
 40
40.0
 40
40.0
 40
41.0
 40
41.0
 40
41.0
 40
42.0
 40
42.0
 40
42.0
 40
43.0
 40
43.0
 40
43.0
 40
44.0
 40
44.0
 40
44.0
 40
45.0
 40
45.0
 40
45.0
 40
46.0
 40
46.0
 40
46.0
 40
47.0
 40
47.0
 40
47.0
 40
48.0
 40
48.0
 40
48.0
 40
49.0
 40
49.0
 40
49.0
 40
50.0
 40
50.0
 40
50.0
 40
51.0
 40
51.0
 40
51.0
 40
52.0
 40
52.0
 40
52.0
 40
53.0
 40
53.0
 40
53.0
 40
54.0
 40
54.0
 40
54.0
 40
55.0
 40
55.0
 40
55.0
 40
56.0
 40
56.0
 40
56.0
 40
57.0
 40
57.0
 40
57.0
 40
57.0
 10
4.540469093009556
 20
-11.03332085238334
 30
0.0
 10
4.56934719902084
 20
-11.06673929585122
 30
0.0
 10
4.557532657733948
 20
-11.18403530279566
 30
0.0
 10
4.520977685403218
 20
-11.09224266634818
 30
0.0
 10
4.505675663105042
 20
-11.07532490783039
 30
0.0
 10
4.464565094528652
 20
-11.1152936103586
 30
0.0
 10
4.441587901332064
 20
-11.10705810281736
 30
0.0
 10
4.492614987378045
 20
-11.02610429286728
 30
0.0
 10
4.463057865253479
 20
-10.99615044222709
 30
0.0
 10
4.389058672273904
 20
-10.95209153651962
 30
0.0
 10
4.281509640698383
 20
-10.83167256408039
 30
0.0
 10
4.556888397751309
 20
-10.73029910352266
 30
0.0
 10
4.558806766620667
 20
-10.60089863829913
 30
0.0
 10
4.584508501375441
 20
-10.49226962354219
 30
0.0
 10
4.576145837258687
 20
-10.37916045877439
 30
0.0
 10
4.576645138745233
 20
-10.26841810173229
 30
0.0
 10
4.560670882017802
 20
-10.09238932026528
 30
0.0
 10
4.570296634784729
 20
-9.854937131137678
 30
0.0
 10
4.424480255661491
 20
-9.735709191955821
 30
0.0
 10
4.468297563875441
 20
-9.798655087680646
 30
0.0
 10
4.521136207267368
 20
-9.875093143778737
 30
0.0
 10
4.525991893031257
 20
-9.957774587734901
 30
0.0
 10
4.457991947284729
 20
-9.894521820807817
 30
0.0
 10
4.418380130878505
 20
-9.800882023173269
 30
0.0
 10
4.363856239005674
 20
-9.728480764492713
 30
0.0
 10
4.391598412942307
 20
-9.817451372674137
 30
0.0
 10
4.462543304977871
 20
-9.902008799974483
 30
0.0
 10
4.516703529044712
 20
-9.980107520948877
 30
0.0
 10
4.468524750290371
 20
-9.960820411573877
 30
0.0
 10
4.440458750941439
 20
-9.916124875278303
 30
0.0
 10
4.41633545314413
 20
-9.872415226298269
 30
0.0
 10
4.416588070874164
 20
-9.918954532938894
 30
0.0
 10
4.456921288918843
 20
-9.948883799974483
 30
0.0
 10
4.481699866935337
 20
-9.982340390415021
 30
0.0
 10
4.418719215079893
 20
-9.989435727329084
 30
0.0
 10
4.386073883591178
 20
-9.924389204976653
 30
0.0
 10
4.350529382180588
 20
-9.887948673563894
 30
0.0
 10
4.351314362106803
 20
-9.925435279737939
 30
0.0
 10
4.391444977341178
 20
-9.951991506680213
 30
0.0
 10
4.413120087204459
 20
-9.979393748704952
 30
0.0
 10
4.300296600876334
 20
-9.982265791890716
 30
0.0
 10
4.278912255715744
 20
-9.843456587789153
 30
0.0
 10
4.245497203089876
 20
-9.769454851678043
 30
0.0
 10
4.238322181388487
 20
-9.769618459805213
 30
0.0
 10
4.237617733960101
 20
-9.775752493008338
 30
0.0
 10
4.23736342080906
 20
-9.781304996806081
 30
0.0
 10
4.236124068052983
 20
-9.853663869961463
 30
0.0
 10
4.183128598217914
 20
-9.926512719787853
 30
0.0
 10
4.112769474140224
 20
-9.943602563537853
 30
0.0
 10
4.141104197718783
 20
-9.903429562778303
 30
0.0
 10
4.185248722187099
 20
-9.863069217997487
 30
0.0
 10
4.188839623879807
 20
-9.811196964579519
 30
0.0
 10
4.150963070874164
 20
-9.874626055291324
 30
0.0
 10
4.101602583677983
 20
-9.969556068312158
 30
0.0
 10
4.015871925040831
 20
-9.966370372240108
 30
0.0
 10
4.045973277308626
 20
-9.930067169928911
 30
0.0
 10
4.098849219962706
 20
-9.890066254401567
 30
0.0
 10
4.093228899324685
 20
-9.83658080789549
 30
0.0
 10
4.067831492640658
 20
-9.883343910109033
 30
0.0
 10
4.04050554456123
 20
-9.938837582797834
 30
0.0
 10
3.98726084783814
 20
-9.960213450853389
 30
0.0
 10
3.976611908493522
 20
-9.937379520731862
 30
0.0
 10
4.060088504901942
 20
-9.78874111334254
 30
0.0
 10
4.029196238734408
 20
-9.800676877231428
 30
0.0
 10
3.897591726201855
 20
-10.07744503179957
 30
0.0
 10
3.889888580856803
 20
-10.42808013650877
 30
0.0
 10
4.095276967901074
 20
-10.67124335129827
 30
0.0
 10
4.160843984502636
 20
-10.75646623134384
 30
0.0
 10
4.101098195928417
 20
-10.81807359218368
 30
0.0
 10
4.024194746763921
 20
-10.86157979064289
 30
0.0
 10
3.950950016132411
 20
-10.89665805127657
 30
0.0
 10
3.846693492152376
 20
-11.03611236307127
 30
0.0
 10
3.969927711173643
 20
-11.07366000440157
 30
0.0
 10
4.013672963994824
 20
-11.07496378315591
 30
0.0
 10
3.990387204174945
 20
-11.09062438699705
 30
0.0
 10
3.971362885056022
 20
-11.11120679802136
 30
0.0
 10
3.956850081236577
 20
-11.12611802577743
 30
0.0
 10
3.933780487595084
 20
-11.07373714605738
 30
0.0
 10
3.926348609611143
 20
-11.09726365566024
 30
0.0
 10
3.923486738951421
 20
-11.16406578646537
 30
0.0
 10
3.865876333135449
 20
-11.04252868387205
 30
0.0
 10
3.864023237974858
 20
-11.01972188048663
 30
0.0
 10
3.806530663918869
 20
-10.83452087137205
 30
0.0
 10
4.072116669235709
 20
-10.82777648660643
 30
0.0
 10
4.013581411260449
 20
-10.66715992980304
 30
0.0
 10
3.940570648727897
 20
-10.54258548047578
 30
0.0
 10
3.866026377894563
 20
-10.41904099941024
 30
0.0
 10
3.871522085088574
 20
-10.26786708990504
 30
0.0
 10
3.87654307440064
 20
-10.06991142855521
 30
0.0
 10
3.859327769496126
 20
-9.805593598151567
 30
0.0
 10
4.04268331284465
 20
-9.68229834397405
 30
0.0
 10
4.007937354728331
 20
-9.678658275072139
 30
0.0
 10
3.983926802427983
 20
-9.716362742845577
 30
0.0
 10
3.961749000236143
 20
-9.73840660677787
 30
0.0
 10
3.885355025084233
 20
-9.757898862094709
 30
0.0
 10
4.072454058016091
 20
-9.624448036085595
 30
0.0
 10
4.094553023131108
 20
-9.629423249030473
 30
0.0
 10
4.109169247631976
 20
-9.627447235846879
 30
0.0
 10
4.174954125832932
 20
-9.737473277513545
 30
0.0
 10
4.202771746004373
 20
-9.718499821024831
 30
0.0
 10
4.205399648565136
 20
-9.697592736877696
 30
0.0
 10
4.169175283330761
 20
-9.687916969191064
 30
0.0
 10
4.157465010435796
 20
-9.67186387538681
 30
0.0
 10
4.076813833135449
 20
-9.613507484327783
 30
0.0
 10
4.122157020255674
 20
-9.521355418626827
 30
0.0
 10
4.208312381855067
 20
-9.506838376254865
 30
0.0
 10
4.182718306334233
 20
-9.54600429693629
 30
0.0
 10
4.157378543964442
 20
-9.589148523010509
 30
0.0
 10
4.183836436488314
 20
-9.635931970276134
 30
0.0
 10
4.199053687736143
 20
-9.661013180942365
 30
0.0
 10
4.224102685403244
 20
-9.709371674323442
 30
0.0
 10
4.255609541685796
 20
-9.705753645894622
 30
0.0
 10
4.200451562356369
 20
-9.628070303066932
 30
0.0
 10
4.139781769333366
 20
-9.580150076016151
 30
0.0
 10
4.249417864168435
 20
-9.498711375658077
 30
0.0
 10
4.309069556876768
 20
-9.420247291456689
 30
0.0
 10
3.980310469420171
 20
-9.586128978197139
 30
0.0
 10
4.002695960685362
 20
-9.625604313212331
 30
0.0
 10
4.03401632065715
 20
-9.603220517368146
 30
0.0
 10
4.062418861075987
 20
-9.561919213928478
 30
0.0
 10
4.103215776766091
 20
-9.555396929314762
 30
0.0
 10
4.103816803513053
 20
-9.570001285868581
 30
0.0
 10
4.093100895038661
 20
-9.585714447760942
 30
0.0
 10
4.096805389938834
 20
-9.601934540534379
 30
0.0
 10
4.074008759079459
 20
-9.630248071350353
 30
0.0
 10
4.017120602612445
 20
-9.637270505161115
 30
0.0
 10
3.989073252894563
 20
-9.669831913309987
 30
0.0
 10
3.939171926397168
 20
-9.70371914068629
 30
0.0
 10
3.932346161423209
 20
-9.754169783589935
 30
0.0
 10
3.876249766566438
 20
-9.694501136671533
 30
0.0
 10
3.877661204554719
 20
-9.640149330030908
 30
0.0
 10
3.967422726635883
 20
-9.571884898607295
 30
0.0
 10
4.013502574183626
 20
-9.539906715284814
 30
0.0
 10
4.013502574183626
 20
-9.539906715284814
 30
0.0
 10
4.015442983526074
 20
-9.54202260070148
 30
0.0
 10
4.015442983526074
 20
-9.54202260070148
 30
0.0
 10
3.982956173901508
 20
-9.585078664883338
 30
0.0
 10
3.935043576245258
 20
-9.629401208557384
 30
0.0
 10
3.925006683884147
 20
-9.682388201287418
 30
0.0
 10
4.02817644299873
 20
-9.465818512702348
 30
0.0
 10
4.271802507723123
 20
-9.401072079868146
 30
0.0
 10
4.476178728426222
 20
-9.524446171122487
 30
0.0
 10
4.387787106518695
 20
-9.520934106506603
 30
0.0
 10
4.273998077927116
 20
-9.549371403056081
 30
0.0
 10
4.218925717358539
 20
-9.618304678066932
 30
0.0
 10
4.291282047382411
 20
-9.581054583123355
 30
0.0
 10
4.373822771394998
 20
-9.519482826124658
 30
0.0
 10
4.466453793530389
 20
-9.538341841695403
 30
0.0
 10
4.529790483797316
 20
-9.546083981723615
 30
0.0
 10
4.600074161640198
 20
-9.603250187235769
 30
0.0
 10
4.619180708677959
 20
-9.65908803038898
 30
0.0
 10
4.600704858254781
 20
-9.688571401699745
 30
0.0
 10
4.575384593226569
 20
-9.710711904629432
 30
0.0
 10
4.54574100463065
 20
-9.72834852165417
 30
0.0
 10
4.524060808504347
 20
-9.728985999952783
 30
0.0
 10
4.510573734394104
 20
-9.696850990187158
 30
0.0
 10
4.490473670646275
 20
-9.688109399475353
 30
0.0
 10
4.4743909069744
 20
-9.682638275885942
 30
0.0
 10
4.442812843009581
 20
-9.652581004564327
 30
0.0
 10
4.429767426071647
 20
-9.670851709045665
 30
0.0
 10
4.42779565144057
 20
-9.677502845655908
 30
0.0
 10
4.43324473455689
 20
-9.679840831224483
 30
0.0
 10
4.438225881475292
 20
-9.681477760206689
 30
0.0
 10
4.490759349085944
 20
-9.698737993767887
 30
0.0
 10
4.525330678838549
 20
-9.73675865755912
 30
0.0
 10
4.553364465188375
 20
-9.781902632711028
 30
0.0
 10
4.681478105867628
 20
-10.01218234326875
 30
0.0
 10
4.667220462909729
 20
-10.45356231424314
 30
0.0
 10
4.621186391729174
 20
-10.70996931022839
 30
0.0
 10
4.520420739602437
 20
-10.85986317687335
 30
0.0
 10
4.400523956833366
 20
-10.82159582932561
 30
0.0
 10
4.540469093009556
 20
-11.03332085238334
 30
0.0
  0
SPLINE
  5
89
330
7C
100
AcDbEntity
  8
Layer 3
100
AcDbSpline
210
0.0
220
0.0
230
1.0
 70
     9
 71
     3
 72
    14
 73
    10
 74
     0
 42
0.0000000001
 43
0.0000000001
 40
0.0
 40
0.0
 40
0.0
 40
0.0
 40
1.0
 40
1.0
 40
1.0
 40
2.0
 40
2.0
 40
2.0
 40
3.0
 40
3.0
 40
3.0
 40
3.0
 10
4.547388106138896
 20
-10.91399118794106
 30
0.0
 10
4.566582815069017
 20
-10.87472523742023
 30
0.0
 10
4.545624868291674
 20
-10.80969651698837
 30
0.0
 10
4.587234738354608
 20
-10.78594027783907
 30
0.0
 10
4.59217434745834
 20
-10.78478569613334
 30
0.0
 10
4.594889564200962
 20
-10.7883418416954
 30
0.0
 10
4.594271583243931
 20
-10.79546345763507
 30
0.0
 10
4.593594262551656
 20
-10.8164909166737
 30
0.0
 10
4.57542867417275
 20
-10.95501274691459
 30
0.0
 10
4.547388106138896
 20
-10.91399118794106
 30
0.0
  0
SPLINE
  5
8A
330
7C
100
AcDbEntity
  8
Layer 3
100
AcDbSpline
210
0.0
220
0.0
230
1.0
 70
     9
 71
     3
 72
    11
 73
     7
 74
     0
 42
0.0000000001
 43
0.0000000001
 40
0.0
 40
0.0
 40
0.0
 40
0.0
 40
1.0
 40
1.0
 40
1.0
 40
2.0
 40
2.0
 40
2.0
 40
2.0
 10
4.496248274595927
 20
-10.90728410243759
 30
0.0
 10
4.507534692239156
 20
-10.87831529140243
 30
0.0
 10
4.509031748988288
 20
-10.82915316846406
 30
0.0
 10
4.54320465480426
 20
-10.82024881733559
 30
0.0
 10
4.551132443432733
 20
-10.84301323519584
 30
0.0
 10
4.521521067835944
 20
-10.98181141906085
 30
0.0
 10
4.496248274595927
 20
-10.90728410243759
 30
0.0
  0
SPLINE
  5
8B
330
7C
100
AcDbEntity
  8
Layer 3
100
AcDbSpline
210
0.0
220
0.0
230
1.0
 70
     9
 71
     3
 72
    11
 73
     7
 74
     0
 42
0.0000000001
 43
0.0000000001
 40
0.0
 40
0.0
 40
0.0
 40
0.0
 40
1.0
 40
1.0
 40
1.0
 40
2.0
 40
2.0
 40
2.0
 40
2.0
 10
4.407013180737445
 20
-11.01388708909124
 30
0.0
 10
4.388109236510015
 20
-11.01368109543889
 30
0.0
 10
4.405719574509147
 20
-10.96769364833603
 30
0.0
 10
4.429873389884581
 20
-11.00471062289115
 30
0.0
 10
4.423549469528678
 20
-11.01019530984861
 30
0.0
 10
4.414678179109841
 20
-11.01277828375269
 30
0.0
 10
4.407013180737445
 20
-11.01388708909124
 30
0.0
  0
SPLINE
  5
8C
330
7C
100
AcDbEntity
  8
Layer 3
100
AcDbSpline
210
0.0
220
0.0
230
1.0
 70
     9
 71
     3
 72
    14
 73
    10
 74
     0
 42
0.0000000001
 43
0.0000000001
 40
0.0
 40
0.0
 40
0.0
 40
0.0
 40
1.0
 40
1.0
 40
1.0
 40
2.0
 40
2.0
 40
2.0
 40
3.0
 40
3.0
 40
3.0
 40
3.0
 10
4.366109453523904
 20
-11.02270751687986
 30
0.0
 10
4.356873647588574
 20
-11.02293809413681
 30
0.0
 10
4.327068146286491
 20
-11.03916666401528
 30
0.0
 10
4.329980879576421
 20
-11.02197848584688
 30
0.0
 10
4.354792518302549
 20
-10.97281551519801
 30
0.0
 10
4.325968665763487
 20
-10.89214229742457
 30
0.0
 10
4.389060367694911
 20
-10.98021772331432
 30
0.0
 10
4.381215654695779
 20
-10.9941278049658
 30
0.0
 10
4.382111684697949
 20
-11.01667859977917
 30
0.0
 10
4.366109453523904
 20
-11.02270751687986
 30
0.0
  0
SPLINE
  5
8D
330
7C
100
AcDbEntity
  8
Layer 3
100
AcDbSpline
210
0.0
220
0.0
230
1.0
 70
     9
 71
     3
 72
    11
 73
     7
 74
     0
 42
0.0000000001
 43
0.0000000001
 40
0.0
 40
0.0
 40
0.0
 40
0.0
 40
1.0
 40
1.0
 40
1.0
 40
2.0
 40
2.0
 40
2.0
 40
2.0
 10
4.28546166706557
 20
-11.01359886752006
 30
0.0
 10
4.287567379956195
 20
-10.9640010213829
 30
0.0
 10
4.294065928675814
 20
-10.91590192741589
 30
0.0
 10
4.32330092080906
 20
-10.87991661654349
 30
0.0
 10
4.351593258862445
 20
-10.90753332932561
 30
0.0
 10
4.290734426397167
 20
-11.12587558057344
 30
0.0
 10
4.28546166706557
 20
-11.01359886752006
 30
0.0
  0
SPLINE
  5
8E
330
7C
100
AcDbEntity
  8
Layer 3
100
AcDbSpline
210
0.0
220
0.0
230
1.0
 70
     9
 71
     3
 72
    50
 73
    46
 74
     0
 42
0.0000000001
 43
0.0000000001
 40
0.0
 40
0.0
 40
0.0
 40
0.0
 40
1.0
 40
1.0
 40
1.0
 40
2.0
 40
2.0
 40
2.0
 40
3.0
 40
3.0
 40
3.0
 40
4.0
 40
4.0
 40
4.0
 40
5.0
 40
5.0
 40
5.0
 40
6.0
 40
6.0
 40
6.0
 40
7.0
 40
7.0
 40
7.0
 40
8.0
 40
8.0
 40
8.0
 40
9.0
 40
9.0
 40
9.0
 40
10.0
 40
10.0
 40
10.0
 40
11.0
 40
11.0
 40
11.0
 40
12.0
 40
12.0
 40
12.0
 40
13.0
 40
13.0
 40
13.0
 40
14.0
 40
14.0
 40
14.0
 40
15.0
 40
15.0
 40
15.0
 40
15.0
 10
4.267396956236577
 20
-11.05592166211641
 30
0.0
 10
4.228057254901942
 20
-10.96400186909341
 30
0.0
 10
4.288988142760015
 20
-10.86565388732257
 30
0.0
 10
4.299769324943174
 20
-10.77651967101398
 30
0.0
 10
4.254889835468349
 20
-10.85295264084905
 30
0.0
 10
4.227480811759581
 20
-10.96257008605304
 30
0.0
 10
4.246563622903244
 20
-11.05291991922361
 30
0.0
 10
4.248580326191005
 20
-11.05988386100964
 30
0.0
 10
4.245081824943174
 20
-11.06467935932778
 30
0.0
 10
4.237384613571647
 20
-11.06174204243325
 30
0.0
 10
4.083661638582498
 20
-11.03587754726181
 30
0.0
 10
4.259036835251334
 20
-10.98360856532822
 30
0.0
 10
4.219956533330761
 20
-10.78097947597274
 30
0.0
 10
4.219149512931456
 20
-10.78081586784557
 30
0.0
 10
4.218341644821647
 20
-10.78065310742891
 30
0.0
 10
4.217533776711838
 20
-10.78049034701224
 30
0.0
 10
4.180673628599858
 20
-10.82658375792804
 30
0.0
 10
4.175860328361143
 20
-10.897374366652
 30
0.0
 10
4.137814233254807
 20
-10.93762366135686
 30
0.0
 10
4.070457699780414
 20
-10.98581176492674
 30
0.0
 10
4.17248559284682
 20
-10.77041276454696
 30
0.0
 10
4.177353994268261
 20
-10.74600378830999
 30
0.0
 10
4.185549659415831
 20
-10.71542941358125
 30
0.0
 10
4.303919715568174
 20
-10.76311228169106
 30
0.0
 10
4.384762475442307
 20
-10.7027451213178
 30
0.0
 10
4.407913449292133
 20
-10.7021602010704
 30
0.0
 10
4.394603546677116
 20
-10.76454830328394
 30
0.0
 10
4.401131765264355
 20
-10.78414906554523
 30
0.0
 10
4.38781508096531
 20
-10.81513288444714
 30
0.0
 10
4.360489980596386
 20
-10.84138478331867
 30
0.0
 10
4.34653327486722
 20
-10.87326463222274
 30
0.0
 10
4.34653327486722
 20
-10.87326463222274
 30
0.0
 10
4.343527293421908
 20
-10.87289842128525
 30
0.0
 10
4.343527293421908
 20
-10.87289842128525
 30
0.0
 10
4.342743161206195
 20
-10.85775492085122
 30
0.0
 10
4.341959876700987
 20
-10.84261142041719
 30
0.0
 10
4.341175744485275
 20
-10.82746791998316
 30
0.0
 10
4.340204268248296
 20
-10.8274034939849
 30
0.0
 10
4.339231944300814
 20
-10.82733822027613
 30
0.0
 10
4.338259620353331
 20
-10.82727379427787
 30
0.0
 10
4.281302799335536
 20
-10.88826402187118
 30
0.0
 10
4.260957747252202
 20
-10.97347757710122
 30
0.0
 10
4.271795726039095
 20
-11.05529944260686
 30
0.0
 10
4.270329186868088
 20
-11.05550713168021
 30
0.0
 10
4.268863495407584
 20
-11.05571397304306
 30
0.0
 10
4.267396956236577
 20
-11.05592166211641
 30
0.0
  0
SPLINE
  5
8F
330
7C
100
AcDbEntity
  8
Layer 3
100
AcDbSpline
210
0.0
220
0.0
230
1.0
 70
     9
 71
     3
 72
    17
 73
    13
 74
     0
 42
0.0000000001
 43
0.0000000001
 40
0.0
 40
0.0
 40
0.0
 40
0.0
 40
1.0
 40
1.0
 40
1.0
 40
2.0
 40
2.0
 40
2.0
 40
3.0
 40
3.0
 40
3.0
 40
4.0
 40
4.0
 40
4.0
 40
4.0
 10
4.42517113972182
 20
-10.76569101704262
 30
0.0
 10
4.405461022805588
 20
-10.77283975971841
 30
0.0
 10
4.41534447956557
 20
-10.71057457552787
 30
0.0
 10
4.409173147100292
 20
-10.69532256814939
 30
0.0
 10
4.409173147100292
 20
-10.69532256814939
 30
0.0
 10
4.407230194626334
 20
-10.69428242736163
 30
0.0
 10
4.407230194626334
 20
-10.69428242736163
 30
0.0
 10
4.419921268573817
 20
-10.67334313021537
 30
0.0
 10
4.439549157571213
 20
-10.65509870475964
 30
0.0
 10
4.459190609936639
 20
-10.64077324496146
 30
0.0
 10
4.477229889450527
 20
-10.69579304747882
 30
0.0
 10
4.474959720722229
 20
-10.73063903543455
 30
0.0
 10
4.42517113972182
 20
-10.76569101704262
 30
0.0
  0
SPLINE
  5
90
330
7C
100
AcDbEntity
  8
Layer 3
100
AcDbSpline
210
0.0
220
0.0
230
1.0
 70
     9
 71
     3
 72
    14
 73
    10
 74
     0
 42
0.0000000001
 43
0.0000000001
 40
0.0
 40
0.0
 40
0.0
 40
0.0
 40
1.0
 40
1.0
 40
1.0
 40
2.0
 40
2.0
 40
2.0
 40
3.0
 40
3.0
 40
3.0
 40
3.0
 10
4.472041053458775
 20
-10.56986565218802
 30
0.0
 10
4.44482446003432
 20
-10.66523562696016
 30
0.0
 10
4.348856849357237
 20
-10.71934583610729
 30
0.0
 10
4.257293094745692
 20
-10.72190592182778
 30
0.0
 10
4.149512638202724
 20
-10.73136891417804
 30
0.0
 10
4.093934194463574
 20
-10.65969583881997
 30
0.0
 10
4.05161394299873
 20
-10.5750358385487
 30
0.0
 10
4.186308360316439
 20
-10.62237114535209
 30
0.0
 10
4.337244063170171
 20
-10.61110337733993
 30
0.0
 10
4.472041053458775
 20
-10.56986565218802
 30
0.0
  0
SPLINE
  5
91
330
7C
100
AcDbEntity
  8
Layer 3
100
AcDbSpline
210
0.0
220
0.0
230
1.0
 70
     9
 71
     3
 72
    14
 73
    10
 74
     0
 42
0.0000000001
 43
0.0000000001
 40
0.0
 40
0.0
 40
0.0
 40
0.0
 40
1.0
 40
1.0
 40
1.0
 40
2.0
 40
2.0
 40
2.0
 40
3.0
 40
3.0
 40
3.0
 40
3.0
 10
4.058739797490917
 20
-10.50297959804306
 30
0.0
 10
4.063243683395866
 20
-10.48261589632865
 30
0.0
 10
4.095652503654112
 20
-10.50651794168455
 30
0.0
 10
4.105979313007411
 20
-10.51302072895669
 30
0.0
 10
4.094703915600726
 20
-10.54915947543021
 30
0.0
 10
4.101019358851595
 20
-10.58483876281085
 30
0.0
 10
4.055599030075553
 20
-10.55388461377656
 30
0.0
 10
4.041552467033018
 20
-10.54216925461858
 30
0.0
 10
4.058338830422775
 20
-10.51862155225313
 30
0.0
 10
4.058739797490917
 20
-10.50297959804306
 30
0.0
  0
SPLINE
  5
92
330
7C
100
AcDbEntity
  8
Layer 3
100
AcDbSpline
210
0.0
220
0.0
230
1.0
 70
     9
 71
     3
 72
    17
 73
    13
 74
     0
 42
0.0000000001
 43
0.0000000001
 40
0.0
 40
0.0
 40
0.0
 40
0.0
 40
1.0
 40
1.0
 40
1.0
 40
2.0
 40
2.0
 40
2.0
 40
3.0
 40
3.0
 40
3.0
 40
4.0
 40
4.0
 40
4.0
 40
4.0
 10
4.042477319192307
 20
-10.39870357672144
 30
0.0
 10
4.062613834491786
 20
-10.40855821132431
 30
0.0
 10
4.062455312627636
 20
-10.40852260748316
 30
0.0
 10
4.057401262605935
 20
-10.43101491027179
 30
0.0
 10
4.047305030509581
 20
-10.46670860873099
 30
0.0
 10
4.045258657354199
 20
-10.50604915777613
 30
0.0
 10
4.030399139938834
 20
-10.53968122429089
 30
0.0
 10
4.019736637226161
 20
-10.53102694776094
 30
0.0
 10
4.014071387931456
 20
-10.5162945869211
 30
0.0
 10
4.010349938821213
 20
-10.50366200499835
 30
0.0
 10
4.01942383205038
 20
-10.48232597933646
 30
0.0
 10
4.017702979728331
 20
-10.39230421013073
 30
0.0
 10
4.042477319192307
 20
-10.39870357672144
 30
0.0
  0
SPLINE
  5
93
330
7C
100
AcDbEntity
  8
Layer 3
100
AcDbSpline
210
0.0
220
0.0
230
1.0
 70
     9
 71
     3
 72
    14
 73
    10
 74
     0
 42
0.0000000001
 43
0.0000000001
 40
0.0
 40
0.0
 40
0.0
 40
0.0
 40
1.0
 40
1.0
 40
1.0
 40
2.0
 40
2.0
 40
2.0
 40
3.0
 40
3.0
 40
3.0
 40
3.0
 10
4.023462324888921
 20
-10.39176337082952
 30
0.0
 10
4.014090885273036
 20
-10.42111110845973
 30
0.0
 10
4.014605445548643
 20
-10.45321305751572
 30
0.0
 10
4.001099721807324
 20
-10.48036607265243
 30
0.0
 10
3.977310421948383
 20
-10.44505299620929
 30
0.0
 10
3.969330922979199
 20
-10.39803642855521
 30
0.0
 10
3.960809736998296
 20
-10.35629346794323
 30
0.0
 10
3.963769942076421
 20
-10.33896202669974
 30
0.0
 10
4.015934655618088
 20
-10.38376861307127
 30
0.0
 10
4.023462324888921
 20
-10.39176337082952
 30
0.0
  0
SPLINE
  5
94
330
7C
100
AcDbEntity
  8
Layer 3
100
AcDbSpline
210
0.0
220
0.0
230
1.0
 70
     9
 71
     3
 72
    14
 73
    10
 74
     0
 42
0.0000000001
 43
0.0000000001
 40
0.0
 40
0.0
 40
0.0
 40
0.0
 40
1.0
 40
1.0
 40
1.0
 40
2.0
 40
2.0
 40
2.0
 40
3.0
 40
3.0
 40
3.0
 40
3.0
 10
4.137037730433626
 20
-10.50000582959688
 30
0.0
 10
4.116445146883279
 20
-10.49487972418238
 30
0.0
 10
4.139877560620258
 20
-10.4629498603586
 30
0.0
 10
4.139346046134581
 20
-10.44792503939506
 30
0.0
 10
4.138145688061664
 20
-10.43236276997231
 30
0.0
 10
4.215324643139789
 20
-10.44845316303872
 30
0.0
 10
4.211576067293435
 20
-10.46042283534775
 30
0.0
 10
4.211490448532584
 20
-10.52895344786945
 30
0.0
 10
4.188492062573383
 20
-10.5069206041737
 30
0.0
 10
4.137037730433626
 20
-10.50000582959688
 30
0.0
  0
SPLINE
  5
95
330
7C
100
AcDbEntity
  8
Layer 3
100
AcDbSpline
210
0.0
220
0.0
230
1.0
 70
     9
 71
     3
 72
    14
 73
    10
 74
     0
 42
0.0000000001
 43
0.0000000001
 40
0.0
 40
0.0
 40
0.0
 40
0.0
 40
1.0
 40
1.0
 40
1.0
 40
2.0
 40
2.0
 40
2.0
 40
3.0
 40
3.0
 40
3.0
 40
3.0
 10
4.103383623445779
 20
-10.49034108214679
 30
0.0
 10
4.092094662671039
 20
-10.4835068400678
 30
0.0
 10
4.065212067184928
 20
-10.48338985601832
 30
0.0
 10
4.066615028068174
 20
-10.46655262999835
 30
0.0
 10
4.075064158656283
 20
-10.41648515224228
 30
0.0
 10
4.078406681171474
 20
-10.40681616623967
 30
0.0
 10
4.12503669283597
 20
-10.43703111171493
 30
0.0
 10
4.116727434480935
 20
-10.45412010775443
 30
0.0
 10
4.121745032950987
 20
-10.48561679151094
 30
0.0
 10
4.103383623445779
 20
-10.49034108214679
 30
0.0
  0
SPLINE
  5
96
330
7C
100
AcDbEntity
  8
Layer 3
100
AcDbSpline
210
0.0
220
0.0
230
1.0
 70
     9
 71
     3
 72
    17
 73
    13
 74
     0
 42
0.0000000001
 43
0.0000000001
 40
0.0
 40
0.0
 40
0.0
 40
0.0
 40
1.0
 40
1.0
 40
1.0
 40
2.0
 40
2.0
 40
2.0
 40
3.0
 40
3.0
 40
3.0
 40
4.0
 40
4.0
 40
4.0
 40
4.0
 10
4.120090302048209
 20
-10.52433851188854
 30
0.0
 10
4.122389292933626
 20
-10.51560200743976
 30
0.0
 10
4.124728126212706
 20
-10.51481617980304
 30
0.0
 10
4.133422245136317
 20
-10.5163200182362
 30
0.0
 10
4.152647471644564
 20
-10.52443938943846
 30
0.0
 10
4.192185537237011
 20
-10.51534684657821
 30
0.0
 10
4.200938995895866
 20
-10.53466955979436
 30
0.0
 10
4.200250654967046
 20
-10.60834747049314
 30
0.0
 10
4.17459978284248
 20
-10.58376556131346
 30
0.0
 10
4.119489275301248
 20
-10.57724581983125
 30
0.0
 10
4.096704512388921
 20
-10.57308525668021
 30
0.0
 10
4.120181007072081
 20
-10.53970411247448
 30
0.0
 10
4.120090302048209
 20
-10.52433851188854
 30
0.0
  0
SPLINE
  5
97
330
7C
100
AcDbEntity
  8
Layer 3
100
AcDbSpline
210
0.0
220
0.0
230
1.0
 70
     9
 71
     3
 72
    20
 73
    16
 74
     0
 42
0.0000000001
 43
0.0000000001
 40
0.0
 40
0.0
 40
0.0
 40
0.0
 40
1.0
 40
1.0
 40
1.0
 40
2.0
 40
2.0
 40
2.0
 40
3.0
 40
3.0
 40
3.0
 40
4.0
 40
4.0
 40
4.0
 40
5.0
 40
5.0
 40
5.0
 40
5.0
 10
4.228406511629373
 20
-10.46242258442544
 30
0.0
 10
4.236298696416699
 20
-10.4454454861724
 30
0.0
 10
4.26621355237373
 20
-10.45779493278698
 30
0.0
 10
4.282129317076421
 20
-10.45495595031085
 30
0.0
 10
4.298371450322949
 20
-10.46215301248533
 30
0.0
 10
4.291989037942307
 20
-10.48836845980521
 30
0.0
 10
4.29636491956123
 20
-10.50330850971841
 30
0.0
 10
4.290573361401508
 20
-10.51888010395669
 30
0.0
 10
4.261566403393695
 20
-10.50878726270235
 30
0.0
 10
4.247380815828591
 20
-10.51296562777396
 30
0.0
 10
4.247374881855067
 20
-10.51276980664766
 30
0.0
 10
4.247368100171039
 20
-10.51257398552136
 30
0.0
 10
4.247362166197515
 20
-10.51237816439505
 30
0.0
 10
4.209425425746126
 20
-10.52072217888073
 30
0.0
 10
4.226275367423643
 20
-10.48532856993976
 30
0.0
 10
4.228406511629373
 20
-10.46242258442544
 30
0.0
  0
SPLINE
  5
98
330
7C
100
AcDbEntity
  8
Layer 3
100
AcDbSpline
210
0.0
220
0.0
230
1.0
 70
     9
 71
     3
 72
    20
 73
    16
 74
     0
 42
0.0000000001
 43
0.0000000001
 40
0.0
 40
0.0
 40
0.0
 40
0.0
 40
1.0
 40
1.0
 40
1.0
 40
2.0
 40
2.0
 40
2.0
 40
3.0
 40
3.0
 40
3.0
 40
4.0
 40
4.0
 40
4.0
 40
5.0
 40
5.0
 40
5.0
 40
5.0
 10
4.286853607712272
 20
-10.52706813970972
 30
0.0
 10
4.310542877731803
 20
-10.52508195400009
 30
0.0
 10
4.300656030129807
 20
-10.56168863667153
 30
0.0
 10
4.306018646774772
 20
-10.57714070372882
 30
0.0
 10
4.305259945874164
 20
-10.6003527127349
 30
0.0
 10
4.263079566642393
 20
-10.58407836648924
 30
0.0
 10
4.246612790112445
 20
-10.58861107455131
 30
0.0
 10
4.246602617586404
 20
-10.58927907042804
 30
0.0
 10
4.246592445060362
 20
-10.58994791401528
 30
0.0
 10
4.246583120244824
 20
-10.59061590989202
 30
0.0
 10
4.19972422674439
 20
-10.59419748676919
 30
0.0
 10
4.21201433362373
 20
-10.57538000901311
 30
0.0
 10
4.216542803133279
 20
-10.53987195915417
 30
0.0
 10
4.22357201862807
 20
-10.51600721306042
 30
0.0
 10
4.266440738788661
 20
-10.53279442416068
 30
0.0
 10
4.286853607712272
 20
-10.52706813970972
 30
0.0
  0
SPLINE
  5
99
330
7C
100
AcDbEntity
  8
Layer 3
100
AcDbSpline
210
0.0
220
0.0
230
1.0
 70
     9
 71
     3
 72
    14
 73
    10
 74
     0
 42
0.0000000001
 43
0.0000000001
 40
0.0
 40
0.0
 40
0.0
 40
0.0
 40
1.0
 40
1.0
 40
1.0
 40
2.0
 40
2.0
 40
2.0
 40
3.0
 40
3.0
 40
3.0
 40
3.0
 10
4.406527442618956
 20
-10.50530486795408
 30
0.0
 10
4.420748634025206
 20
-10.50435458447969
 30
0.0
 10
4.446217248391525
 20
-10.48179700798229
 30
0.0
 10
4.455180939255241
 20
-10.4968616713395
 30
0.0
 10
4.468203468009556
 20
-10.54182084560165
 30
0.0
 10
4.474191695006084
 20
-10.55186197651528
 30
0.0
 10
4.424064029804286
 20
-10.56649769835773
 30
0.0
 10
4.415517412508279
 20
-10.55451531039115
 30
0.0
 10
4.391914608960101
 20
-10.51533582634167
 30
0.0
 10
4.406527442618956
 20
-10.50530486795408
 30
0.0
  0
SPLINE
  5
9A
330
7C
100
AcDbEntity
  8
Layer 3
100
AcDbSpline
210
0.0
220
0.0
230
1.0
 70
     9
 71
     3
 72
    14
 73
    10
 74
     0
 42
0.0000000001
 43
0.0000000001
 40
0.0
 40
0.0
 40
0.0
 40
0.0
 40
1.0
 40
1.0
 40
1.0
 40
2.0
 40
2.0
 40
2.0
 40
3.0
 40
3.0
 40
3.0
 40
3.0
 10
4.389376563712706
 20
-10.48466311719453
 30
0.0
 10
4.388155860587706
 20
-10.47086408561901
 30
0.0
 10
4.36635020330689
 20
-10.44763766553438
 30
0.0
 10
4.381842112757845
 20
-10.43847561041285
 30
0.0
 10
4.431205990796039
 20
-10.42104498704045
 30
0.0
 10
4.437044173033452
 20
-10.4085310845882
 30
0.0
 10
4.448173764233539
 20
-10.46840911600096
 30
0.0
 10
4.437663001700987
 20
-10.47744910080999
 30
0.0
 10
4.399013336716178
 20
-10.49863423400226
 30
0.0
 10
4.389376563712706
 20
-10.48466311719453
 30
0.0
  0
SPLINE
  5
9B
330
7C
100
AcDbEntity
  8
Layer 3
100
AcDbSpline
210
0.0
220
0.0
230
1.0
 70
     9
 71
     3
 72
    14
 73
    10
 74
     0
 42
0.0000000001
 43
0.0000000001
 40
0.0
 40
0.0
 40
0.0
 40
0.0
 40
1.0
 40
1.0
 40
1.0
 40
2.0
 40
2.0
 40
2.0
 40
3.0
 40
3.0
 40
3.0
 40
3.0
 10
4.307205441479633
 20
-10.45814927577743
 30
0.0
 10
4.317482235913226
 20
-10.44920338683429
 30
0.0
 10
4.347504751104199
 20
-10.44103993468585
 30
0.0
 10
4.358821686325553
 20
-10.45106495909992
 30
0.0
 10
4.360806176614182
 20
-10.46448252094887
 30
0.0
 10
4.382694909524338
 20
-10.48908816602266
 30
0.0
 10
4.368441505118956
 20
-10.49806287712292
 30
0.0
 10
4.319293793259147
 20
-10.50965616596841
 30
0.0
 10
4.308883908276508
 20
-10.51577917893498
 30
0.0
 10
4.307205441479633
 20
-10.45814927577743
 30
0.0
  0
SPLINE
  5
9C
330
7C
100
AcDbEntity
  8
Layer 3
100
AcDbSpline
210
0.0
220
0.0
230
1.0
 70
     9
 71
     3
 72
    14
 73
    10
 74
     0
 42
0.0000000001
 43
0.0000000001
 40
0.0
 40
0.0
 40
0.0
 40
0.0
 40
1.0
 40
1.0
 40
1.0
 40
2.0
 40
2.0
 40
2.0
 40
3.0
 40
3.0
 40
3.0
 40
3.0
 10
4.38572038831123
 20
-10.5216919596967
 30
0.0
 10
4.386624895418435
 20
-10.53666676574054
 30
0.0
 10
4.411701019821647
 20
-10.56460306538247
 30
0.0
 10
4.395106239005674
 20
-10.57349215772188
 30
0.0
 10
4.339013234990917
 20
-10.5819929986507
 30
0.0
 10
4.319011505661491
 20
-10.60530164665417
 30
0.0
 10
4.316861711824685
 20
-10.53188143994844
 30
0.0
 10
4.314349945602897
 20
-10.51980749924749
 30
0.0
 10
4.385724626863748
 20
-10.50623395866589
 30
0.0
 10
4.38572038831123
 20
-10.5216919596967
 30
0.0
  0
SPLINE
  5
9D
330
7C
100
AcDbEntity
  8
Layer 3
100
AcDbSpline
210
0.0
220
0.0
230
1.0
 70
     9
 71
     3
 72
    20
 73
    16
 74
     0
 42
0.0000000001
 43
0.0000000001
 40
0.0
 40
0.0
 40
0.0
 40
0.0
 40
1.0
 40
1.0
 40
1.0
 40
2.0
 40
2.0
 40
2.0
 40
3.0
 40
3.0
 40
3.0
 40
4.0
 40
4.0
 40
4.0
 40
5.0
 40
5.0
 40
5.0
 40
5.0
 10
4.483926802427959
 20
-10.54494211567544
 30
0.0
 10
4.4742934202665
 20
-10.50513193501138
 30
0.0
 10
4.464202274433167
 20
-10.46543195671276
 30
0.0
 10
4.45442647690715
 20
-10.42565144591632
 30
0.0
 10
4.446742828903678
 20
-10.40404754373533
 30
0.0
 10
4.479031274270406
 20
-10.4020622057362
 30
0.0
 10
4.491462948803826
 20
-10.39094193935165
 30
0.0
 10
4.520391917445319
 20
-10.38800292703611
 30
0.0
 10
4.529239471970059
 20
-10.56804137918455
 30
0.0
 10
4.539122081019538
 20
-10.60317728413247
 30
0.0
 10
4.537480065774312
 20
-10.63947200933863
 30
0.0
 10
4.512791345071187
 20
-10.67702304151094
 30
0.0
 10
4.487075199237854
 20
-10.70027658833169
 30
0.0
 10
4.444876170375033
 20
-10.59096092806693
 30
0.0
 10
4.509526811922316
 20
-10.61488925244844
 30
0.0
 10
4.483926802427959
 20
-10.54494211567544
 30
0.0
  0
SPLINE
  5
9E
330
7C
100
AcDbEntity
  8
Layer 3
100
AcDbSpline
210
0.0
220
0.0
230
1.0
 70
     9
 71
     3
 72
    20
 73
    16
 74
     0
 42
0.0000000001
 43
0.0000000001
 40
0.0
 40
0.0
 40
0.0
 40
0.0
 40
1.0
 40
1.0
 40
1.0
 40
2.0
 40
2.0
 40
2.0
 40
3.0
 40
3.0
 40
3.0
 40
4.0
 40
4.0
 40
4.0
 40
5.0
 40
5.0
 40
5.0
 40
5.0
 10
4.566331045049486
 20
-10.36037434630695
 30
0.0
 10
4.558571950811205
 20
-10.42172569857474
 30
0.0
 10
4.56713043605426
 20
-10.4901978190717
 30
0.0
 10
4.550360179164069
 20
-10.5480828830908
 30
0.0
 10
4.534705509296448
 20
-10.49583509391979
 30
0.0
 10
4.530643280563809
 20
-10.43770249843368
 30
0.0
 10
4.516545007180562
 20
-10.38392628722492
 30
0.0
 10
4.515913462855476
 20
-10.36589548481606
 30
0.0
 10
4.542270477829434
 20
-10.3596546400895
 30
0.0
 10
4.553317841110684
 20
-10.34799353440374
 30
0.0
 10
4.563268267000441
 20
-10.33921040587726
 30
0.0
 10
4.566719296460076
 20
-10.35188706874618
 30
0.0
 10
4.565596080042976
 20
-10.3603387424658
 30
0.0
 10
4.565596080042976
 20
-10.3603387424658
 30
0.0
 10
4.566331045049486
 20
-10.36037434630695
 30
0.0
 10
4.566331045049486
 20
-10.36037434630695
 30
0.0
  0
SPLINE
  5
9F
330
7C
100
AcDbEntity
  8
Layer 3
100
AcDbSpline
210
0.0
220
0.0
230
1.0
 70
     9
 71
     3
 72
    35
 73
    31
 74
     0
 42
0.0000000001
 43
0.0000000001
 40
0.0
 40
0.0
 40
0.0
 40
0.0
 40
1.0
 40
1.0
 40
1.0
 40
2.0
 40
2.0
 40
2.0
 40
3.0
 40
3.0
 40
3.0
 40
4.0
 40
4.0
 40
4.0
 40
5.0
 40
5.0
 40
5.0
 40
6.0
 40
6.0
 40
6.0
 40
7.0
 40
7.0
 40
7.0
 40
8.0
 40
8.0
 40
8.0
 40
9.0
 40
9.0
 40
9.0
 40
10.0
 40
10.0
 40
10.0
 40
10.0
 10
3.969851417228331
 20
-10.03792307270669
 30
0.0
 10
3.949808997794737
 20
-9.931044580139415
 30
0.0
 10
4.16371094142538
 20
-10.03992197407387
 30
0.0
 10
4.247850447447515
 20
-9.835810239047834
 30
0.0
 10
4.280488997252202
 20
-9.929620426493581
 30
0.0
 10
4.348842438278678
 20
-10.01701683627006
 30
0.0
 10
4.459621246872402
 20
-9.996993914178043
 30
0.0
 10
4.482558597675354
 20
-10.01039706494844
 30
0.0
 10
4.54509165838499
 20
-9.983068573737504
 30
0.0
 10
4.541311717250007
 20
-10.02071115864419
 30
0.0
 10
4.530605981301656
 20
-10.0308226495296
 30
0.0
 10
4.509742130390198
 20
-10.0099486260921
 30
0.0
 10
4.495373437356343
 20
-10.01140668815807
 30
0.0
 10
4.340763757180588
 20
-9.969461124735769
 30
0.0
 10
4.236228336444911
 20
-10.19704172505044
 30
0.0
 10
4.378840369865049
 20
-10.27862962245712
 30
0.0
 10
4.439136322556022
 20
-10.32006825499835
 30
0.0
 10
4.503982785229608
 20
-10.30307928879827
 30
0.0
 10
4.561152381583775
 20
-10.2686156182796
 30
0.0
 10
4.580848087421448
 20
-10.38123311095539
 30
0.0
 10
4.350348819843349
 20
-10.43504831684731
 30
0.0
 10
4.262986318487011
 20
-10.44078138298229
 30
0.0
 10
4.262871029858539
 20
-10.44008710807995
 30
0.0
 10
4.262754893519564
 20
-10.4393919854671
 30
0.0
 10
4.262639604891091
 20
-10.43869686285426
 30
0.0
 10
4.177803280835101
 20
-10.44064914014375
 30
0.0
 10
3.941532800149338
 20
-10.37742180453177
 30
0.0
 10
3.953496538484841
 20
-10.27333397494193
 30
0.0
 10
4.258338321796474
 20
-10.45258405632214
 30
0.0
 10
4.302528622631976
 20
-9.897096317606862
 30
0.0
 10
3.969851417228331
 20
-10.03792307270669
 30
0.0
  0
SPLINE
  5
A0
330
7C
100
AcDbEntity
  8
Layer 3
100
AcDbSpline
210
0.0
220
0.0
230
1.0
 70
     9
 71
     3
 72
    17
 73
    13
 74
     0
 42
0.0000000001
 43
0.0000000001
 40
0.0
 40
0.0
 40
0.0
 40
0.0
 40
1.0
 40
1.0
 40
1.0
 40
2.0
 40
2.0
 40
2.0
 40
3.0
 40
3.0
 40
3.0
 40
4.0
 40
4.0
 40
4.0
 40
4.0
 10
4.095565189472255
 20
-10.91653771029349
 30
0.0
 10
4.072002228317741
 20
-10.81437079270452
 30
0.0
 10
4.117843021503505
 20
-10.84141360547578
 30
0.0
 10
4.138034637985709
 20
-10.76951334370278
 30
0.0
 10
4.142162140427116
 20
-10.74706427414983
 30
0.0
 10
4.124490767271733
 20
-10.70168633089896
 30
0.0
 10
4.162364777145866
 20
-10.72493309603568
 30
0.0
 10
4.163276065937099
 20
-10.77972486442761
 30
0.0
 10
4.111304630390224
 20
-10.85512193202743
 30
0.0
 10
4.098385522317307
 20
-10.9167106432362
 30
0.0
 10
4.098385522317307
 20
-10.9167106432362
 30
0.0
 10
4.095565189472255
 20
-10.91653771029349
 30
0.0
 10
4.095565189472255
 20
-10.91653771029349
 30
0.0
  0
SPLINE
  5
A1
330
7C
100
AcDbEntity
  8
Layer 3
100
AcDbSpline
210
0.0
220
0.0
230
1.0
 70
     9
 71
     3
 72
    14
 73
    10
 74
     0
 42
0.0000000001
 43
0.0000000001
 40
0.0
 40
0.0
 40
0.0
 40
0.0
 40
1.0
 40
1.0
 40
1.0
 40
2.0
 40
2.0
 40
2.0
 40
3.0
 40
3.0
 40
3.0
 40
3.0
 10
4.019823951408018
 20
-10.98272016472058
 30
0.0
 10
3.997586809480935
 20
-10.99206617302136
 30
0.0
 10
3.986296153285188
 20
-10.91636223421927
 30
0.0
 10
3.995798140318608
 20
-10.90463500711424
 30
0.0
 10
4.003264774433192
 20
-10.90007347689506
 30
0.0
 10
4.019392466761751
 20
-10.87805419656736
 30
0.0
 10
4.025538367911924
 20
-10.89152007791502
 30
0.0
 10
4.013965424118522
 20
-10.92179181999401
 30
0.0
 10
4.016023665220952
 20
-10.95238738748533
 30
0.0
 10
4.019823951408018
 20
-10.98272016472058
 30
0.0
  0
SPLINE
  5
A2
330
7C
100
AcDbEntity
  8
Layer 3
100
AcDbSpline
210
0.0
220
0.0
230
1.0
 70
     9
 71
     3
 72
    11
 73
     7
 74
     0
 42
0.0000000001
 43
0.0000000001
 40
0.0
 40
0.0
 40
0.0
 40
0.0
 40
1.0
 40
1.0
 40
1.0
 40
2.0
 40
2.0
 40
2.0
 40
2.0
 10
3.945364451625032
 20
-10.95880286057561
 30
0.0
 10
3.973720367966178
 20
-10.91517798264592
 30
0.0
 10
3.975180125453157
 20
-10.92563788254827
 30
0.0
 10
3.983034163267827
 20
-10.97144815815591
 30
0.0
 10
3.975533620733105
 20
-10.97888173156085
 30
0.0
 10
3.936953468009581
 20
-10.97396501064071
 30
0.0
 10
3.945364451625032
 20
-10.95880286057561
 30
0.0
  0
SPLINE
  5
A3
330
7C
100
AcDbEntity
  8
Layer 3
100
AcDbSpline
210
0.0
220
0.0
230
1.0
 70
     9
 71
     3
 72
    14
 73
    10
 74
     0
 42
0.0000000001
 43
0.0000000001
 40
0.0
 40
0.0
 40
0.0
 40
0.0
 40
1.0
 40
1.0
 40
1.0
 40
2.0
 40
2.0
 40
2.0
 40
3.0
 40
3.0
 40
3.0
 40
3.0
 10
3.907619293747428
 20
-10.82210360791719
 30
0.0
 10
3.91217065144057
 20
-10.801671241652
 30
0.0
 10
3.907615902905414
 20
-10.77616448031302
 30
0.0
 10
3.918722605921907
 20
-10.75879743522839
 30
0.0
 10
3.928418718660623
 20
-10.77125369336641
 30
0.0
 10
3.924975318595518
 20
-10.79024919032821
 30
0.0
 10
3.928845964754373
 20
-10.80541388352483
 30
0.0
 10
3.9308058714384
 20
-10.81415886507865
 30
0.0
 10
3.909585982115483
 20
-10.83904340690807
 30
0.0
 10
3.907619293747428
 20
-10.82210360791719
 30
0.0
  0
SPLINE
  5
A4
330
7C
100
AcDbEntity
  8
Layer 3
100
AcDbSpline
210
0.0
220
0.0
230
1.0
 70
     9
 71
     3
 72
    53
 73
    49
 74
     0
 42
0.0000000001
 43
0.0000000001
 40
0.0
 40
0.0
 40
0.0
 40
0.0
 40
1.0
 40
1.0
 40
1.0
 40
2.0
 40
2.0
 40
2.0
 40
3.0
 40
3.0
 40
3.0
 40
4.0
 40
4.0
 40
4.0
 40
5.0
 40
5.0
 40
5.0
 40
6.0
 40
6.0
 40
6.0
 40
7.0
 40
7.0
 40
7.0
 40
8.0
 40
8.0
 40
8.0
 40
9.0
 40
9.0
 40
9.0
 40
10.0
 40
10.0
 40
10.0
 40
11.0
 40
11.0
 40
11.0
 40
12.0
 40
12.0
 40
12.0
 40
13.0
 40
13.0
 40
13.0
 40
14.0
 40
14.0
 40
14.0
 40
15.0
 40
15.0
 40
15.0
 40
16.0
 40
16.0
 40
16.0
 40
16.0
 10
3.844034224302983
 20
-10.95818318419757
 30
0.0
 10
3.845172699509147
 20
-10.97924031310382
 30
0.0
 10
3.825733849954025
 20
-10.98095523145235
 30
0.0
 10
3.809054298087706
 20
-10.98154015169974
 30
0.0
 10
3.788568526060796
 20
-10.97153547233776
 30
0.0
 10
3.82730974377998
 20
-10.92444345844888
 30
0.0
 10
3.828498233905848
 20
-10.90376271300617
 30
0.0
 10
3.865370249964876
 20
-10.80467552767631
 30
0.0
 10
3.87506127644057
 20
-10.69909572760035
 30
0.0
 10
3.888854374042567
 20
-10.59505706521971
 30
0.0
 10
3.887504818921039
 20
-10.58085706657604
 30
0.0
 10
3.898405528285188
 20
-10.55466789828177
 30
0.0
 10
3.885441491555588
 20
-10.54630438645452
 30
0.0
 10
3.868220252677549
 20
-10.56327131218151
 30
0.0
 10
3.879337128220084
 20
-10.60321288797361
 30
0.0
 10
3.871581424823817
 20
-10.62782616244193
 30
0.0
 10
3.871327111672775
 20
-10.66713788932995
 30
0.0
 10
3.796237762985709
 20
-11.07123216151962
 30
0.0
 10
3.745697262768695
 20
-10.95951748053004
 30
0.0
 10
3.793006290546473
 20
-10.88577429612249
 30
0.0
 10
3.822209069680588
 20
-10.79920779492891
 30
0.0
 10
3.823307702493088
 20
-10.71149095058212
 30
0.0
 10
3.822491357278244
 20
-10.71083227952092
 30
0.0
 10
3.821674164352897
 20
-10.71017445617023
 30
0.0
 10
3.820857819138053
 20
-10.70951578510903
 30
0.0
 10
3.782892256529546
 20
-10.75455040560599
 30
0.0
 10
3.760505069843348
 20
-10.80820369879176
 30
0.0
 10
3.736004540871994
 20
-10.85999033344887
 30
0.0
 10
3.737042986238748
 20
-10.71464358594453
 30
0.0
 10
3.796503944083799
 20
-10.56171661111815
 30
0.0
 10
3.879712663973123
 20
-10.44252512348794
 30
0.0
 10
3.899757626538227
 20
-10.48420789665417
 30
0.0
 10
3.911362783330762
 20
-10.53144063048663
 30
0.0
 10
3.939394026549077
 20
-10.57028187804523
 30
0.0
 10
3.954769799661057
 20
-10.59703901237682
 30
0.0
 10
3.98258318127998
 20
-10.61817921691242
 30
0.0
 10
3.977205305845952
 20
-10.65251912169757
 30
0.0
 10
3.968588328578157
 20
-10.6735457330257
 30
0.0
 10
3.979729787725293
 20
-10.82607767475747
 30
0.0
 10
3.944209022208799
 20
-10.79177422152396
 30
0.0
 10
3.938525970993522
 20
-10.75485981993976
 30
0.0
 10
3.932953969854199
 20
-10.71611266824705
 30
0.0
 10
3.910604930140657
 20
-10.68518479823837
 30
0.0
 10
3.897750248066004
 20
-10.73970699469019
 30
0.0
 10
3.896971202113313
 20
-10.79619672722057
 30
0.0
 10
3.884584456236577
 20
-10.85105546474228
 30
0.0
 10
3.865534705802549
 20
-10.88500118414332
 30
0.0
 10
3.843777368020432
 20
-10.91717095003959
 30
0.0
 10
3.844034224302983
 20
-10.95818318419757
 30
0.0
  0
SPLINE
  5
A5
330
7C
100
AcDbEntity
  8
Layer 3
100
AcDbSpline
210
0.0
220
0.0
230
1.0
 70
     9
 71
     3
 72
    47
 73
    43
 74
     0
 42
0.0000000001
 43
0.0000000001
 40
0.0
 40
0.0
 40
0.0
 40
0.0
 40
1.0
 40
1.0
 40
1.0
 40
2.0
 40
2.0
 40
2.0
 40
3.0
 40
3.0
 40
3.0
 40
4.0
 40
4.0
 40
4.0
 40
5.0
 40
5.0
 40
5.0
 40
6.0
 40
6.0
 40
6.0
 40
7.0
 40
7.0
 40
7.0
 40
8.0
 40
8.0
 40
8.0
 40
9.0
 40
9.0
 40
9.0
 40
10.0
 40
10.0
 40
10.0
 40
11.0
 40
11.0
 40
11.0
 40
12.0
 40
12.0
 40
12.0
 40
13.0
 40
13.0
 40
13.0
 40
14.0
 40
14.0
 40
14.0
 40
14.0
 10
3.728630307202289
 20
-10.75920518398056
 30
0.0
 10
3.717887271991786
 20
-10.7817992120296
 30
0.0
 10
3.726281301397168
 20
-10.88604471577309
 30
0.0
 10
3.704656206453591
 20
-10.88185363504392
 30
0.0
 10
3.626277741013053
 20
-10.84952789041502
 30
0.0
 10
3.778376502677549
 20
-10.54208787441025
 30
0.0
 10
3.77514672565932
 20
-10.46573798020452
 30
0.0
 10
3.725221663267827
 20
-10.53635056972274
 30
0.0
 10
3.733484297545171
 20
-10.64753458393716
 30
0.0
 10
3.676160417879373
 20
-10.71475209288898
 30
0.0
 10
3.638926429435362
 20
-10.74173132737249
 30
0.0
 10
3.606979611401508
 20
-10.80820624192327
 30
0.0
 10
3.557871741935362
 20
-10.80326239426702
 30
0.0
 10
3.599742706833366
 20
-10.76551215012639
 30
0.0
 10
3.66501726331123
 20
-10.72076829433212
 30
0.0
 10
3.674220008536924
 20
-10.66498640007214
 30
0.0
 10
3.655549184697949
 20
-10.66602993170191
 30
0.0
 10
3.648401289732671
 20
-10.69936699496146
 30
0.0
 10
3.633741831996126
 20
-10.71147145324054
 30
0.0
 10
3.602830916197515
 20
-10.74211194938854
 30
0.0
 10
3.551264686271299
 20
-10.81207688808212
 30
0.0
 10
3.50447276190064
 20
-10.78652689350747
 30
0.0
 10
3.60328867986939
 20
-10.73217593457735
 30
0.0
 10
3.676203651115049
 20
-10.65274291727049
 30
0.0
 10
3.695947676451421
 20
-10.53815534538464
 30
0.0
 10
3.695947676451421
 20
-10.53815534538464
 30
0.0
 10
3.693518985858973
 20
-10.53699059115287
 30
0.0
 10
3.693518985858973
 20
-10.53699059115287
 30
0.0
 10
3.646353221156282
 20
-10.58504306104219
 30
0.0
 10
3.583991397968348
 20
-10.61177476405868
 30
0.0
 10
3.519801910934928
 20
-10.62832546392848
 30
0.0
 10
3.499105906703157
 20
-10.62473880078828
 30
0.0
 10
3.486432634676248
 20
-10.58923498948186
 30
0.0
 10
3.477799550908887
 20
-10.57133558220104
 30
0.0
 10
3.60534692097182
 20
-10.60249911572969
 30
0.0
 10
3.719149512931456
 20
-10.51993126498099
 30
0.0
 10
3.774469404967046
 20
-10.40816233051919
 30
0.0
 10
3.785008989656716
 20
-10.38596842182778
 30
0.0
 10
3.800864566913661
 20
-10.44031090365287
 30
0.0
 10
3.868300785175379
 20
-10.41947078863551
 30
0.0
 10
3.808566864548209
 20
-10.52664513216849
 30
0.0
 10
3.747185842412793
 20
-10.63547505431476
 30
0.0
 10
3.728630307202289
 20
-10.75920518398056
 30
0.0
  0
SPLINE
  5
A6
330
7C
100
AcDbEntity
  8
Layer 3
100
AcDbSpline
210
0.0
220
0.0
230
1.0
 70
     9
 71
     3
 72
    44
 73
    40
 74
     0
 42
0.0000000001
 43
0.0000000001
 40
0.0
 40
0.0
 40
0.0
 40
0.0
 40
1.0
 40
1.0
 40
1.0
 40
2.0
 40
2.0
 40
2.0
 40
3.0
 40
3.0
 40
3.0
 40
4.0
 40
4.0
 40
4.0
 40
5.0
 40
5.0
 40
5.0
 40
6.0
 40
6.0
 40
6.0
 40
7.0
 40
7.0
 40
7.0
 40
8.0
 40
8.0
 40
8.0
 40
9.0
 40
9.0
 40
9.0
 40
10.0
 40
10.0
 40
10.0
 40
11.0
 40
11.0
 40
11.0
 40
12.0
 40
12.0
 40
12.0
 40
13.0
 40
13.0
 40
13.0
 40
13.0
 10
3.701645986455762
 20
-10.31687069097926
 30
0.0
 10
3.713605486238748
 20
-10.29113589551485
 30
0.0
 10
3.746186391729199
 20
-10.28082010639809
 30
0.0
 10
3.755942691913661
 20
-10.25165632194714
 30
0.0
 10
3.760941640752637
 20
-10.24532561990721
 30
0.0
 10
3.756920949834668
 20
-10.23375945779783
 30
0.0
 10
3.749099972729633
 20
-10.24073696295191
 30
0.0
 10
3.685770911857237
 20
-10.32744333637856
 30
0.0
 10
3.564232113842914
 20
-10.32017167567978
 30
0.0
 10
3.530783152796907
 20
-10.44884904384384
 30
0.0
 10
3.528974138582498
 20
-10.45520263406736
 30
0.0
 10
3.525012787399772
 20
-10.46503098964462
 30
0.0
 10
3.518323503816873
 20
-10.45673783778915
 30
0.0
 10
3.463656348868956
 20
-10.37343502203394
 30
0.0
 10
3.579132321362445
 20
-10.27352979606823
 30
0.0
 10
3.635532196579459
 20
-10.21667809115287
 30
0.0
 10
3.704463776169303
 20
-10.16502369933429
 30
0.0
 10
3.738152639287793
 20
-10.08674611144367
 30
0.0
 10
3.775646874856369
 20
-10.01479159619844
 30
0.0
 10
3.833942230759147
 20
-10.18446085346841
 30
0.0
 10
3.640821910121126
 20
-10.22456179883516
 30
0.0
 10
3.572971161423209
 20
-10.33560339768499
 30
0.0
 10
3.619746131583799
 20
-10.30757130675617
 30
0.0
 10
3.653061154370258
 20
-10.2554303291086
 30
0.0
 10
3.704913910446647
 20
-10.23140621344019
 30
0.0
 10
3.754504974899772
 20
-10.20704386128091
 30
0.0
 10
3.774295624313834
 20
-10.16209062099228
 30
0.0
 10
3.794999257940137
 20
-10.11568186176919
 30
0.0
 10
3.872653778610709
 20
-10.24163892692761
 30
0.0
 10
3.782844784741352
 20
-10.19163078890677
 30
0.0
 10
3.765353973923209
 20
-10.30420928689939
 30
0.0
 10
3.781718177482237
 20
-10.43478722201224
 30
0.0
 10
3.668954030889355
 20
-10.5572135729237
 30
0.0
 10
3.532198829337706
 20
-10.56072394211858
 30
0.0
 10
3.522921485587706
 20
-10.55760012891328
 30
0.0
 10
3.498416718063834
 20
-10.56038485791719
 30
0.0
 10
3.487089610316438
 20
-10.55011908372014
 30
0.0
 10
3.616523136249598
 20
-10.54926459153264
 30
0.0
 10
3.677103071959233
 20
-10.42915249029566
 30
0.0
 10
3.701645986455762
 20
-10.31687069097926
 30
0.0
  0
SPLINE
  5
A7
330
7C
100
AcDbEntity
  8
Layer 3
100
AcDbSpline
210
0.0
220
0.0
230
1.0
 70
     9
 71
     3
 72
    11
 73
     7
 74
     0
 42
0.0000000001
 43
0.0000000001
 40
0.0
 40
0.0
 40
0.0
 40
0.0
 40
1.0
 40
1.0
 40
1.0
 40
2.0
 40
2.0
 40
2.0
 40
2.0
 10
3.847730242098123
 20
-9.884576481181081
 30
0.0
 10
3.861463999964876
 20
-9.887648584045665
 30
0.0
 10
3.881487769767393
 20
-9.897539670200178
 30
0.0
 10
3.889572384839008
 20
-9.90963480366372
 30
0.0
 10
3.885271949454893
 20
-9.963055824171533
 30
0.0
 10
3.852884321959233
 20
-9.901034780605995
 30
0.0
 10
3.847730242098123
 20
-9.884576481181081
 30
0.0
  0
SPLINE
  5
A8
330
7C
100
AcDbEntity
  8
Layer 3
100
AcDbSpline
210
0.0
220
0.0
230
1.0
 70
     9
 71
     3
 72
    14
 73
    10
 74
     0
 42
0.0000000001
 43
0.0000000001
 40
0.0
 40
0.0
 40
0.0
 40
0.0
 40
1.0
 40
1.0
 40
1.0
 40
2.0
 40
2.0
 40
2.0
 40
3.0
 40
3.0
 40
3.0
 40
3.0
 10
3.803115238300379
 20
-9.877202247511377
 30
0.0
 10
3.802161563983973
 20
-9.863456621697574
 30
0.0
 10
3.812155223109407
 20
-9.84835550678872
 30
0.0
 10
3.819258189418001
 20
-9.868649696241845
 30
0.0
 10
3.82706560315498
 20
-9.908592967454952
 30
0.0
 10
3.86891367986939
 20
-9.932884111931949
 30
0.0
 10
3.877452667770866
 20
-9.968270939188894
 30
0.0
 10
3.873162404912793
 20
-10.04671976460122
 30
0.0
 10
3.796587867423643
 20
-9.90880235194931
 30
0.0
 10
3.803115238300379
 20
-9.877202247511377
 30
0.0
  0
SPLINE
  5
A9
330
7C
100
AcDbEntity
  8
Layer 3
100
AcDbSpline
210
0.0
220
0.0
230
1.0
 70
     9
 71
     3
 72
    20
 73
    16
 74
     0
 42
0.0000000001
 43
0.0000000001
 40
0.0
 40
0.0
 40
0.0
 40
0.0
 40
1.0
 40
1.0
 40
1.0
 40
2.0
 40
2.0
 40
2.0
 40
3.0
 40
3.0
 40
3.0
 40
4.0
 40
4.0
 40
4.0
 40
5.0
 40
5.0
 40
5.0
 40
5.0
 10
3.850030928404546
 20
-10.22740841070582
 30
0.0
 10
3.876131087095952
 20
-10.25249725076658
 30
0.0
 10
3.789829071579459
 20
-10.26962693691024
 30
0.0
 10
3.814120216056456
 20
-10.35011196295191
 30
0.0
 10
3.828616913376334
 20
-10.394444679152
 30
0.0
 10
3.86586192205689
 20
-10.34469848367674
 30
0.0
 10
3.868384708515223
 20
-10.37130387782821
 30
0.0
 10
3.877115278990483
 20
-10.39576880295842
 30
0.0
 10
3.855106171188834
 20
-10.40408908155
 30
0.0
 10
3.83554948987373
 20
-10.40608204894367
 30
0.0
 10
3.747868249368088
 20
-10.39552127149141
 30
0.0
 10
3.775835914298643
 20
-10.25854057894584
 30
0.0
 10
3.832993642705762
 20
-10.22279771327743
 30
0.0
 10
3.841864933124598
 20
-10.21626101758516
 30
0.0
 10
3.844692047653678
 20
-10.21877278380695
 30
0.0
 10
3.850030928404546
 20
-10.22740841070582
 30
0.0
  0
SPLINE
  5
AA
330
7C
100
AcDbEntity
  8
Layer 3
100
AcDbSpline
210
0.0
220
0.0
230
1.0
 70
     9
 71
     3
 72
    14
 73
    10
 74
     0
 42
0.0000000001
 43
0.0000000001
 40
0.0
 40
0.0
 40
0.0
 40
0.0
 40
1.0
 40
1.0
 40
1.0
 40
2.0
 40
2.0
 40
2.0
 40
3.0
 40
3.0
 40
3.0
 40
3.0
 10
3.85526384534248
 20
-10.19716040452092
 30
0.0
 10
3.82090105237373
 20
-10.15226735167804
 30
0.0
 10
3.80415792221965
 20
-10.08923838032387
 30
0.0
 10
3.797783139233539
 20
-10.03293683952526
 30
0.0
 10
3.798959761412358
 20
-10.03271389166285
 30
0.0
 10
3.800136383591178
 20
-10.03249179151094
 30
0.0
 10
3.801312158059494
 20
-10.03226884364853
 30
0.0
 10
3.821092634947515
 20
-10.08924600971841
 30
0.0
 10
3.881966726201855
 20
-10.1326038588395
 30
0.0
 10
3.85526384534248
 20
-10.19716040452092
 30
0.0
  0
SPLINE
  5
AB
330
7C
100
AcDbEntity
  8
Layer 3
100
AcDbSpline
210
0.0
220
0.0
230
1.0
 70
     9
 71
     3
 72
    14
 73
    10
 74
     0
 42
0.0000000001
 43
0.0000000001
 40
0.0
 40
0.0
 40
0.0
 40
0.0
 40
1.0
 40
1.0
 40
1.0
 40
2.0
 40
2.0
 40
2.0
 40
3.0
 40
3.0
 40
3.0
 40
3.0
 10
3.827704776874598
 20
-10.32985761589245
 30
0.0
 10
3.826933360316438
 20
-10.31304073492457
 30
0.0
 10
3.844285146612012
 20
-10.25624074034992
 30
0.0
 10
3.859387956941873
 20
-10.27750810146103
 30
0.0
 10
3.861399573966612
 20
-10.29089599344236
 30
0.0
 10
3.86022719034031
 20
-10.30495272901094
 30
0.0
 10
3.862220157733973
 20
-10.31840589470104
 30
0.0
 10
3.864623417011317
 20
-10.34506045606172
 30
0.0
 10
3.830560713560796
 20
-10.36720434983342
 30
0.0
 10
3.827704776874598
 20
-10.32985761589245
 30
0.0
  0
SPLINE
  5
AC
330
7C
100
AcDbEntity
  8
Layer 3
100
AcDbSpline
210
0.0
220
0.0
230
1.0
 70
     9
 71
     3
 72
    14
 73
    10
 74
     0
 42
0.0000000001
 43
0.0000000001
 40
0.0
 40
0.0
 40
0.0
 40
0.0
 40
1.0
 40
1.0
 40
1.0
 40
2.0
 40
2.0
 40
2.0
 40
3.0
 40
3.0
 40
3.0
 40
3.0
 10
3.859943207321647
 20
-10.09841908507648
 30
0.0
 10
3.835638499476594
 20
-10.08294412983559
 30
0.0
 10
3.78641364596097
 20
-9.964508799974483
 30
0.0
 10
3.809493412128504
 20
-9.95315795633299
 30
0.0
 10
3.819549801831195
 20
-9.98520141336424
 30
0.0
 10
3.864675127352029
 20
-10.00071197244627
 30
0.0
 10
3.868856883265657
 20
-10.03058274745712
 30
0.0
 10
3.864964196633713
 20
-10.05358113341632
 30
0.0
 10
3.869078983417567
 20
-10.07822577317327
 30
0.0
 10
3.859943207321647
 20
-10.09841908507648
 30
0.0
  0
SPLINE
  5
AD
330
7C
100
AcDbEntity
  8
Layer 3
100
AcDbSpline
210
0.0
220
0.0
230
1.0
 70
     9
 71
     3
 72
    23
 73
    19
 74
     0
 42
0.0000000001
 43
0.0000000001
 40
0.0
 40
0.0
 40
0.0
 40
0.0
 40
1.0
 40
1.0
 40
1.0
 40
2.0
 40
2.0
 40
2.0
 40
3.0
 40
3.0
 40
3.0
 40
4.0
 40
4.0
 40
4.0
 40
5.0
 40
5.0
 40
5.0
 40
6.0
 40
6.0
 40
6.0
 40
6.0
 10
3.678508575973991
 20
-9.544997216858165
 30
0.0
 10
3.759397959925813
 20
-9.348077457743581
 30
0.0
 10
4.087103343226595
 20
-9.292621084316932
 30
0.0
 10
3.890836321199685
 20
-9.023320411573877
 30
0.0
 10
3.891506012497428
 20
-9.02263291835556
 30
0.0
 10
3.892175703795171
 20
-9.021945425137245
 30
0.0
 10
3.892846242803418
 20
-9.021257931918928
 30
0.0
 10
3.990761044506977
 20
-9.088299117086028
 30
0.0
 10
4.028275625127636
 20
-9.232770179640283
 30
0.0
 10
3.974678280835102
 20
-9.339010346198442
 30
0.0
 10
3.873932973760449
 20
-9.495585867031776
 30
0.0
 10
3.680525279261751
 20
-9.609489336541324
 30
0.0
 10
3.936693220885015
 20
-9.756125451721446
 30
0.0
 10
3.953699989005674
 20
-9.769222579000091
 30
0.0
 10
3.896457489548209
 20
-9.846023455193668
 30
0.0
 10
3.896151466056456
 20
-9.876407942769622
 30
0.0
 10
3.78615000799439
 20
-9.860048825473615
 30
0.0
 10
3.625630937898904
 20
-9.675491228631168
 30
0.0
 10
3.678508575973991
 20
-9.544997216858165
 30
0.0
  0
SPLINE
  5
AE
330
7C
100
AcDbEntity
  8
Layer 3
100
AcDbSpline
210
0.0
220
0.0
230
1.0
 70
     9
 71
     3
 72
    20
 73
    16
 74
     0
 42
0.0000000001
 43
0.0000000001
 40
0.0
 40
0.0
 40
0.0
 40
0.0
 40
1.0
 40
1.0
 40
1.0
 40
2.0
 40
2.0
 40
2.0
 40
3.0
 40
3.0
 40
3.0
 40
4.0
 40
4.0
 40
4.0
 40
5.0
 40
5.0
 40
5.0
 40
5.0
 10
3.772000024270432
 20
-9.842970849670665
 30
0.0
 10
3.672052412779546
 20
-9.87698608133299
 30
0.0
 10
3.571557180303418
 20
-9.90939066303872
 30
0.0
 10
3.470688107495258
 20
-9.940597429803043
 30
0.0
 10
3.45357198471965
 20
-9.947930125658077
 30
0.0
 10
3.463550385056022
 20
-9.873881765469276
 30
0.0
 10
3.433271013582498
 20
-9.853398536573877
 30
0.0
 10
3.427923655726595
 20
-9.84658803038898
 30
0.0
 10
3.42822289753432
 20
-9.843625282179345
 30
0.0
 10
3.436733910989182
 20
-9.841879846252696
 30
0.0
 10
3.533995975605067
 20
-9.823070845601653
 30
0.0
 10
3.63266863049873
 20
-9.812187938158077
 30
0.0
 10
3.730928450377202
 20
-9.799924110304345
 30
0.0
 10
3.743282135544303
 20
-9.799780847229259
 30
0.0
 10
3.794685605053852
 20
-9.835059167541759
 30
0.0
 10
3.772000024270432
 20
-9.842970849670665
 30
0.0
  0
SPLINE
  5
AF
330
7C
100
AcDbEntity
  8
Layer 3
100
AcDbSpline
210
0.0
220
0.0
230
1.0
 70
     9
 71
     3
 72
    11
 73
     7
 74
     0
 42
0.0000000001
 43
0.0000000001
 40
0.0
 40
0.0
 40
0.0
 40
0.0
 40
1.0
 40
1.0
 40
1.0
 40
2.0
 40
2.0
 40
2.0
 40
2.0
 10
3.439833140589876
 20
-9.936858178772228
 30
0.0
 10
3.41983904065498
 20
-9.979289480313026
 30
0.0
 10
3.380917260598557
 20
-9.90349229335556
 30
0.0
 10
3.383469716924512
 20
-9.878963789937591
 30
0.0
 10
3.397570533439268
 20
-9.809967784349483
 30
0.0
 10
3.457181536043435
 20
-9.902938738396793
 30
0.0
 10
3.439833140589876
 20
-9.936858178772228
 30
0.0
  0
SPLINE
  5
B0
330
7C
100
AcDbEntity
  8
Layer 3
100
AcDbSpline
210
0.0
220
0.0
230
1.0
 70
     9
 71
     3
 72
    20
 73
    16
 74
     0
 42
0.0000000001
 43
0.0000000001
 40
0.0
 40
0.0
 40
0.0
 40
0.0
 40
1.0
 40
1.0
 40
1.0
 40
2.0
 40
2.0
 40
2.0
 40
3.0
 40
3.0
 40
3.0
 40
4.0
 40
4.0
 40
4.0
 40
5.0
 40
5.0
 40
5.0
 40
5.0
 10
3.398369076733539
 20
-9.663552921610769
 30
0.0
 10
3.378681000290397
 20
-9.660448605747053
 30
0.0
 10
3.43164086628432
 20
-9.607928701504432
 30
0.0
 10
3.421969337150206
 20
-9.57821899148924
 30
0.0
 10
3.42191169283597
 20
-9.566196761128997
 30
0.0
 10
3.424492971319043
 20
-9.564915870558252
 30
0.0
 10
3.43544200018189
 20
-9.570371735358598
 30
0.0
 10
3.53570580769057
 20
-9.62899515522622
 30
0.0
 10
3.668586972241352
 20
-9.651035628316497
 30
0.0
 10
3.712767948261317
 20
-9.770500078728824
 30
0.0
 10
3.712393260218782
 20
-9.771206221578216
 30
0.0
 10
3.712018572176248
 20
-9.771913212138112
 30
0.0
 10
3.711643884133713
 20
-9.772619354987504
 30
0.0
 10
3.606629506963574
 20
-9.738318444885509
 30
0.0
 10
3.503050303675813
 20
-9.699103356994884
 30
0.0
 10
3.398369076733539
 20
-9.663552921610769
 30
0.0
  0
SPLINE
  5
B1
330
7C
100
AcDbEntity
  8
Layer 3
100
AcDbSpline
210
0.0
220
0.0
230
1.0
 70
     9
 71
     3
 72
    11
 73
     7
 74
     0
 42
0.0000000001
 43
0.0000000001
 40
0.0
 40
0.0
 40
0.0
 40
0.0
 40
1.0
 40
1.0
 40
1.0
 40
2.0
 40
2.0
 40
2.0
 40
2.0
 10
3.346944414461404
 20
-9.62155140929523
 30
0.0
 10
3.342421031214876
 20
-9.596538015469276
 30
0.0
 10
3.383416311162793
 20
-9.522997433872053
 30
0.0
 10
3.403519765752637
 20
-9.566282379889848
 30
0.0
 10
3.421157230487879
 20
-9.591136404141151
 30
0.0
 10
3.353465003654112
 20
-9.698199697598182
 30
0.0
 10
3.346944414461404
 20
-9.62155140929523
 30
0.0
  0
SPLINE
  5
B2
330
7C
100
AcDbEntity
  8
Layer 3
100
AcDbSpline
210
0.0
220
0.0
230
1.0
 70
     9
 71
     3
 72
    11
 73
     7
 74
     0
 42
0.0000000001
 43
0.0000000001
 40
0.0
 40
0.0
 40
0.0
 40
0.0
 40
1.0
 40
1.0
 40
1.0
 40
2.0
 40
2.0
 40
2.0
 40
2.0
 10
4.013462731789963
 20
-9.492243344516584
 30
0.0
 10
4.006605601527376
 20
-9.512091638244884
 30
0.0
 10
4.001305715459667
 20
-9.536852414340803
 30
0.0
 10
3.975724355596387
 20
-9.541580095818668
 30
0.0
 10
3.974635047599424
 20
-9.532086585890283
 30
0.0
 10
4.005181447881542
 20
-9.477879737745752
 30
0.0
 10
4.013462731789963
 20
-9.492243344516584
 30
0.0
  0
SPLINE
  5
B3
330
7C
100
AcDbEntity
  8
Layer 3
100
AcDbSpline
210
0.0
220
0.0
230
1.0
 70
     9
 71
     3
 72
    11
 73
     7
 74
     0
 42
0.0000000001
 43
0.0000000001
 40
0.0
 40
0.0
 40
0.0
 40
0.0
 40
1.0
 40
1.0
 40
1.0
 40
2.0
 40
2.0
 40
2.0
 40
2.0
 10
4.104163517108974
 20
-9.425656532179345
 30
0.0
 10
4.101201616609841
 20
-9.468908417487504
 30
0.0
 10
4.069491309806456
 20
-9.495689287713199
 30
0.0
 10
4.029644677590744
 20
-9.508808455464935
 30
0.0
 10
4.026542904858539
 20
-9.472502710022228
 30
0.0
 10
4.066160655238314
 20
-9.428306475213199
 30
0.0
 10
4.104163517108974
 20
-9.425656532179345
 30
0.0
  0
SPLINE
  5
B4
330
7C
100
AcDbEntity
  8
Layer 3
100
AcDbSpline
210
0.0
220
0.0
230
1.0
 70
     9
 71
     3
 72
    17
 73
    13
 74
     0
 42
0.0000000001
 43
0.0000000001
 40
0.0
 40
0.0
 40
0.0
 40
0.0
 40
1.0
 40
1.0
 40
1.0
 40
2.0
 40
2.0
 40
2.0
 40
3.0
 40
3.0
 40
3.0
 40
4.0
 40
4.0
 40
4.0
 40
4.0
 10
4.108042640372862
 20
-9.464286699822574
 30
0.0
 10
4.118765330531283
 20
-9.433435971469709
 30
0.0
 10
4.136978390698383
 20
-9.404852021003129
 30
0.0
 10
4.172995066859408
 20
-9.405104638733165
 30
0.0
 10
4.179079085142827
 20
-9.404167918626827
 30
0.0
 10
4.181259396557758
 20
-9.407204417650264
 30
0.0
 10
4.178749325756976
 20
-9.412617896925439
 30
0.0
 10
4.168074107386751
 20
-9.446162649258338
 30
0.0
 10
4.150324744865049
 20
-9.467729252177175
 30
0.0
 10
4.114270769441873
 20
-9.471400686367713
 30
0.0
 10
4.108074005661491
 20
-9.471617700256603
 30
0.0
 10
4.10624040784248
 20
-9.468834666673702
 30
0.0
 10
4.108042640372862
 20
-9.464286699822574
 30
0.0
  0
SPLINE
  5
B5
330
7C
100
AcDbEntity
  8
Layer 3
100
AcDbSpline
210
0.0
220
0.0
230
1.0
 70
     9
 71
     3
 72
    14
 73
    10
 74
     0
 42
0.0000000001
 43
0.0000000001
 40
0.0
 40
0.0
 40
0.0
 40
0.0
 40
1.0
 40
1.0
 40
1.0
 40
2.0
 40
2.0
 40
2.0
 40
3.0
 40
3.0
 40
3.0
 40
3.0
 10
4.181547618128939
 20
-9.443512706224483
 30
0.0
 10
4.199496192618956
 20
-9.387822364698877
 30
0.0
 10
4.275848629956195
 20
-9.378122013407644
 30
0.0
 10
4.295348514667567
 20
-9.437651635803478
 30
0.0
 10
4.300121972512619
 20
-9.446547509826915
 30
0.0
 10
4.297576297870692
 20
-9.449807804423269
 30
0.0
 10
4.291108266729199
 20
-9.449578074876827
 30
0.0
 10
4.268365889342046
 20
-9.439340275126394
 30
0.0
 10
4.169974674335536
 20
-9.466578061313459
 30
0.0
 10
4.181547618128939
 20
-9.443512706224483
 30
0.0
  0
SPLINE
  5
B6
330
7C
100
AcDbEntity
  8
Layer 3
100
AcDbSpline
210
0.0
220
0.0
230
1.0
 70
     9
 71
     3
 72
    14
 73
    10
 74
     0
 42
0.0000000001
 43
0.0000000001
 40
0.0
 40
0.0
 40
0.0
 40
0.0
 40
1.0
 40
1.0
 40
1.0
 40
2.0
 40
2.0
 40
2.0
 40
3.0
 40
3.0
 40
3.0
 40
3.0
 10
4.306651038810362
 20
-9.399867483242713
 30
0.0
 10
4.351325382343349
 20
-9.402812429531776
 30
0.0
 10
4.404280162074251
 20
-9.41609266227917
 30
0.0
 10
4.406222266837706
 20
-9.469687463440196
 30
0.0
 10
4.363778249639355
 20
-9.46493774148924
 30
0.0
 10
4.310774302699251
 20
-9.460277029141151
 30
0.0
 10
4.299738807365049
 20
-9.410272281962331
 30
0.0
 10
4.296001251755241
 20
-9.403132016391584
 30
0.0
 10
4.299156430249164
 20
-9.401531538961028
 30
0.0
 10
4.306651038810362
 20
-9.399867483242713
 30
0.0
  0
SPLINE
  5
B7
330
7C
100
AcDbEntity
  8
Layer 3
100
AcDbSpline
210
0.0
220
0.0
230
1.0
 70
     9
 71
     3
 72
    11
 73
     7
 74
     0
 42
0.0000000001
 43
0.0000000001
 40
0.0
 40
0.0
 40
0.0
 40
0.0
 40
1.0
 40
1.0
 40
1.0
 40
2.0
 40
2.0
 40
2.0
 40
2.0
 10
4.478526038810337
 20
-9.498554549214935
 30
0.0
 10
4.439929779587272
 20
-9.501256202589502
 30
0.0
 10
4.415427555194911
 20
-9.460972999464502
 30
0.0
 10
4.410674442401942
 20
-9.425641273390283
 30
0.0
 10
4.448679847404112
 20
-9.426300792161983
 30
0.0
 10
4.467379493400181
 20
-9.467086687615543
 30
0.0
 10
4.478526038810337
 20
-9.498554549214935
 30
0.0
  0
SPLINE
  5
B8
330
7C
100
AcDbEntity
  8
Layer 3
100
AcDbSpline
210
0.0
220
0.0
230
1.0
 70
     9
 71
     3
 72
    14
 73
    10
 74
     0
 42
0.0000000001
 43
0.0000000001
 40
0.0
 40
0.0
 40
0.0
 40
0.0
 40
1.0
 40
1.0
 40
1.0
 40
2.0
 40
2.0
 40
2.0
 40
3.0
 40
3.0
 40
3.0
 40
3.0
 10
4.490883962529955
 20
-9.473153751688894
 30
0.0
 10
4.509421695819885
 20
-9.490418223802608
 30
0.0
 10
4.5312756725994
 20
-9.516045360033077
 30
0.0
 10
4.539025442022142
 20
-9.539754127394189
 30
0.0
 10
4.507438900952264
 20
-9.5327011760053
 30
0.0
 10
4.495853241501309
 20
-9.503395823900264
 30
0.0
 10
4.488088213289503
 20
-9.474868670037418
 30
0.0
 10
4.489020694843323
 20
-9.474297313158077
 30
0.0
 10
4.489952328686639
 20
-9.473725956278737
 30
0.0
 10
4.490883962529955
 20
-9.473153751688894
 30
0.0
  0
SPLINE
  5
B9
330
7C
100
AcDbEntity
  8
Layer 3
100
AcDbSpline
210
0.0
220
0.0
230
1.0
 70
     9
 71
     3
 72
    11
 73
     7
 74
     0
 42
0.0000000001
 43
0.0000000001
 40
0.0
 40
0.0
 40
0.0
 40
0.0
 40
1.0
 40
1.0
 40
1.0
 40
2.0
 40
2.0
 40
2.0
 40
2.0
 10
4.708633664135858
 20
-9.952667979661983
 30
0.0
 10
4.712433950322924
 20
-10.00438594976832
 30
0.0
 10
4.651939633374139
 20
-10.17657799349662
 30
0.0
 10
4.650098406160597
 20
-10.01793829758733
 30
0.0
 10
4.670554508319885
 20
-9.997764483025699
 30
0.0
 10
4.689701745461812
 20
-9.973389415208858
 30
0.0
 10
4.708633664135858
 20
-9.952667979661983
 30
0.0
  0
SPLINE
  5
BA
330
7C
100
AcDbEntity
  8
Layer 3
100
AcDbSpline
210
0.0
220
0.0
230
1.0
 70
     9
 71
     3
 72
    11
 73
     7
 74
     0
 42
0.0000000001
 43
0.0000000001
 40
0.0
 40
0.0
 40
0.0
 40
0.0
 40
1.0
 40
1.0
 40
1.0
 40
2.0
 40
2.0
 40
2.0
 40
2.0
 10
4.620771861292976
 20
-9.889002377719709
 30
0.0
 10
4.618384708515198
 20
-9.879055342671966
 30
0.0
 10
4.681340776766066
 20
-9.831826847392019
 30
0.0
 10
4.684485782733948
 20
-9.843392161790889
 30
0.0
 10
4.673896183124573
 20
-9.881417911845144
 30
0.0
 10
4.631459795320753
 20
-9.980481361280908
 30
0.0
 10
4.620771861292976
 20
-9.889002377719709
 30
0.0
  0
SPLINE
  5
BB
330
7C
100
AcDbEntity
  8
Layer 3
100
AcDbSpline
210
0.0
220
0.0
230
1.0
 70
     9
 71
     3
 72
    14
 73
    10
 74
     0
 42
0.0000000001
 43
0.0000000001
 40
0.0
 40
0.0
 40
0.0
 40
0.0
 40
1.0
 40
1.0
 40
1.0
 40
2.0
 40
2.0
 40
2.0
 40
3.0
 40
3.0
 40
3.0
 40
3.0
 10
4.703919546026049
 20
-9.847601044440629
 30
0.0
 10
4.711005558124573
 20
-9.855707699985334
 30
0.0
 10
4.708610775952264
 20
-9.867617184848615
 30
0.0
 10
4.710263811434034
 20
-9.877415870558252
 30
0.0
 10
4.716307987323792
 20
-9.910943668681081
 30
0.0
 10
4.644598460414069
 20
-10.04362053500052
 30
0.0
 10
4.639373172870667
 20
-9.959863346415456
 30
0.0
 10
4.663185360913201
 20
-9.924282393453216
 30
0.0
 10
4.689104957267368
 20
-9.888923540642887
 30
0.0
 10
4.703919546026049
 20
-9.847601044440629
 30
0.0
  0
SPLINE
  5
BC
330
7C
100
AcDbEntity
  8
Layer 3
100
AcDbSpline
210
0.0
220
0.0
230
1.0
 70
     9
 71
     3
 72
    14
 73
    10
 74
     0
 42
0.0000000001
 43
0.0000000001
 40
0.0
 40
0.0
 40
0.0
 40
0.0
 40
1.0
 40
1.0
 40
1.0
 40
2.0
 40
2.0
 40
2.0
 40
3.0
 40
3.0
 40
3.0
 40
3.0
 10
4.668420820982646
 20
-10.18690310742891
 30
0.0
 10
4.640140350876309
 20
-10.12257290045191
 30
0.0
 10
4.7018324827665
 20
-10.07612768967717
 30
0.0
 10
4.717231991772576
 20
-10.01638020568195
 30
0.0
 10
4.718456933450093
 20
-10.01659467643932
 30
0.0
 10
4.719682722838115
 20
-10.01680914719671
 30
0.0
 10
4.720907664515632
 20
-10.01702361795408
 30
0.0
 10
4.716673350550788
 20
-10.07527234977917
 30
0.0
 10
4.700425283330736
 20
-10.13818179395235
 30
0.0
 10
4.668420820982646
 20
-10.18690310742891
 30
0.0
  0
SPLINE
  5
BD
330
7C
100
AcDbEntity
  8
Layer 3
100
AcDbSpline
210
0.0
220
0.0
230
1.0
 70
     9
 71
     3
 72
    17
 73
    13
 74
     0
 42
0.0000000001
 43
0.0000000001
 40
0.0
 40
0.0
 40
0.0
 40
0.0
 40
1.0
 40
1.0
 40
1.0
 40
2.0
 40
2.0
 40
2.0
 40
3.0
 40
3.0
 40
3.0
 40
4.0
 40
4.0
 40
4.0
 40
4.0
 10
4.66890994994315
 20
-10.27168009174966
 30
0.0
 10
4.692353383916674
 20
-10.28197553581432
 30
0.0
 10
4.708377655563809
 20
-10.33853138976398
 30
0.0
 10
4.684033105325093
 20
-10.35133944776094
 30
0.0
 10
4.662890357657993
 20
-10.348057960402
 30
0.0
 10
4.665408905563809
 20
-10.32178486876788
 30
0.0
 10
4.665976023890632
 20
-10.30543338086641
 30
0.0
 10
4.665995521232212
 20
-10.30543338086641
 30
0.0
 10
4.666015018573792
 20
-10.30543338086641
 30
0.0
 10
4.666034515915371
 20
-10.30543253315591
 30
0.0
 10
4.666894942076396
 20
-10.29418511019584
 30
0.0
 10
4.663444760327264
 20
-10.28191280523707
 30
0.0
 10
4.66890994994315
 20
-10.27168009174966
 30
0.0
  0
SPLINE
  5
BE
330
7C
100
AcDbEntity
  8
Layer 3
100
AcDbSpline
210
0.0
220
0.0
230
1.0
 70
     9
 71
     3
 72
    23
 73
    19
 74
     0
 42
0.0000000001
 43
0.0000000001
 40
0.0
 40
0.0
 40
0.0
 40
0.0
 40
1.0
 40
1.0
 40
1.0
 40
2.0
 40
2.0
 40
2.0
 40
3.0
 40
3.0
 40
3.0
 40
4.0
 40
4.0
 40
4.0
 40
5.0
 40
5.0
 40
5.0
 40
6.0
 40
6.0
 40
6.0
 40
6.0
 10
4.678155928404521
 20
-10.4051860189415
 30
0.0
 10
4.666134545754781
 20
-10.40294212923881
 30
0.0
 10
4.664484053404521
 20
-10.40000650776528
 30
0.0
 10
4.664470490036465
 20
-10.38311248514158
 30
0.0
 10
4.664497616772576
 20
-10.37041971577309
 30
0.0
 10
4.663229441859382
 20
-10.3631709432579
 30
0.0
 10
4.678483992369365
 20
-10.36878956847492
 30
0.0
 10
4.720480418421882
 20
-10.37582556565374
 30
0.0
 10
4.717209103588983
 20
-10.31303649637205
 30
0.0
 10
4.70476471339801
 20
-10.28762806945148
 30
0.0
 10
4.701891822501743
 20
-10.26238240294757
 30
0.0
 10
4.663445608037767
 20
-10.25589826530651
 30
0.0
 10
4.666562639559034
 20
-10.23290072705782
 30
0.0
 10
4.695172021340718
 20
-10.17492071946233
 30
0.0
 10
4.758581614710944
 20
-10.31679863558646
 30
0.0
 10
4.742497155618062
 20
-10.34898196485078
 30
0.0
 10
4.738874040926222
 20
-10.38134161789983
 30
0.0
 10
4.713629222132819
 20
-10.41395982265243
 30
0.0
 10
4.678155928404521
 20
-10.4051860189415
 30
0.0
  0
SPLINE
  5
BF
330
7C
100
AcDbEntity
  8
Layer 3
100
AcDbSpline
210
0.0
220
0.0
230
1.0
 70
     9
 71
     3
 72
    17
 73
    13
 74
     0
 42
0.0000000001
 43
0.0000000001
 40
0.0
 40
0.0
 40
0.0
 40
0.0
 40
1.0
 40
1.0
 40
1.0
 40
2.0
 40
2.0
 40
2.0
 40
3.0
 40
3.0
 40
3.0
 40
4.0
 40
4.0
 40
4.0
 40
4.0
 10
4.731136139450527
 20
-10.56586869716415
 30
0.0
 10
4.718183970667976
 20
-10.55335394700139
 30
0.0
 10
4.630087352015632
 20
-10.4054318549875
 30
0.0
 10
4.685064769007819
 20
-10.42346011426485
 30
0.0
 10
4.685138519821621
 20
-10.42392042106823
 30
0.0
 10
4.685212270635424
 20
-10.42438072787162
 30
0.0
 10
4.685286021449226
 20
-10.4248401869645
 30
0.0
 10
4.696288456073792
 20
-10.42612701150877
 30
0.0
 10
4.720636397154521
 20
-10.41032144917153
 30
0.0
 10
4.721089922273878
 20
-10.42865997049315
 30
0.0
 10
4.716950551885424
 20
-10.47476101080348
 30
0.0
 10
4.730449493942715
 20
-10.52092308627005
 30
0.0
 10
4.731136139450527
 20
-10.56586869716415
 30
0.0
  0
SPLINE
  5
C0
330
7C
100
AcDbEntity
  8
Layer 3
100
AcDbSpline
210
0.0
220
0.0
230
1.0
 70
     9
 71
     3
 72
    29
 73
    25
 74
     0
 42
0.0000000001
 43
0.0000000001
 40
0.0
 40
0.0
 40
0.0
 40
0.0
 40
1.0
 40
1.0
 40
1.0
 40
2.0
 40
2.0
 40
2.0
 40
3.0
 40
3.0
 40
3.0
 40
4.0
 40
4.0
 40
4.0
 40
5.0
 40
5.0
 40
5.0
 40
6.0
 40
6.0
 40
6.0
 40
7.0
 40
7.0
 40
7.0
 40
8.0
 40
8.0
 40
8.0
 40
8.0
 10
4.492976959763027
 20
-9.341944272250959
 30
0.0
 10
4.438098724899772
 20
-9.234694482483165
 30
0.0
 10
4.473922970776483
 20
-9.090014883145057
 30
0.0
 10
4.573244124205302
 20
-9.022214149366845
 30
0.0
 10
4.573921444897576
 20
-9.022819414666324
 30
0.0
 10
4.574599613300354
 20
-9.023424679965803
 30
0.0
 10
4.575276933992628
 20
-9.024029945265283
 30
0.0
 10
4.39131612534465
 20
-9.271115516554345
 30
0.0
 10
4.691079275029955
 20
-9.372461850375959
 30
0.0
 10
4.779718428404521
 20
-9.526349281202783
 30
0.0
 10
4.780617849248705
 20
-9.528690657613372
 30
0.0
 10
4.781938582213115
 20
-9.5308701213178
 30
0.0
 10
4.783471242803392
 20
-9.532952946024831
 30
0.0
 10
4.827311439200962
 20
-9.615580984219276
 30
0.0
 10
4.808656721861552
 20
-9.713863692281341
 30
0.0
 10
4.623080176993931
 20
-9.857598942118581
 30
0.0
 10
4.615802582321621
 20
-9.862547028327348
 30
0.0
 10
4.612890696742194
 20
-9.861837494635942
 30
0.0
 10
4.609748233905823
 20
-9.853484155334728
 30
0.0
 10
4.606828718931865
 20
-9.820600617194536
 30
0.0
 10
4.545022993834209
 20
-9.759330645135074
 30
0.0
 10
4.559908790275181
 20
-9.740278351569536
 30
0.0
 10
4.771624488517368
 20
-9.597183123162418
 30
0.0
 10
4.579980879576396
 20
-9.479520905280473
 30
0.0
 10
4.492976959763027
 20
-9.341944272250959
 30
0.0
  0
SPLINE
  5
C1
330
7C
100
AcDbEntity
  8
Layer 3
100
AcDbSpline
210
0.0
220
0.0
230
1.0
 70
     9
 71
     3
 72
    20
 73
    16
 74
     0
 42
0.0000000001
 43
0.0000000001
 40
0.0
 40
0.0
 40
0.0
 40
0.0
 40
1.0
 40
1.0
 40
1.0
 40
2.0
 40
2.0
 40
2.0
 40
3.0
 40
3.0
 40
3.0
 40
4.0
 40
4.0
 40
4.0
 40
5.0
 40
5.0
 40
5.0
 40
5.0
 10
5.006623403447924
 20
-9.572876719896358
 30
0.0
 10
5.021127730162334
 20
-9.565560130540889
 30
0.0
 10
5.023029992532125
 20
-9.567128394972314
 30
0.0
 10
5.023848880878479
 20
-9.583652815816497
 30
0.0
 10
5.025149268790806
 20
-9.609911496372053
 30
0.0
 10
5.032849871004347
 20
-9.633813541727956
 30
0.0
 10
5.05183010917709
 20
-9.653099803392452
 30
0.0
 10
5.058499895418409
 20
-9.659876401157209
 30
0.0
 10
5.058163354348531
 20
-9.661977027784814
 30
0.0
 10
5.049016558016066
 20
-9.665283946458858
 30
0.0
 10
4.952560666088983
 20
-9.698517589036983
 30
0.0
 10
4.857050819083775
 20
-9.73692226568629
 30
0.0
 10
4.759321665980476
 20
-9.765173913635509
 30
0.0
 10
4.805013262117628
 20
-9.643246864210595
 30
0.0
 10
4.901568336173618
 20
-9.631506073737504
 30
0.0
 10
5.006623403447924
 20
-9.572876719896358
 30
0.0
  0
SPLINE
  5
C2
330
7C
100
AcDbEntity
  8
Layer 3
100
AcDbSpline
210
0.0
220
0.0
230
1.0
 70
     9
 71
     3
 72
    11
 73
     7
 74
     0
 42
0.0000000001
 43
0.0000000001
 40
0.0
 40
0.0
 40
0.0
 40
0.0
 40
1.0
 40
1.0
 40
1.0
 40
2.0
 40
2.0
 40
2.0
 40
2.0
 10
5.041354102775181
 20
-9.567585310933685
 30
0.0
 10
5.059992713615025
 20
-9.520237288472747
 30
0.0
 10
5.100906613354608
 20
-9.597277219028303
 30
0.0
 10
5.098474531920146
 20
-9.620904606181081
 30
0.0
 10
5.094120690774312
 20
-9.695388689568668
 30
0.0
 10
5.02680315198308
 20
-9.600997820428043
 30
0.0
 10
5.041354102775181
 20
-9.567585310933685
 30
0.0
  0
SPLINE
  5
C3
330
7C
100
AcDbEntity
  8
Layer 3
100
AcDbSpline
210
0.0
220
0.0
230
1.0
 70
     9
 71
     3
 72
    23
 73
    19
 74
     0
 42
0.0000000001
 43
0.0000000001
 40
0.0
 40
0.0
 40
0.0
 40
0.0
 40
1.0
 40
1.0
 40
1.0
 40
2.0
 40
2.0
 40
2.0
 40
3.0
 40
3.0
 40
3.0
 40
4.0
 40
4.0
 40
4.0
 40
5.0
 40
5.0
 40
5.0
 40
6.0
 40
6.0
 40
6.0
 40
6.0
 10
5.005178057039503
 20
-9.842944570645057
 30
0.0
 10
5.014045108905823
 20
-9.844492490024396
 30
0.0
 10
5.015242923847229
 20
-9.847502710022228
 30
0.0
 10
5.009898109122837
 20
-9.854807431430646
 30
0.0
 10
4.993349104674052
 20
-9.876913178229692
 30
0.0
 10
4.982144067239156
 20
-9.902933652133771
 30
0.0
 10
4.983725895038635
 20
-9.931103919874658
 30
0.0
 10
4.984048025029955
 20
-9.940494856832122
 30
0.0
 10
4.982093204608948
 20
-9.942205536628129
 30
0.0
 10
4.972893850225267
 20
-9.939460650017887
 30
0.0
 10
4.895866635327264
 20
-9.916090966858165
 30
0.0
 10
4.819458249096795
 20
-9.890001828403303
 30
0.0
 10
4.742830305845927
 20
-9.865690338874223
 30
0.0
 10
4.73235260402301
 20
-9.861310218702783
 30
0.0
 10
4.711021664624139
 20
-9.803265785109033
 30
0.0
 10
4.728498064363722
 20
-9.804093998270925
 30
0.0
 10
4.821200294181431
 20
-9.816116228631168
 30
0.0
 10
4.913037859285597
 20
-9.827959592075178
 30
0.0
 10
5.005178057039503
 20
-9.842944570645057
 30
0.0
  0
SPLINE
  5
C4
330
7C
100
AcDbEntity
  8
Layer 3
100
AcDbSpline
210
0.0
220
0.0
230
1.0
 70
     9
 71
     3
 72
    11
 73
     7
 74
     0
 42
0.0000000001
 43
0.0000000001
 40
0.0
 40
0.0
 40
0.0
 40
0.0
 40
1.0
 40
1.0
 40
1.0
 40
2.0
 40
2.0
 40
2.0
 40
2.0
 10
5.061544023836378
 20
-9.879803023336028
 30
0.0
 10
5.058404951842021
 20
-9.903800012268321
 30
0.0
 10
5.050470381529521
 20
-9.92491563319931
 30
0.0
 10
5.033554318432733
 20
-9.941753706929778
 30
0.0
 10
4.958546349954
 20
-9.988577844299571
 30
0.0
 10
5.040693736292976
 20
-9.777415701016151
 30
0.0
 10
5.061544023836378
 20
-9.879803023336028
 30
0.0
  0
SPLINE
  5
C5
330
7C
100
AcDbEntity
  8
Layer 3
100
AcDbSpline
210
0.0
220
0.0
230
1.0
 70
     9
 71
     3
 72
    11
 73
     7
 74
     0
 42
0.0000000001
 43
0.0000000001
 40
0.0
 40
0.0
 40
0.0
 40
0.0
 40
1.0
 40
1.0
 40
1.0
 40
2.0
 40
2.0
 40
2.0
 40
2.0
 10
3.313238597132845
 20
-11.02701897250052
 30
0.0
 10
3.312228126212706
 20
-10.98747412522405
 30
0.0
 10
3.372790260001768
 20
-10.9874376736724
 30
0.0
 10
3.373378571091178
 20
-11.02615939405
 30
0.0
 10
3.373524377297775
 20
-11.06516848828828
 30
0.0
 10
3.314156667608105
 20
-11.06682576232257
 30
0.0
 10
3.313238597132845
 20
-11.02701897250052
 30
0.0
  0
SPLINE
  5
C6
330
7C
100
AcDbEntity
  8
Layer 3
100
AcDbSpline
210
0.0
220
0.0
230
1.0
 70
     9
 71
     3
 72
   317
 73
   313
 74
     0
 42
0.0000000001
 43
0.0000000001
 40
0.0
 40
0.0
 40
0.0
 40
0.0
 40
1.0
 40
1.0
 40
1.0
 40
2.0
 40
2.0
 40
2.0
 40
3.0
 40
3.0
 40
3.0
 40
4.0
 40
4.0
 40
4.0
 40
5.0
 40
5.0
 40
5.0
 40
6.0
 40
6.0
 40
6.0
 40
7.0
 40
7.0
 40
7.0
 40
8.0
 40
8.0
 40
8.0
 40
9.0
 40
9.0
 40
9.0
 40
10.0
 40
10.0
 40
10.0
 40
11.0
 40
11.0
 40
11.0
 40
12.0
 40
12.0
 40
12.0
 40
13.0
 40
13.0
 40
13.0
 40
14.0
 40
14.0
 40
14.0
 40
15.0
 40
15.0
 40
15.0
 40
16.0
 40
16.0
 40
16.0
 40
17.0
 40
17.0
 40
17.0
 40
18.0
 40
18.0
 40
18.0
 40
19.0
 40
19.0
 40
19.0
 40
20.0
 40
20.0
 40
20.0
 40
21.0
 40
21.0
 40
21.0
 40
22.0
 40
22.0
 40
22.0
 40
23.0
 40
23.0
 40
23.0
 40
24.0
 40
24.0
 40
24.0
 40
25.0
 40
25.0
 40
25.0
 40
26.0
 40
26.0
 40
26.0
 40
27.0
 40
27.0
 40
27.0
 40
28.0
 40
28.0
 40
28.0
 40
29.0
 40
29.0
 40
29.0
 40
30.0
 40
30.0
 40
30.0
 40
31.0
 40
31.0
 40
31.0
 40
32.0
 40
32.0
 40
32.0
 40
33.0
 40
33.0
 40
33.0
 40
34.0
 40
34.0
 40
34.0
 40
35.0
 40
35.0
 40
35.0
 40
36.0
 40
36.0
 40
36.0
 40
37.0
 40
37.0
 40
37.0
 40
38.0
 40
38.0
 40
38.0
 40
39.0
 40
39.0
 40
39.0
 40
40.0
 40
40.0
 40
40.0
 40
41.0
 40
41.0
 40
41.0
 40
42.0
 40
42.0
 40
42.0
 40
43.0
 40
43.0
 40
43.0
 40
44.0
 40
44.0
 40
44.0
 40
45.0
 40
45.0
 40
45.0
 40
46.0
 40
46.0
 40
46.0
 40
47.0
 40
47.0
 40
47.0
 40
48.0
 40
48.0
 40
48.0
 40
49.0
 40
49.0
 40
49.0
 40
50.0
 40
50.0
 40
50.0
 40
51.0
 40
51.0
 40
51.0
 40
52.0
 40
52.0
 40
52.0
 40
53.0
 40
53.0
 40
53.0
 40
54.0
 40
54.0
 40
54.0
 40
55.0
 40
55.0
 40
55.0
 40
56.0
 40
56.0
 40
56.0
 40
57.0
 40
57.0
 40
57.0
 40
58.0
 40
58.0
 40
58.0
 40
59.0
 40
59.0
 40
59.0
 40
60.0
 40
60.0
 40
60.0
 40
61.0
 40
61.0
 40
61.0
 40
62.0
 40
62.0
 40
62.0
 40
63.0
 40
63.0
 40
63.0
 40
64.0
 40
64.0
 40
64.0
 40
65.0
 40
65.0
 40
65.0
 40
66.0
 40
66.0
 40
66.0
 40
67.0
 40
67.0
 40
67.0
 40
68.0
 40
68.0
 40
68.0
 40
69.0
 40
69.0
 40
69.0
 40
70.0
 40
70.0
 40
70.0
 40
71.0
 40
71.0
 40
71.0
 40
72.0
 40
72.0
 40
72.0
 40
73.0
 40
73.0
 40
73.0
 40
74.0
 40
74.0
 40
74.0
 40
75.0
 40
75.0
 40
75.0
 40
76.0
 40
76.0
 40
76.0
 40
77.0
 40
77.0
 40
77.0
 40
78.0
 40
78.0
 40
78.0
 40
79.0
 40
79.0
 40
79.0
 40
80.0
 40
80.0
 40
80.0
 40
81.0
 40
81.0
 40
81.0
 40
82.0
 40
82.0
 40
82.0
 40
83.0
 40
83.0
 40
83.0
 40
84.0
 40
84.0
 40
84.0
 40
85.0
 40
85.0
 40
85.0
 40
86.0
 40
86.0
 40
86.0
 40
87.0
 40
87.0
 40
87.0
 40
88.0
 40
88.0
 40
88.0
 40
89.0
 40
89.0
 40
89.0
 40
90.0
 40
90.0
 40
90.0
 40
91.0
 40
91.0
 40
91.0
 40
92.0
 40
92.0
 40
92.0
 40
93.0
 40
93.0
 40
93.0
 40
94.0
 40
94.0
 40
94.0
 40
95.0
 40
95.0
 40
95.0
 40
96.0
 40
96.0
 40
96.0
 40
97.0
 40
97.0
 40
97.0
 40
98.0
 40
98.0
 40
98.0
 40
99.0
 40
99.0
 40
99.0
 40
100.0
 40
100.0
 40
100.0
 40
101.0
 40
101.0
 40
101.0
 40
102.0
 40
102.0
 40
102.0
 40
103.0
 40
103.0
 40
103.0
 40
104.0
 40
104.0
 40
104.0
 40
104.0
 10
5.219697133916674
 20
-10.99053436014158
 30
0.0
 10
5.200175208732212
 20
-10.9203227376915
 30
0.0
 10
5.118329607332472
 20
-10.88747565110296
 30
0.0
 10
5.053527225605042
 20
-10.92102548969887
 30
0.0
 10
5.016599260652784
 20
-10.91685984028481
 30
0.0
 10
4.993167694626309
 20
-10.85902140034341
 30
0.0
 10
4.962299164352871
 20
-10.83567375765677
 30
0.0
 10
4.938676015752611
 20
-10.81528632004827
 30
0.0
 10
4.987159970288201
 20
-10.79984781635903
 30
0.0
 10
4.986849708243931
 20
-10.77460638840764
 30
0.0
 10
4.931278046188809
 20
-10.70444986714028
 30
0.0
 10
4.801808916414503
 20
-10.65031083583603
 30
0.0
 10
4.80766998683551
 20
-10.53734662956433
 30
0.0
 10
4.854983253165806
 20
-10.57472472879393
 30
0.0
 10
4.966174896774746
 20
-10.76445505512856
 30
0.0
 10
5.03174699963933
 20
-10.71174780686467
 30
0.0
 10
5.047498308504347
 20
-10.68244838873316
 30
0.0
 10
5.107950239927959
 20
-10.59485022385686
 30
0.0
 10
5.094417389450527
 20
-10.57253339714245
 30
0.0
 10
4.950781321742194
 20
-10.5866562541303
 30
0.0
 10
4.85379052448742
 20
-10.43702093918889
 30
0.0
 10
4.851290626212681
 20
-10.30788156880044
 30
0.0
 10
4.92646389823959
 20
-10.35577890766762
 30
0.0
 10
4.968133955748271
 20
-10.44484700255695
 30
0.0
 10
4.992746382506084
 20
-10.5289415799224
 30
0.0
 10
5.122841122631951
 20
-10.35751586648924
 30
0.0
 10
4.911748491609816
 20
-10.19778008089896
 30
0.0
 10
4.790771725659295
 20
-10.09320820861163
 30
0.0
 10
4.759596324183601
 20
-10.06500911871363
 30
0.0
 10
4.715177141512159
 20
-9.903865285977088
 30
0.0
 10
4.747268918042108
 20
-9.886698300571271
 30
0.0
 10
4.844976878382819
 20
-9.898949412767452
 30
0.0
 10
5.072150577655823
 20
-10.05999999734861
 30
0.0
 10
5.077085948207038
 20
-9.878383108242713
 30
0.0
 10
5.083857459708775
 20
-9.794907359544795
 30
0.0
 10
4.821869985479174
 20
-9.819067108893754
 30
0.0
 10
4.761841061596795
 20
-9.788006148336028
 30
0.0
 10
4.825822011846361
 20
-9.744272763461896
 30
0.0
 10
5.113093299552525
 20
-9.700180797044795
 30
0.0
 10
5.116129798575962
 20
-9.629345259664153
 30
0.0
 10
5.108558896069451
 20
-9.44212754726181
 30
0.0
 10
4.930193824454868
 20
-9.605563589199745
 30
0.0
 10
4.841028242857646
 20
-9.636894121697574
 30
0.0
 10
4.80150289292275
 20
-9.63481044928004
 30
0.0
 10
4.949839515372837
 20
-9.501241791510942
 30
0.0
 10
4.965100847566847
 20
-9.500121965935855
 30
0.0
 10
4.985109358580302
 20
-9.495451928772228
 30
0.0
 10
5.001888940286031
 20
-9.476942169928911
 30
0.0
 10
5.006940447176222
 20
-9.457019277676307
 30
0.0
 10
5.03374420558551
 20
-9.411236976515283
 30
0.0
 10
5.082908023944885
 20
-9.379942047858598
 30
0.0
 10
5.11815328354775
 20
-9.339991994961463
 30
0.0
 10
5.145647926017368
 20
-9.306404009392887
 30
0.0
 10
5.200113325865459
 20
-9.302440115078651
 30
0.0
 10
5.206132070440111
 20
-9.250756901102956
 30
0.0
 10
5.263856069463549
 20
-9.145222877394189
 30
0.0
 10
5.173380775138462
 20
-9.040711192552608
 30
0.0
 10
5.065690175908861
 20
-9.110800744690196
 30
0.0
 10
4.981912642271709
 20
-9.127144603197139
 30
0.0
 10
5.019485714917108
 20
-9.171275564297401
 30
0.0
 10
4.972074961878913
 20
-9.212316620612504
 30
0.0
 10
4.939733958460944
 20
-9.242040741706254
 30
0.0
 10
4.915694584003479
 20
-9.286504853034379
 30
0.0
 10
4.877357724194451
 20
-9.307195771003129
 30
0.0
 10
4.849872406540371
 20
-9.310601024095577
 30
0.0
 10
4.825699093823358
 20
-9.337364092400699
 30
0.0
 10
4.82561432277301
 20
-9.364946049052175
 30
0.0
 10
4.813748071145406
 20
-9.395440738993581
 30
0.0
 10
4.781231591653218
 20
-9.41604858133299
 30
0.0
 10
4.761569794235684
 20
-9.442464088331689
 30
0.0
 10
4.620981245787334
 20
-9.362931888895925
 30
0.0
 10
4.444912621926682
 20
-9.207838166022661
 30
0.0
 10
4.590673899867194
 20
-9.035224810174137
 30
0.0
 10
4.602969940720059
 20
-9.022815176113807
 30
0.0
 10
4.605612254359382
 20
-8.994959408969709
 30
0.0
 10
4.581714447555996
 20
-8.998852095601653
 30
0.0
 10
4.392632619756542
 20
-9.094865482645925
 30
0.0
 10
4.423972477069911
 20
-9.366863570211028
 30
0.0
 10
4.581441484773878
 20
-9.480189748867713
 30
0.0
 10
4.603231883265632
 20
-9.508348996372053
 30
0.0
 10
4.65620022636459
 20
-9.560117829108598
 30
0.0
 10
4.62287503105209
 20
-9.594278019267019
 30
0.0
 10
4.601477970233948
 20
-9.627259891825612
 30
0.0
 10
4.567171126158427
 20
-9.557713722120752
 30
0.0
 10
4.559265378003045
 20
-9.537035519809553
 30
0.0
 10
4.452381799172775
 20
-9.316757097771793
 30
0.0
 10
4.03151133611939
 20
-9.324376319777002
 30
0.0
 10
3.946005320765657
 20
-9.559904206061723
 30
0.0
 10
3.937239146449251
 20
-9.577050846415456
 30
0.0
 10
3.885607642814268
 20
-9.649558068908946
 30
0.0
 10
3.869822425529112
 20
-9.640336674052175
 30
0.0
 10
3.794321937247862
 20
-9.58992078727917
 30
0.0
 10
3.852318899053418
 20
-9.507506372131603
 30
0.0
 10
3.903845286585969
 20
-9.461436697109901
 30
0.0
 10
3.978351410446647
 20
-9.39463710943629
 30
0.0
 10
4.030733137877202
 20
-9.298444855475786
 30
0.0
 10
4.014651221915831
 20
-9.195969371263545
 30
0.0
 10
4.006296187193608
 20
-9.130048011671533
 30
0.0
 10
3.945472958569477
 20
-8.990141870178478
 30
0.0
 10
3.869563026115049
 20
-9.003419559794362
 30
0.0
 10
3.864636980379373
 20
-9.009547659023963
 30
0.0
 10
3.867053803024772
 20
-9.021462230150264
 30
0.0
 10
3.873404850116786
 20
-9.031982317498355
 30
0.0
 10
3.971362037345518
 20
-9.143585948411983
 30
0.0
 10
3.931844316805154
 20
-9.286123383307817
 30
0.0
 10
3.813202993291699
 20
-9.363465098802608
 30
0.0
 10
3.77451179049222
 20
-9.386806807515716
 30
0.0
 10
3.737070960685362
 20
-9.446130436259206
 30
0.0
 10
3.69644782564847
 20
-9.450873376526134
 30
0.0
 10
3.67437513955906
 20
-9.421098392802175
 30
0.0
 10
3.636740184046907
 20
-9.397446422044795
 30
0.0
 10
3.624453468009581
 20
-9.362658926113807
 30
0.0
 10
3.626255700539963
 20
-9.338256731560855
 30
0.0
 10
3.597234331453591
 20
-9.308957313429345
 30
0.0
 10
3.573152571470952
 20
-9.307197466424137
 30
0.0
 10
3.52697523721531
 20
-9.277753089796533
 30
0.0
 10
3.49456556924656
 20
-9.224436337680646
 30
0.0
 10
3.454820662291265
 20
-9.185646800462764
 30
0.0
 10
3.453288001700987
 20
-9.182831553880733
 30
0.0
 10
3.45245385456557
 20
-9.179828115566932
 30
0.0
 10
3.451830787345518
 20
-9.176771271491411
 30
0.0
 10
3.452113922653678
 20
-9.175165707797834
 30
0.0
 10
3.452169871546907
 20
-9.173469439080387
 30
0.0
 10
3.451697696796473
 20
-9.171613800788286
 30
0.0
 10
3.451408627514789
 20
-9.170477021003129
 30
0.0
 10
3.450956797816438
 20
-9.169442814188894
 30
0.0
 10
3.450616018194043
 20
-9.168337399692365
 30
0.0
 10
3.449669125561664
 20
-9.157738475267452
 30
0.0
 10
3.449424137226161
 20
-9.147072581712764
 30
0.0
 10
3.439144799661057
 20
-9.139487268127696
 30
0.0
 10
3.325480384513487
 20
-9.045170149800872
 30
0.0
 10
3.17406996377781
 20
-9.088405928609466
 30
0.0
 10
3.244667294506977
 20
-9.253464488451045
 30
0.0
 10
3.25378187784031
 20
-9.281152408915456
 30
0.0
 10
3.268035282245692
 20
-9.303859182461463
 30
0.0
 10
3.297848412942307
 20
-9.311994660163286
 30
0.0
 10
3.299262394062098
 20
-9.312862715718841
 30
0.0
 10
3.300596690394563
 20
-9.313801978956689
 30
0.0
 10
3.302064924986577
 20
-9.314621715013545
 30
0.0
 10
3.30291772175307
 20
-9.315098128316497
 30
0.0
 10
3.303788320440137
 20
-9.3155380900678
 30
0.0
 10
3.30464620346965
 20
-9.316005178555213
 30
0.0
 10
3.353263248554286
 20
-9.358058401211463
 30
0.0
 10
3.405528839645866
 20
-9.404873213765716
 30
0.0
 10
3.443304515101595
 20
-9.456614072055646
 30
0.0
 10
3.451444231355935
 20
-9.488364221252696
 30
0.0
 10
3.475806583515223
 20
-9.496406450799137
 30
0.0
 10
3.50308845064847
 20
-9.507394474345144
 30
0.0
 10
3.533440725225293
 20
-9.546790124573009
 30
0.0
 10
3.590748498391525
 20
-9.575997989970144
 30
0.0
 10
3.610983348109407
 20
-9.621167396437158
 30
0.0
 10
3.611885312085102
 20
-9.625379669928911
 30
0.0
 10
3.612752519930154
 20
-9.629600420525699
 30
0.0
 10
3.614066471210536
 20
-9.633736400072139
 30
0.0
 10
3.614620026169303
 20
-9.635478445156776
 30
0.0
 10
3.615589806985275
 20
-9.637022973694103
 30
0.0
 10
3.616724043638921
 20
-9.638449670471446
 30
0.0
 10
3.522437442890223
 20
-9.611164412496185
 30
0.0
 10
3.3227736448759
 20
-9.433449534837764
 30
0.0
 10
3.330649723163661
 20
-9.641331886183252
 30
0.0
 10
3.337515330531282
 20
-9.674899526699745
 30
0.0
 10
3.381998939200987
 20
-9.673216821350353
 30
0.0
 10
3.407528588723557
 20
-9.686344466207122
 30
0.0
 10
3.497779239765223
 20
-9.721281159186723
 30
0.0
 10
3.5954787230009
 20
-9.745601125820838
 30
0.0
 10
3.681948585197081
 20
-9.786108124518754
 30
0.0
 10
3.588026499964876
 20
-9.821310150885942
 30
0.0
 10
3.262118262931456
 20
-9.779852868713634
 30
0.0
 10
3.400261166577289
 20
-9.956787004998355
 30
0.0
 10
3.440238346210536
 20
-10.00749365647405
 30
0.0
 10
3.751785519604633
 20
-9.839925025831689
 30
0.0
 10
3.783138092575553
 20
-9.869521142639415
 30
0.0
 10
3.779392059860709
 20
-9.986862078240543
 30
0.0
 10
3.730254520526942
 20
-10.10479471577309
 30
0.0
 10
3.643877906486143
 20
-10.18566545009384
 30
0.0
 10
3.55903819158814
 20
-10.26020209153264
 30
0.0
 10
3.410445560566004
 20
-10.40457312424749
 30
0.0
 10
3.535532874747862
 20
-10.50441477192544
 30
0.0
 10
3.544867015101595
 20
-10.42431291103134
 30
0.0
 10
3.6003615355009
 20
-10.34134070237249
 30
0.0
 10
3.680249773348123
 20
-10.32048448085556
 30
0.0
 10
3.666043840730935
 20
-10.44905164665417
 30
0.0
 10
3.566242035446647
 20
-10.55995676411294
 30
0.0
 10
3.428253415112445
 20
-10.5279158502132
 30
0.0
 10
3.521824548196213
 20
-10.68968020703828
 30
0.0
 10
3.493238902308626
 20
-10.66011630322969
 30
0.0
 10
3.660748193215744
 20
-10.59040059142414
 30
0.0
 10
3.634513248554286
 20
-10.68619950771103
 30
0.0
 10
3.549344621980935
 20
-10.74952093918889
 30
0.0
 10
3.459333025301248
 20
-10.78343698872231
 30
0.0
 10
3.472102088615049
 20
-10.79608737256563
 30
0.0
 10
3.515233599031716
 20
-10.80188910325139
 30
0.0
 10
3.502833289786924
 20
-10.8206167236941
 30
0.0
 10
3.472728546677116
 20
-10.85334513081216
 30
0.0
 10
3.44260261080472
 20
-10.88605319287813
 30
0.0
 10
3.412591963560796
 20
-10.91887908670408
 30
0.0
 10
3.389131575377202
 20
-10.92901007493108
 30
0.0
 10
3.359601579988748
 20
-10.8987417236941
 30
0.0
 10
3.3305861448759
 20
-10.90886084397405
 30
0.0
 10
3.267577518573817
 20
-10.91541279845539
 30
0.0
 10
3.212561954608973
 20
-10.97207207308646
 30
0.0
 10
3.227736820331629
 20
-11.0511583767974
 30
0.0
 10
3.258049252514789
 20
-11.20999982780651
 30
0.0
 10
3.508835080151508
 20
-11.1452500041303
 30
0.0
 10
3.455163985045171
 20
-10.98794206142196
 30
0.0
 10
3.452413164461404
 20
-10.97888681782388
 30
0.0
 10
3.453416005987012
 20
-10.9729859050092
 30
0.0
 10
3.460203623988313
 20
-10.96648311773707
 30
0.0
 10
3.534221466598991
 20
-10.89851199414766
 30
0.0
 10
3.601539005390223
 20
-10.82090409755478
 30
0.0
 10
3.677819387334668
 20
-10.75662305778698
 30
0.0
 10
3.660761756583799
 20
-10.85486168490287
 30
0.0
 10
3.631760732549512
 20
-10.85311370584471
 30
0.0
 10
3.726305885001768
 20
-10.92290655930608
 30
0.0
 10
3.745431081670605
 20
-10.93751684983342
 30
0.0
 10
3.768298920212272
 20
-10.79891703022622
 30
0.0
 10
3.795300195168869
 20
-10.77931372483342
 30
0.0
 10
3.796501400952289
 20
-10.77984778245061
 30
0.0
 10
3.797702606735709
 20
-10.7803818400678
 30
0.0
 10
3.798903812519129
 20
-10.78091504997448
 30
0.0
 10
3.787604679218348
 20
-10.84606499300834
 30
0.0
 10
3.760435557582063
 20
-10.90815639654566
 30
0.0
 10
3.722552222892393
 20
-10.96233866108559
 30
0.0
 10
3.713235884459233
 20
-11.0056261502349
 30
0.0
 10
3.805108205694043
 20
-10.99930222987899
 30
0.0
 10
3.833887977286924
 20
-10.99549940056042
 30
0.0
 10
3.840885827493088
 20
-10.99483988178872
 30
0.0
 10
3.843981666251768
 20
-10.99731519645886
 30
0.0
 10
3.844443668476161
 20
-11.00411044385469
 30
0.0
 10
3.851105825322949
 20
-11.06527529981172
 30
0.0
 10
3.889192610533452
 20
-11.11686187479002
 30
0.0
 10
3.926080733092046
 20
-11.16430823166936
 30
0.0
 10
3.935760739331195
 20
-11.14525424268282
 30
0.0
 10
3.936495704337706
 20
-11.10832288688854
 30
0.0
 10
3.961428565665831
 20
-11.13690344651311
 30
0.0
 10
3.992041087367219
 20
-11.13629479037162
 30
0.0
 10
4.018827043855935
 20
-11.07742638216849
 30
0.0
 10
4.045582482766525
 20
-11.05709913200573
 30
0.0
 10
4.045294261195345
 20
-11.05640316168238
 30
0.0
 10
4.045006039624164
 20
-11.05570803906953
 30
0.0
 10
4.044717818052983
 20
-11.05501206874618
 30
0.0
 10
3.997958954391959
 20
-11.06152502854436
 30
0.0
 10
3.921292864168435
 20
-11.06459374056693
 30
0.0
 10
3.931314497740483
 20
-10.99654971387422
 30
0.0
 10
3.938764177644998
 20
-10.96977223449054
 30
0.0
 10
4.03179701455906
 20
-11.01339541699922
 30
0.0
 10
4.060006276983105
 20
-11.01034196376571
 30
0.0
 10
3.97871846909465
 20
-10.90056006272405
 30
0.0
 10
4.12422373846314
 20
-10.73534298101832
 30
0.0
 10
4.064773800854633
 20
-10.99503994146754
 30
0.0
 10
4.191148787291265
 20
-10.92998494201007
 30
0.0
 10
4.146708411857237
 20
-10.96771399338811
 30
0.0
 10
4.204391720776508
 20
-10.84745693365504
 30
0.0
 10
4.216281708298209
 20
-11.01733981397188
 30
0.0
 10
4.033689952113314
 20
-11.04104349506997
 30
0.0
 10
4.294722056605501
 20
-11.09641424973577
 30
0.0
 10
4.281802100822081
 20
-11.03812398009601
 30
0.0
 10
4.311304121763921
 20
-11.05786461459037
 30
0.0
 10
4.353664215622428
 20
-11.04308478196233
 30
0.0
 10
4.375446137009147
 20
-11.0446886502349
 30
0.0
 10
4.452582706562098
 20
-11.00433084858559
 30
0.0
 10
4.451751102558191
 20
-11.03637769645886
 30
0.0
 10
4.445834930954459
 20
-11.07120757791502
 30
0.0
 10
4.42427510971965
 20
-11.09789011372231
 30
0.0
 10
4.396615163701855
 20
-11.11862596034774
 30
0.0
 10
4.396699934752202
 20
-11.1195923503217
 30
0.0
 10
4.396785553513053
 20
-11.12055874029566
 30
0.0
 10
4.396869476852897
 20
-11.12152513026962
 30
0.0
 10
4.429822527254373
 20
-11.13103305127657
 30
0.0
 10
4.463608877080736
 20
-11.12783803038898
 30
0.0
 10
4.495041134838983
 20
-11.11458916293021
 30
0.0
 10
4.506225827221795
 20
-11.11049133035643
 30
0.0
 10
4.506262278773444
 20
-11.11045742193629
 30
0.0
 10
4.512420047870667
 20
-11.12036546230087
 30
0.0
 10
4.519085595559468
 20
-11.13108900016979
 30
0.0
 10
4.527555918910163
 20
-11.13989925543238
 30
0.0
 10
4.538894894604608
 20
-11.14584933545625
 30
0.0
 10
4.55780901135808
 20
-11.15577433003091
 30
0.0
 10
4.561147295320753
 20
-11.15434932867457
 30
0.0
 10
4.568207876104174
 20
-11.13402970790634
 30
0.0
 10
4.593025448803826
 20
-11.06882551140026
 30
0.0
 10
4.548027279858514
 20
-11.01153299702309
 30
0.0
 10
4.518281966002177
 20
-10.95711252583169
 30
0.0
 10
4.513795034307299
 20
-10.94903130160209
 30
0.0
 10
4.515118310403218
 20
-10.94750711811684
 30
0.0
 10
4.524287147208775
 20
-10.94586595058212
 30
0.0
 10
4.596132307799052
 20
-10.94780212137205
 30
0.0
 10
4.587359351798618
 20
-10.891514991652
 30
0.0
 10
4.609256561813809
 20
-10.84075578212509
 30
0.0
 10
4.646871172273878
 20
-10.92724429395235
 30
0.0
 10
4.713869971915806
 20
-11.02891021463377
 30
0.0
 10
4.818657162671014
 20
-10.9624141073204
 30
0.0
 10
4.764279924715284
 20
-10.92592101785643
 30
0.0
 10
4.695805261086812
 20
-10.87872643099662
 30
0.0
 10
4.694765968009556
 20
-10.80727036952743
 30
0.0
 10
4.728124224031691
 20
-10.83498456901745
 30
0.0
 10
4.775679935565979
 20
-10.92433410379393
 30
0.0
 10
4.810743785121101
 20
-10.84648800054957
 30
0.0
 10
4.818577477883687
 20
-10.83322726514375
 30
0.0
 10
4.817773000615892
 20
-10.83145555019149
 30
0.0
 10
4.806492516946187
 20
-10.82136779520018
 30
0.0
 10
4.782982961553392
 20
-10.79932901753091
 30
0.0
 10
4.756777686759556
 20
-10.77350266933212
 30
0.0
 10
4.754440548901483
 20
-10.73946878803872
 30
0.0
 10
4.838971697176222
 20
-10.80949306646754
 30
0.0
 10
4.912875098868931
 20
-10.89508893913464
 30
0.0
 10
4.993924700105909
 20
-10.97023084587292
 30
0.0
 10
5.004212514776049
 20
-10.98611694070799
 30
0.0
 10
4.986370751809468
 20
-11.00781409104436
 30
0.0
 10
4.989038496763896
 20
-11.02581861442761
 30
0.0
 10
4.990258352178392
 20
-11.20264424376788
 30
0.0
 10
5.27051653088933
 20
-11.16831451150877
 30
0.0
 10
5.219697133916674
 20
-10.99053436014158
 30
0.0
  0
HATCH
  5
C7
330
7C
100
AcDbEntity
  8
Layer 3
 62
    18
420
        0
440
 33554687
100
AcDbHatch
 10
0.0
 20
0.0
 30
0.0
210
0.0
220
0.0
230
1.0
  2
SOLID
 70
     1
 71
     1
 91
       67
 92
        1
 93
        1
 72
     4
 94
        3
 73
     0
 74
     0
 95
       11
 96
        7
 40
0.0
 40
0.0
 40
0.0
 40
0.0
 40
1.0
 40
1.0
 40
1.0
 40
2.0
 40
2.0
 40
2.0
 40
2.0
 10
5.077453006855042
 20
-11.02674770513941
 10
5.077203779967021
 20
-10.9874385213829
 10
5.137382748608514
 20
-10.98779710292587
 10
5.138132972404087
 20
-11.02637216938638
 10
5.137124196904955
 20
-11.06520493983993
 10
5.078620304218323
 20
-11.06620099968151
 10
5.077453006855042
 20
-11.02674770513941
 97
        0
 97
        1
330
84
 92
        1
 93
        1
 72
     4
 94
        3
 73
     0
 74
     0
 95
       74
 96
       70
 40
0.0
 40
0.0
 40
0.0
 40
0.0
 40
1.0
 40
1.0
 40
1.0
 40
2.0
 40
2.0
 40
2.0
 40
3.0
 40
3.0
 40
3.0
 40
4.0
 40
4.0
 40
4.0
 40
5.0
 40
5.0
 40
5.0
 40
6.0
 40
6.0
 40
6.0
 40
7.0
 40
7.0
 40
7.0
 40
8.0
 40
8.0
 40
8.0
 40
9.0
 40
9.0
 40
9.0
 40
10.0
 40
10.0
 40
10.0
 40
11.0
 40
11.0
 40
11.0
 40
12.0
 40
12.0
 40
12.0
 40
13.0
 40
13.0
 40
13.0
 40
14.0
 40
14.0
 40
14.0
 40
15.0
 40
15.0
 40
15.0
 40
16.0
 40
16.0
 40
16.0
 40
17.0
 40
17.0
 40
17.0
 40
18.0
 40
18.0
 40
18.0
 40
19.0
 40
19.0
 40
19.0
 40
20.0
 40
20.0
 40
20.0
 40
21.0
 40
21.0
 40
21.0
 40
22.0
 40
22.0
 40
22.0
 40
23.0
 40
23.0
 40
23.0
 40
23.0
 10
4.748017446416674
 20
-10.38783084180391
 10
4.764534237866326
 20
-10.35973686800834
 10
4.764482527525615
 20
-10.32857418219019
 10
4.757151527091587
 20
-10.29751237392196
 10
4.748103912888027
 20
-10.25857787820799
 10
4.727544390047316
 20
-10.22263834370278
 10
4.691775245353306
 20
-10.20233398172361
 10
4.686384654261726
 20
-10.19934919304089
 10
4.685683597675354
 20
-10.1956896267974
 10
4.688238597132819
 20
-10.19026597499618
 10
4.699039276657559
 20
-10.17832597255478
 10
4.700196401494799
 20
-10.1357285197553
 10
4.72103397338065
 20
-10.14510843647622
 10
4.781977576896275
 20
-10.17250898307995
 10
4.829793535555128
 20
-10.22405062940157
 10
4.884483578686639
 20
-10.25739786518716
 10
4.85041409355209
 20
-10.20188639057778
 10
4.780715335956604
 20
-10.16317908127874
 10
4.724636743020406
 20
-10.12815253098577
 10
4.709983219257385
 20
-10.10977840582301
 10
4.733489383808167
 20
-10.06031704107691
 10
4.739128354077264
 20
-10.03722116840981
 10
4.782436188278652
 20
-10.14562638759384
 10
4.906268890915371
 20
-10.18818823655217
 10
4.965775625127611
 20
-10.28711096604436
 10
4.997381663539069
 20
-10.34141275776528
 10
5.050228784036031
 20
-10.42325581603351
 10
4.997654626321187
 20
-10.47845702859861
 10
4.953149824888896
 20
-10.39314683437118
 10
4.899185421948358
 20
-10.28071753342717
 10
4.796991377623271
 20
-10.25891187614636
 10
4.803120324563375
 20
-10.27530066330998
 10
4.83116597886025
 20
-10.27504465473794
 10
4.832642690557299
 20
-10.29483276102049
 10
4.834634810240459
 20
-10.42656612554957
 10
4.918189396015198
 20
-10.58241854932344
 10
5.063374230813375
 20
-10.58867550054957
 10
5.073474701462246
 20
-10.58953507900009
 10
5.075475298250441
 20
-10.59231472174098
 10
5.071608890644104
 20
-10.60146406120495
 10
5.061716109068584
 20
-10.62487104362682
 10
5.058499047707906
 20
-10.62717512077526
 10
5.032748145743931
 20
-10.62567297776311
 10
4.900229801288635
 20
-10.60821946620712
 10
4.836886329337681
 20
-10.46559726026094
 10
4.792143321253913
 20
-10.35545338683429
 10
4.789730737161031
 20
-10.3399275689632
 10
4.772278073315545
 20
-10.34662787278264
 10
4.779836260164503
 20
-10.35988436963594
 10
4.824886139450527
 20
-10.47878509256346
 10
4.894179691425354
 20
-10.63171376281085
 10
5.038276065937073
 20
-10.64342064486381
 10
5.048748681496968
 20
-10.64460743956867
 10
5.050684004576396
 20
-10.64686404492891
 10
5.045519752189243
 20
-10.65576246208386
 10
5.032145423575962
 20
-10.66949706766111
 10
5.023937890481343
 20
-10.71740712218585
 10
4.999716258265632
 20
-10.70413282341198
 10
4.9161879515165
 20
-10.64621978494627
 10
4.844968401277784
 20
-10.56714704460339
 10
4.79606822088499
 20
-10.47815439594887
 10
4.79606822088499
 20
-10.47815439594887
 10
4.793314009459209
 20
-10.47861470275226
 10
4.793314009459209
 20
-10.47861470275226
 10
4.737098935131951
 20
-10.68380557324922
 10
5.061098975822056
 20
-10.78622171772622
 10
4.936761037725267
 20
-10.79666296799749
 10
4.808966983905823
 20
-10.70470587571233
 10
4.689452518573792
 20
-10.55227735466198
 10
4.748017446416674
 20
-10.38783084180391
 97
        0
 97
        1
330
85
 92
        1
 93
        1
 72
     4
 94
        3
 73
     0
 74
     0
 95
       41
 96
       37
 40
0.0
 40
0.0
 40
0.0
 40
0.0
 40
1.0
 40
1.0
 40
1.0
 40
2.0
 40
2.0
 40
2.0
 40
3.0
 40
3.0
 40
3.0
 40
4.0
 40
4.0
 40
4.0
 40
5.0
 40
5.0
 40
5.0
 40
6.0
 40
6.0
 40
6.0
 40
7.0
 40
7.0
 40
7.0
 40
8.0
 40
8.0
 40
8.0
 40
9.0
 40
9.0
 40
9.0
 40
10.0
 40
10.0
 40
10.0
 40
11.0
 40
11.0
 40
11.0
 40
12.0
 40
12.0
 40
12.0
 40
12.0
 10
4.919367713615025
 20
-10.82168060037596
 10
4.879497345505215
 20
-10.85747687180608
 10
4.857580638148444
 20
-10.79750728765894
 10
4.831228709437507
 20
-10.77330684820582
 10
4.773286848814677
 20
-10.71355936421059
 10
4.732690840513896
 20
-10.633337128425
 10
4.681214467901049
 20
-10.57370408534775
 10
4.680577837312941
 20
-10.59999328348143
 10
4.70354401027301
 20
-10.62615532503959
 10
4.714475237215284
 20
-10.65055158561901
 10
4.743075294181431
 20
-10.70770338005261
 10
4.724225603426222
 20
-10.78091165913247
 10
4.784620738246101
 20
-10.82465352111164
 10
4.797949290492194
 20
-10.83672576639158
 10
4.797521196687941
 20
-10.83898321946233
 10
4.785999115524746
 20
-10.85320356315808
 10
4.754653324237854
 20
-10.88827504210773
 10
4.67110721556815
 20
-10.72934882004827
 10
4.661901927210944
 20
-10.70410061041285
 10
4.66268436400565
 20
-10.80261898199488
 10
4.690714759513462
 20
-10.89633676899575
 10
4.774855113246101
 20
-10.95708539909558
 10
4.676247732061205
 20
-11.00045342074271
 10
4.63404446464584
 20
-10.84789265685382
 10
4.609571062410597
 20
-10.77831851270235
 10
4.643528649758687
 20
-10.70771524799966
 10
4.668496267217455
 20
-10.62945715745061
 10
4.663351512171882
 20
-10.54621113829913
 10
4.665110511466587
 20
-10.52618736849662
 10
4.659352861727003
 20
-10.50389851622882
 10
4.666397336010858
 20
-10.48522684467934
 10
4.721518016078132
 20
-10.59025817605955
 10
4.788700768899312
 20
-10.69412560091849
 10
4.880740089103306
 20
-10.7734238322553
 10
4.889084951299486
 20
-10.78769673400226
 10
4.937807112486552
 20
-10.80623955355521
 10
4.919367713615025
 20
-10.82168060037596
 97
        0
 97
        1
330
86
 92
        1
 93
        1
 72
     4
 94
        3
 73
     0
 74
     0
 95
       14
 96
       10
 40
0.0
 40
0.0
 40
0.0
 40
0.0
 40
1.0
 40
1.0
 40
1.0
 40
2.0
 40
2.0
 40
2.0
 40
3.0
 40
3.0
 40
3.0
 40
3.0
 10
3.982698469908452
 20
-10.73845153543455
 10
3.986740353589008
 20
-10.7158812432796
 10
3.981604075648469
 20
-10.6848508003
 10
3.992578535826421
 20
-10.66207705762422
 10
4.012173364114182
 20
-10.69086954487466
 10
4.016628082809928
 20
-10.74470509581867
 10
3.985008481030414
 20
-10.76641496181259
 10
3.980780948749598
 20
-10.75725629753307
 10
3.983271522208799
 20
-10.75054073492457
 10
3.982698469908452
 20
-10.73845153543455
 97
        0
 97
        1
330
87
 92
        1
 93
        1
 72
     4
 94
        3
 73
     0
 74
     0
 95
      176
 96
      172
 40
0.0
 40
0.0
 40
0.0
 40
0.0
 40
1.0
 40
1.0
 40
1.0
 40
2.0
 40
2.0
 40
2.0
 40
3.0
 40
3.0
 40
3.0
 40
4.0
 40
4.0
 40
4.0
 40
5.0
 40
5.0
 40
5.0
 40
6.0
 40
6.0
 40
6.0
 40
7.0
 40
7.0
 40
7.0
 40
8.0
 40
8.0
 40
8.0
 40
9.0
 40
9.0
 40
9.0
 40
10.0
 40
10.0
 40
10.0
 40
11.0
 40
11.0
 40
11.0
 40
12.0
 40
12.0
 40
12.0
 40
13.0
 40
13.0
 40
13.0
 40
14.0
 40
14.0
 40
14.0
 40
15.0
 40
15.0
 40
15.0
 40
16.0
 40
16.0
 40
16.0
 40
17.0
 40
17.0
 40
17.0
 40
18.0
 40
18.0
 40
18.0
 40
19.0
 40
19.0
 40
19.0
 40
20.0
 40
20.0
 40
20.0
 40
21.0
 40
21.0
 40
21.0
 40
22.0
 40
22.0
 40
22.0
 40
23.0
 40
23.0
 40
23.0
 40
24.0
 40
24.0
 40
24.0
 40
25.0
 40
25.0
 40
25.0
 40
26.0
 40
26.0
 40
26.0
 40
27.0
 40
27.0
 40
27.0
 40
28.0
 40
28.0
 40
28.0
 40
29.0
 40
29.0
 40
29.0
 40
30.0
 40
30.0
 40
30.0
 40
31.0
 40
31.0
 40
31.0
 40
32.0
 40
32.0
 40
32.0
 40
33.0
 40
33.0
 40
33.0
 40
34.0
 40
34.0
 40
34.0
 40
35.0
 40
35.0
 40
35.0
 40
36.0
 40
36.0
 40
36.0
 40
37.0
 40
37.0
 40
37.0
 40
38.0
 40
38.0
 40
38.0
 40
39.0
 40
39.0
 40
39.0
 40
40.0
 40
40.0
 40
40.0
 40
41.0
 40
41.0
 40
41.0
 40
42.0
 40
42.0
 40
42.0
 40
43.0
 40
43.0
 40
43.0
 40
44.0
 40
44.0
 40
44.0
 40
45.0
 40
45.0
 40
45.0
 40
46.0
 40
46.0
 40
46.0
 40
47.0
 40
47.0
 40
47.0
 40
48.0
 40
48.0
 40
48.0
 40
49.0
 40
49.0
 40
49.0
 40
50.0
 40
50.0
 40
50.0
 40
51.0
 40
51.0
 40
51.0
 40
52.0
 40
52.0
 40
52.0
 40
53.0
 40
53.0
 40
53.0
 40
54.0
 40
54.0
 40
54.0
 40
55.0
 40
55.0
 40
55.0
 40
56.0
 40
56.0
 40
56.0
 40
57.0
 40
57.0
 40
57.0
 40
57.0
 10
4.540469093009556
 20
-11.03332085238334
 10
4.56934719902084
 20
-11.06673929585122
 10
4.557532657733948
 20
-11.18403530279566
 10
4.520977685403218
 20
-11.09224266634818
 10
4.505675663105042
 20
-11.07532490783039
 10
4.464565094528652
 20
-11.1152936103586
 10
4.441587901332064
 20
-11.10705810281736
 10
4.492614987378045
 20
-11.02610429286728
 10
4.463057865253479
 20
-10.99615044222709
 10
4.389058672273904
 20
-10.95209153651962
 10
4.281509640698383
 20
-10.83167256408039
 10
4.556888397751309
 20
-10.73029910352266
 10
4.558806766620667
 20
-10.60089863829913
 10
4.584508501375441
 20
-10.49226962354219
 10
4.576145837258687
 20
-10.37916045877439
 10
4.576645138745233
 20
-10.26841810173229
 10
4.560670882017802
 20
-10.09238932026528
 10
4.570296634784729
 20
-9.854937131137678
 10
4.424480255661491
 20
-9.735709191955821
 10
4.468297563875441
 20
-9.798655087680646
 10
4.521136207267368
 20
-9.875093143778737
 10
4.525991893031257
 20
-9.957774587734901
 10
4.457991947284729
 20
-9.894521820807817
 10
4.418380130878505
 20
-9.800882023173269
 10
4.363856239005674
 20
-9.728480764492713
 10
4.391598412942307
 20
-9.817451372674137
 10
4.462543304977871
 20
-9.902008799974483
 10
4.516703529044712
 20
-9.980107520948877
 10
4.468524750290371
 20
-9.960820411573877
 10
4.440458750941439
 20
-9.916124875278303
 10
4.41633545314413
 20
-9.872415226298269
 10
4.416588070874164
 20
-9.918954532938894
 10
4.456921288918843
 20
-9.948883799974483
 10
4.481699866935337
 20
-9.982340390415021
 10
4.418719215079893
 20
-9.989435727329084
 10
4.386073883591178
 20
-9.924389204976653
 10
4.350529382180588
 20
-9.887948673563894
 10
4.351314362106803
 20
-9.925435279737939
 10
4.391444977341178
 20
-9.951991506680213
 10
4.413120087204459
 20
-9.979393748704952
 10
4.300296600876334
 20
-9.982265791890716
 10
4.278912255715744
 20
-9.843456587789153
 10
4.245497203089876
 20
-9.769454851678043
 10
4.238322181388487
 20
-9.769618459805213
 10
4.237617733960101
 20
-9.775752493008338
 10
4.23736342080906
 20
-9.781304996806081
 10
4.236124068052983
 20
-9.853663869961463
 10
4.183128598217914
 20
-9.926512719787853
 10
4.112769474140224
 20
-9.943602563537853
 10
4.141104197718783
 20
-9.903429562778303
 10
4.185248722187099
 20
-9.863069217997487
 10
4.188839623879807
 20
-9.811196964579519
 10
4.150963070874164
 20
-9.874626055291324
 10
4.101602583677983
 20
-9.969556068312158
 10
4.015871925040831
 20
-9.966370372240108
 10
4.045973277308626
 20
-9.930067169928911
 10
4.098849219962706
 20
-9.890066254401567
 10
4.093228899324685
 20
-9.83658080789549
 10
4.067831492640658
 20
-9.883343910109033
 10
4.04050554456123
 20
-9.938837582797834
 10
3.98726084783814
 20
-9.960213450853389
 10
3.976611908493522
 20
-9.937379520731862
 10
4.060088504901942
 20
-9.78874111334254
 10
4.029196238734408
 20
-9.800676877231428
 10
3.897591726201855
 20
-10.07744503179957
 10
3.889888580856803
 20
-10.42808013650877
 10
4.095276967901074
 20
-10.67124335129827
 10
4.160843984502636
 20
-10.75646623134384
 10
4.101098195928417
 20
-10.81807359218368
 10
4.024194746763921
 20
-10.86157979064289
 10
3.950950016132411
 20
-10.89665805127657
 10
3.846693492152376
 20
-11.03611236307127
 10
3.969927711173643
 20
-11.07366000440157
 10
4.013672963994824
 20
-11.07496378315591
 10
3.990387204174945
 20
-11.09062438699705
 10
3.971362885056022
 20
-11.11120679802136
 10
3.956850081236577
 20
-11.12611802577743
 10
3.933780487595084
 20
-11.07373714605738
 10
3.926348609611143
 20
-11.09726365566024
 10
3.923486738951421
 20
-11.16406578646537
 10
3.865876333135449
 20
-11.04252868387205
 10
3.864023237974858
 20
-11.01972188048663
 10
3.806530663918869
 20
-10.83452087137205
 10
4.072116669235709
 20
-10.82777648660643
 10
4.013581411260449
 20
-10.66715992980304
 10
3.940570648727897
 20
-10.54258548047578
 10
3.866026377894563
 20
-10.41904099941024
 10
3.871522085088574
 20
-10.26786708990504
 10
3.87654307440064
 20
-10.06991142855521
 10
3.859327769496126
 20
-9.805593598151567
 10
4.04268331284465
 20
-9.68229834397405
 10
4.007937354728331
 20
-9.678658275072139
 10
3.983926802427983
 20
-9.716362742845577
 10
3.961749000236143
 20
-9.73840660677787
 10
3.885355025084233
 20
-9.757898862094709
 10
4.072454058016091
 20
-9.624448036085595
 10
4.094553023131108
 20
-9.629423249030473
 10
4.109169247631976
 20
-9.627447235846879
 10
4.174954125832932
 20
-9.737473277513545
 10
4.202771746004373
 20
-9.718499821024831
 10
4.205399648565136
 20
-9.697592736877696
 10
4.169175283330761
 20
-9.687916969191064
 10
4.157465010435796
 20
-9.67186387538681
 10
4.076813833135449
 20
-9.613507484327783
 10
4.122157020255674
 20
-9.521355418626827
 10
4.208312381855067
 20
-9.506838376254865
 10
4.182718306334233
 20
-9.54600429693629
 10
4.157378543964442
 20
-9.589148523010509
 10
4.183836436488314
 20
-9.635931970276134
 10
4.199053687736143
 20
-9.661013180942365
 10
4.224102685403244
 20
-9.709371674323442
 10
4.255609541685796
 20
-9.705753645894622
 10
4.200451562356369
 20
-9.628070303066932
 10
4.139781769333366
 20
-9.580150076016151
 10
4.249417864168435
 20
-9.498711375658077
 10
4.309069556876768
 20
-9.420247291456689
 10
3.980310469420171
 20
-9.586128978197139
 10
4.002695960685362
 20
-9.625604313212331
 10
4.03401632065715
 20
-9.603220517368146
 10
4.062418861075987
 20
-9.561919213928478
 10
4.103215776766091
 20
-9.555396929314762
 10
4.103816803513053
 20
-9.570001285868581
 10
4.093100895038661
 20
-9.585714447760942
 10
4.096805389938834
 20
-9.601934540534379
 10
4.074008759079459
 20
-9.630248071350353
 10
4.017120602612445
 20
-9.637270505161115
 10
3.989073252894563
 20
-9.669831913309987
 10
3.939171926397168
 20
-9.70371914068629
 10
3.932346161423209
 20
-9.754169783589935
 10
3.876249766566438
 20
-9.694501136671533
 10
3.877661204554719
 20
-9.640149330030908
 10
3.967422726635883
 20
-9.571884898607295
 10
4.013502574183626
 20
-9.539906715284814
 10
4.013502574183626
 20
-9.539906715284814
 10
4.015442983526074
 20
-9.54202260070148
 10
4.015442983526074
 20
-9.54202260070148
 10
3.982956173901508
 20
-9.585078664883338
 10
3.935043576245258
 20
-9.629401208557384
 10
3.925006683884147
 20
-9.682388201287418
 10
4.02817644299873
 20
-9.465818512702348
 10
4.271802507723123
 20
-9.401072079868146
 10
4.476178728426222
 20
-9.524446171122487
 10
4.387787106518695
 20
-9.520934106506603
 10
4.273998077927116
 20
-9.549371403056081
 10
4.218925717358539
 20
-9.618304678066932
 10
4.291282047382411
 20
-9.581054583123355
 10
4.373822771394998
 20
-9.519482826124658
 10
4.466453793530389
 20
-9.538341841695403
 10
4.529790483797316
 20
-9.546083981723615
 10
4.600074161640198
 20
-9.603250187235769
 10
4.619180708677959
 20
-9.65908803038898
 10
4.600704858254781
 20
-9.688571401699745
 10
4.575384593226569
 20
-9.710711904629432
 10
4.54574100463065
 20
-9.72834852165417
 10
4.524060808504347
 20
-9.728985999952783
 10
4.510573734394104
 20
-9.696850990187158
 10
4.490473670646275
 20
-9.688109399475353
 10
4.4743909069744
 20
-9.682638275885942
 10
4.442812843009581
 20
-9.652581004564327
 10
4.429767426071647
 20
-9.670851709045665
 10
4.42779565144057
 20
-9.677502845655908
 10
4.43324473455689
 20
-9.679840831224483
 10
4.438225881475292
 20
-9.681477760206689
 10
4.490759349085944
 20
-9.698737993767887
 10
4.525330678838549
 20
-9.73675865755912
 10
4.553364465188375
 20
-9.781902632711028
 10
4.681478105867628
 20
-10.01218234326875
 10
4.667220462909729
 20
-10.45356231424314
 10
4.621186391729174
 20
-10.70996931022839
 10
4.520420739602437
 20
-10.85986317687335
 10
4.400523956833366
 20
-10.82159582932561
 10
4.540469093009556
 20
-11.03332085238334
 97
        0
 97
        1
330
88
 92
        1
 93
        1
 72
     4
 94
        3
 73
     0
 74
     0
 95
       14
 96
       10
 40
0.0
 40
0.0
 40
0.0
 40
0.0
 40
1.0
 40
1.0
 40
1.0
 40
2.0
 40
2.0
 40
2.0
 40
3.0
 40
3.0
 40
3.0
 40
3.0
 10
4.547388106138896
 20
-10.91399118794106
 10
4.566582815069017
 20
-10.87472523742023
 10
4.545624868291674
 20
-10.80969651698837
 10
4.587234738354608
 20
-10.78594027783907
 10
4.59217434745834
 20
-10.78478569613334
 10
4.594889564200962
 20
-10.7883418416954
 10
4.594271583243931
 20
-10.79546345763507
 10
4.593594262551656
 20
-10.8164909166737
 10
4.57542867417275
 20
-10.95501274691459
 10
4.547388106138896
 20
-10.91399118794106
 97
        0
 97
        1
330
89
 92
        1
 93
        1
 72
     4
 94
        3
 73
     0
 74
     0
 95
       11
 96
        7
 40
0.0
 40
0.0
 40
0.0
 40
0.0
 40
1.0
 40
1.0
 40
1.0
 40
2.0
 40
2.0
 40
2.0
 40
2.0
 10
4.496248274595927
 20
-10.90728410243759
 10
4.507534692239156
 20
-10.87831529140243
 10
4.509031748988288
 20
-10.82915316846406
 10
4.54320465480426
 20
-10.82024881733559
 10
4.551132443432733
 20
-10.84301323519584
 10
4.521521067835944
 20
-10.98181141906085
 10
4.496248274595927
 20
-10.90728410243759
 97
        0
 97
        1
330
8A
 92
        1
 93
        1
 72
     4
 94
        3
 73
     0
 74
     0
 95
       11
 96
        7
 40
0.0
 40
0.0
 40
0.0
 40
0.0
 40
1.0
 40
1.0
 40
1.0
 40
2.0
 40
2.0
 40
2.0
 40
2.0
 10
4.407013180737445
 20
-11.01388708909124
 10
4.388109236510015
 20
-11.01368109543889
 10
4.405719574509147
 20
-10.96769364833603
 10
4.429873389884581
 20
-11.00471062289115
 10
4.423549469528678
 20
-11.01019530984861
 10
4.414678179109841
 20
-11.01277828375269
 10
4.407013180737445
 20
-11.01388708909124
 97
        0
 97
        1
330
8B
 92
        1
 93
        1
 72
     4
 94
        3
 73
     0
 74
     0
 95
       14
 96
       10
 40
0.0
 40
0.0
 40
0.0
 40
0.0
 40
1.0
 40
1.0
 40
1.0
 40
2.0
 40
2.0
 40
2.0
 40
3.0
 40
3.0
 40
3.0
 40
3.0
 10
4.366109453523904
 20
-11.02270751687986
 10
4.356873647588574
 20
-11.02293809413681
 10
4.327068146286491
 20
-11.03916666401528
 10
4.329980879576421
 20
-11.02197848584688
 10
4.354792518302549
 20
-10.97281551519801
 10
4.325968665763487
 20
-10.89214229742457
 10
4.389060367694911
 20
-10.98021772331432
 10
4.381215654695779
 20
-10.9941278049658
 10
4.382111684697949
 20
-11.01667859977917
 10
4.366109453523904
 20
-11.02270751687986
 97
        0
 97
        1
330
8C
 92
        1
 93
        1
 72
     4
 94
        3
 73
     0
 74
     0
 95
       11
 96
        7
 40
0.0
 40
0.0
 40
0.0
 40
0.0
 40
1.0
 40
1.0
 40
1.0
 40
2.0
 40
2.0
 40
2.0
 40
2.0
 10
4.28546166706557
 20
-11.01359886752006
 10
4.287567379956195
 20
-10.9640010213829
 10
4.294065928675814
 20
-10.91590192741589
 10
4.32330092080906
 20
-10.87991661654349
 10
4.351593258862445
 20
-10.90753332932561
 10
4.290734426397167
 20
-11.12587558057344
 10
4.28546166706557
 20
-11.01359886752006
 97
        0
 97
        1
330
8D
 92
        1
 93
        1
 72
     4
 94
        3
 73
     0
 74
     0
 95
       50
 96
       46
 40
0.0
 40
0.0
 40
0.0
 40
0.0
 40
1.0
 40
1.0
 40
1.0
 40
2.0
 40
2.0
 40
2.0
 40
3.0
 40
3.0
 40
3.0
 40
4.0
 40
4.0
 40
4.0
 40
5.0
 40
5.0
 40
5.0
 40
6.0
 40
6.0
 40
6.0
 40
7.0
 40
7.0
 40
7.0
 40
8.0
 40
8.0
 40
8.0
 40
9.0
 40
9.0
 40
9.0
 40
10.0
 40
10.0
 40
10.0
 40
11.0
 40
11.0
 40
11.0
 40
12.0
 40
12.0
 40
12.0
 40
13.0
 40
13.0
 40
13.0
 40
14.0
 40
14.0
 40
14.0
 40
15.0
 40
15.0
 40
15.0
 40
15.0
 10
4.267396956236577
 20
-11.05592166211641
 10
4.228057254901942
 20
-10.96400186909341
 10
4.288988142760015
 20
-10.86565388732257
 10
4.299769324943174
 20
-10.77651967101398
 10
4.254889835468349
 20
-10.85295264084905
 10
4.227480811759581
 20
-10.96257008605304
 10
4.246563622903244
 20
-11.05291991922361
 10
4.248580326191005
 20
-11.05988386100964
 10
4.245081824943174
 20
-11.06467935932778
 10
4.237384613571647
 20
-11.06174204243325
 10
4.083661638582498
 20
-11.03587754726181
 10
4.259036835251334
 20
-10.98360856532822
 10
4.219956533330761
 20
-10.78097947597274
 10
4.219149512931456
 20
-10.78081586784557
 10
4.218341644821647
 20
-10.78065310742891
 10
4.217533776711838
 20
-10.78049034701224
 10
4.180673628599858
 20
-10.82658375792804
 10
4.175860328361143
 20
-10.897374366652
 10
4.137814233254807
 20
-10.93762366135686
 10
4.070457699780414
 20
-10.98581176492674
 10
4.17248559284682
 20
-10.77041276454696
 10
4.177353994268261
 20
-10.74600378830999
 10
4.185549659415831
 20
-10.71542941358125
 10
4.303919715568174
 20
-10.76311228169106
 10
4.384762475442307
 20
-10.7027451213178
 10
4.407913449292133
 20
-10.7021602010704
 10
4.394603546677116
 20
-10.76454830328394
 10
4.401131765264355
 20
-10.78414906554523
 10
4.38781508096531
 20
-10.81513288444714
 10
4.360489980596386
 20
-10.84138478331867
 10
4.34653327486722
 20
-10.87326463222274
 10
4.34653327486722
 20
-10.87326463222274
 10
4.343527293421908
 20
-10.87289842128525
 10
4.343527293421908
 20
-10.87289842128525
 10
4.342743161206195
 20
-10.85775492085122
 10
4.341959876700987
 20
-10.84261142041719
 10
4.341175744485275
 20
-10.82746791998316
 10
4.340204268248296
 20
-10.8274034939849
 10
4.339231944300814
 20
-10.82733822027613
 10
4.338259620353331
 20
-10.82727379427787
 10
4.281302799335536
 20
-10.88826402187118
 10
4.260957747252202
 20
-10.97347757710122
 10
4.271795726039095
 20
-11.05529944260686
 10
4.270329186868088
 20
-11.05550713168021
 10
4.268863495407584
 20
-11.05571397304306
 10
4.267396956236577
 20
-11.05592166211641
 97
        0
 97
        1
330
8E
 92
        1
 93
        1
 72
     4
 94
        3
 73
     0
 74
     0
 95
       17
 96
       13
 40
0.0
 40
0.0
 40
0.0
 40
0.0
 40
1.0
 40
1.0
 40
1.0
 40
2.0
 40
2.0
 40
2.0
 40
3.0
 40
3.0
 40
3.0
 40
4.0
 40
4.0
 40
4.0
 40
4.0
 10
4.42517113972182
 20
-10.76569101704262
 10
4.405461022805588
 20
-10.77283975971841
 10
4.41534447956557
 20
-10.71057457552787
 10
4.409173147100292
 20
-10.69532256814939
 10
4.409173147100292
 20
-10.69532256814939
 10
4.407230194626334
 20
-10.69428242736163
 10
4.407230194626334
 20
-10.69428242736163
 10
4.419921268573817
 20
-10.67334313021537
 10
4.439549157571213
 20
-10.65509870475964
 10
4.459190609936639
 20
-10.64077324496146
 10
4.477229889450527
 20
-10.69579304747882
 10
4.474959720722229
 20
-10.73063903543455
 10
4.42517113972182
 20
-10.76569101704262
 97
        0
 97
        1
330
8F
 92
        1
 93
        1
 72
     4
 94
        3
 73
     0
 74
     0
 95
       14
 96
       10
 40
0.0
 40
0.0
 40
0.0
 40
0.0
 40
1.0
 40
1.0
 40
1.0
 40
2.0
 40
2.0
 40
2.0
 40
3.0
 40
3.0
 40
3.0
 40
3.0
 10
4.472041053458775
 20
-10.56986565218802
 10
4.44482446003432
 20
-10.66523562696016
 10
4.348856849357237
 20
-10.71934583610729
 10
4.257293094745692
 20
-10.72190592182778
 10
4.149512638202724
 20
-10.73136891417804
 10
4.093934194463574
 20
-10.65969583881997
 10
4.05161394299873
 20
-10.5750358385487
 10
4.186308360316439
 20
-10.62237114535209
 10
4.337244063170171
 20
-10.61110337733993
 10
4.472041053458775
 20
-10.56986565218802
 97
        0
 97
        1
330
90
 92
        1
 93
        1
 72
     4
 94
        3
 73
     0
 74
     0
 95
       14
 96
       10
 40
0.0
 40
0.0
 40
0.0
 40
0.0
 40
1.0
 40
1.0
 40
1.0
 40
2.0
 40
2.0
 40
2.0
 40
3.0
 40
3.0
 40
3.0
 40
3.0
 10
4.058739797490917
 20
-10.50297959804306
 10
4.063243683395866
 20
-10.48261589632865
 10
4.095652503654112
 20
-10.50651794168455
 10
4.105979313007411
 20
-10.51302072895669
 10
4.094703915600726
 20
-10.54915947543021
 10
4.101019358851595
 20
-10.58483876281085
 10
4.055599030075553
 20
-10.55388461377656
 10
4.041552467033018
 20
-10.54216925461858
 10
4.058338830422775
 20
-10.51862155225313
 10
4.058739797490917
 20
-10.50297959804306
 97
        0
 97
        1
330
91
 92
        1
 93
        1
 72
     4
 94
        3
 73
     0
 74
     0
 95
       17
 96
       13
 40
0.0
 40
0.0
 40
0.0
 40
0.0
 40
1.0
 40
1.0
 40
1.0
 40
2.0
 40
2.0
 40
2.0
 40
3.0
 40
3.0
 40
3.0
 40
4.0
 40
4.0
 40
4.0
 40
4.0
 10
4.042477319192307
 20
-10.39870357672144
 10
4.062613834491786
 20
-10.40855821132431
 10
4.062455312627636
 20
-10.40852260748316
 10
4.057401262605935
 20
-10.43101491027179
 10
4.047305030509581
 20
-10.46670860873099
 10
4.045258657354199
 20
-10.50604915777613
 10
4.030399139938834
 20
-10.53968122429089
 10
4.019736637226161
 20
-10.53102694776094
 10
4.014071387931456
 20
-10.5162945869211
 10
4.010349938821213
 20
-10.50366200499835
 10
4.01942383205038
 20
-10.48232597933646
 10
4.017702979728331
 20
-10.39230421013073
 10
4.042477319192307
 20
-10.39870357672144
 97
        0
 97
        1
330
92
 92
        1
 93
        1
 72
     4
 94
        3
 73
     0
 74
     0
 95
       14
 96
       10
 40
0.0
 40
0.0
 40
0.0
 40
0.0
 40
1.0
 40
1.0
 40
1.0
 40
2.0
 40
2.0
 40
2.0
 40
3.0
 40
3.0
 40
3.0
 40
3.0
 10
4.023462324888921
 20
-10.39176337082952
 10
4.014090885273036
 20
-10.42111110845973
 10
4.014605445548643
 20
-10.45321305751572
 10
4.001099721807324
 20
-10.48036607265243
 10
3.977310421948383
 20
-10.44505299620929
 10
3.969330922979199
 20
-10.39803642855521
 10
3.960809736998296
 20
-10.35629346794323
 10
3.963769942076421
 20
-10.33896202669974
 10
4.015934655618088
 20
-10.38376861307127
 10
4.023462324888921
 20
-10.39176337082952
 97
        0
 97
        1
330
93
 92
        1
 93
        1
 72
     4
 94
        3
 73
     0
 74
     0
 95
       14
 96
       10
 40
0.0
 40
0.0
 40
0.0
 40
0.0
 40
1.0
 40
1.0
 40
1.0
 40
2.0
 40
2.0
 40
2.0
 40
3.0
 40
3.0
 40
3.0
 40
3.0
 10
4.137037730433626
 20
-10.50000582959688
 10
4.116445146883279
 20
-10.49487972418238
 10
4.139877560620258
 20
-10.4629498603586
 10
4.139346046134581
 20
-10.44792503939506
 10
4.138145688061664
 20
-10.43236276997231
 10
4.215324643139789
 20
-10.44845316303872
 10
4.211576067293435
 20
-10.46042283534775
 10
4.211490448532584
 20
-10.52895344786945
 10
4.188492062573383
 20
-10.5069206041737
 10
4.137037730433626
 20
-10.50000582959688
 97
        0
 97
        1
330
94
 92
        1
 93
        1
 72
     4
 94
        3
 73
     0
 74
     0
 95
       14
 96
       10
 40
0.0
 40
0.0
 40
0.0
 40
0.0
 40
1.0
 40
1.0
 40
1.0
 40
2.0
 40
2.0
 40
2.0
 40
3.0
 40
3.0
 40
3.0
 40
3.0
 10
4.103383623445779
 20
-10.49034108214679
 10
4.092094662671039
 20
-10.4835068400678
 10
4.065212067184928
 20
-10.48338985601832
 10
4.066615028068174
 20
-10.46655262999835
 10
4.075064158656283
 20
-10.41648515224228
 10
4.078406681171474
 20
-10.40681616623967
 10
4.12503669283597
 20
-10.43703111171493
 10
4.116727434480935
 20
-10.45412010775443
 10
4.121745032950987
 20
-10.48561679151094
 10
4.103383623445779
 20
-10.49034108214679
 97
        0
 97
        1
330
95
 92
        1
 93
        1
 72
     4
 94
        3
 73
     0
 74
     0
 95
       17
 96
       13
 40
0.0
 40
0.0
 40
0.0
 40
0.0
 40
1.0
 40
1.0
 40
1.0
 40
2.0
 40
2.0
 40
2.0
 40
3.0
 40
3.0
 40
3.0
 40
4.0
 40
4.0
 40
4.0
 40
4.0
 10
4.120090302048209
 20
-10.52433851188854
 10
4.122389292933626
 20
-10.51560200743976
 10
4.124728126212706
 20
-10.51481617980304
 10
4.133422245136317
 20
-10.5163200182362
 10
4.152647471644564
 20
-10.52443938943846
 10
4.192185537237011
 20
-10.51534684657821
 10
4.200938995895866
 20
-10.53466955979436
 10
4.200250654967046
 20
-10.60834747049314
 10
4.17459978284248
 20
-10.58376556131346
 10
4.119489275301248
 20
-10.57724581983125
 10
4.096704512388921
 20
-10.57308525668021
 10
4.120181007072081
 20
-10.53970411247448
 10
4.120090302048209
 20
-10.52433851188854
 97
        0
 97
        1
330
96
 92
        1
 93
        1
 72
     4
 94
        3
 73
     0
 74
     0
 95
       20
 96
       16
 40
0.0
 40
0.0
 40
0.0
 40
0.0
 40
1.0
 40
1.0
 40
1.0
 40
2.0
 40
2.0
 40
2.0
 40
3.0
 40
3.0
 40
3.0
 40
4.0
 40
4.0
 40
4.0
 40
5.0
 40
5.0
 40
5.0
 40
5.0
 10
4.228406511629373
 20
-10.46242258442544
 10
4.236298696416699
 20
-10.4454454861724
 10
4.26621355237373
 20
-10.45779493278698
 10
4.282129317076421
 20
-10.45495595031085
 10
4.298371450322949
 20
-10.46215301248533
 10
4.291989037942307
 20
-10.48836845980521
 10
4.29636491956123
 20
-10.50330850971841
 10
4.290573361401508
 20
-10.51888010395669
 10
4.261566403393695
 20
-10.50878726270235
 10
4.247380815828591
 20
-10.51296562777396
 10
4.247374881855067
 20
-10.51276980664766
 10
4.247368100171039
 20
-10.51257398552136
 10
4.247362166197515
 20
-10.51237816439505
 10
4.209425425746126
 20
-10.52072217888073
 10
4.226275367423643
 20
-10.48532856993976
 10
4.228406511629373
 20
-10.46242258442544
 97
        0
 97
        1
330
97
 92
        1
 93
        1
 72
     4
 94
        3
 73
     0
 74
     0
 95
       20
 96
       16
 40
0.0
 40
0.0
 40
0.0
 40
0.0
 40
1.0
 40
1.0
 40
1.0
 40
2.0
 40
2.0
 40
2.0
 40
3.0
 40
3.0
 40
3.0
 40
4.0
 40
4.0
 40
4.0
 40
5.0
 40
5.0
 40
5.0
 40
5.0
 10
4.286853607712272
 20
-10.52706813970972
 10
4.310542877731803
 20
-10.52508195400009
 10
4.300656030129807
 20
-10.56168863667153
 10
4.306018646774772
 20
-10.57714070372882
 10
4.305259945874164
 20
-10.6003527127349
 10
4.263079566642393
 20
-10.58407836648924
 10
4.246612790112445
 20
-10.58861107455131
 10
4.246602617586404
 20
-10.58927907042804
 10
4.246592445060362
 20
-10.58994791401528
 10
4.246583120244824
 20
-10.59061590989202
 10
4.19972422674439
 20
-10.59419748676919
 10
4.21201433362373
 20
-10.57538000901311
 10
4.216542803133279
 20
-10.53987195915417
 10
4.22357201862807
 20
-10.51600721306042
 10
4.266440738788661
 20
-10.53279442416068
 10
4.286853607712272
 20
-10.52706813970972
 97
        0
 97
        1
330
98
 92
        1
 93
        1
 72
     4
 94
        3
 73
     0
 74
     0
 95
       14
 96
       10
 40
0.0
 40
0.0
 40
0.0
 40
0.0
 40
1.0
 40
1.0
 40
1.0
 40
2.0
 40
2.0
 40
2.0
 40
3.0
 40
3.0
 40
3.0
 40
3.0
 10
4.406527442618956
 20
-10.50530486795408
 10
4.420748634025206
 20
-10.50435458447969
 10
4.446217248391525
 20
-10.48179700798229
 10
4.455180939255241
 20
-10.4968616713395
 10
4.468203468009556
 20
-10.54182084560165
 10
4.474191695006084
 20
-10.55186197651528
 10
4.424064029804286
 20
-10.56649769835773
 10
4.415517412508279
 20
-10.55451531039115
 10
4.391914608960101
 20
-10.51533582634167
 10
4.406527442618956
 20
-10.50530486795408
 97
        0
 97
        1
330
99
 92
        1
 93
        1
 72
     4
 94
        3
 73
     0
 74
     0
 95
       14
 96
       10
 40
0.0
 40
0.0
 40
0.0
 40
0.0
 40
1.0
 40
1.0
 40
1.0
 40
2.0
 40
2.0
 40
2.0
 40
3.0
 40
3.0
 40
3.0
 40
3.0
 10
4.389376563712706
 20
-10.48466311719453
 10
4.388155860587706
 20
-10.47086408561901
 10
4.36635020330689
 20
-10.44763766553438
 10
4.381842112757845
 20
-10.43847561041285
 10
4.431205990796039
 20
-10.42104498704045
 10
4.437044173033452
 20
-10.4085310845882
 10
4.448173764233539
 20
-10.46840911600096
 10
4.437663001700987
 20
-10.47744910080999
 10
4.399013336716178
 20
-10.49863423400226
 10
4.389376563712706
 20
-10.48466311719453
 97
        0
 97
        1
330
9A
 92
        1
 93
        1
 72
     4
 94
        3
 73
     0
 74
     0
 95
       14
 96
       10
 40
0.0
 40
0.0
 40
0.0
 40
0.0
 40
1.0
 40
1.0
 40
1.0
 40
2.0
 40
2.0
 40
2.0
 40
3.0
 40
3.0
 40
3.0
 40
3.0
 10
4.307205441479633
 20
-10.45814927577743
 10
4.317482235913226
 20
-10.44920338683429
 10
4.347504751104199
 20
-10.44103993468585
 10
4.358821686325553
 20
-10.45106495909992
 10
4.360806176614182
 20
-10.46448252094887
 10
4.382694909524338
 20
-10.48908816602266
 10
4.368441505118956
 20
-10.49806287712292
 10
4.319293793259147
 20
-10.50965616596841
 10
4.308883908276508
 20
-10.51577917893498
 10
4.307205441479633
 20
-10.45814927577743
 97
        0
 97
        1
330
9B
 92
        1
 93
        1
 72
     4
 94
        3
 73
     0
 74
     0
 95
       14
 96
       10
 40
0.0
 40
0.0
 40
0.0
 40
0.0
 40
1.0
 40
1.0
 40
1.0
 40
2.0
 40
2.0
 40
2.0
 40
3.0
 40
3.0
 40
3.0
 40
3.0
 10
4.38572038831123
 20
-10.5216919596967
 10
4.386624895418435
 20
-10.53666676574054
 10
4.411701019821647
 20
-10.56460306538247
 10
4.395106239005674
 20
-10.57349215772188
 10
4.339013234990917
 20
-10.5819929986507
 10
4.319011505661491
 20
-10.60530164665417
 10
4.316861711824685
 20
-10.53188143994844
 10
4.314349945602897
 20
-10.51980749924749
 10
4.385724626863748
 20
-10.50623395866589
 10
4.38572038831123
 20
-10.5216919596967
 97
        0
 97
        1
330
9C
 92
        1
 93
        1
 72
     4
 94
        3
 73
     0
 74
     0
 95
       20
 96
       16
 40
0.0
 40
0.0
 40
0.0
 40
0.0
 40
1.0
 40
1.0
 40
1.0
 40
2.0
 40
2.0
 40
2.0
 40
3.0
 40
3.0
 40
3.0
 40
4.0
 40
4.0
 40
4.0
 40
5.0
 40
5.0
 40
5.0
 40
5.0
 10
4.483926802427959
 20
-10.54494211567544
 10
4.4742934202665
 20
-10.50513193501138
 10
4.464202274433167
 20
-10.46543195671276
 10
4.45442647690715
 20
-10.42565144591632
 10
4.446742828903678
 20
-10.40404754373533
 10
4.479031274270406
 20
-10.4020622057362
 10
4.491462948803826
 20
-10.39094193935165
 10
4.520391917445319
 20
-10.38800292703611
 10
4.529239471970059
 20
-10.56804137918455
 10
4.539122081019538
 20
-10.60317728413247
 10
4.537480065774312
 20
-10.63947200933863
 10
4.512791345071187
 20
-10.67702304151094
 10
4.487075199237854
 20
-10.70027658833169
 10
4.444876170375033
 20
-10.59096092806693
 10
4.509526811922316
 20
-10.61488925244844
 10
4.483926802427959
 20
-10.54494211567544
 97
        0
 97
        1
330
9D
 92
        1
 93
        1
 72
     4
 94
        3
 73
     0
 74
     0
 95
       20
 96
       16
 40
0.0
 40
0.0
 40
0.0
 40
0.0
 40
1.0
 40
1.0
 40
1.0
 40
2.0
 40
2.0
 40
2.0
 40
3.0
 40
3.0
 40
3.0
 40
4.0
 40
4.0
 40
4.0
 40
5.0
 40
5.0
 40
5.0
 40
5.0
 10
4.566331045049486
 20
-10.36037434630695
 10
4.558571950811205
 20
-10.42172569857474
 10
4.56713043605426
 20
-10.4901978190717
 10
4.550360179164069
 20
-10.5480828830908
 10
4.534705509296448
 20
-10.49583509391979
 10
4.530643280563809
 20
-10.43770249843368
 10
4.516545007180562
 20
-10.38392628722492
 10
4.515913462855476
 20
-10.36589548481606
 10
4.542270477829434
 20
-10.3596546400895
 10
4.553317841110684
 20
-10.34799353440374
 10
4.563268267000441
 20
-10.33921040587726
 10
4.566719296460076
 20
-10.35188706874618
 10
4.565596080042976
 20
-10.3603387424658
 10
4.565596080042976
 20
-10.3603387424658
 10
4.566331045049486
 20
-10.36037434630695
 10
4.566331045049486
 20
-10.36037434630695
 97
        0
 97
        1
330
9E
 92
        1
 93
        1
 72
     4
 94
        3
 73
     0
 74
     0
 95
       35
 96
       31
 40
0.0
 40
0.0
 40
0.0
 40
0.0
 40
1.0
 40
1.0
 40
1.0
 40
2.0
 40
2.0
 40
2.0
 40
3.0
 40
3.0
 40
3.0
 40
4.0
 40
4.0
 40
4.0
 40
5.0
 40
5.0
 40
5.0
 40
6.0
 40
6.0
 40
6.0
 40
7.0
 40
7.0
 40
7.0
 40
8.0
 40
8.0
 40
8.0
 40
9.0
 40
9.0
 40
9.0
 40
10.0
 40
10.0
 40
10.0
 40
10.0
 10
3.969851417228331
 20
-10.03792307270669
 10
3.949808997794737
 20
-9.931044580139415
 10
4.16371094142538
 20
-10.03992197407387
 10
4.247850447447515
 20
-9.835810239047834
 10
4.280488997252202
 20
-9.929620426493581
 10
4.348842438278678
 20
-10.01701683627006
 10
4.459621246872402
 20
-9.996993914178043
 10
4.482558597675354
 20
-10.01039706494844
 10
4.54509165838499
 20
-9.983068573737504
 10
4.541311717250007
 20
-10.02071115864419
 10
4.530605981301656
 20
-10.0308226495296
 10
4.509742130390198
 20
-10.0099486260921
 10
4.495373437356343
 20
-10.01140668815807
 10
4.340763757180588
 20
-9.969461124735769
 10
4.236228336444911
 20
-10.19704172505044
 10
4.378840369865049
 20
-10.27862962245712
 10
4.439136322556022
 20
-10.32006825499835
 10
4.503982785229608
 20
-10.30307928879827
 10
4.561152381583775
 20
-10.2686156182796
 10
4.580848087421448
 20
-10.38123311095539
 10
4.350348819843349
 20
-10.43504831684731
 10
4.262986318487011
 20
-10.44078138298229
 10
4.262871029858539
 20
-10.44008710807995
 10
4.262754893519564
 20
-10.4393919854671
 10
4.262639604891091
 20
-10.43869686285426
 10
4.177803280835101
 20
-10.44064914014375
 10
3.941532800149338
 20
-10.37742180453177
 10
3.953496538484841
 20
-10.27333397494193
 10
4.258338321796474
 20
-10.45258405632214
 10
4.302528622631976
 20
-9.897096317606862
 10
3.969851417228331
 20
-10.03792307270669
 97
        0
 97
        1
330
9F
 92
        1
 93
        1
 72
     4
 94
        3
 73
     0
 74
     0
 95
       17
 96
       13
 40
0.0
 40
0.0
 40
0.0
 40
0.0
 40
1.0
 40
1.0
 40
1.0
 40
2.0
 40
2.0
 40
2.0
 40
3.0
 40
3.0
 40
3.0
 40
4.0
 40
4.0
 40
4.0
 40
4.0
 10
4.095565189472255
 20
-10.91653771029349
 10
4.072002228317741
 20
-10.81437079270452
 10
4.117843021503505
 20
-10.84141360547578
 10
4.138034637985709
 20
-10.76951334370278
 10
4.142162140427116
 20
-10.74706427414983
 10
4.124490767271733
 20
-10.70168633089896
 10
4.162364777145866
 20
-10.72493309603568
 10
4.163276065937099
 20
-10.77972486442761
 10
4.111304630390224
 20
-10.85512193202743
 10
4.098385522317307
 20
-10.9167106432362
 10
4.098385522317307
 20
-10.9167106432362
 10
4.095565189472255
 20
-10.91653771029349
 10
4.095565189472255
 20
-10.91653771029349
 97
        0
 97
        1
330
A0
 92
        1
 93
        1
 72
     4
 94
        3
 73
     0
 74
     0
 95
       14
 96
       10
 40
0.0
 40
0.0
 40
0.0
 40
0.0
 40
1.0
 40
1.0
 40
1.0
 40
2.0
 40
2.0
 40
2.0
 40
3.0
 40
3.0
 40
3.0
 40
3.0
 10
4.019823951408018
 20
-10.98272016472058
 10
3.997586809480935
 20
-10.99206617302136
 10
3.986296153285188
 20
-10.91636223421927
 10
3.995798140318608
 20
-10.90463500711424
 10
4.003264774433192
 20
-10.90007347689506
 10
4.019392466761751
 20
-10.87805419656736
 10
4.025538367911924
 20
-10.89152007791502
 10
4.013965424118522
 20
-10.92179181999401
 10
4.016023665220952
 20
-10.95238738748533
 10
4.019823951408018
 20
-10.98272016472058
 97
        0
 97
        1
330
A1
 92
        1
 93
        1
 72
     4
 94
        3
 73
     0
 74
     0
 95
       11
 96
        7
 40
0.0
 40
0.0
 40
0.0
 40
0.0
 40
1.0
 40
1.0
 40
1.0
 40
2.0
 40
2.0
 40
2.0
 40
2.0
 10
3.945364451625032
 20
-10.95880286057561
 10
3.973720367966178
 20
-10.91517798264592
 10
3.975180125453157
 20
-10.92563788254827
 10
3.983034163267827
 20
-10.97144815815591
 10
3.975533620733105
 20
-10.97888173156085
 10
3.936953468009581
 20
-10.97396501064071
 10
3.945364451625032
 20
-10.95880286057561
 97
        0
 97
        1
330
A2
 92
        1
 93
        1
 72
     4
 94
        3
 73
     0
 74
     0
 95
       14
 96
       10
 40
0.0
 40
0.0
 40
0.0
 40
0.0
 40
1.0
 40
1.0
 40
1.0
 40
2.0
 40
2.0
 40
2.0
 40
3.0
 40
3.0
 40
3.0
 40
3.0
 10
3.907619293747428
 20
-10.82210360791719
 10
3.91217065144057
 20
-10.801671241652
 10
3.907615902905414
 20
-10.77616448031302
 10
3.918722605921907
 20
-10.75879743522839
 10
3.928418718660623
 20
-10.77125369336641
 10
3.924975318595518
 20
-10.79024919032821
 10
3.928845964754373
 20
-10.80541388352483
 10
3.9308058714384
 20
-10.81415886507865
 10
3.909585982115483
 20
-10.83904340690807
 10
3.907619293747428
 20
-10.82210360791719
 97
        0
 97
        1
330
A3
 92
        1
 93
        1
 72
     4
 94
        3
 73
     0
 74
     0
 95
       53
 96
       49
 40
0.0
 40
0.0
 40
0.0
 40
0.0
 40
1.0
 40
1.0
 40
1.0
 40
2.0
 40
2.0
 40
2.0
 40
3.0
 40
3.0
 40
3.0
 40
4.0
 40
4.0
 40
4.0
 40
5.0
 40
5.0
 40
5.0
 40
6.0
 40
6.0
 40
6.0
 40
7.0
 40
7.0
 40
7.0
 40
8.0
 40
8.0
 40
8.0
 40
9.0
 40
9.0
 40
9.0
 40
10.0
 40
10.0
 40
10.0
 40
11.0
 40
11.0
 40
11.0
 40
12.0
 40
12.0
 40
12.0
 40
13.0
 40
13.0
 40
13.0
 40
14.0
 40
14.0
 40
14.0
 40
15.0
 40
15.0
 40
15.0
 40
16.0
 40
16.0
 40
16.0
 40
16.0
 10
3.844034224302983
 20
-10.95818318419757
 10
3.845172699509147
 20
-10.97924031310382
 10
3.825733849954025
 20
-10.98095523145235
 10
3.809054298087706
 20
-10.98154015169974
 10
3.788568526060796
 20
-10.97153547233776
 10
3.82730974377998
 20
-10.92444345844888
 10
3.828498233905848
 20
-10.90376271300617
 10
3.865370249964876
 20
-10.80467552767631
 10
3.87506127644057
 20
-10.69909572760035
 10
3.888854374042567
 20
-10.59505706521971
 10
3.887504818921039
 20
-10.58085706657604
 10
3.898405528285188
 20
-10.55466789828177
 10
3.885441491555588
 20
-10.54630438645452
 10
3.868220252677549
 20
-10.56327131218151
 10
3.879337128220084
 20
-10.60321288797361
 10
3.871581424823817
 20
-10.62782616244193
 10
3.871327111672775
 20
-10.66713788932995
 10
3.796237762985709
 20
-11.07123216151962
 10
3.745697262768695
 20
-10.95951748053004
 10
3.793006290546473
 20
-10.88577429612249
 10
3.822209069680588
 20
-10.79920779492891
 10
3.823307702493088
 20
-10.71149095058212
 10
3.822491357278244
 20
-10.71083227952092
 10
3.821674164352897
 20
-10.71017445617023
 10
3.820857819138053
 20
-10.70951578510903
 10
3.782892256529546
 20
-10.75455040560599
 10
3.760505069843348
 20
-10.80820369879176
 10
3.736004540871994
 20
-10.85999033344887
 10
3.737042986238748
 20
-10.71464358594453
 10
3.796503944083799
 20
-10.56171661111815
 10
3.879712663973123
 20
-10.44252512348794
 10
3.899757626538227
 20
-10.48420789665417
 10
3.911362783330762
 20
-10.53144063048663
 10
3.939394026549077
 20
-10.57028187804523
 10
3.954769799661057
 20
-10.59703901237682
 10
3.98258318127998
 20
-10.61817921691242
 10
3.977205305845952
 20
-10.65251912169757
 10
3.968588328578157
 20
-10.6735457330257
 10
3.979729787725293
 20
-10.82607767475747
 10
3.944209022208799
 20
-10.79177422152396
 10
3.938525970993522
 20
-10.75485981993976
 10
3.932953969854199
 20
-10.71611266824705
 10
3.910604930140657
 20
-10.68518479823837
 10
3.897750248066004
 20
-10.73970699469019
 10
3.896971202113313
 20
-10.79619672722057
 10
3.884584456236577
 20
-10.85105546474228
 10
3.865534705802549
 20
-10.88500118414332
 10
3.843777368020432
 20
-10.91717095003959
 10
3.844034224302983
 20
-10.95818318419757
 97
        0
 97
        1
330
A4
 92
        1
 93
        1
 72
     4
 94
        3
 73
     0
 74
     0
 95
       47
 96
       43
 40
0.0
 40
0.0
 40
0.0
 40
0.0
 40
1.0
 40
1.0
 40
1.0
 40
2.0
 40
2.0
 40
2.0
 40
3.0
 40
3.0
 40
3.0
 40
4.0
 40
4.0
 40
4.0
 40
5.0
 40
5.0
 40
5.0
 40
6.0
 40
6.0
 40
6.0
 40
7.0
 40
7.0
 40
7.0
 40
8.0
 40
8.0
 40
8.0
 40
9.0
 40
9.0
 40
9.0
 40
10.0
 40
10.0
 40
10.0
 40
11.0
 40
11.0
 40
11.0
 40
12.0
 40
12.0
 40
12.0
 40
13.0
 40
13.0
 40
13.0
 40
14.0
 40
14.0
 40
14.0
 40
14.0
 10
3.728630307202289
 20
-10.75920518398056
 10
3.717887271991786
 20
-10.7817992120296
 10
3.726281301397168
 20
-10.88604471577309
 10
3.704656206453591
 20
-10.88185363504392
 10
3.626277741013053
 20
-10.84952789041502
 10
3.778376502677549
 20
-10.54208787441025
 10
3.77514672565932
 20
-10.46573798020452
 10
3.725221663267827
 20
-10.53635056972274
 10
3.733484297545171
 20
-10.64753458393716
 10
3.676160417879373
 20
-10.71475209288898
 10
3.638926429435362
 20
-10.74173132737249
 10
3.606979611401508
 20
-10.80820624192327
 10
3.557871741935362
 20
-10.80326239426702
 10
3.599742706833366
 20
-10.76551215012639
 10
3.66501726331123
 20
-10.72076829433212
 10
3.674220008536924
 20
-10.66498640007214
 10
3.655549184697949
 20
-10.66602993170191
 10
3.648401289732671
 20
-10.69936699496146
 10
3.633741831996126
 20
-10.71147145324054
 10
3.602830916197515
 20
-10.74211194938854
 10
3.551264686271299
 20
-10.81207688808212
 10
3.50447276190064
 20
-10.78652689350747
 10
3.60328867986939
 20
-10.73217593457735
 10
3.676203651115049
 20
-10.65274291727049
 10
3.695947676451421
 20
-10.53815534538464
 10
3.695947676451421
 20
-10.53815534538464
 10
3.693518985858973
 20
-10.53699059115287
 10
3.693518985858973
 20
-10.53699059115287
 10
3.646353221156282
 20
-10.58504306104219
 10
3.583991397968348
 20
-10.61177476405868
 10
3.519801910934928
 20
-10.62832546392848
 10
3.499105906703157
 20
-10.62473880078828
 10
3.486432634676248
 20
-10.58923498948186
 10
3.477799550908887
 20
-10.57133558220104
 10
3.60534692097182
 20
-10.60249911572969
 10
3.719149512931456
 20
-10.51993126498099
 10
3.774469404967046
 20
-10.40816233051919
 10
3.785008989656716
 20
-10.38596842182778
 10
3.800864566913661
 20
-10.44031090365287
 10
3.868300785175379
 20
-10.41947078863551
 10
3.808566864548209
 20
-10.52664513216849
 10
3.747185842412793
 20
-10.63547505431476
 10
3.728630307202289
 20
-10.75920518398056
 97
        0
 97
        1
330
A5
 92
        1
 93
        1
 72
     4
 94
        3
 73
     0
 74
     0
 95
       44
 96
       40
 40
0.0
 40
0.0
 40
0.0
 40
0.0
 40
1.0
 40
1.0
 40
1.0
 40
2.0
 40
2.0
 40
2.0
 40
3.0
 40
3.0
 40
3.0
 40
4.0
 40
4.0
 40
4.0
 40
5.0
 40
5.0
 40
5.0
 40
6.0
 40
6.0
 40
6.0
 40
7.0
 40
7.0
 40
7.0
 40
8.0
 40
8.0
 40
8.0
 40
9.0
 40
9.0
 40
9.0
 40
10.0
 40
10.0
 40
10.0
 40
11.0
 40
11.0
 40
11.0
 40
12.0
 40
12.0
 40
12.0
 40
13.0
 40
13.0
 40
13.0
 40
13.0
 10
3.701645986455762
 20
-10.31687069097926
 10
3.713605486238748
 20
-10.29113589551485
 10
3.746186391729199
 20
-10.28082010639809
 10
3.755942691913661
 20
-10.25165632194714
 10
3.760941640752637
 20
-10.24532561990721
 10
3.756920949834668
 20
-10.23375945779783
 10
3.749099972729633
 20
-10.24073696295191
 10
3.685770911857237
 20
-10.32744333637856
 10
3.564232113842914
 20
-10.32017167567978
 10
3.530783152796907
 20
-10.44884904384384
 10
3.528974138582498
 20
-10.45520263406736
 10
3.525012787399772
 20
-10.46503098964462
 10
3.518323503816873
 20
-10.45673783778915
 10
3.463656348868956
 20
-10.37343502203394
 10
3.579132321362445
 20
-10.27352979606823
 10
3.635532196579459
 20
-10.21667809115287
 10
3.704463776169303
 20
-10.16502369933429
 10
3.738152639287793
 20
-10.08674611144367
 10
3.775646874856369
 20
-10.01479159619844
 10
3.833942230759147
 20
-10.18446085346841
 10
3.640821910121126
 20
-10.22456179883516
 10
3.572971161423209
 20
-10.33560339768499
 10
3.619746131583799
 20
-10.30757130675617
 10
3.653061154370258
 20
-10.2554303291086
 10
3.704913910446647
 20
-10.23140621344019
 10
3.754504974899772
 20
-10.20704386128091
 10
3.774295624313834
 20
-10.16209062099228
 10
3.794999257940137
 20
-10.11568186176919
 10
3.872653778610709
 20
-10.24163892692761
 10
3.782844784741352
 20
-10.19163078890677
 10
3.765353973923209
 20
-10.30420928689939
 10
3.781718177482237
 20
-10.43478722201224
 10
3.668954030889355
 20
-10.5572135729237
 10
3.532198829337706
 20
-10.56072394211858
 10
3.522921485587706
 20
-10.55760012891328
 10
3.498416718063834
 20
-10.56038485791719
 10
3.487089610316438
 20
-10.55011908372014
 10
3.616523136249598
 20
-10.54926459153264
 10
3.677103071959233
 20
-10.42915249029566
 10
3.701645986455762
 20
-10.31687069097926
 97
        0
 97
        1
330
A6
 92
        1
 93
        1
 72
     4
 94
        3
 73
     0
 74
     0
 95
       11
 96
        7
 40
0.0
 40
0.0
 40
0.0
 40
0.0
 40
1.0
 40
1.0
 40
1.0
 40
2.0
 40
2.0
 40
2.0
 40
2.0
 10
3.847730242098123
 20
-9.884576481181081
 10
3.861463999964876
 20
-9.887648584045665
 10
3.881487769767393
 20
-9.897539670200178
 10
3.889572384839008
 20
-9.90963480366372
 10
3.885271949454893
 20
-9.963055824171533
 10
3.852884321959233
 20
-9.901034780605995
 10
3.847730242098123
 20
-9.884576481181081
 97
        0
 97
        1
330
A7
 92
        1
 93
        1
 72
     4
 94
        3
 73
     0
 74
     0
 95
       14
 96
       10
 40
0.0
 40
0.0
 40
0.0
 40
0.0
 40
1.0
 40
1.0
 40
1.0
 40
2.0
 40
2.0
 40
2.0
 40
3.0
 40
3.0
 40
3.0
 40
3.0
 10
3.803115238300379
 20
-9.877202247511377
 10
3.802161563983973
 20
-9.863456621697574
 10
3.812155223109407
 20
-9.84835550678872
 10
3.819258189418001
 20
-9.868649696241845
 10
3.82706560315498
 20
-9.908592967454952
 10
3.86891367986939
 20
-9.932884111931949
 10
3.877452667770866
 20
-9.968270939188894
 10
3.873162404912793
 20
-10.04671976460122
 10
3.796587867423643
 20
-9.90880235194931
 10
3.803115238300379
 20
-9.877202247511377
 97
        0
 97
        1
330
A8
 92
        1
 93
        1
 72
     4
 94
        3
 73
     0
 74
     0
 95
       20
 96
       16
 40
0.0
 40
0.0
 40
0.0
 40
0.0
 40
1.0
 40
1.0
 40
1.0
 40
2.0
 40
2.0
 40
2.0
 40
3.0
 40
3.0
 40
3.0
 40
4.0
 40
4.0
 40
4.0
 40
5.0
 40
5.0
 40
5.0
 40
5.0
 10
3.850030928404546
 20
-10.22740841070582
 10
3.876131087095952
 20
-10.25249725076658
 10
3.789829071579459
 20
-10.26962693691024
 10
3.814120216056456
 20
-10.35011196295191
 10
3.828616913376334
 20
-10.394444679152
 10
3.86586192205689
 20
-10.34469848367674
 10
3.868384708515223
 20
-10.37130387782821
 10
3.877115278990483
 20
-10.39576880295842
 10
3.855106171188834
 20
-10.40408908155
 10
3.83554948987373
 20
-10.40608204894367
 10
3.747868249368088
 20
-10.39552127149141
 10
3.775835914298643
 20
-10.25854057894584
 10
3.832993642705762
 20
-10.22279771327743
 10
3.841864933124598
 20
-10.21626101758516
 10
3.844692047653678
 20
-10.21877278380695
 10
3.850030928404546
 20
-10.22740841070582
 97
        0
 97
        1
330
A9
 92
        1
 93
        1
 72
     4
 94
        3
 73
     0
 74
     0
 95
       14
 96
       10
 40
0.0
 40
0.0
 40
0.0
 40
0.0
 40
1.0
 40
1.0
 40
1.0
 40
2.0
 40
2.0
 40
2.0
 40
3.0
 40
3.0
 40
3.0
 40
3.0
 10
3.85526384534248
 20
-10.19716040452092
 10
3.82090105237373
 20
-10.15226735167804
 10
3.80415792221965
 20
-10.08923838032387
 10
3.797783139233539
 20
-10.03293683952526
 10
3.798959761412358
 20
-10.03271389166285
 10
3.800136383591178
 20
-10.03249179151094
 10
3.801312158059494
 20
-10.03226884364853
 10
3.821092634947515
 20
-10.08924600971841
 10
3.881966726201855
 20
-10.1326038588395
 10
3.85526384534248
 20
-10.19716040452092
 97
        0
 97
        1
330
AA
 92
        1
 93
        1
 72
     4
 94
        3
 73
     0
 74
     0
 95
       14
 96
       10
 40
0.0
 40
0.0
 40
0.0
 40
0.0
 40
1.0
 40
1.0
 40
1.0
 40
2.0
 40
2.0
 40
2.0
 40
3.0
 40
3.0
 40
3.0
 40
3.0
 10
3.827704776874598
 20
-10.32985761589245
 10
3.826933360316438
 20
-10.31304073492457
 10
3.844285146612012
 20
-10.25624074034992
 10
3.859387956941873
 20
-10.27750810146103
 10
3.861399573966612
 20
-10.29089599344236
 10
3.86022719034031
 20
-10.30495272901094
 10
3.862220157733973
 20
-10.31840589470104
 10
3.864623417011317
 20
-10.34506045606172
 10
3.830560713560796
 20
-10.36720434983342
 10
3.827704776874598
 20
-10.32985761589245
 97
        0
 97
        1
330
AB
 92
        1
 93
        1
 72
     4
 94
        3
 73
     0
 74
     0
 95
       14
 96
       10
 40
0.0
 40
0.0
 40
0.0
 40
0.0
 40
1.0
 40
1.0
 40
1.0
 40
2.0
 40
2.0
 40
2.0
 40
3.0
 40
3.0
 40
3.0
 40
3.0
 10
3.859943207321647
 20
-10.09841908507648
 10
3.835638499476594
 20
-10.08294412983559
 10
3.78641364596097
 20
-9.964508799974483
 10
3.809493412128504
 20
-9.95315795633299
 10
3.819549801831195
 20
-9.98520141336424
 10
3.864675127352029
 20
-10.00071197244627
 10
3.868856883265657
 20
-10.03058274745712
 10
3.864964196633713
 20
-10.05358113341632
 10
3.869078983417567
 20
-10.07822577317327
 10
3.859943207321647
 20
-10.09841908507648
 97
        0
 97
        1
330
AC
 92
        1
 93
        1
 72
     4
 94
        3
 73
     0
 74
     0
 95
       23
 96
       19
 40
0.0
 40
0.0
 40
0.0
 40
0.0
 40
1.0
 40
1.0
 40
1.0
 40
2.0
 40
2.0
 40
2.0
 40
3.0
 40
3.0
 40
3.0
 40
4.0
 40
4.0
 40
4.0
 40
5.0
 40
5.0
 40
5.0
 40
6.0
 40
6.0
 40
6.0
 40
6.0
 10
3.678508575973991
 20
-9.544997216858165
 10
3.759397959925813
 20
-9.348077457743581
 10
4.087103343226595
 20
-9.292621084316932
 10
3.890836321199685
 20
-9.023320411573877
 10
3.891506012497428
 20
-9.02263291835556
 10
3.892175703795171
 20
-9.021945425137245
 10
3.892846242803418
 20
-9.021257931918928
 10
3.990761044506977
 20
-9.088299117086028
 10
4.028275625127636
 20
-9.232770179640283
 10
3.974678280835102
 20
-9.339010346198442
 10
3.873932973760449
 20
-9.495585867031776
 10
3.680525279261751
 20
-9.609489336541324
 10
3.936693220885015
 20
-9.756125451721446
 10
3.953699989005674
 20
-9.769222579000091
 10
3.896457489548209
 20
-9.846023455193668
 10
3.896151466056456
 20
-9.876407942769622
 10
3.78615000799439
 20
-9.860048825473615
 10
3.625630937898904
 20
-9.675491228631168
 10
3.678508575973991
 20
-9.544997216858165
 97
        0
 97
        1
330
AD
 92
        1
 93
        1
 72
     4
 94
        3
 73
     0
 74
     0
 95
       20
 96
       16
 40
0.0
 40
0.0
 40
0.0
 40
0.0
 40
1.0
 40
1.0
 40
1.0
 40
2.0
 40
2.0
 40
2.0
 40
3.0
 40
3.0
 40
3.0
 40
4.0
 40
4.0
 40
4.0
 40
5.0
 40
5.0
 40
5.0
 40
5.0
 10
3.772000024270432
 20
-9.842970849670665
 10
3.672052412779546
 20
-9.87698608133299
 10
3.571557180303418
 20
-9.90939066303872
 10
3.470688107495258
 20
-9.940597429803043
 10
3.45357198471965
 20
-9.947930125658077
 10
3.463550385056022
 20
-9.873881765469276
 10
3.433271013582498
 20
-9.853398536573877
 10
3.427923655726595
 20
-9.84658803038898
 10
3.42822289753432
 20
-9.843625282179345
 10
3.436733910989182
 20
-9.841879846252696
 10
3.533995975605067
 20
-9.823070845601653
 10
3.63266863049873
 20
-9.812187938158077
 10
3.730928450377202
 20
-9.799924110304345
 10
3.743282135544303
 20
-9.799780847229259
 10
3.794685605053852
 20
-9.835059167541759
 10
3.772000024270432
 20
-9.842970849670665
 97
        0
 97
        1
330
AE
 92
        1
 93
        1
 72
     4
 94
        3
 73
     0
 74
     0
 95
       11
 96
        7
 40
0.0
 40
0.0
 40
0.0
 40
0.0
 40
1.0
 40
1.0
 40
1.0
 40
2.0
 40
2.0
 40
2.0
 40
2.0
 10
3.439833140589876
 20
-9.936858178772228
 10
3.41983904065498
 20
-9.979289480313026
 10
3.380917260598557
 20
-9.90349229335556
 10
3.383469716924512
 20
-9.878963789937591
 10
3.397570533439268
 20
-9.809967784349483
 10
3.457181536043435
 20
-9.902938738396793
 10
3.439833140589876
 20
-9.936858178772228
 97
        0
 97
        1
330
AF
 92
        1
 93
        1
 72
     4
 94
        3
 73
     0
 74
     0
 95
       20
 96
       16
 40
0.0
 40
0.0
 40
0.0
 40
0.0
 40
1.0
 40
1.0
 40
1.0
 40
2.0
 40
2.0
 40
2.0
 40
3.0
 40
3.0
 40
3.0
 40
4.0
 40
4.0
 40
4.0
 40
5.0
 40
5.0
 40
5.0
 40
5.0
 10
3.398369076733539
 20
-9.663552921610769
 10
3.378681000290397
 20
-9.660448605747053
 10
3.43164086628432
 20
-9.607928701504432
 10
3.421969337150206
 20
-9.57821899148924
 10
3.42191169283597
 20
-9.566196761128997
 10
3.424492971319043
 20
-9.564915870558252
 10
3.43544200018189
 20
-9.570371735358598
 10
3.53570580769057
 20
-9.62899515522622
 10
3.668586972241352
 20
-9.651035628316497
 10
3.712767948261317
 20
-9.770500078728824
 10
3.712393260218782
 20
-9.771206221578216
 10
3.712018572176248
 20
-9.771913212138112
 10
3.711643884133713
 20
-9.772619354987504
 10
3.606629506963574
 20
-9.738318444885509
 10
3.503050303675813
 20
-9.699103356994884
 10
3.398369076733539
 20
-9.663552921610769
 97
        0
 97
        1
330
B0
 92
        1
 93
        1
 72
     4
 94
        3
 73
     0
 74
     0
 95
       11
 96
        7
 40
0.0
 40
0.0
 40
0.0
 40
0.0
 40
1.0
 40
1.0
 40
1.0
 40
2.0
 40
2.0
 40
2.0
 40
2.0
 10
3.346944414461404
 20
-9.62155140929523
 10
3.342421031214876
 20
-9.596538015469276
 10
3.383416311162793
 20
-9.522997433872053
 10
3.403519765752637
 20
-9.566282379889848
 10
3.421157230487879
 20
-9.591136404141151
 10
3.353465003654112
 20
-9.698199697598182
 10
3.346944414461404
 20
-9.62155140929523
 97
        0
 97
        1
330
B1
 92
        1
 93
        1
 72
     4
 94
        3
 73
     0
 74
     0
 95
       11
 96
        7
 40
0.0
 40
0.0
 40
0.0
 40
0.0
 40
1.0
 40
1.0
 40
1.0
 40
2.0
 40
2.0
 40
2.0
 40
2.0
 10
4.013462731789963
 20
-9.492243344516584
 10
4.006605601527376
 20
-9.512091638244884
 10
4.001305715459667
 20
-9.536852414340803
 10
3.975724355596387
 20
-9.541580095818668
 10
3.974635047599424
 20
-9.532086585890283
 10
4.005181447881542
 20
-9.477879737745752
 10
4.013462731789963
 20
-9.492243344516584
 97
        0
 97
        1
330
B2
 92
        1
 93
        1
 72
     4
 94
        3
 73
     0
 74
     0
 95
       11
 96
        7
 40
0.0
 40
0.0
 40
0.0
 40
0.0
 40
1.0
 40
1.0
 40
1.0
 40
2.0
 40
2.0
 40
2.0
 40
2.0
 10
4.104163517108974
 20
-9.425656532179345
 10
4.101201616609841
 20
-9.468908417487504
 10
4.069491309806456
 20
-9.495689287713199
 10
4.029644677590744
 20
-9.508808455464935
 10
4.026542904858539
 20
-9.472502710022228
 10
4.066160655238314
 20
-9.428306475213199
 10
4.104163517108974
 20
-9.425656532179345
 97
        0
 97
        1
330
B3
 92
        1
 93
        1
 72
     4
 94
        3
 73
     0
 74
     0
 95
       17
 96
       13
 40
0.0
 40
0.0
 40
0.0
 40
0.0
 40
1.0
 40
1.0
 40
1.0
 40
2.0
 40
2.0
 40
2.0
 40
3.0
 40
3.0
 40
3.0
 40
4.0
 40
4.0
 40
4.0
 40
4.0
 10
4.108042640372862
 20
-9.464286699822574
 10
4.118765330531283
 20
-9.433435971469709
 10
4.136978390698383
 20
-9.404852021003129
 10
4.172995066859408
 20
-9.405104638733165
 10
4.179079085142827
 20
-9.404167918626827
 10
4.181259396557758
 20
-9.407204417650264
 10
4.178749325756976
 20
-9.412617896925439
 10
4.168074107386751
 20
-9.446162649258338
 10
4.150324744865049
 20
-9.467729252177175
 10
4.114270769441873
 20
-9.471400686367713
 10
4.108074005661491
 20
-9.471617700256603
 10
4.10624040784248
 20
-9.468834666673702
 10
4.108042640372862
 20
-9.464286699822574
 97
        0
 97
        1
330
B4
 92
        1
 93
        1
 72
     4
 94
        3
 73
     0
 74
     0
 95
       14
 96
       10
 40
0.0
 40
0.0
 40
0.0
 40
0.0
 40
1.0
 40
1.0
 40
1.0
 40
2.0
 40
2.0
 40
2.0
 40
3.0
 40
3.0
 40
3.0
 40
3.0
 10
4.181547618128939
 20
-9.443512706224483
 10
4.199496192618956
 20
-9.387822364698877
 10
4.275848629956195
 20
-9.378122013407644
 10
4.295348514667567
 20
-9.437651635803478
 10
4.300121972512619
 20
-9.446547509826915
 10
4.297576297870692
 20
-9.449807804423269
 10
4.291108266729199
 20
-9.449578074876827
 10
4.268365889342046
 20
-9.439340275126394
 10
4.169974674335536
 20
-9.466578061313459
 10
4.181547618128939
 20
-9.443512706224483
 97
        0
 97
        1
330
B5
 92
        1
 93
        1
 72
     4
 94
        3
 73
     0
 74
     0
 95
       14
 96
       10
 40
0.0
 40
0.0
 40
0.0
 40
0.0
 40
1.0
 40
1.0
 40
1.0
 40
2.0
 40
2.0
 40
2.0
 40
3.0
 40
3.0
 40
3.0
 40
3.0
 10
4.306651038810362
 20
-9.399867483242713
 10
4.351325382343349
 20
-9.402812429531776
 10
4.404280162074251
 20
-9.41609266227917
 10
4.406222266837706
 20
-9.469687463440196
 10
4.363778249639355
 20
-9.46493774148924
 10
4.310774302699251
 20
-9.460277029141151
 10
4.299738807365049
 20
-9.410272281962331
 10
4.296001251755241
 20
-9.403132016391584
 10
4.299156430249164
 20
-9.401531538961028
 10
4.306651038810362
 20
-9.399867483242713
 97
        0
 97
        1
330
B6
 92
        1
 93
        1
 72
     4
 94
        3
 73
     0
 74
     0
 95
       11
 96
        7
 40
0.0
 40
0.0
 40
0.0
 40
0.0
 40
1.0
 40
1.0
 40
1.0
 40
2.0
 40
2.0
 40
2.0
 40
2.0
 10
4.478526038810337
 20
-9.498554549214935
 10
4.439929779587272
 20
-9.501256202589502
 10
4.415427555194911
 20
-9.460972999464502
 10
4.410674442401942
 20
-9.425641273390283
 10
4.448679847404112
 20
-9.426300792161983
 10
4.467379493400181
 20
-9.467086687615543
 10
4.478526038810337
 20
-9.498554549214935
 97
        0
 97
        1
330
B7
 92
        1
 93
        1
 72
     4
 94
        3
 73
     0
 74
     0
 95
       14
 96
       10
 40
0.0
 40
0.0
 40
0.0
 40
0.0
 40
1.0
 40
1.0
 40
1.0
 40
2.0
 40
2.0
 40
2.0
 40
3.0
 40
3.0
 40
3.0
 40
3.0
 10
4.490883962529955
 20
-9.473153751688894
 10
4.509421695819885
 20
-9.490418223802608
 10
4.5312756725994
 20
-9.516045360033077
 10
4.539025442022142
 20
-9.539754127394189
 10
4.507438900952264
 20
-9.5327011760053
 10
4.495853241501309
 20
-9.503395823900264
 10
4.488088213289503
 20
-9.474868670037418
 10
4.489020694843323
 20
-9.474297313158077
 10
4.489952328686639
 20
-9.473725956278737
 10
4.490883962529955
 20
-9.473153751688894
 97
        0
 97
        1
330
B8
 92
        1
 93
        1
 72
     4
 94
        3
 73
     0
 74
     0
 95
       11
 96
        7
 40
0.0
 40
0.0
 40
0.0
 40
0.0
 40
1.0
 40
1.0
 40
1.0
 40
2.0
 40
2.0
 40
2.0
 40
2.0
 10
4.708633664135858
 20
-9.952667979661983
 10
4.712433950322924
 20
-10.00438594976832
 10
4.651939633374139
 20
-10.17657799349662
 10
4.650098406160597
 20
-10.01793829758733
 10
4.670554508319885
 20
-9.997764483025699
 10
4.689701745461812
 20
-9.973389415208858
 10
4.708633664135858
 20
-9.952667979661983
 97
        0
 97
        1
330
B9
 92
        1
 93
        1
 72
     4
 94
        3
 73
     0
 74
     0
 95
       11
 96
        7
 40
0.0
 40
0.0
 40
0.0
 40
0.0
 40
1.0
 40
1.0
 40
1.0
 40
2.0
 40
2.0
 40
2.0
 40
2.0
 10
4.620771861292976
 20
-9.889002377719709
 10
4.618384708515198
 20
-9.879055342671966
 10
4.681340776766066
 20
-9.831826847392019
 10
4.684485782733948
 20
-9.843392161790889
 10
4.673896183124573
 20
-9.881417911845144
 10
4.631459795320753
 20
-9.980481361280908
 10
4.620771861292976
 20
-9.889002377719709
 97
        0
 97
        1
330
BA
 92
        1
 93
        1
 72
     4
 94
        3
 73
     0
 74
     0
 95
       14
 96
       10
 40
0.0
 40
0.0
 40
0.0
 40
0.0
 40
1.0
 40
1.0
 40
1.0
 40
2.0
 40
2.0
 40
2.0
 40
3.0
 40
3.0
 40
3.0
 40
3.0
 10
4.703919546026049
 20
-9.847601044440629
 10
4.711005558124573
 20
-9.855707699985334
 10
4.708610775952264
 20
-9.867617184848615
 10
4.710263811434034
 20
-9.877415870558252
 10
4.716307987323792
 20
-9.910943668681081
 10
4.644598460414069
 20
-10.04362053500052
 10
4.639373172870667
 20
-9.959863346415456
 10
4.663185360913201
 20
-9.924282393453216
 10
4.689104957267368
 20
-9.888923540642887
 10
4.703919546026049
 20
-9.847601044440629
 97
        0
 97
        1
330
BB
 92
        1
 93
        1
 72
     4
 94
        3
 73
     0
 74
     0
 95
       14
 96
       10
 40
0.0
 40
0.0
 40
0.0
 40
0.0
 40
1.0
 40
1.0
 40
1.0
 40
2.0
 40
2.0
 40
2.0
 40
3.0
 40
3.0
 40
3.0
 40
3.0
 10
4.668420820982646
 20
-10.18690310742891
 10
4.640140350876309
 20
-10.12257290045191
 10
4.7018324827665
 20
-10.07612768967717
 10
4.717231991772576
 20
-10.01638020568195
 10
4.718456933450093
 20
-10.01659467643932
 10
4.719682722838115
 20
-10.01680914719671
 10
4.720907664515632
 20
-10.01702361795408
 10
4.716673350550788
 20
-10.07527234977917
 10
4.700425283330736
 20
-10.13818179395235
 10
4.668420820982646
 20
-10.18690310742891
 97
        0
 97
        1
330
BC
 92
        1
 93
        1
 72
     4
 94
        3
 73
     0
 74
     0
 95
       17
 96
       13
 40
0.0
 40
0.0
 40
0.0
 40
0.0
 40
1.0
 40
1.0
 40
1.0
 40
2.0
 40
2.0
 40
2.0
 40
3.0
 40
3.0
 40
3.0
 40
4.0
 40
4.0
 40
4.0
 40
4.0
 10
4.66890994994315
 20
-10.27168009174966
 10
4.692353383916674
 20
-10.28197553581432
 10
4.708377655563809
 20
-10.33853138976398
 10
4.684033105325093
 20
-10.35133944776094
 10
4.662890357657993
 20
-10.348057960402
 10
4.665408905563809
 20
-10.32178486876788
 10
4.665976023890632
 20
-10.30543338086641
 10
4.665995521232212
 20
-10.30543338086641
 10
4.666015018573792
 20
-10.30543338086641
 10
4.666034515915371
 20
-10.30543253315591
 10
4.666894942076396
 20
-10.29418511019584
 10
4.663444760327264
 20
-10.28191280523707
 10
4.66890994994315
 20
-10.27168009174966
 97
        0
 97
        1
330
BD
 92
        1
 93
        1
 72
     4
 94
        3
 73
     0
 74
     0
 95
       23
 96
       19
 40
0.0
 40
0.0
 40
0.0
 40
0.0
 40
1.0
 40
1.0
 40
1.0
 40
2.0
 40
2.0
 40
2.0
 40
3.0
 40
3.0
 40
3.0
 40
4.0
 40
4.0
 40
4.0
 40
5.0
 40
5.0
 40
5.0
 40
6.0
 40
6.0
 40
6.0
 40
6.0
 10
4.678155928404521
 20
-10.4051860189415
 10
4.666134545754781
 20
-10.40294212923881
 10
4.664484053404521
 20
-10.40000650776528
 10
4.664470490036465
 20
-10.38311248514158
 10
4.664497616772576
 20
-10.37041971577309
 10
4.663229441859382
 20
-10.3631709432579
 10
4.678483992369365
 20
-10.36878956847492
 10
4.720480418421882
 20
-10.37582556565374
 10
4.717209103588983
 20
-10.31303649637205
 10
4.70476471339801
 20
-10.28762806945148
 10
4.701891822501743
 20
-10.26238240294757
 10
4.663445608037767
 20
-10.25589826530651
 10
4.666562639559034
 20
-10.23290072705782
 10
4.695172021340718
 20
-10.17492071946233
 10
4.758581614710944
 20
-10.31679863558646
 10
4.742497155618062
 20
-10.34898196485078
 10
4.738874040926222
 20
-10.38134161789983
 10
4.713629222132819
 20
-10.41395982265243
 10
4.678155928404521
 20
-10.4051860189415
 97
        0
 97
        1
330
BE
 92
        1
 93
        1
 72
     4
 94
        3
 73
     0
 74
     0
 95
       17
 96
       13
 40
0.0
 40
0.0
 40
0.0
 40
0.0
 40
1.0
 40
1.0
 40
1.0
 40
2.0
 40
2.0
 40
2.0
 40
3.0
 40
3.0
 40
3.0
 40
4.0
 40
4.0
 40
4.0
 40
4.0
 10
4.731136139450527
 20
-10.56586869716415
 10
4.718183970667976
 20
-10.55335394700139
 10
4.630087352015632
 20
-10.4054318549875
 10
4.685064769007819
 20
-10.42346011426485
 10
4.685138519821621
 20
-10.42392042106823
 10
4.685212270635424
 20
-10.42438072787162
 10
4.685286021449226
 20
-10.4248401869645
 10
4.696288456073792
 20
-10.42612701150877
 10
4.720636397154521
 20
-10.41032144917153
 10
4.721089922273878
 20
-10.42865997049315
 10
4.716950551885424
 20
-10.47476101080348
 10
4.730449493942715
 20
-10.52092308627005
 10
4.731136139450527
 20
-10.56586869716415
 97
        0
 97
        1
330
BF
 92
        1
 93
        1
 72
     4
 94
        3
 73
     0
 74
     0
 95
       29
 96
       25
 40
0.0
 40
0.0
 40
0.0
 40
0.0
 40
1.0
 40
1.0
 40
1.0
 40
2.0
 40
2.0
 40
2.0
 40
3.0
 40
3.0
 40
3.0
 40
4.0
 40
4.0
 40
4.0
 40
5.0
 40
5.0
 40
5.0
 40
6.0
 40
6.0
 40
6.0
 40
7.0
 40
7.0
 40
7.0
 40
8.0
 40
8.0
 40
8.0
 40
8.0
 10
4.492976959763027
 20
-9.341944272250959
 10
4.438098724899772
 20
-9.234694482483165
 10
4.473922970776483
 20
-9.090014883145057
 10
4.573244124205302
 20
-9.022214149366845
 10
4.573921444897576
 20
-9.022819414666324
 10
4.574599613300354
 20
-9.023424679965803
 10
4.575276933992628
 20
-9.024029945265283
 10
4.39131612534465
 20
-9.271115516554345
 10
4.691079275029955
 20
-9.372461850375959
 10
4.779718428404521
 20
-9.526349281202783
 10
4.780617849248705
 20
-9.528690657613372
 10
4.781938582213115
 20
-9.5308701213178
 10
4.783471242803392
 20
-9.532952946024831
 10
4.827311439200962
 20
-9.615580984219276
 10
4.808656721861552
 20
-9.713863692281341
 10
4.623080176993931
 20
-9.857598942118581
 10
4.615802582321621
 20
-9.862547028327348
 10
4.612890696742194
 20
-9.861837494635942
 10
4.609748233905823
 20
-9.853484155334728
 10
4.606828718931865
 20
-9.820600617194536
 10
4.545022993834209
 20
-9.759330645135074
 10
4.559908790275181
 20
-9.740278351569536
 10
4.771624488517368
 20
-9.597183123162418
 10
4.579980879576396
 20
-9.479520905280473
 10
4.492976959763027
 20
-9.341944272250959
 97
        0
 97
        1
330
C0
 92
        1
 93
        1
 72
     4
 94
        3
 73
     0
 74
     0
 95
       20
 96
       16
 40
0.0
 40
0.0
 40
0.0
 40
0.0
 40
1.0
 40
1.0
 40
1.0
 40
2.0
 40
2.0
 40
2.0
 40
3.0
 40
3.0
 40
3.0
 40
4.0
 40
4.0
 40
4.0
 40
5.0
 40
5.0
 40
5.0
 40
5.0
 10
5.006623403447924
 20
-9.572876719896358
 10
5.021127730162334
 20
-9.565560130540889
 10
5.023029992532125
 20
-9.567128394972314
 10
5.023848880878479
 20
-9.583652815816497
 10
5.025149268790806
 20
-9.609911496372053
 10
5.032849871004347
 20
-9.633813541727956
 10
5.05183010917709
 20
-9.653099803392452
 10
5.058499895418409
 20
-9.659876401157209
 10
5.058163354348531
 20
-9.661977027784814
 10
5.049016558016066
 20
-9.665283946458858
 10
4.952560666088983
 20
-9.698517589036983
 10
4.857050819083775
 20
-9.73692226568629
 10
4.759321665980476
 20
-9.765173913635509
 10
4.805013262117628
 20
-9.643246864210595
 10
4.901568336173618
 20
-9.631506073737504
 10
5.006623403447924
 20
-9.572876719896358
 97
        0
 97
        1
330
C1
 92
        1
 93
        1
 72
     4
 94
        3
 73
     0
 74
     0
 95
       11
 96
        7
 40
0.0
 40
0.0
 40
0.0
 40
0.0
 40
1.0
 40
1.0
 40
1.0
 40
2.0
 40
2.0
 40
2.0
 40
2.0
 10
5.041354102775181
 20
-9.567585310933685
 10
5.059992713615025
 20
-9.520237288472747
 10
5.100906613354608
 20
-9.597277219028303
 10
5.098474531920146
 20
-9.620904606181081
 10
5.094120690774312
 20
-9.695388689568668
 10
5.02680315198308
 20
-9.600997820428043
 10
5.041354102775181
 20
-9.567585310933685
 97
        0
 97
        1
330
C2
 92
        1
 93
        1
 72
     4
 94
        3
 73
     0
 74
     0
 95
       23
 96
       19
 40
0.0
 40
0.0
 40
0.0
 40
0.0
 40
1.0
 40
1.0
 40
1.0
 40
2.0
 40
2.0
 40
2.0
 40
3.0
 40
3.0
 40
3.0
 40
4.0
 40
4.0
 40
4.0
 40
5.0
 40
5.0
 40
5.0
 40
6.0
 40
6.0
 40
6.0
 40
6.0
 10
5.005178057039503
 20
-9.842944570645057
 10
5.014045108905823
 20
-9.844492490024396
 10
5.015242923847229
 20
-9.847502710022228
 10
5.009898109122837
 20
-9.854807431430646
 10
4.993349104674052
 20
-9.876913178229692
 10
4.982144067239156
 20
-9.902933652133771
 10
4.983725895038635
 20
-9.931103919874658
 10
4.984048025029955
 20
-9.940494856832122
 10
4.982093204608948
 20
-9.942205536628129
 10
4.972893850225267
 20
-9.939460650017887
 10
4.895866635327264
 20
-9.916090966858165
 10
4.819458249096795
 20
-9.890001828403303
 10
4.742830305845927
 20
-9.865690338874223
 10
4.73235260402301
 20
-9.861310218702783
 10
4.711021664624139
 20
-9.803265785109033
 10
4.728498064363722
 20
-9.804093998270925
 10
4.821200294181431
 20
-9.816116228631168
 10
4.913037859285597
 20
-9.827959592075178
 10
5.005178057039503
 20
-9.842944570645057
 97
        0
 97
        1
330
C3
 92
        1
 93
        1
 72
     4
 94
        3
 73
     0
 74
     0
 95
       11
 96
        7
 40
0.0
 40
0.0
 40
0.0
 40
0.0
 40
1.0
 40
1.0
 40
1.0
 40
2.0
 40
2.0
 40
2.0
 40
2.0
 10
5.061544023836378
 20
-9.879803023336028
 10
5.058404951842021
 20
-9.903800012268321
 10
5.050470381529521
 20
-9.92491563319931
 10
5.033554318432733
 20
-9.941753706929778
 10
4.958546349954
 20
-9.988577844299571
 10
5.040693736292976
 20
-9.777415701016151
 10
5.061544023836378
 20
-9.879803023336028
 97
        0
 97
        1
330
C4
 92
        1
 93
        1
 72
     4
 94
        3
 73
     0
 74
     0
 95
       11
 96
        7
 40
0.0
 40
0.0
 40
0.0
 40
0.0
 40
1.0
 40
1.0
 40
1.0
 40
2.0
 40
2.0
 40
2.0
 40
2.0
 10
3.313238597132845
 20
-11.02701897250052
 10
3.312228126212706
 20
-10.98747412522405
 10
3.372790260001768
 20
-10.9874376736724
 10
3.373378571091178
 20
-11.02615939405
 10
3.373524377297775
 20
-11.06516848828828
 10
3.314156667608105
 20
-11.06682576232257
 10
3.313238597132845
 20
-11.02701897250052
 97
        0
 97
        1
330
C5
 92
        1
 93
        1
 72
     4
 94
        3
 73
     0
 74
     0
 95
      317
 96
      313
 40
0.0
 40
0.0
 40
0.0
 40
0.0
 40
1.0
 40
1.0
 40
1.0
 40
2.0
 40
2.0
 40
2.0
 40
3.0
 40
3.0
 40
3.0
 40
4.0
 40
4.0
 40
4.0
 40
5.0
 40
5.0
 40
5.0
 40
6.0
 40
6.0
 40
6.0
 40
7.0
 40
7.0
 40
7.0
 40
8.0
 40
8.0
 40
8.0
 40
9.0
 40
9.0
 40
9.0
 40
10.0
 40
10.0
 40
10.0
 40
11.0
 40
11.0
 40
11.0
 40
12.0
 40
12.0
 40
12.0
 40
13.0
 40
13.0
 40
13.0
 40
14.0
 40
14.0
 40
14.0
 40
15.0
 40
15.0
 40
15.0
 40
16.0
 40
16.0
 40
16.0
 40
17.0
 40
17.0
 40
17.0
 40
18.0
 40
18.0
 40
18.0
 40
19.0
 40
19.0
 40
19.0
 40
20.0
 40
20.0
 40
20.0
 40
21.0
 40
21.0
 40
21.0
 40
22.0
 40
22.0
 40
22.0
 40
23.0
 40
23.0
 40
23.0
 40
24.0
 40
24.0
 40
24.0
 40
25.0
 40
25.0
 40
25.0
 40
26.0
 40
26.0
 40
26.0
 40
27.0
 40
27.0
 40
27.0
 40
28.0
 40
28.0
 40
28.0
 40
29.0
 40
29.0
 40
29.0
 40
30.0
 40
30.0
 40
30.0
 40
31.0
 40
31.0
 40
31.0
 40
32.0
 40
32.0
 40
32.0
 40
33.0
 40
33.0
 40
33.0
 40
34.0
 40
34.0
 40
34.0
 40
35.0
 40
35.0
 40
35.0
 40
36.0
 40
36.0
 40
36.0
 40
37.0
 40
37.0
 40
37.0
 40
38.0
 40
38.0
 40
38.0
 40
39.0
 40
39.0
 40
39.0
 40
40.0
 40
40.0
 40
40.0
 40
41.0
 40
41.0
 40
41.0
 40
42.0
 40
42.0
 40
42.0
 40
43.0
 40
43.0
 40
43.0
 40
44.0
 40
44.0
 40
44.0
 40
45.0
 40
45.0
 40
45.0
 40
46.0
 40
46.0
 40
46.0
 40
47.0
 40
47.0
 40
47.0
 40
48.0
 40
48.0
 40
48.0
 40
49.0
 40
49.0
 40
49.0
 40
50.0
 40
50.0
 40
50.0
 40
51.0
 40
51.0
 40
51.0
 40
52.0
 40
52.0
 40
52.0
 40
53.0
 40
53.0
 40
53.0
 40
54.0
 40
54.0
 40
54.0
 40
55.0
 40
55.0
 40
55.0
 40
56.0
 40
56.0
 40
56.0
 40
57.0
 40
57.0
 40
57.0
 40
58.0
 40
58.0
 40
58.0
 40
59.0
 40
59.0
 40
59.0
 40
60.0
 40
60.0
 40
60.0
 40
61.0
 40
61.0
 40
61.0
 40
62.0
 40
62.0
 40
62.0
 40
63.0
 40
63.0
 40
63.0
 40
64.0
 40
64.0
 40
64.0
 40
65.0
 40
65.0
 40
65.0
 40
66.0
 40
66.0
 40
66.0
 40
67.0
 40
67.0
 40
67.0
 40
68.0
 40
68.0
 40
68.0
 40
69.0
 40
69.0
 40
69.0
 40
70.0
 40
70.0
 40
70.0
 40
71.0
 40
71.0
 40
71.0
 40
72.0
 40
72.0
 40
72.0
 40
73.0
 40
73.0
 40
73.0
 40
74.0
 40
74.0
 40
74.0
 40
75.0
 40
75.0
 40
75.0
 40
76.0
 40
76.0
 40
76.0
 40
77.0
 40
77.0
 40
77.0
 40
78.0
 40
78.0
 40
78.0
 40
79.0
 40
79.0
 40
79.0
 40
80.0
 40
80.0
 40
80.0
 40
81.0
 40
81.0
 40
81.0
 40
82.0
 40
82.0
 40
82.0
 40
83.0
 40
83.0
 40
83.0
 40
84.0
 40
84.0
 40
84.0
 40
85.0
 40
85.0
 40
85.0
 40
86.0
 40
86.0
 40
86.0
 40
87.0
 40
87.0
 40
87.0
 40
88.0
 40
88.0
 40
88.0
 40
89.0
 40
89.0
 40
89.0
 40
90.0
 40
90.0
 40
90.0
 40
91.0
 40
91.0
 40
91.0
 40
92.0
 40
92.0
 40
92.0
 40
93.0
 40
93.0
 40
93.0
 40
94.0
 40
94.0
 40
94.0
 40
95.0
 40
95.0
 40
95.0
 40
96.0
 40
96.0
 40
96.0
 40
97.0
 40
97.0
 40
97.0
 40
98.0
 40
98.0
 40
98.0
 40
99.0
 40
99.0
 40
99.0
 40
100.0
 40
100.0
 40
100.0
 40
101.0
 40
101.0
 40
101.0
 40
102.0
 40
102.0
 40
102.0
 40
103.0
 40
103.0
 40
103.0
 40
104.0
 40
104.0
 40
104.0
 40
104.0
 10
5.219697133916674
 20
-10.99053436014158
 10
5.200175208732212
 20
-10.9203227376915
 10
5.118329607332472
 20
-10.88747565110296
 10
5.053527225605042
 20
-10.92102548969887
 10
5.016599260652784
 20
-10.91685984028481
 10
4.993167694626309
 20
-10.85902140034341
 10
4.962299164352871
 20
-10.83567375765677
 10
4.938676015752611
 20
-10.81528632004827
 10
4.987159970288201
 20
-10.79984781635903
 10
4.986849708243931
 20
-10.77460638840764
 10
4.931278046188809
 20
-10.70444986714028
 10
4.801808916414503
 20
-10.65031083583603
 10
4.80766998683551
 20
-10.53734662956433
 10
4.854983253165806
 20
-10.57472472879393
 10
4.966174896774746
 20
-10.76445505512856
 10
5.03174699963933
 20
-10.71174780686467
 10
5.047498308504347
 20
-10.68244838873316
 10
5.107950239927959
 20
-10.59485022385686
 10
5.094417389450527
 20
-10.57253339714245
 10
4.950781321742194
 20
-10.5866562541303
 10
4.85379052448742
 20
-10.43702093918889
 10
4.851290626212681
 20
-10.30788156880044
 10
4.92646389823959
 20
-10.35577890766762
 10
4.968133955748271
 20
-10.44484700255695
 10
4.992746382506084
 20
-10.5289415799224
 10
5.122841122631951
 20
-10.35751586648924
 10
4.911748491609816
 20
-10.19778008089896
 10
4.790771725659295
 20
-10.09320820861163
 10
4.759596324183601
 20
-10.06500911871363
 10
4.715177141512159
 20
-9.903865285977088
 10
4.747268918042108
 20
-9.886698300571271
 10
4.844976878382819
 20
-9.898949412767452
 10
5.072150577655823
 20
-10.05999999734861
 10
5.077085948207038
 20
-9.878383108242713
 10
5.083857459708775
 20
-9.794907359544795
 10
4.821869985479174
 20
-9.819067108893754
 10
4.761841061596795
 20
-9.788006148336028
 10
4.825822011846361
 20
-9.744272763461896
 10
5.113093299552525
 20
-9.700180797044795
 10
5.116129798575962
 20
-9.629345259664153
 10
5.108558896069451
 20
-9.44212754726181
 10
4.930193824454868
 20
-9.605563589199745
 10
4.841028242857646
 20
-9.636894121697574
 10
4.80150289292275
 20
-9.63481044928004
 10
4.949839515372837
 20
-9.501241791510942
 10
4.965100847566847
 20
-9.500121965935855
 10
4.985109358580302
 20
-9.495451928772228
 10
5.001888940286031
 20
-9.476942169928911
 10
5.006940447176222
 20
-9.457019277676307
 10
5.03374420558551
 20
-9.411236976515283
 10
5.082908023944885
 20
-9.379942047858598
 10
5.11815328354775
 20
-9.339991994961463
 10
5.145647926017368
 20
-9.306404009392887
 10
5.200113325865459
 20
-9.302440115078651
 10
5.206132070440111
 20
-9.250756901102956
 10
5.263856069463549
 20
-9.145222877394189
 10
5.173380775138462
 20
-9.040711192552608
 10
5.065690175908861
 20
-9.110800744690196
 10
4.981912642271709
 20
-9.127144603197139
 10
5.019485714917108
 20
-9.171275564297401
 10
4.972074961878913
 20
-9.212316620612504
 10
4.939733958460944
 20
-9.242040741706254
 10
4.915694584003479
 20
-9.286504853034379
 10
4.877357724194451
 20
-9.307195771003129
 10
4.849872406540371
 20
-9.310601024095577
 10
4.825699093823358
 20
-9.337364092400699
 10
4.82561432277301
 20
-9.364946049052175
 10
4.813748071145406
 20
-9.395440738993581
 10
4.781231591653218
 20
-9.41604858133299
 10
4.761569794235684
 20
-9.442464088331689
 10
4.620981245787334
 20
-9.362931888895925
 10
4.444912621926682
 20
-9.207838166022661
 10
4.590673899867194
 20
-9.035224810174137
 10
4.602969940720059
 20
-9.022815176113807
 10
4.605612254359382
 20
-8.994959408969709
 10
4.581714447555996
 20
-8.998852095601653
 10
4.392632619756542
 20
-9.094865482645925
 10
4.423972477069911
 20
-9.366863570211028
 10
4.581441484773878
 20
-9.480189748867713
 10
4.603231883265632
 20
-9.508348996372053
 10
4.65620022636459
 20
-9.560117829108598
 10
4.62287503105209
 20
-9.594278019267019
 10
4.601477970233948
 20
-9.627259891825612
 10
4.567171126158427
 20
-9.557713722120752
 10
4.559265378003045
 20
-9.537035519809553
 10
4.452381799172775
 20
-9.316757097771793
 10
4.03151133611939
 20
-9.324376319777002
 10
3.946005320765657
 20
-9.559904206061723
 10
3.937239146449251
 20
-9.577050846415456
 10
3.885607642814268
 20
-9.649558068908946
 10
3.869822425529112
 20
-9.640336674052175
 10
3.794321937247862
 20
-9.58992078727917
 10
3.852318899053418
 20
-9.507506372131603
 10
3.903845286585969
 20
-9.461436697109901
 10
3.978351410446647
 20
-9.39463710943629
 10
4.030733137877202
 20
-9.298444855475786
 10
4.014651221915831
 20
-9.195969371263545
 10
4.006296187193608
 20
-9.130048011671533
 10
3.945472958569477
 20
-8.990141870178478
 10
3.869563026115049
 20
-9.003419559794362
 10
3.864636980379373
 20
-9.009547659023963
 10
3.867053803024772
 20
-9.021462230150264
 10
3.873404850116786
 20
-9.031982317498355
 10
3.971362037345518
 20
-9.143585948411983
 10
3.931844316805154
 20
-9.286123383307817
 10
3.813202993291699
 20
-9.363465098802608
 10
3.77451179049222
 20
-9.386806807515716
 10
3.737070960685362
 20
-9.446130436259206
 10
3.69644782564847
 20
-9.450873376526134
 10
3.67437513955906
 20
-9.421098392802175
 10
3.636740184046907
 20
-9.397446422044795
 10
3.624453468009581
 20
-9.362658926113807
 10
3.626255700539963
 20
-9.338256731560855
 10
3.597234331453591
 20
-9.308957313429345
 10
3.573152571470952
 20
-9.307197466424137
 10
3.52697523721531
 20
-9.277753089796533
 10
3.49456556924656
 20
-9.224436337680646
 10
3.454820662291265
 20
-9.185646800462764
 10
3.453288001700987
 20
-9.182831553880733
 10
3.45245385456557
 20
-9.179828115566932
 10
3.451830787345518
 20
-9.176771271491411
 10
3.452113922653678
 20
-9.175165707797834
 10
3.452169871546907
 20
-9.173469439080387
 10
3.451697696796473
 20
-9.171613800788286
 10
3.451408627514789
 20
-9.170477021003129
 10
3.450956797816438
 20
-9.169442814188894
 10
3.450616018194043
 20
-9.168337399692365
 10
3.449669125561664
 20
-9.157738475267452
 10
3.449424137226161
 20
-9.147072581712764
 10
3.439144799661057
 20
-9.139487268127696
 10
3.325480384513487
 20
-9.045170149800872
 10
3.17406996377781
 20
-9.088405928609466
 10
3.244667294506977
 20
-9.253464488451045
 10
3.25378187784031
 20
-9.281152408915456
 10
3.268035282245692
 20
-9.303859182461463
 10
3.297848412942307
 20
-9.311994660163286
 10
3.299262394062098
 20
-9.312862715718841
 10
3.300596690394563
 20
-9.313801978956689
 10
3.302064924986577
 20
-9.314621715013545
 10
3.30291772175307
 20
-9.315098128316497
 10
3.303788320440137
 20
-9.3155380900678
 10
3.30464620346965
 20
-9.316005178555213
 10
3.353263248554286
 20
-9.358058401211463
 10
3.405528839645866
 20
-9.404873213765716
 10
3.443304515101595
 20
-9.456614072055646
 10
3.451444231355935
 20
-9.488364221252696
 10
3.475806583515223
 20
-9.496406450799137
 10
3.50308845064847
 20
-9.507394474345144
 10
3.533440725225293
 20
-9.546790124573009
 10
3.590748498391525
 20
-9.575997989970144
 10
3.610983348109407
 20
-9.621167396437158
 10
3.611885312085102
 20
-9.625379669928911
 10
3.612752519930154
 20
-9.629600420525699
 10
3.614066471210536
 20
-9.633736400072139
 10
3.614620026169303
 20
-9.635478445156776
 10
3.615589806985275
 20
-9.637022973694103
 10
3.616724043638921
 20
-9.638449670471446
 10
3.522437442890223
 20
-9.611164412496185
 10
3.3227736448759
 20
-9.433449534837764
 10
3.330649723163661
 20
-9.641331886183252
 10
3.337515330531282
 20
-9.674899526699745
 10
3.381998939200987
 20
-9.673216821350353
 10
3.407528588723557
 20
-9.686344466207122
 10
3.497779239765223
 20
-9.721281159186723
 10
3.5954787230009
 20
-9.745601125820838
 10
3.681948585197081
 20
-9.786108124518754
 10
3.588026499964876
 20
-9.821310150885942
 10
3.262118262931456
 20
-9.779852868713634
 10
3.400261166577289
 20
-9.956787004998355
 10
3.440238346210536
 20
-10.00749365647405
 10
3.751785519604633
 20
-9.839925025831689
 10
3.783138092575553
 20
-9.869521142639415
 10
3.779392059860709
 20
-9.986862078240543
 10
3.730254520526942
 20
-10.10479471577309
 10
3.643877906486143
 20
-10.18566545009384
 10
3.55903819158814
 20
-10.26020209153264
 10
3.410445560566004
 20
-10.40457312424749
 10
3.535532874747862
 20
-10.50441477192544
 10
3.544867015101595
 20
-10.42431291103134
 10
3.6003615355009
 20
-10.34134070237249
 10
3.680249773348123
 20
-10.32048448085556
 10
3.666043840730935
 20
-10.44905164665417
 10
3.566242035446647
 20
-10.55995676411294
 10
3.428253415112445
 20
-10.5279158502132
 10
3.521824548196213
 20
-10.68968020703828
 10
3.493238902308626
 20
-10.66011630322969
 10
3.660748193215744
 20
-10.59040059142414
 10
3.634513248554286
 20
-10.68619950771103
 10
3.549344621980935
 20
-10.74952093918889
 10
3.459333025301248
 20
-10.78343698872231
 10
3.472102088615049
 20
-10.79608737256563
 10
3.515233599031716
 20
-10.80188910325139
 10
3.502833289786924
 20
-10.8206167236941
 10
3.472728546677116
 20
-10.85334513081216
 10
3.44260261080472
 20
-10.88605319287813
 10
3.412591963560796
 20
-10.91887908670408
 10
3.389131575377202
 20
-10.92901007493108
 10
3.359601579988748
 20
-10.8987417236941
 10
3.3305861448759
 20
-10.90886084397405
 10
3.267577518573817
 20
-10.91541279845539
 10
3.212561954608973
 20
-10.97207207308646
 10
3.227736820331629
 20
-11.0511583767974
 10
3.258049252514789
 20
-11.20999982780651
 10
3.508835080151508
 20
-11.1452500041303
 10
3.455163985045171
 20
-10.98794206142196
 10
3.452413164461404
 20
-10.97888681782388
 10
3.453416005987012
 20
-10.9729859050092
 10
3.460203623988313
 20
-10.96648311773707
 10
3.534221466598991
 20
-10.89851199414766
 10
3.601539005390223
 20
-10.82090409755478
 10
3.677819387334668
 20
-10.75662305778698
 10
3.660761756583799
 20
-10.85486168490287
 10
3.631760732549512
 20
-10.85311370584471
 10
3.726305885001768
 20
-10.92290655930608
 10
3.745431081670605
 20
-10.93751684983342
 10
3.768298920212272
 20
-10.79891703022622
 10
3.795300195168869
 20
-10.77931372483342
 10
3.796501400952289
 20
-10.77984778245061
 10
3.797702606735709
 20
-10.7803818400678
 10
3.798903812519129
 20
-10.78091504997448
 10
3.787604679218348
 20
-10.84606499300834
 10
3.760435557582063
 20
-10.90815639654566
 10
3.722552222892393
 20
-10.96233866108559
 10
3.713235884459233
 20
-11.0056261502349
 10
3.805108205694043
 20
-10.99930222987899
 10
3.833887977286924
 20
-10.99549940056042
 10
3.840885827493088
 20
-10.99483988178872
 10
3.843981666251768
 20
-10.99731519645886
 10
3.844443668476161
 20
-11.00411044385469
 10
3.851105825322949
 20
-11.06527529981172
 10
3.889192610533452
 20
-11.11686187479002
 10
3.926080733092046
 20
-11.16430823166936
 10
3.935760739331195
 20
-11.14525424268282
 10
3.936495704337706
 20
-11.10832288688854
 10
3.961428565665831
 20
-11.13690344651311
 10
3.992041087367219
 20
-11.13629479037162
 10
4.018827043855935
 20
-11.07742638216849
 10
4.045582482766525
 20
-11.05709913200573
 10
4.045294261195345
 20
-11.05640316168238
 10
4.045006039624164
 20
-11.05570803906953
 10
4.044717818052983
 20
-11.05501206874618
 10
3.997958954391959
 20
-11.06152502854436
 10
3.921292864168435
 20
-11.06459374056693
 10
3.931314497740483
 20
-10.99654971387422
 10
3.938764177644998
 20
-10.96977223449054
 10
4.03179701455906
 20
-11.01339541699922
 10
4.060006276983105
 20
-11.01034196376571
 10
3.97871846909465
 20
-10.90056006272405
 10
4.12422373846314
 20
-10.73534298101832
 10
4.064773800854633
 20
-10.99503994146754
 10
4.191148787291265
 20
-10.92998494201007
 10
4.146708411857237
 20
-10.96771399338811
 10
4.204391720776508
 20
-10.84745693365504
 10
4.216281708298209
 20
-11.01733981397188
 10
4.033689952113314
 20
-11.04104349506997
 10
4.294722056605501
 20
-11.09641424973577
 10
4.281802100822081
 20
-11.03812398009601
 10
4.311304121763921
 20
-11.05786461459037
 10
4.353664215622428
 20
-11.04308478196233
 10
4.375446137009147
 20
-11.0446886502349
 10
4.452582706562098
 20
-11.00433084858559
 10
4.451751102558191
 20
-11.03637769645886
 10
4.445834930954459
 20
-11.07120757791502
 10
4.42427510971965
 20
-11.09789011372231
 10
4.396615163701855
 20
-11.11862596034774
 10
4.396699934752202
 20
-11.1195923503217
 10
4.396785553513053
 20
-11.12055874029566
 10
4.396869476852897
 20
-11.12152513026962
 10
4.429822527254373
 20
-11.13103305127657
 10
4.463608877080736
 20
-11.12783803038898
 10
4.495041134838983
 20
-11.11458916293021
 10
4.506225827221795
 20
-11.11049133035643
 10
4.506262278773444
 20
-11.11045742193629
 10
4.512420047870667
 20
-11.12036546230087
 10
4.519085595559468
 20
-11.13108900016979
 10
4.527555918910163
 20
-11.13989925543238
 10
4.538894894604608
 20
-11.14584933545625
 10
4.55780901135808
 20
-11.15577433003091
 10
4.561147295320753
 20
-11.15434932867457
 10
4.568207876104174
 20
-11.13402970790634
 10
4.593025448803826
 20
-11.06882551140026
 10
4.548027279858514
 20
-11.01153299702309
 10
4.518281966002177
 20
-10.95711252583169
 10
4.513795034307299
 20
-10.94903130160209
 10
4.515118310403218
 20
-10.94750711811684
 10
4.524287147208775
 20
-10.94586595058212
 10
4.596132307799052
 20
-10.94780212137205
 10
4.587359351798618
 20
-10.891514991652
 10
4.609256561813809
 20
-10.84075578212509
 10
4.646871172273878
 20
-10.92724429395235
 10
4.713869971915806
 20
-11.02891021463377
 10
4.818657162671014
 20
-10.9624141073204
 10
4.764279924715284
 20
-10.92592101785643
 10
4.695805261086812
 20
-10.87872643099662
 10
4.694765968009556
 20
-10.80727036952743
 10
4.728124224031691
 20
-10.83498456901745
 10
4.775679935565979
 20
-10.92433410379393
 10
4.810743785121101
 20
-10.84648800054957
 10
4.818577477883687
 20
-10.83322726514375
 10
4.817773000615892
 20
-10.83145555019149
 10
4.806492516946187
 20
-10.82136779520018
 10
4.782982961553392
 20
-10.79932901753091
 10
4.756777686759556
 20
-10.77350266933212
 10
4.754440548901483
 20
-10.73946878803872
 10
4.838971697176222
 20
-10.80949306646754
 10
4.912875098868931
 20
-10.89508893913464
 10
4.993924700105909
 20
-10.97023084587292
 10
5.004212514776049
 20
-10.98611694070799
 10
4.986370751809468
 20
-11.00781409104436
 10
4.989038496763896
 20
-11.02581861442761
 10
4.990258352178392
 20
-11.20264424376788
 10
5.27051653088933
 20
-11.16831451150877
 10
5.219697133916674
 20
-10.99053436014158
 97
        0
 97
        1
330
C6
 75
     2
 76
     1
 98
        1
 10
0.0
 20
0.0
450
        0
451
        0
460
0.0
461
0.0
452
        0
462
0.0
453
        0
470

  0
SPLINE
  5
C8
330
7C
100
AcDbEntity
  8
Layer 3
100
AcDbSpline
210
0.0
220
0.0
230
1.0
 70
     9
 71
     3
 72
    11
 73
     7
 74
     0
 42
0.0000000001
 43
0.0000000001
 40
0.0
 40
0.0
 40
0.0
 40
0.0
 40
1.0
 40
1.0
 40
1.0
 40
2.0
 40
2.0
 40
2.0
 40
2.0
 10
4.258805091893565
 20
-10.28274758149771
 30
0.0
 10
4.331588994850386
 20
-10.27649692838026
 30
0.0
 10
4.330280147591818
 20
-10.39546373347967
 30
0.0
 10
4.257786092781404
 20
-10.39367656961167
 30
0.0
 10
4.182653698571079
 20
-10.39437744108358
 30
0.0
 10
4.183881828139823
 20
-10.27790525331127
 30
0.0
 10
4.258805091893565
 20
-10.28274758149771
 30
0.0
  0
HATCH
  5
C9
330
7C
100
AcDbEntity
  8
Layer 3
 62
    18
420
        0
440
 33554687
100
AcDbHatch
 10
0.0
 20
0.0
 30
0.0
210
0.0
220
0.0
230
1.0
  2
SOLID
 70
     1
 71
     1
 91
        1
 92
        1
 93
        1
 72
     4
 94
        3
 73
     0
 74
     0
 95
       11
 96
        7
 40
0.0
 40
0.0
 40
0.0
 40
0.0
 40
1.0
 40
1.0
 40
1.0
 40
2.0
 40
2.0
 40
2.0
 40
2.0
 10
4.258805091893565
 20
-10.28274758149771
 10
4.331588994850386
 20
-10.27649692838026
 10
4.330280147591818
 20
-10.39546373347967
 10
4.257786092781404
 20
-10.39367656961167
 10
4.182653698571079
 20
-10.39437744108358
 10
4.183881828139823
 20
-10.27790525331127
 10
4.258805091893565
 20
-10.28274758149771
 97
        0
 97
        1
330
C8
 75
     2
 76
     1
 98
        1
 10
0.0
 20
0.0
450
        0
451
        0
460
0.0
461
0.0
452
        0
462
0.0
453
        0
470

  0
ENDBLK
  5
7F
330
7C
100
AcDbEntity
  8
0
100
AcDbBlockEnd
  0
ENDSEC
  0
SECTION
  2
ENTITIES
  0
LWPOLYLINE
  5
79
330
70
100
AcDbEntity
  8
Layer 2
 62
   250
420
  2301728
370
    35
100
AcDbPolyline
 90
        4
 70
     1
 43
0.0
 10
2.610524549195613
 20
-11.59639533589903
 10
2.610524549195613
 20
-8.566395335899034
 10
5.840524549195631
 20
-8.566395335899034
 10
5.840524549195631
 20
-11.59639533589901
  0
INSERT
  5
7D
330
70
100
AcDbEntity
  8
Layer 3
100
AcDbBlockReference
  2
Block_0
 10
0.0
 20
0.0
 30
0.0
  0
ENDSEC
  0
SECTION
  2
OBJECTS
  0
DICTIONARY
  5
C
330
0
100
AcDbDictionary
281
     1
  3
ACAD_COLOR
350
63
  3
ACAD_DETAILVIEWSTYLE
350
6A
  3
ACAD_GROUP
350
D
  3
ACAD_LAYOUT
350
62
  3
ACAD_MATERIAL
350
10
  3
ACAD_MLEADERSTYLE
350
66
  3
ACAD_MLINESTYLE
350
5F
  3
ACAD_PLOTSETTINGS
350
61
  3
ACAD_PLOTSTYLENAME
350
E
  3
ACAD_SCALELIST
350
42
  3
ACAD_SECTIONVIEWSTYLE
350
68
  3
ACAD_TABLESTYLE
350
64
  3
ACAD_VISUALSTYLE
350
29
  3
ACDB_RECOMPOSE_DATA
350
D2
  3
AcDbVariableDictionary
350
CA
  0
DICTIONARY
  5
63
102
{ACAD_REACTORS
330
C
102
}
330
C
100
AcDbDictionary
281
     1
  0
DICTIONARY
  5
6A
102
{ACAD_REACTORS
330
C
102
}
330
C
100
AcDbDictionary
281
     1
  3
Imperial24
350
6B
  0
DICTIONARY
  5
D
102
{ACAD_REACTORS
330
C
102
}
330
C
100
AcDbDictionary
281
     1
  0
DICTIONARY
  5
62
102
{ACAD_REACTORS
330
C
102
}
330
C
100
AcDbDictionary
281
     1
  3
Layout1
350
6F
  3
Layout2
350
77
  3
Model
350
73
  0
DICTIONARY
  5
10
102
{ACAD_REACTORS
330
C
102
}
330
C
100
AcDbDictionary
281
     1
  3
ByBlock
350
19
  3
ByLayer
350
11
  3
Global
350
21
  0
DICTIONARY
  5
66
102
{ACAD_REACTORS
330
C
102
}
330
C
100
AcDbDictionary
281
     1
  3
Standard
350
67
  0
DICTIONARY
  5
5F
102
{ACAD_REACTORS
330
C
102
}
330
C
100
AcDbDictionary
281
     1
  3
Standard
350
60
  0
DICTIONARY
  5
61
102
{ACAD_REACTORS
330
C
102
}
330
C
100
AcDbDictionary
281
     1
  0
ACDBDICTIONARYWDFLT
  5
E
102
{ACAD_REACTORS
330
C
102
}
330
C
100
AcDbDictionary
281
     1
  3
Normal
350
F
100
AcDbDictionaryWithDefault
340
F
  0
DICTIONARY
  5
42
102
{ACAD_REACTORS
330
C
102
}
330
C
100
AcDbDictionary
281
     1
  3
A0
350
43
  3
A1
350
44
  3
A2
350
45
  3
A3
350
46
  3
A4
350
47
  3
A5
350
48
  3
A6
350
49
  3
A7
350
4A
  3
A8
350
4B
  3
A9
350
4C
  3
B0
350
4D
  3
B1
350
4E
  3
B2
350
4F
  3
B3
350
50
  3
B4
350
51
  3
B5
350
52
  3
B6
350
53
  0
DICTIONARY
  5
68
102
{ACAD_REACTORS
330
C
102
}
330
C
100
AcDbDictionary
281
     1
  3
Imperial24
350
69
  0
DICTIONARY
  5
64
102
{ACAD_REACTORS
330
C
102
}
330
C
100
AcDbDictionary
281
     1
  3
Standard
350
65
  0
DICTIONARY
  5
29
102
{ACAD_REACTORS
330
C
102
}
330
C
100
AcDbDictionary
281
     1
  3
2dWireframe
350
2F
  3
Basic
350
2E
  3
Brighten
350
35
  3
ColorChange
350
39
  3
Conceptual
350
32
  3
Dim
350
34
  3
EdgeColorOff
350
41
  3
Facepattern
350
38
  3
Flat
350
2A
  3
FlatWithEdges
350
2B
  3
Gouraud
350
2C
  3
GouraudWithEdges
350
2D
  3
Hidden
350
31
  3
JitterOff
350
3F
  3
Linepattern
350
37
  3
OverhangOff
350
40
  3
Realistic
350
33
  3
Shaded
350
3E
  3
Shaded with edges
350
3D
  3
Shades of Gray
350
3A
  3
Sketchy
350
3B
  3
Thicken
350
36
  3
Wireframe
350
30
  3
X-Ray
350
3C
  0
XRECORD
  5
D2
102
{ACAD_REACTORS
330
C
102
}
330
C
100
AcDbXrecord
280
     1
 90
        1
330
65
  0
DICTIONARY
  5
CA
102
{ACAD_REACTORS
330
C
102
}
330
C
100
AcDbDictionary
281
     1
  3
CANNOSCALE
350
CF
  3
CMLEADERSTYLE
350
CC
  3
CTABLESTYLE
350
CB
  3
CVIEWDETAILSTYLE
350
CD
  3
CVIEWSECTIONSTYLE
350
CE
  0
ACDBDETAILVIEWSTYLE
  5
6B
102
{ACAD_REACTORS
330
6A
102
}
330
6A
100
AcDbModelDocViewStyle
 70
     0
  3
Imperial24
290
     1
300
Imperial24
 90
        0
100
AcDbDetailViewStyle
 70
     0
 71
     0
 90
        3
 71
     1
340
55
 62
   256
 40
0.24
340
0
 62
   256
 40
0.24
300

 40
0.36
280
     3
 71
     2
340
5D
 90
       25
 62
   256
 71
     3
340
55
 62
   256
 40
0.24
 90
        1
 40
0.75
 90
        1
300
%<\AcVar ViewType \f "%tc1">% %<\AcVar ViewDetailId>%\PSCALE %<\AcVar ViewScale \f "%sn">%
 71
     4
340
5D
 90
       25
 62
   256
340
5D
 90
       25
 62
   256
280
     0
  0
LAYOUT
  5
6F
102
{ACAD_REACTORS
330
62
102
}
330
62
100
AcDbPlotSettings
  1

  2

  4

  6

 40
0.0
 41
0.0
 42
0.0
 43
0.0
 44
0.0
 45
0.0
 46
0.0
 47
0.0
 48
0.0
 49
0.0
140
0.0
141
0.0
142
1.0
143
1.0
 70
   688
 72
     0
 73
     0
 74
     5
  7

 75
    16
147
1.0
 76
     0
 77
     2
 78
   300
148
0.0
149
0.0
100
AcDbLayout
  1
Layout1
 70
     1
 71
     1
 10
0.0
 20
0.0
 11
12.0
 21
9.0
 12
0.0
 22
0.0
 32
0.0
 14
0.0
 24
0.0
 34
0.0
 15
0.0
 25
0.0
 35
0.0
146
0.0
 13
0.0
 23
0.0
 33
0.0
 16
1.0
 26
0.0
 36
0.0
 17
0.0
 27
1.0
 37
0.0
 76
     0
330
6C
  0
LAYOUT
  5
77
102
{ACAD_REACTORS
330
62
102
}
330
62
100
AcDbPlotSettings
  1

  2

  4

  6

 40
0.0
 41
0.0
 42
0.0
 43
0.0
 44
0.0
 45
0.0
 46
0.0
 47
0.0
 48
0.0
 49
0.0
140
0.0
141
0.0
142
1.0
143
1.0
 70
   688
 72
     0
 73
     0
 74
     5
  7

 75
    16
147
1.0
 76
     0
 77
     2
 78
   300
148
0.0
149
0.0
100
AcDbLayout
  1
Layout2
 70
     1
 71
     2
 10
0.0
 20
0.0
 11
12.0
 21
9.0
 12
0.0
 22
0.0
 32
0.0
 14
0.0
 24
0.0
 34
0.0
 15
0.0
 25
0.0
 35
0.0
146
0.0
 13
0.0
 23
0.0
 33
0.0
 16
1.0
 26
0.0
 36
0.0
 17
0.0
 27
1.0
 37
0.0
 76
     0
330
74
  0
LAYOUT
  5
73
102
{ACAD_REACTORS
330
62
102
}
330
62
100
AcDbPlotSettings
  1

  2

  4

  6

 40
0.0
 41
0.0
 42
0.0
 43
0.0
 44
0.0
 45
0.0
 46
0.0
 47
0.0
 48
0.0
 49
0.0
140
0.0
141
0.0
142
1.0
143
1.0
 70
  1712
 72
     0
 73
     0
 74
     0
  7

 75
     0
147
1.0
 76
     0
 77
     2
 78
   300
148
0.0
149
0.0
100
AcDbLayout
  1
Model
 70
     1
 71
     0
 10
0.0
 20
0.0
 11
12.0
 21
9.0
 12
0.0
 22
0.0
 32
0.0
 14
0.0
 24
0.0
 34
0.0
 15
0.0
 25
0.0
 35
0.0
146
0.0
 13
0.0
 23
0.0
 33
0.0
 16
1.0
 26
0.0
 36
0.0
 17
0.0
 27
1.0
 37
0.0
 76
     0
330
70
  0
MATERIAL
  5
19
102
{ACAD_XDICTIONARY
360
1A
102
}
102
{ACAD_REACTORS
330
10
102
}
330
10
100
AcDbMaterial
  1
ByBlock
 72
     0
 43
0.0208333333333333
 43
0.0
 43
0.0
 43
0.0
 43
0.0
 43
0.0208333333333333
 43
0.0
 43
0.0
 43
0.0
 43
0.0
 43
1.0
 43
0.0
 43
0.0
 43
0.0
 43
0.0
 43
1.0
 77
     0
 47
0.0208333333333333
 47
0.0
 47
0.0
 47
0.0
 47
0.0
 47
0.0208333333333333
 47
0.0
 47
0.0
 47
0.0
 47
0.0
 47
1.0
 47
0.0
 47
0.0
 47
0.0
 47
0.0
 47
1.0
171
     0
 49
0.0208333333333333
 49
0.0
 49
0.0
 49
0.0
 49
0.0
 49
0.0208333333333333
 49
0.0
 49
0.0
 49
0.0
 49
0.0
 49
1.0
 49
0.0
 49
0.0
 49
0.0
 49
0.0
 49
1.0
175
     0
142
0.0208333333333333
142
0.0
142
0.0
142
0.0
142
0.0
142
0.0208333333333333
142
0.0
142
0.0
142
0.0
142
0.0
142
1.0
142
0.0
142
0.0
142
0.0
142
0.0
142
1.0
179
     0
144
0.0208333333333333
144
0.0
144
0.0
144
0.0
144
0.0
144
0.0208333333333333
144
0.0
144
0.0
144
0.0
144
0.0
144
1.0
144
0.0
144
0.0
144
0.0
144
0.0
144
1.0
147
0.0208333333333333
147
0.0
147
0.0
147
0.0
147
0.0
147
0.0208333333333333
147
0.0
147
0.0
147
0.0
147
0.0
147
1.0
147
0.0
147
0.0
147
0.0
147
0.0
147
1.0
  0
MATERIAL
  5
11
102
{ACAD_XDICTIONARY
360
12
102
}
102
{ACAD_REACTORS
330
10
102
}
330
10
100
AcDbMaterial
  1
ByLayer
 72
     0
 43
0.0208333333333333
 43
0.0
 43
0.0
 43
0.0
 43
0.0
 43
0.0208333333333333
 43
0.0
 43
0.0
 43
0.0
 43
0.0
 43
1.0
 43
0.0
 43
0.0
 43
0.0
 43
0.0
 43
1.0
 77
     0
 47
0.0208333333333333
 47
0.0
 47
0.0
 47
0.0
 47
0.0
 47
0.0208333333333333
 47
0.0
 47
0.0
 47
0.0
 47
0.0
 47
1.0
 47
0.0
 47
0.0
 47
0.0
 47
0.0
 47
1.0
171
     0
 49
0.0208333333333333
 49
0.0
 49
0.0
 49
0.0
 49
0.0
 49
0.0208333333333333
 49
0.0
 49
0.0
 49
0.0
 49
0.0
 49
1.0
 49
0.0
 49
0.0
 49
0.0
 49
0.0
 49
1.0
175
     0
142
0.0208333333333333
142
0.0
142
0.0
142
0.0
142
0.0
142
0.0208333333333333
142
0.0
142
0.0
142
0.0
142
0.0
142
1.0
142
0.0
142
0.0
142
0.0
142
0.0
142
1.0
179
     0
144
0.0208333333333333
144
0.0
144
0.0
144
0.0
144
0.0
144
0.0208333333333333
144
0.0
144
0.0
144
0.0
144
0.0
144
1.0
144
0.0
144
0.0
144
0.0
144
0.0
144
1.0
147
0.0208333333333333
147
0.0
147
0.0
147
0.0
147
0.0
147
0.0208333333333333
147
0.0
147
0.0
147
0.0
147
0.0
147
1.0
147
0.0
147
0.0
147
0.0
147
0.0
147
1.0
  0
MATERIAL
  5
21
102
{ACAD_XDICTIONARY
360
22
102
}
102
{ACAD_REACTORS
330
10
102
}
330
10
100
AcDbMaterial
  1
Global
 72
     0
 43
0.0208333333333333
 43
0.0
 43
0.0
 43
0.0
 43
0.0
 43
0.0208333333333333
 43
0.0
 43
0.0
 43
0.0
 43
0.0
 43
1.0
 43
0.0
 43
0.0
 43
0.0
 43
0.0
 43
1.0
 77
     0
 47
0.0208333333333333
 47
0.0
 47
0.0
 47
0.0
 47
0.0
 47
0.0208333333333333
 47
0.0
 47
0.0
 47
0.0
 47
0.0
 47
1.0
 47
0.0
 47
0.0
 47
0.0
 47
0.0
 47
1.0
171
     0
 49
0.0208333333333333
 49
0.0
 49
0.0
 49
0.0
 49
0.0
 49
0.0208333333333333
 49
0.0
 49
0.0
 49
0.0
 49
0.0
 49
1.0
 49
0.0
 49
0.0
 49
0.0
 49
0.0
 49
1.0
175
     0
142
0.0208333333333333
142
0.0
142
0.0
142
0.0
142
0.0
142
0.0208333333333333
142
0.0
142
0.0
142
0.0
142
0.0
142
1.0
142
0.0
142
0.0
142
0.0
142
0.0
142
1.0
179
     0
144
0.0208333333333333
144
0.0
144
0.0
144
0.0
144
0.0
144
0.0208333333333333
144
0.0
144
0.0
144
0.0
144
0.0
144
1.0
144
0.0
144
0.0
144
0.0
144
0.0
144
1.0
147
0.0208333333333333
147
0.0
147
0.0
147
0.0
147
0.0
147
0.0208333333333333
147
0.0
147
0.0
147
0.0
147
0.0
147
1.0
147
0.0
147
0.0
147
0.0
147
0.0
147
1.0
  0
MLEADERSTYLE
  5
67
102
{ACAD_REACTORS
330
66
102
}
330
66
100
AcDbMLeaderStyle
179
     2
170
     2
171
     1
172
     0
 90
        2
 40
0.0
 41
0.0
173
     1
 91
-1056964608
340
5B
 92
       -2
290
     1
 42
0.09
291
     1
 43
0.36
  3
Standard
 44
0.18
300

342
55
174
     1
178
     6
175
     1
176
     0
 93
-1056964608
 45
0.18
292
     0
297
     0
 46
0.18
 94
-1056964608
 47
1.0
 49
1.0
140
1.0
293
     1
141
0.0
294
     1
177
     0
142
1.0
295
     1
296
     0
143
0.125
271
     0
272
     9
273
     9
298
     1
  0
MLINESTYLE
  5
60
102
{ACAD_REACTORS
330
5F
102
}
330
5F
100
AcDbMlineStyle
  2
STANDARD
 70
     0
  3

 62
   256
 51
90.0
 52
90.0
 71
     2
 49
0.5
 62
   256
  6
BYLAYER
 49
-0.5
 62
   256
  6
BYLAYER
  0
ACDBPLACEHOLDER
  5
F
102
{ACAD_REACTORS
330
E
102
}
330
E
  0
SCALE
  5
43
102
{ACAD_REACTORS
330
42
102
}
330
42
100
AcDbScale
 70
     0
300
1:1
140
1.0
141
1.0
290
     1
  0
SCALE
  5
44
102
{ACAD_REACTORS
330
42
102
}
330
42
100
AcDbScale
 70
     0
300
1/128" = 1'-0"
140
0.0078125
141
12.0
290
     0
  0
SCALE
  5
45
102
{ACAD_REACTORS
330
42
102
}
330
42
100
AcDbScale
 70
     0
300
1/64" = 1'-0"
140
0.015625
141
12.0
290
     0
  0
SCALE
  5
46
102
{ACAD_REACTORS
330
42
102
}
330
42
100
AcDbScale
 70
     0
300
1/32" = 1'-0"
140
0.03125
141
12.0
290
     0
  0
SCALE
  5
47
102
{ACAD_REACTORS
330
42
102
}
330
42
100
AcDbScale
 70
     0
300
1/16" = 1'-0"
140
0.0625
141
12.0
290
     0
  0
SCALE
  5
48
102
{ACAD_REACTORS
330
42
102
}
330
42
100
AcDbScale
 70
     0
300
3/32" = 1'-0"
140
0.09375
141
12.0
290
     0
  0
SCALE
  5
49
102
{ACAD_REACTORS
330
42
102
}
330
42
100
AcDbScale
 70
     0
300
1/8" = 1'-0"
140
0.125
141
12.0
290
     0
  0
SCALE
  5
4A
102
{ACAD_REACTORS
330
42
102
}
330
42
100
AcDbScale
 70
     0
300
3/16" = 1'-0"
140
0.1875
141
12.0
290
     0
  0
SCALE
  5
4B
102
{ACAD_REACTORS
330
42
102
}
330
42
100
AcDbScale
 70
     0
300
1/4" = 1'-0"
140
0.25
141
12.0
290
     0
  0
SCALE
  5
4C
102
{ACAD_REACTORS
330
42
102
}
330
42
100
AcDbScale
 70
     0
300
3/8" = 1'-0"
140
0.375
141
12.0
290
     0
  0
SCALE
  5
4D
102
{ACAD_REACTORS
330
42
102
}
330
42
100
AcDbScale
 70
     0
300
1/2" = 1'-0"
140
0.5
141
12.0
290
     0
  0
SCALE
  5
4E
102
{ACAD_REACTORS
330
42
102
}
330
42
100
AcDbScale
 70
     0
300
3/4" = 1'-0"
140
0.75
141
12.0
290
     0
  0
SCALE
  5
4F
102
{ACAD_REACTORS
330
42
102
}
330
42
100
AcDbScale
 70
     0
300
1" = 1'-0"
140
1.0
141
12.0
290
     0
  0
SCALE
  5
50
102
{ACAD_REACTORS
330
42
102
}
330
42
100
AcDbScale
 70
     0
300
1-1/2" = 1'-0"
140
1.5
141
12.0
290
     0
  0
SCALE
  5
51
102
{ACAD_REACTORS
330
42
102
}
330
42
100
AcDbScale
 70
     0
300
3" = 1'-0"
140
3.0
141
12.0
290
     0
  0
SCALE
  5
52
102
{ACAD_REACTORS
330
42
102
}
330
42
100
AcDbScale
 70
     0
300
6" = 1'-0"
140
6.0
141
12.0
290
     0
  0
SCALE
  5
53
102
{ACAD_REACTORS
330
42
102
}
330
42
100
AcDbScale
 70
     0
300
1'-0" = 1'-0"
140
12.0
141
12.0
290
     0
  0
ACDBSECTIONVIEWSTYLE
  5
69
102
{ACAD_REACTORS
330
68
102
}
330
68
100
AcDbModelDocViewStyle
 70
     0
  3
Imperial24
290
     1
300
Imperial24
 90
        0
100
AcDbSectionViewStyle
 70
     0
 71
     0
 90
       78
 71
     1
340
55
 62
   256
 40
0.24
340
0
340
0
 62
   256
 40
0.24
300
I, O, Q, S, X, Z
 40
0.48
 90
        3
 40
0.18
 90
        1
 71
     2
340
5D
 90
       25
 62
   256
340
5D
 90
       50
 62
   256
 40
0.24
 40
0.0
 40
0.24
 71
     3
340
55
 62
   256
 40
0.24
 90
        1
 40
0.75
 90
        1
300
%<\AcVar ViewType \f "%tc1">% %<\AcVar ViewSectionStartId>%-%<\AcVar ViewSectionEndId>%\PSCALE %<\AcVar ViewScale \f "%sn">%
 71
     4
 62
   256
 62
   257
300
ANSI31
 40
1.0
 90
        0
290
     0
290
     0
 90
        6
 40
0.0
 40
1.570796326794896
 40
0.2617993877991494
 40
1.308996938995747
 40
-0.2617993877991494
 40
1.832595714594046
  0
TABLESTYLE
  5
65
102
{ACAD_XDICTIONARY
360
D0
102
}
102
{ACAD_REACTORS
330
64
102
}
330
64
100
AcDbTableStyle
280
     0
  3
Standard
 70
     0
 71
     0
 40
0.06
 41
0.06
280
     0
281
     0
  7
Standard
140
0.18
170
     2
 62
     0
 63
     7
283
     0
 90
      512
 91
        0
  1

274
    -2
284
     1
 64
     0
275
    -2
285
     1
 65
     0
276
    -2
286
     1
 66
     0
277
    -2
287
     1
 67
     0
278
    -2
288
     1
 68
     0
279
    -2
289
     1
 69
     0
  7
Standard
140
0.25
170
     5
 62
     0
 63
     7
283
     0
 90
      512
 91
        0
  1

274
    -2
284
     1
 64
     0
275
    -2
285
     1
 65
     0
276
    -2
286
     1
 66
     0
277
    -2
287
     1
 67
     0
278
    -2
288
     1
 68
     0
279
    -2
289
     1
 69
     0
  7
Standard
140
0.18
170
     5
 62
     0
 63
     7
283
     0
 90
      512
 91
        0
  1

274
    -2
284
     1
 64
     0
275
    -2
285
     1
 65
     0
276
    -2
286
     1
 66
     0
277
    -2
287
     1
 67
     0
278
    -2
288
     1
 68
     0
279
    -2
289
     1
 69
     0
  0
VISUALSTYLE
  5
2F
102
{ACAD_REACTORS
330
29
102
}
330
29
100
AcDbVisualStyle
  2
2dWireframe
 70
     4
177
     3
291
     0
 70
    58
 90
        0
176
     1
 90
        2
176
     1
 90
        0
176
     1
 90
        0
176
     1
 40
0.6
176
     1
 40
30.0
176
     1
 62
     7
420
 16777215
176
     1
 90
        1
176
     1
 90
        4
176
     1
 62
     7
176
     1
 62
   257
176
     1
 90
        1
176
     1
 90
        1
176
     1
 40
1.0
176
     1
 90
        0
176
     1
 62
   257
176
     1
 40
1.0
176
     1
 90
        1
176
     1
 90
        6
176
     1
 90
        2
176
     1
 62
     7
176
     1
 90
        5
176
     1
 90
        0
176
     1
 90
        0
176
     1
290
     0
176
     1
 90
        1
176
     1
 40
0.0
176
     1
 90
        0
176
     1
290
     1
176
     1
290
     1
176
     1
290
     0
176
     1
290
     0
176
     1
290
     0
176
     1
290
     0
176
     1
290
     0
176
     1
290
     0
176
     1
290
     0
176
     1
 90
       50
176
     1
 40
0.0
176
     1
 40
1.0
176
     1
 90
        0
176
     1
 62
    18
420
        0
176
     1
 90
       50
176
     1
 90
        3
176
     1
 62
     5
420
      255
176
     1
290
     0
176
     1
 90
       50
176
     1
 90
       50
176
     1
 90
       50
176
     1
290
     0
176
     1
 90
       50
176
     1
 62
   256
176
     0
 40
1.0
176
     0
 90
        2
176
     1
  1
strokes_ogs.tif
176
     1
290
     0
176
     1
 40
1.0
176
     1
 40
1.0
176
     1
  0
VISUALSTYLE
  5
2E
102
{ACAD_REACTORS
330
29
102
}
330
29
100
AcDbVisualStyle
  2
Basic
 70
     7
177
     3
291
     1
 70
    58
 90
        1
176
     1
 90
        0
176
     1
 90
        1
176
     1
 90
        0
176
     1
 40
0.6
176
     1
 40
30.0
176
     1
 62
     7
420
 16777215
176
     1
 90
        0
176
     1
 90
        4
176
     1
 62
     7
176
     1
 62
   257
176
     1
 90
        1
176
     1
 90
        1
176
     1
 40
1.0
176
     1
 90
        8
176
     1
 62
     7
176
     1
 40
1.0
176
     1
 90
        1
176
     1
 90
        6
176
     1
 90
        2
176
     1
 62
     7
176
     1
 90
        5
176
     1
 90
        0
176
     1
 90
        0
176
     1
290
     0
176
     1
 90
        1
176
     1
 40
0.0
176
     1
 90
        0
176
     1
290
     0
176
     1
290
     1
176
     1
290
     1
176
     1
290
     0
176
     1
290
     0
176
     1
290
     0
176
     1
290
     0
176
     1
290
     0
176
     1
290
     0
176
     1
 90
       50
176
     1
 40
0.0
176
     1
 40
1.0
176
     1
 90
        0
176
     1
 62
    18
420
        0
176
     1
 90
       50
176
     1
 90
        3
176
     1
 62
     5
420
      255
176
     1
290
     0
176
     1
 90
       50
176
     1
 90
       50
176
     1
 90
       50
176
     1
290
     0
176
     1
 90
       50
176
     1
 62
   256
176
     0
 40
1.0
176
     0
 90
        2
176
     1
  1
strokes_ogs.tif
176
     1
290
     0
176
     1
 40
1.0
176
     1
 40
1.0
176
     1
  0
VISUALSTYLE
  5
35
102
{ACAD_REACTORS
330
29
102
}
330
29
100
AcDbVisualStyle
  2
Brighten
 70
    12
177
     3
291
     1
 70
    58
 90
        2
176
     1
 90
        2
176
     1
 90
        0
176
     1
 90
        0
176
     1
 40
0.6
176
     1
 40
30.0
176
     1
 62
     7
420
 16777215
176
     1
 90
        1
176
     1
 90
        4
176
     1
 62
     7
176
     1
 62
   257
176
     1
 90
        1
176
     1
 90
        1
176
     1
 40
1.0
176
     1
 90
        8
176
     1
 62
     7
176
     1
 40
1.0
176
     1
 90
        1
176
     1
 90
        6
176
     1
 90
        2
176
     1
 62
     7
176
     1
 90
        5
176
     1
 90
        0
176
     1
 90
        0
176
     1
290
     0
176
     1
 90
        1
176
     1
 40
50.0
176
     1
 90
        0
176
     1
290
     0
176
     1
290
     1
176
     1
290
     1
176
     1
290
     0
176
     1
290
     0
176
     1
290
     0
176
     1
290
     0
176
     1
290
     0
176
     1
290
     0
176
     1
 90
       50
176
     1
 40
0.0
176
     1
 40
1.0
176
     1
 90
        0
176
     1
 62
    18
420
        0
176
     1
 90
       50
176
     1
 90
        3
176
     1
 62
     5
420
      255
176
     1
290
     0
176
     1
 90
       50
176
     1
 90
       50
176
     1
 90
       50
176
     1
290
     0
176
     1
 90
       50
176
     1
 62
   256
176
     0
 40
1.0
176
     0
 90
        2
176
     1
  1
strokes_ogs.tif
176
     1
290
     0
176
     1
 40
1.0
176
     1
 40
1.0
176
     1
  0
VISUALSTYLE
  5
39
102
{ACAD_REACTORS
330
29
102
}
330
29
100
AcDbVisualStyle
  2
ColorChange
 70
    16
177
     3
291
     1
 70
    58
 90
        2
176
     1
 90
        2
176
     1
 90
        3
176
     1
 90
        0
176
     1
 40
0.6
176
     1
 40
30.0
176
     1
 62
     8
420
  8421504
176
     1
 90
        1
176
     1
 90
        4
176
     1
 62
     7
176
     1
 62
   257
176
     1
 90
        1
176
     1
 90
        1
176
     1
 40
1.0
176
     1
 90
        8
176
     1
 62
     8
420
  8421504
176
     1
 40
1.0
176
     1
 90
        1
176
     1
 90
        6
176
     1
 90
        2
176
     1
 62
     7
176
     1
 90
        5
176
     1
 90
        0
176
     1
 90
        0
176
     1
290
     0
176
     1
 90
        1
176
     1
 40
0.0
176
     1
 90
        0
176
     1
290
     0
176
     1
290
     1
176
     1
290
     1
176
     1
290
     0
176
     1
290
     0
176
     1
290
     0
176
     1
290
     0
176
     1
290
     0
176
     1
290
     0
176
     1
 90
       50
176
     1
 40
0.0
176
     1
 40
1.0
176
     1
 90
        0
176
     1
 62
    18
420
        0
176
     1
 90
       50
176
     1
 90
        3
176
     1
 62
     5
420
      255
176
     1
290
     0
176
     1
 90
       50
176
     1
 90
       50
176
     1
 90
       50
176
     1
290
     0
176
     1
 90
       50
176
     1
 62
   256
176
     0
 40
1.0
176
     0
 90
        2
176
     1
  1
strokes_ogs.tif
176
     1
290
     0
176
     1
 40
1.0
176
     1
 40
1.0
176
     1
  0
VISUALSTYLE
  5
32
102
{ACAD_REACTORS
330
29
102
}
330
29
100
AcDbVisualStyle
  2
Conceptual
 70
     9
177
     3
291
     0
 70
    58
 90
        3
176
     1
 90
        2
176
     1
 90
        0
176
     1
 90
        0
176
     1
 40
0.6
176
     1
 40
30.0
176
     1
 62
     7
420
 16777215
176
     1
 90
        2
176
     1
 90
        2
176
     1
 62
     7
176
     1
 62
   257
176
     1
 90
        1
176
     1
 90
        1
176
     1
 40
179.0
176
     1
 90
        8
176
     1
 62
     7
176
     1
 40
1.0
176
     1
 90
        1
176
     1
 90
        6
176
     1
 90
        2
176
     1
 62
     7
176
     1
 90
        3
176
     1
 90
        0
176
     1
 90
        0
176
     1
290
     0
176
     1
 90
        1
176
     1
 40
0.0
176
     1
 90
        0
176
     1
290
     0
176
     1
290
     1
176
     1
290
     1
176
     1
290
     0
176
     1
290
     0
176
     1
290
     0
176
     1
290
     0
176
     1
290
     0
176
     1
290
     0
176
     1
 90
       50
176
     1
 40
0.0
176
     1
 40
1.0
176
     1
 90
        0
176
     1
 62
    18
420
        0
176
     1
 90
       50
176
     1
 90
        3
176
     1
 62
     5
420
      255
176
     1
290
     0
176
     1
 90
       50
176
     1
 90
       50
176
     1
 90
       50
176
     1
290
     0
176
     1
 90
       50
176
     1
 62
   256
176
     0
 40
1.0
176
     0
 90
        2
176
     1
  1
strokes_ogs.tif
176
     1
290
     0
176
     1
 40
1.0
176
     1
 40
1.0
176
     1
  0
VISUALSTYLE
  5
34
102
{ACAD_REACTORS
330
29
102
}
330
29
100
AcDbVisualStyle
  2
Dim
 70
    11
177
     3
291
     1
 70
    58
 90
        2
176
     1
 90
        2
176
     1
 90
        0
176
     1
 90
        0
176
     1
 40
0.6
176
     1
 40
30.0
176
     1
 62
     7
420
 16777215
176
     1
 90
        1
176
     1
 90
        4
176
     1
 62
     7
176
     1
 62
   257
176
     1
 90
        1
176
     1
 90
        1
176
     1
 40
1.0
176
     1
 90
        8
176
     1
 62
     7
176
     1
 40
1.0
176
     1
 90
        1
176
     1
 90
        6
176
     1
 90
        2
176
     1
 62
     7
176
     1
 90
        5
176
     1
 90
        0
176
     1
 90
        0
176
     1
290
     0
176
     1
 90
        1
176
     1
 40
-50.0
176
     1
 90
        0
176
     1
290
     0
176
     1
290
     1
176
     1
290
     1
176
     1
290
     0
176
     1
290
     0
176
     1
290
     0
176
     1
290
     0
176
     1
290
     0
176
     1
290
     0
176
     1
 90
       50
176
     1
 40
0.0
176
     1
 40
1.0
176
     1
 90
        0
176
     1
 62
    18
420
        0
176
     1
 90
       50
176
     1
 90
        3
176
     1
 62
     5
420
      255
176
     1
290
     0
176
     1
 90
       50
176
     1
 90
       50
176
     1
 90
       50
176
     1
290
     0
176
     1
 90
       50
176
     1
 62
   256
176
     0
 40
1.0
176
     0
 90
        2
176
     1
  1
strokes_ogs.tif
176
     1
290
     0
176
     1
 40
1.0
176
     1
 40
1.0
176
     1
  0
VISUALSTYLE
  5
41
102
{ACAD_REACTORS
330
29
102
}
330
29
100
AcDbVisualStyle
  2
EdgeColorOff
 70
    22
177
     3
291
     1
 70
    58
 90
        2
176
     0
 90
        2
176
     0
 90
        0
176
     0
 90
        0
176
     0
 40
0.6
176
     0
 40
30.0
176
     0
 62
     7
420
 16777215
176
     0
 90
        1
176
     0
 90
        4
176
     0
 62
     7
176
     0
 62
   257
176
     0
 90
        1
176
     0
 90
        1
176
     0
 40
1.0
176
     0
 90
        8
176
     2
 62
     7
176
     0
 40
1.0
176
     0
 90
        1
176
     0
 90
        6
176
     0
 90
        2
176
     0
 62
     7
176
     0
 90
        5
176
     0
 90
        0
176
     0
 90
        0
176
     0
290
     0
176
     0
 90
        1
176
     0
 40
0.0
176
     0
 90
        0
176
     0
290
     0
176
     0
290
     1
176
     0
290
     1
176
     0
290
     0
176
     0
290
     0
176
     0
290
     0
176
     0
290
     0
176
     0
290
     0
176
     0
290
     0
176
     0
 90
       50
176
     0
 40
0.0
176
     0
 40
1.0
176
     0
 90
        0
176
     0
 62
    18
420
        0
176
     0
 90
       50
176
     0
 90
        3
176
     0
 62
     5
420
      255
176
     0
290
     0
176
     0
 90
       50
176
     0
 90
       50
176
     0
 90
       50
176
     0
290
     0
176
     0
 90
       50
176
     0
 62
   256
176
     0
 40
1.0
176
     0
 90
        2
176
     0
  1
strokes_ogs.tif
176
     0
290
     0
176
     0
 40
1.0
176
     0
 40
1.0
176
     0
  0
VISUALSTYLE
  5
38
102
{ACAD_REACTORS
330
29
102
}
330
29
100
AcDbVisualStyle
  2
Facepattern
 70
    15
177
     3
291
     1
 70
    58
 90
        2
176
     1
 90
        2
176
     1
 90
        0
176
     1
 90
        0
176
     1
 40
0.6
176
     1
 40
30.0
176
     1
 62
     7
420
 16777215
176
     1
 90
        1
176
     1
 90
        4
176
     1
 62
     7
176
     1
 62
   257
176
     1
 90
        1
176
     1
 90
        1
176
     1
 40
1.0
176
     1
 90
        8
176
     1
 62
     7
176
     1
 40
1.0
176
     1
 90
        1
176
     1
 90
        6
176
     1
 90
        2
176
     1
 62
     7
176
     1
 90
        5
176
     1
 90
        0
176
     1
 90
        0
176
     1
290
     0
176
     1
 90
        1
176
     1
 40
0.0
176
     1
 90
        0
176
     1
290
     0
176
     1
290
     1
176
     1
290
     1
176
     1
290
     0
176
     1
290
     0
176
     1
290
     0
176
     1
290
     0
176
     1
290
     0
176
     1
290
     0
176
     1
 90
       50
176
     1
 40
0.0
176
     1
 40
1.0
176
     1
 90
        0
176
     1
 62
    18
420
        0
176
     1
 90
       50
176
     1
 90
        3
176
     1
 62
     5
420
      255
176
     1
290
     0
176
     1
 90
       50
176
     1
 90
       50
176
     1
 90
       50
176
     1
290
     0
176
     1
 90
       50
176
     1
 62
   256
176
     0
 40
1.0
176
     0
 90
        2
176
     1
  1
strokes_ogs.tif
176
     1
290
     0
176
     1
 40
1.0
176
     1
 40
1.0
176
     1
  0
VISUALSTYLE
  5
2A
102
{ACAD_REACTORS
330
29
102
}
330
29
100
AcDbVisualStyle
  2
Flat
 70
     0
177
     3
291
     1
 70
    58
 90
        2
176
     1
 90
        1
176
     1
 90
        1
176
     1
 90
        2
176
     1
 40
0.6
176
     1
 40
30.0
176
     1
 62
     7
420
 16777215
176
     1
 90
        0
176
     1
 90
        0
176
     1
 62
     7
176
     1
 62
   257
176
     1
 90
        1
176
     1
 90
        1
176
     1
 40
1.0
176
     1
 90
        8
176
     1
 62
     7
176
     1
 40
1.0
176
     1
 90
        1
176
     1
 90
        6
176
     1
 90
        2
176
     1
 62
     7
176
     1
 90
        5
176
     1
 90
        0
176
     1
 90
        0
176
     1
290
     0
176
     1
 90
       13
176
     1
 40
0.0
176
     1
 90
        0
176
     1
290
     0
176
     1
290
     1
176
     1
290
     1
176
     1
290
     0
176
     1
290
     0
176
     1
290
     0
176
     1
290
     0
176
     1
290
     0
176
     1
290
     0
176
     1
 90
       50
176
     1
 40
0.0
176
     1
 40
1.0
176
     1
 90
        0
176
     1
 62
    18
420
        0
176
     1
 90
       50
176
     1
 90
        3
176
     1
 62
     5
420
      255
176
     1
290
     0
176
     1
 90
       50
176
     1
 90
       50
176
     1
 90
       50
176
     1
290
     0
176
     1
 90
       50
176
     1
 62
   256
176
     0
 40
1.0
176
     0
 90
        2
176
     1
  1
strokes_ogs.tif
176
     1
290
     0
176
     1
 40
1.0
176
     1
 40
1.0
176
     1
  0
VISUALSTYLE
  5
2B
102
{ACAD_REACTORS
330
29
102
}
330
29
100
AcDbVisualStyle
  2
FlatWithEdges
 70
     1
177
     3
291
     1
 70
    58
 90
        2
176
     1
 90
        1
176
     1
 90
        1
176
     1
 90
        2
176
     1
 40
0.6
176
     1
 40
30.0
176
     1
 62
     7
420
 16777215
176
     1
 90
        1
176
     1
 90
        0
176
     1
 62
     7
176
     1
 62
   257
176
     1
 90
        1
176
     1
 90
        1
176
     1
 40
1.0
176
     1
 90
        0
176
     1
 62
   257
176
     1
 40
1.0
176
     1
 90
        1
176
     1
 90
        6
176
     1
 90
        2
176
     1
 62
     7
176
     1
 90
        5
176
     1
 90
        0
176
     1
 90
        0
176
     1
290
     0
176
     1
 90
       13
176
     1
 40
0.0
176
     1
 90
        0
176
     1
290
     0
176
     1
290
     1
176
     1
290
     1
176
     1
290
     0
176
     1
290
     0
176
     1
290
     0
176
     1
290
     0
176
     1
290
     0
176
     1
290
     0
176
     1
 90
       50
176
     1
 40
0.0
176
     1
 40
1.0
176
     1
 90
        0
176
     1
 62
    18
420
        0
176
     1
 90
       50
176
     1
 90
        3
176
     1
 62
     5
420
      255
176
     1
290
     0
176
     1
 90
       50
176
     1
 90
       50
176
     1
 90
       50
176
     1
290
     0
176
     1
 90
       50
176
     1
 62
   256
176
     0
 40
1.0
176
     0
 90
        2
176
     1
  1
strokes_ogs.tif
176
     1
290
     0
176
     1
 40
1.0
176
     1
 40
1.0
176
     1
  0
VISUALSTYLE
  5
2C
102
{ACAD_REACTORS
330
29
102
}
330
29
100
AcDbVisualStyle
  2
Gouraud
 70
     2
177
     3
291
     1
 70
    58
 90
        2
176
     1
 90
        2
176
     1
 90
        1
176
     1
 90
        2
176
     1
 40
0.6
176
     1
 40
30.0
176
     1
 62
     7
420
 16777215
176
     1
 90
        0
176
     1
 90
        0
176
     1
 62
     7
176
     1
 62
   257
176
     1
 90
        1
176
     1
 90
        1
176
     1
 40
1.0
176
     1
 90
        0
176
     1
 62
     7
176
     1
 40
1.0
176
     1
 90
        1
176
     1
 90
        6
176
     1
 90
        2
176
     1
 62
     7
176
     1
 90
        5
176
     1
 90
        0
176
     1
 90
        0
176
     1
290
     0
176
     1
 90
       13
176
     1
 40
0.0
176
     1
 90
        0
176
     1
290
     0
176
     1
290
     1
176
     1
290
     1
176
     1
290
     0
176
     1
290
     0
176
     1
290
     0
176
     1
290
     0
176
     1
290
     0
176
     1
290
     0
176
     1
 90
       50
176
     1
 40
0.0
176
     1
 40
1.0
176
     1
 90
        0
176
     1
 62
    18
420
        0
176
     1
 90
       50
176
     1
 90
        3
176
     1
 62
     5
420
      255
176
     1
290
     0
176
     1
 90
       50
176
     1
 90
       50
176
     1
 90
       50
176
     1
290
     0
176
     1
 90
       50
176
     1
 62
   256
176
     0
 40
1.0
176
     0
 90
        2
176
     1
  1
strokes_ogs.tif
176
     1
290
     0
176
     1
 40
1.0
176
     1
 40
1.0
176
     1
  0
VISUALSTYLE
  5
2D
102
{ACAD_REACTORS
330
29
102
}
330
29
100
AcDbVisualStyle
  2
GouraudWithEdges
 70
     3
177
     3
291
     1
 70
    58
 90
        2
176
     1
 90
        2
176
     1
 90
        1
176
     1
 90
        2
176
     1
 40
0.6
176
     1
 40
30.0
176
     1
 62
     7
420
 16777215
176
     1
 90
        1
176
     1
 90
        0
176
     1
 62
     7
176
     1
 62
   257
176
     1
 90
        1
176
     1
 90
        1
176
     1
 40
1.0
176
     1
 90
        0
176
     1
 62
   257
176
     1
 40
1.0
176
     1
 90
        1
176
     1
 90
        6
176
     1
 90
        2
176
     1
 62
     7
176
     1
 90
        5
176
     1
 90
        0
176
     1
 90
        0
176
     1
290
     0
176
     1
 90
       13
176
     1
 40
0.0
176
     1
 90
        0
176
     1
290
     0
176
     1
290
     1
176
     1
290
     1
176
     1
290
     0
176
     1
290
     0
176
     1
290
     0
176
     1
290
     0
176
     1
290
     0
176
     1
290
     0
176
     1
 90
       50
176
     1
 40
0.0
176
     1
 40
1.0
176
     1
 90
        0
176
     1
 62
    18
420
        0
176
     1
 90
       50
176
     1
 90
        3
176
     1
 62
     5
420
      255
176
     1
290
     0
176
     1
 90
       50
176
     1
 90
       50
176
     1
 90
       50
176
     1
290
     0
176
     1
 90
       50
176
     1
 62
   256
176
     0
 40
1.0
176
     0
 90
        2
176
     1
  1
strokes_ogs.tif
176
     1
290
     0
176
     1
 40
1.0
176
     1
 40
1.0
176
     1
  0
VISUALSTYLE
  5
31
102
{ACAD_REACTORS
330
29
102
}
330
29
100
AcDbVisualStyle
  2
Hidden
 70
     6
177
     3
291
     0
 70
    58
 90
        1
176
     1
 90
        2
176
     1
 90
        2
176
     1
 90
        0
176
     1
 40
0.6
176
     1
 40
30.0
176
     1
 62
     7
420
 16777215
176
     1
 90
        2
176
     1
 90
        2
176
     1
 62
     7
176
     1
 62
   257
176
     1
 90
        2
176
     1
 90
        1
176
     1
 40
40.0
176
     1
 90
        0
176
     1
 62
   257
176
     1
 40
1.0
176
     1
 90
        1
176
     1
 90
        6
176
     1
 90
        2
176
     1
 62
     7
176
     1
 90
        3
176
     1
 90
        0
176
     1
 90
        0
176
     1
290
     0
176
     1
 90
        1
176
     1
 40
0.0
176
     1
 90
        0
176
     1
290
     0
176
     1
290
     1
176
     1
290
     1
176
     1
290
     0
176
     1
290
     0
176
     1
290
     0
176
     1
290
     0
176
     1
290
     0
176
     1
290
     0
176
     1
 90
       50
176
     1
 40
0.0
176
     1
 40
1.0
176
     1
 90
        0
176
     1
 62
    18
420
        0
176
     1
 90
       50
176
     1
 90
        3
176
     1
 62
     5
420
      255
176
     1
290
     0
176
     1
 90
       50
176
     1
 90
       50
176
     1
 90
       50
176
     1
290
     0
176
     1
 90
       50
176
     1
 62
   256
176
     0
 40
1.0
176
     0
 90
        2
176
     1
  1
strokes_ogs.tif
176
     1
290
     0
176
     1
 40
1.0
176
     1
 40
1.0
176
     1
  0
VISUALSTYLE
  5
3F
102
{ACAD_REACTORS
330
29
102
}
330
29
100
AcDbVisualStyle
  2
JitterOff
 70
    20
177
     3
291
     1
 70
    58
 90
        2
176
     0
 90
        2
176
     0
 90
        0
176
     0
 90
        0
176
     0
 40
0.6
176
     0
 40
30.0
176
     0
 62
     7
420
 16777215
176
     0
 90
        1
176
     0
 90
        4
176
     0
 62
     7
176
     0
 62
   257
176
     0
 90
        1
176
     0
 90
        1
176
     0
 40
1.0
176
     0
 90
       10
176
     2
 62
     7
176
     0
 40
1.0
176
     0
 90
        1
176
     0
 90
        6
176
     0
 90
        2
176
     0
 62
     7
176
     0
 90
        5
176
     0
 90
        0
176
     0
 90
        0
176
     0
290
     0
176
     0
 90
        1
176
     0
 40
0.0
176
     0
 90
        0
176
     0
290
     0
176
     0
290
     1
176
     0
290
     1
176
     0
290
     0
176
     0
290
     0
176
     0
290
     0
176
     0
290
     0
176
     0
290
     0
176
     0
290
     0
176
     0
 90
       50
176
     0
 40
0.0
176
     0
 40
1.0
176
     0
 90
        0
176
     0
 62
    18
420
        0
176
     0
 90
       50
176
     0
 90
        3
176
     0
 62
     5
420
      255
176
     0
290
     0
176
     0
 90
       50
176
     0
 90
       50
176
     0
 90
       50
176
     0
290
     0
176
     0
 90
       50
176
     0
 62
   256
176
     0
 40
1.0
176
     0
 90
        2
176
     0
  1
strokes_ogs.tif
176
     0
290
     0
176
     0
 40
1.0
176
     0
 40
1.0
176
     0
  0
VISUALSTYLE
  5
37
102
{ACAD_REACTORS
330
29
102
}
330
29
100
AcDbVisualStyle
  2
Linepattern
 70
    14
177
     3
291
     1
 70
    58
 90
        2
176
     1
 90
        2
176
     1
 90
        0
176
     1
 90
        0
176
     1
 40
0.6
176
     1
 40
30.0
176
     1
 62
     7
420
 16777215
176
     1
 90
        1
176
     1
 90
        4
176
     1
 62
     7
176
     1
 62
   257
176
     1
 90
        7
176
     1
 90
        7
176
     1
 40
1.0
176
     1
 90
        8
176
     1
 62
     7
176
     1
 40
1.0
176
     1
 90
        1
176
     1
 90
        6
176
     1
 90
        2
176
     1
 62
     7
176
     1
 90
        5
176
     1
 90
        0
176
     1
 90
        0
176
     1
290
     0
176
     1
 90
        1
176
     1
 40
0.0
176
     1
 90
        0
176
     1
290
     0
176
     1
290
     1
176
     1
290
     1
176
     1
290
     0
176
     1
290
     0
176
     1
290
     0
176
     1
290
     0
176
     1
290
     0
176
     1
290
     0
176
     1
 90
       50
176
     1
 40
0.0
176
     1
 40
1.0
176
     1
 90
        0
176
     1
 62
    18
420
        0
176
     1
 90
       50
176
     1
 90
        3
176
     1
 62
     5
420
      255
176
     1
290
     0
176
     1
 90
       50
176
     1
 90
       50
176
     1
 90
       50
176
     1
290
     0
176
     1
 90
       50
176
     1
 62
   256
176
     0
 40
1.0
176
     0
 90
        2
176
     1
  1
strokes_ogs.tif
176
     1
290
     0
176
     1
 40
1.0
176
     1
 40
1.0
176
     1
  0
VISUALSTYLE
  5
40
102
{ACAD_REACTORS
330
29
102
}
330
29
100
AcDbVisualStyle
  2
OverhangOff
 70
    21
177
     3
291
     1
 70
    58
 90
        2
176
     0
 90
        2
176
     0
 90
        0
176
     0
 90
        0
176
     0
 40
0.6
176
     0
 40
30.0
176
     0
 62
     7
420
 16777215
176
     0
 90
        1
176
     0
 90
        4
176
     0
 62
     7
176
     0
 62
   257
176
     0
 90
        1
176
     0
 90
        1
176
     0
 40
1.0
176
     0
 90
        9
176
     2
 62
     7
176
     0
 40
1.0
176
     0
 90
        1
176
     0
 90
        6
176
     0
 90
        2
176
     0
 62
     7
176
     0
 90
        5
176
     0
 90
        0
176
     0
 90
        0
176
     0
290
     0
176
     0
 90
        1
176
     0
 40
0.0
176
     0
 90
        0
176
     0
290
     0
176
     0
290
     1
176
     0
290
     1
176
     0
290
     0
176
     0
290
     0
176
     0
290
     0
176
     0
290
     0
176
     0
290
     0
176
     0
290
     0
176
     0
 90
       50
176
     0
 40
0.0
176
     0
 40
1.0
176
     0
 90
        0
176
     0
 62
    18
420
        0
176
     0
 90
       50
176
     0
 90
        3
176
     0
 62
     5
420
      255
176
     0
290
     0
176
     0
 90
       50
176
     0
 90
       50
176
     0
 90
       50
176
     0
290
     0
176
     0
 90
       50
176
     0
 62
   256
176
     0
 40
1.0
176
     0
 90
        2
176
     0
  1
strokes_ogs.tif
176
     0
290
     0
176
     0
 40
1.0
176
     0
 40
1.0
176
     0
  0
VISUALSTYLE
  5
33
102
{ACAD_REACTORS
330
29
102
}
330
29
100
AcDbVisualStyle
  2
Realistic
 70
     8
177
     3
291
     0
 70
    58
 90
        2
176
     1
 90
        3
176
     1
 90
        0
176
     1
 90
        2
176
     1
 40
0.6
176
     1
 40
30.0
176
     1
 62
     7
420
 16777215
176
     1
 90
        0
176
     1
 90
        0
176
     1
 62
     7
176
     1
 62
   257
176
     1
 90
        1
176
     1
 90
        1
176
     1
 40
1.0
176
     1
 90
        8
176
     1
 62
   257
176
     1
 40
1.0
176
     1
 90
        1
176
     1
 90
        6
176
     1
 90
        2
176
     1
 62
     7
176
     1
 90
        3
176
     1
 90
        0
176
     1
 90
        0
176
     1
290
     0
176
     1
 90
       13
176
     1
 40
0.0
176
     1
 90
        0
176
     1
290
     0
176
     1
290
     1
176
     1
290
     1
176
     1
290
     0
176
     1
290
     0
176
     1
290
     0
176
     1
290
     0
176
     1
290
     0
176
     1
290
     0
176
     1
 90
       50
176
     1
 40
0.0
176
     1
 40
1.0
176
     1
 90
        0
176
     1
 62
    18
420
        0
176
     1
 90
       50
176
     1
 90
        3
176
     1
 62
     5
420
      255
176
     1
290
     0
176
     1
 90
       50
176
     1
 90
       50
176
     1
 90
       50
176
     1
290
     0
176
     1
 90
       50
176
     1
 62
   256
176
     0
 40
1.0
176
     0
 90
        2
176
     1
  1
strokes_ogs.tif
176
     1
290
     0
176
     1
 40
1.0
176
     1
 40
1.0
176
     1
  0
VISUALSTYLE
  5
3E
102
{ACAD_REACTORS
330
29
102
}
330
29
100
AcDbVisualStyle
  2
Shaded
 70
    27
177
     3
291
     0
 70
    58
 90
        2
176
     1
 90
        2
176
     1
 90
        1
176
     1
 90
        2
176
     1
 40
0.6
176
     1
 40
30.0
176
     1
 62
     7
420
 16777215
176
     1
 90
        0
176
     1
 90
        4
176
     1
 62
     7
176
     1
 62
   257
176
     1
 90
        1
176
     1
 90
        1
176
     1
 40
1.0
176
     1
 90
        8
176
     1
 62
   257
176
     1
 40
1.0
176
     1
 90
        1
176
     1
 90
        6
176
     1
 90
        2
176
     1
 62
     8
420
  7895160
176
     1
 90
        3
176
     1
 90
        0
176
     1
 90
        0
176
     1
290
     0
176
     1
 90
        5
176
     1
 40
0.0
176
     1
 90
        0
176
     1
290
     0
176
     1
290
     1
176
     1
290
     1
176
     1
290
     0
176
     1
290
     0
176
     1
290
     0
176
     1
290
     0
176
     1
290
     0
176
     1
290
     0
176
     1
 90
       50
176
     1
 40
0.0
176
     1
 40
1.0
176
     1
 90
        0
176
     1
 62
    18
420
        0
176
     1
 90
       50
176
     1
 90
        3
176
     1
 62
     5
420
      255
176
     1
290
     0
176
     1
 90
       50
176
     1
 90
       50
176
     1
 90
       50
176
     1
290
     0
176
     1
 90
       50
176
     1
 62
   256
176
     0
 40
1.0
176
     0
 90
        2
176
     1
  1
strokes_ogs.tif
176
     1
290
     0
176
     1
 40
1.0
176
     1
 40
1.0
176
     1
  0
VISUALSTYLE
  5
3D
102
{ACAD_REACTORS
330
29
102
}
330
29
100
AcDbVisualStyle
  2
Shaded with edges
 70
    26
177
     3
291
     0
 70
    58
 90
        2
176
     1
 90
        2
176
     1
 90
        1
176
     1
 90
        2
176
     1
 40
0.6
176
     1
 40
30.0
176
     1
 62
     7
420
 16777215
176
     1
 90
        1
176
     1
 90
        2
176
     1
 62
     7
176
     1
 62
   257
176
     1
 90
        2
176
     1
 90
        1
176
     1
 40
1.0
176
     1
 90
        8
176
     1
 62
   257
176
     1
 40
1.0
176
     1
 90
        1
176
     1
 90
        6
176
     1
 90
        2
176
     1
 62
     7
176
     1
 90
        3
176
     1
 90
        0
176
     1
 90
        0
176
     1
290
     0
176
     1
 90
        5
176
     1
 40
0.0
176
     1
 90
        0
176
     1
290
     0
176
     1
290
     1
176
     1
290
     1
176
     1
290
     0
176
     1
290
     0
176
     1
290
     0
176
     1
290
     0
176
     1
290
     0
176
     1
290
     0
176
     1
 90
       50
176
     1
 40
0.0
176
     1
 40
1.0
176
     1
 90
        0
176
     1
 62
    18
420
        0
176
     1
 90
       50
176
     1
 90
        3
176
     1
 62
     5
420
      255
176
     1
290
     0
176
     1
 90
       50
176
     1
 90
       50
176
     1
 90
       50
176
     1
290
     0
176
     1
 90
       50
176
     1
 62
   256
176
     0
 40
1.0
176
     0
 90
        2
176
     1
  1
strokes_ogs.tif
176
     1
290
     0
176
     1
 40
1.0
176
     1
 40
1.0
176
     1
  0
VISUALSTYLE
  5
3A
102
{ACAD_REACTORS
330
29
102
}
330
29
100
AcDbVisualStyle
  2
Shades of Gray
 70
    23
177
     3
291
     0
 70
    58
 90
        2
176
     1
 90
        2
176
     1
 90
        3
176
     1
 90
        0
176
     1
 40
0.6
176
     1
 40
30.0
176
     1
 62
     7
420
 16777215
176
     1
 90
        2
176
     1
 90
        2
176
     1
 62
     7
176
     1
 62
     7
176
     1
 90
        1
176
     1
 90
        1
176
     1
 40
40.0
176
     1
 90
        8
176
     1
 62
     7
176
     1
 40
1.0
176
     1
 90
        1
176
     1
 90
        6
176
     1
 90
        2
176
     1
 62
     7
176
     1
 90
        3
176
     1
 90
        0
176
     1
 90
        0
176
     1
290
     0
176
     1
 90
        1
176
     1
 40
0.0
176
     1
 90
        0
176
     1
290
     0
176
     1
290
     1
176
     1
290
     1
176
     1
290
     0
176
     1
290
     0
176
     1
290
     0
176
     1
290
     0
176
     1
290
     0
176
     1
290
     0
176
     1
 90
       50
176
     1
 40
0.0
176
     1
 40
1.0
176
     1
 90
        0
176
     1
 62
    18
420
        0
176
     1
 90
       50
176
     1
 90
        3
176
     1
 62
     5
420
      255
176
     1
290
     0
176
     1
 90
       50
176
     1
 90
       50
176
     1
 90
       50
176
     1
290
     0
176
     1
 90
       50
176
     1
 62
   256
176
     0
 40
1.0
176
     0
 90
        2
176
     1
  1
strokes_ogs.tif
176
     1
290
     0
176
     1
 40
1.0
176
     1
 40
1.0
176
     1
  0
VISUALSTYLE
  5
3B
102
{ACAD_REACTORS
330
29
102
}
330
29
100
AcDbVisualStyle
  2
Sketchy
 70
    24
177
     3
291
     0
 70
    58
 90
        1
176
     1
 90
        2
176
     1
 90
        2
176
     1
 90
        0
176
     1
 40
0.6
176
     1
 40
30.0
176
     1
 62
     7
420
 16777215
176
     1
 90
        2
176
     1
 90
        2
176
     1
 62
     7
176
     1
 62
     7
176
     1
 90
        1
176
     1
 90
        1
176
     1
 40
40.0
176
     1
 90
       11
176
     1
 62
     7
176
     1
 40
1.0
176
     1
 90
        1
176
     1
 90
        6
176
     1
 90
        2
176
     1
 62
     7
176
     1
 90
        6
176
     1
 90
        0
176
     1
 90
        0
176
     1
290
     0
176
     1
 90
        1
176
     1
 40
0.0
176
     1
 90
        0
176
     1
290
     0
176
     1
290
     1
176
     1
290
     1
176
     1
290
     0
176
     1
290
     0
176
     1
290
     0
176
     1
290
     0
176
     1
290
     0
176
     1
290
     0
176
     1
 90
       50
176
     1
 40
0.0
176
     1
 40
1.0
176
     1
 90
        0
176
     1
 62
    18
420
        0
176
     1
 90
       50
176
     1
 90
        3
176
     1
 62
     5
420
      255
176
     1
290
     0
176
     1
 90
       50
176
     1
 90
       50
176
     1
 90
       50
176
     1
290
     0
176
     1
 90
       50
176
     1
 62
   256
176
     0
 40
1.0
176
     0
 90
        2
176
     1
  1
strokes_ogs.tif
176
     1
290
     0
176
     1
 40
1.0
176
     1
 40
1.0
176
     1
  0
VISUALSTYLE
  5
36
102
{ACAD_REACTORS
330
29
102
}
330
29
100
AcDbVisualStyle
  2
Thicken
 70
    13
177
     3
291
     1
 70
    58
 90
        2
176
     1
 90
        2
176
     1
 90
        0
176
     1
 90
        0
176
     1
 40
0.6
176
     1
 40
30.0
176
     1
 62
     7
420
 16777215
176
     1
 90
        1
176
     1
 90
        4
176
     1
 62
     7
176
     1
 62
   257
176
     1
 90
        1
176
     1
 90
        1
176
     1
 40
1.0
176
     1
 90
       12
176
     1
 62
     7
176
     1
 40
1.0
176
     1
 90
        1
176
     1
 90
        6
176
     1
 90
        2
176
     1
 62
     7
176
     1
 90
        5
176
     1
 90
        0
176
     1
 90
        0
176
     1
290
     0
176
     1
 90
        1
176
     1
 40
0.0
176
     1
 90
        0
176
     1
290
     0
176
     1
290
     1
176
     1
290
     1
176
     1
290
     0
176
     1
290
     0
176
     1
290
     0
176
     1
290
     0
176
     1
290
     0
176
     1
290
     0
176
     1
 90
       50
176
     1
 40
0.0
176
     1
 40
1.0
176
     1
 90
        0
176
     1
 62
    18
420
        0
176
     1
 90
       50
176
     1
 90
        3
176
     1
 62
     5
420
      255
176
     1
290
     0
176
     1
 90
       50
176
     1
 90
       50
176
     1
 90
       50
176
     1
290
     0
176
     1
 90
       50
176
     1
 62
   256
176
     0
 40
1.0
176
     0
 90
        2
176
     1
  1
strokes_ogs.tif
176
     1
290
     0
176
     1
 40
1.0
176
     1
 40
1.0
176
     1
  0
VISUALSTYLE
  5
30
102
{ACAD_REACTORS
330
29
102
}
330
29
100
AcDbVisualStyle
  2
Wireframe
 70
     5
177
     3
291
     0
 70
    58
 90
        0
176
     1
 90
        2
176
     1
 90
        0
176
     1
 90
        0
176
     1
 40
0.6
176
     1
 40
30.0
176
     1
 62
     7
420
 16777215
176
     1
 90
        1
176
     1
 90
        4
176
     1
 62
     7
176
     1
 62
   257
176
     1
 90
        1
176
     1
 90
        1
176
     1
 40
1.0
176
     1
 90
        0
176
     1
 62
   257
176
     1
 40
1.0
176
     1
 90
        1
176
     1
 90
        6
176
     1
 90
        2
176
     1
 62
     7
176
     1
 90
        3
176
     1
 90
        0
176
     1
 90
        0
176
     1
290
     0
176
     1
 90
        1
176
     1
 40
0.0
176
     1
 90
        0
176
     1
290
     0
176
     1
290
     1
176
     1
290
     1
176
     1
290
     0
176
     1
290
     0
176
     1
290
     0
176
     1
290
     0
176
     1
290
     0
176
     1
290
     0
176
     1
 90
       50
176
     1
 40
0.0
176
     1
 40
1.0
176
     1
 90
        0
176
     1
 62
    18
420
        0
176
     1
 90
       50
176
     1
 90
        3
176
     1
 62
     5
420
      255
176
     1
290
     0
176
     1
 90
       50
176
     1
 90
       50
176
     1
 90
       50
176
     1
290
     0
176
     1
 90
       50
176
     1
 62
   256
176
     0
 40
1.0
176
     0
 90
        2
176
     1
  1
strokes_ogs.tif
176
     1
290
     0
176
     1
 40
1.0
176
     1
 40
1.0
176
     1
  0
VISUALSTYLE
  5
3C
102
{ACAD_REACTORS
330
29
102
}
330
29
100
AcDbVisualStyle
  2
X-Ray
 70
    25
177
     3
291
     0
 70
    58
 90
        2
176
     1
 90
        2
176
     1
 90
        1
176
     1
 90
        1
176
     1
 40
0.5
176
     1
 40
30.0
176
     1
 62
     7
420
 16777215
176
     1
 90
        1
176
     1
 90
        0
176
     1
 62
     7
176
     1
 62
   257
176
     1
 90
        1
176
     1
 90
        1
176
     1
 40
1.0
176
     1
 90
        8
176
     1
 62
     7
176
     1
 40
1.0
176
     1
 90
        1
176
     1
 90
        6
176
     1
 90
        2
176
     1
 62
     7
176
     1
 90
        3
176
     1
 90
        0
176
     1
 90
        0
176
     1
290
     0
176
     1
 90
       13
176
     1
 40
0.0
176
     1
 90
        0
176
     1
290
     0
176
     1
290
     1
176
     1
290
     1
176
     1
290
     0
176
     1
290
     0
176
     1
290
     0
176
     1
290
     0
176
     1
290
     0
176
     1
290
     0
176
     1
 90
       50
176
     1
 40
0.0
176
     1
 40
1.0
176
     1
 90
        0
176
     1
 62
    18
420
        0
176
     1
 90
       50
176
     1
 90
        3
176
     1
 62
     5
420
      255
176
     1
290
     0
176
     1
 90
       50
176
     1
 90
       50
176
     1
 90
       50
176
     1
290
     0
176
     1
 90
       50
176
     1
 62
   256
176
     0
 40
1.0
176
     0
 90
        2
176
     1
  1
strokes_ogs.tif
176
     1
290
     0
176
     1
 40
1.0
176
     1
 40
1.0
176
     1
  0
DICTIONARYVAR
  5
CF
102
{ACAD_REACTORS
330
CA
102
}
330
CA
100
DictionaryVariables
280
     0
  1
1:1
  0
DICTIONARYVAR
  5
CC
102
{ACAD_REACTORS
330
CA
102
}
330
CA
100
DictionaryVariables
280
     0
  1
STANDARD
  0
DICTIONARYVAR
  5
CB
102
{ACAD_REACTORS
330
CA
102
}
330
CA
100
DictionaryVariables
280
     0
  1
STANDARD
  0
DICTIONARYVAR
  5
CD
102
{ACAD_REACTORS
330
CA
102
}
330
CA
100
DictionaryVariables
280
     0
  1
Imperial24
  0
DICTIONARYVAR
  5
CE
102
{ACAD_REACTORS
330
CA
102
}
330
CA
100
DictionaryVariables
280
     0
  1
Imperial24
  0
DICTIONARY
  5
1A
330
19
100
AcDbDictionary
280
     1
281
     1
  3
BUMPTILE
360
1C
  3
DIFFUSETILE
360
1B
  3
OPACITYTILE
360
1F
  3
REFLECTIONTILE
360
1E
  3
REFRACTIONTILE
360
20
  3
SPECULARTILE
360
1D
  0
DICTIONARY
  5
12
330
11
100
AcDbDictionary
280
     1
281
     1
  3
BUMPTILE
360
14
  3
DIFFUSETILE
360
13
  3
OPACITYTILE
360
17
  3
REFLECTIONTILE
360
16
  3
REFRACTIONTILE
360
18
  3
SPECULARTILE
360
15
  0
DICTIONARY
  5
22
330
21
100
AcDbDictionary
280
     1
281
     1
  3
BUMPTILE
360
24
  3
DIFFUSETILE
360
23
  3
OPACITYTILE
360
27
  3
REFLECTIONTILE
360
26
  3
REFRACTIONTILE
360
28
  3
SPECULARTILE
360
25
  0
DICTIONARY
  5
D0
330
65
100
AcDbDictionary
280
     1
281
     1
  3
ACAD_ROUNDTRIP_2008_TABLESTYLE_CELLSTYLEMAP
360
D1
  0
XRECORD
  5
1C
102
{ACAD_REACTORS
330
1A
102
}
330
1A
100
AcDbXrecord
280
     1
270
     1
271
     1
  0
XRECORD
  5
1B
102
{ACAD_REACTORS
330
1A
102
}
330
1A
100
AcDbXrecord
280
     1
270
     1
271
     1
  0
XRECORD
  5
1F
102
{ACAD_REACTORS
330
1A
102
}
330
1A
100
AcDbXrecord
280
     1
270
     1
271
     1
  0
XRECORD
  5
1E
102
{ACAD_REACTORS
330
1A
102
}
330
1A
100
AcDbXrecord
280
     1
270
     1
271
     1
  0
XRECORD
  5
20
102
{ACAD_REACTORS
330
1A
102
}
330
1A
100
AcDbXrecord
280
     1
270
     1
271
     1
  0
XRECORD
  5
1D
102
{ACAD_REACTORS
330
1A
102
}
330
1A
100
AcDbXrecord
280
     1
270
     1
271
     1
  0
XRECORD
  5
14
102
{ACAD_REACTORS
330
12
102
}
330
12
100
AcDbXrecord
280
     1
270
     1
271
     1
  0
XRECORD
  5
13
102
{ACAD_REACTORS
330
12
102
}
330
12
100
AcDbXrecord
280
     1
270
     1
271
     1
  0
XRECORD
  5
17
102
{ACAD_REACTORS
330
12
102
}
330
12
100
AcDbXrecord
280
     1
270
     1
271
     1
  0
XRECORD
  5
16
102
{ACAD_REACTORS
330
12
102
}
330
12
100
AcDbXrecord
280
     1
270
     1
271
     1
  0
XRECORD
  5
18
102
{ACAD_REACTORS
330
12
102
}
330
12
100
AcDbXrecord
280
     1
270
     1
271
     1
  0
XRECORD
  5
15
102
{ACAD_REACTORS
330
12
102
}
330
12
100
AcDbXrecord
280
     1
270
     1
271
     1
  0
XRECORD
  5
24
102
{ACAD_REACTORS
330
22
102
}
330
22
100
AcDbXrecord
280
     1
270
     1
271
     1
  0
XRECORD
  5
23
102
{ACAD_REACTORS
330
22
102
}
330
22
100
AcDbXrecord
280
     1
270
     1
271
     1
  0
XRECORD
  5
27
102
{ACAD_REACTORS
330
22
102
}
330
22
100
AcDbXrecord
280
     1
270
     1
271
     1
  0
XRECORD
  5
26
102
{ACAD_REACTORS
330
22
102
}
330
22
100
AcDbXrecord
280
     1
270
     1
271
     1
  0
XRECORD
  5
28
102
{ACAD_REACTORS
330
22
102
}
330
22
100
AcDbXrecord
280
     1
270
     1
271
     1
  0
XRECORD
  5
25
102
{ACAD_REACTORS
330
22
102
}
330
22
100
AcDbXrecord
280
     1
270
     1
271
     1
  0
CELLSTYLEMAP
  5
D1
102
{ACAD_REACTORS
330
D0
102
}
330
D0
100
AcDbCellStyleMap
 90
        3
300
CELLSTYLE
  1
TABLEFORMAT_BEGIN
 90
        5
170
     1
 91
        0
 92
    32768
 62
   257
 93
        1
300
CONTENTFORMAT
  1
CONTENTFORMAT_BEGIN
 90
        0
 91
        0
 92
      512
 93
        0
300

 40
0.0
140
1.0
 94
        5
 62
     0
340
55
144
0.25
309
CONTENTFORMAT_END
171
     0
 94
        0
309
TABLEFORMAT_END
  1
CELLSTYLE_BEGIN
 90
        1
 91
        1
300
_TITLE
309
CELLSTYLE_END
300
CELLSTYLE
  1
TABLEFORMAT_BEGIN
 90
        5
170
     1
 91
        0
 92
        0
 62
   257
 93
        1
300
CONTENTFORMAT
  1
CONTENTFORMAT_BEGIN
 90
        0
 91
        0
 92
      512
 93
        0
300

 40
0.0
140
1.0
 94
        5
 62
     0
340
55
144
0.18
309
CONTENTFORMAT_END
171
     0
 94
        0
309
TABLEFORMAT_END
  1
CELLSTYLE_BEGIN
 90
        2
 91
        1
300
_HEADER
309
CELLSTYLE_END
300
CELLSTYLE
  1
TABLEFORMAT_BEGIN
 90
        5
170
     1
 91
        0
 92
        0
 62
   257
 93
        1
300
CONTENTFORMAT
  1
CONTENTFORMAT_BEGIN
 90
        0
 91
        0
 92
      512
 93
        0
300

 40
0.0
140
1.0
 94
        2
 62
     0
340
55
144
0.18
309
CONTENTFORMAT_END
171
     0
 94
        0
309
TABLEFORMAT_END
  1
CELLSTYLE_BEGIN
 90
        3
 91
        2
300
_DATA
309
CELLSTYLE_END
  0
ENDSEC
  0
EOF
