  0
SECTION
  2
HEADER
  9
$ACADVER
  1
AC1032
  9
$ACADMAINTVER
 90
      228
  9
$DWGCODEPAGE
  3
ANSI_1252
  9
$REQUIREDVERSIONS
160
                 0
  9
$INSBASE
 10
0.0
 20
0.0
 30
0.0
  9
$EXTMIN
 10
1.000000000000000E+20
 20
1.000000000000000E+20
 30
1.000000000000000E+20
  9
$EXTMAX
 10
-1.000000000000000E+20
 20
-1.000000000000000E+20
 30
-1.000000000000000E+20
  9
$LIMMIN
 10
0.0
 20
0.0
  9
$LIMMAX
 10
12.0
 20
9.0
  9
$ORTHOMODE
 70
     0
  9
$REGENMODE
 70
     1
  9
$FILLMODE
 70
     1
  9
$QTEXTMODE
 70
     0
  9
$MIRRTEXT
 70
     0
  9
$LTSCALE
 40
1.0
  9
$ATTMODE
 70
     1
  9
$TEXTSIZE
 40
0.2
  9
$TRACEWID
 40
0.05
  9
$TEXTSTYLE
  7
Standard
  9
$CLAYER
  8
0
  9
$CELTYPE
  6
ByLayer
  9
$CECOLOR
 62
   256
  9
$CELTSCALE
 40
1.0
  9
$DISPSILH
 70
     0
  9
$DIMSCALE
 40
1.0
  9
$DIMASZ
 40
0.18
  9
$DIMEXO
 40
0.0625
  9
$DIMDLI
 40
0.38
  9
$DIMRND
 40
0.0
  9
$DIMDLE
 40
0.0
  9
$DIMEXE
 40
0.18
  9
$DIMTP
 40
0.0
  9
$DIMTM
 40
0.0
  9
$DIMTXT
 40
0.18
  9
$DIMCEN
 40
0.09
  9
$DIMTSZ
 40
0.0
  9
$DIMTOL
 70
     0
  9
$DIMLIM
 70
     0
  9
$DIMTIH
 70
     1
  9
$DIMTOH
 70
     1
  9
$DIMSE1
 70
     0
  9
$DIMSE2
 70
     0
  9
$DIMTAD
 70
     0
  9
$DIMZIN
 70
     0
  9
$DIMBLK
  1

  9
$DIMASO
 70
     1
  9
$DIMSHO
 70
     1
  9
$DIMPOST
  1

  9
$DIMAPOST
  1

  9
$DIMALT
 70
     0
  9
$DIMALTD
 70
     2
  9
$DIMALTF
 40
25.4
  9
$DIMLFAC
 40
1.0
  9
$DIMTOFL
 70
     0
  9
$DIMTVP
 40
0.0
  9
$DIMTIX
 70
     0
  9
$DIMSOXD
 70
     0
  9
$DIMSAH
 70
     0
  9
$DIMBLK1
  1

  9
$DIMBLK2
  1

  9
$DIMSTYLE
  2
Standard
  9
$DIMCLRD
 70
     0
  9
$DIMCLRE
 70
     0
  9
$DIMCLRT
 70
     0
  9
$DIMTFAC
 40
1.0
  9
$DIMGAP
 40
0.09
  9
$DIMJUST
 70
     0
  9
$DIMSD1
 70
     0
  9
$DIMSD2
 70
     0
  9
$DIMTOLJ
 70
     1
  9
$DIMTZIN
 70
     0
  9
$DIMALTZ
 70
     0
  9
$DIMALTTZ
 70
     0
  9
$DIMUPT
 70
     0
  9
$DIMDEC
 70
     4
  9
$DIMTDEC
 70
     4
  9
$DIMALTU
 70
     2
  9
$DIMALTTD
 70
     2
  9
$DIMTXSTY
  7
Standard
  9
$DIMAUNIT
 70
     0
  9
$DIMADEC
 70
     0
  9
$DIMALTRND
 40
0.0
  9
$DIMAZIN
 70
     0
  9
$DIMDSEP
 70
    46
  9
$DIMATFIT
 70
     3
  9
$DIMFRAC
 70
     0
  9
$DIMLDRBLK
  1

  9
$DIMLUNIT
 70
     2
  9
$DIMLWD
 70
    -2
  9
$DIMLWE
 70
    -2
  9
$DIMTMOVE
 70
     0
  9
$DIMFXL
 40
1.0
  9
$DIMFXLON
 70
     0
  9
$DIMJOGANG
 40
0.7853981633974483
  9
$DIMTFILL
 70
     0
  9
$DIMTFILLCLR
 70
     0
  9
$DIMARCSYM
 70
     0
  9
$DIMLTYPE
  6

  9
$DIMLTEX1
  6

  9
$DIMLTEX2
  6

  9
$DIMTXTDIRECTION
 70
     0
  9
$LUNITS
 70
     2
  9
$LUPREC
 70
     4
  9
$SKETCHINC
 40
0.1
  9
$FILLETRAD
 40
0.0
  9
$AUNITS
 70
     0
  9
$AUPREC
 70
     0
  9
$MENU
  1
.
  9
$ELEVATION
 40
0.0
  9
$PELEVATION
 40
0.0
  9
$THICKNESS
 40
0.0
  9
$LIMCHECK
 70
     0
  9
$CHAMFERA
 40
0.0
  9
$CHAMFERB
 40
0.0
  9
$CHAMFERC
 40
0.0
  9
$CHAMFERD
 40
0.0
  9
$SKPOLY
 70
     0
  9
$TDCREATE
 40
2460331.938831019
  9
$TDUCREATE
 40
2460332.272164352
  9
$TDUPDATE
 40
2460331.938831019
  9
$TDUUPDATE
 40
2460332.272164352
  9
$TDINDWG
 40
0.0000000000
  9
$TDUSRTIMER
 40
0.0000000000
  9
$USRTIMER
 70
     1
  9
$ANGBASE
 50
0.0
  9
$ANGDIR
 70
     0
  9
$PDMODE
 70
     0
  9
$PDSIZE
 40
0.0
  9
$PLINEWID
 40
0.0
  9
$SPLFRAME
 70
     0
  9
$SPLINETYPE
 70
     6
  9
$SPLINESEGS
 70
     8
  9
$HANDSEED
  5
9B
  9
$SURFTAB1
 70
     6
  9
$SURFTAB2
 70
     6
  9
$SURFTYPE
 70
     6
  9
$SURFU
 70
     6
  9
$SURFV
 70
     6
  9
$UCSBASE
  2

  9
$UCSNAME
  2

  9
$UCSORG
 10
0.0
 20
0.0
 30
0.0
  9
$UCSXDIR
 10
1.0
 20
0.0
 30
0.0
  9
$UCSYDIR
 10
0.0
 20
1.0
 30
0.0
  9
$UCSORTHOREF
  2

  9
$UCSORTHOVIEW
 70
     0
  9
$UCSORGTOP
 10
0.0
 20
0.0
 30
0.0
  9
$UCSORGBOTTOM
 10
0.0
 20
0.0
 30
0.0
  9
$UCSORGLEFT
 10
0.0
 20
0.0
 30
0.0
  9
$UCSORGRIGHT
 10
0.0
 20
0.0
 30
0.0
  9
$UCSORGFRONT
 10
0.0
 20
0.0
 30
0.0
  9
$UCSORGBACK
 10
0.0
 20
0.0
 30
0.0
  9
$PUCSBASE
  2

  9
$PUCSNAME
  2

  9
$PUCSORG
 10
0.0
 20
0.0
 30
0.0
  9
$PUCSXDIR
 10
1.0
 20
0.0
 30
0.0
  9
$PUCSYDIR
 10
0.0
 20
1.0
 30
0.0
  9
$PUCSORTHOREF
  2

  9
$PUCSORTHOVIEW
 70
     0
  9
$PUCSORGTOP
 10
0.0
 20
0.0
 30
0.0
  9
$PUCSORGBOTTOM
 10
0.0
 20
0.0
 30
0.0
  9
$PUCSORGLEFT
 10
0.0
 20
0.0
 30
0.0
  9
$PUCSORGRIGHT
 10
0.0
 20
0.0
 30
0.0
  9
$PUCSORGFRONT
 10
0.0
 20
0.0
 30
0.0
  9
$PUCSORGBACK
 10
0.0
 20
0.0
 30
0.0
  9
$USERI1
 70
     0
  9
$USERI2
 70
     0
  9
$USERI3
 70
     0
  9
$USERI4
 70
     0
  9
$USERI5
 70
     0
  9
$USERR1
 40
0.0
  9
$USERR2
 40
0.0
  9
$USERR3
 40
0.0
  9
$USERR4
 40
0.0
  9
$USERR5
 40
0.0
  9
$WORLDVIEW
 70
     1
  9
$SHADEDGE
 70
     3
  9
$SHADEDIF
 70
    70
  9
$TILEMODE
 70
     1
  9
$MAXACTVP
 70
    64
  9
$PINSBASE
 10
0.0
 20
0.0
 30
0.0
  9
$PLIMCHECK
 70
     0
  9
$PEXTMIN
 10
1.000000000000000E+20
 20
1.000000000000000E+20
 30
1.000000000000000E+20
  9
$PEXTMAX
 10
-1.000000000000000E+20
 20
-1.000000000000000E+20
 30
-1.000000000000000E+20
  9
$PLIMMIN
 10
0.0
 20
0.0
  9
$PLIMMAX
 10
12.0
 20
9.0
  9
$UNITMODE
 70
     0
  9
$VISRETAIN
 70
     1
  9
$PLINEGEN
 70
     0
  9
$PSLTSCALE
 70
     1
  9
$TREEDEPTH
 70
  3020
  9
$CMLSTYLE
  2
Standard
  9
$CMLJUST
 70
     0
  9
$CMLSCALE
 40
1.0
  9
$PROXYGRAPHICS
 70
     1
  9
$MEASUREMENT
 70
     0
  9
$CELWEIGHT
370
    -1
  9
$ENDCAPS
280
     0
  9
$JOINSTYLE
280
     0
  9
$LWDISPLAY
290
     1
  9
$INSUNITS
 70
     1
  9
$HYPERLINKBASE
  1

  9
$STYLESHEET
  1

  9
$XEDIT
290
     1
  9
$CEPSNTYPE
380
     0
  9
$PSTYLEMODE
290
     1
  9
$FINGERPRINTGUID
  2
{607859F5-29B3-094D-B335-0F65DF31B392}
  9
$VERSIONGUID
  2
{1ACBD581-5DAF-E44B-83AC-EFC62137F49E}
  9
$EXTNAMES
290
     1
  9
$PSVPSCALE
 40
0.0
  9
$OLESTARTUP
290
     0
  9
$SORTENTS
280
   127
  9
$INDEXCTL
280
     0
  9
$HIDETEXT
280
     1
  9
$XCLIPFRAME
280
     2
  9
$HALOGAP
280
     0
  9
$OBSCOLOR
 70
   257
  9
$OBSLTYPE
280
     0
  9
$INTERSECTIONDISPLAY
280
     0
  9
$INTERSECTIONCOLOR
 70
   257
  9
$DIMASSOC
280
     2
  9
$PROJECTNAME
  1

  9
$CAMERADISPLAY
290
     0
  9
$LENSLENGTH
 40
50.0
  9
$CAMERAHEIGHT
 40
0.0
  9
$STEPSPERSEC
 40
2.0
  9
$STEPSIZE
 40
6.0
  9
$3DDWFPREC
 40
2.0
  9
$PSOLWIDTH
 40
0.25
  9
$PSOLHEIGHT
 40
4.0
  9
$LOFTANG1
 40
1.570796326794896
  9
$LOFTANG2
 40
1.570796326794896
  9
$LOFTMAG1
 40
0.0
  9
$LOFTMAG2
 40
0.0
  9
$LOFTPARAM
 70
     7
  9
$LOFTNORMALS
280
     1
  9
$LATITUDE
 40
37.795
  9
$LONGITUDE
 40
-122.394
  9
$NORTHDIRECTION
 40
0.0
  9
$TIMEZONE
 70
 -8000
  9
$LIGHTGLYPHDISPLAY
280
     1
  9
$TILEMODELIGHTSYNCH
280
     1
  9
$CMATERIAL
347
11
  9
$SOLIDHIST
280
     0
  9
$SHOWHIST
280
     1
  9
$DWFFRAME
280
     2
  9
$DGNFRAME
280
     0
  9
$REALWORLDSCALE
290
     1
  9
$INTERFERECOLOR
 62
     1
  9
$INTERFEREOBJVS
345
33
  9
$INTERFEREVPVS
346
30
  9
$CSHADOW
280
     0
  9
$SHADOWPLANELOCATION
 40
0.0
  0
ENDSEC
  0
SECTION
  2
CLASSES
  0
CLASS
  1
ACDBDICTIONARYWDFLT
  2
AcDbDictionaryWithDefault
  3
ObjectDBX Classes
 90
        0
 91
        1
280
     0
281
     0
  0
CLASS
  1
MATERIAL
  2
AcDbMaterial
  3
ObjectDBX Classes
 90
     1153
 91
        3
280
     0
281
     0
  0
CLASS
  1
VISUALSTYLE
  2
AcDbVisualStyle
  3
ObjectDBX Classes
 90
     4095
 91
       24
280
     0
281
     0
  0
CLASS
  1
SCALE
  2
AcDbScale
  3
ObjectDBX Classes
 90
     1153
 91
       17
280
     0
281
     0
  0
CLASS
  1
TABLESTYLE
  2
AcDbTableStyle
  3
ObjectDBX Classes
 90
     4095
 91
        1
280
     0
281
     0
  0
CLASS
  1
MLEADERSTYLE
  2
AcDbMLeaderStyle
  3
ACDB_MLEADERSTYLE_CLASS
 90
     4095
 91
        1
280
     0
281
     0
  0
CLASS
  1
ACDBSECTIONVIEWSTYLE
  2
AcDbSectionViewStyle
  3
ObjectDBX Classes
 90
     1025
 91
        1
280
     0
281
     0
  0
CLASS
  1
ACDBDETAILVIEWSTYLE
  2
AcDbDetailViewStyle
  3
ObjectDBX Classes
 90
     1025
 91
        1
280
     0
281
     0
  0
CLASS
  1
DICTIONARYVAR
  2
AcDbDictionaryVar
  3
ObjectDBX Classes
 90
        0
 91
        5
280
     0
281
     0
  0
CLASS
  1
CELLSTYLEMAP
  2
AcDbCellStyleMap
  3
ObjectDBX Classes
 90
     1152
 91
        1
280
     0
281
     0
  0
ENDSEC
  0
SECTION
  2
TABLES
  0
TABLE
  2
VPORT
  5
8
330
0
100
AcDbSymbolTable
 70
     1
  0
VPORT
  5
57
330
8
100
AcDbSymbolTableRecord
100
AcDbViewportTableRecord
  2
*Active
 70
     0
 10
0.0
 20
0.0
 11
1.0
 21
1.0
 12
0.0
 22
0.0
 13
0.0
 23
0.0
 14
1.0
 24
1.0
 15
0.0
 25
0.0
 16
0.0
 26
0.0
 36
1.0
 17
1.760047281323889
 27
-5.34703284008847
 37
0.0
 40
13.28992534664506
 41
1.121672994075401
 42
50.0
 43
0.0
 44
0.0
 50
0.0
 51
0.0
 71
     0
 72
   100
 73
     1
 74
     1
 75
     0
 76
     0
 77
     0
 78
     0
281
     0
 65
     1
110
0.0
120
0.0
130
0.0
111
1.0
121
0.0
131
0.0
112
0.0
122
1.0
132
0.0
 79
     0
146
0.0
 60
     3
 61
     5
292
     1
282
     1
141
0.0
142
0.0
 63
   250
421
  3355443
  0
ENDTAB
  0
TABLE
  2
LTYPE
  5
5
330
0
100
AcDbSymbolTable
 70
     1
  0
LTYPE
  5
5B
330
5
100
AcDbSymbolTableRecord
100
AcDbLinetypeTableRecord
  2
ByBlock
 70
     0
  3

 72
    65
 73
     0
 40
0.0
  0
LTYPE
  5
5C
330
5
100
AcDbSymbolTableRecord
100
AcDbLinetypeTableRecord
  2
ByLayer
 70
     0
  3

 72
    65
 73
     0
 40
0.0
  0
LTYPE
  5
5D
330
5
100
AcDbSymbolTableRecord
100
AcDbLinetypeTableRecord
  2
Continuous
 70
     0
  3
Solid line
 72
    65
 73
     0
 40
0.0
  0
ENDTAB
  0
TABLE
  2
LAYER
  5
2
330
0
100
AcDbSymbolTable
 70
     3
  0
LAYER
  5
54
330
2
100
AcDbSymbolTableRecord
100
AcDbLayerTableRecord
  2
0
 70
     0
 62
     7
  6
Continuous
370
    -3
390
F
347
21
348
0
  0
LAYER
  5
78
330
2
100
AcDbSymbolTableRecord
100
AcDbLayerTableRecord
  2
Layer 2
 70
     0
 62
     7
  6
Continuous
370
     0
390
F
347
21
348
0
  0
LAYER
  5
79
330
2
100
AcDbSymbolTableRecord
100
AcDbLayerTableRecord
  2
Whitebeard
 70
     0
 62
     7
  6
Continuous
370
     0
390
F
347
21
348
0
  0
ENDTAB
  0
TABLE
  2
STYLE
  5
3
330
0
100
AcDbSymbolTable
 70
     2
  0
STYLE
  5
55
330
3
100
AcDbSymbolTableRecord
100
AcDbTextStyleTableRecord
  2
Standard
 70
     0
 40
0.0
 41
1.0
 50
0.0
 71
     0
 42
0.2
  3
txt
  4

  0
STYLE
  5
5A
330
3
100
AcDbSymbolTableRecord
100
AcDbTextStyleTableRecord
  2
Annotative
 70
     0
 40
0.0
 41
1.0
 50
0.0
 71
     0
 42
0.2
  3
txt
  4

1001
AcadAnnotative
1000
AnnotativeData
1002
{
1070
     1
1070
     1
1002
}
  0
ENDTAB
  0
TABLE
  2
VIEW
  5
6
330
0
100
AcDbSymbolTable
 70
     0
  0
ENDTAB
  0
TABLE
  2
UCS
  5
7
330
0
100
AcDbSymbolTable
 70
     0
  0
ENDTAB
  0
TABLE
  2
APPID
  5
9
330
0
100
AcDbSymbolTable
 70
     2
  0
APPID
  5
56
330
9
100
AcDbSymbolTableRecord
100
AcDbRegAppTableRecord
  2
ACAD
 70
     0
  0
APPID
  5
5E
330
9
100
AcDbSymbolTableRecord
100
AcDbRegAppTableRecord
  2
AcadAnnotative
 70
     0
  0
ENDTAB
  0
TABLE
  2
DIMSTYLE
  5
A
330
0
100
AcDbSymbolTable
 70
     2
100
AcDbDimStyleTable
 71
     0
  0
DIMSTYLE
105
58
330
A
100
AcDbSymbolTableRecord
100
AcDbDimStyleTableRecord
  2
Standard
 70
     0
340
55
  0
DIMSTYLE
105
59
330
A
100
AcDbSymbolTableRecord
100
AcDbDimStyleTableRecord
  2
Annotative
 70
     0
340
55
1001
AcadAnnotative
1000
AnnotativeData
1002
{
1070
     1
1070
     1
1002
}
  0
ENDTAB
  0
TABLE
  2
BLOCK_RECORD
  5
1
330
0
100
AcDbSymbolTable
 70
     2
  0
BLOCK_RECORD
  5
70
330
1
100
AcDbSymbolTableRecord
100
AcDbBlockTableRecord
  2
*Model_Space
340
73
 70
     0
280
     1
281
     0
  0
BLOCK_RECORD
  5
6C
330
1
100
AcDbSymbolTableRecord
100
AcDbBlockTableRecord
  2
*Paper_Space
340
6F
 70
     0
280
     1
281
     0
  0
BLOCK_RECORD
  5
74
330
1
100
AcDbSymbolTableRecord
100
AcDbBlockTableRecord
  2
*Paper_Space0
340
77
 70
     0
280
     1
281
     0
  0
BLOCK_RECORD
  5
7B
330
1
100
AcDbSymbolTableRecord
100
AcDbBlockTableRecord
  2
Block_0
340
0
102
{BLKREFS
331
7C
102
}
 70
     0
280
     1
281
     0
  0
ENDTAB
  0
ENDSEC
  0
SECTION
  2
BLOCKS
  0
BLOCK
  5
71
330
70
100
AcDbEntity
  8
0
100
AcDbBlockBegin
  2
*Model_Space
 70
     0
 10
0.0
 20
0.0
 30
0.0
  3
*Model_Space
  1

  0
ENDBLK
  5
72
330
70
100
AcDbEntity
  8
0
100
AcDbBlockEnd
  0
BLOCK
  5
6D
330
6C
100
AcDbEntity
 67
     1
  8
0
100
AcDbBlockBegin
  2
*Paper_Space
 70
     0
 10
0.0
 20
0.0
 30
0.0
  3
*Paper_Space
  1

  0
ENDBLK
  5
6E
330
6C
100
AcDbEntity
 67
     1
  8
0
100
AcDbBlockEnd
  0
BLOCK
  5
75
330
74
100
AcDbEntity
 67
     1
  8
0
100
AcDbBlockBegin
  2
*Paper_Space0
 70
     0
 10
0.0
 20
0.0
 30
0.0
  3
*Paper_Space0
  1

  0
ENDBLK
  5
76
330
74
100
AcDbEntity
 67
     1
  8
0
100
AcDbBlockEnd
  0
BLOCK
  5
7D
330
7B
100
AcDbEntity
  8
0
100
AcDbBlockBegin
  2
Block_0
 70
     0
 10
0.0
 20
0.0
 30
0.0
  3
Block_0
  1

  0
SPLINE
  5
7F
330
7B
100
AcDbEntity
  8
Whitebeard
100
AcDbSpline
210
0.0
220
0.0
230
1.0
 70
     9
 71
     3
 72
    32
 73
    28
 74
     0
 42
0.0000000001
 43
0.0000000001
 40
0.0
 40
0.0
 40
0.0
 40
0.0
 40
1.0
 40
1.0
 40
1.0
 40
2.0
 40
2.0
 40
2.0
 40
3.0
 40
3.0
 40
3.0
 40
4.0
 40
4.0
 40
4.0
 40
5.0
 40
5.0
 40
5.0
 40
6.0
 40
6.0
 40
6.0
 40
7.0
 40
7.0
 40
7.0
 40
8.0
 40
8.0
 40
8.0
 40
9.0
 40
9.0
 40
9.0
 40
9.0
 10
5.333657158745659
 20
-10.20895385742187
 30
0.0
 10
5.335164388020833
 20
-10.17343139648437
 30
0.0
 10
5.295101589626735
 20
-10.18532647026909
 30
0.0
 10
5.272736443413628
 20
-10.18360307481554
 30
0.0
 10
5.050454881456162
 20
-10.18235778808594
 30
0.0
 10
4.826956007215711
 20
-10.18590884738498
 30
0.0
 10
4.6050296359592
 20
-10.18207041422526
 30
0.0
 10
4.621277703179253
 20
-10.1347427368164
 30
0.0
 10
4.68073018391927
 20
-10.13678402370876
 30
0.0
 10
4.719232347276475
 20
-10.11473761664496
 30
0.0
 10
4.818548414442274
 20
-10.05206637912326
 30
0.0
 10
4.936347113715277
 20
-10.07860141330295
 30
0.0
 10
5.048097398546006
 20
-10.07379150390625
 30
0.0
 10
5.048097398546006
 20
-10.07379150390625
 30
0.0
 10
5.048097398546006
 20
-10.07427300347222
 30
0.0
 10
5.048097398546006
 20
-10.07427300347222
 30
0.0
 10
5.129816691080728
 20
-10.07427724202474
 30
0.0
 10
5.216508653428818
 20
-10.07392120361328
 30
0.0
 10
5.297862582736544
 20
-10.07457987467448
 30
0.0
 10
5.358211941189235
 20
-10.07428317599826
 30
0.0
 10
5.320397271050347
 20
-9.949510362413194
 30
0.0
 10
5.440672132703992
 20
-10.00118170844184
 30
0.0
 10
5.52171156141493
 20
-10.07313622368706
 30
0.0
 10
5.406532287597656
 20
-10.10825517442491
 30
0.0
 10
5.449501037597656
 20
-10.15001254611545
 30
0.0
 10
5.530018276638454
 20
-10.23597886827257
 30
0.0
 10
5.35585700141059
 20
-10.33109707302517
 30
0.0
 10
5.333657158745659
 20
-10.20895385742187
 30
0.0
  0
SPLINE
  5
80
330
7B
100
AcDbEntity
  8
Whitebeard
100
AcDbSpline
210
0.0
220
0.0
230
1.0
 70
     9
 71
     3
 72
    23
 73
    19
 74
     0
 42
0.0000000001
 43
0.0000000001
 40
0.0
 40
0.0
 40
0.0
 40
0.0
 40
1.0
 40
1.0
 40
1.0
 40
2.0
 40
2.0
 40
2.0
 40
3.0
 40
3.0
 40
3.0
 40
4.0
 40
4.0
 40
4.0
 40
5.0
 40
5.0
 40
5.0
 40
6.0
 40
6.0
 40
6.0
 40
6.0
 10
4.502388848198784
 20
-10.131226433648
 30
0.0
 10
4.130077785915798
 20
-10.19941118028429
 30
0.0
 10
3.731735229492187
 20
-10.11111704508463
 30
0.0
 10
3.441613091362846
 20
-9.863055759006075
 30
0.0
 10
3.441613091362846
 20
-9.863055759006075
 30
0.0
 10
3.45770772298177
 20
-9.846961127387151
 30
0.0
 10
3.45770772298177
 20
-9.846961127387151
 30
0.0
 10
3.548713684082031
 20
-9.887107001410589
 30
0.0
 10
3.644580417209201
 20
-9.916025797526041
 30
0.0
 10
3.741084628634982
 20
-9.940265231662325
 30
0.0
 10
4.165926615397134
 20
-10.0060060289171
 30
0.0
 10
4.641425238715277
 20
-10.02896626790364
 30
0.0
 10
5.033239576551649
 20
-9.828374226888019
 30
0.0
 10
5.033239576551649
 20
-9.828374226888019
 30
0.0
 10
5.046795315212673
 20
-9.841929117838541
 30
0.0
 10
5.046795315212673
 20
-9.841929117838541
 30
0.0
 10
4.896817525227864
 20
-9.990537007649738
 30
0.0
 10
4.709379408094617
 20
-10.08986748589409
 30
0.0
 10
4.502388848198784
 20
-10.131226433648
 30
0.0
  0
SPLINE
  5
81
330
7B
100
AcDbEntity
  8
Whitebeard
100
AcDbSpline
210
0.0
220
0.0
230
1.0
 70
     9
 71
     3
 72
    17
 73
    13
 74
     0
 42
0.0000000001
 43
0.0000000001
 40
0.0
 40
0.0
 40
0.0
 40
0.0
 40
1.0
 40
1.0
 40
1.0
 40
2.0
 40
2.0
 40
2.0
 40
3.0
 40
3.0
 40
3.0
 40
4.0
 40
4.0
 40
4.0
 40
4.0
 10
4.46942138671875
 20
-10.2285639444987
 30
0.0
 10
4.46942138671875
 20
-10.2285639444987
 30
0.0
 10
4.461057027180989
 20
-10.23476070827908
 30
0.0
 10
4.461057027180989
 20
-10.23476070827908
 30
0.0
 10
4.458888583713107
 20
-10.21747334798177
 30
0.0
 10
4.458566453721787
 20
-10.18948957655165
 30
0.0
 10
4.458045959472656
 20
-10.17920176188151
 30
0.0
 10
4.480181376139322
 20
-10.17479281955295
 30
0.0
 10
4.530288696289062
 20
-10.17102220323351
 30
0.0
 10
4.552772521972656
 20
-10.16722446017795
 30
0.0
 10
4.535519070095485
 20
-10.18388960096571
 30
0.0
 10
4.489846971299912
 20
-10.21406046549479
 30
0.0
 10
4.46942138671875
 20
-10.2285639444987
 30
0.0
  0
SPLINE
  5
82
330
7B
100
AcDbEntity
  8
Whitebeard
100
AcDbSpline
210
0.0
220
0.0
230
1.0
 70
     9
 71
     3
 72
    20
 73
    16
 74
     0
 42
0.0000000001
 43
0.0000000001
 40
0.0
 40
0.0
 40
0.0
 40
0.0
 40
1.0
 40
1.0
 40
1.0
 40
2.0
 40
2.0
 40
2.0
 40
3.0
 40
3.0
 40
3.0
 40
4.0
 40
4.0
 40
4.0
 40
5.0
 40
5.0
 40
5.0
 40
5.0
 10
4.327538384331597
 20
-10.19186147054036
 30
0.0
 10
4.358171251085069
 20
-10.18743048773871
 30
0.0
 10
4.394688076443141
 20
-10.19036102294922
 30
0.0
 10
4.425777011447482
 20
-10.18912167019314
 30
0.0
 10
4.424145168728298
 20
-10.21020338270399
 30
0.0
 10
4.453032599555121
 20
-10.24816385904948
 30
0.0
 10
4.422308180067274
 20
-10.25708855523003
 30
0.0
 10
4.394054836697048
 20
-10.26866997612847
 30
0.0
 10
4.370153639051649
 20
-10.28862677680121
 30
0.0
 10
4.338288201226128
 20
-10.28737131754557
 30
0.0
 10
4.334448920355902
 20
-10.25951639811198
 30
0.0
 10
4.33006117078993
 20
-10.23098754882812
 30
0.0
 10
4.328161451551649
 20
-10.20280626085069
 30
0.0
 10
4.327604505750867
 20
-10.19454193115234
 30
0.0
 10
4.327994452582465
 20
-10.19186909993489
 30
0.0
 10
4.327538384331597
 20
-10.19186147054036
 30
0.0
  0
SPLINE
  5
83
330
7B
100
AcDbEntity
  8
Whitebeard
100
AcDbSpline
210
0.0
220
0.0
230
1.0
 70
     9
 71
     3
 72
    17
 73
    13
 74
     0
 42
0.0000000001
 43
0.0000000001
 40
0.0
 40
0.0
 40
0.0
 40
0.0
 40
1.0
 40
1.0
 40
1.0
 40
2.0
 40
2.0
 40
2.0
 40
3.0
 40
3.0
 40
3.0
 40
4.0
 40
4.0
 40
4.0
 40
4.0
 10
4.185061984592013
 20
-10.23685624864366
 30
0.0
 10
4.1822509765625
 20
-10.16983032226562
 30
0.0
 10
4.238292270236544
 20
-10.19559393988715
 30
0.0
 10
4.28391859266493
 20
-10.19124348958333
 30
0.0
 10
4.305425855848524
 20
-10.21033393012152
 30
0.0
 10
4.298371209038628
 20
-10.2695566813151
 30
0.0
 10
4.302274915907117
 20
-10.29919603135851
 30
0.0
 10
4.262379964192708
 20
-10.3102052476671
 30
0.0
 10
4.223866780598958
 20
-10.30623881022135
 30
0.0
 10
4.184076944986978
 20
-10.29862382676866
 30
0.0
 10
4.178949991861978
 20
-10.27787695990668
 30
0.0
 10
4.184757656521266
 20
-10.25423855251736
 30
0.0
 10
4.185061984592013
 20
-10.23685624864366
 30
0.0
  0
SPLINE
  5
84
330
7B
100
AcDbEntity
  8
Whitebeard
100
AcDbSpline
210
0.0
220
0.0
230
1.0
 70
     9
 71
     3
 72
    23
 73
    19
 74
     0
 42
0.0000000001
 43
0.0000000001
 40
0.0
 40
0.0
 40
0.0
 40
0.0
 40
1.0
 40
1.0
 40
1.0
 40
2.0
 40
2.0
 40
2.0
 40
3.0
 40
3.0
 40
3.0
 40
4.0
 40
4.0
 40
4.0
 40
5.0
 40
5.0
 40
5.0
 40
6.0
 40
6.0
 40
6.0
 40
6.0
 10
4.063082377115884
 20
-10.18918694390191
 30
0.0
 10
4.072402106391058
 20
-10.1877195570204
 30
0.0
 10
4.072283426920572
 20
-10.18923017713758
 30
0.0
 10
4.082476298014322
 20
-10.18870544433593
 30
0.0
 10
4.082476298014322
 20
-10.18870544433593
 30
0.0
 10
4.083264668782551
 20
-10.18999735514323
 30
0.0
 10
4.083264668782551
 20
-10.18999735514323
 30
0.0
 10
4.099611918131509
 20
-10.19068654378255
 30
0.0
 10
4.146013895670572
 20
-10.18777550591362
 30
0.0
 10
4.159635755750867
 20
-10.19214206271701
 30
0.0
 10
4.160783555772569
 20
-10.22061750623915
 30
0.0
 10
4.151094224717882
 20
-10.25641632080078
 30
0.0
 10
4.149650573730468
 20
-10.28664906819661
 30
0.0
 10
4.117915683322482
 20
-10.27803039550781
 30
0.0
 10
4.074324713812933
 20
-10.26541476779514
 30
0.0
 10
4.053819444444444
 20
-10.23906792534722
 30
0.0
 10
4.046595255533853
 20
-10.22188907199435
 30
0.0
 10
4.061839633517794
 20
-10.20728810628255
 30
0.0
 10
4.063082377115884
 20
-10.18918694390191
 30
0.0
  0
SPLINE
  5
85
330
7B
100
AcDbEntity
  8
Whitebeard
100
AcDbSpline
210
0.0
220
0.0
230
1.0
 70
     9
 71
     3
 72
    26
 73
    22
 74
     0
 42
0.0000000001
 43
0.0000000001
 40
0.0
 40
0.0
 40
0.0
 40
0.0
 40
1.0
 40
1.0
 40
1.0
 40
2.0
 40
2.0
 40
2.0
 40
3.0
 40
3.0
 40
3.0
 40
4.0
 40
4.0
 40
4.0
 40
5.0
 40
5.0
 40
5.0
 40
6.0
 40
6.0
 40
6.0
 40
7.0
 40
7.0
 40
7.0
 40
7.0
 10
4.531992594401041
 20
-10.25717586941189
 30
0.0
 10
4.498265584309895
 20
-10.36525556776259
 30
0.0
 10
4.490815056694878
 20
-10.4787606133355
 30
0.0
 10
4.483283996582031
 20
-10.59121025933159
 30
0.0
 10
4.474665323893228
 20
-10.59232160780165
 30
0.0
 10
4.256113688151041
 20
-10.59131876627604
 30
0.0
 10
4.247697618272569
 20
-10.59169175889757
 30
0.0
 10
4.247697618272569
 20
-10.59169175889757
 30
0.0
 10
4.247697618272569
 20
-10.59145100911458
 30
0.0
 10
4.247697618272569
 20
-10.59145100911458
 30
0.0
 10
4.163251241048176
 20
-10.59190368652344
 30
0.0
 10
4.072825961642794
 20
-10.59068637424045
 30
0.0
 10
3.98893313937717
 20
-10.5918231540256
 30
0.0
 10
3.989444308810763
 20
-10.47023688422309
 30
0.0
 10
3.976103040907117
 20
-10.34882100423177
 30
0.0
 10
3.947110493977864
 20
-10.23074679904514
 30
0.0
 10
4.097801208496093
 20
-10.38000996907552
 30
0.0
 10
4.36962890625
 20
-10.38306766086154
 30
0.0
 10
4.533284505208333
 20
-10.25023481580946
 30
0.0
 10
4.533000522189669
 20
-10.25246853298611
 30
0.0
 10
4.532518174913193
 20
-10.25483279758029
 30
0.0
 10
4.531992594401041
 20
-10.25717586941189
 30
0.0
  0
SPLINE
  5
86
330
7B
100
AcDbEntity
  8
Whitebeard
100
AcDbSpline
210
0.0
220
0.0
230
1.0
 70
     9
 71
     3
 72
    32
 73
    28
 74
     0
 42
0.0000000001
 43
0.0000000001
 40
0.0
 40
0.0
 40
0.0
 40
0.0
 40
1.0
 40
1.0
 40
1.0
 40
2.0
 40
2.0
 40
2.0
 40
3.0
 40
3.0
 40
3.0
 40
4.0
 40
4.0
 40
4.0
 40
5.0
 40
5.0
 40
5.0
 40
6.0
 40
6.0
 40
6.0
 40
7.0
 40
7.0
 40
7.0
 40
8.0
 40
8.0
 40
8.0
 40
9.0
 40
9.0
 40
9.0
 40
9.0
 10
4.299746195475259
 20
-11.32352277967665
 30
0.0
 10
4.260772705078125
 20
-11.33215671115451
 30
0.0
 10
4.240121629503038
 20
-11.26579878065321
 30
0.0
 10
4.205186631944444
 20
-11.30775790744357
 30
0.0
 10
4.124788920084634
 20
-11.37772623697916
 30
0.0
 10
4.033672756618923
 20
-11.22337256537543
 30
0.0
 10
4.14192877875434
 20
-11.19200388590495
 30
0.0
 10
4.211843702528211
 20
-11.17682308620876
 30
0.0
 10
4.160858154296875
 20
-10.98723687065972
 30
0.0
 10
4.175688849555121
 20
-10.92419942220052
 30
0.0
 10
4.175649854871961
 20
-10.9155281914605
 30
0.0
 10
4.175892300075954
 20
-10.64756859673394
 30
0.0
 10
4.175777859157985
 20
-10.63960181342231
 30
0.0
 10
4.210205078125
 20
-10.63770548502604
 30
0.0
 10
4.248591952853732
 20
-10.63917880588107
 30
0.0
 10
4.283312479654947
 20
-10.63868204752604
 30
0.0
 10
4.284927368164062
 20
-10.70864952935113
 30
0.0
 10
4.283254835340711
 20
-10.81987084282769
 30
0.0
 10
4.283871120876735
 20
-10.89123789469401
 30
0.0
 10
4.283871120876735
 20
-10.89123789469401
 30
0.0
 10
4.283750745985242
 20
-10.89123789469401
 30
0.0
 10
4.283750745985242
 20
-10.89123789469401
 30
0.0
 10
4.294310675726996
 20
-10.94822862413194
 30
0.0
 10
4.259308709038628
 20
-11.16736178927951
 30
0.0
 10
4.303560045030382
 20
-11.1854248046875
 30
0.0
 10
4.391092936197916
 20
-11.18918100992838
 30
0.0
 10
4.389771355523003
 20
-11.32898712158203
 30
0.0
 10
4.299746195475259
 20
-11.32352277967665
 30
0.0
  0
SPLINE
  5
87
330
7B
100
AcDbEntity
  8
Whitebeard
100
AcDbSpline
210
0.0
220
0.0
230
1.0
 70
     9
 71
     3
 72
    17
 73
    13
 74
     0
 42
0.0000000001
 43
0.0000000001
 40
0.0
 40
0.0
 40
0.0
 40
0.0
 40
1.0
 40
1.0
 40
1.0
 40
2.0
 40
2.0
 40
2.0
 40
3.0
 40
3.0
 40
3.0
 40
4.0
 40
4.0
 40
4.0
 40
4.0
 10
4.02315945095486
 20
-10.22626410590278
 30
0.0
 10
4.006262037489149
 20
-10.21336534288194
 30
0.0
 10
3.962035285101996
 20
-10.18368530273437
 30
0.0
 10
3.944461398654513
 20
-10.16744316948784
 30
0.0
 10
3.944461398654513
 20
-10.16744316948784
 30
0.0
 10
3.946563720703125
 20
-10.16785939534505
 30
0.0
 10
3.946563720703125
 20
-10.16785939534505
 30
0.0
 10
3.965670267740885
 20
-10.17231665717231
 30
0.0
 10
4.012413872612847
 20
-10.17450629340277
 30
0.0
 10
4.029290941026475
 20
-10.17869822184245
 30
0.0
 10
4.029053582085503
 20
-10.18935055202908
 30
0.0
 10
4.031227959526909
 20
-10.21809471978081
 30
0.0
 10
4.02315945095486
 20
-10.22626410590278
 30
0.0
  0
SPLINE
  5
88
330
7B
100
AcDbEntity
  8
Whitebeard
100
AcDbSpline
210
0.0
220
0.0
230
1.0
 70
     9
 71
     3
 72
    35
 73
    31
 74
     0
 42
0.0000000001
 43
0.0000000001
 40
0.0
 40
0.0
 40
0.0
 40
0.0
 40
1.0
 40
1.0
 40
1.0
 40
2.0
 40
2.0
 40
2.0
 40
3.0
 40
3.0
 40
3.0
 40
4.0
 40
4.0
 40
4.0
 40
5.0
 40
5.0
 40
5.0
 40
6.0
 40
6.0
 40
6.0
 40
7.0
 40
7.0
 40
7.0
 40
8.0
 40
8.0
 40
8.0
 40
9.0
 40
9.0
 40
9.0
 40
10.0
 40
10.0
 40
10.0
 40
10.0
 10
3.885854932996961
 20
-10.18377855088975
 30
0.0
 10
3.88517591688368
 20
-10.18358866373698
 30
0.0
 10
3.14662848578559
 20
-10.18345048692491
 30
0.0
 10
3.145190768771701
 20
-10.18338436550564
 30
0.0
 10
3.137463039822048
 20
-10.18348354763455
 30
0.0
 10
3.118448893229166
 20
-10.18489922417534
 30
0.0
 10
3.110800001356336
 20
-10.18517981635199
 30
0.0
 10
3.110800001356336
 20
-10.18517981635199
 30
0.0
 10
3.122645907931857
 20
-10.20072682698567
 30
0.0
 10
3.122645907931857
 20
-10.20072682698567
 30
0.0
 10
3.096600002712673
 20
-10.32979498969184
 30
0.0
 10
2.91648695203993
 20
-10.2437498304579
 30
0.0
 10
3.003933376736111
 20
-10.14848073323567
 30
0.0
 10
3.036571926540798
 20
-10.11457146538628
 30
0.0
 10
2.961979336208767
 20
-10.08396826850043
 30
0.0
 10
2.982724507649739
 20
-10.0460688273112
 30
0.0
 10
2.994546678331163
 20
-10.01072523328993
 30
0.0
 10
3.022677951388888
 20
-9.983482360839843
 30
0.0
 10
3.064226786295572
 20
-9.99082777235243
 30
0.0
 10
3.144041273328992
 20
-10.01214260525173
 30
0.0
 10
3.087739732530381
 20
-10.09454854329427
 30
0.0
 10
3.202551947699652
 20
-10.07430352105034
 30
0.0
 10
3.370925903320312
 20
-10.08616977267795
 30
0.0
 10
3.553886413574218
 20
-10.04908837212456
 30
0.0
 10
3.716223822699652
 20
-10.09080166286892
 30
0.0
 10
3.770660400390625
 20
-10.12667338053385
 30
0.0
 10
3.858639187282985
 20
-10.11652713351779
 30
0.0
 10
3.886500888400607
 20
-10.18318684895833
 30
0.0
 10
3.886282179090711
 20
-10.18340640597873
 30
0.0
 10
3.886062622070312
 20
-10.18360307481554
 30
0.0
 10
3.885854932996961
 20
-10.18377855088975
 30
0.0
  0
SPLINE
  5
89
330
7B
100
AcDbEntity
  8
Whitebeard
100
AcDbSpline
210
0.0
220
0.0
230
1.0
 70
     9
 71
     3
 72
    29
 73
    25
 74
     0
 42
0.0000000001
 43
0.0000000001
 40
0.0
 40
0.0
 40
0.0
 40
0.0
 40
1.0
 40
1.0
 40
1.0
 40
2.0
 40
2.0
 40
2.0
 40
3.0
 40
3.0
 40
3.0
 40
4.0
 40
4.0
 40
4.0
 40
5.0
 40
5.0
 40
5.0
 40
6.0
 40
6.0
 40
6.0
 40
7.0
 40
7.0
 40
7.0
 40
8.0
 40
8.0
 40
8.0
 40
8.0
 10
4.561520894368489
 20
-9.547045389811197
 30
0.0
 10
4.654071384006075
 20
-9.649244520399305
 30
0.0
 10
4.672288682725693
 20
-9.766859266493055
 30
0.0
 10
4.65839131673177
 20
-9.907729254828558
 30
0.0
 10
4.656054178873697
 20
-9.909313625759548
 30
0.0
 10
4.643849690755208
 20
-9.911591423882377
 30
0.0
 10
4.639199150933159
 20
-9.912829081217447
 30
0.0
 10
4.540356953938801
 20
-9.928721110026041
 30
0.0
 10
4.440641615125867
 20
-9.932115342881944
 30
0.0
 10
4.340024312337239
 20
-9.93699476453993
 30
0.0
 10
4.312271118164062
 20
-9.941666497124565
 30
0.0
 10
4.312227037217882
 20
-9.941688537597656
 30
0.0
 10
4.298617892795138
 20
-9.914865281846788
 30
0.0
 10
4.279212103949652
 20
-9.876908196343315
 30
0.0
 10
4.254896375868055
 20
-9.839080810546875
 30
0.0
 10
4.233551873101128
 20
-9.801200018988714
 30
0.0
 10
4.205730862087673
 20
-9.844688415527343
 30
0.0
 10
4.190088907877603
 20
-9.928745693630641
 30
0.0
 10
4.137994554307725
 20
-9.938832600911457
 30
0.0
 10
4.03489515516493
 20
-9.935145907931856
 30
0.0
 10
3.932457817925346
 20
-9.924045138888887
 30
0.0
 10
3.830533345540364
 20
-9.910289340549043
 30
0.0
 10
3.729637993706596
 20
-9.48189968532986
 30
0.0
 10
4.279393513997395
 20
-9.262287563747829
 30
0.0
 10
4.561520894368489
 20
-9.547045389811197
 30
0.0
  0
SPLINE
  5
8A
330
7B
100
AcDbEntity
  8
Whitebeard
100
AcDbSpline
210
0.0
220
0.0
230
1.0
 70
     9
 71
     3
 72
    26
 73
    22
 74
     0
 42
0.0000000001
 43
0.0000000001
 40
0.0
 40
0.0
 40
0.0
 40
0.0
 40
1.0
 40
1.0
 40
1.0
 40
2.0
 40
2.0
 40
2.0
 40
3.0
 40
3.0
 40
3.0
 40
4.0
 40
4.0
 40
4.0
 40
5.0
 40
5.0
 40
5.0
 40
6.0
 40
6.0
 40
6.0
 40
7.0
 40
7.0
 40
7.0
 40
7.0
 10
4.219505310058593
 20
-8.878714667426214
 30
0.0
 10
4.278355916341145
 20
-8.818901909722221
 30
0.0
 10
4.387655470106336
 20
-8.82518090142144
 30
0.0
 10
4.366585625542534
 20
-8.929339938693575
 30
0.0
 10
4.362687852647569
 20
-8.957012600368923
 30
0.0
 10
4.325890435112847
 20
-8.976452297634548
 30
0.0
 10
4.283925374348958
 20
-8.98232947455512
 30
0.0
 10
4.283728705512152
 20
-9.110383775499132
 30
0.0
 10
4.284026251898871
 20
-9.250377231174043
 30
0.0
 10
4.283860100640191
 20
-9.377586364746093
 30
0.0
 10
4.249308268229166
 20
-9.377375284830728
 30
0.0
 10
4.210812886555989
 20
-9.378367953830293
 30
0.0
 10
4.176773918999566
 20
-9.377695719401041
 30
0.0
 10
4.173886617024739
 20
-9.260899861653644
 30
0.0
 10
4.177719116210937
 20
-9.136349995930988
 30
0.0
 10
4.1759524875217
 20
-9.018897162543401
 30
0.0
 10
4.173960367838541
 20
-8.985088772243923
 30
0.0
 10
4.170796712239583
 20
-8.981015523274738
 30
0.0
 10
4.138301425509982
 20
-8.970461527506509
 30
0.0
 10
4.015481736924913
 20
-8.920249091254339
 30
0.0
 10
4.166690402560763
 20
-8.760141160753038
 30
0.0
 10
4.219505310058593
 20
-8.878714667426214
 30
0.0
  0
SPLINE
  5
8B
330
7B
100
AcDbEntity
  8
Whitebeard
100
AcDbSpline
210
0.0
220
0.0
230
1.0
 70
    11
 71
     3
 72
    14
 73
    10
 74
     0
 42
0.0000000001
 43
0.0000000001
 40
0.0
 40
0.0
 40
0.0
 40
0.0
 40
1.0
 40
1.0
 40
1.0
 40
2.0
 40
2.0
 40
2.0
 40
3.0
 40
3.0
 40
3.0
 40
3.0
 10
4.684251573350693
 20
-9.694497002495658
 30
0.0
 10
4.684251573350693
 20
-9.694497002495658
 30
0.0
 10
4.684155782063801
 20
-9.694547865125867
 30
0.0
 10
4.684155782063801
 20
-9.694547865125867
 30
0.0
 10
4.684154086642794
 20
-9.694539388020832
 30
0.0
 10
4.684153238932291
 20
-9.694530063205293
 30
0.0
 10
4.684149848090277
 20
-9.694520738389757
 30
0.0
 10
4.684149848090277
 20
-9.694520738389757
 30
0.0
 10
4.684251573350693
 20
-9.694497002495658
 30
0.0
 10
4.684251573350693
 20
-9.694497002495658
 30
0.0
  0
SPLINE
  5
8C
330
7B
100
AcDbEntity
  8
Whitebeard
100
AcDbSpline
210
0.0
220
0.0
230
1.0
 70
     9
 71
     3
 72
   143
 73
   139
 74
     0
 42
0.0000000001
 43
0.0000000001
 40
0.0
 40
0.0
 40
0.0
 40
0.0
 40
1.0
 40
1.0
 40
1.0
 40
2.0
 40
2.0
 40
2.0
 40
3.0
 40
3.0
 40
3.0
 40
4.0
 40
4.0
 40
4.0
 40
5.0
 40
5.0
 40
5.0
 40
6.0
 40
6.0
 40
6.0
 40
7.0
 40
7.0
 40
7.0
 40
8.0
 40
8.0
 40
8.0
 40
9.0
 40
9.0
 40
9.0
 40
10.0
 40
10.0
 40
10.0
 40
11.0
 40
11.0
 40
11.0
 40
12.0
 40
12.0
 40
12.0
 40
13.0
 40
13.0
 40
13.0
 40
14.0
 40
14.0
 40
14.0
 40
15.0
 40
15.0
 40
15.0
 40
16.0
 40
16.0
 40
16.0
 40
17.0
 40
17.0
 40
17.0
 40
18.0
 40
18.0
 40
18.0
 40
19.0
 40
19.0
 40
19.0
 40
20.0
 40
20.0
 40
20.0
 40
21.0
 40
21.0
 40
21.0
 40
22.0
 40
22.0
 40
22.0
 40
23.0
 40
23.0
 40
23.0
 40
24.0
 40
24.0
 40
24.0
 40
25.0
 40
25.0
 40
25.0
 40
26.0
 40
26.0
 40
26.0
 40
27.0
 40
27.0
 40
27.0
 40
28.0
 40
28.0
 40
28.0
 40
29.0
 40
29.0
 40
29.0
 40
30.0
 40
30.0
 40
30.0
 40
31.0
 40
31.0
 40
31.0
 40
32.0
 40
32.0
 40
32.0
 40
33.0
 40
33.0
 40
33.0
 40
34.0
 40
34.0
 40
34.0
 40
35.0
 40
35.0
 40
35.0
 40
36.0
 40
36.0
 40
36.0
 40
37.0
 40
37.0
 40
37.0
 40
38.0
 40
38.0
 40
38.0
 40
39.0
 40
39.0
 40
39.0
 40
40.0
 40
40.0
 40
40.0
 40
41.0
 40
41.0
 40
41.0
 40
42.0
 40
42.0
 40
42.0
 40
43.0
 40
43.0
 40
43.0
 40
44.0
 40
44.0
 40
44.0
 40
45.0
 40
45.0
 40
45.0
 40
46.0
 40
46.0
 40
46.0
 40
46.0
 10
5.493826124403211
 20
-10.1297378540039
 30
0.0
 10
5.493804083930121
 20
-10.12929958767361
 30
0.0
 10
5.493804083930121
 20
-10.12879604763455
 30
0.0
 10
5.493848164876301
 20
-10.12833574083116
 30
0.0
 10
5.511529710557725
 20
-10.11092800564236
 30
0.0
 10
5.512919955783419
 20
-10.08903164333767
 30
0.0
 10
5.514146592881943
 20
-10.0696309407552
 30
0.0
 10
5.514146592881943
 20
-10.0696309407552
 30
0.0
 10
5.503089057074652
 20
-10.06689368353949
 30
0.0
 10
5.503089057074652
 20
-10.06689368353949
 30
0.0
 10
5.503089057074652
 20
-10.06689368353949
 30
0.0
 10
5.514277988009982
 20
-10.06761678059896
 30
0.0
 10
5.514277988009982
 20
-10.06761678059896
 30
0.0
 10
5.533773634168836
 20
-9.938469780815971
 30
0.0
 10
5.338060167100693
 20
-9.8946533203125
 30
0.0
 10
5.296585083007812
 20
-10.01003011067708
 30
0.0
 10
5.291982862684461
 20
-10.02500576443142
 30
0.0
 10
5.288599650065103
 20
-10.02701992458767
 30
0.0
 10
5.273568047417534
 20
-10.02686648898654
 30
0.0
 10
5.149265713161891
 20
-10.02663930257161
 30
0.0
 10
5.016632080078125
 20
-10.0270029703776
 30
0.0
 10
4.892839219835068
 20
-10.02642907036675
 30
0.0
 10
5.045917934841579
 20
-9.923213534884981
 30
0.0
 10
5.173504299587673
 20
-9.796317206488714
 30
0.0
 10
5.27826436360677
 20
-9.647747463650173
 30
0.0
 10
5.241974724663628
 20
-9.646584404839408
 30
0.0
 10
5.215007358127169
 20
-9.669168260362413
 30
0.0
 10
5.185959710015191
 20
-9.68766869439019
 30
0.0
 10
5.037269592285156
 20
-9.7818603515625
 30
0.0
 10
4.876177469889322
 20
-9.854676140679252
 30
0.0
 10
4.707911173502603
 20
-9.899669223361543
 30
0.0
 10
4.739601135253906
 20
-9.651363796657985
 30
0.0
 10
4.591851976182725
 20
-9.413553873697916
 30
0.0
 10
4.334873623318141
 20
-9.382215711805555
 30
0.0
 10
4.323869493272569
 20
-9.362297905815971
 30
0.0
 10
4.334124247233072
 20
-9.288134256998697
 30
0.0
 10
4.330734252929687
 20
-9.261097378200954
 30
0.0
 10
4.338827345106336
 20
-9.183613247341579
 30
0.0
 10
4.315026177300347
 20
-9.083740234375
 30
0.0
 10
4.339293585883246
 20
-9.016988966200086
 30
0.0
 10
4.41895039876302
 20
-8.998728434244791
 30
0.0
 10
4.439342074924044
 20
-8.882725185818141
 30
0.0
 10
4.387140909830728
 20
-8.826009114583332
 30
0.0
 10
4.349823845757378
 20
-8.772697448730468
 30
0.0
 10
4.275250752766926
 20
-8.795844184027776
 30
0.0
 10
4.225090874565972
 20
-8.806205749511718
 30
0.0
 10
4.135956658257378
 20
-8.751466539171007
 30
0.0
 10
4.018228318956163
 20
-8.840760972764757
 30
0.0
 10
4.052163018120659
 20
-8.936725192599825
 30
0.0
 10
4.052609761555989
 20
-8.985260857476127
 30
0.0
 10
4.107376098632812
 20
-9.002907647026908
 30
0.0
 10
4.135290357801649
 20
-9.027689615885416
 30
0.0
 10
4.136331346299913
 20
-9.144348992241752
 30
0.0
 10
4.136470370822482
 20
-9.261162651909721
 30
0.0
 10
4.135259840223524
 20
-9.377761840820312
 30
0.0
 10
3.880056593153211
 20
-9.444001091851127
 30
0.0
 10
3.747495863172742
 20
-9.628963894314235
 30
0.0
 10
3.781583150227864
 20
-9.900807698567707
 30
0.0
 10
3.557716369628906
 20
-9.858858744303384
 30
0.0
 10
3.355946858723958
 20
-9.746197170681423
 30
0.0
 10
3.164994133843315
 20
-9.626398722330728
 30
0.0
 10
3.164994133843315
 20
-9.626398722330728
 30
0.0
 10
3.149349636501735
 20
-9.642864651150173
 30
0.0
 10
3.149349636501735
 20
-9.642864651150173
 30
0.0
 10
3.279664781358506
 20
-9.789700826009113
 30
0.0
 10
3.429134792751735
 20
-9.924290974934894
 30
0.0
 10
3.593392266167534
 20
-10.02660369873047
 30
0.0
 10
3.464285956488715
 20
-10.02714284261067
 30
0.0
 10
3.332862006293402
 20
-10.02665032280816
 30
0.0
 10
3.20355478922526
 20
-10.02678002251519
 30
0.0
 10
3.191706339518229
 20
-10.02456919352213
 30
0.0
 10
3.166979471842447
 20
-10.03216128879123
 30
0.0
 10
3.160646226671006
 20
-10.02174716525607
 30
0.0
 10
3.1334474351671
 20
-9.909890916612413
 30
0.0
 10
2.957193162706163
 20
-9.9229007297092
 30
0.0
 10
2.935462103949652
 20
-10.0339609781901
 30
0.0
 10
2.935462103949652
 20
-10.0339609781901
 30
0.0
 10
2.935462103949652
 20
-10.08881293402777
 30
0.0
 10
2.935462103949652
 20
-10.08881293402777
 30
0.0
 10
2.941593594021267
 20
-10.10096825493706
 30
0.0
 10
2.950174119737413
 20
-10.11439344618055
 30
0.0
 10
2.954523722330728
 20
-10.12627749972873
 30
0.0
 10
2.951772901746961
 20
-10.1386489868164
 30
0.0
 10
2.941491021050346
 20
-10.15475463867187
 30
0.0
 10
2.935462951660156
 20
-10.16674296061198
 30
0.0
 10
2.935462103949652
 20
-10.16674296061198
 30
0.0
 10
2.935462103949652
 20
-10.22435336642795
 30
0.0
 10
2.935462103949652
 20
-10.22435336642795
 30
0.0
 10
2.961457146538628
 20
-10.3247324625651
 30
0.0
 10
3.127026028103298
 20
-10.352906121148
 30
0.0
 10
3.157948811848958
 20
-10.24330902099609
 30
0.0
 10
3.161064147949218
 20
-10.23087819417317
 30
0.0
 10
3.164458380805121
 20
-10.23085615370008
 30
0.0
 10
3.179216172960069
 20
-10.23041873508029
 30
0.0
 10
3.415149264865451
 20
-10.23165893554687
 30
0.0
 10
3.664382086859808
 20
-10.22874365912543
 30
0.0
 10
3.898467169867621
 20
-10.23236677381727
 30
0.0
 10
3.938468085394965
 20
-10.36788347032335
 30
0.0
 10
3.94289313422309
 20
-10.49954647488064
 30
0.0
 10
3.940377977159288
 20
-10.63874732123481
 30
0.0
 10
3.940377977159288
 20
-10.63874732123481
 30
0.0
 10
4.123455471462673
 20
-10.63881344265408
 30
0.0
 10
4.123455471462673
 20
-10.63881344265408
 30
0.0
 10
4.129509819878472
 20
-10.63881344265408
 30
0.0
 10
4.131689283582899
 20
-10.63925086127387
 30
0.0
 10
4.131820678710937
 20
-10.63890075683594
 30
0.0
 10
4.12978786892361
 20
-10.80432891845703
 30
0.0
 10
4.144245571560329
 20
-10.98221164279514
 30
0.0
 10
4.124905904134114
 20
-11.14548068576389
 30
0.0
 10
3.960890028211805
 20
-11.20835876464844
 30
0.0
 10
4.087927924262152
 20
-11.44698588053385
 30
0.0
 10
4.232402377658419
 20
-11.3495135837131
 30
0.0
 10
4.327771504720051
 20
-11.40926869710286
 30
0.0
 10
4.446384006076388
 20
-11.32992638481987
 30
0.0
 10
4.411861843532985
 20
-11.21797688802083
 30
0.0
 10
4.40477328830295
 20
-11.18279266357422
 30
0.0
 10
4.37704128689236
 20
-11.15599060058594
 30
0.0
 10
4.337693108452691
 20
-11.14624701605902
 30
0.0
 10
4.330872429741753
 20
-11.14456091986762
 30
0.0
 10
4.330609639485676
 20
-11.14412265353732
 30
0.0
 10
4.330609639485676
 20
-11.13466389973958
 30
0.0
 10
4.331185234917534
 20
-10.96994188096788
 30
0.0
 10
4.32977294921875
 20
-10.80363633897569
 30
0.0
 10
4.330992804633246
 20
-10.63920762803819
 30
0.0
 10
4.394423590766058
 20
-10.63788096110026
 30
0.0
 10
4.467367384168836
 20
-10.63944413926866
 30
0.0
 10
4.531434800889756
 20
-10.6387693617079
 30
0.0
 10
4.532450358072916
 20
-10.54673343234592
 30
0.0
 10
4.541244506835937
 20
-10.28594462076823
 30
0.0
 10
4.598587036132812
 20
-10.23060692681206
 30
0.0
 10
4.598602294921875
 20
-10.2306154039171
 30
0.0
 10
5.2659912109375
 20
-10.23052808973524
 30
0.0
 10
5.2659912109375
 20
-10.23052808973524
 30
0.0
 10
5.290143330891926
 20
-10.22431352403429
 30
0.0
 10
5.294085184733072
 20
-10.24733564588758
 30
0.0
 10
5.302370707194009
 20
-10.26394483778211
 30
0.0
 10
5.391173468695746
 20
-10.3910166422526
 30
0.0
 10
5.58356221516927
 20
-10.25901709662543
 30
0.0
 10
5.493826124403211
 20
-10.1297378540039
 30
0.0
  0
HATCH
  5
8D
330
7B
100
AcDbEntity
  8
Whitebeard
 62
   250
420
  2301728
440
 33554687
100
AcDbHatch
 10
0.0
 20
0.0
 30
0.0
210
0.0
220
0.0
230
1.0
  2
SOLID
 70
     1
 71
     1
 91
       14
 92
        1
 93
        1
 72
     4
 94
        3
 73
     0
 74
     0
 95
       32
 96
       28
 40
0.0
 40
0.0
 40
0.0
 40
0.0
 40
1.0
 40
1.0
 40
1.0
 40
2.0
 40
2.0
 40
2.0
 40
3.0
 40
3.0
 40
3.0
 40
4.0
 40
4.0
 40
4.0
 40
5.0
 40
5.0
 40
5.0
 40
6.0
 40
6.0
 40
6.0
 40
7.0
 40
7.0
 40
7.0
 40
8.0
 40
8.0
 40
8.0
 40
9.0
 40
9.0
 40
9.0
 40
9.0
 10
5.333657158745659
 20
-10.20895385742187
 10
5.335164388020833
 20
-10.17343139648437
 10
5.295101589626735
 20
-10.18532647026909
 10
5.272736443413628
 20
-10.18360307481554
 10
5.050454881456162
 20
-10.18235778808594
 10
4.826956007215711
 20
-10.18590884738498
 10
4.6050296359592
 20
-10.18207041422526
 10
4.621277703179253
 20
-10.1347427368164
 10
4.68073018391927
 20
-10.13678402370876
 10
4.719232347276475
 20
-10.11473761664496
 10
4.818548414442274
 20
-10.05206637912326
 10
4.936347113715277
 20
-10.07860141330295
 10
5.048097398546006
 20
-10.07379150390625
 10
5.048097398546006
 20
-10.07379150390625
 10
5.048097398546006
 20
-10.07427300347222
 10
5.048097398546006
 20
-10.07427300347222
 10
5.129816691080728
 20
-10.07427724202474
 10
5.216508653428818
 20
-10.07392120361328
 10
5.297862582736544
 20
-10.07457987467448
 10
5.358211941189235
 20
-10.07428317599826
 10
5.320397271050347
 20
-9.949510362413194
 10
5.440672132703992
 20
-10.00118170844184
 10
5.52171156141493
 20
-10.07313622368706
 10
5.406532287597656
 20
-10.10825517442491
 10
5.449501037597656
 20
-10.15001254611545
 10
5.530018276638454
 20
-10.23597886827257
 10
5.35585700141059
 20
-10.33109707302517
 10
5.333657158745659
 20
-10.20895385742187
 97
        0
 97
        1
330
7F
 92
        1
 93
        1
 72
     4
 94
        3
 73
     0
 74
     0
 95
       23
 96
       19
 40
0.0
 40
0.0
 40
0.0
 40
0.0
 40
1.0
 40
1.0
 40
1.0
 40
2.0
 40
2.0
 40
2.0
 40
3.0
 40
3.0
 40
3.0
 40
4.0
 40
4.0
 40
4.0
 40
5.0
 40
5.0
 40
5.0
 40
6.0
 40
6.0
 40
6.0
 40
6.0
 10
4.502388848198784
 20
-10.131226433648
 10
4.130077785915798
 20
-10.19941118028429
 10
3.731735229492187
 20
-10.11111704508463
 10
3.441613091362846
 20
-9.863055759006075
 10
3.441613091362846
 20
-9.863055759006075
 10
3.45770772298177
 20
-9.846961127387151
 10
3.45770772298177
 20
-9.846961127387151
 10
3.548713684082031
 20
-9.887107001410589
 10
3.644580417209201
 20
-9.916025797526041
 10
3.741084628634982
 20
-9.940265231662325
 10
4.165926615397134
 20
-10.0060060289171
 10
4.641425238715277
 20
-10.02896626790364
 10
5.033239576551649
 20
-9.828374226888019
 10
5.033239576551649
 20
-9.828374226888019
 10
5.046795315212673
 20
-9.841929117838541
 10
5.046795315212673
 20
-9.841929117838541
 10
4.896817525227864
 20
-9.990537007649738
 10
4.709379408094617
 20
-10.08986748589409
 10
4.502388848198784
 20
-10.131226433648
 97
        0
 97
        1
330
80
 92
        1
 93
        1
 72
     4
 94
        3
 73
     0
 74
     0
 95
       17
 96
       13
 40
0.0
 40
0.0
 40
0.0
 40
0.0
 40
1.0
 40
1.0
 40
1.0
 40
2.0
 40
2.0
 40
2.0
 40
3.0
 40
3.0
 40
3.0
 40
4.0
 40
4.0
 40
4.0
 40
4.0
 10
4.46942138671875
 20
-10.2285639444987
 10
4.46942138671875
 20
-10.2285639444987
 10
4.461057027180989
 20
-10.23476070827908
 10
4.461057027180989
 20
-10.23476070827908
 10
4.458888583713107
 20
-10.21747334798177
 10
4.458566453721787
 20
-10.18948957655165
 10
4.458045959472656
 20
-10.17920176188151
 10
4.480181376139322
 20
-10.17479281955295
 10
4.530288696289062
 20
-10.17102220323351
 10
4.552772521972656
 20
-10.16722446017795
 10
4.535519070095485
 20
-10.18388960096571
 10
4.489846971299912
 20
-10.21406046549479
 10
4.46942138671875
 20
-10.2285639444987
 97
        0
 97
        1
330
81
 92
        1
 93
        1
 72
     4
 94
        3
 73
     0
 74
     0
 95
       20
 96
       16
 40
0.0
 40
0.0
 40
0.0
 40
0.0
 40
1.0
 40
1.0
 40
1.0
 40
2.0
 40
2.0
 40
2.0
 40
3.0
 40
3.0
 40
3.0
 40
4.0
 40
4.0
 40
4.0
 40
5.0
 40
5.0
 40
5.0
 40
5.0
 10
4.327538384331597
 20
-10.19186147054036
 10
4.358171251085069
 20
-10.18743048773871
 10
4.394688076443141
 20
-10.19036102294922
 10
4.425777011447482
 20
-10.18912167019314
 10
4.424145168728298
 20
-10.21020338270399
 10
4.453032599555121
 20
-10.24816385904948
 10
4.422308180067274
 20
-10.25708855523003
 10
4.394054836697048
 20
-10.26866997612847
 10
4.370153639051649
 20
-10.28862677680121
 10
4.338288201226128
 20
-10.28737131754557
 10
4.334448920355902
 20
-10.25951639811198
 10
4.33006117078993
 20
-10.23098754882812
 10
4.328161451551649
 20
-10.20280626085069
 10
4.327604505750867
 20
-10.19454193115234
 10
4.327994452582465
 20
-10.19186909993489
 10
4.327538384331597
 20
-10.19186147054036
 97
        0
 97
        1
330
82
 92
        1
 93
        1
 72
     4
 94
        3
 73
     0
 74
     0
 95
       17
 96
       13
 40
0.0
 40
0.0
 40
0.0
 40
0.0
 40
1.0
 40
1.0
 40
1.0
 40
2.0
 40
2.0
 40
2.0
 40
3.0
 40
3.0
 40
3.0
 40
4.0
 40
4.0
 40
4.0
 40
4.0
 10
4.185061984592013
 20
-10.23685624864366
 10
4.1822509765625
 20
-10.16983032226562
 10
4.238292270236544
 20
-10.19559393988715
 10
4.28391859266493
 20
-10.19124348958333
 10
4.305425855848524
 20
-10.21033393012152
 10
4.298371209038628
 20
-10.2695566813151
 10
4.302274915907117
 20
-10.29919603135851
 10
4.262379964192708
 20
-10.3102052476671
 10
4.223866780598958
 20
-10.30623881022135
 10
4.184076944986978
 20
-10.29862382676866
 10
4.178949991861978
 20
-10.27787695990668
 10
4.184757656521266
 20
-10.25423855251736
 10
4.185061984592013
 20
-10.23685624864366
 97
        0
 97
        1
330
83
 92
        1
 93
        1
 72
     4
 94
        3
 73
     0
 74
     0
 95
       23
 96
       19
 40
0.0
 40
0.0
 40
0.0
 40
0.0
 40
1.0
 40
1.0
 40
1.0
 40
2.0
 40
2.0
 40
2.0
 40
3.0
 40
3.0
 40
3.0
 40
4.0
 40
4.0
 40
4.0
 40
5.0
 40
5.0
 40
5.0
 40
6.0
 40
6.0
 40
6.0
 40
6.0
 10
4.063082377115884
 20
-10.18918694390191
 10
4.072402106391058
 20
-10.1877195570204
 10
4.072283426920572
 20
-10.18923017713758
 10
4.082476298014322
 20
-10.18870544433593
 10
4.082476298014322
 20
-10.18870544433593
 10
4.083264668782551
 20
-10.18999735514323
 10
4.083264668782551
 20
-10.18999735514323
 10
4.099611918131509
 20
-10.19068654378255
 10
4.146013895670572
 20
-10.18777550591362
 10
4.159635755750867
 20
-10.19214206271701
 10
4.160783555772569
 20
-10.22061750623915
 10
4.151094224717882
 20
-10.25641632080078
 10
4.149650573730468
 20
-10.28664906819661
 10
4.117915683322482
 20
-10.27803039550781
 10
4.074324713812933
 20
-10.26541476779514
 10
4.053819444444444
 20
-10.23906792534722
 10
4.046595255533853
 20
-10.22188907199435
 10
4.061839633517794
 20
-10.20728810628255
 10
4.063082377115884
 20
-10.18918694390191
 97
        0
 97
        1
330
84
 92
        1
 93
        1
 72
     4
 94
        3
 73
     0
 74
     0
 95
       26
 96
       22
 40
0.0
 40
0.0
 40
0.0
 40
0.0
 40
1.0
 40
1.0
 40
1.0
 40
2.0
 40
2.0
 40
2.0
 40
3.0
 40
3.0
 40
3.0
 40
4.0
 40
4.0
 40
4.0
 40
5.0
 40
5.0
 40
5.0
 40
6.0
 40
6.0
 40
6.0
 40
7.0
 40
7.0
 40
7.0
 40
7.0
 10
4.531992594401041
 20
-10.25717586941189
 10
4.498265584309895
 20
-10.36525556776259
 10
4.490815056694878
 20
-10.4787606133355
 10
4.483283996582031
 20
-10.59121025933159
 10
4.474665323893228
 20
-10.59232160780165
 10
4.256113688151041
 20
-10.59131876627604
 10
4.247697618272569
 20
-10.59169175889757
 10
4.247697618272569
 20
-10.59169175889757
 10
4.247697618272569
 20
-10.59145100911458
 10
4.247697618272569
 20
-10.59145100911458
 10
4.163251241048176
 20
-10.59190368652344
 10
4.072825961642794
 20
-10.59068637424045
 10
3.98893313937717
 20
-10.5918231540256
 10
3.989444308810763
 20
-10.47023688422309
 10
3.976103040907117
 20
-10.34882100423177
 10
3.947110493977864
 20
-10.23074679904514
 10
4.097801208496093
 20
-10.38000996907552
 10
4.36962890625
 20
-10.38306766086154
 10
4.533284505208333
 20
-10.25023481580946
 10
4.533000522189669
 20
-10.25246853298611
 10
4.532518174913193
 20
-10.25483279758029
 10
4.531992594401041
 20
-10.25717586941189
 97
        0
 97
        1
330
85
 92
        1
 93
        1
 72
     4
 94
        3
 73
     0
 74
     0
 95
       32
 96
       28
 40
0.0
 40
0.0
 40
0.0
 40
0.0
 40
1.0
 40
1.0
 40
1.0
 40
2.0
 40
2.0
 40
2.0
 40
3.0
 40
3.0
 40
3.0
 40
4.0
 40
4.0
 40
4.0
 40
5.0
 40
5.0
 40
5.0
 40
6.0
 40
6.0
 40
6.0
 40
7.0
 40
7.0
 40
7.0
 40
8.0
 40
8.0
 40
8.0
 40
9.0
 40
9.0
 40
9.0
 40
9.0
 10
4.299746195475259
 20
-11.32352277967665
 10
4.260772705078125
 20
-11.33215671115451
 10
4.240121629503038
 20
-11.26579878065321
 10
4.205186631944444
 20
-11.30775790744357
 10
4.124788920084634
 20
-11.37772623697916
 10
4.033672756618923
 20
-11.22337256537543
 10
4.14192877875434
 20
-11.19200388590495
 10
4.211843702528211
 20
-11.17682308620876
 10
4.160858154296875
 20
-10.98723687065972
 10
4.175688849555121
 20
-10.92419942220052
 10
4.175649854871961
 20
-10.9155281914605
 10
4.175892300075954
 20
-10.64756859673394
 10
4.175777859157985
 20
-10.63960181342231
 10
4.210205078125
 20
-10.63770548502604
 10
4.248591952853732
 20
-10.63917880588107
 10
4.283312479654947
 20
-10.63868204752604
 10
4.284927368164062
 20
-10.70864952935113
 10
4.283254835340711
 20
-10.81987084282769
 10
4.283871120876735
 20
-10.89123789469401
 10
4.283871120876735
 20
-10.89123789469401
 10
4.283750745985242
 20
-10.89123789469401
 10
4.283750745985242
 20
-10.89123789469401
 10
4.294310675726996
 20
-10.94822862413194
 10
4.259308709038628
 20
-11.16736178927951
 10
4.303560045030382
 20
-11.1854248046875
 10
4.391092936197916
 20
-11.18918100992838
 10
4.389771355523003
 20
-11.32898712158203
 10
4.299746195475259
 20
-11.32352277967665
 97
        0
 97
        1
330
86
 92
        1
 93
        1
 72
     4
 94
        3
 73
     0
 74
     0
 95
       17
 96
       13
 40
0.0
 40
0.0
 40
0.0
 40
0.0
 40
1.0
 40
1.0
 40
1.0
 40
2.0
 40
2.0
 40
2.0
 40
3.0
 40
3.0
 40
3.0
 40
4.0
 40
4.0
 40
4.0
 40
4.0
 10
4.02315945095486
 20
-10.22626410590278
 10
4.006262037489149
 20
-10.21336534288194
 10
3.962035285101996
 20
-10.18368530273437
 10
3.944461398654513
 20
-10.16744316948784
 10
3.944461398654513
 20
-10.16744316948784
 10
3.946563720703125
 20
-10.16785939534505
 10
3.946563720703125
 20
-10.16785939534505
 10
3.965670267740885
 20
-10.17231665717231
 10
4.012413872612847
 20
-10.17450629340277
 10
4.029290941026475
 20
-10.17869822184245
 10
4.029053582085503
 20
-10.18935055202908
 10
4.031227959526909
 20
-10.21809471978081
 10
4.02315945095486
 20
-10.22626410590278
 97
        0
 97
        1
330
87
 92
        1
 93
        1
 72
     4
 94
        3
 73
     0
 74
     0
 95
       35
 96
       31
 40
0.0
 40
0.0
 40
0.0
 40
0.0
 40
1.0
 40
1.0
 40
1.0
 40
2.0
 40
2.0
 40
2.0
 40
3.0
 40
3.0
 40
3.0
 40
4.0
 40
4.0
 40
4.0
 40
5.0
 40
5.0
 40
5.0
 40
6.0
 40
6.0
 40
6.0
 40
7.0
 40
7.0
 40
7.0
 40
8.0
 40
8.0
 40
8.0
 40
9.0
 40
9.0
 40
9.0
 40
10.0
 40
10.0
 40
10.0
 40
10.0
 10
3.885854932996961
 20
-10.18377855088975
 10
3.88517591688368
 20
-10.18358866373698
 10
3.14662848578559
 20
-10.18345048692491
 10
3.145190768771701
 20
-10.18338436550564
 10
3.137463039822048
 20
-10.18348354763455
 10
3.118448893229166
 20
-10.18489922417534
 10
3.110800001356336
 20
-10.18517981635199
 10
3.110800001356336
 20
-10.18517981635199
 10
3.122645907931857
 20
-10.20072682698567
 10
3.122645907931857
 20
-10.20072682698567
 10
3.096600002712673
 20
-10.32979498969184
 10
2.91648695203993
 20
-10.2437498304579
 10
3.003933376736111
 20
-10.14848073323567
 10
3.036571926540798
 20
-10.11457146538628
 10
2.961979336208767
 20
-10.08396826850043
 10
2.982724507649739
 20
-10.0460688273112
 10
2.994546678331163
 20
-10.01072523328993
 10
3.022677951388888
 20
-9.983482360839843
 10
3.064226786295572
 20
-9.99082777235243
 10
3.144041273328992
 20
-10.01214260525173
 10
3.087739732530381
 20
-10.09454854329427
 10
3.202551947699652
 20
-10.07430352105034
 10
3.370925903320312
 20
-10.08616977267795
 10
3.553886413574218
 20
-10.04908837212456
 10
3.716223822699652
 20
-10.09080166286892
 10
3.770660400390625
 20
-10.12667338053385
 10
3.858639187282985
 20
-10.11652713351779
 10
3.886500888400607
 20
-10.18318684895833
 10
3.886282179090711
 20
-10.18340640597873
 10
3.886062622070312
 20
-10.18360307481554
 10
3.885854932996961
 20
-10.18377855088975
 97
        0
 97
        1
330
88
 92
        1
 93
        1
 72
     4
 94
        3
 73
     0
 74
     0
 95
       29
 96
       25
 40
0.0
 40
0.0
 40
0.0
 40
0.0
 40
1.0
 40
1.0
 40
1.0
 40
2.0
 40
2.0
 40
2.0
 40
3.0
 40
3.0
 40
3.0
 40
4.0
 40
4.0
 40
4.0
 40
5.0
 40
5.0
 40
5.0
 40
6.0
 40
6.0
 40
6.0
 40
7.0
 40
7.0
 40
7.0
 40
8.0
 40
8.0
 40
8.0
 40
8.0
 10
4.561520894368489
 20
-9.547045389811197
 10
4.654071384006075
 20
-9.649244520399305
 10
4.672288682725693
 20
-9.766859266493055
 10
4.65839131673177
 20
-9.907729254828558
 10
4.656054178873697
 20
-9.909313625759548
 10
4.643849690755208
 20
-9.911591423882377
 10
4.639199150933159
 20
-9.912829081217447
 10
4.540356953938801
 20
-9.928721110026041
 10
4.440641615125867
 20
-9.932115342881944
 10
4.340024312337239
 20
-9.93699476453993
 10
4.312271118164062
 20
-9.941666497124565
 10
4.312227037217882
 20
-9.941688537597656
 10
4.298617892795138
 20
-9.914865281846788
 10
4.279212103949652
 20
-9.876908196343315
 10
4.254896375868055
 20
-9.839080810546875
 10
4.233551873101128
 20
-9.801200018988714
 10
4.205730862087673
 20
-9.844688415527343
 10
4.190088907877603
 20
-9.928745693630641
 10
4.137994554307725
 20
-9.938832600911457
 10
4.03489515516493
 20
-9.935145907931856
 10
3.932457817925346
 20
-9.924045138888887
 10
3.830533345540364
 20
-9.910289340549043
 10
3.729637993706596
 20
-9.48189968532986
 10
4.279393513997395
 20
-9.262287563747829
 10
4.561520894368489
 20
-9.547045389811197
 97
        0
 97
        1
330
89
 92
        1
 93
        1
 72
     4
 94
        3
 73
     0
 74
     0
 95
       26
 96
       22
 40
0.0
 40
0.0
 40
0.0
 40
0.0
 40
1.0
 40
1.0
 40
1.0
 40
2.0
 40
2.0
 40
2.0
 40
3.0
 40
3.0
 40
3.0
 40
4.0
 40
4.0
 40
4.0
 40
5.0
 40
5.0
 40
5.0
 40
6.0
 40
6.0
 40
6.0
 40
7.0
 40
7.0
 40
7.0
 40
7.0
 10
4.219505310058593
 20
-8.878714667426214
 10
4.278355916341145
 20
-8.818901909722221
 10
4.387655470106336
 20
-8.82518090142144
 10
4.366585625542534
 20
-8.929339938693575
 10
4.362687852647569
 20
-8.957012600368923
 10
4.325890435112847
 20
-8.976452297634548
 10
4.283925374348958
 20
-8.98232947455512
 10
4.283728705512152
 20
-9.110383775499132
 10
4.284026251898871
 20
-9.250377231174043
 10
4.283860100640191
 20
-9.377586364746093
 10
4.249308268229166
 20
-9.377375284830728
 10
4.210812886555989
 20
-9.378367953830293
 10
4.176773918999566
 20
-9.377695719401041
 10
4.173886617024739
 20
-9.260899861653644
 10
4.177719116210937
 20
-9.136349995930988
 10
4.1759524875217
 20
-9.018897162543401
 10
4.173960367838541
 20
-8.985088772243923
 10
4.170796712239583
 20
-8.981015523274738
 10
4.138301425509982
 20
-8.970461527506509
 10
4.015481736924913
 20
-8.920249091254339
 10
4.166690402560763
 20
-8.760141160753038
 10
4.219505310058593
 20
-8.878714667426214
 97
        0
 97
        1
330
8A
 92
        1
 93
        1
 72
     4
 94
        3
 73
     0
 74
     0
 95
       14
 96
       10
 40
0.0
 40
0.0
 40
0.0
 40
0.0
 40
1.0
 40
1.0
 40
1.0
 40
2.0
 40
2.0
 40
2.0
 40
3.0
 40
3.0
 40
3.0
 40
3.0
 10
4.684251573350693
 20
-9.694497002495658
 10
4.684251573350693
 20
-9.694497002495658
 10
4.684155782063801
 20
-9.694547865125867
 10
4.684155782063801
 20
-9.694547865125867
 10
4.684154086642794
 20
-9.694539388020832
 10
4.684153238932291
 20
-9.694530063205293
 10
4.684149848090277
 20
-9.694520738389757
 10
4.684149848090277
 20
-9.694520738389757
 10
4.684251573350693
 20
-9.694497002495658
 10
4.684251573350693
 20
-9.694497002495658
 97
        0
 97
        1
330
8B
 92
        1
 93
        1
 72
     4
 94
        3
 73
     0
 74
     0
 95
      143
 96
      139
 40
0.0
 40
0.0
 40
0.0
 40
0.0
 40
1.0
 40
1.0
 40
1.0
 40
2.0
 40
2.0
 40
2.0
 40
3.0
 40
3.0
 40
3.0
 40
4.0
 40
4.0
 40
4.0
 40
5.0
 40
5.0
 40
5.0
 40
6.0
 40
6.0
 40
6.0
 40
7.0
 40
7.0
 40
7.0
 40
8.0
 40
8.0
 40
8.0
 40
9.0
 40
9.0
 40
9.0
 40
10.0
 40
10.0
 40
10.0
 40
11.0
 40
11.0
 40
11.0
 40
12.0
 40
12.0
 40
12.0
 40
13.0
 40
13.0
 40
13.0
 40
14.0
 40
14.0
 40
14.0
 40
15.0
 40
15.0
 40
15.0
 40
16.0
 40
16.0
 40
16.0
 40
17.0
 40
17.0
 40
17.0
 40
18.0
 40
18.0
 40
18.0
 40
19.0
 40
19.0
 40
19.0
 40
20.0
 40
20.0
 40
20.0
 40
21.0
 40
21.0
 40
21.0
 40
22.0
 40
22.0
 40
22.0
 40
23.0
 40
23.0
 40
23.0
 40
24.0
 40
24.0
 40
24.0
 40
25.0
 40
25.0
 40
25.0
 40
26.0
 40
26.0
 40
26.0
 40
27.0
 40
27.0
 40
27.0
 40
28.0
 40
28.0
 40
28.0
 40
29.0
 40
29.0
 40
29.0
 40
30.0
 40
30.0
 40
30.0
 40
31.0
 40
31.0
 40
31.0
 40
32.0
 40
32.0
 40
32.0
 40
33.0
 40
33.0
 40
33.0
 40
34.0
 40
34.0
 40
34.0
 40
35.0
 40
35.0
 40
35.0
 40
36.0
 40
36.0
 40
36.0
 40
37.0
 40
37.0
 40
37.0
 40
38.0
 40
38.0
 40
38.0
 40
39.0
 40
39.0
 40
39.0
 40
40.0
 40
40.0
 40
40.0
 40
41.0
 40
41.0
 40
41.0
 40
42.0
 40
42.0
 40
42.0
 40
43.0
 40
43.0
 40
43.0
 40
44.0
 40
44.0
 40
44.0
 40
45.0
 40
45.0
 40
45.0
 40
46.0
 40
46.0
 40
46.0
 40
46.0
 10
5.493826124403211
 20
-10.1297378540039
 10
5.493804083930121
 20
-10.12929958767361
 10
5.493804083930121
 20
-10.12879604763455
 10
5.493848164876301
 20
-10.12833574083116
 10
5.511529710557725
 20
-10.11092800564236
 10
5.512919955783419
 20
-10.08903164333767
 10
5.514146592881943
 20
-10.0696309407552
 10
5.514146592881943
 20
-10.0696309407552
 10
5.503089057074652
 20
-10.06689368353949
 10
5.503089057074652
 20
-10.06689368353949
 10
5.503089057074652
 20
-10.06689368353949
 10
5.514277988009982
 20
-10.06761678059896
 10
5.514277988009982
 20
-10.06761678059896
 10
5.533773634168836
 20
-9.938469780815971
 10
5.338060167100693
 20
-9.8946533203125
 10
5.296585083007812
 20
-10.01003011067708
 10
5.291982862684461
 20
-10.02500576443142
 10
5.288599650065103
 20
-10.02701992458767
 10
5.273568047417534
 20
-10.02686648898654
 10
5.149265713161891
 20
-10.02663930257161
 10
5.016632080078125
 20
-10.0270029703776
 10
4.892839219835068
 20
-10.02642907036675
 10
5.045917934841579
 20
-9.923213534884981
 10
5.173504299587673
 20
-9.796317206488714
 10
5.27826436360677
 20
-9.647747463650173
 10
5.241974724663628
 20
-9.646584404839408
 10
5.215007358127169
 20
-9.669168260362413
 10
5.185959710015191
 20
-9.68766869439019
 10
5.037269592285156
 20
-9.7818603515625
 10
4.876177469889322
 20
-9.854676140679252
 10
4.707911173502603
 20
-9.899669223361543
 10
4.739601135253906
 20
-9.651363796657985
 10
4.591851976182725
 20
-9.413553873697916
 10
4.334873623318141
 20
-9.382215711805555
 10
4.323869493272569
 20
-9.362297905815971
 10
4.334124247233072
 20
-9.288134256998697
 10
4.330734252929687
 20
-9.261097378200954
 10
4.338827345106336
 20
-9.183613247341579
 10
4.315026177300347
 20
-9.083740234375
 10
4.339293585883246
 20
-9.016988966200086
 10
4.41895039876302
 20
-8.998728434244791
 10
4.439342074924044
 20
-8.882725185818141
 10
4.387140909830728
 20
-8.826009114583332
 10
4.349823845757378
 20
-8.772697448730468
 10
4.275250752766926
 20
-8.795844184027776
 10
4.225090874565972
 20
-8.806205749511718
 10
4.135956658257378
 20
-8.751466539171007
 10
4.018228318956163
 20
-8.840760972764757
 10
4.052163018120659
 20
-8.936725192599825
 10
4.052609761555989
 20
-8.985260857476127
 10
4.107376098632812
 20
-9.002907647026908
 10
4.135290357801649
 20
-9.027689615885416
 10
4.136331346299913
 20
-9.144348992241752
 10
4.136470370822482
 20
-9.261162651909721
 10
4.135259840223524
 20
-9.377761840820312
 10
3.880056593153211
 20
-9.444001091851127
 10
3.747495863172742
 20
-9.628963894314235
 10
3.781583150227864
 20
-9.900807698567707
 10
3.557716369628906
 20
-9.858858744303384
 10
3.355946858723958
 20
-9.746197170681423
 10
3.164994133843315
 20
-9.626398722330728
 10
3.164994133843315
 20
-9.626398722330728
 10
3.149349636501735
 20
-9.642864651150173
 10
3.149349636501735
 20
-9.642864651150173
 10
3.279664781358506
 20
-9.789700826009113
 10
3.429134792751735
 20
-9.924290974934894
 10
3.593392266167534
 20
-10.02660369873047
 10
3.464285956488715
 20
-10.02714284261067
 10
3.332862006293402
 20
-10.02665032280816
 10
3.20355478922526
 20
-10.02678002251519
 10
3.191706339518229
 20
-10.02456919352213
 10
3.166979471842447
 20
-10.03216128879123
 10
3.160646226671006
 20
-10.02174716525607
 10
3.1334474351671
 20
-9.909890916612413
 10
2.957193162706163
 20
-9.9229007297092
 10
2.935462103949652
 20
-10.0339609781901
 10
2.935462103949652
 20
-10.0339609781901
 10
2.935462103949652
 20
-10.08881293402777
 10
2.935462103949652
 20
-10.08881293402777
 10
2.941593594021267
 20
-10.10096825493706
 10
2.950174119737413
 20
-10.11439344618055
 10
2.954523722330728
 20
-10.12627749972873
 10
2.951772901746961
 20
-10.1386489868164
 10
2.941491021050346
 20
-10.15475463867187
 10
2.935462951660156
 20
-10.16674296061198
 10
2.935462103949652
 20
-10.16674296061198
 10
2.935462103949652
 20
-10.22435336642795
 10
2.935462103949652
 20
-10.22435336642795
 10
2.961457146538628
 20
-10.3247324625651
 10
3.127026028103298
 20
-10.352906121148
 10
3.157948811848958
 20
-10.24330902099609
 10
3.161064147949218
 20
-10.23087819417317
 10
3.164458380805121
 20
-10.23085615370008
 10
3.179216172960069
 20
-10.23041873508029
 10
3.415149264865451
 20
-10.23165893554687
 10
3.664382086859808
 20
-10.22874365912543
 10
3.898467169867621
 20
-10.23236677381727
 10
3.938468085394965
 20
-10.36788347032335
 10
3.94289313422309
 20
-10.49954647488064
 10
3.940377977159288
 20
-10.63874732123481
 10
3.940377977159288
 20
-10.63874732123481
 10
4.123455471462673
 20
-10.63881344265408
 10
4.123455471462673
 20
-10.63881344265408
 10
4.129509819878472
 20
-10.63881344265408
 10
4.131689283582899
 20
-10.63925086127387
 10
4.131820678710937
 20
-10.63890075683594
 10
4.12978786892361
 20
-10.80432891845703
 10
4.144245571560329
 20
-10.98221164279514
 10
4.124905904134114
 20
-11.14548068576389
 10
3.960890028211805
 20
-11.20835876464844
 10
4.087927924262152
 20
-11.44698588053385
 10
4.232402377658419
 20
-11.3495135837131
 10
4.327771504720051
 20
-11.40926869710286
 10
4.446384006076388
 20
-11.32992638481987
 10
4.411861843532985
 20
-11.21797688802083
 10
4.40477328830295
 20
-11.18279266357422
 10
4.37704128689236
 20
-11.15599060058594
 10
4.337693108452691
 20
-11.14624701605902
 10
4.330872429741753
 20
-11.14456091986762
 10
4.330609639485676
 20
-11.14412265353732
 10
4.330609639485676
 20
-11.13466389973958
 10
4.331185234917534
 20
-10.96994188096788
 10
4.32977294921875
 20
-10.80363633897569
 10
4.330992804633246
 20
-10.63920762803819
 10
4.394423590766058
 20
-10.63788096110026
 10
4.467367384168836
 20
-10.63944413926866
 10
4.531434800889756
 20
-10.6387693617079
 10
4.532450358072916
 20
-10.54673343234592
 10
4.541244506835937
 20
-10.28594462076823
 10
4.598587036132812
 20
-10.23060692681206
 10
4.598602294921875
 20
-10.2306154039171
 10
5.2659912109375
 20
-10.23052808973524
 10
5.2659912109375
 20
-10.23052808973524
 10
5.290143330891926
 20
-10.22431352403429
 10
5.294085184733072
 20
-10.24733564588758
 10
5.302370707194009
 20
-10.26394483778211
 10
5.391173468695746
 20
-10.3910166422526
 10
5.58356221516927
 20
-10.25901709662543
 10
5.493826124403211
 20
-10.1297378540039
 97
        0
 97
        1
330
8C
 75
     2
 76
     1
 98
        1
 10
0.0
 20
0.0
450
        0
451
        0
460
0.0
461
0.0
452
        0
462
0.0
453
        0
470

  0
SPLINE
  5
8E
330
7B
100
AcDbEntity
  8
Whitebeard
100
AcDbSpline
210
0.0
220
0.0
230
1.0
 70
     9
 71
     3
 72
    14
 73
    10
 74
     0
 42
0.0000000001
 43
0.0000000001
 40
0.0
 40
0.0
 40
0.0
 40
0.0
 40
1.0
 40
1.0
 40
1.0
 40
2.0
 40
2.0
 40
2.0
 40
3.0
 40
3.0
 40
3.0
 40
3.0
 10
4.131608751085069
 20
-9.821992662217882
 30
0.0
 10
4.040501912434895
 20
-9.81075965033637
 30
0.0
 10
3.962336222330728
 20
-9.781241522894964
 30
0.0
 10
3.881237453884548
 20
-9.741824679904512
 30
0.0
 10
3.88045416937934
 20
-9.743570115831163
 30
0.0
 10
3.879670884874131
 20
-9.745314704047308
 30
0.0
 10
3.878888448079426
 20
-9.747060139973957
 30
0.0
 10
3.907691107855902
 20
-9.855678134494356
 30
0.0
 10
4.046146816677516
 20
-9.868446350097656
 30
0.0
 10
4.131608751085069
 20
-9.821992662217882
 30
0.0
  0
HATCH
  5
8F
330
7B
100
AcDbEntity
  8
Whitebeard
 62
   250
420
  2301728
440
 33554687
100
AcDbHatch
 10
0.0
 20
0.0
 30
0.0
210
0.0
220
0.0
230
1.0
  2
SOLID
 70
     1
 71
     1
 91
        1
 92
        1
 93
        1
 72
     4
 94
        3
 73
     0
 74
     0
 95
       14
 96
       10
 40
0.0
 40
0.0
 40
0.0
 40
0.0
 40
1.0
 40
1.0
 40
1.0
 40
2.0
 40
2.0
 40
2.0
 40
3.0
 40
3.0
 40
3.0
 40
3.0
 10
4.131608751085069
 20
-9.821992662217882
 10
4.040501912434895
 20
-9.81075965033637
 10
3.962336222330728
 20
-9.781241522894964
 10
3.881237453884548
 20
-9.741824679904512
 10
3.88045416937934
 20
-9.743570115831163
 10
3.879670884874131
 20
-9.745314704047308
 10
3.878888448079426
 20
-9.747060139973957
 10
3.907691107855902
 20
-9.855678134494356
 10
4.046146816677516
 20
-9.868446350097656
 10
4.131608751085069
 20
-9.821992662217882
 97
        0
 97
        1
330
8E
 75
     2
 76
     1
 98
        1
 10
0.0
 20
0.0
450
        0
451
        0
460
0.0
461
0.0
452
        0
462
0.0
453
        0
470

  0
SPLINE
  5
90
330
7B
100
AcDbEntity
  8
Whitebeard
100
AcDbSpline
210
0.0
220
0.0
230
1.0
 70
     9
 71
     3
 72
    14
 73
    10
 74
     0
 42
0.0000000001
 43
0.0000000001
 40
0.0
 40
0.0
 40
0.0
 40
0.0
 40
1.0
 40
1.0
 40
1.0
 40
2.0
 40
2.0
 40
2.0
 40
3.0
 40
3.0
 40
3.0
 40
3.0
 10
4.594258626302083
 20
-9.74752214219835
 30
0.0
 10
4.59310574001736
 20
-9.746121724446613
 30
0.0
 10
4.591952853732638
 20
-9.744722154405382
 30
0.0
 10
4.590800815158419
 20
-9.743322584364149
 30
0.0
 10
4.512430826822916
 20
-9.778951009114582
 30
0.0
 10
4.433061387803819
 20
-9.810604519314235
 30
0.0
 10
4.347813076443141
 20
-9.821217007107204
 30
0.0
 10
4.434064229329426
 20
-9.863518608940971
 30
0.0
 10
4.568800184461805
 20
-9.85982937282986
 30
0.0
 10
4.594258626302083
 20
-9.74752214219835
 30
0.0
  0
HATCH
  5
91
330
7B
100
AcDbEntity
  8
Whitebeard
 62
   250
420
  2301728
440
 33554687
100
AcDbHatch
 10
0.0
 20
0.0
 30
0.0
210
0.0
220
0.0
230
1.0
  2
SOLID
 70
     1
 71
     1
 91
        1
 92
        1
 93
        1
 72
     4
 94
        3
 73
     0
 74
     0
 95
       14
 96
       10
 40
0.0
 40
0.0
 40
0.0
 40
0.0
 40
1.0
 40
1.0
 40
1.0
 40
2.0
 40
2.0
 40
2.0
 40
3.0
 40
3.0
 40
3.0
 40
3.0
 10
4.594258626302083
 20
-9.74752214219835
 10
4.59310574001736
 20
-9.746121724446613
 10
4.591952853732638
 20
-9.744722154405382
 10
4.590800815158419
 20
-9.743322584364149
 10
4.512430826822916
 20
-9.778951009114582
 10
4.433061387803819
 20
-9.810604519314235
 10
4.347813076443141
 20
-9.821217007107204
 10
4.434064229329426
 20
-9.863518608940971
 10
4.568800184461805
 20
-9.85982937282986
 10
4.594258626302083
 20
-9.74752214219835
 97
        0
 97
        1
330
90
 75
     2
 76
     1
 98
        1
 10
0.0
 20
0.0
450
        0
451
        0
460
0.0
461
0.0
452
        0
462
0.0
453
        0
470

  0
ENDBLK
  5
7E
330
7B
100
AcDbEntity
  8
0
100
AcDbBlockEnd
  0
ENDSEC
  0
SECTION
  2
ENTITIES
  0
LWPOLYLINE
  5
7A
330
70
100
AcDbEntity
  8
Whitebeard
 62
   250
420
  2301728
370
    35
100
AcDbPolyline
 90
        4
 70
     1
 43
0.0
 10
2.610524549195613
 20
-11.59639533589903
 10
2.610524549195613
 20
-8.566395335899034
 10
5.840524549195631
 20
-8.566395335899034
 10
5.840524549195631
 20
-11.59639533589901
  0
INSERT
  5
7C
330
70
100
AcDbEntity
  8
Whitebeard
100
AcDbBlockReference
  2
Block_0
 10
0.0
 20
0.0
 30
0.0
  0
ENDSEC
  0
SECTION
  2
OBJECTS
  0
DICTIONARY
  5
C
330
0
100
AcDbDictionary
281
     1
  3
ACAD_COLOR
350
63
  3
ACAD_DETAILVIEWSTYLE
350
6A
  3
ACAD_GROUP
350
D
  3
ACAD_LAYOUT
350
62
  3
ACAD_MATERIAL
350
10
  3
ACAD_MLEADERSTYLE
350
66
  3
ACAD_MLINESTYLE
350
5F
  3
ACAD_PLOTSETTINGS
350
61
  3
ACAD_PLOTSTYLENAME
350
E
  3
ACAD_SCALELIST
350
42
  3
ACAD_SECTIONVIEWSTYLE
350
68
  3
ACAD_TABLESTYLE
350
64
  3
ACAD_VISUALSTYLE
350
29
  3
ACDB_RECOMPOSE_DATA
350
9A
  3
AcDbVariableDictionary
350
92
  0
DICTIONARY
  5
63
102
{ACAD_REACTORS
330
C
102
}
330
C
100
AcDbDictionary
281
     1
  0
DICTIONARY
  5
6A
102
{ACAD_REACTORS
330
C
102
}
330
C
100
AcDbDictionary
281
     1
  3
Imperial24
350
6B
  0
DICTIONARY
  5
D
102
{ACAD_REACTORS
330
C
102
}
330
C
100
AcDbDictionary
281
     1
  0
DICTIONARY
  5
62
102
{ACAD_REACTORS
330
C
102
}
330
C
100
AcDbDictionary
281
     1
  3
Layout1
350
6F
  3
Layout2
350
77
  3
Model
350
73
  0
DICTIONARY
  5
10
102
{ACAD_REACTORS
330
C
102
}
330
C
100
AcDbDictionary
281
     1
  3
ByBlock
350
19
  3
ByLayer
350
11
  3
Global
350
21
  0
DICTIONARY
  5
66
102
{ACAD_REACTORS
330
C
102
}
330
C
100
AcDbDictionary
281
     1
  3
Standard
350
67
  0
DICTIONARY
  5
5F
102
{ACAD_REACTORS
330
C
102
}
330
C
100
AcDbDictionary
281
     1
  3
Standard
350
60
  0
DICTIONARY
  5
61
102
{ACAD_REACTORS
330
C
102
}
330
C
100
AcDbDictionary
281
     1
  0
ACDBDICTIONARYWDFLT
  5
E
102
{ACAD_REACTORS
330
C
102
}
330
C
100
AcDbDictionary
281
     1
  3
Normal
350
F
100
AcDbDictionaryWithDefault
340
F
  0
DICTIONARY
  5
42
102
{ACAD_REACTORS
330
C
102
}
330
C
100
AcDbDictionary
281
     1
  3
A0
350
43
  3
A1
350
44
  3
A2
350
45
  3
A3
350
46
  3
A4
350
47
  3
A5
350
48
  3
A6
350
49
  3
A7
350
4A
  3
A8
350
4B
  3
A9
350
4C
  3
B0
350
4D
  3
B1
350
4E
  3
B2
350
4F
  3
B3
350
50
  3
B4
350
51
  3
B5
350
52
  3
B6
350
53
  0
DICTIONARY
  5
68
102
{ACAD_REACTORS
330
C
102
}
330
C
100
AcDbDictionary
281
     1
  3
Imperial24
350
69
  0
DICTIONARY
  5
64
102
{ACAD_REACTORS
330
C
102
}
330
C
100
AcDbDictionary
281
     1
  3
Standard
350
65
  0
DICTIONARY
  5
29
102
{ACAD_REACTORS
330
C
102
}
330
C
100
AcDbDictionary
281
     1
  3
2dWireframe
350
2F
  3
Basic
350
2E
  3
Brighten
350
35
  3
ColorChange
350
39
  3
Conceptual
350
32
  3
Dim
350
34
  3
EdgeColorOff
350
41
  3
Facepattern
350
38
  3
Flat
350
2A
  3
FlatWithEdges
350
2B
  3
Gouraud
350
2C
  3
GouraudWithEdges
350
2D
  3
Hidden
350
31
  3
JitterOff
350
3F
  3
Linepattern
350
37
  3
OverhangOff
350
40
  3
Realistic
350
33
  3
Shaded
350
3E
  3
Shaded with edges
350
3D
  3
Shades of Gray
350
3A
  3
Sketchy
350
3B
  3
Thicken
350
36
  3
Wireframe
350
30
  3
X-Ray
350
3C
  0
XRECORD
  5
9A
102
{ACAD_REACTORS
330
C
102
}
330
C
100
AcDbXrecord
280
     1
 90
        1
330
65
  0
DICTIONARY
  5
92
102
{ACAD_REACTORS
330
C
102
}
330
C
100
AcDbDictionary
281
     1
  3
CANNOSCALE
350
97
  3
CMLEADERSTYLE
350
94
  3
CTABLESTYLE
350
93
  3
CVIEWDETAILSTYLE
350
95
  3
CVIEWSECTIONSTYLE
350
96
  0
ACDBDETAILVIEWSTYLE
  5
6B
102
{ACAD_REACTORS
330
6A
102
}
330
6A
100
AcDbModelDocViewStyle
 70
     0
  3
Imperial24
290
     1
300
Imperial24
 90
        0
100
AcDbDetailViewStyle
 70
     0
 71
     0
 90
        3
 71
     1
340
55
 62
   256
 40
0.24
340
0
 62
   256
 40
0.24
300

 40
0.36
280
     3
 71
     2
340
5D
 90
       25
 62
   256
 71
     3
340
55
 62
   256
 40
0.24
 90
        1
 40
0.75
 90
        1
300
%<\AcVar ViewType \f "%tc1">% %<\AcVar ViewDetailId>%\PSCALE %<\AcVar ViewScale \f "%sn">%
 71
     4
340
5D
 90
       25
 62
   256
340
5D
 90
       25
 62
   256
280
     0
  0
LAYOUT
  5
6F
102
{ACAD_REACTORS
330
62
102
}
330
62
100
AcDbPlotSettings
  1

  2

  4

  6

 40
0.0
 41
0.0
 42
0.0
 43
0.0
 44
0.0
 45
0.0
 46
0.0
 47
0.0
 48
0.0
 49
0.0
140
0.0
141
0.0
142
1.0
143
1.0
 70
   688
 72
     0
 73
     0
 74
     5
  7

 75
    16
147
1.0
 76
     0
 77
     2
 78
   300
148
0.0
149
0.0
100
AcDbLayout
  1
Layout1
 70
     1
 71
     1
 10
0.0
 20
0.0
 11
12.0
 21
9.0
 12
0.0
 22
0.0
 32
0.0
 14
0.0
 24
0.0
 34
0.0
 15
0.0
 25
0.0
 35
0.0
146
0.0
 13
0.0
 23
0.0
 33
0.0
 16
1.0
 26
0.0
 36
0.0
 17
0.0
 27
1.0
 37
0.0
 76
     0
330
6C
  0
LAYOUT
  5
77
102
{ACAD_REACTORS
330
62
102
}
330
62
100
AcDbPlotSettings
  1

  2

  4

  6

 40
0.0
 41
0.0
 42
0.0
 43
0.0
 44
0.0
 45
0.0
 46
0.0
 47
0.0
 48
0.0
 49
0.0
140
0.0
141
0.0
142
1.0
143
1.0
 70
   688
 72
     0
 73
     0
 74
     5
  7

 75
    16
147
1.0
 76
     0
 77
     2
 78
   300
148
0.0
149
0.0
100
AcDbLayout
  1
Layout2
 70
     1
 71
     2
 10
0.0
 20
0.0
 11
12.0
 21
9.0
 12
0.0
 22
0.0
 32
0.0
 14
0.0
 24
0.0
 34
0.0
 15
0.0
 25
0.0
 35
0.0
146
0.0
 13
0.0
 23
0.0
 33
0.0
 16
1.0
 26
0.0
 36
0.0
 17
0.0
 27
1.0
 37
0.0
 76
     0
330
74
  0
LAYOUT
  5
73
102
{ACAD_REACTORS
330
62
102
}
330
62
100
AcDbPlotSettings
  1

  2

  4

  6

 40
0.0
 41
0.0
 42
0.0
 43
0.0
 44
0.0
 45
0.0
 46
0.0
 47
0.0
 48
0.0
 49
0.0
140
0.0
141
0.0
142
1.0
143
1.0
 70
  1712
 72
     0
 73
     0
 74
     0
  7

 75
     0
147
1.0
 76
     0
 77
     2
 78
   300
148
0.0
149
0.0
100
AcDbLayout
  1
Model
 70
     1
 71
     0
 10
0.0
 20
0.0
 11
12.0
 21
9.0
 12
0.0
 22
0.0
 32
0.0
 14
0.0
 24
0.0
 34
0.0
 15
0.0
 25
0.0
 35
0.0
146
0.0
 13
0.0
 23
0.0
 33
0.0
 16
1.0
 26
0.0
 36
0.0
 17
0.0
 27
1.0
 37
0.0
 76
     0
330
70
  0
MATERIAL
  5
19
102
{ACAD_XDICTIONARY
360
1A
102
}
102
{ACAD_REACTORS
330
10
102
}
330
10
100
AcDbMaterial
  1
ByBlock
 72
     0
 43
0.0208333333333333
 43
0.0
 43
0.0
 43
0.0
 43
0.0
 43
0.0208333333333333
 43
0.0
 43
0.0
 43
0.0
 43
0.0
 43
1.0
 43
0.0
 43
0.0
 43
0.0
 43
0.0
 43
1.0
 77
     0
 47
0.0208333333333333
 47
0.0
 47
0.0
 47
0.0
 47
0.0
 47
0.0208333333333333
 47
0.0
 47
0.0
 47
0.0
 47
0.0
 47
1.0
 47
0.0
 47
0.0
 47
0.0
 47
0.0
 47
1.0
171
     0
 49
0.0208333333333333
 49
0.0
 49
0.0
 49
0.0
 49
0.0
 49
0.0208333333333333
 49
0.0
 49
0.0
 49
0.0
 49
0.0
 49
1.0
 49
0.0
 49
0.0
 49
0.0
 49
0.0
 49
1.0
175
     0
142
0.0208333333333333
142
0.0
142
0.0
142
0.0
142
0.0
142
0.0208333333333333
142
0.0
142
0.0
142
0.0
142
0.0
142
1.0
142
0.0
142
0.0
142
0.0
142
0.0
142
1.0
179
     0
144
0.0208333333333333
144
0.0
144
0.0
144
0.0
144
0.0
144
0.0208333333333333
144
0.0
144
0.0
144
0.0
144
0.0
144
1.0
144
0.0
144
0.0
144
0.0
144
0.0
144
1.0
147
0.0208333333333333
147
0.0
147
0.0
147
0.0
147
0.0
147
0.0208333333333333
147
0.0
147
0.0
147
0.0
147
0.0
147
1.0
147
0.0
147
0.0
147
0.0
147
0.0
147
1.0
  0
MATERIAL
  5
11
102
{ACAD_XDICTIONARY
360
12
102
}
102
{ACAD_REACTORS
330
10
102
}
330
10
100
AcDbMaterial
  1
ByLayer
 72
     0
 43
0.0208333333333333
 43
0.0
 43
0.0
 43
0.0
 43
0.0
 43
0.0208333333333333
 43
0.0
 43
0.0
 43
0.0
 43
0.0
 43
1.0
 43
0.0
 43
0.0
 43
0.0
 43
0.0
 43
1.0
 77
     0
 47
0.0208333333333333
 47
0.0
 47
0.0
 47
0.0
 47
0.0
 47
0.0208333333333333
 47
0.0
 47
0.0
 47
0.0
 47
0.0
 47
1.0
 47
0.0
 47
0.0
 47
0.0
 47
0.0
 47
1.0
171
     0
 49
0.0208333333333333
 49
0.0
 49
0.0
 49
0.0
 49
0.0
 49
0.0208333333333333
 49
0.0
 49
0.0
 49
0.0
 49
0.0
 49
1.0
 49
0.0
 49
0.0
 49
0.0
 49
0.0
 49
1.0
175
     0
142
0.0208333333333333
142
0.0
142
0.0
142
0.0
142
0.0
142
0.0208333333333333
142
0.0
142
0.0
142
0.0
142
0.0
142
1.0
142
0.0
142
0.0
142
0.0
142
0.0
142
1.0
179
     0
144
0.0208333333333333
144
0.0
144
0.0
144
0.0
144
0.0
144
0.0208333333333333
144
0.0
144
0.0
144
0.0
144
0.0
144
1.0
144
0.0
144
0.0
144
0.0
144
0.0
144
1.0
147
0.0208333333333333
147
0.0
147
0.0
147
0.0
147
0.0
147
0.0208333333333333
147
0.0
147
0.0
147
0.0
147
0.0
147
1.0
147
0.0
147
0.0
147
0.0
147
0.0
147
1.0
  0
MATERIAL
  5
21
102
{ACAD_XDICTIONARY
360
22
102
}
102
{ACAD_REACTORS
330
10
102
}
330
10
100
AcDbMaterial
  1
Global
 72
     0
 43
0.0208333333333333
 43
0.0
 43
0.0
 43
0.0
 43
0.0
 43
0.0208333333333333
 43
0.0
 43
0.0
 43
0.0
 43
0.0
 43
1.0
 43
0.0
 43
0.0
 43
0.0
 43
0.0
 43
1.0
 77
     0
 47
0.0208333333333333
 47
0.0
 47
0.0
 47
0.0
 47
0.0
 47
0.0208333333333333
 47
0.0
 47
0.0
 47
0.0
 47
0.0
 47
1.0
 47
0.0
 47
0.0
 47
0.0
 47
0.0
 47
1.0
171
     0
 49
0.0208333333333333
 49
0.0
 49
0.0
 49
0.0
 49
0.0
 49
0.0208333333333333
 49
0.0
 49
0.0
 49
0.0
 49
0.0
 49
1.0
 49
0.0
 49
0.0
 49
0.0
 49
0.0
 49
1.0
175
     0
142
0.0208333333333333
142
0.0
142
0.0
142
0.0
142
0.0
142
0.0208333333333333
142
0.0
142
0.0
142
0.0
142
0.0
142
1.0
142
0.0
142
0.0
142
0.0
142
0.0
142
1.0
179
     0
144
0.0208333333333333
144
0.0
144
0.0
144
0.0
144
0.0
144
0.0208333333333333
144
0.0
144
0.0
144
0.0
144
0.0
144
1.0
144
0.0
144
0.0
144
0.0
144
0.0
144
1.0
147
0.0208333333333333
147
0.0
147
0.0
147
0.0
147
0.0
147
0.0208333333333333
147
0.0
147
0.0
147
0.0
147
0.0
147
1.0
147
0.0
147
0.0
147
0.0
147
0.0
147
1.0
  0
MLEADERSTYLE
  5
67
102
{ACAD_REACTORS
330
66
102
}
330
66
100
AcDbMLeaderStyle
179
     2
170
     2
171
     1
172
     0
 90
        2
 40
0.0
 41
0.0
173
     1
 91
-1056964608
340
5B
 92
       -2
290
     1
 42
0.09
291
     1
 43
0.36
  3
Standard
 44
0.18
300

342
55
174
     1
178
     6
175
     1
176
     0
 93
-1056964608
 45
0.18
292
     0
297
     0
 46
0.18
 94
-1056964608
 47
1.0
 49
1.0
140
1.0
293
     1
141
0.0
294
     1
177
     0
142
1.0
295
     1
296
     0
143
0.125
271
     0
272
     9
273
     9
298
     1
  0
MLINESTYLE
  5
60
102
{ACAD_REACTORS
330
5F
102
}
330
5F
100
AcDbMlineStyle
  2
STANDARD
 70
     0
  3

 62
   256
 51
90.0
 52
90.0
 71
     2
 49
0.5
 62
   256
  6
BYLAYER
 49
-0.5
 62
   256
  6
BYLAYER
  0
ACDBPLACEHOLDER
  5
F
102
{ACAD_REACTORS
330
E
102
}
330
E
  0
SCALE
  5
43
102
{ACAD_REACTORS
330
42
102
}
330
42
100
AcDbScale
 70
     0
300
1:1
140
1.0
141
1.0
290
     1
  0
SCALE
  5
44
102
{ACAD_REACTORS
330
42
102
}
330
42
100
AcDbScale
 70
     0
300
1/128" = 1'-0"
140
0.0078125
141
12.0
290
     0
  0
SCALE
  5
45
102
{ACAD_REACTORS
330
42
102
}
330
42
100
AcDbScale
 70
     0
300
1/64" = 1'-0"
140
0.015625
141
12.0
290
     0
  0
SCALE
  5
46
102
{ACAD_REACTORS
330
42
102
}
330
42
100
AcDbScale
 70
     0
300
1/32" = 1'-0"
140
0.03125
141
12.0
290
     0
  0
SCALE
  5
47
102
{ACAD_REACTORS
330
42
102
}
330
42
100
AcDbScale
 70
     0
300
1/16" = 1'-0"
140
0.0625
141
12.0
290
     0
  0
SCALE
  5
48
102
{ACAD_REACTORS
330
42
102
}
330
42
100
AcDbScale
 70
     0
300
3/32" = 1'-0"
140
0.09375
141
12.0
290
     0
  0
SCALE
  5
49
102
{ACAD_REACTORS
330
42
102
}
330
42
100
AcDbScale
 70
     0
300
1/8" = 1'-0"
140
0.125
141
12.0
290
     0
  0
SCALE
  5
4A
102
{ACAD_REACTORS
330
42
102
}
330
42
100
AcDbScale
 70
     0
300
3/16" = 1'-0"
140
0.1875
141
12.0
290
     0
  0
SCALE
  5
4B
102
{ACAD_REACTORS
330
42
102
}
330
42
100
AcDbScale
 70
     0
300
1/4" = 1'-0"
140
0.25
141
12.0
290
     0
  0
SCALE
  5
4C
102
{ACAD_REACTORS
330
42
102
}
330
42
100
AcDbScale
 70
     0
300
3/8" = 1'-0"
140
0.375
141
12.0
290
     0
  0
SCALE
  5
4D
102
{ACAD_REACTORS
330
42
102
}
330
42
100
AcDbScale
 70
     0
300
1/2" = 1'-0"
140
0.5
141
12.0
290
     0
  0
SCALE
  5
4E
102
{ACAD_REACTORS
330
42
102
}
330
42
100
AcDbScale
 70
     0
300
3/4" = 1'-0"
140
0.75
141
12.0
290
     0
  0
SCALE
  5
4F
102
{ACAD_REACTORS
330
42
102
}
330
42
100
AcDbScale
 70
     0
300
1" = 1'-0"
140
1.0
141
12.0
290
     0
  0
SCALE
  5
50
102
{ACAD_REACTORS
330
42
102
}
330
42
100
AcDbScale
 70
     0
300
1-1/2" = 1'-0"
140
1.5
141
12.0
290
     0
  0
SCALE
  5
51
102
{ACAD_REACTORS
330
42
102
}
330
42
100
AcDbScale
 70
     0
300
3" = 1'-0"
140
3.0
141
12.0
290
     0
  0
SCALE
  5
52
102
{ACAD_REACTORS
330
42
102
}
330
42
100
AcDbScale
 70
     0
300
6" = 1'-0"
140
6.0
141
12.0
290
     0
  0
SCALE
  5
53
102
{ACAD_REACTORS
330
42
102
}
330
42
100
AcDbScale
 70
     0
300
1'-0" = 1'-0"
140
12.0
141
12.0
290
     0
  0
ACDBSECTIONVIEWSTYLE
  5
69
102
{ACAD_REACTORS
330
68
102
}
330
68
100
AcDbModelDocViewStyle
 70
     0
  3
Imperial24
290
     1
300
Imperial24
 90
        0
100
AcDbSectionViewStyle
 70
     0
 71
     0
 90
       78
 71
     1
340
55
 62
   256
 40
0.24
340
0
340
0
 62
   256
 40
0.24
300
I, O, Q, S, X, Z
 40
0.48
 90
        3
 40
0.18
 90
        1
 71
     2
340
5D
 90
       25
 62
   256
340
5D
 90
       50
 62
   256
 40
0.24
 40
0.0
 40
0.24
 71
     3
340
55
 62
   256
 40
0.24
 90
        1
 40
0.75
 90
        1
300
%<\AcVar ViewType \f "%tc1">% %<\AcVar ViewSectionStartId>%-%<\AcVar ViewSectionEndId>%\PSCALE %<\AcVar ViewScale \f "%sn">%
 71
     4
 62
   256
 62
   257
300
ANSI31
 40
1.0
 90
        0
290
     0
290
     0
 90
        6
 40
0.0
 40
1.570796326794896
 40
0.2617993877991494
 40
1.308996938995747
 40
-0.2617993877991494
 40
1.832595714594046
  0
TABLESTYLE
  5
65
102
{ACAD_XDICTIONARY
360
98
102
}
102
{ACAD_REACTORS
330
64
102
}
330
64
100
AcDbTableStyle
280
     0
  3
Standard
 70
     0
 71
     0
 40
0.06
 41
0.06
280
     0
281
     0
  7
Standard
140
0.18
170
     2
 62
     0
 63
     7
283
     0
 90
      512
 91
        0
  1

274
    -2
284
     1
 64
     0
275
    -2
285
     1
 65
     0
276
    -2
286
     1
 66
     0
277
    -2
287
     1
 67
     0
278
    -2
288
     1
 68
     0
279
    -2
289
     1
 69
     0
  7
Standard
140
0.25
170
     5
 62
     0
 63
     7
283
     0
 90
      512
 91
        0
  1

274
    -2
284
     1
 64
     0
275
    -2
285
     1
 65
     0
276
    -2
286
     1
 66
     0
277
    -2
287
     1
 67
     0
278
    -2
288
     1
 68
     0
279
    -2
289
     1
 69
     0
  7
Standard
140
0.18
170
     5
 62
     0
 63
     7
283
     0
 90
      512
 91
        0
  1

274
    -2
284
     1
 64
     0
275
    -2
285
     1
 65
     0
276
    -2
286
     1
 66
     0
277
    -2
287
     1
 67
     0
278
    -2
288
     1
 68
     0
279
    -2
289
     1
 69
     0
  0
VISUALSTYLE
  5
2F
102
{ACAD_REACTORS
330
29
102
}
330
29
100
AcDbVisualStyle
  2
2dWireframe
 70
     4
177
     3
291
     0
 70
    58
 90
        0
176
     1
 90
        2
176
     1
 90
        0
176
     1
 90
        0
176
     1
 40
0.6
176
     1
 40
30.0
176
     1
 62
     7
420
 16777215
176
     1
 90
        1
176
     1
 90
        4
176
     1
 62
     7
176
     1
 62
   257
176
     1
 90
        1
176
     1
 90
        1
176
     1
 40
1.0
176
     1
 90
        0
176
     1
 62
   257
176
     1
 40
1.0
176
     1
 90
        1
176
     1
 90
        6
176
     1
 90
        2
176
     1
 62
     7
176
     1
 90
        5
176
     1
 90
        0
176
     1
 90
        0
176
     1
290
     0
176
     1
 90
        1
176
     1
 40
0.0
176
     1
 90
        0
176
     1
290
     1
176
     1
290
     1
176
     1
290
     0
176
     1
290
     0
176
     1
290
     0
176
     1
290
     0
176
     1
290
     0
176
     1
290
     0
176
     1
290
     0
176
     1
 90
       50
176
     1
 40
0.0
176
     1
 40
1.0
176
     1
 90
        0
176
     1
 62
    18
420
        0
176
     1
 90
       50
176
     1
 90
        3
176
     1
 62
     5
420
      255
176
     1
290
     0
176
     1
 90
       50
176
     1
 90
       50
176
     1
 90
       50
176
     1
290
     0
176
     1
 90
       50
176
     1
 62
   256
176
     0
 40
1.0
176
     0
 90
        2
176
     1
  1
strokes_ogs.tif
176
     1
290
     0
176
     1
 40
1.0
176
     1
 40
1.0
176
     1
  0
VISUALSTYLE
  5
2E
102
{ACAD_REACTORS
330
29
102
}
330
29
100
AcDbVisualStyle
  2
Basic
 70
     7
177
     3
291
     1
 70
    58
 90
        1
176
     1
 90
        0
176
     1
 90
        1
176
     1
 90
        0
176
     1
 40
0.6
176
     1
 40
30.0
176
     1
 62
     7
420
 16777215
176
     1
 90
        0
176
     1
 90
        4
176
     1
 62
     7
176
     1
 62
   257
176
     1
 90
        1
176
     1
 90
        1
176
     1
 40
1.0
176
     1
 90
        8
176
     1
 62
     7
176
     1
 40
1.0
176
     1
 90
        1
176
     1
 90
        6
176
     1
 90
        2
176
     1
 62
     7
176
     1
 90
        5
176
     1
 90
        0
176
     1
 90
        0
176
     1
290
     0
176
     1
 90
        1
176
     1
 40
0.0
176
     1
 90
        0
176
     1
290
     0
176
     1
290
     1
176
     1
290
     1
176
     1
290
     0
176
     1
290
     0
176
     1
290
     0
176
     1
290
     0
176
     1
290
     0
176
     1
290
     0
176
     1
 90
       50
176
     1
 40
0.0
176
     1
 40
1.0
176
     1
 90
        0
176
     1
 62
    18
420
        0
176
     1
 90
       50
176
     1
 90
        3
176
     1
 62
     5
420
      255
176
     1
290
     0
176
     1
 90
       50
176
     1
 90
       50
176
     1
 90
       50
176
     1
290
     0
176
     1
 90
       50
176
     1
 62
   256
176
     0
 40
1.0
176
     0
 90
        2
176
     1
  1
strokes_ogs.tif
176
     1
290
     0
176
     1
 40
1.0
176
     1
 40
1.0
176
     1
  0
VISUALSTYLE
  5
35
102
{ACAD_REACTORS
330
29
102
}
330
29
100
AcDbVisualStyle
  2
Brighten
 70
    12
177
     3
291
     1
 70
    58
 90
        2
176
     1
 90
        2
176
     1
 90
        0
176
     1
 90
        0
176
     1
 40
0.6
176
     1
 40
30.0
176
     1
 62
     7
420
 16777215
176
     1
 90
        1
176
     1
 90
        4
176
     1
 62
     7
176
     1
 62
   257
176
     1
 90
        1
176
     1
 90
        1
176
     1
 40
1.0
176
     1
 90
        8
176
     1
 62
     7
176
     1
 40
1.0
176
     1
 90
        1
176
     1
 90
        6
176
     1
 90
        2
176
     1
 62
     7
176
     1
 90
        5
176
     1
 90
        0
176
     1
 90
        0
176
     1
290
     0
176
     1
 90
        1
176
     1
 40
50.0
176
     1
 90
        0
176
     1
290
     0
176
     1
290
     1
176
     1
290
     1
176
     1
290
     0
176
     1
290
     0
176
     1
290
     0
176
     1
290
     0
176
     1
290
     0
176
     1
290
     0
176
     1
 90
       50
176
     1
 40
0.0
176
     1
 40
1.0
176
     1
 90
        0
176
     1
 62
    18
420
        0
176
     1
 90
       50
176
     1
 90
        3
176
     1
 62
     5
420
      255
176
     1
290
     0
176
     1
 90
       50
176
     1
 90
       50
176
     1
 90
       50
176
     1
290
     0
176
     1
 90
       50
176
     1
 62
   256
176
     0
 40
1.0
176
     0
 90
        2
176
     1
  1
strokes_ogs.tif
176
     1
290
     0
176
     1
 40
1.0
176
     1
 40
1.0
176
     1
  0
VISUALSTYLE
  5
39
102
{ACAD_REACTORS
330
29
102
}
330
29
100
AcDbVisualStyle
  2
ColorChange
 70
    16
177
     3
291
     1
 70
    58
 90
        2
176
     1
 90
        2
176
     1
 90
        3
176
     1
 90
        0
176
     1
 40
0.6
176
     1
 40
30.0
176
     1
 62
     8
420
  8421504
176
     1
 90
        1
176
     1
 90
        4
176
     1
 62
     7
176
     1
 62
   257
176
     1
 90
        1
176
     1
 90
        1
176
     1
 40
1.0
176
     1
 90
        8
176
     1
 62
     8
420
  8421504
176
     1
 40
1.0
176
     1
 90
        1
176
     1
 90
        6
176
     1
 90
        2
176
     1
 62
     7
176
     1
 90
        5
176
     1
 90
        0
176
     1
 90
        0
176
     1
290
     0
176
     1
 90
        1
176
     1
 40
0.0
176
     1
 90
        0
176
     1
290
     0
176
     1
290
     1
176
     1
290
     1
176
     1
290
     0
176
     1
290
     0
176
     1
290
     0
176
     1
290
     0
176
     1
290
     0
176
     1
290
     0
176
     1
 90
       50
176
     1
 40
0.0
176
     1
 40
1.0
176
     1
 90
        0
176
     1
 62
    18
420
        0
176
     1
 90
       50
176
     1
 90
        3
176
     1
 62
     5
420
      255
176
     1
290
     0
176
     1
 90
       50
176
     1
 90
       50
176
     1
 90
       50
176
     1
290
     0
176
     1
 90
       50
176
     1
 62
   256
176
     0
 40
1.0
176
     0
 90
        2
176
     1
  1
strokes_ogs.tif
176
     1
290
     0
176
     1
 40
1.0
176
     1
 40
1.0
176
     1
  0
VISUALSTYLE
  5
32
102
{ACAD_REACTORS
330
29
102
}
330
29
100
AcDbVisualStyle
  2
Conceptual
 70
     9
177
     3
291
     0
 70
    58
 90
        3
176
     1
 90
        2
176
     1
 90
        0
176
     1
 90
        0
176
     1
 40
0.6
176
     1
 40
30.0
176
     1
 62
     7
420
 16777215
176
     1
 90
        2
176
     1
 90
        2
176
     1
 62
     7
176
     1
 62
   257
176
     1
 90
        1
176
     1
 90
        1
176
     1
 40
179.0
176
     1
 90
        8
176
     1
 62
     7
176
     1
 40
1.0
176
     1
 90
        1
176
     1
 90
        6
176
     1
 90
        2
176
     1
 62
     7
176
     1
 90
        3
176
     1
 90
        0
176
     1
 90
        0
176
     1
290
     0
176
     1
 90
        1
176
     1
 40
0.0
176
     1
 90
        0
176
     1
290
     0
176
     1
290
     1
176
     1
290
     1
176
     1
290
     0
176
     1
290
     0
176
     1
290
     0
176
     1
290
     0
176
     1
290
     0
176
     1
290
     0
176
     1
 90
       50
176
     1
 40
0.0
176
     1
 40
1.0
176
     1
 90
        0
176
     1
 62
    18
420
        0
176
     1
 90
       50
176
     1
 90
        3
176
     1
 62
     5
420
      255
176
     1
290
     0
176
     1
 90
       50
176
     1
 90
       50
176
     1
 90
       50
176
     1
290
     0
176
     1
 90
       50
176
     1
 62
   256
176
     0
 40
1.0
176
     0
 90
        2
176
     1
  1
strokes_ogs.tif
176
     1
290
     0
176
     1
 40
1.0
176
     1
 40
1.0
176
     1
  0
VISUALSTYLE
  5
34
102
{ACAD_REACTORS
330
29
102
}
330
29
100
AcDbVisualStyle
  2
Dim
 70
    11
177
     3
291
     1
 70
    58
 90
        2
176
     1
 90
        2
176
     1
 90
        0
176
     1
 90
        0
176
     1
 40
0.6
176
     1
 40
30.0
176
     1
 62
     7
420
 16777215
176
     1
 90
        1
176
     1
 90
        4
176
     1
 62
     7
176
     1
 62
   257
176
     1
 90
        1
176
     1
 90
        1
176
     1
 40
1.0
176
     1
 90
        8
176
     1
 62
     7
176
     1
 40
1.0
176
     1
 90
        1
176
     1
 90
        6
176
     1
 90
        2
176
     1
 62
     7
176
     1
 90
        5
176
     1
 90
        0
176
     1
 90
        0
176
     1
290
     0
176
     1
 90
        1
176
     1
 40
-50.0
176
     1
 90
        0
176
     1
290
     0
176
     1
290
     1
176
     1
290
     1
176
     1
290
     0
176
     1
290
     0
176
     1
290
     0
176
     1
290
     0
176
     1
290
     0
176
     1
290
     0
176
     1
 90
       50
176
     1
 40
0.0
176
     1
 40
1.0
176
     1
 90
        0
176
     1
 62
    18
420
        0
176
     1
 90
       50
176
     1
 90
        3
176
     1
 62
     5
420
      255
176
     1
290
     0
176
     1
 90
       50
176
     1
 90
       50
176
     1
 90
       50
176
     1
290
     0
176
     1
 90
       50
176
     1
 62
   256
176
     0
 40
1.0
176
     0
 90
        2
176
     1
  1
strokes_ogs.tif
176
     1
290
     0
176
     1
 40
1.0
176
     1
 40
1.0
176
     1
  0
VISUALSTYLE
  5
41
102
{ACAD_REACTORS
330
29
102
}
330
29
100
AcDbVisualStyle
  2
EdgeColorOff
 70
    22
177
     3
291
     1
 70
    58
 90
        2
176
     0
 90
        2
176
     0
 90
        0
176
     0
 90
        0
176
     0
 40
0.6
176
     0
 40
30.0
176
     0
 62
     7
420
 16777215
176
     0
 90
        1
176
     0
 90
        4
176
     0
 62
     7
176
     0
 62
   257
176
     0
 90
        1
176
     0
 90
        1
176
     0
 40
1.0
176
     0
 90
        8
176
     2
 62
     7
176
     0
 40
1.0
176
     0
 90
        1
176
     0
 90
        6
176
     0
 90
        2
176
     0
 62
     7
176
     0
 90
        5
176
     0
 90
        0
176
     0
 90
        0
176
     0
290
     0
176
     0
 90
        1
176
     0
 40
0.0
176
     0
 90
        0
176
     0
290
     0
176
     0
290
     1
176
     0
290
     1
176
     0
290
     0
176
     0
290
     0
176
     0
290
     0
176
     0
290
     0
176
     0
290
     0
176
     0
290
     0
176
     0
 90
       50
176
     0
 40
0.0
176
     0
 40
1.0
176
     0
 90
        0
176
     0
 62
    18
420
        0
176
     0
 90
       50
176
     0
 90
        3
176
     0
 62
     5
420
      255
176
     0
290
     0
176
     0
 90
       50
176
     0
 90
       50
176
     0
 90
       50
176
     0
290
     0
176
     0
 90
       50
176
     0
 62
   256
176
     0
 40
1.0
176
     0
 90
        2
176
     0
  1
strokes_ogs.tif
176
     0
290
     0
176
     0
 40
1.0
176
     0
 40
1.0
176
     0
  0
VISUALSTYLE
  5
38
102
{ACAD_REACTORS
330
29
102
}
330
29
100
AcDbVisualStyle
  2
Facepattern
 70
    15
177
     3
291
     1
 70
    58
 90
        2
176
     1
 90
        2
176
     1
 90
        0
176
     1
 90
        0
176
     1
 40
0.6
176
     1
 40
30.0
176
     1
 62
     7
420
 16777215
176
     1
 90
        1
176
     1
 90
        4
176
     1
 62
     7
176
     1
 62
   257
176
     1
 90
        1
176
     1
 90
        1
176
     1
 40
1.0
176
     1
 90
        8
176
     1
 62
     7
176
     1
 40
1.0
176
     1
 90
        1
176
     1
 90
        6
176
     1
 90
        2
176
     1
 62
     7
176
     1
 90
        5
176
     1
 90
        0
176
     1
 90
        0
176
     1
290
     0
176
     1
 90
        1
176
     1
 40
0.0
176
     1
 90
        0
176
     1
290
     0
176
     1
290
     1
176
     1
290
     1
176
     1
290
     0
176
     1
290
     0
176
     1
290
     0
176
     1
290
     0
176
     1
290
     0
176
     1
290
     0
176
     1
 90
       50
176
     1
 40
0.0
176
     1
 40
1.0
176
     1
 90
        0
176
     1
 62
    18
420
        0
176
     1
 90
       50
176
     1
 90
        3
176
     1
 62
     5
420
      255
176
     1
290
     0
176
     1
 90
       50
176
     1
 90
       50
176
     1
 90
       50
176
     1
290
     0
176
     1
 90
       50
176
     1
 62
   256
176
     0
 40
1.0
176
     0
 90
        2
176
     1
  1
strokes_ogs.tif
176
     1
290
     0
176
     1
 40
1.0
176
     1
 40
1.0
176
     1
  0
VISUALSTYLE
  5
2A
102
{ACAD_REACTORS
330
29
102
}
330
29
100
AcDbVisualStyle
  2
Flat
 70
     0
177
     3
291
     1
 70
    58
 90
        2
176
     1
 90
        1
176
     1
 90
        1
176
     1
 90
        2
176
     1
 40
0.6
176
     1
 40
30.0
176
     1
 62
     7
420
 16777215
176
     1
 90
        0
176
     1
 90
        0
176
     1
 62
     7
176
     1
 62
   257
176
     1
 90
        1
176
     1
 90
        1
176
     1
 40
1.0
176
     1
 90
        8
176
     1
 62
     7
176
     1
 40
1.0
176
     1
 90
        1
176
     1
 90
        6
176
     1
 90
        2
176
     1
 62
     7
176
     1
 90
        5
176
     1
 90
        0
176
     1
 90
        0
176
     1
290
     0
176
     1
 90
       13
176
     1
 40
0.0
176
     1
 90
        0
176
     1
290
     0
176
     1
290
     1
176
     1
290
     1
176
     1
290
     0
176
     1
290
     0
176
     1
290
     0
176
     1
290
     0
176
     1
290
     0
176
     1
290
     0
176
     1
 90
       50
176
     1
 40
0.0
176
     1
 40
1.0
176
     1
 90
        0
176
     1
 62
    18
420
        0
176
     1
 90
       50
176
     1
 90
        3
176
     1
 62
     5
420
      255
176
     1
290
     0
176
     1
 90
       50
176
     1
 90
       50
176
     1
 90
       50
176
     1
290
     0
176
     1
 90
       50
176
     1
 62
   256
176
     0
 40
1.0
176
     0
 90
        2
176
     1
  1
strokes_ogs.tif
176
     1
290
     0
176
     1
 40
1.0
176
     1
 40
1.0
176
     1
  0
VISUALSTYLE
  5
2B
102
{ACAD_REACTORS
330
29
102
}
330
29
100
AcDbVisualStyle
  2
FlatWithEdges
 70
     1
177
     3
291
     1
 70
    58
 90
        2
176
     1
 90
        1
176
     1
 90
        1
176
     1
 90
        2
176
     1
 40
0.6
176
     1
 40
30.0
176
     1
 62
     7
420
 16777215
176
     1
 90
        1
176
     1
 90
        0
176
     1
 62
     7
176
     1
 62
   257
176
     1
 90
        1
176
     1
 90
        1
176
     1
 40
1.0
176
     1
 90
        0
176
     1
 62
   257
176
     1
 40
1.0
176
     1
 90
        1
176
     1
 90
        6
176
     1
 90
        2
176
     1
 62
     7
176
     1
 90
        5
176
     1
 90
        0
176
     1
 90
        0
176
     1
290
     0
176
     1
 90
       13
176
     1
 40
0.0
176
     1
 90
        0
176
     1
290
     0
176
     1
290
     1
176
     1
290
     1
176
     1
290
     0
176
     1
290
     0
176
     1
290
     0
176
     1
290
     0
176
     1
290
     0
176
     1
290
     0
176
     1
 90
       50
176
     1
 40
0.0
176
     1
 40
1.0
176
     1
 90
        0
176
     1
 62
    18
420
        0
176
     1
 90
       50
176
     1
 90
        3
176
     1
 62
     5
420
      255
176
     1
290
     0
176
     1
 90
       50
176
     1
 90
       50
176
     1
 90
       50
176
     1
290
     0
176
     1
 90
       50
176
     1
 62
   256
176
     0
 40
1.0
176
     0
 90
        2
176
     1
  1
strokes_ogs.tif
176
     1
290
     0
176
     1
 40
1.0
176
     1
 40
1.0
176
     1
  0
VISUALSTYLE
  5
2C
102
{ACAD_REACTORS
330
29
102
}
330
29
100
AcDbVisualStyle
  2
Gouraud
 70
     2
177
     3
291
     1
 70
    58
 90
        2
176
     1
 90
        2
176
     1
 90
        1
176
     1
 90
        2
176
     1
 40
0.6
176
     1
 40
30.0
176
     1
 62
     7
420
 16777215
176
     1
 90
        0
176
     1
 90
        0
176
     1
 62
     7
176
     1
 62
   257
176
     1
 90
        1
176
     1
 90
        1
176
     1
 40
1.0
176
     1
 90
        0
176
     1
 62
     7
176
     1
 40
1.0
176
     1
 90
        1
176
     1
 90
        6
176
     1
 90
        2
176
     1
 62
     7
176
     1
 90
        5
176
     1
 90
        0
176
     1
 90
        0
176
     1
290
     0
176
     1
 90
       13
176
     1
 40
0.0
176
     1
 90
        0
176
     1
290
     0
176
     1
290
     1
176
     1
290
     1
176
     1
290
     0
176
     1
290
     0
176
     1
290
     0
176
     1
290
     0
176
     1
290
     0
176
     1
290
     0
176
     1
 90
       50
176
     1
 40
0.0
176
     1
 40
1.0
176
     1
 90
        0
176
     1
 62
    18
420
        0
176
     1
 90
       50
176
     1
 90
        3
176
     1
 62
     5
420
      255
176
     1
290
     0
176
     1
 90
       50
176
     1
 90
       50
176
     1
 90
       50
176
     1
290
     0
176
     1
 90
       50
176
     1
 62
   256
176
     0
 40
1.0
176
     0
 90
        2
176
     1
  1
strokes_ogs.tif
176
     1
290
     0
176
     1
 40
1.0
176
     1
 40
1.0
176
     1
  0
VISUALSTYLE
  5
2D
102
{ACAD_REACTORS
330
29
102
}
330
29
100
AcDbVisualStyle
  2
GouraudWithEdges
 70
     3
177
     3
291
     1
 70
    58
 90
        2
176
     1
 90
        2
176
     1
 90
        1
176
     1
 90
        2
176
     1
 40
0.6
176
     1
 40
30.0
176
     1
 62
     7
420
 16777215
176
     1
 90
        1
176
     1
 90
        0
176
     1
 62
     7
176
     1
 62
   257
176
     1
 90
        1
176
     1
 90
        1
176
     1
 40
1.0
176
     1
 90
        0
176
     1
 62
   257
176
     1
 40
1.0
176
     1
 90
        1
176
     1
 90
        6
176
     1
 90
        2
176
     1
 62
     7
176
     1
 90
        5
176
     1
 90
        0
176
     1
 90
        0
176
     1
290
     0
176
     1
 90
       13
176
     1
 40
0.0
176
     1
 90
        0
176
     1
290
     0
176
     1
290
     1
176
     1
290
     1
176
     1
290
     0
176
     1
290
     0
176
     1
290
     0
176
     1
290
     0
176
     1
290
     0
176
     1
290
     0
176
     1
 90
       50
176
     1
 40
0.0
176
     1
 40
1.0
176
     1
 90
        0
176
     1
 62
    18
420
        0
176
     1
 90
       50
176
     1
 90
        3
176
     1
 62
     5
420
      255
176
     1
290
     0
176
     1
 90
       50
176
     1
 90
       50
176
     1
 90
       50
176
     1
290
     0
176
     1
 90
       50
176
     1
 62
   256
176
     0
 40
1.0
176
     0
 90
        2
176
     1
  1
strokes_ogs.tif
176
     1
290
     0
176
     1
 40
1.0
176
     1
 40
1.0
176
     1
  0
VISUALSTYLE
  5
31
102
{ACAD_REACTORS
330
29
102
}
330
29
100
AcDbVisualStyle
  2
Hidden
 70
     6
177
     3
291
     0
 70
    58
 90
        1
176
     1
 90
        2
176
     1
 90
        2
176
     1
 90
        0
176
     1
 40
0.6
176
     1
 40
30.0
176
     1
 62
     7
420
 16777215
176
     1
 90
        2
176
     1
 90
        2
176
     1
 62
     7
176
     1
 62
   257
176
     1
 90
        2
176
     1
 90
        1
176
     1
 40
40.0
176
     1
 90
        0
176
     1
 62
   257
176
     1
 40
1.0
176
     1
 90
        1
176
     1
 90
        6
176
     1
 90
        2
176
     1
 62
     7
176
     1
 90
        3
176
     1
 90
        0
176
     1
 90
        0
176
     1
290
     0
176
     1
 90
        1
176
     1
 40
0.0
176
     1
 90
        0
176
     1
290
     0
176
     1
290
     1
176
     1
290
     1
176
     1
290
     0
176
     1
290
     0
176
     1
290
     0
176
     1
290
     0
176
     1
290
     0
176
     1
290
     0
176
     1
 90
       50
176
     1
 40
0.0
176
     1
 40
1.0
176
     1
 90
        0
176
     1
 62
    18
420
        0
176
     1
 90
       50
176
     1
 90
        3
176
     1
 62
     5
420
      255
176
     1
290
     0
176
     1
 90
       50
176
     1
 90
       50
176
     1
 90
       50
176
     1
290
     0
176
     1
 90
       50
176
     1
 62
   256
176
     0
 40
1.0
176
     0
 90
        2
176
     1
  1
strokes_ogs.tif
176
     1
290
     0
176
     1
 40
1.0
176
     1
 40
1.0
176
     1
  0
VISUALSTYLE
  5
3F
102
{ACAD_REACTORS
330
29
102
}
330
29
100
AcDbVisualStyle
  2
JitterOff
 70
    20
177
     3
291
     1
 70
    58
 90
        2
176
     0
 90
        2
176
     0
 90
        0
176
     0
 90
        0
176
     0
 40
0.6
176
     0
 40
30.0
176
     0
 62
     7
420
 16777215
176
     0
 90
        1
176
     0
 90
        4
176
     0
 62
     7
176
     0
 62
   257
176
     0
 90
        1
176
     0
 90
        1
176
     0
 40
1.0
176
     0
 90
       10
176
     2
 62
     7
176
     0
 40
1.0
176
     0
 90
        1
176
     0
 90
        6
176
     0
 90
        2
176
     0
 62
     7
176
     0
 90
        5
176
     0
 90
        0
176
     0
 90
        0
176
     0
290
     0
176
     0
 90
        1
176
     0
 40
0.0
176
     0
 90
        0
176
     0
290
     0
176
     0
290
     1
176
     0
290
     1
176
     0
290
     0
176
     0
290
     0
176
     0
290
     0
176
     0
290
     0
176
     0
290
     0
176
     0
290
     0
176
     0
 90
       50
176
     0
 40
0.0
176
     0
 40
1.0
176
     0
 90
        0
176
     0
 62
    18
420
        0
176
     0
 90
       50
176
     0
 90
        3
176
     0
 62
     5
420
      255
176
     0
290
     0
176
     0
 90
       50
176
     0
 90
       50
176
     0
 90
       50
176
     0
290
     0
176
     0
 90
       50
176
     0
 62
   256
176
     0
 40
1.0
176
     0
 90
        2
176
     0
  1
strokes_ogs.tif
176
     0
290
     0
176
     0
 40
1.0
176
     0
 40
1.0
176
     0
  0
VISUALSTYLE
  5
37
102
{ACAD_REACTORS
330
29
102
}
330
29
100
AcDbVisualStyle
  2
Linepattern
 70
    14
177
     3
291
     1
 70
    58
 90
        2
176
     1
 90
        2
176
     1
 90
        0
176
     1
 90
        0
176
     1
 40
0.6
176
     1
 40
30.0
176
     1
 62
     7
420
 16777215
176
     1
 90
        1
176
     1
 90
        4
176
     1
 62
     7
176
     1
 62
   257
176
     1
 90
        7
176
     1
 90
        7
176
     1
 40
1.0
176
     1
 90
        8
176
     1
 62
     7
176
     1
 40
1.0
176
     1
 90
        1
176
     1
 90
        6
176
     1
 90
        2
176
     1
 62
     7
176
     1
 90
        5
176
     1
 90
        0
176
     1
 90
        0
176
     1
290
     0
176
     1
 90
        1
176
     1
 40
0.0
176
     1
 90
        0
176
     1
290
     0
176
     1
290
     1
176
     1
290
     1
176
     1
290
     0
176
     1
290
     0
176
     1
290
     0
176
     1
290
     0
176
     1
290
     0
176
     1
290
     0
176
     1
 90
       50
176
     1
 40
0.0
176
     1
 40
1.0
176
     1
 90
        0
176
     1
 62
    18
420
        0
176
     1
 90
       50
176
     1
 90
        3
176
     1
 62
     5
420
      255
176
     1
290
     0
176
     1
 90
       50
176
     1
 90
       50
176
     1
 90
       50
176
     1
290
     0
176
     1
 90
       50
176
     1
 62
   256
176
     0
 40
1.0
176
     0
 90
        2
176
     1
  1
strokes_ogs.tif
176
     1
290
     0
176
     1
 40
1.0
176
     1
 40
1.0
176
     1
  0
VISUALSTYLE
  5
40
102
{ACAD_REACTORS
330
29
102
}
330
29
100
AcDbVisualStyle
  2
OverhangOff
 70
    21
177
     3
291
     1
 70
    58
 90
        2
176
     0
 90
        2
176
     0
 90
        0
176
     0
 90
        0
176
     0
 40
0.6
176
     0
 40
30.0
176
     0
 62
     7
420
 16777215
176
     0
 90
        1
176
     0
 90
        4
176
     0
 62
     7
176
     0
 62
   257
176
     0
 90
        1
176
     0
 90
        1
176
     0
 40
1.0
176
     0
 90
        9
176
     2
 62
     7
176
     0
 40
1.0
176
     0
 90
        1
176
     0
 90
        6
176
     0
 90
        2
176
     0
 62
     7
176
     0
 90
        5
176
     0
 90
        0
176
     0
 90
        0
176
     0
290
     0
176
     0
 90
        1
176
     0
 40
0.0
176
     0
 90
        0
176
     0
290
     0
176
     0
290
     1
176
     0
290
     1
176
     0
290
     0
176
     0
290
     0
176
     0
290
     0
176
     0
290
     0
176
     0
290
     0
176
     0
290
     0
176
     0
 90
       50
176
     0
 40
0.0
176
     0
 40
1.0
176
     0
 90
        0
176
     0
 62
    18
420
        0
176
     0
 90
       50
176
     0
 90
        3
176
     0
 62
     5
420
      255
176
     0
290
     0
176
     0
 90
       50
176
     0
 90
       50
176
     0
 90
       50
176
     0
290
     0
176
     0
 90
       50
176
     0
 62
   256
176
     0
 40
1.0
176
     0
 90
        2
176
     0
  1
strokes_ogs.tif
176
     0
290
     0
176
     0
 40
1.0
176
     0
 40
1.0
176
     0
  0
VISUALSTYLE
  5
33
102
{ACAD_REACTORS
330
29
102
}
330
29
100
AcDbVisualStyle
  2
Realistic
 70
     8
177
     3
291
     0
 70
    58
 90
        2
176
     1
 90
        3
176
     1
 90
        0
176
     1
 90
        2
176
     1
 40
0.6
176
     1
 40
30.0
176
     1
 62
     7
420
 16777215
176
     1
 90
        0
176
     1
 90
        0
176
     1
 62
     7
176
     1
 62
   257
176
     1
 90
        1
176
     1
 90
        1
176
     1
 40
1.0
176
     1
 90
        8
176
     1
 62
   257
176
     1
 40
1.0
176
     1
 90
        1
176
     1
 90
        6
176
     1
 90
        2
176
     1
 62
     7
176
     1
 90
        3
176
     1
 90
        0
176
     1
 90
        0
176
     1
290
     0
176
     1
 90
       13
176
     1
 40
0.0
176
     1
 90
        0
176
     1
290
     0
176
     1
290
     1
176
     1
290
     1
176
     1
290
     0
176
     1
290
     0
176
     1
290
     0
176
     1
290
     0
176
     1
290
     0
176
     1
290
     0
176
     1
 90
       50
176
     1
 40
0.0
176
     1
 40
1.0
176
     1
 90
        0
176
     1
 62
    18
420
        0
176
     1
 90
       50
176
     1
 90
        3
176
     1
 62
     5
420
      255
176
     1
290
     0
176
     1
 90
       50
176
     1
 90
       50
176
     1
 90
       50
176
     1
290
     0
176
     1
 90
       50
176
     1
 62
   256
176
     0
 40
1.0
176
     0
 90
        2
176
     1
  1
strokes_ogs.tif
176
     1
290
     0
176
     1
 40
1.0
176
     1
 40
1.0
176
     1
  0
VISUALSTYLE
  5
3E
102
{ACAD_REACTORS
330
29
102
}
330
29
100
AcDbVisualStyle
  2
Shaded
 70
    27
177
     3
291
     0
 70
    58
 90
        2
176
     1
 90
        2
176
     1
 90
        1
176
     1
 90
        2
176
     1
 40
0.6
176
     1
 40
30.0
176
     1
 62
     7
420
 16777215
176
     1
 90
        0
176
     1
 90
        4
176
     1
 62
     7
176
     1
 62
   257
176
     1
 90
        1
176
     1
 90
        1
176
     1
 40
1.0
176
     1
 90
        8
176
     1
 62
   257
176
     1
 40
1.0
176
     1
 90
        1
176
     1
 90
        6
176
     1
 90
        2
176
     1
 62
     8
420
  7895160
176
     1
 90
        3
176
     1
 90
        0
176
     1
 90
        0
176
     1
290
     0
176
     1
 90
        5
176
     1
 40
0.0
176
     1
 90
        0
176
     1
290
     0
176
     1
290
     1
176
     1
290
     1
176
     1
290
     0
176
     1
290
     0
176
     1
290
     0
176
     1
290
     0
176
     1
290
     0
176
     1
290
     0
176
     1
 90
       50
176
     1
 40
0.0
176
     1
 40
1.0
176
     1
 90
        0
176
     1
 62
    18
420
        0
176
     1
 90
       50
176
     1
 90
        3
176
     1
 62
     5
420
      255
176
     1
290
     0
176
     1
 90
       50
176
     1
 90
       50
176
     1
 90
       50
176
     1
290
     0
176
     1
 90
       50
176
     1
 62
   256
176
     0
 40
1.0
176
     0
 90
        2
176
     1
  1
strokes_ogs.tif
176
     1
290
     0
176
     1
 40
1.0
176
     1
 40
1.0
176
     1
  0
VISUALSTYLE
  5
3D
102
{ACAD_REACTORS
330
29
102
}
330
29
100
AcDbVisualStyle
  2
Shaded with edges
 70
    26
177
     3
291
     0
 70
    58
 90
        2
176
     1
 90
        2
176
     1
 90
        1
176
     1
 90
        2
176
     1
 40
0.6
176
     1
 40
30.0
176
     1
 62
     7
420
 16777215
176
     1
 90
        1
176
     1
 90
        2
176
     1
 62
     7
176
     1
 62
   257
176
     1
 90
        2
176
     1
 90
        1
176
     1
 40
1.0
176
     1
 90
        8
176
     1
 62
   257
176
     1
 40
1.0
176
     1
 90
        1
176
     1
 90
        6
176
     1
 90
        2
176
     1
 62
     7
176
     1
 90
        3
176
     1
 90
        0
176
     1
 90
        0
176
     1
290
     0
176
     1
 90
        5
176
     1
 40
0.0
176
     1
 90
        0
176
     1
290
     0
176
     1
290
     1
176
     1
290
     1
176
     1
290
     0
176
     1
290
     0
176
     1
290
     0
176
     1
290
     0
176
     1
290
     0
176
     1
290
     0
176
     1
 90
       50
176
     1
 40
0.0
176
     1
 40
1.0
176
     1
 90
        0
176
     1
 62
    18
420
        0
176
     1
 90
       50
176
     1
 90
        3
176
     1
 62
     5
420
      255
176
     1
290
     0
176
     1
 90
       50
176
     1
 90
       50
176
     1
 90
       50
176
     1
290
     0
176
     1
 90
       50
176
     1
 62
   256
176
     0
 40
1.0
176
     0
 90
        2
176
     1
  1
strokes_ogs.tif
176
     1
290
     0
176
     1
 40
1.0
176
     1
 40
1.0
176
     1
  0
VISUALSTYLE
  5
3A
102
{ACAD_REACTORS
330
29
102
}
330
29
100
AcDbVisualStyle
  2
Shades of Gray
 70
    23
177
     3
291
     0
 70
    58
 90
        2
176
     1
 90
        2
176
     1
 90
        3
176
     1
 90
        0
176
     1
 40
0.6
176
     1
 40
30.0
176
     1
 62
     7
420
 16777215
176
     1
 90
        2
176
     1
 90
        2
176
     1
 62
     7
176
     1
 62
     7
176
     1
 90
        1
176
     1
 90
        1
176
     1
 40
40.0
176
     1
 90
        8
176
     1
 62
     7
176
     1
 40
1.0
176
     1
 90
        1
176
     1
 90
        6
176
     1
 90
        2
176
     1
 62
     7
176
     1
 90
        3
176
     1
 90
        0
176
     1
 90
        0
176
     1
290
     0
176
     1
 90
        1
176
     1
 40
0.0
176
     1
 90
        0
176
     1
290
     0
176
     1
290
     1
176
     1
290
     1
176
     1
290
     0
176
     1
290
     0
176
     1
290
     0
176
     1
290
     0
176
     1
290
     0
176
     1
290
     0
176
     1
 90
       50
176
     1
 40
0.0
176
     1
 40
1.0
176
     1
 90
        0
176
     1
 62
    18
420
        0
176
     1
 90
       50
176
     1
 90
        3
176
     1
 62
     5
420
      255
176
     1
290
     0
176
     1
 90
       50
176
     1
 90
       50
176
     1
 90
       50
176
     1
290
     0
176
     1
 90
       50
176
     1
 62
   256
176
     0
 40
1.0
176
     0
 90
        2
176
     1
  1
strokes_ogs.tif
176
     1
290
     0
176
     1
 40
1.0
176
     1
 40
1.0
176
     1
  0
VISUALSTYLE
  5
3B
102
{ACAD_REACTORS
330
29
102
}
330
29
100
AcDbVisualStyle
  2
Sketchy
 70
    24
177
     3
291
     0
 70
    58
 90
        1
176
     1
 90
        2
176
     1
 90
        2
176
     1
 90
        0
176
     1
 40
0.6
176
     1
 40
30.0
176
     1
 62
     7
420
 16777215
176
     1
 90
        2
176
     1
 90
        2
176
     1
 62
     7
176
     1
 62
     7
176
     1
 90
        1
176
     1
 90
        1
176
     1
 40
40.0
176
     1
 90
       11
176
     1
 62
     7
176
     1
 40
1.0
176
     1
 90
        1
176
     1
 90
        6
176
     1
 90
        2
176
     1
 62
     7
176
     1
 90
        6
176
     1
 90
        0
176
     1
 90
        0
176
     1
290
     0
176
     1
 90
        1
176
     1
 40
0.0
176
     1
 90
        0
176
     1
290
     0
176
     1
290
     1
176
     1
290
     1
176
     1
290
     0
176
     1
290
     0
176
     1
290
     0
176
     1
290
     0
176
     1
290
     0
176
     1
290
     0
176
     1
 90
       50
176
     1
 40
0.0
176
     1
 40
1.0
176
     1
 90
        0
176
     1
 62
    18
420
        0
176
     1
 90
       50
176
     1
 90
        3
176
     1
 62
     5
420
      255
176
     1
290
     0
176
     1
 90
       50
176
     1
 90
       50
176
     1
 90
       50
176
     1
290
     0
176
     1
 90
       50
176
     1
 62
   256
176
     0
 40
1.0
176
     0
 90
        2
176
     1
  1
strokes_ogs.tif
176
     1
290
     0
176
     1
 40
1.0
176
     1
 40
1.0
176
     1
  0
VISUALSTYLE
  5
36
102
{ACAD_REACTORS
330
29
102
}
330
29
100
AcDbVisualStyle
  2
Thicken
 70
    13
177
     3
291
     1
 70
    58
 90
        2
176
     1
 90
        2
176
     1
 90
        0
176
     1
 90
        0
176
     1
 40
0.6
176
     1
 40
30.0
176
     1
 62
     7
420
 16777215
176
     1
 90
        1
176
     1
 90
        4
176
     1
 62
     7
176
     1
 62
   257
176
     1
 90
        1
176
     1
 90
        1
176
     1
 40
1.0
176
     1
 90
       12
176
     1
 62
     7
176
     1
 40
1.0
176
     1
 90
        1
176
     1
 90
        6
176
     1
 90
        2
176
     1
 62
     7
176
     1
 90
        5
176
     1
 90
        0
176
     1
 90
        0
176
     1
290
     0
176
     1
 90
        1
176
     1
 40
0.0
176
     1
 90
        0
176
     1
290
     0
176
     1
290
     1
176
     1
290
     1
176
     1
290
     0
176
     1
290
     0
176
     1
290
     0
176
     1
290
     0
176
     1
290
     0
176
     1
290
     0
176
     1
 90
       50
176
     1
 40
0.0
176
     1
 40
1.0
176
     1
 90
        0
176
     1
 62
    18
420
        0
176
     1
 90
       50
176
     1
 90
        3
176
     1
 62
     5
420
      255
176
     1
290
     0
176
     1
 90
       50
176
     1
 90
       50
176
     1
 90
       50
176
     1
290
     0
176
     1
 90
       50
176
     1
 62
   256
176
     0
 40
1.0
176
     0
 90
        2
176
     1
  1
strokes_ogs.tif
176
     1
290
     0
176
     1
 40
1.0
176
     1
 40
1.0
176
     1
  0
VISUALSTYLE
  5
30
102
{ACAD_REACTORS
330
29
102
}
330
29
100
AcDbVisualStyle
  2
Wireframe
 70
     5
177
     3
291
     0
 70
    58
 90
        0
176
     1
 90
        2
176
     1
 90
        0
176
     1
 90
        0
176
     1
 40
0.6
176
     1
 40
30.0
176
     1
 62
     7
420
 16777215
176
     1
 90
        1
176
     1
 90
        4
176
     1
 62
     7
176
     1
 62
   257
176
     1
 90
        1
176
     1
 90
        1
176
     1
 40
1.0
176
     1
 90
        0
176
     1
 62
   257
176
     1
 40
1.0
176
     1
 90
        1
176
     1
 90
        6
176
     1
 90
        2
176
     1
 62
     7
176
     1
 90
        3
176
     1
 90
        0
176
     1
 90
        0
176
     1
290
     0
176
     1
 90
        1
176
     1
 40
0.0
176
     1
 90
        0
176
     1
290
     0
176
     1
290
     1
176
     1
290
     1
176
     1
290
     0
176
     1
290
     0
176
     1
290
     0
176
     1
290
     0
176
     1
290
     0
176
     1
290
     0
176
     1
 90
       50
176
     1
 40
0.0
176
     1
 40
1.0
176
     1
 90
        0
176
     1
 62
    18
420
        0
176
     1
 90
       50
176
     1
 90
        3
176
     1
 62
     5
420
      255
176
     1
290
     0
176
     1
 90
       50
176
     1
 90
       50
176
     1
 90
       50
176
     1
290
     0
176
     1
 90
       50
176
     1
 62
   256
176
     0
 40
1.0
176
     0
 90
        2
176
     1
  1
strokes_ogs.tif
176
     1
290
     0
176
     1
 40
1.0
176
     1
 40
1.0
176
     1
  0
VISUALSTYLE
  5
3C
102
{ACAD_REACTORS
330
29
102
}
330
29
100
AcDbVisualStyle
  2
X-Ray
 70
    25
177
     3
291
     0
 70
    58
 90
        2
176
     1
 90
        2
176
     1
 90
        1
176
     1
 90
        1
176
     1
 40
0.5
176
     1
 40
30.0
176
     1
 62
     7
420
 16777215
176
     1
 90
        1
176
     1
 90
        0
176
     1
 62
     7
176
     1
 62
   257
176
     1
 90
        1
176
     1
 90
        1
176
     1
 40
1.0
176
     1
 90
        8
176
     1
 62
     7
176
     1
 40
1.0
176
     1
 90
        1
176
     1
 90
        6
176
     1
 90
        2
176
     1
 62
     7
176
     1
 90
        3
176
     1
 90
        0
176
     1
 90
        0
176
     1
290
     0
176
     1
 90
       13
176
     1
 40
0.0
176
     1
 90
        0
176
     1
290
     0
176
     1
290
     1
176
     1
290
     1
176
     1
290
     0
176
     1
290
     0
176
     1
290
     0
176
     1
290
     0
176
     1
290
     0
176
     1
290
     0
176
     1
 90
       50
176
     1
 40
0.0
176
     1
 40
1.0
176
     1
 90
        0
176
     1
 62
    18
420
        0
176
     1
 90
       50
176
     1
 90
        3
176
     1
 62
     5
420
      255
176
     1
290
     0
176
     1
 90
       50
176
     1
 90
       50
176
     1
 90
       50
176
     1
290
     0
176
     1
 90
       50
176
     1
 62
   256
176
     0
 40
1.0
176
     0
 90
        2
176
     1
  1
strokes_ogs.tif
176
     1
290
     0
176
     1
 40
1.0
176
     1
 40
1.0
176
     1
  0
DICTIONARYVAR
  5
97
102
{ACAD_REACTORS
330
92
102
}
330
92
100
DictionaryVariables
280
     0
  1
1:1
  0
DICTIONARYVAR
  5
94
102
{ACAD_REACTORS
330
92
102
}
330
92
100
DictionaryVariables
280
     0
  1
STANDARD
  0
DICTIONARYVAR
  5
93
102
{ACAD_REACTORS
330
92
102
}
330
92
100
DictionaryVariables
280
     0
  1
STANDARD
  0
DICTIONARYVAR
  5
95
102
{ACAD_REACTORS
330
92
102
}
330
92
100
DictionaryVariables
280
     0
  1
Imperial24
  0
DICTIONARYVAR
  5
96
102
{ACAD_REACTORS
330
92
102
}
330
92
100
DictionaryVariables
280
     0
  1
Imperial24
  0
DICTIONARY
  5
1A
330
19
100
AcDbDictionary
280
     1
281
     1
  3
BUMPTILE
360
1C
  3
DIFFUSETILE
360
1B
  3
OPACITYTILE
360
1F
  3
REFLECTIONTILE
360
1E
  3
REFRACTIONTILE
360
20
  3
SPECULARTILE
360
1D
  0
DICTIONARY
  5
12
330
11
100
AcDbDictionary
280
     1
281
     1
  3
BUMPTILE
360
14
  3
DIFFUSETILE
360
13
  3
OPACITYTILE
360
17
  3
REFLECTIONTILE
360
16
  3
REFRACTIONTILE
360
18
  3
SPECULARTILE
360
15
  0
DICTIONARY
  5
22
330
21
100
AcDbDictionary
280
     1
281
     1
  3
BUMPTILE
360
24
  3
DIFFUSETILE
360
23
  3
OPACITYTILE
360
27
  3
REFLECTIONTILE
360
26
  3
REFRACTIONTILE
360
28
  3
SPECULARTILE
360
25
  0
DICTIONARY
  5
98
330
65
100
AcDbDictionary
280
     1
281
     1
  3
ACAD_ROUNDTRIP_2008_TABLESTYLE_CELLSTYLEMAP
360
99
  0
XRECORD
  5
1C
102
{ACAD_REACTORS
330
1A
102
}
330
1A
100
AcDbXrecord
280
     1
270
     1
271
     1
  0
XRECORD
  5
1B
102
{ACAD_REACTORS
330
1A
102
}
330
1A
100
AcDbXrecord
280
     1
270
     1
271
     1
  0
XRECORD
  5
1F
102
{ACAD_REACTORS
330
1A
102
}
330
1A
100
AcDbXrecord
280
     1
270
     1
271
     1
  0
XRECORD
  5
1E
102
{ACAD_REACTORS
330
1A
102
}
330
1A
100
AcDbXrecord
280
     1
270
     1
271
     1
  0
XRECORD
  5
20
102
{ACAD_REACTORS
330
1A
102
}
330
1A
100
AcDbXrecord
280
     1
270
     1
271
     1
  0
XRECORD
  5
1D
102
{ACAD_REACTORS
330
1A
102
}
330
1A
100
AcDbXrecord
280
     1
270
     1
271
     1
  0
XRECORD
  5
14
102
{ACAD_REACTORS
330
12
102
}
330
12
100
AcDbXrecord
280
     1
270
     1
271
     1
  0
XRECORD
  5
13
102
{ACAD_REACTORS
330
12
102
}
330
12
100
AcDbXrecord
280
     1
270
     1
271
     1
  0
XRECORD
  5
17
102
{ACAD_REACTORS
330
12
102
}
330
12
100
AcDbXrecord
280
     1
270
     1
271
     1
  0
XRECORD
  5
16
102
{ACAD_REACTORS
330
12
102
}
330
12
100
AcDbXrecord
280
     1
270
     1
271
     1
  0
XRECORD
  5
18
102
{ACAD_REACTORS
330
12
102
}
330
12
100
AcDbXrecord
280
     1
270
     1
271
     1
  0
XRECORD
  5
15
102
{ACAD_REACTORS
330
12
102
}
330
12
100
AcDbXrecord
280
     1
270
     1
271
     1
  0
XRECORD
  5
24
102
{ACAD_REACTORS
330
22
102
}
330
22
100
AcDbXrecord
280
     1
270
     1
271
     1
  0
XRECORD
  5
23
102
{ACAD_REACTORS
330
22
102
}
330
22
100
AcDbXrecord
280
     1
270
     1
271
     1
  0
XRECORD
  5
27
102
{ACAD_REACTORS
330
22
102
}
330
22
100
AcDbXrecord
280
     1
270
     1
271
     1
  0
XRECORD
  5
26
102
{ACAD_REACTORS
330
22
102
}
330
22
100
AcDbXrecord
280
     1
270
     1
271
     1
  0
XRECORD
  5
28
102
{ACAD_REACTORS
330
22
102
}
330
22
100
AcDbXrecord
280
     1
270
     1
271
     1
  0
XRECORD
  5
25
102
{ACAD_REACTORS
330
22
102
}
330
22
100
AcDbXrecord
280
     1
270
     1
271
     1
  0
CELLSTYLEMAP
  5
99
102
{ACAD_REACTORS
330
98
102
}
330
98
100
AcDbCellStyleMap
 90
        3
300
CELLSTYLE
  1
TABLEFORMAT_BEGIN
 90
        5
170
     1
 91
        0
 92
    32768
 62
   257
 93
        1
300
CONTENTFORMAT
  1
CONTENTFORMAT_BEGIN
 90
        0
 91
        0
 92
      512
 93
        0
300

 40
0.0
140
1.0
 94
        5
 62
     0
340
55
144
0.25
309
CONTENTFORMAT_END
171
     0
 94
        0
309
TABLEFORMAT_END
  1
CELLSTYLE_BEGIN
 90
        1
 91
        1
300
_TITLE
309
CELLSTYLE_END
300
CELLSTYLE
  1
TABLEFORMAT_BEGIN
 90
        5
170
     1
 91
        0
 92
        0
 62
   257
 93
        1
300
CONTENTFORMAT
  1
CONTENTFORMAT_BEGIN
 90
        0
 91
        0
 92
      512
 93
        0
300

 40
0.0
140
1.0
 94
        5
 62
     0
340
55
144
0.18
309
CONTENTFORMAT_END
171
     0
 94
        0
309
TABLEFORMAT_END
  1
CELLSTYLE_BEGIN
 90
        2
 91
        1
300
_HEADER
309
CELLSTYLE_END
300
CELLSTYLE
  1
TABLEFORMAT_BEGIN
 90
        5
170
     1
 91
        0
 92
        0
 62
   257
 93
        1
300
CONTENTFORMAT
  1
CONTENTFORMAT_BEGIN
 90
        0
 91
        0
 92
      512
 93
        0
300

 40
0.0
140
1.0
 94
        2
 62
     0
340
55
144
0.18
309
CONTENTFORMAT_END
171
     0
 94
        0
309
TABLEFORMAT_END
  1
CELLSTYLE_BEGIN
 90
        3
 91
        2
300
_DATA
309
CELLSTYLE_END
  0
ENDSEC
  0
EOF
