  0
SECTION
  2
HEADER
  9
$ACADVER
  1
AC1032
  9
$ACADMAINTVER
 90
      228
  9
$DWGCODEPAGE
  3
ANSI_1252
  9
$REQUIREDVERSIONS
160
                 0
  9
$INSBASE
 10
0.0
 20
0.0
 30
0.0
  9
$EXTMIN
 10
1.000000000000000E+20
 20
1.000000000000000E+20
 30
1.000000000000000E+20
  9
$EXTMAX
 10
-1.000000000000000E+20
 20
-1.000000000000000E+20
 30
-1.000000000000000E+20
  9
$LIMMIN
 10
0.0
 20
0.0
  9
$LIMMAX
 10
12.0
 20
9.0
  9
$ORTHOMODE
 70
     0
  9
$REGENMODE
 70
     1
  9
$FILLMODE
 70
     1
  9
$QTEXTMODE
 70
     0
  9
$MIRRTEXT
 70
     0
  9
$LTSCALE
 40
1.0
  9
$ATTMODE
 70
     1
  9
$TEXTSIZE
 40
0.2
  9
$TRACEWID
 40
0.05
  9
$TEXTSTYLE
  7
Standard
  9
$CLAYER
  8
0
  9
$CELTYPE
  6
ByLayer
  9
$CECOLOR
 62
   256
  9
$CELTSCALE
 40
1.0
  9
$DISPSILH
 70
     0
  9
$DIMSCALE
 40
1.0
  9
$DIMASZ
 40
0.18
  9
$DIMEXO
 40
0.0625
  9
$DIMDLI
 40
0.38
  9
$DIMRND
 40
0.0
  9
$DIMDLE
 40
0.0
  9
$DIMEXE
 40
0.18
  9
$DIMTP
 40
0.0
  9
$DIMTM
 40
0.0
  9
$DIMTXT
 40
0.18
  9
$DIMCEN
 40
0.09
  9
$DIMTSZ
 40
0.0
  9
$DIMTOL
 70
     0
  9
$DIMLIM
 70
     0
  9
$DIMTIH
 70
     1
  9
$DIMTOH
 70
     1
  9
$DIMSE1
 70
     0
  9
$DIMSE2
 70
     0
  9
$DIMTAD
 70
     0
  9
$DIMZIN
 70
     0
  9
$DIMBLK
  1

  9
$DIMASO
 70
     1
  9
$DIMSHO
 70
     1
  9
$DIMPOST
  1

  9
$DIMAPOST
  1

  9
$DIMALT
 70
     0
  9
$DIMALTD
 70
     2
  9
$DIMALTF
 40
25.4
  9
$DIMLFAC
 40
1.0
  9
$DIMTOFL
 70
     0
  9
$DIMTVP
 40
0.0
  9
$DIMTIX
 70
     0
  9
$DIMSOXD
 70
     0
  9
$DIMSAH
 70
     0
  9
$DIMBLK1
  1

  9
$DIMBLK2
  1

  9
$DIMSTYLE
  2
Standard
  9
$DIMCLRD
 70
     0
  9
$DIMCLRE
 70
     0
  9
$DIMCLRT
 70
     0
  9
$DIMTFAC
 40
1.0
  9
$DIMGAP
 40
0.09
  9
$DIMJUST
 70
     0
  9
$DIMSD1
 70
     0
  9
$DIMSD2
 70
     0
  9
$DIMTOLJ
 70
     1
  9
$DIMTZIN
 70
     0
  9
$DIMALTZ
 70
     0
  9
$DIMALTTZ
 70
     0
  9
$DIMUPT
 70
     0
  9
$DIMDEC
 70
     4
  9
$DIMTDEC
 70
     4
  9
$DIMALTU
 70
     2
  9
$DIMALTTD
 70
     2
  9
$DIMTXSTY
  7
Standard
  9
$DIMAUNIT
 70
     0
  9
$DIMADEC
 70
     0
  9
$DIMALTRND
 40
0.0
  9
$DIMAZIN
 70
     0
  9
$DIMDSEP
 70
    46
  9
$DIMATFIT
 70
     3
  9
$DIMFRAC
 70
     0
  9
$DIMLDRBLK
  1

  9
$DIMLUNIT
 70
     2
  9
$DIMLWD
 70
    -2
  9
$DIMLWE
 70
    -2
  9
$DIMTMOVE
 70
     0
  9
$DIMFXL
 40
1.0
  9
$DIMFXLON
 70
     0
  9
$DIMJOGANG
 40
0.7853981633974483
  9
$DIMTFILL
 70
     0
  9
$DIMTFILLCLR
 70
     0
  9
$DIMARCSYM
 70
     0
  9
$DIMLTYPE
  6

  9
$DIMLTEX1
  6

  9
$DIMLTEX2
  6

  9
$DIMTXTDIRECTION
 70
     0
  9
$LUNITS
 70
     2
  9
$LUPREC
 70
     4
  9
$SKETCHINC
 40
0.1
  9
$FILLETRAD
 40
0.0
  9
$AUNITS
 70
     0
  9
$AUPREC
 70
     0
  9
$MENU
  1
.
  9
$ELEVATION
 40
0.0
  9
$PELEVATION
 40
0.0
  9
$THICKNESS
 40
0.0
  9
$LIMCHECK
 70
     0
  9
$CHAMFERA
 40
0.0
  9
$CHAMFERB
 40
0.0
  9
$CHAMFERC
 40
0.0
  9
$CHAMFERD
 40
0.0
  9
$SKPOLY
 70
     0
  9
$TDCREATE
 40
2460331.937222222
  9
$TDUCREATE
 40
2460332.270555555
  9
$TDUPDATE
 40
2460331.937222222
  9
$TDUUPDATE
 40
2460332.270555555
  9
$TDINDWG
 40
0.0000000000
  9
$TDUSRTIMER
 40
0.0000000000
  9
$USRTIMER
 70
     1
  9
$ANGBASE
 50
0.0
  9
$ANGDIR
 70
     0
  9
$PDMODE
 70
     0
  9
$PDSIZE
 40
0.0
  9
$PLINEWID
 40
0.0
  9
$SPLFRAME
 70
     0
  9
$SPLINETYPE
 70
     6
  9
$SPLINESEGS
 70
     8
  9
$HANDSEED
  5
A0
  9
$SURFTAB1
 70
     6
  9
$SURFTAB2
 70
     6
  9
$SURFTYPE
 70
     6
  9
$SURFU
 70
     6
  9
$SURFV
 70
     6
  9
$UCSBASE
  2

  9
$UCSNAME
  2

  9
$UCSORG
 10
0.0
 20
0.0
 30
0.0
  9
$UCSXDIR
 10
1.0
 20
0.0
 30
0.0
  9
$UCSYDIR
 10
0.0
 20
1.0
 30
0.0
  9
$UCSORTHOREF
  2

  9
$UCSORTHOVIEW
 70
     0
  9
$UCSORGTOP
 10
0.0
 20
0.0
 30
0.0
  9
$UCSORGBOTTOM
 10
0.0
 20
0.0
 30
0.0
  9
$UCSORGLEFT
 10
0.0
 20
0.0
 30
0.0
  9
$UCSORGRIGHT
 10
0.0
 20
0.0
 30
0.0
  9
$UCSORGFRONT
 10
0.0
 20
0.0
 30
0.0
  9
$UCSORGBACK
 10
0.0
 20
0.0
 30
0.0
  9
$PUCSBASE
  2

  9
$PUCSNAME
  2

  9
$PUCSORG
 10
0.0
 20
0.0
 30
0.0
  9
$PUCSXDIR
 10
1.0
 20
0.0
 30
0.0
  9
$PUCSYDIR
 10
0.0
 20
1.0
 30
0.0
  9
$PUCSORTHOREF
  2

  9
$PUCSORTHOVIEW
 70
     0
  9
$PUCSORGTOP
 10
0.0
 20
0.0
 30
0.0
  9
$PUCSORGBOTTOM
 10
0.0
 20
0.0
 30
0.0
  9
$PUCSORGLEFT
 10
0.0
 20
0.0
 30
0.0
  9
$PUCSORGRIGHT
 10
0.0
 20
0.0
 30
0.0
  9
$PUCSORGFRONT
 10
0.0
 20
0.0
 30
0.0
  9
$PUCSORGBACK
 10
0.0
 20
0.0
 30
0.0
  9
$USERI1
 70
     0
  9
$USERI2
 70
     0
  9
$USERI3
 70
     0
  9
$USERI4
 70
     0
  9
$USERI5
 70
     0
  9
$USERR1
 40
0.0
  9
$USERR2
 40
0.0
  9
$USERR3
 40
0.0
  9
$USERR4
 40
0.0
  9
$USERR5
 40
0.0
  9
$WORLDVIEW
 70
     1
  9
$SHADEDGE
 70
     3
  9
$SHADEDIF
 70
    70
  9
$TILEMODE
 70
     1
  9
$MAXACTVP
 70
    64
  9
$PINSBASE
 10
0.0
 20
0.0
 30
0.0
  9
$PLIMCHECK
 70
     0
  9
$PEXTMIN
 10
1.000000000000000E+20
 20
1.000000000000000E+20
 30
1.000000000000000E+20
  9
$PEXTMAX
 10
-1.000000000000000E+20
 20
-1.000000000000000E+20
 30
-1.000000000000000E+20
  9
$PLIMMIN
 10
0.0
 20
0.0
  9
$PLIMMAX
 10
12.0
 20
9.0
  9
$UNITMODE
 70
     0
  9
$VISRETAIN
 70
     1
  9
$PLINEGEN
 70
     0
  9
$PSLTSCALE
 70
     1
  9
$TREEDEPTH
 70
  3020
  9
$CMLSTYLE
  2
Standard
  9
$CMLJUST
 70
     0
  9
$CMLSCALE
 40
1.0
  9
$PROXYGRAPHICS
 70
     1
  9
$MEASUREMENT
 70
     0
  9
$CELWEIGHT
370
    -1
  9
$ENDCAPS
280
     0
  9
$JOINSTYLE
280
     0
  9
$LWDISPLAY
290
     1
  9
$INSUNITS
 70
     1
  9
$HYPERLINKBASE
  1

  9
$STYLESHEET
  1

  9
$XEDIT
290
     1
  9
$CEPSNTYPE
380
     0
  9
$PSTYLEMODE
290
     1
  9
$FINGERPRINTGUID
  2
{7A3A0693-B167-F440-96E9-5D95FEAF0F43}
  9
$VERSIONGUID
  2
{81710E95-F933-3848-BA24-DEA1DF429BF7}
  9
$EXTNAMES
290
     1
  9
$PSVPSCALE
 40
0.0
  9
$OLESTARTUP
290
     0
  9
$SORTENTS
280
   127
  9
$INDEXCTL
280
     0
  9
$HIDETEXT
280
     1
  9
$XCLIPFRAME
280
     2
  9
$HALOGAP
280
     0
  9
$OBSCOLOR
 70
   257
  9
$OBSLTYPE
280
     0
  9
$INTERSECTIONDISPLAY
280
     0
  9
$INTERSECTIONCOLOR
 70
   257
  9
$DIMASSOC
280
     2
  9
$PROJECTNAME
  1

  9
$CAMERADISPLAY
290
     0
  9
$LENSLENGTH
 40
50.0
  9
$CAMERAHEIGHT
 40
0.0
  9
$STEPSPERSEC
 40
2.0
  9
$STEPSIZE
 40
6.0
  9
$3DDWFPREC
 40
2.0
  9
$PSOLWIDTH
 40
0.25
  9
$PSOLHEIGHT
 40
4.0
  9
$LOFTANG1
 40
1.570796326794896
  9
$LOFTANG2
 40
1.570796326794896
  9
$LOFTMAG1
 40
0.0
  9
$LOFTMAG2
 40
0.0
  9
$LOFTPARAM
 70
     7
  9
$LOFTNORMALS
280
     1
  9
$LATITUDE
 40
37.795
  9
$LONGITUDE
 40
-122.394
  9
$NORTHDIRECTION
 40
0.0
  9
$TIMEZONE
 70
 -8000
  9
$LIGHTGLYPHDISPLAY
280
     1
  9
$TILEMODELIGHTSYNCH
280
     1
  9
$CMATERIAL
347
11
  9
$SOLIDHIST
280
     0
  9
$SHOWHIST
280
     1
  9
$DWFFRAME
280
     2
  9
$DGNFRAME
280
     0
  9
$REALWORLDSCALE
290
     1
  9
$INTERFERECOLOR
 62
     1
  9
$INTERFEREOBJVS
345
33
  9
$INTERFEREVPVS
346
30
  9
$CSHADOW
280
     0
  9
$SHADOWPLANELOCATION
 40
0.0
  0
ENDSEC
  0
SECTION
  2
CLASSES
  0
CLASS
  1
ACDBDICTIONARYWDFLT
  2
AcDbDictionaryWithDefault
  3
ObjectDBX Classes
 90
        0
 91
        1
280
     0
281
     0
  0
CLASS
  1
MATERIAL
  2
AcDbMaterial
  3
ObjectDBX Classes
 90
     1153
 91
        3
280
     0
281
     0
  0
CLASS
  1
VISUALSTYLE
  2
AcDbVisualStyle
  3
ObjectDBX Classes
 90
     4095
 91
       24
280
     0
281
     0
  0
CLASS
  1
SCALE
  2
AcDbScale
  3
ObjectDBX Classes
 90
     1153
 91
       17
280
     0
281
     0
  0
CLASS
  1
TABLESTYLE
  2
AcDbTableStyle
  3
ObjectDBX Classes
 90
     4095
 91
        1
280
     0
281
     0
  0
CLASS
  1
MLEADERSTYLE
  2
AcDbMLeaderStyle
  3
ACDB_MLEADERSTYLE_CLASS
 90
     4095
 91
        1
280
     0
281
     0
  0
CLASS
  1
ACDBSECTIONVIEWSTYLE
  2
AcDbSectionViewStyle
  3
ObjectDBX Classes
 90
     1025
 91
        1
280
     0
281
     0
  0
CLASS
  1
ACDBDETAILVIEWSTYLE
  2
AcDbDetailViewStyle
  3
ObjectDBX Classes
 90
     1025
 91
        1
280
     0
281
     0
  0
CLASS
  1
DICTIONARYVAR
  2
AcDbDictionaryVar
  3
ObjectDBX Classes
 90
        0
 91
        5
280
     0
281
     0
  0
CLASS
  1
CELLSTYLEMAP
  2
AcDbCellStyleMap
  3
ObjectDBX Classes
 90
     1152
 91
        1
280
     0
281
     0
  0
ENDSEC
  0
SECTION
  2
TABLES
  0
TABLE
  2
VPORT
  5
8
330
0
100
AcDbSymbolTable
 70
     1
  0
VPORT
  5
57
330
8
100
AcDbSymbolTableRecord
100
AcDbViewportTableRecord
  2
*Active
 70
     0
 10
0.0
 20
0.0
 11
1.0
 21
1.0
 12
0.0
 22
0.0
 13
0.0
 23
0.0
 14
1.0
 24
1.0
 15
0.0
 25
0.0
 16
0.0
 26
0.0
 36
1.0
 17
1.760047281323889
 27
-5.34703284008847
 37
0.0
 40
13.28992534664506
 41
1.121672994075401
 42
50.0
 43
0.0
 44
0.0
 50
0.0
 51
0.0
 71
     0
 72
   100
 73
     1
 74
     1
 75
     0
 76
     0
 77
     0
 78
     0
281
     0
 65
     1
110
0.0
120
0.0
130
0.0
111
1.0
121
0.0
131
0.0
112
0.0
122
1.0
132
0.0
 79
     0
146
0.0
 60
     3
 61
     5
292
     1
282
     1
141
0.0
142
0.0
 63
   250
421
  3355443
  0
ENDTAB
  0
TABLE
  2
LTYPE
  5
5
330
0
100
AcDbSymbolTable
 70
     1
  0
LTYPE
  5
5B
330
5
100
AcDbSymbolTableRecord
100
AcDbLinetypeTableRecord
  2
ByBlock
 70
     0
  3

 72
    65
 73
     0
 40
0.0
  0
LTYPE
  5
5C
330
5
100
AcDbSymbolTableRecord
100
AcDbLinetypeTableRecord
  2
ByLayer
 70
     0
  3

 72
    65
 73
     0
 40
0.0
  0
LTYPE
  5
5D
330
5
100
AcDbSymbolTableRecord
100
AcDbLinetypeTableRecord
  2
Continuous
 70
     0
  3
Solid line
 72
    65
 73
     0
 40
0.0
  0
ENDTAB
  0
TABLE
  2
LAYER
  5
2
330
0
100
AcDbSymbolTable
 70
     3
  0
LAYER
  5
54
330
2
100
AcDbSymbolTableRecord
100
AcDbLayerTableRecord
  2
0
 70
     0
 62
     7
  6
Continuous
370
    -3
390
F
347
21
348
0
  0
LAYER
  5
78
330
2
100
AcDbSymbolTableRecord
100
AcDbLayerTableRecord
  2
Layer 2
 70
     0
 62
     7
  6
Continuous
370
     0
390
F
347
21
348
0
  0
LAYER
  5
94
330
2
100
AcDbSymbolTableRecord
100
AcDbLayerTableRecord
  2
Whitebeard
 70
     0
 62
     7
  6
Continuous
370
     0
390
F
347
21
348
0
  0
ENDTAB
  0
TABLE
  2
STYLE
  5
3
330
0
100
AcDbSymbolTable
 70
     2
  0
STYLE
  5
55
330
3
100
AcDbSymbolTableRecord
100
AcDbTextStyleTableRecord
  2
Standard
 70
     0
 40
0.0
 41
1.0
 50
0.0
 71
     0
 42
0.2
  3
txt
  4

  0
STYLE
  5
5A
330
3
100
AcDbSymbolTableRecord
100
AcDbTextStyleTableRecord
  2
Annotative
 70
     0
 40
0.0
 41
1.0
 50
0.0
 71
     0
 42
0.2
  3
txt
  4

1001
AcadAnnotative
1000
AnnotativeData
1002
{
1070
     1
1070
     1
1002
}
  0
ENDTAB
  0
TABLE
  2
VIEW
  5
6
330
0
100
AcDbSymbolTable
 70
     0
  0
ENDTAB
  0
TABLE
  2
UCS
  5
7
330
0
100
AcDbSymbolTable
 70
     0
  0
ENDTAB
  0
TABLE
  2
APPID
  5
9
330
0
100
AcDbSymbolTable
 70
     2
  0
APPID
  5
56
330
9
100
AcDbSymbolTableRecord
100
AcDbRegAppTableRecord
  2
ACAD
 70
     0
  0
APPID
  5
5E
330
9
100
AcDbSymbolTableRecord
100
AcDbRegAppTableRecord
  2
AcadAnnotative
 70
     0
  0
ENDTAB
  0
TABLE
  2
DIMSTYLE
  5
A
330
0
100
AcDbSymbolTable
 70
     2
100
AcDbDimStyleTable
 71
     0
  0
DIMSTYLE
105
58
330
A
100
AcDbSymbolTableRecord
100
AcDbDimStyleTableRecord
  2
Standard
 70
     0
340
55
  0
DIMSTYLE
105
59
330
A
100
AcDbSymbolTableRecord
100
AcDbDimStyleTableRecord
  2
Annotative
 70
     0
340
55
1001
AcadAnnotative
1000
AnnotativeData
1002
{
1070
     1
1070
     1
1002
}
  0
ENDTAB
  0
TABLE
  2
BLOCK_RECORD
  5
1
330
0
100
AcDbSymbolTable
 70
     2
  0
BLOCK_RECORD
  5
70
330
1
100
AcDbSymbolTableRecord
100
AcDbBlockTableRecord
  2
*Model_Space
340
73
 70
     0
280
     1
281
     0
  0
BLOCK_RECORD
  5
6C
330
1
100
AcDbSymbolTableRecord
100
AcDbBlockTableRecord
  2
*Paper_Space
340
6F
 70
     0
280
     1
281
     0
  0
BLOCK_RECORD
  5
74
330
1
100
AcDbSymbolTableRecord
100
AcDbBlockTableRecord
  2
*Paper_Space0
340
77
 70
     0
280
     1
281
     0
  0
BLOCK_RECORD
  5
79
330
1
100
AcDbSymbolTableRecord
100
AcDbBlockTableRecord
  2
Block_0
340
0
102
{BLKREFS
331
7A
102
}
 70
     0
280
     1
281
     0
  0
ENDTAB
  0
ENDSEC
  0
SECTION
  2
BLOCKS
  0
BLOCK
  5
71
330
70
100
AcDbEntity
  8
0
100
AcDbBlockBegin
  2
*Model_Space
 70
     0
 10
0.0
 20
0.0
 30
0.0
  3
*Model_Space
  1

  0
ENDBLK
  5
72
330
70
100
AcDbEntity
  8
0
100
AcDbBlockEnd
  0
BLOCK
  5
6D
330
6C
100
AcDbEntity
 67
     1
  8
0
100
AcDbBlockBegin
  2
*Paper_Space
 70
     0
 10
0.0
 20
0.0
 30
0.0
  3
*Paper_Space
  1

  0
ENDBLK
  5
6E
330
6C
100
AcDbEntity
 67
     1
  8
0
100
AcDbBlockEnd
  0
BLOCK
  5
75
330
74
100
AcDbEntity
 67
     1
  8
0
100
AcDbBlockBegin
  2
*Paper_Space0
 70
     0
 10
0.0
 20
0.0
 30
0.0
  3
*Paper_Space0
  1

  0
ENDBLK
  5
76
330
74
100
AcDbEntity
 67
     1
  8
0
100
AcDbBlockEnd
  0
BLOCK
  5
7B
330
79
100
AcDbEntity
  8
0
100
AcDbBlockBegin
  2
Block_0
 70
     0
 10
0.0
 20
0.0
 30
0.0
  3
Block_0
  1

  0
SPLINE
  5
7D
330
79
100
AcDbEntity
  8
Layer 2
100
AcDbSpline
210
0.0
220
0.0
230
1.0
 70
    11
 71
     3
 72
   140
 73
   136
 74
     0
 42
0.0000000001
 43
0.0000000001
 40
0.0
 40
0.0
 40
0.0
 40
0.0
 40
1.0
 40
1.0
 40
1.0
 40
2.0
 40
2.0
 40
2.0
 40
3.0
 40
3.0
 40
3.0
 40
4.0
 40
4.0
 40
4.0
 40
5.0
 40
5.0
 40
5.0
 40
6.0
 40
6.0
 40
6.0
 40
7.0
 40
7.0
 40
7.0
 40
8.0
 40
8.0
 40
8.0
 40
9.0
 40
9.0
 40
9.0
 40
10.0
 40
10.0
 40
10.0
 40
11.0
 40
11.0
 40
11.0
 40
12.0
 40
12.0
 40
12.0
 40
13.0
 40
13.0
 40
13.0
 40
14.0
 40
14.0
 40
14.0
 40
15.0
 40
15.0
 40
15.0
 40
16.0
 40
16.0
 40
16.0
 40
17.0
 40
17.0
 40
17.0
 40
18.0
 40
18.0
 40
18.0
 40
19.0
 40
19.0
 40
19.0
 40
20.0
 40
20.0
 40
20.0
 40
21.0
 40
21.0
 40
21.0
 40
22.0
 40
22.0
 40
22.0
 40
23.0
 40
23.0
 40
23.0
 40
24.0
 40
24.0
 40
24.0
 40
25.0
 40
25.0
 40
25.0
 40
26.0
 40
26.0
 40
26.0
 40
27.0
 40
27.0
 40
27.0
 40
28.0
 40
28.0
 40
28.0
 40
29.0
 40
29.0
 40
29.0
 40
30.0
 40
30.0
 40
30.0
 40
31.0
 40
31.0
 40
31.0
 40
32.0
 40
32.0
 40
32.0
 40
33.0
 40
33.0
 40
33.0
 40
34.0
 40
34.0
 40
34.0
 40
35.0
 40
35.0
 40
35.0
 40
36.0
 40
36.0
 40
36.0
 40
37.0
 40
37.0
 40
37.0
 40
38.0
 40
38.0
 40
38.0
 40
39.0
 40
39.0
 40
39.0
 40
40.0
 40
40.0
 40
40.0
 40
41.0
 40
41.0
 40
41.0
 40
42.0
 40
42.0
 40
42.0
 40
43.0
 40
43.0
 40
43.0
 40
44.0
 40
44.0
 40
44.0
 40
45.0
 40
45.0
 40
45.0
 40
45.0
 10
3.123970046202126
 20
-7.789964259902287
 30
0.0
 10
3.123970046202126
 20
-7.789964259902287
 30
0.0
 10
3.129041726854059
 20
-7.790149057982716
 30
0.0
 10
3.129041726854059
 20
-7.790149057982716
 30
0.0
 10
3.137855568634777
 20
-7.790457054783447
 30
0.0
 10
3.143933372169056
 20
-7.792305035587812
 30
0.0
 10
3.146612944335363
 20
-7.795467136075229
 30
0.0
 10
3.149513247542181
 20
-7.798926966803365
 30
0.0
 10
3.150986498905644
 20
-7.803926781535109
 30
0.0
 10
3.150986498905644
 20
-7.810322848430157
 30
0.0
 10
3.150986498905644
 20
-7.815250797241711
 30
0.0
 10
3.150473170904433
 20
-7.820753673414653
 30
0.0
 10
3.149456781462049
 20
-7.826656945428541
 30
0.0
 10
3.148414725619595
 20
-7.832724482402808
 30
0.0
 10
3.145555488652866
 20
-7.844243562749877
 30
0.0
 10
3.140950936482049
 20
-7.860926722789094
 30
0.0
 10
3.140950936482049
 20
-7.860926722789094
 30
0.0
 10
3.101773743429968
 20
-8.006332012410894
 30
0.0
 10
3.101773743429968
 20
-8.006332012410894
 30
0.0
 10
3.101773743429968
 20
-8.006332012410894
 30
0.0
 10
3.057453003805777
 20
-7.84368916850859
 30
0.0
 10
3.057453003805777
 20
-7.84368916850859
 30
0.0
 10
3.049768483627707
 20
-7.815271330361762
 30
0.0
 10
3.048618628905008
 20
-7.807396878823257
 30
0.0
 10
3.048618628905008
 20
-7.805230634658173
 30
0.0
 10
3.048618628905008
 20
-7.80214040009092
 30
0.0
 10
3.049229489226452
 20
-7.799388962004437
 30
0.0
 10
3.050440943309303
 20
-7.797037919758925
 30
0.0
 10
3.051503532271794
 20
-7.794974341194069
 30
0.0
 10
3.052868984755011
 20
-7.793578089030789
 30
0.0
 10
3.054609166679091
 20
-7.792767030788859
 30
0.0
 10
3.056888343004452
 20
-7.791689041986349
 30
0.0
 10
3.061811158536026
 20
-7.790374922303246
 30
0.0
 10
3.072298449600667
 20
-7.790149057982716
 30
0.0
 10
3.072298449600667
 20
-7.790149057982716
 30
0.0
 10
3.077441996172764
 20
-7.790036125822451
 30
0.0
 10
3.077441996172764
 20
-7.790036125822451
 30
0.0
 10
3.077441996172764
 20
-7.790036125822451
 30
0.0
 10
3.077441996172764
 20
-7.769184742413446
 30
0.0
 10
3.077441996172764
 20
-7.769184742413446
 30
0.0
 10
3.077441996172764
 20
-7.769184742413446
 30
0.0
 10
2.935450337759005
 20
-7.769184742413446
 30
0.0
 10
2.935450337759005
 20
-7.769184742413446
 30
0.0
 10
2.935450337759005
 20
-7.769184742413446
 30
0.0
 10
2.935450337759005
 20
-7.790149057982716
 30
0.0
 10
2.935450337759005
 20
-7.790149057982716
 30
0.0
 10
2.935450337759005
 20
-7.790149057982716
 30
0.0
 10
2.940706816491355
 20
-7.790149057982716
 30
0.0
 10
2.940706816491355
 20
-7.790149057982716
 30
0.0
 10
2.947919074908302
 20
-7.790149057982716
 30
0.0
 10
2.95330388564096
 20
-7.791422111425718
 30
0.0
 10
2.956686717168913
 20
-7.793906618951571
 30
0.0
 10
2.960269746617339
 20
-7.796565657997815
 30
0.0
 10
2.963580712225128
 20
-7.801236942808777
 30
0.0
 10
2.96652721495204
 20
-7.807797274664203
 30
0.0
 10
2.969730381679571
 20
-7.814953067001042
 30
0.0
 10
2.974422199610608
 20
-7.82967531407563
 30
0.0
 10
2.980469203464824
 20
-7.851553353487057
 30
0.0
 10
2.980469203464824
 20
-7.851553353487057
 30
0.0
 10
2.991274757890209
 20
-7.890781879339278
 30
0.0
 10
2.991274757890209
 20
-7.890781879339278
 30
0.0
 10
2.991274757890209
 20
-7.890781879339278
 30
0.0
 10
2.954171409962997
 20
-8.017173499796374
 30
0.0
 10
2.954171409962997
 20
-8.017173499796374
 30
0.0
 10
2.954171409962997
 20
-8.017173499796374
 30
0.0
 10
2.905939110969623
 20
-7.848730049480435
 30
0.0
 10
2.905939110969623
 20
-7.848730049480435
 30
0.0
 10
2.89799792679096
 20
-7.820589408454274
 30
0.0
 10
2.896329610787031
 20
-7.809234593067584
 30
0.0
 10
2.896329610787031
 20
-7.804676240416862
 30
0.0
 10
2.896329610787031
 20
-7.80045668424696
 30
0.0
 10
2.897453799109687
 20
-7.797089252559039
 30
0.0
 10
2.899768908395117
 20
-7.794389147272694
 30
0.0
 10
2.900975229197948
 20
-7.792972361989363
 30
0.0
 10
2.904547992086349
 20
-7.790549453823662
 30
0.0
 10
2.914896684590681
 20
-7.790149057982716
 30
0.0
 10
2.914896684590681
 20
-7.790149057982716
 30
0.0
 10
2.919947832122551
 20
-7.789943726782237
 30
0.0
 10
2.919947832122551
 20
-7.789943726782237
 30
0.0
 10
2.919947832122551
 20
-7.789943726782237
 30
0.0
 10
2.919947832122551
 20
-7.769184742413446
 30
0.0
 10
2.919947832122551
 20
-7.769184742413446
 30
0.0
 10
2.919947832122551
 20
-7.769184742413446
 30
0.0
 10
2.79175956366123
 20
-7.769184742413446
 30
0.0
 10
2.79175956366123
 20
-7.769184742413446
 30
0.0
 10
2.79175956366123
 20
-7.769184742413446
 30
0.0
 10
2.79175956366123
 20
-7.78950226470119
 30
0.0
 10
2.79175956366123
 20
-7.78950226470119
 30
0.0
 10
2.79175956366123
 20
-7.78950226470119
 30
0.0
 10
2.796328182871964
 20
-7.790107991742615
 30
0.0
 10
2.796328182871964
 20
-7.790107991742615
 30
0.0
 10
2.803160578568028
 20
-7.791011449024734
 30
0.0
 10
2.807836996659021
 20
-7.793916885511584
 30
0.0
 10
2.810608967865542
 20
-7.798988566163516
 30
0.0
 10
2.812944610271036
 20
-7.803279988253582
 30
0.0
 10
2.81806762372307
 20
-7.8164725178846
 30
0.0
 10
2.829181174949199
 20
-7.85498238453513
 30
0.0
 10
2.829181174949199
 20
-7.85498238453513
 30
0.0
 10
2.919521769881548
 20
-8.171531229759214
 30
0.0
 10
2.919521769881548
 20
-8.171531229759214
 30
0.0
 10
2.919521769881548
 20
-8.171531229759214
 30
0.0
 10
2.934808677757485
 20
-8.171531229759214
 30
0.0
 10
2.934808677757485
 20
-8.171531229759214
 30
0.0
 10
2.934808677757485
 20
-8.171531229759214
 30
0.0
 10
3.004703418401782
 20
-7.938470050651377
 30
0.0
 10
3.004703418401782
 20
-7.938470050651377
 30
0.0
 10
3.004703418401782
 20
-7.938470050651377
 30
0.0
 10
3.068171292470979
 20
-8.171531229759214
 30
0.0
 10
3.068171292470979
 20
-8.171531229759214
 30
0.0
 10
3.068171292470979
 20
-8.171531229759214
 30
0.0
 10
3.084017727868222
 20
-8.171531229759214
 30
0.0
 10
3.084017727868222
 20
-8.171531229759214
 30
0.0
 10
3.084017727868222
 20
-8.171531229759214
 30
0.0
 10
3.170097700390568
 20
-7.851584153167145
 30
0.0
 10
3.170097700390568
 20
-7.851584153167145
 30
0.0
 10
3.177659021848348
 20
-7.824819231184214
 30
0.0
 10
3.181868311458224
 20
-7.810199649709854
 30
0.0
 10
3.182566437539864
 20
-7.80823873674525
 30
0.0
 10
3.184938012905452
 20
-7.802017201370618
 30
0.0
 10
3.187617585071746
 20
-7.797428049039858
 30
0.0
 10
3.190533288118608
 20
-7.794584211913135
 30
0.0
 10
3.193161527484777
 20
-7.79201757190713
 30
0.0
 10
3.196339027812238
 20
-7.790549453823662
 30
0.0
 10
3.20024545390144
 20
-7.790118258302653
 30
0.0
 10
3.20024545390144
 20
-7.790118258302653
 30
0.0
 10
3.204921871992433
 20
-7.789594663741404
 30
0.0
 10
3.204921871992433
 20
-7.789594663741404
 30
0.0
 10
3.204921871992433
 20
-7.789594663741404
 30
0.0
 10
3.204921871992433
 20
-7.769184742413446
 30
0.0
 10
3.204921871992433
 20
-7.769184742413446
 30
0.0
 10
3.204921871992433
 20
-7.769184742413446
 30
0.0
 10
3.123970046202126
 20
-7.769184742413446
 30
0.0
 10
3.123970046202126
 20
-7.769184742413446
 30
0.0
 10
3.123970046202126
 20
-7.769184742413446
 30
0.0
 10
3.123970046202126
 20
-7.789964259902287
 30
0.0
 10
3.123970046202126
 20
-7.789964259902287
 30
0.0
  0
HATCH
  5
7E
330
79
100
AcDbEntity
  8
Layer 2
 62
   250
420
  2301728
440
 33554687
100
AcDbHatch
 10
0.0
 20
0.0
 30
0.0
210
0.0
220
0.0
230
1.0
  2
SOLID
 70
     1
 71
     1
 91
        1
 92
        1
 93
        1
 72
     4
 94
        3
 73
     0
 74
     0
 95
      140
 96
      136
 40
0.0
 40
0.0
 40
0.0
 40
0.0
 40
1.0
 40
1.0
 40
1.0
 40
2.0
 40
2.0
 40
2.0
 40
3.0
 40
3.0
 40
3.0
 40
4.0
 40
4.0
 40
4.0
 40
5.0
 40
5.0
 40
5.0
 40
6.0
 40
6.0
 40
6.0
 40
7.0
 40
7.0
 40
7.0
 40
8.0
 40
8.0
 40
8.0
 40
9.0
 40
9.0
 40
9.0
 40
10.0
 40
10.0
 40
10.0
 40
11.0
 40
11.0
 40
11.0
 40
12.0
 40
12.0
 40
12.0
 40
13.0
 40
13.0
 40
13.0
 40
14.0
 40
14.0
 40
14.0
 40
15.0
 40
15.0
 40
15.0
 40
16.0
 40
16.0
 40
16.0
 40
17.0
 40
17.0
 40
17.0
 40
18.0
 40
18.0
 40
18.0
 40
19.0
 40
19.0
 40
19.0
 40
20.0
 40
20.0
 40
20.0
 40
21.0
 40
21.0
 40
21.0
 40
22.0
 40
22.0
 40
22.0
 40
23.0
 40
23.0
 40
23.0
 40
24.0
 40
24.0
 40
24.0
 40
25.0
 40
25.0
 40
25.0
 40
26.0
 40
26.0
 40
26.0
 40
27.0
 40
27.0
 40
27.0
 40
28.0
 40
28.0
 40
28.0
 40
29.0
 40
29.0
 40
29.0
 40
30.0
 40
30.0
 40
30.0
 40
31.0
 40
31.0
 40
31.0
 40
32.0
 40
32.0
 40
32.0
 40
33.0
 40
33.0
 40
33.0
 40
34.0
 40
34.0
 40
34.0
 40
35.0
 40
35.0
 40
35.0
 40
36.0
 40
36.0
 40
36.0
 40
37.0
 40
37.0
 40
37.0
 40
38.0
 40
38.0
 40
38.0
 40
39.0
 40
39.0
 40
39.0
 40
40.0
 40
40.0
 40
40.0
 40
41.0
 40
41.0
 40
41.0
 40
42.0
 40
42.0
 40
42.0
 40
43.0
 40
43.0
 40
43.0
 40
44.0
 40
44.0
 40
44.0
 40
45.0
 40
45.0
 40
45.0
 40
45.0
 10
3.123970046202126
 20
-7.789964259902287
 10
3.123970046202126
 20
-7.789964259902287
 10
3.129041726854059
 20
-7.790149057982716
 10
3.129041726854059
 20
-7.790149057982716
 10
3.137855568634777
 20
-7.790457054783447
 10
3.143933372169056
 20
-7.792305035587812
 10
3.146612944335363
 20
-7.795467136075229
 10
3.149513247542181
 20
-7.798926966803365
 10
3.150986498905644
 20
-7.803926781535109
 10
3.150986498905644
 20
-7.810322848430157
 10
3.150986498905644
 20
-7.815250797241711
 10
3.150473170904433
 20
-7.820753673414653
 10
3.149456781462049
 20
-7.826656945428541
 10
3.148414725619595
 20
-7.832724482402808
 10
3.145555488652866
 20
-7.844243562749877
 10
3.140950936482049
 20
-7.860926722789094
 10
3.140950936482049
 20
-7.860926722789094
 10
3.101773743429968
 20
-8.006332012410894
 10
3.101773743429968
 20
-8.006332012410894
 10
3.101773743429968
 20
-8.006332012410894
 10
3.057453003805777
 20
-7.84368916850859
 10
3.057453003805777
 20
-7.84368916850859
 10
3.049768483627707
 20
-7.815271330361762
 10
3.048618628905008
 20
-7.807396878823257
 10
3.048618628905008
 20
-7.805230634658173
 10
3.048618628905008
 20
-7.80214040009092
 10
3.049229489226452
 20
-7.799388962004437
 10
3.050440943309303
 20
-7.797037919758925
 10
3.051503532271794
 20
-7.794974341194069
 10
3.052868984755011
 20
-7.793578089030789
 10
3.054609166679091
 20
-7.792767030788859
 10
3.056888343004452
 20
-7.791689041986349
 10
3.061811158536026
 20
-7.790374922303246
 10
3.072298449600667
 20
-7.790149057982716
 10
3.072298449600667
 20
-7.790149057982716
 10
3.077441996172764
 20
-7.790036125822451
 10
3.077441996172764
 20
-7.790036125822451
 10
3.077441996172764
 20
-7.790036125822451
 10
3.077441996172764
 20
-7.769184742413446
 10
3.077441996172764
 20
-7.769184742413446
 10
3.077441996172764
 20
-7.769184742413446
 10
2.935450337759005
 20
-7.769184742413446
 10
2.935450337759005
 20
-7.769184742413446
 10
2.935450337759005
 20
-7.769184742413446
 10
2.935450337759005
 20
-7.790149057982716
 10
2.935450337759005
 20
-7.790149057982716
 10
2.935450337759005
 20
-7.790149057982716
 10
2.940706816491355
 20
-7.790149057982716
 10
2.940706816491355
 20
-7.790149057982716
 10
2.947919074908302
 20
-7.790149057982716
 10
2.95330388564096
 20
-7.791422111425718
 10
2.956686717168913
 20
-7.793906618951571
 10
2.960269746617339
 20
-7.796565657997815
 10
2.963580712225128
 20
-7.801236942808777
 10
2.96652721495204
 20
-7.807797274664203
 10
2.969730381679571
 20
-7.814953067001042
 10
2.974422199610608
 20
-7.82967531407563
 10
2.980469203464824
 20
-7.851553353487057
 10
2.980469203464824
 20
-7.851553353487057
 10
2.991274757890209
 20
-7.890781879339278
 10
2.991274757890209
 20
-7.890781879339278
 10
2.991274757890209
 20
-7.890781879339278
 10
2.954171409962997
 20
-8.017173499796374
 10
2.954171409962997
 20
-8.017173499796374
 10
2.954171409962997
 20
-8.017173499796374
 10
2.905939110969623
 20
-7.848730049480435
 10
2.905939110969623
 20
-7.848730049480435
 10
2.89799792679096
 20
-7.820589408454274
 10
2.896329610787031
 20
-7.809234593067584
 10
2.896329610787031
 20
-7.804676240416862
 10
2.896329610787031
 20
-7.80045668424696
 10
2.897453799109687
 20
-7.797089252559039
 10
2.899768908395117
 20
-7.794389147272694
 10
2.900975229197948
 20
-7.792972361989363
 10
2.904547992086349
 20
-7.790549453823662
 10
2.914896684590681
 20
-7.790149057982716
 10
2.914896684590681
 20
-7.790149057982716
 10
2.919947832122551
 20
-7.789943726782237
 10
2.919947832122551
 20
-7.789943726782237
 10
2.919947832122551
 20
-7.789943726782237
 10
2.919947832122551
 20
-7.769184742413446
 10
2.919947832122551
 20
-7.769184742413446
 10
2.919947832122551
 20
-7.769184742413446
 10
2.79175956366123
 20
-7.769184742413446
 10
2.79175956366123
 20
-7.769184742413446
 10
2.79175956366123
 20
-7.769184742413446
 10
2.79175956366123
 20
-7.78950226470119
 10
2.79175956366123
 20
-7.78950226470119
 10
2.79175956366123
 20
-7.78950226470119
 10
2.796328182871964
 20
-7.790107991742615
 10
2.796328182871964
 20
-7.790107991742615
 10
2.803160578568028
 20
-7.791011449024734
 10
2.807836996659021
 20
-7.793916885511584
 10
2.810608967865542
 20
-7.798988566163516
 10
2.812944610271036
 20
-7.803279988253582
 10
2.81806762372307
 20
-7.8164725178846
 10
2.829181174949199
 20
-7.85498238453513
 10
2.829181174949199
 20
-7.85498238453513
 10
2.919521769881548
 20
-8.171531229759214
 10
2.919521769881548
 20
-8.171531229759214
 10
2.919521769881548
 20
-8.171531229759214
 10
2.934808677757485
 20
-8.171531229759214
 10
2.934808677757485
 20
-8.171531229759214
 10
2.934808677757485
 20
-8.171531229759214
 10
3.004703418401782
 20
-7.938470050651377
 10
3.004703418401782
 20
-7.938470050651377
 10
3.004703418401782
 20
-7.938470050651377
 10
3.068171292470979
 20
-8.171531229759214
 10
3.068171292470979
 20
-8.171531229759214
 10
3.068171292470979
 20
-8.171531229759214
 10
3.084017727868222
 20
-8.171531229759214
 10
3.084017727868222
 20
-8.171531229759214
 10
3.084017727868222
 20
-8.171531229759214
 10
3.170097700390568
 20
-7.851584153167145
 10
3.170097700390568
 20
-7.851584153167145
 10
3.177659021848348
 20
-7.824819231184214
 10
3.181868311458224
 20
-7.810199649709854
 10
3.182566437539864
 20
-7.80823873674525
 10
3.184938012905452
 20
-7.802017201370618
 10
3.187617585071746
 20
-7.797428049039858
 10
3.190533288118608
 20
-7.794584211913135
 10
3.193161527484777
 20
-7.79201757190713
 10
3.196339027812238
 20
-7.790549453823662
 10
3.20024545390144
 20
-7.790118258302653
 10
3.20024545390144
 20
-7.790118258302653
 10
3.204921871992433
 20
-7.789594663741404
 10
3.204921871992433
 20
-7.789594663741404
 10
3.204921871992433
 20
-7.789594663741404
 10
3.204921871992433
 20
-7.769184742413446
 10
3.204921871992433
 20
-7.769184742413446
 10
3.204921871992433
 20
-7.769184742413446
 10
3.123970046202126
 20
-7.769184742413446
 10
3.123970046202126
 20
-7.769184742413446
 10
3.123970046202126
 20
-7.769184742413446
 10
3.123970046202126
 20
-7.789964259902287
 10
3.123970046202126
 20
-7.789964259902287
 97
        0
 97
        1
330
7D
 75
     2
 76
     1
 98
        1
 10
0.0
 20
0.0
450
        0
451
        0
460
0.0
461
0.0
452
        0
462
0.0
453
        0
470

  0
SPLINE
  5
7F
330
79
100
AcDbEntity
  8
Layer 2
100
AcDbSpline
210
0.0
220
0.0
230
1.0
 70
    11
 71
     3
 72
   161
 73
   157
 74
     0
 42
0.0000000001
 43
0.0000000001
 40
0.0
 40
0.0
 40
0.0
 40
0.0
 40
1.0
 40
1.0
 40
1.0
 40
2.0
 40
2.0
 40
2.0
 40
3.0
 40
3.0
 40
3.0
 40
4.0
 40
4.0
 40
4.0
 40
5.0
 40
5.0
 40
5.0
 40
6.0
 40
6.0
 40
6.0
 40
7.0
 40
7.0
 40
7.0
 40
8.0
 40
8.0
 40
8.0
 40
9.0
 40
9.0
 40
9.0
 40
10.0
 40
10.0
 40
10.0
 40
11.0
 40
11.0
 40
11.0
 40
12.0
 40
12.0
 40
12.0
 40
13.0
 40
13.0
 40
13.0
 40
14.0
 40
14.0
 40
14.0
 40
15.0
 40
15.0
 40
15.0
 40
16.0
 40
16.0
 40
16.0
 40
17.0
 40
17.0
 40
17.0
 40
18.0
 40
18.0
 40
18.0
 40
19.0
 40
19.0
 40
19.0
 40
20.0
 40
20.0
 40
20.0
 40
21.0
 40
21.0
 40
21.0
 40
22.0
 40
22.0
 40
22.0
 40
23.0
 40
23.0
 40
23.0
 40
24.0
 40
24.0
 40
24.0
 40
25.0
 40
25.0
 40
25.0
 40
26.0
 40
26.0
 40
26.0
 40
27.0
 40
27.0
 40
27.0
 40
28.0
 40
28.0
 40
28.0
 40
29.0
 40
29.0
 40
29.0
 40
30.0
 40
30.0
 40
30.0
 40
31.0
 40
31.0
 40
31.0
 40
32.0
 40
32.0
 40
32.0
 40
33.0
 40
33.0
 40
33.0
 40
34.0
 40
34.0
 40
34.0
 40
35.0
 40
35.0
 40
35.0
 40
36.0
 40
36.0
 40
36.0
 40
37.0
 40
37.0
 40
37.0
 40
38.0
 40
38.0
 40
38.0
 40
39.0
 40
39.0
 40
39.0
 40
40.0
 40
40.0
 40
40.0
 40
41.0
 40
41.0
 40
41.0
 40
42.0
 40
42.0
 40
42.0
 40
43.0
 40
43.0
 40
43.0
 40
44.0
 40
44.0
 40
44.0
 40
45.0
 40
45.0
 40
45.0
 40
46.0
 40
46.0
 40
46.0
 40
47.0
 40
47.0
 40
47.0
 40
48.0
 40
48.0
 40
48.0
 40
49.0
 40
49.0
 40
49.0
 40
50.0
 40
50.0
 40
50.0
 40
51.0
 40
51.0
 40
51.0
 40
52.0
 40
52.0
 40
52.0
 40
52.0
 10
3.367718714295101
 20
-7.790149057982716
 30
0.0
 10
3.367718714295101
 20
-7.790149057982716
 30
0.0
 10
3.381783901528162
 20
-7.790149057982716
 30
0.0
 10
3.381783901528162
 20
-7.790149057982716
 30
0.0
 10
3.388210768103274
 20
-7.790149057982716
 30
0.0
 10
3.393082250834721
 20
-7.791565843266046
 30
0.0
 10
3.396690946683204
 20
-7.79449181287292
 30
0.0
 10
3.400417707971971
 20
-7.797510181520035
 30
0.0
 10
3.402794416617552
 20
-7.800867346647919
 30
0.0
 10
3.403959671180283
 20
-7.804758372897063
 30
0.0
 10
3.404863128462402
 20
-7.807776741544152
 30
0.0
 10
3.40594111726495
 20
-7.816328786044272
 30
0.0
 10
3.40594111726495
 20
-7.839972673779836
 30
0.0
 10
3.40594111726495
 20
-7.839972673779836
 30
0.0
 10
3.40594111726495
 20
-7.943213201382528
 30
0.0
 10
3.40594111726495
 20
-7.943213201382528
 30
0.0
 10
3.40594111726495
 20
-7.943213201382528
 30
0.0
 10
3.320595203784326
 20
-7.943213201382528
 30
0.0
 10
3.320595203784326
 20
-7.943213201382528
 30
0.0
 10
3.320595203784326
 20
-7.943213201382528
 30
0.0
 10
3.320595203784326
 20
-7.839972673779836
 30
0.0
 10
3.320595203784326
 20
-7.839972673779836
 30
0.0
 10
3.320595203784326
 20
-7.815620393402594
 30
0.0
 10
3.321816924427202
 20
-7.808249003305288
 30
0.0
 10
3.322566383308968
 20
-7.805949293859864
 30
0.0
 10
3.324224432752872
 20
-7.800631215767376
 30
0.0
 10
3.32635987723788
 20
-7.796955787278723
 30
0.0
 10
3.329095915484306
 20
-7.794881942153854
 30
0.0
 10
3.332956142053388
 20
-7.791699308546362
 30
0.0
 10
3.338079155505422
 20
-7.790149057982716
 30
0.0
 10
3.34475755280112
 20
-7.790149057982716
 30
0.0
 10
3.34475755280112
 20
-7.790149057982716
 30
0.0
 10
3.359022937954654
 20
-7.790149057982716
 30
0.0
 10
3.359022937954654
 20
-7.790149057982716
 30
0.0
 10
3.359022937954654
 20
-7.790149057982716
 30
0.0
 10
3.359022937954654
 20
-7.769184742413446
 30
0.0
 10
3.359022937954654
 20
-7.769184742413446
 30
0.0
 10
3.359022937954654
 20
-7.769184742413446
 30
0.0
 10
3.206620987676425
 20
-7.769184742413446
 30
0.0
 10
3.206620987676425
 20
-7.769184742413446
 30
0.0
 10
3.206620987676425
 20
-7.769184742413446
 30
0.0
 10
3.206620987676425
 20
-7.790149057982716
 30
0.0
 10
3.206620987676425
 20
-7.790149057982716
 30
0.0
 10
3.206620987676425
 20
-7.790149057982716
 30
0.0
 10
3.22088123954994
 20
-7.790149057982716
 30
0.0
 10
3.22088123954994
 20
-7.790149057982716
 30
0.0
 10
3.227210573804818
 20
-7.790149057982716
 30
0.0
 10
3.23217445557648
 20
-7.791596642946134
 30
0.0
 10
3.235659952704685
 20
-7.79447127975287
 30
0.0
 10
3.239330247913307
 20
-7.797479381839947
 30
0.0
 10
3.241686423438838
 20
-7.800846813527869
 30
0.0
 10
3.242861944561607
 20
-7.804758372897063
 30
0.0
 10
3.243765401843726
 20
-7.807776741544152
 30
0.0
 10
3.244843390646261
 20
-7.816328786044272
 30
0.0
 10
3.244843390646261
 20
-7.839972673779836
 30
0.0
 10
3.244843390646261
 20
-7.839972673779836
 30
0.0
 10
3.244843390646261
 20
-8.091985922692249
 30
0.0
 10
3.244843390646261
 20
-8.091985922692249
 30
0.0
 10
3.244843390646261
 20
-8.116338203069465
 30
0.0
 10
3.243626803283405
 20
-8.123709593166797
 30
0.0
 10
3.242851678001581
 20
-8.126101701652411
 30
0.0
 10
3.241311693997974
 20
-8.131378713504822
 30
0.0
 10
3.239248115433118
 20
-8.135023342313413
 30
0.0
 10
3.23654801014676
 20
-8.137076654318232
 30
0.0
 10
3.232687783577691
 20
-8.140259287925724
 30
0.0
 10
3.227564770125657
 20
-8.14180953848937
 30
0.0
 10
3.22088123954994
 20
-8.14180953848937
 30
0.0
 10
3.22088123954994
 20
-8.14180953848937
 30
0.0
 10
3.206620987676425
 20
-8.14180953848937
 30
0.0
 10
3.206620987676425
 20
-8.14180953848937
 30
0.0
 10
3.206620987676425
 20
-8.14180953848937
 30
0.0
 10
3.206620987676425
 20
-8.16277385405864
 30
0.0
 10
3.206620987676425
 20
-8.16277385405864
 30
0.0
 10
3.206620987676425
 20
-8.16277385405864
 30
0.0
 10
3.359022937954654
 20
-8.16277385405864
 30
0.0
 10
3.359022937954654
 20
-8.16277385405864
 30
0.0
 10
3.359022937954654
 20
-8.16277385405864
 30
0.0
 10
3.359022937954654
 20
-8.14180953848937
 30
0.0
 10
3.359022937954654
 20
-8.14180953848937
 30
0.0
 10
3.359022937954654
 20
-8.14180953848937
 30
0.0
 10
3.34475755280112
 20
-8.14180953848937
 30
0.0
 10
3.34475755280112
 20
-8.14180953848937
 30
0.0
 10
3.338340952786047
 20
-8.14180953848937
 30
0.0
 10
3.333510536294688
 20
-8.140403019766052
 30
0.0
 10
3.329978839646388
 20
-8.137487316719191
 30
0.0
 10
3.326282878037697
 20
-8.134458681512063
 30
0.0
 10
3.323890769552071
 20
-8.13107071670409
 30
0.0
 10
3.32265878234917
 20
-8.12713862421487
 30
0.0
 10
3.321719392106981
 20
-8.124130522127794
 30
0.0
 10
3.320595203784326
 20
-8.11559901074775
 30
0.0
 10
3.320595203784326
 20
-8.091985922692249
 30
0.0
 10
3.320595203784326
 20
-8.091985922692249
 30
0.0
 10
3.320595203784326
 20
-7.97859176722568
 30
0.0
 10
3.320595203784326
 20
-7.97859176722568
 30
0.0
 10
3.320595203784326
 20
-7.97859176722568
 30
0.0
 10
3.40594111726495
 20
-7.97859176722568
 30
0.0
 10
3.40594111726495
 20
-7.97859176722568
 30
0.0
 10
3.40594111726495
 20
-7.97859176722568
 30
0.0
 10
3.40594111726495
 20
-8.091985922692249
 30
0.0
 10
3.40594111726495
 20
-8.091985922692249
 30
0.0
 10
3.40594111726495
 20
-8.116338203069465
 30
0.0
 10
3.404724529902093
 20
-8.123709593166797
 30
0.0
 10
3.403975071020315
 20
-8.126009302612196
 30
0.0
 10
3.402322154856442
 20
-8.131317114144696
 30
0.0
 10
3.400181577091403
 20
-8.135002809193363
 30
0.0
 10
3.397394206044863
 20
-8.137127987118345
 30
0.0
 10
3.393672578036103
 20
-8.140279821045774
 30
0.0
 10
3.388570097704119
 20
-8.14180953848937
 30
0.0
 10
3.381783901528162
 20
-8.14180953848937
 30
0.0
 10
3.381783901528162
 20
-8.14180953848937
 30
0.0
 10
3.367718714295101
 20
-8.14180953848937
 30
0.0
 10
3.367718714295101
 20
-8.14180953848937
 30
0.0
 10
3.367718714295101
 20
-8.14180953848937
 30
0.0
 10
3.367718714295101
 20
-8.16277385405864
 30
0.0
 10
3.367718714295101
 20
-8.16277385405864
 30
0.0
 10
3.367718714295101
 20
-8.16277385405864
 30
0.0
 10
3.51992046665287
 20
-8.16277385405864
 30
0.0
 10
3.51992046665287
 20
-8.16277385405864
 30
0.0
 10
3.51992046665287
 20
-8.16277385405864
 30
0.0
 10
3.51992046665287
 20
-8.14180953848937
 30
0.0
 10
3.51992046665287
 20
-8.14180953848937
 30
0.0
 10
3.51992046665287
 20
-8.14180953848937
 30
0.0
 10
3.505860412699828
 20
-8.14180953848937
 30
0.0
 10
3.505860412699828
 20
-8.14180953848937
 30
0.0
 10
3.499515678604906
 20
-8.14180953848937
 30
0.0
 10
3.494505597313124
 20
-8.140351686965914
 30
0.0
 10
3.490948234264767
 20
-8.13746678359914
 30
0.0
 10
3.487221472976001
 20
-8.13444841495205
 30
0.0
 10
3.484844764330419
 20
-8.131091249824141
 30
0.0
 10
3.483679509767676
 20
-8.127189957014984
 30
0.0
 10
3.482776052485569
 20
-8.124192121487945
 30
0.0
 10
3.481698063683021
 20
-8.115650343547864
 30
0.0
 10
3.481698063683021
 20
-8.091985922692249
 30
0.0
 10
3.481698063683021
 20
-8.091985922692249
 30
0.0
 10
3.481698063683021
 20
-7.839972673779836
 30
0.0
 10
3.481698063683021
 20
-7.839972673779836
 30
0.0
 10
3.481698063683021
 20
-7.815599860282544
 30
0.0
 10
3.482914651045878
 20
-7.80823873674525
 30
0.0
 10
3.483658976647625
 20
-7.805959560419877
 30
0.0
 10
3.485322159371535
 20
-7.800631215767376
 30
0.0
 10
3.487462737136575
 20
-7.796955787278723
 30
0.0
 10
3.490250108183128
 20
-7.794830609353716
 30
0.0
 10
3.493910136831737
 20
-7.79173010822645
 30
0.0
 10
3.499161482284067
 20
-7.790149057982716
 30
0.0
 10
3.505860412699828
 20
-7.790149057982716
 30
0.0
 10
3.505860412699828
 20
-7.790149057982716
 30
0.0
 10
3.51992046665287
 20
-7.790149057982716
 30
0.0
 10
3.51992046665287
 20
-7.790149057982716
 30
0.0
 10
3.51992046665287
 20
-7.790149057982716
 30
0.0
 10
3.51992046665287
 20
-7.769184742413446
 30
0.0
 10
3.51992046665287
 20
-7.769184742413446
 30
0.0
 10
3.51992046665287
 20
-7.769184742413446
 30
0.0
 10
3.367718714295101
 20
-7.769184742413446
 30
0.0
 10
3.367718714295101
 20
-7.769184742413446
 30
0.0
 10
3.367718714295101
 20
-7.769184742413446
 30
0.0
 10
3.367718714295101
 20
-7.790149057982716
 30
0.0
 10
3.367718714295101
 20
-7.790149057982716
 30
0.0
  0
HATCH
  5
80
330
79
100
AcDbEntity
  8
Layer 2
 62
   250
420
  2301728
440
 33554687
100
AcDbHatch
 10
0.0
 20
0.0
 30
0.0
210
0.0
220
0.0
230
1.0
  2
SOLID
 70
     1
 71
     1
 91
        1
 92
        1
 93
        1
 72
     4
 94
        3
 73
     0
 74
     0
 95
      161
 96
      157
 40
0.0
 40
0.0
 40
0.0
 40
0.0
 40
1.0
 40
1.0
 40
1.0
 40
2.0
 40
2.0
 40
2.0
 40
3.0
 40
3.0
 40
3.0
 40
4.0
 40
4.0
 40
4.0
 40
5.0
 40
5.0
 40
5.0
 40
6.0
 40
6.0
 40
6.0
 40
7.0
 40
7.0
 40
7.0
 40
8.0
 40
8.0
 40
8.0
 40
9.0
 40
9.0
 40
9.0
 40
10.0
 40
10.0
 40
10.0
 40
11.0
 40
11.0
 40
11.0
 40
12.0
 40
12.0
 40
12.0
 40
13.0
 40
13.0
 40
13.0
 40
14.0
 40
14.0
 40
14.0
 40
15.0
 40
15.0
 40
15.0
 40
16.0
 40
16.0
 40
16.0
 40
17.0
 40
17.0
 40
17.0
 40
18.0
 40
18.0
 40
18.0
 40
19.0
 40
19.0
 40
19.0
 40
20.0
 40
20.0
 40
20.0
 40
21.0
 40
21.0
 40
21.0
 40
22.0
 40
22.0
 40
22.0
 40
23.0
 40
23.0
 40
23.0
 40
24.0
 40
24.0
 40
24.0
 40
25.0
 40
25.0
 40
25.0
 40
26.0
 40
26.0
 40
26.0
 40
27.0
 40
27.0
 40
27.0
 40
28.0
 40
28.0
 40
28.0
 40
29.0
 40
29.0
 40
29.0
 40
30.0
 40
30.0
 40
30.0
 40
31.0
 40
31.0
 40
31.0
 40
32.0
 40
32.0
 40
32.0
 40
33.0
 40
33.0
 40
33.0
 40
34.0
 40
34.0
 40
34.0
 40
35.0
 40
35.0
 40
35.0
 40
36.0
 40
36.0
 40
36.0
 40
37.0
 40
37.0
 40
37.0
 40
38.0
 40
38.0
 40
38.0
 40
39.0
 40
39.0
 40
39.0
 40
40.0
 40
40.0
 40
40.0
 40
41.0
 40
41.0
 40
41.0
 40
42.0
 40
42.0
 40
42.0
 40
43.0
 40
43.0
 40
43.0
 40
44.0
 40
44.0
 40
44.0
 40
45.0
 40
45.0
 40
45.0
 40
46.0
 40
46.0
 40
46.0
 40
47.0
 40
47.0
 40
47.0
 40
48.0
 40
48.0
 40
48.0
 40
49.0
 40
49.0
 40
49.0
 40
50.0
 40
50.0
 40
50.0
 40
51.0
 40
51.0
 40
51.0
 40
52.0
 40
52.0
 40
52.0
 40
52.0
 10
3.367718714295101
 20
-7.790149057982716
 10
3.367718714295101
 20
-7.790149057982716
 10
3.381783901528162
 20
-7.790149057982716
 10
3.381783901528162
 20
-7.790149057982716
 10
3.388210768103274
 20
-7.790149057982716
 10
3.393082250834721
 20
-7.791565843266046
 10
3.396690946683204
 20
-7.79449181287292
 10
3.400417707971971
 20
-7.797510181520035
 10
3.402794416617552
 20
-7.800867346647919
 10
3.403959671180283
 20
-7.804758372897063
 10
3.404863128462402
 20
-7.807776741544152
 10
3.40594111726495
 20
-7.816328786044272
 10
3.40594111726495
 20
-7.839972673779836
 10
3.40594111726495
 20
-7.839972673779836
 10
3.40594111726495
 20
-7.943213201382528
 10
3.40594111726495
 20
-7.943213201382528
 10
3.40594111726495
 20
-7.943213201382528
 10
3.320595203784326
 20
-7.943213201382528
 10
3.320595203784326
 20
-7.943213201382528
 10
3.320595203784326
 20
-7.943213201382528
 10
3.320595203784326
 20
-7.839972673779836
 10
3.320595203784326
 20
-7.839972673779836
 10
3.320595203784326
 20
-7.815620393402594
 10
3.321816924427202
 20
-7.808249003305288
 10
3.322566383308968
 20
-7.805949293859864
 10
3.324224432752872
 20
-7.800631215767376
 10
3.32635987723788
 20
-7.796955787278723
 10
3.329095915484306
 20
-7.794881942153854
 10
3.332956142053388
 20
-7.791699308546362
 10
3.338079155505422
 20
-7.790149057982716
 10
3.34475755280112
 20
-7.790149057982716
 10
3.34475755280112
 20
-7.790149057982716
 10
3.359022937954654
 20
-7.790149057982716
 10
3.359022937954654
 20
-7.790149057982716
 10
3.359022937954654
 20
-7.790149057982716
 10
3.359022937954654
 20
-7.769184742413446
 10
3.359022937954654
 20
-7.769184742413446
 10
3.359022937954654
 20
-7.769184742413446
 10
3.206620987676425
 20
-7.769184742413446
 10
3.206620987676425
 20
-7.769184742413446
 10
3.206620987676425
 20
-7.769184742413446
 10
3.206620987676425
 20
-7.790149057982716
 10
3.206620987676425
 20
-7.790149057982716
 10
3.206620987676425
 20
-7.790149057982716
 10
3.22088123954994
 20
-7.790149057982716
 10
3.22088123954994
 20
-7.790149057982716
 10
3.227210573804818
 20
-7.790149057982716
 10
3.23217445557648
 20
-7.791596642946134
 10
3.235659952704685
 20
-7.79447127975287
 10
3.239330247913307
 20
-7.797479381839947
 10
3.241686423438838
 20
-7.800846813527869
 10
3.242861944561607
 20
-7.804758372897063
 10
3.243765401843726
 20
-7.807776741544152
 10
3.244843390646261
 20
-7.816328786044272
 10
3.244843390646261
 20
-7.839972673779836
 10
3.244843390646261
 20
-7.839972673779836
 10
3.244843390646261
 20
-8.091985922692249
 10
3.244843390646261
 20
-8.091985922692249
 10
3.244843390646261
 20
-8.116338203069465
 10
3.243626803283405
 20
-8.123709593166797
 10
3.242851678001581
 20
-8.126101701652411
 10
3.241311693997974
 20
-8.131378713504822
 10
3.239248115433118
 20
-8.135023342313413
 10
3.23654801014676
 20
-8.137076654318232
 10
3.232687783577691
 20
-8.140259287925724
 10
3.227564770125657
 20
-8.14180953848937
 10
3.22088123954994
 20
-8.14180953848937
 10
3.22088123954994
 20
-8.14180953848937
 10
3.206620987676425
 20
-8.14180953848937
 10
3.206620987676425
 20
-8.14180953848937
 10
3.206620987676425
 20
-8.14180953848937
 10
3.206620987676425
 20
-8.16277385405864
 10
3.206620987676425
 20
-8.16277385405864
 10
3.206620987676425
 20
-8.16277385405864
 10
3.359022937954654
 20
-8.16277385405864
 10
3.359022937954654
 20
-8.16277385405864
 10
3.359022937954654
 20
-8.16277385405864
 10
3.359022937954654
 20
-8.14180953848937
 10
3.359022937954654
 20
-8.14180953848937
 10
3.359022937954654
 20
-8.14180953848937
 10
3.34475755280112
 20
-8.14180953848937
 10
3.34475755280112
 20
-8.14180953848937
 10
3.338340952786047
 20
-8.14180953848937
 10
3.333510536294688
 20
-8.140403019766052
 10
3.329978839646388
 20
-8.137487316719191
 10
3.326282878037697
 20
-8.134458681512063
 10
3.323890769552071
 20
-8.13107071670409
 10
3.32265878234917
 20
-8.12713862421487
 10
3.321719392106981
 20
-8.124130522127794
 10
3.320595203784326
 20
-8.11559901074775
 10
3.320595203784326
 20
-8.091985922692249
 10
3.320595203784326
 20
-8.091985922692249
 10
3.320595203784326
 20
-7.97859176722568
 10
3.320595203784326
 20
-7.97859176722568
 10
3.320595203784326
 20
-7.97859176722568
 10
3.40594111726495
 20
-7.97859176722568
 10
3.40594111726495
 20
-7.97859176722568
 10
3.40594111726495
 20
-7.97859176722568
 10
3.40594111726495
 20
-8.091985922692249
 10
3.40594111726495
 20
-8.091985922692249
 10
3.40594111726495
 20
-8.116338203069465
 10
3.404724529902093
 20
-8.123709593166797
 10
3.403975071020315
 20
-8.126009302612196
 10
3.402322154856442
 20
-8.131317114144696
 10
3.400181577091403
 20
-8.135002809193363
 10
3.397394206044863
 20
-8.137127987118345
 10
3.393672578036103
 20
-8.140279821045774
 10
3.388570097704119
 20
-8.14180953848937
 10
3.381783901528162
 20
-8.14180953848937
 10
3.381783901528162
 20
-8.14180953848937
 10
3.367718714295101
 20
-8.14180953848937
 10
3.367718714295101
 20
-8.14180953848937
 10
3.367718714295101
 20
-8.14180953848937
 10
3.367718714295101
 20
-8.16277385405864
 10
3.367718714295101
 20
-8.16277385405864
 10
3.367718714295101
 20
-8.16277385405864
 10
3.51992046665287
 20
-8.16277385405864
 10
3.51992046665287
 20
-8.16277385405864
 10
3.51992046665287
 20
-8.16277385405864
 10
3.51992046665287
 20
-8.14180953848937
 10
3.51992046665287
 20
-8.14180953848937
 10
3.51992046665287
 20
-8.14180953848937
 10
3.505860412699828
 20
-8.14180953848937
 10
3.505860412699828
 20
-8.14180953848937
 10
3.499515678604906
 20
-8.14180953848937
 10
3.494505597313124
 20
-8.140351686965914
 10
3.490948234264767
 20
-8.13746678359914
 10
3.487221472976001
 20
-8.13444841495205
 10
3.484844764330419
 20
-8.131091249824141
 10
3.483679509767676
 20
-8.127189957014984
 10
3.482776052485569
 20
-8.124192121487945
 10
3.481698063683021
 20
-8.115650343547864
 10
3.481698063683021
 20
-8.091985922692249
 10
3.481698063683021
 20
-8.091985922692249
 10
3.481698063683021
 20
-7.839972673779836
 10
3.481698063683021
 20
-7.839972673779836
 10
3.481698063683021
 20
-7.815599860282544
 10
3.482914651045878
 20
-7.80823873674525
 10
3.483658976647625
 20
-7.805959560419877
 10
3.485322159371535
 20
-7.800631215767376
 10
3.487462737136575
 20
-7.796955787278723
 10
3.490250108183128
 20
-7.794830609353716
 10
3.493910136831737
 20
-7.79173010822645
 10
3.499161482284067
 20
-7.790149057982716
 10
3.505860412699828
 20
-7.790149057982716
 10
3.505860412699828
 20
-7.790149057982716
 10
3.51992046665287
 20
-7.790149057982716
 10
3.51992046665287
 20
-7.790149057982716
 10
3.51992046665287
 20
-7.790149057982716
 10
3.51992046665287
 20
-7.769184742413446
 10
3.51992046665287
 20
-7.769184742413446
 10
3.51992046665287
 20
-7.769184742413446
 10
3.367718714295101
 20
-7.769184742413446
 10
3.367718714295101
 20
-7.769184742413446
 10
3.367718714295101
 20
-7.769184742413446
 10
3.367718714295101
 20
-7.790149057982716
 10
3.367718714295101
 20
-7.790149057982716
 97
        0
 97
        1
330
7F
 75
     2
 76
     1
 98
        1
 10
0.0
 20
0.0
450
        0
451
        0
460
0.0
461
0.0
452
        0
462
0.0
453
        0
470

  0
SPLINE
  5
81
330
79
100
AcDbEntity
  8
Layer 2
100
AcDbSpline
210
0.0
220
0.0
230
1.0
 70
    11
 71
     3
 72
    77
 73
    73
 74
     0
 42
0.0000000001
 43
0.0000000001
 40
0.0
 40
0.0
 40
0.0
 40
0.0
 40
1.0
 40
1.0
 40
1.0
 40
2.0
 40
2.0
 40
2.0
 40
3.0
 40
3.0
 40
3.0
 40
4.0
 40
4.0
 40
4.0
 40
5.0
 40
5.0
 40
5.0
 40
6.0
 40
6.0
 40
6.0
 40
7.0
 40
7.0
 40
7.0
 40
8.0
 40
8.0
 40
8.0
 40
9.0
 40
9.0
 40
9.0
 40
10.0
 40
10.0
 40
10.0
 40
11.0
 40
11.0
 40
11.0
 40
12.0
 40
12.0
 40
12.0
 40
13.0
 40
13.0
 40
13.0
 40
14.0
 40
14.0
 40
14.0
 40
15.0
 40
15.0
 40
15.0
 40
16.0
 40
16.0
 40
16.0
 40
17.0
 40
17.0
 40
17.0
 40
18.0
 40
18.0
 40
18.0
 40
19.0
 40
19.0
 40
19.0
 40
20.0
 40
20.0
 40
20.0
 40
21.0
 40
21.0
 40
21.0
 40
22.0
 40
22.0
 40
22.0
 40
23.0
 40
23.0
 40
23.0
 40
24.0
 40
24.0
 40
24.0
 40
24.0
 10
3.525012680424841
 20
-7.790149057982716
 30
0.0
 10
3.525012680424841
 20
-7.790149057982716
 30
0.0
 10
3.539278065578375
 20
-7.790149057982716
 30
0.0
 10
3.539278065578375
 20
-7.790149057982716
 30
0.0
 10
3.545607399833253
 20
-7.790149057982716
 30
0.0
 10
3.550571281604915
 20
-7.791596642946134
 30
0.0
 10
3.554051645453101
 20
-7.79447127975287
 30
0.0
 10
3.557732207221748
 20
-7.797489648399984
 30
0.0
 10
3.560088382747292
 20
-7.80085708008788
 30
0.0
 10
3.561258770590042
 20
-7.804758372897063
 30
0.0
 10
3.56216222787216
 20
-7.807776741544152
 30
0.0
 10
3.563240216674709
 20
-7.816349319164323
 30
0.0
 10
3.563240216674709
 20
-7.839972673779836
 30
0.0
 10
3.563240216674709
 20
-7.839972673779836
 30
0.0
 10
3.563240216674709
 20
-8.091985922692249
 30
0.0
 10
3.563240216674709
 20
-8.091985922692249
 30
0.0
 10
3.563240216674709
 20
-8.116317669949415
 30
0.0
 10
3.562023629311839
 20
-8.123709593166797
 30
0.0
 10
3.561248504030016
 20
-8.126091435092398
 30
0.0
 10
3.55970338674639
 20
-8.131378713504822
 30
0.0
 10
3.557639808181546
 20
-8.135023342313413
 30
0.0
 10
3.554939702895189
 20
-8.137076654318232
 30
0.0
 10
3.551079476326119
 20
-8.140259287925724
 30
0.0
 10
3.545956462874073
 20
-8.14180953848937
 30
0.0
 10
3.539278065578375
 20
-8.14180953848937
 30
0.0
 10
3.539278065578375
 20
-8.14180953848937
 30
0.0
 10
3.525012680424841
 20
-8.14180953848937
 30
0.0
 10
3.525012680424841
 20
-8.14180953848937
 30
0.0
 10
3.525012680424841
 20
-8.14180953848937
 30
0.0
 10
3.525012680424841
 20
-8.16277385405864
 30
0.0
 10
3.525012680424841
 20
-8.16277385405864
 30
0.0
 10
3.525012680424841
 20
-8.16277385405864
 30
0.0
 10
3.677414630703083
 20
-8.16277385405864
 30
0.0
 10
3.677414630703083
 20
-8.16277385405864
 30
0.0
 10
3.677414630703083
 20
-8.16277385405864
 30
0.0
 10
3.677414630703083
 20
-8.14180953848937
 30
0.0
 10
3.677414630703083
 20
-8.14180953848937
 30
0.0
 10
3.677414630703083
 20
-8.14180953848937
 30
0.0
 10
3.663154378829567
 20
-8.14180953848937
 30
0.0
 10
3.663154378829567
 20
-8.14180953848937
 30
0.0
 10
3.656825044574677
 20
-8.14180953848937
 30
0.0
 10
3.651856029523009
 20
-8.140361953525951
 30
0.0
 10
3.648375665674822
 20
-8.137487316719191
 30
0.0
 10
3.644679704066131
 20
-8.134458681512063
 30
0.0
 10
3.642282462300499
 20
-8.13107071670409
 30
0.0
 10
3.64105047509761
 20
-8.12713862421487
 30
0.0
 10
3.640111084855397
 20
-8.124140788687832
 30
0.0
 10
3.638992029812761
 20
-8.115609277307763
 30
0.0
 10
3.638992029812761
 20
-8.091985922692249
 30
0.0
 10
3.638992029812761
 20
-8.091985922692249
 30
0.0
 10
3.638992029812761
 20
-7.839972673779836
 30
0.0
 10
3.638992029812761
 20
-7.839972673779836
 30
0.0
 10
3.638992029812761
 20
-7.815620393402594
 30
0.0
 10
3.64020861717563
 20
-7.808249003305288
 30
0.0
 10
3.640952942777377
 20
-7.805959560419877
 30
0.0
 10
3.642616125501287
 20
-7.800631215767376
 30
0.0
 10
3.644756703266314
 20
-7.796955787278723
 30
0.0
 10
3.647487608232735
 20
-7.794881942153854
 30
0.0
 10
3.651347834801804
 20
-7.791699308546362
 30
0.0
 10
3.65647084825385
 20
-7.790149057982716
 30
0.0
 10
3.663154378829567
 20
-7.790149057982716
 30
0.0
 10
3.663154378829567
 20
-7.790149057982716
 30
0.0
 10
3.677414630703083
 20
-7.790149057982716
 30
0.0
 10
3.677414630703083
 20
-7.790149057982716
 30
0.0
 10
3.677414630703083
 20
-7.790149057982716
 30
0.0
 10
3.677414630703083
 20
-7.769184742413446
 30
0.0
 10
3.677414630703083
 20
-7.769184742413446
 30
0.0
 10
3.677414630703083
 20
-7.769184742413446
 30
0.0
 10
3.525012680424841
 20
-7.769184742413446
 30
0.0
 10
3.525012680424841
 20
-7.769184742413446
 30
0.0
 10
3.525012680424841
 20
-7.769184742413446
 30
0.0
 10
3.525012680424841
 20
-7.790149057982716
 30
0.0
 10
3.525012680424841
 20
-7.790149057982716
 30
0.0
  0
HATCH
  5
82
330
79
100
AcDbEntity
  8
Layer 2
 62
   250
420
  2301728
440
 33554687
100
AcDbHatch
 10
0.0
 20
0.0
 30
0.0
210
0.0
220
0.0
230
1.0
  2
SOLID
 70
     1
 71
     1
 91
        1
 92
        1
 93
        1
 72
     4
 94
        3
 73
     0
 74
     0
 95
       77
 96
       73
 40
0.0
 40
0.0
 40
0.0
 40
0.0
 40
1.0
 40
1.0
 40
1.0
 40
2.0
 40
2.0
 40
2.0
 40
3.0
 40
3.0
 40
3.0
 40
4.0
 40
4.0
 40
4.0
 40
5.0
 40
5.0
 40
5.0
 40
6.0
 40
6.0
 40
6.0
 40
7.0
 40
7.0
 40
7.0
 40
8.0
 40
8.0
 40
8.0
 40
9.0
 40
9.0
 40
9.0
 40
10.0
 40
10.0
 40
10.0
 40
11.0
 40
11.0
 40
11.0
 40
12.0
 40
12.0
 40
12.0
 40
13.0
 40
13.0
 40
13.0
 40
14.0
 40
14.0
 40
14.0
 40
15.0
 40
15.0
 40
15.0
 40
16.0
 40
16.0
 40
16.0
 40
17.0
 40
17.0
 40
17.0
 40
18.0
 40
18.0
 40
18.0
 40
19.0
 40
19.0
 40
19.0
 40
20.0
 40
20.0
 40
20.0
 40
21.0
 40
21.0
 40
21.0
 40
22.0
 40
22.0
 40
22.0
 40
23.0
 40
23.0
 40
23.0
 40
24.0
 40
24.0
 40
24.0
 40
24.0
 10
3.525012680424841
 20
-7.790149057982716
 10
3.525012680424841
 20
-7.790149057982716
 10
3.539278065578375
 20
-7.790149057982716
 10
3.539278065578375
 20
-7.790149057982716
 10
3.545607399833253
 20
-7.790149057982716
 10
3.550571281604915
 20
-7.791596642946134
 10
3.554051645453101
 20
-7.79447127975287
 10
3.557732207221748
 20
-7.797489648399984
 10
3.560088382747292
 20
-7.80085708008788
 10
3.561258770590042
 20
-7.804758372897063
 10
3.56216222787216
 20
-7.807776741544152
 10
3.563240216674709
 20
-7.816349319164323
 10
3.563240216674709
 20
-7.839972673779836
 10
3.563240216674709
 20
-7.839972673779836
 10
3.563240216674709
 20
-8.091985922692249
 10
3.563240216674709
 20
-8.091985922692249
 10
3.563240216674709
 20
-8.116317669949415
 10
3.562023629311839
 20
-8.123709593166797
 10
3.561248504030016
 20
-8.126091435092398
 10
3.55970338674639
 20
-8.131378713504822
 10
3.557639808181546
 20
-8.135023342313413
 10
3.554939702895189
 20
-8.137076654318232
 10
3.551079476326119
 20
-8.140259287925724
 10
3.545956462874073
 20
-8.14180953848937
 10
3.539278065578375
 20
-8.14180953848937
 10
3.539278065578375
 20
-8.14180953848937
 10
3.525012680424841
 20
-8.14180953848937
 10
3.525012680424841
 20
-8.14180953848937
 10
3.525012680424841
 20
-8.14180953848937
 10
3.525012680424841
 20
-8.16277385405864
 10
3.525012680424841
 20
-8.16277385405864
 10
3.525012680424841
 20
-8.16277385405864
 10
3.677414630703083
 20
-8.16277385405864
 10
3.677414630703083
 20
-8.16277385405864
 10
3.677414630703083
 20
-8.16277385405864
 10
3.677414630703083
 20
-8.14180953848937
 10
3.677414630703083
 20
-8.14180953848937
 10
3.677414630703083
 20
-8.14180953848937
 10
3.663154378829567
 20
-8.14180953848937
 10
3.663154378829567
 20
-8.14180953848937
 10
3.656825044574677
 20
-8.14180953848937
 10
3.651856029523009
 20
-8.140361953525951
 10
3.648375665674822
 20
-8.137487316719191
 10
3.644679704066131
 20
-8.134458681512063
 10
3.642282462300499
 20
-8.13107071670409
 10
3.64105047509761
 20
-8.12713862421487
 10
3.640111084855397
 20
-8.124140788687832
 10
3.638992029812761
 20
-8.115609277307763
 10
3.638992029812761
 20
-8.091985922692249
 10
3.638992029812761
 20
-8.091985922692249
 10
3.638992029812761
 20
-7.839972673779836
 10
3.638992029812761
 20
-7.839972673779836
 10
3.638992029812761
 20
-7.815620393402594
 10
3.64020861717563
 20
-7.808249003305288
 10
3.640952942777377
 20
-7.805959560419877
 10
3.642616125501287
 20
-7.800631215767376
 10
3.644756703266314
 20
-7.796955787278723
 10
3.647487608232735
 20
-7.794881942153854
 10
3.651347834801804
 20
-7.791699308546362
 10
3.65647084825385
 20
-7.790149057982716
 10
3.663154378829567
 20
-7.790149057982716
 10
3.663154378829567
 20
-7.790149057982716
 10
3.677414630703083
 20
-7.790149057982716
 10
3.677414630703083
 20
-7.790149057982716
 10
3.677414630703083
 20
-7.790149057982716
 10
3.677414630703083
 20
-7.769184742413446
 10
3.677414630703083
 20
-7.769184742413446
 10
3.677414630703083
 20
-7.769184742413446
 10
3.525012680424841
 20
-7.769184742413446
 10
3.525012680424841
 20
-7.769184742413446
 10
3.525012680424841
 20
-7.769184742413446
 10
3.525012680424841
 20
-7.790149057982716
 10
3.525012680424841
 20
-7.790149057982716
 97
        0
 97
        1
330
81
 75
     2
 76
     1
 98
        1
 10
0.0
 20
0.0
450
        0
451
        0
460
0.0
461
0.0
452
        0
462
0.0
453
        0
470

  0
SPLINE
  5
83
330
79
100
AcDbEntity
  8
Layer 2
100
AcDbSpline
210
0.0
220
0.0
230
1.0
 70
    11
 71
     3
 72
    86
 73
    82
 74
     0
 42
0.0000000001
 43
0.0000000001
 40
0.0
 40
0.0
 40
0.0
 40
0.0
 40
1.0
 40
1.0
 40
1.0
 40
2.0
 40
2.0
 40
2.0
 40
3.0
 40
3.0
 40
3.0
 40
4.0
 40
4.0
 40
4.0
 40
5.0
 40
5.0
 40
5.0
 40
6.0
 40
6.0
 40
6.0
 40
7.0
 40
7.0
 40
7.0
 40
8.0
 40
8.0
 40
8.0
 40
9.0
 40
9.0
 40
9.0
 40
10.0
 40
10.0
 40
10.0
 40
11.0
 40
11.0
 40
11.0
 40
12.0
 40
12.0
 40
12.0
 40
13.0
 40
13.0
 40
13.0
 40
14.0
 40
14.0
 40
14.0
 40
15.0
 40
15.0
 40
15.0
 40
16.0
 40
16.0
 40
16.0
 40
17.0
 40
17.0
 40
17.0
 40
18.0
 40
18.0
 40
18.0
 40
19.0
 40
19.0
 40
19.0
 40
20.0
 40
20.0
 40
20.0
 40
21.0
 40
21.0
 40
21.0
 40
22.0
 40
22.0
 40
22.0
 40
23.0
 40
23.0
 40
23.0
 40
24.0
 40
24.0
 40
24.0
 40
25.0
 40
25.0
 40
25.0
 40
26.0
 40
26.0
 40
26.0
 40
27.0
 40
27.0
 40
27.0
 40
27.0
 10
3.691120488335299
 20
-7.883379689561883
 30
0.0
 10
3.691120488335299
 20
-7.883379689561883
 30
0.0
 10
3.708696839096622
 20
-7.883379689561883
 30
0.0
 10
3.708696839096622
 20
-7.883379689561883
 30
0.0
 10
3.708696839096622
 20
-7.883379689561883
 30
0.0
 10
3.709205033817814
 20
-7.878687871630845
 30
0.0
 10
3.709205033817814
 20
-7.878687871630845
 30
0.0
 10
3.712156669824758
 20
-7.851532820367006
 30
0.0
 10
3.719209796561333
 20
-7.830455572637472
 30
0.0
 10
3.730189882507134
 20
-7.816041322363591
 30
0.0
 10
3.737468873564251
 20
-7.806411289060961
 30
0.0
 10
3.749126552471655
 20
-7.801729737689962
 30
0.0
 10
3.765819979070897
 20
-7.801729737689962
 30
0.0
 10
3.765819979070897
 20
-7.801729737689962
 30
0.0
 10
3.780177763264633
 20
-7.801729737689962
 30
0.0
 10
3.780177763264633
 20
-7.801729737689962
 30
0.0
 10
3.780177763264633
 20
-7.801729737689962
 30
0.0
 10
3.780177763264633
 20
-8.091985922692249
 30
0.0
 10
3.780177763264633
 20
-8.091985922692249
 30
0.0
 10
3.780177763264633
 20
-8.116338203069465
 30
0.0
 10
3.778961175901788
 20
-8.123709593166797
 30
0.0
 10
3.778216850300041
 20
-8.125999036052183
 30
0.0
 10
3.776553667576131
 20
-8.131317114144696
 30
0.0
 10
3.774413089811092
 20
-8.135002809193363
 30
0.0
 10
3.771682184844671
 20
-8.137076654318232
 30
0.0
 10
3.767821958275602
 20
-8.140259287925724
 30
0.0
 10
3.762698944823556
 20
-8.14180953848937
 30
0.0
 10
3.756015414247839
 20
-8.14180953848937
 30
0.0
 10
3.756015414247839
 20
-8.14180953848937
 30
0.0
 10
3.741755162374324
 20
-8.14180953848937
 30
0.0
 10
3.741755162374324
 20
-8.14180953848937
 30
0.0
 10
3.741755162374324
 20
-8.14180953848937
 30
0.0
 10
3.741755162374324
 20
-8.16277385405864
 30
0.0
 10
3.741755162374324
 20
-8.16277385405864
 30
0.0
 10
3.741755162374324
 20
-8.16277385405864
 30
0.0
 10
3.894352177293019
 20
-8.16277385405864
 30
0.0
 10
3.894352177293019
 20
-8.16277385405864
 30
0.0
 10
3.894352177293019
 20
-8.16277385405864
 30
0.0
 10
3.894352177293019
 20
-8.14180953848937
 30
0.0
 10
3.894352177293019
 20
-8.14180953848937
 30
0.0
 10
3.894352177293019
 20
-8.14180953848937
 30
0.0
 10
3.880091925419504
 20
-8.14180953848937
 30
0.0
 10
3.880091925419504
 20
-8.14180953848937
 30
0.0
 10
3.87363425916433
 20
-8.14180953848937
 30
0.0
 10
3.868598511472479
 20
-8.140361953525951
 30
0.0
 10
3.865113014344299
 20
-8.137487316719191
 30
0.0
 10
3.861417052735608
 20
-8.134458681512063
 30
0.0
 10
3.859024944249982
 20
-8.13107071670409
 30
0.0
 10
3.857792957047093
 20
-8.12713862421487
 30
0.0
 10
3.856853566804879
 20
-8.124130522127794
 30
0.0
 10
3.855729378482237
 20
-8.11559901074775
 30
0.0
 10
3.855729378482237
 20
-8.091985922692249
 30
0.0
 10
3.855729378482237
 20
-8.091985922692249
 30
0.0
 10
3.855729378482237
 20
-7.801729737689962
 30
0.0
 10
3.855729378482237
 20
-7.801729737689962
 30
0.0
 10
3.855729378482237
 20
-7.801729737689962
 30
0.0
 10
3.870687756437405
 20
-7.801729737689962
 30
0.0
 10
3.870687756437405
 20
-7.801729737689962
 30
0.0
 10
3.885081473591235
 20
-7.801729737689962
 30
0.0
 10
3.891518606726359
 20
-7.804019180575323
 30
0.0
 10
3.894331644172969
 20
-7.80589796105975
 30
0.0
 10
3.902611624832438
 20
-7.811565102193071
 30
0.0
 10
3.909228422767998
 20
-7.819316355011298
 30
0.0
 10
3.914017773019256
 20
-7.828915588633839
 30
0.0
 10
3.918966254950886
 20
-7.838853618737225
 30
0.0
 10
3.923591340241753
 20
-7.855721576856845
 30
0.0
 10
3.927749297051528
 20
-7.879047201231691
 30
0.0
 10
3.927749297051528
 20
-7.879047201231691
 30
0.0
 10
3.928519289053345
 20
-7.883379689561883
 30
0.0
 10
3.928519289053345
 20
-7.883379689561883
 30
0.0
 10
3.928519289053345
 20
-7.883379689561883
 30
0.0
 10
3.945387247172991
 20
-7.883379689561883
 30
0.0
 10
3.945387247172991
 20
-7.883379689561883
 30
0.0
 10
3.945387247172991
 20
-7.883379689561883
 30
0.0
 10
3.945387247172991
 20
-7.769184742413446
 30
0.0
 10
3.945387247172991
 20
-7.769184742413446
 30
0.0
 10
3.945387247172991
 20
-7.769184742413446
 30
0.0
 10
3.691120488335299
 20
-7.769184742413446
 30
0.0
 10
3.691120488335299
 20
-7.769184742413446
 30
0.0
 10
3.691120488335299
 20
-7.769184742413446
 30
0.0
 10
3.691120488335299
 20
-7.883379689561883
 30
0.0
 10
3.691120488335299
 20
-7.883379689561883
 30
0.0
  0
HATCH
  5
84
330
79
100
AcDbEntity
  8
Layer 2
 62
   250
420
  2301728
440
 33554687
100
AcDbHatch
 10
0.0
 20
0.0
 30
0.0
210
0.0
220
0.0
230
1.0
  2
SOLID
 70
     1
 71
     1
 91
        1
 92
        1
 93
        1
 72
     4
 94
        3
 73
     0
 74
     0
 95
       86
 96
       82
 40
0.0
 40
0.0
 40
0.0
 40
0.0
 40
1.0
 40
1.0
 40
1.0
 40
2.0
 40
2.0
 40
2.0
 40
3.0
 40
3.0
 40
3.0
 40
4.0
 40
4.0
 40
4.0
 40
5.0
 40
5.0
 40
5.0
 40
6.0
 40
6.0
 40
6.0
 40
7.0
 40
7.0
 40
7.0
 40
8.0
 40
8.0
 40
8.0
 40
9.0
 40
9.0
 40
9.0
 40
10.0
 40
10.0
 40
10.0
 40
11.0
 40
11.0
 40
11.0
 40
12.0
 40
12.0
 40
12.0
 40
13.0
 40
13.0
 40
13.0
 40
14.0
 40
14.0
 40
14.0
 40
15.0
 40
15.0
 40
15.0
 40
16.0
 40
16.0
 40
16.0
 40
17.0
 40
17.0
 40
17.0
 40
18.0
 40
18.0
 40
18.0
 40
19.0
 40
19.0
 40
19.0
 40
20.0
 40
20.0
 40
20.0
 40
21.0
 40
21.0
 40
21.0
 40
22.0
 40
22.0
 40
22.0
 40
23.0
 40
23.0
 40
23.0
 40
24.0
 40
24.0
 40
24.0
 40
25.0
 40
25.0
 40
25.0
 40
26.0
 40
26.0
 40
26.0
 40
27.0
 40
27.0
 40
27.0
 40
27.0
 10
3.691120488335299
 20
-7.883379689561883
 10
3.691120488335299
 20
-7.883379689561883
 10
3.708696839096622
 20
-7.883379689561883
 10
3.708696839096622
 20
-7.883379689561883
 10
3.708696839096622
 20
-7.883379689561883
 10
3.709205033817814
 20
-7.878687871630845
 10
3.709205033817814
 20
-7.878687871630845
 10
3.712156669824758
 20
-7.851532820367006
 10
3.719209796561333
 20
-7.830455572637472
 10
3.730189882507134
 20
-7.816041322363591
 10
3.737468873564251
 20
-7.806411289060961
 10
3.749126552471655
 20
-7.801729737689962
 10
3.765819979070897
 20
-7.801729737689962
 10
3.765819979070897
 20
-7.801729737689962
 10
3.780177763264633
 20
-7.801729737689962
 10
3.780177763264633
 20
-7.801729737689962
 10
3.780177763264633
 20
-7.801729737689962
 10
3.780177763264633
 20
-8.091985922692249
 10
3.780177763264633
 20
-8.091985922692249
 10
3.780177763264633
 20
-8.116338203069465
 10
3.778961175901788
 20
-8.123709593166797
 10
3.778216850300041
 20
-8.125999036052183
 10
3.776553667576131
 20
-8.131317114144696
 10
3.774413089811092
 20
-8.135002809193363
 10
3.771682184844671
 20
-8.137076654318232
 10
3.767821958275602
 20
-8.140259287925724
 10
3.762698944823556
 20
-8.14180953848937
 10
3.756015414247839
 20
-8.14180953848937
 10
3.756015414247839
 20
-8.14180953848937
 10
3.741755162374324
 20
-8.14180953848937
 10
3.741755162374324
 20
-8.14180953848937
 10
3.741755162374324
 20
-8.14180953848937
 10
3.741755162374324
 20
-8.16277385405864
 10
3.741755162374324
 20
-8.16277385405864
 10
3.741755162374324
 20
-8.16277385405864
 10
3.894352177293019
 20
-8.16277385405864
 10
3.894352177293019
 20
-8.16277385405864
 10
3.894352177293019
 20
-8.16277385405864
 10
3.894352177293019
 20
-8.14180953848937
 10
3.894352177293019
 20
-8.14180953848937
 10
3.894352177293019
 20
-8.14180953848937
 10
3.880091925419504
 20
-8.14180953848937
 10
3.880091925419504
 20
-8.14180953848937
 10
3.87363425916433
 20
-8.14180953848937
 10
3.868598511472479
 20
-8.140361953525951
 10
3.865113014344299
 20
-8.137487316719191
 10
3.861417052735608
 20
-8.134458681512063
 10
3.859024944249982
 20
-8.13107071670409
 10
3.857792957047093
 20
-8.12713862421487
 10
3.856853566804879
 20
-8.124130522127794
 10
3.855729378482237
 20
-8.11559901074775
 10
3.855729378482237
 20
-8.091985922692249
 10
3.855729378482237
 20
-8.091985922692249
 10
3.855729378482237
 20
-7.801729737689962
 10
3.855729378482237
 20
-7.801729737689962
 10
3.855729378482237
 20
-7.801729737689962
 10
3.870687756437405
 20
-7.801729737689962
 10
3.870687756437405
 20
-7.801729737689962
 10
3.885081473591235
 20
-7.801729737689962
 10
3.891518606726359
 20
-7.804019180575323
 10
3.894331644172969
 20
-7.80589796105975
 10
3.902611624832438
 20
-7.811565102193071
 10
3.909228422767998
 20
-7.819316355011298
 10
3.914017773019256
 20
-7.828915588633839
 10
3.918966254950886
 20
-7.838853618737225
 10
3.923591340241753
 20
-7.855721576856845
 10
3.927749297051528
 20
-7.879047201231691
 10
3.927749297051528
 20
-7.879047201231691
 10
3.928519289053345
 20
-7.883379689561883
 10
3.928519289053345
 20
-7.883379689561883
 10
3.928519289053345
 20
-7.883379689561883
 10
3.945387247172991
 20
-7.883379689561883
 10
3.945387247172991
 20
-7.883379689561883
 10
3.945387247172991
 20
-7.883379689561883
 10
3.945387247172991
 20
-7.769184742413446
 10
3.945387247172991
 20
-7.769184742413446
 10
3.945387247172991
 20
-7.769184742413446
 10
3.691120488335299
 20
-7.769184742413446
 10
3.691120488335299
 20
-7.769184742413446
 10
3.691120488335299
 20
-7.769184742413446
 10
3.691120488335299
 20
-7.883379689561883
 10
3.691120488335299
 20
-7.883379689561883
 97
        0
 97
        1
330
83
 75
     2
 76
     1
 98
        1
 10
0.0
 20
0.0
450
        0
451
        0
460
0.0
461
0.0
452
        0
462
0.0
453
        0
470

  0
SPLINE
  5
85
330
79
100
AcDbEntity
  8
Layer 2
100
AcDbSpline
210
0.0
220
0.0
230
1.0
 70
     9
 71
     3
 72
   128
 73
   124
 74
     0
 42
0.0000000001
 43
0.0000000001
 40
0.0
 40
0.0
 40
0.0
 40
0.0
 40
1.0
 40
1.0
 40
1.0
 40
2.0
 40
2.0
 40
2.0
 40
3.0
 40
3.0
 40
3.0
 40
4.0
 40
4.0
 40
4.0
 40
5.0
 40
5.0
 40
5.0
 40
6.0
 40
6.0
 40
6.0
 40
7.0
 40
7.0
 40
7.0
 40
8.0
 40
8.0
 40
8.0
 40
9.0
 40
9.0
 40
9.0
 40
10.0
 40
10.0
 40
10.0
 40
11.0
 40
11.0
 40
11.0
 40
12.0
 40
12.0
 40
12.0
 40
13.0
 40
13.0
 40
13.0
 40
14.0
 40
14.0
 40
14.0
 40
15.0
 40
15.0
 40
15.0
 40
16.0
 40
16.0
 40
16.0
 40
17.0
 40
17.0
 40
17.0
 40
18.0
 40
18.0
 40
18.0
 40
19.0
 40
19.0
 40
19.0
 40
20.0
 40
20.0
 40
20.0
 40
21.0
 40
21.0
 40
21.0
 40
22.0
 40
22.0
 40
22.0
 40
23.0
 40
23.0
 40
23.0
 40
24.0
 40
24.0
 40
24.0
 40
25.0
 40
25.0
 40
25.0
 40
26.0
 40
26.0
 40
26.0
 40
27.0
 40
27.0
 40
27.0
 40
28.0
 40
28.0
 40
28.0
 40
29.0
 40
29.0
 40
29.0
 40
30.0
 40
30.0
 40
30.0
 40
31.0
 40
31.0
 40
31.0
 40
32.0
 40
32.0
 40
32.0
 40
33.0
 40
33.0
 40
33.0
 40
34.0
 40
34.0
 40
34.0
 40
35.0
 40
35.0
 40
35.0
 40
36.0
 40
36.0
 40
36.0
 40
37.0
 40
37.0
 40
37.0
 40
38.0
 40
38.0
 40
38.0
 40
39.0
 40
39.0
 40
39.0
 40
40.0
 40
40.0
 40
40.0
 40
41.0
 40
41.0
 40
41.0
 40
41.0
 10
4.197344030005246
 20
-8.034749850557696
 30
0.0
 10
4.190876097190046
 20
-8.067520710154742
 30
0.0
 10
4.180239941005045
 20
-8.09213992109259
 30
0.0
 10
4.165712758570887
 20
-8.107919623849687
 30
0.0
 10
4.151339574537106
 20
-8.123493995406306
 30
0.0
 10
4.13266470185321
 20
-8.13107071670409
 30
0.0
 10
4.108630684836713
 20
-8.13107071670409
 30
0.0
 10
4.108630684836713
 20
-8.13107071670409
 30
0.0
 10
4.092430053118631
 20
-8.13107071670409
 30
0.0
 10
4.092430053118631
 20
-8.13107071670409
 30
0.0
 10
4.086116118703797
 20
-8.13107071670409
 30
0.0
 10
4.081485900132912
 20
-8.129951661661481
 30
0.0
 10
4.07906299196721
 20
-8.127847016856524
 30
0.0
 10
4.076383419800915
 20
-8.125506241171024
 30
0.0
 10
4.07458677179669
 20
-8.122570005004137
 30
0.0
 10
4.073580648914331
 20
-8.11886377683542
 30
0.0
 10
4.07294412219283
 20
-8.116471668349781
 30
0.0
 10
4.071866133390295
 20
-8.108443218410911
 30
0.0
 10
4.071866133390295
 20
-8.081524298027639
 30
0.0
 10
4.071866133390295
 20
-8.081524298027639
 30
0.0
 10
4.071866133390295
 20
-7.979022962746713
 30
0.0
 10
4.071866133390295
 20
-7.979022962746713
 30
0.0
 10
4.08107523773194
 20
-7.979567090427963
 30
0.0
 10
4.088231030068754
 20
-7.981610135872768
 30
0.0
 10
4.093189778560409
 20
-7.985100766280993
 30
0.0
 10
4.099082784014273
 20
-7.989258723090743
 30
0.0
 10
4.104462461466911
 20
-7.997882633511026
 30
0.0
 10
4.109215878758087
 20
-8.01073636666125
 30
0.0
 10
4.114154094129692
 20
-8.024154760612796
 30
0.0
 10
4.117449659897437
 20
-8.04173111137412
 30
0.0
 10
4.118999910461083
 20
-8.062972624064034
 30
0.0
 10
4.118999910461083
 20
-8.062972624064034
 30
0.0
 10
4.119359240061941
 20
-8.067849240075499
 30
0.0
 10
4.119359240061941
 20
-8.067849240075499
 30
0.0
 10
4.119359240061941
 20
-8.067849240075499
 30
0.0
 10
4.137099855783642
 20
-8.067849240075499
 30
0.0
 10
4.137099855783642
 20
-8.067849240075499
 30
0.0
 10
4.137099855783642
 20
-8.067849240075499
 30
0.0
 10
4.137099855783642
 20
-7.856758499419306
 30
0.0
 10
4.137099855783642
 20
-7.856758499419306
 30
0.0
 10
4.137099855783642
 20
-7.856758499419306
 30
0.0
 10
4.119348973501915
 20
-7.856758499419306
 30
0.0
 10
4.119348973501915
 20
-7.856758499419306
 30
0.0
 10
4.119348973501915
 20
-7.856758499419306
 30
0.0
 10
4.118999910461083
 20
-7.861635115430772
 30
0.0
 10
4.118999910461083
 20
-7.861635115430772
 30
0.0
 10
4.116926065336214
 20
-7.890545748458735
 30
0.0
 10
4.112131581804949
 20
-7.912598319390554
 30
0.0
 10
4.104749925147593
 20
-7.927156301504787
 30
0.0
 10
4.097922662731535
 20
-7.940615761696435
 30
0.0
 10
4.087214640626383
 20
-7.947155560431787
 30
0.0
 10
4.072009865230635
 20
-7.947155560431787
 30
0.0
 10
4.072009865230635
 20
-7.947155560431787
 30
0.0
 10
4.071866133390295
 20
-7.801729737689962
 30
0.0
 10
4.071866133390295
 20
-7.801729737689962
 30
0.0
 10
4.071866133390295
 20
-7.801729737689962
 30
0.0
 10
4.094627096963803
 20
-7.801729737689962
 30
0.0
 10
4.094627096963803
 20
-7.801729737689962
 30
0.0
 10
4.119174441981499
 20
-7.801729737689962
 30
0.0
 10
4.129841397846576
 20
-7.804245044895853
 30
0.0
 10
4.1345332157776
 20
-7.806380489380873
 30
0.0
 10
4.146237094205111
 20
-7.811534302513008
 30
0.0
 10
4.155425665426719
 20
-7.819737283972294
 30
0.0
 10
4.161821732321755
 20
-7.830753302878165
 30
0.0
 10
4.168453930097345
 20
-7.842149184504958
 30
0.0
 10
4.173720675389719
 20
-7.861563249510608
 30
0.0
 10
4.177478236358549
 20
-7.888451370213791
 30
0.0
 10
4.177478236358549
 20
-7.888451370213791
 30
0.0
 10
4.17811476308005
 20
-7.89297892318445
 30
0.0
 10
4.17811476308005
 20
-7.89297892318445
 30
0.0
 10
4.17811476308005
 20
-7.89297892318445
 30
0.0
 10
4.19554738200102
 20
-7.89297892318445
 30
0.0
 10
4.19554738200102
 20
-7.89297892318445
 30
0.0
 10
4.19554738200102
 20
-7.89297892318445
 30
0.0
 10
4.19554738200102
 20
-7.769184742413446
 30
0.0
 10
4.19554738200102
 20
-7.769184742413446
 30
0.0
 10
4.19554738200102
 20
-7.769184742413446
 30
0.0
 10
3.957886784002362
 20
-7.769184742413446
 30
0.0
 10
3.957886784002362
 20
-7.769184742413446
 30
0.0
 10
3.957886784002362
 20
-7.769184742413446
 30
0.0
 10
3.957886784002362
 20
-7.790149057982716
 30
0.0
 10
3.957886784002362
 20
-7.790149057982716
 30
0.0
 10
3.957886784002362
 20
-7.790149057982716
 30
0.0
 10
3.97214703587589
 20
-7.790149057982716
 30
0.0
 10
3.97214703587589
 20
-7.790149057982716
 30
0.0
 10
3.979528692533234
 20
-7.790149057982716
 30
0.0
 10
3.985098301346333
 20
-7.792212636547573
 30
0.0
 10
3.989256258156109
 20
-7.796534858317727
 30
0.0
 10
3.992094962002788
 20
-7.799358162324374
 30
0.0
 10
3.9941020744875
 20
-7.803587985054313
 30
0.0
 10
3.995185196570041
 20
-7.808926596266852
 30
0.0
 10
3.995611258811057
 20
-7.811452170032806
 30
0.0
 10
3.996119453532249
 20
-7.818885159490264
 30
0.0
 10
3.996119453532249
 20
-7.839972673779836
 30
0.0
 10
3.996119453532249
 20
-7.839972673779836
 30
0.0
 10
3.996119453532249
 20
-8.091985922692249
 30
0.0
 10
3.996119453532249
 20
-8.091985922692249
 30
0.0
 10
3.996119453532249
 20
-8.116327936509479
 30
0.0
 10
3.99489773288936
 20
-8.123709593166797
 30
0.0
 10
3.994122607607538
 20
-8.126091435092398
 30
0.0
 10
3.992572357043905
 20
-8.131378713504822
 30
0.0
 10
3.990508778479061
 20
-8.135033608873426
 30
0.0
 10
3.987813806472722
 20
-8.137076654318232
 30
0.0
 10
3.983953579903641
 20
-8.140259287925724
 30
0.0
 10
3.978830566451594
 20
-8.14180953848937
 30
0.0
 10
3.97214703587589
 20
-8.14180953848937
 30
0.0
 10
3.97214703587589
 20
-8.14180953848937
 30
0.0
 10
3.957886784002362
 20
-8.14180953848937
 30
0.0
 10
3.957886784002362
 20
-8.14180953848937
 30
0.0
 10
3.957886784002362
 20
-8.14180953848937
 30
0.0
 10
3.957886784002362
 20
-8.16277385405864
 30
0.0
 10
3.957886784002362
 20
-8.16277385405864
 30
0.0
 10
3.957886784002362
 20
-8.16277385405864
 30
0.0
 10
4.202446510337241
 20
-8.16277385405864
 30
0.0
 10
4.202446510337241
 20
-8.16277385405864
 30
0.0
 10
4.202446510337241
 20
-8.16277385405864
 30
0.0
 10
4.215710905888423
 20
-8.030509761267719
 30
0.0
 10
4.215710905888423
 20
-8.030509761267719
 30
0.0
 10
4.215710905888423
 20
-8.030509761267719
 30
0.0
 10
4.198175621367201
 20
-8.030509761267719
 30
0.0
 10
4.198175621367201
 20
-8.030509761267719
 30
0.0
 10
4.198175621367201
 20
-8.030509761267719
 30
0.0
 10
4.197344030005246
 20
-8.034749850557696
 30
0.0
 10
4.197344030005246
 20
-8.034749850557696
 30
0.0
  0
HATCH
  5
86
330
79
100
AcDbEntity
  8
Layer 2
 62
   250
420
  2301728
440
 33554687
100
AcDbHatch
 10
0.0
 20
0.0
 30
0.0
210
0.0
220
0.0
230
1.0
  2
SOLID
 70
     1
 71
     1
 91
        1
 92
        1
 93
        1
 72
     4
 94
        3
 73
     0
 74
     0
 95
      128
 96
      124
 40
0.0
 40
0.0
 40
0.0
 40
0.0
 40
1.0
 40
1.0
 40
1.0
 40
2.0
 40
2.0
 40
2.0
 40
3.0
 40
3.0
 40
3.0
 40
4.0
 40
4.0
 40
4.0
 40
5.0
 40
5.0
 40
5.0
 40
6.0
 40
6.0
 40
6.0
 40
7.0
 40
7.0
 40
7.0
 40
8.0
 40
8.0
 40
8.0
 40
9.0
 40
9.0
 40
9.0
 40
10.0
 40
10.0
 40
10.0
 40
11.0
 40
11.0
 40
11.0
 40
12.0
 40
12.0
 40
12.0
 40
13.0
 40
13.0
 40
13.0
 40
14.0
 40
14.0
 40
14.0
 40
15.0
 40
15.0
 40
15.0
 40
16.0
 40
16.0
 40
16.0
 40
17.0
 40
17.0
 40
17.0
 40
18.0
 40
18.0
 40
18.0
 40
19.0
 40
19.0
 40
19.0
 40
20.0
 40
20.0
 40
20.0
 40
21.0
 40
21.0
 40
21.0
 40
22.0
 40
22.0
 40
22.0
 40
23.0
 40
23.0
 40
23.0
 40
24.0
 40
24.0
 40
24.0
 40
25.0
 40
25.0
 40
25.0
 40
26.0
 40
26.0
 40
26.0
 40
27.0
 40
27.0
 40
27.0
 40
28.0
 40
28.0
 40
28.0
 40
29.0
 40
29.0
 40
29.0
 40
30.0
 40
30.0
 40
30.0
 40
31.0
 40
31.0
 40
31.0
 40
32.0
 40
32.0
 40
32.0
 40
33.0
 40
33.0
 40
33.0
 40
34.0
 40
34.0
 40
34.0
 40
35.0
 40
35.0
 40
35.0
 40
36.0
 40
36.0
 40
36.0
 40
37.0
 40
37.0
 40
37.0
 40
38.0
 40
38.0
 40
38.0
 40
39.0
 40
39.0
 40
39.0
 40
40.0
 40
40.0
 40
40.0
 40
41.0
 40
41.0
 40
41.0
 40
41.0
 10
4.197344030005246
 20
-8.034749850557696
 10
4.190876097190046
 20
-8.067520710154742
 10
4.180239941005045
 20
-8.09213992109259
 10
4.165712758570887
 20
-8.107919623849687
 10
4.151339574537106
 20
-8.123493995406306
 10
4.13266470185321
 20
-8.13107071670409
 10
4.108630684836713
 20
-8.13107071670409
 10
4.108630684836713
 20
-8.13107071670409
 10
4.092430053118631
 20
-8.13107071670409
 10
4.092430053118631
 20
-8.13107071670409
 10
4.086116118703797
 20
-8.13107071670409
 10
4.081485900132912
 20
-8.129951661661481
 10
4.07906299196721
 20
-8.127847016856524
 10
4.076383419800915
 20
-8.125506241171024
 10
4.07458677179669
 20
-8.122570005004137
 10
4.073580648914331
 20
-8.11886377683542
 10
4.07294412219283
 20
-8.116471668349781
 10
4.071866133390295
 20
-8.108443218410911
 10
4.071866133390295
 20
-8.081524298027639
 10
4.071866133390295
 20
-8.081524298027639
 10
4.071866133390295
 20
-7.979022962746713
 10
4.071866133390295
 20
-7.979022962746713
 10
4.08107523773194
 20
-7.979567090427963
 10
4.088231030068754
 20
-7.981610135872768
 10
4.093189778560409
 20
-7.985100766280993
 10
4.099082784014273
 20
-7.989258723090743
 10
4.104462461466911
 20
-7.997882633511026
 10
4.109215878758087
 20
-8.01073636666125
 10
4.114154094129692
 20
-8.024154760612796
 10
4.117449659897437
 20
-8.04173111137412
 10
4.118999910461083
 20
-8.062972624064034
 10
4.118999910461083
 20
-8.062972624064034
 10
4.119359240061941
 20
-8.067849240075499
 10
4.119359240061941
 20
-8.067849240075499
 10
4.119359240061941
 20
-8.067849240075499
 10
4.137099855783642
 20
-8.067849240075499
 10
4.137099855783642
 20
-8.067849240075499
 10
4.137099855783642
 20
-8.067849240075499
 10
4.137099855783642
 20
-7.856758499419306
 10
4.137099855783642
 20
-7.856758499419306
 10
4.137099855783642
 20
-7.856758499419306
 10
4.119348973501915
 20
-7.856758499419306
 10
4.119348973501915
 20
-7.856758499419306
 10
4.119348973501915
 20
-7.856758499419306
 10
4.118999910461083
 20
-7.861635115430772
 10
4.118999910461083
 20
-7.861635115430772
 10
4.116926065336214
 20
-7.890545748458735
 10
4.112131581804949
 20
-7.912598319390554
 10
4.104749925147593
 20
-7.927156301504787
 10
4.097922662731535
 20
-7.940615761696435
 10
4.087214640626383
 20
-7.947155560431787
 10
4.072009865230635
 20
-7.947155560431787
 10
4.072009865230635
 20
-7.947155560431787
 10
4.071866133390295
 20
-7.801729737689962
 10
4.071866133390295
 20
-7.801729737689962
 10
4.071866133390295
 20
-7.801729737689962
 10
4.094627096963803
 20
-7.801729737689962
 10
4.094627096963803
 20
-7.801729737689962
 10
4.119174441981499
 20
-7.801729737689962
 10
4.129841397846576
 20
-7.804245044895853
 10
4.1345332157776
 20
-7.806380489380873
 10
4.146237094205111
 20
-7.811534302513008
 10
4.155425665426719
 20
-7.819737283972294
 10
4.161821732321755
 20
-7.830753302878165
 10
4.168453930097345
 20
-7.842149184504958
 10
4.173720675389719
 20
-7.861563249510608
 10
4.177478236358549
 20
-7.888451370213791
 10
4.177478236358549
 20
-7.888451370213791
 10
4.17811476308005
 20
-7.89297892318445
 10
4.17811476308005
 20
-7.89297892318445
 10
4.17811476308005
 20
-7.89297892318445
 10
4.19554738200102
 20
-7.89297892318445
 10
4.19554738200102
 20
-7.89297892318445
 10
4.19554738200102
 20
-7.89297892318445
 10
4.19554738200102
 20
-7.769184742413446
 10
4.19554738200102
 20
-7.769184742413446
 10
4.19554738200102
 20
-7.769184742413446
 10
3.957886784002362
 20
-7.769184742413446
 10
3.957886784002362
 20
-7.769184742413446
 10
3.957886784002362
 20
-7.769184742413446
 10
3.957886784002362
 20
-7.790149057982716
 10
3.957886784002362
 20
-7.790149057982716
 10
3.957886784002362
 20
-7.790149057982716
 10
3.97214703587589
 20
-7.790149057982716
 10
3.97214703587589
 20
-7.790149057982716
 10
3.979528692533234
 20
-7.790149057982716
 10
3.985098301346333
 20
-7.792212636547573
 10
3.989256258156109
 20
-7.796534858317727
 10
3.992094962002788
 20
-7.799358162324374
 10
3.9941020744875
 20
-7.803587985054313
 10
3.995185196570041
 20
-7.808926596266852
 10
3.995611258811057
 20
-7.811452170032806
 10
3.996119453532249
 20
-7.818885159490264
 10
3.996119453532249
 20
-7.839972673779836
 10
3.996119453532249
 20
-7.839972673779836
 10
3.996119453532249
 20
-8.091985922692249
 10
3.996119453532249
 20
-8.091985922692249
 10
3.996119453532249
 20
-8.116327936509479
 10
3.99489773288936
 20
-8.123709593166797
 10
3.994122607607538
 20
-8.126091435092398
 10
3.992572357043905
 20
-8.131378713504822
 10
3.990508778479061
 20
-8.135033608873426
 10
3.987813806472722
 20
-8.137076654318232
 10
3.983953579903641
 20
-8.140259287925724
 10
3.978830566451594
 20
-8.14180953848937
 10
3.97214703587589
 20
-8.14180953848937
 10
3.97214703587589
 20
-8.14180953848937
 10
3.957886784002362
 20
-8.14180953848937
 10
3.957886784002362
 20
-8.14180953848937
 10
3.957886784002362
 20
-8.14180953848937
 10
3.957886784002362
 20
-8.16277385405864
 10
3.957886784002362
 20
-8.16277385405864
 10
3.957886784002362
 20
-8.16277385405864
 10
4.202446510337241
 20
-8.16277385405864
 10
4.202446510337241
 20
-8.16277385405864
 10
4.202446510337241
 20
-8.16277385405864
 10
4.215710905888423
 20
-8.030509761267719
 10
4.215710905888423
 20
-8.030509761267719
 10
4.215710905888423
 20
-8.030509761267719
 10
4.198175621367201
 20
-8.030509761267719
 10
4.198175621367201
 20
-8.030509761267719
 10
4.198175621367201
 20
-8.030509761267719
 10
4.197344030005246
 20
-8.034749850557696
 10
4.197344030005246
 20
-8.034749850557696
 97
        0
 97
        1
330
85
 75
     2
 76
     1
 98
        1
 10
0.0
 20
0.0
450
        0
451
        0
460
0.0
461
0.0
452
        0
462
0.0
453
        0
470

  0
SPLINE
  5
87
330
79
100
AcDbEntity
  8
Layer 2
100
AcDbSpline
210
0.0
220
0.0
230
1.0
 70
     9
 71
     3
 72
    26
 73
    22
 74
     0
 42
0.0000000001
 43
0.0000000001
 40
0.0
 40
0.0
 40
0.0
 40
0.0
 40
1.0
 40
1.0
 40
1.0
 40
2.0
 40
2.0
 40
2.0
 40
3.0
 40
3.0
 40
3.0
 40
4.0
 40
4.0
 40
4.0
 40
5.0
 40
5.0
 40
5.0
 40
6.0
 40
6.0
 40
6.0
 40
7.0
 40
7.0
 40
7.0
 40
7.0
 10
4.402367233687174
 20
-7.870484890171559
 30
0.0
 10
4.402367233687174
 20
-7.886644455649552
 30
0.0
 10
4.4000880573618
 20
-7.900001250240948
 30
0.0
 10
4.39559130407128
 20
-7.910185677784864
 30
0.0
 10
4.391228016060974
 20
-7.920133974448263
 30
0.0
 10
4.384903815086141
 20
-7.927936560066604
 30
0.0
 10
4.376772699547018
 20
-7.933367570319382
 30
0.0
 10
4.369524508169989
 20
-7.938223653210798
 30
0.0
 10
4.358190225903348
 20
-7.940923758497142
 30
0.0
 10
4.343036783307726
 20
-7.941426819938315
 30
0.0
 10
4.343036783307726
 20
-7.941426819938315
 30
0.0
 10
4.343036783307726
 20
-7.801195876568701
 30
0.0
 10
4.343036783307726
 20
-7.801195876568701
 30
0.0
 10
4.358703553904534
 20
-7.801493606809394
 30
0.0
 10
4.370232900811666
 20
-7.803957581215197
 30
0.0
 10
4.377368160028405
 20
-7.808536466985944
 30
0.0
 10
4.38524261156691
 20
-7.813587614517826
 30
0.0
 10
4.391402547581391
 20
-7.821113003015524
 30
0.0
 10
4.395693969671507
 20
-7.830917567838569
 30
0.0
 10
4.400118857041888
 20
-7.841071195702422
 30
0.0
 10
4.402367233687174
 20
-7.854386924053717
 30
0.0
 10
4.402367233687174
 20
-7.870484890171559
 30
0.0
  0
SPLINE
  5
88
330
79
100
AcDbEntity
  8
Layer 2
100
AcDbSpline
210
0.0
220
0.0
230
1.0
 70
     9
 71
     3
 72
    32
 73
    28
 74
     0
 42
0.0000000001
 43
0.0000000001
 40
0.0
 40
0.0
 40
0.0
 40
0.0
 40
1.0
 40
1.0
 40
1.0
 40
2.0
 40
2.0
 40
2.0
 40
3.0
 40
3.0
 40
3.0
 40
4.0
 40
4.0
 40
4.0
 40
5.0
 40
5.0
 40
5.0
 40
6.0
 40
6.0
 40
6.0
 40
7.0
 40
7.0
 40
7.0
 40
8.0
 40
8.0
 40
8.0
 40
9.0
 40
9.0
 40
9.0
 40
9.0
 10
4.347369271637893
 20
-8.125814237971756
 30
0.0
 10
4.344361169550817
 20
-8.121563882121765
 30
0.0
 10
4.342831452107222
 20
-8.114839285305935
 30
0.0
 10
4.342831452107222
 20
-8.105897111524932
 30
0.0
 10
4.342831452107222
 20
-8.105897111524932
 30
0.0
 10
4.343036783307726
 20
-7.974084747375096
 30
0.0
 10
4.343036783307726
 20
-7.974084747375096
 30
0.0
 10
4.359863675187272
 20
-7.974361944495765
 30
0.0
 10
4.372707141777482
 20
-7.976887518261668
 30
0.0
 10
4.381269452837588
 20
-7.981610135872768
 30
0.0
 10
4.390427224379132
 20
-7.9866407502846
 30
0.0
 10
4.397788347916401
 20
-7.995798521826119
 30
0.0
 10
4.403157758809053
 20
-8.008826786496758
 30
0.0
 10
4.408732500902159
 20
-8.022306779808458
 30
0.0
 10
4.411555804908807
 20
-8.037840085124949
 30
0.0
 10
4.411555804908807
 20
-8.054974973805251
 30
0.0
 10
4.411555804908807
 20
-8.069902552080318
 30
0.0
 10
4.409245828903345
 20
-8.083587876592496
 30
0.0
 10
4.40469774281266
 20
-8.095630551500789
 30
0.0
 10
4.400272855442279
 20
-8.107334429928313
 30
0.0
 10
4.393907588227294
 20
-8.116327936509479
 30
0.0
 10
4.385766206128159
 20
-8.122364673803657
 30
0.0
 10
4.377727489629251
 20
-8.128339811737683
 30
0.0
 10
4.3688469152084
 20
-8.13136844694481
 30
0.0
 10
4.359391413426136
 20
-8.13136844694481
 30
0.0
 10
4.353878270693207
 20
-8.13136844694481
 30
0.0
 10
4.350059110364226
 20
-8.129602598620648
 30
0.0
 10
4.347369271637893
 20
-8.125814237971756
 30
0.0
  0
SPLINE
  5
89
330
79
100
AcDbEntity
  8
Layer 2
100
AcDbSpline
210
0.0
220
0.0
230
1.0
 70
     9
 71
     3
 72
    71
 73
    67
 74
     0
 42
0.0000000001
 43
0.0000000001
 40
0.0
 40
0.0
 40
0.0
 40
0.0
 40
1.0
 40
1.0
 40
1.0
 40
2.0
 40
2.0
 40
2.0
 40
3.0
 40
3.0
 40
3.0
 40
4.0
 40
4.0
 40
4.0
 40
5.0
 40
5.0
 40
5.0
 40
6.0
 40
6.0
 40
6.0
 40
7.0
 40
7.0
 40
7.0
 40
8.0
 40
8.0
 40
8.0
 40
9.0
 40
9.0
 40
9.0
 40
10.0
 40
10.0
 40
10.0
 40
11.0
 40
11.0
 40
11.0
 40
12.0
 40
12.0
 40
12.0
 40
13.0
 40
13.0
 40
13.0
 40
14.0
 40
14.0
 40
14.0
 40
15.0
 40
15.0
 40
15.0
 40
16.0
 40
16.0
 40
16.0
 40
17.0
 40
17.0
 40
17.0
 40
18.0
 40
18.0
 40
18.0
 40
19.0
 40
19.0
 40
19.0
 40
20.0
 40
20.0
 40
20.0
 40
21.0
 40
21.0
 40
21.0
 40
22.0
 40
22.0
 40
22.0
 40
22.0
 10
4.425374594701275
 20
-7.954136821248185
 30
0.0
 10
4.443515606263897
 20
-7.945913306668873
 30
0.0
 10
4.456821068055179
 20
-7.935461948564301
 30
0.0
 10
4.465034316074504
 20
-7.92295727845491
 30
0.0
 10
4.475044212098004
 20
-7.907731969939125
 30
0.0
 10
4.480126159309949
 20
-7.890176152297852
 30
0.0
 10
4.480126159309949
 20
-7.87077235385224
 30
0.0
 10
4.480126159309949
 20
-7.85254920980939
 30
0.0
 10
4.476173533700703
 20
-7.835106324328408
 30
0.0
 10
4.468391481202413
 20
-7.818926225730365
 30
0.0
 10
4.460527296223921
 20
-7.802540795931841
 30
0.0
 10
4.449542076998063
 20
-7.790005326142388
 30
0.0
 10
4.43574382032562
 20
-7.781648346282736
 30
0.0
 10
4.421822364932924
 20
-7.77326056674302
 30
0.0
 10
4.399338598480072
 20
-7.769184742413446
 30
0.0
 10
4.366988667844048
 20
-7.769184742413446
 30
0.0
 10
4.366988667844048
 20
-7.769184742413446
 30
0.0
 10
4.231665140165912
 20
-7.769184742413446
 30
0.0
 10
4.231665140165912
 20
-7.769184742413446
 30
0.0
 10
4.231665140165912
 20
-7.769184742413446
 30
0.0
 10
4.231665140165912
 20
-7.790149057982716
 30
0.0
 10
4.231665140165912
 20
-7.790149057982716
 30
0.0
 10
4.231665140165912
 20
-7.790149057982716
 30
0.0
 10
4.236921618898299
 20
-7.790149057982716
 30
0.0
 10
4.236921618898299
 20
-7.790149057982716
 30
0.0
 10
4.250914940211183
 20
-7.790149057982716
 30
0.0
 10
4.256807945665021
 20
-7.792233169667623
 30
0.0
 10
4.259282186630861
 20
-7.793978484871735
 30
0.0
 10
4.262926815439401
 20
-7.796555391437777
 30
0.0
 10
4.265401056405254
 20
-7.799912556565686
 30
0.0
 10
4.266848641368647
 20
-7.804214245215789
 30
0.0
 10
4.26795742985122
 20
-7.80752007754356
 30
0.0
 10
4.269271549534297
 20
-7.816688115645117
 30
0.0
 10
4.269271549534297
 20
-7.841676922743848
 30
0.0
 10
4.269271549534297
 20
-7.841676922743848
 30
0.0
 10
4.269271549534297
 20
-8.090281673728238
 30
0.0
 10
4.269271549534297
 20
-8.090281673728238
 30
0.0
 10
4.269271549534297
 20
-8.115270480826968
 30
0.0
 10
4.26795742985122
 20
-8.124356386448324
 30
0.0
 10
4.266869174488672
 20
-8.127569819735905
 30
0.0
 10
4.265401056405254
 20
-8.131850975265958
 30
0.0
 10
4.262926815439401
 20
-8.135228673513893
 30
0.0
 10
4.259312986310899
 20
-8.137897979120149
 30
0.0
 10
4.257321273666244
 20
-8.13935583064358
 30
0.0
 10
4.251767064693177
 20
-8.14180953848937
 30
0.0
 10
4.236921618898299
 20
-8.14180953848937
 30
0.0
 10
4.236921618898299
 20
-8.14180953848937
 30
0.0
 10
4.231665140165912
 20
-8.14180953848937
 30
0.0
 10
4.231665140165912
 20
-8.14180953848937
 30
0.0
 10
4.231665140165912
 20
-8.14180953848937
 30
0.0
 10
4.231665140165912
 20
-8.16277385405864
 30
0.0
 10
4.231665140165912
 20
-8.16277385405864
 30
0.0
 10
4.231665140165912
 20
-8.16277385405864
 30
0.0
 10
4.374791253462364
 20
-8.16277385405864
 30
0.0
 10
4.374791253462364
 20
-8.16277385405864
 30
0.0
 10
4.414625506356009
 20
-8.16277385405864
 30
0.0
 10
4.445507318908615
 20
-8.150679846350207
 30
0.0
 10
4.4666050997582
 20
-8.126799827734076
 30
0.0
 10
4.483801587798603
 20
-8.107077765927694
 30
0.0
 10
4.492528163819113
 20
-8.081863094508435
 30
0.0
 10
4.492528163819113
 20
-8.05185393955791
 30
0.0
 10
4.492528163819113
 20
-8.023384768610968
 30
0.0
 10
4.484551046680381
 20
-7.999792213675517
 30
0.0
 10
4.46883294328341
 20
-7.981753867713122
 30
0.0
 10
4.459736771102042
 20
-7.971230643688386
 30
0.0
 10
4.445147989307719
 20
-7.961959939986576
 30
0.0
 10
4.425374594701275
 20
-7.954136821248185
 30
0.0
  0
HATCH
  5
8A
330
79
100
AcDbEntity
  8
Layer 2
 62
   250
420
  2301728
440
 33554687
100
AcDbHatch
 10
0.0
 20
0.0
 30
0.0
210
0.0
220
0.0
230
1.0
  2
SOLID
 70
     1
 71
     1
 91
        3
 92
        1
 93
        1
 72
     4
 94
        3
 73
     0
 74
     0
 95
       26
 96
       22
 40
0.0
 40
0.0
 40
0.0
 40
0.0
 40
1.0
 40
1.0
 40
1.0
 40
2.0
 40
2.0
 40
2.0
 40
3.0
 40
3.0
 40
3.0
 40
4.0
 40
4.0
 40
4.0
 40
5.0
 40
5.0
 40
5.0
 40
6.0
 40
6.0
 40
6.0
 40
7.0
 40
7.0
 40
7.0
 40
7.0
 10
4.402367233687174
 20
-7.870484890171559
 10
4.402367233687174
 20
-7.886644455649552
 10
4.4000880573618
 20
-7.900001250240948
 10
4.39559130407128
 20
-7.910185677784864
 10
4.391228016060974
 20
-7.920133974448263
 10
4.384903815086141
 20
-7.927936560066604
 10
4.376772699547018
 20
-7.933367570319382
 10
4.369524508169989
 20
-7.938223653210798
 10
4.358190225903348
 20
-7.940923758497142
 10
4.343036783307726
 20
-7.941426819938315
 10
4.343036783307726
 20
-7.941426819938315
 10
4.343036783307726
 20
-7.801195876568701
 10
4.343036783307726
 20
-7.801195876568701
 10
4.358703553904534
 20
-7.801493606809394
 10
4.370232900811666
 20
-7.803957581215197
 10
4.377368160028405
 20
-7.808536466985944
 10
4.38524261156691
 20
-7.813587614517826
 10
4.391402547581391
 20
-7.821113003015524
 10
4.395693969671507
 20
-7.830917567838569
 10
4.400118857041888
 20
-7.841071195702422
 10
4.402367233687174
 20
-7.854386924053717
 10
4.402367233687174
 20
-7.870484890171559
 97
        0
 97
        1
330
87
 92
        1
 93
        1
 72
     4
 94
        3
 73
     0
 74
     0
 95
       32
 96
       28
 40
0.0
 40
0.0
 40
0.0
 40
0.0
 40
1.0
 40
1.0
 40
1.0
 40
2.0
 40
2.0
 40
2.0
 40
3.0
 40
3.0
 40
3.0
 40
4.0
 40
4.0
 40
4.0
 40
5.0
 40
5.0
 40
5.0
 40
6.0
 40
6.0
 40
6.0
 40
7.0
 40
7.0
 40
7.0
 40
8.0
 40
8.0
 40
8.0
 40
9.0
 40
9.0
 40
9.0
 40
9.0
 10
4.347369271637893
 20
-8.125814237971756
 10
4.344361169550817
 20
-8.121563882121765
 10
4.342831452107222
 20
-8.114839285305935
 10
4.342831452107222
 20
-8.105897111524932
 10
4.342831452107222
 20
-8.105897111524932
 10
4.343036783307726
 20
-7.974084747375096
 10
4.343036783307726
 20
-7.974084747375096
 10
4.359863675187272
 20
-7.974361944495765
 10
4.372707141777482
 20
-7.976887518261668
 10
4.381269452837588
 20
-7.981610135872768
 10
4.390427224379132
 20
-7.9866407502846
 10
4.397788347916401
 20
-7.995798521826119
 10
4.403157758809053
 20
-8.008826786496758
 10
4.408732500902159
 20
-8.022306779808458
 10
4.411555804908807
 20
-8.037840085124949
 10
4.411555804908807
 20
-8.054974973805251
 10
4.411555804908807
 20
-8.069902552080318
 10
4.409245828903345
 20
-8.083587876592496
 10
4.40469774281266
 20
-8.095630551500789
 10
4.400272855442279
 20
-8.107334429928313
 10
4.393907588227294
 20
-8.116327936509479
 10
4.385766206128159
 20
-8.122364673803657
 10
4.377727489629251
 20
-8.128339811737683
 10
4.3688469152084
 20
-8.13136844694481
 10
4.359391413426136
 20
-8.13136844694481
 10
4.353878270693207
 20
-8.13136844694481
 10
4.350059110364226
 20
-8.129602598620648
 10
4.347369271637893
 20
-8.125814237971756
 97
        0
 97
        1
330
88
 92
        1
 93
        1
 72
     4
 94
        3
 73
     0
 74
     0
 95
       71
 96
       67
 40
0.0
 40
0.0
 40
0.0
 40
0.0
 40
1.0
 40
1.0
 40
1.0
 40
2.0
 40
2.0
 40
2.0
 40
3.0
 40
3.0
 40
3.0
 40
4.0
 40
4.0
 40
4.0
 40
5.0
 40
5.0
 40
5.0
 40
6.0
 40
6.0
 40
6.0
 40
7.0
 40
7.0
 40
7.0
 40
8.0
 40
8.0
 40
8.0
 40
9.0
 40
9.0
 40
9.0
 40
10.0
 40
10.0
 40
10.0
 40
11.0
 40
11.0
 40
11.0
 40
12.0
 40
12.0
 40
12.0
 40
13.0
 40
13.0
 40
13.0
 40
14.0
 40
14.0
 40
14.0
 40
15.0
 40
15.0
 40
15.0
 40
16.0
 40
16.0
 40
16.0
 40
17.0
 40
17.0
 40
17.0
 40
18.0
 40
18.0
 40
18.0
 40
19.0
 40
19.0
 40
19.0
 40
20.0
 40
20.0
 40
20.0
 40
21.0
 40
21.0
 40
21.0
 40
22.0
 40
22.0
 40
22.0
 40
22.0
 10
4.425374594701275
 20
-7.954136821248185
 10
4.443515606263897
 20
-7.945913306668873
 10
4.456821068055179
 20
-7.935461948564301
 10
4.465034316074504
 20
-7.92295727845491
 10
4.475044212098004
 20
-7.907731969939125
 10
4.480126159309949
 20
-7.890176152297852
 10
4.480126159309949
 20
-7.87077235385224
 10
4.480126159309949
 20
-7.85254920980939
 10
4.476173533700703
 20
-7.835106324328408
 10
4.468391481202413
 20
-7.818926225730365
 10
4.460527296223921
 20
-7.802540795931841
 10
4.449542076998063
 20
-7.790005326142388
 10
4.43574382032562
 20
-7.781648346282736
 10
4.421822364932924
 20
-7.77326056674302
 10
4.399338598480072
 20
-7.769184742413446
 10
4.366988667844048
 20
-7.769184742413446
 10
4.366988667844048
 20
-7.769184742413446
 10
4.231665140165912
 20
-7.769184742413446
 10
4.231665140165912
 20
-7.769184742413446
 10
4.231665140165912
 20
-7.769184742413446
 10
4.231665140165912
 20
-7.790149057982716
 10
4.231665140165912
 20
-7.790149057982716
 10
4.231665140165912
 20
-7.790149057982716
 10
4.236921618898299
 20
-7.790149057982716
 10
4.236921618898299
 20
-7.790149057982716
 10
4.250914940211183
 20
-7.790149057982716
 10
4.256807945665021
 20
-7.792233169667623
 10
4.259282186630861
 20
-7.793978484871735
 10
4.262926815439401
 20
-7.796555391437777
 10
4.265401056405254
 20
-7.799912556565686
 10
4.266848641368647
 20
-7.804214245215789
 10
4.26795742985122
 20
-7.80752007754356
 10
4.269271549534297
 20
-7.816688115645117
 10
4.269271549534297
 20
-7.841676922743848
 10
4.269271549534297
 20
-7.841676922743848
 10
4.269271549534297
 20
-8.090281673728238
 10
4.269271549534297
 20
-8.090281673728238
 10
4.269271549534297
 20
-8.115270480826968
 10
4.26795742985122
 20
-8.124356386448324
 10
4.266869174488672
 20
-8.127569819735905
 10
4.265401056405254
 20
-8.131850975265958
 10
4.262926815439401
 20
-8.135228673513893
 10
4.259312986310899
 20
-8.137897979120149
 10
4.257321273666244
 20
-8.13935583064358
 10
4.251767064693177
 20
-8.14180953848937
 10
4.236921618898299
 20
-8.14180953848937
 10
4.236921618898299
 20
-8.14180953848937
 10
4.231665140165912
 20
-8.14180953848937
 10
4.231665140165912
 20
-8.14180953848937
 10
4.231665140165912
 20
-8.14180953848937
 10
4.231665140165912
 20
-8.16277385405864
 10
4.231665140165912
 20
-8.16277385405864
 10
4.231665140165912
 20
-8.16277385405864
 10
4.374791253462364
 20
-8.16277385405864
 10
4.374791253462364
 20
-8.16277385405864
 10
4.414625506356009
 20
-8.16277385405864
 10
4.445507318908615
 20
-8.150679846350207
 10
4.4666050997582
 20
-8.126799827734076
 10
4.483801587798603
 20
-8.107077765927694
 10
4.492528163819113
 20
-8.081863094508435
 10
4.492528163819113
 20
-8.05185393955791
 10
4.492528163819113
 20
-8.023384768610968
 10
4.484551046680381
 20
-7.999792213675517
 10
4.46883294328341
 20
-7.981753867713122
 10
4.459736771102042
 20
-7.971230643688386
 10
4.445147989307719
 20
-7.961959939986576
 10
4.425374594701275
 20
-7.954136821248185
 97
        0
 97
        1
330
89
 75
     2
 76
     1
 98
        1
 10
0.0
 20
0.0
450
        0
451
        0
460
0.0
461
0.0
452
        0
462
0.0
453
        0
470

  0
SPLINE
  5
8B
330
79
100
AcDbEntity
  8
Layer 2
100
AcDbSpline
210
0.0
220
0.0
230
1.0
 70
     9
 71
     3
 72
   128
 73
   124
 74
     0
 42
0.0000000001
 43
0.0000000001
 40
0.0
 40
0.0
 40
0.0
 40
0.0
 40
1.0
 40
1.0
 40
1.0
 40
2.0
 40
2.0
 40
2.0
 40
3.0
 40
3.0
 40
3.0
 40
4.0
 40
4.0
 40
4.0
 40
5.0
 40
5.0
 40
5.0
 40
6.0
 40
6.0
 40
6.0
 40
7.0
 40
7.0
 40
7.0
 40
8.0
 40
8.0
 40
8.0
 40
9.0
 40
9.0
 40
9.0
 40
10.0
 40
10.0
 40
10.0
 40
11.0
 40
11.0
 40
11.0
 40
12.0
 40
12.0
 40
12.0
 40
13.0
 40
13.0
 40
13.0
 40
14.0
 40
14.0
 40
14.0
 40
15.0
 40
15.0
 40
15.0
 40
16.0
 40
16.0
 40
16.0
 40
17.0
 40
17.0
 40
17.0
 40
18.0
 40
18.0
 40
18.0
 40
19.0
 40
19.0
 40
19.0
 40
20.0
 40
20.0
 40
20.0
 40
21.0
 40
21.0
 40
21.0
 40
22.0
 40
22.0
 40
22.0
 40
23.0
 40
23.0
 40
23.0
 40
24.0
 40
24.0
 40
24.0
 40
25.0
 40
25.0
 40
25.0
 40
26.0
 40
26.0
 40
26.0
 40
27.0
 40
27.0
 40
27.0
 40
28.0
 40
28.0
 40
28.0
 40
29.0
 40
29.0
 40
29.0
 40
30.0
 40
30.0
 40
30.0
 40
31.0
 40
31.0
 40
31.0
 40
32.0
 40
32.0
 40
32.0
 40
33.0
 40
33.0
 40
33.0
 40
34.0
 40
34.0
 40
34.0
 40
35.0
 40
35.0
 40
35.0
 40
36.0
 40
36.0
 40
36.0
 40
37.0
 40
37.0
 40
37.0
 40
38.0
 40
38.0
 40
38.0
 40
39.0
 40
39.0
 40
39.0
 40
40.0
 40
40.0
 40
40.0
 40
41.0
 40
41.0
 40
41.0
 40
41.0
 10
4.744079417530429
 20
-8.034749850557696
 30
0.0
 10
4.737632017835241
 20
-8.067510443594704
 30
0.0
 10
4.726985595090253
 20
-8.092129654532577
 30
0.0
 10
4.712458412656107
 20
-8.107919623849687
 30
0.0
 10
4.698074962062289
 20
-8.123493995406306
 30
0.0
 10
4.679400089378355
 20
-8.13107071670409
 30
0.0
 10
4.655376338921895
 20
-8.13107071670409
 30
0.0
 10
4.655376338921895
 20
-8.13107071670409
 30
0.0
 10
4.639165440643814
 20
-8.13107071670409
 30
0.0
 10
4.639165440643814
 20
-8.13107071670409
 30
0.0
 10
4.632851506228941
 20
-8.13107071670409
 30
0.0
 10
4.628221287658056
 20
-8.129951661661481
 30
0.0
 10
4.625798379492405
 20
-8.127847016856524
 30
0.0
 10
4.623118807326085
 20
-8.125506241171024
 30
0.0
 10
4.621322159321859
 20
-8.122570005004137
 30
0.0
 10
4.620316036439513
 20
-8.11886377683542
 30
0.0
 10
4.619679509718025
 20
-8.116471668349781
 30
0.0
 10
4.618601520915439
 20
-8.108443218410911
 30
0.0
 10
4.618601520915439
 20
-8.081524298027639
 30
0.0
 10
4.618601520915439
 20
-8.081524298027639
 30
0.0
 10
4.618601520915439
 20
-7.979022962746713
 30
0.0
 10
4.618601520915439
 20
-7.979022962746713
 30
0.0
 10
4.627810625257148
 20
-7.979567090427963
 30
0.0
 10
4.634966417593911
 20
-7.981610135872768
 30
0.0
 10
4.639935432645617
 20
-7.985100766280993
 30
0.0
 10
4.645807904979392
 20
-7.989248456530731
 30
0.0
 10
4.651197848992069
 20
-7.997882633511026
 30
0.0
 10
4.655951266283257
 20
-8.01073636666125
 30
0.0
 10
4.660889481654875
 20
-8.024154760612796
 30
0.0
 10
4.664185047422606
 20
-8.04173111137412
 30
0.0
 10
4.665735297986278
 20
-8.062972624064034
 30
0.0
 10
4.665735297986278
 20
-8.062972624064034
 30
0.0
 10
4.666094627587122
 20
-8.067849240075499
 30
0.0
 10
4.666094627587122
 20
-8.067849240075499
 30
0.0
 10
4.666094627587122
 20
-8.067849240075499
 30
0.0
 10
4.683845509868862
 20
-8.067849240075499
 30
0.0
 10
4.683845509868862
 20
-8.067849240075499
 30
0.0
 10
4.683845509868862
 20
-8.067849240075499
 30
0.0
 10
4.683845509868862
 20
-7.856758499419306
 30
0.0
 10
4.683845509868862
 20
-7.856758499419306
 30
0.0
 10
4.683845509868862
 20
-7.856758499419306
 30
0.0
 10
4.66608436102711
 20
-7.856758499419306
 30
0.0
 10
4.66608436102711
 20
-7.856758499419306
 30
0.0
 10
4.66608436102711
 20
-7.856758499419306
 30
0.0
 10
4.665735297986278
 20
-7.861635115430772
 30
0.0
 10
4.665735297986278
 20
-7.861635115430772
 30
0.0
 10
4.663661452861358
 20
-7.890556015018748
 30
0.0
 10
4.658866969330119
 20
-7.912598319390554
 30
0.0
 10
4.651475046112762
 20
-7.927156301504787
 30
0.0
 10
4.644658050256717
 20
-7.940615761696435
 30
0.0
 10
4.633950028151553
 20
-7.947155560431787
 30
0.0
 10
4.61875551931583
 20
-7.947155560431787
 30
0.0
 10
4.61875551931583
 20
-7.947155560431787
 30
0.0
 10
4.618601520915439
 20
-7.801729737689962
 30
0.0
 10
4.618601520915439
 20
-7.801729737689962
 30
0.0
 10
4.618601520915439
 20
-7.801729737689962
 30
0.0
 10
4.641362484488985
 20
-7.801729737689962
 30
0.0
 10
4.641362484488985
 20
-7.801729737689962
 30
0.0
 10
4.665899562946631
 20
-7.801729737689962
 30
0.0
 10
4.676576785371758
 20
-7.804245044895853
 30
0.0
 10
4.681268603302769
 20
-7.80637022282086
 30
0.0
 10
4.692982748290331
 20
-7.811534302513008
 30
0.0
 10
4.702161052951901
 20
-7.819737283972294
 30
0.0
 10
4.708557119846924
 20
-7.830753302878165
 30
0.0
 10
4.715189317622489
 20
-7.842169717625008
 30
0.0
 10
4.720456062914914
 20
-7.861583782630658
 30
0.0
 10
4.724213623883719
 20
-7.888451370213791
 30
0.0
 10
4.724213623883719
 20
-7.888451370213791
 30
0.0
 10
4.724850150605207
 20
-7.89297892318445
 30
0.0
 10
4.724850150605207
 20
-7.89297892318445
 30
0.0
 10
4.724850150605207
 20
-7.89297892318445
 30
0.0
 10
4.742282769526203
 20
-7.89297892318445
 30
0.0
 10
4.742282769526203
 20
-7.89297892318445
 30
0.0
 10
4.742282769526203
 20
-7.89297892318445
 30
0.0
 10
4.742282769526203
 20
-7.769184742413446
 30
0.0
 10
4.742282769526203
 20
-7.769184742413446
 30
0.0
 10
4.742282769526203
 20
-7.769184742413446
 30
0.0
 10
4.504622171527544
 20
-7.769184742413446
 30
0.0
 10
4.504622171527544
 20
-7.769184742413446
 30
0.0
 10
4.504622171527544
 20
-7.769184742413446
 30
0.0
 10
4.504622171527544
 20
-7.790149057982716
 30
0.0
 10
4.504622171527544
 20
-7.790149057982716
 30
0.0
 10
4.504622171527544
 20
-7.790149057982716
 30
0.0
 10
4.518892689961072
 20
-7.790149057982716
 30
0.0
 10
4.518892689961072
 20
-7.790149057982716
 30
0.0
 10
4.526274346618467
 20
-7.790149057982716
 30
0.0
 10
4.53183882215151
 20
-7.792212636547573
 30
0.0
 10
4.535996778961311
 20
-7.796534858317727
 30
0.0
 10
4.53883034952797
 20
-7.799358162324374
 30
0.0
 10
4.54083232873265
 20
-7.803577718494302
 30
0.0
 10
4.541920584095199
 20
-7.808916329706839
 30
0.0
 10
4.542341513056221
 20
-7.811452170032806
 30
0.0
 10
4.542844574497394
 20
-7.818905692610314
 30
0.0
 10
4.542844574497394
 20
-7.839972673779836
 30
0.0
 10
4.542844574497394
 20
-7.839972673779836
 30
0.0
 10
4.542844574497394
 20
-8.091985922692249
 30
0.0
 10
4.542844574497394
 20
-8.091985922692249
 30
0.0
 10
4.542844574497394
 20
-8.116348469629503
 30
0.0
 10
4.541633120414543
 20
-8.123719859726836
 30
0.0
 10
4.540852861852727
 20
-8.126101701652411
 30
0.0
 10
4.539323144409132
 20
-8.131378713504822
 30
0.0
 10
4.537249299284263
 20
-8.135023342313413
 30
0.0
 10
4.534549193997918
 20
-8.137076654318232
 30
0.0
 10
4.530750566788961
 20
-8.140218221685623
 30
0.0
 10
4.525483821496587
 20
-8.14180953848937
 30
0.0
 10
4.518892689961072
 20
-8.14180953848937
 30
0.0
 10
4.518892689961072
 20
-8.14180953848937
 30
0.0
 10
4.504622171527544
 20
-8.14180953848937
 30
0.0
 10
4.504622171527544
 20
-8.14180953848937
 30
0.0
 10
4.504622171527544
 20
-8.14180953848937
 30
0.0
 10
4.504622171527544
 20
-8.16277385405864
 30
0.0
 10
4.504622171527544
 20
-8.16277385405864
 30
0.0
 10
4.504622171527544
 20
-8.16277385405864
 30
0.0
 10
4.749181897862399
 20
-8.16277385405864
 30
0.0
 10
4.749181897862399
 20
-8.16277385405864
 30
0.0
 10
4.749181897862399
 20
-8.16277385405864
 30
0.0
 10
4.762446293413581
 20
-8.030509761267719
 30
0.0
 10
4.762446293413581
 20
-8.030509761267719
 30
0.0
 10
4.762446293413581
 20
-8.030509761267719
 30
0.0
 10
4.744911008892358
 20
-8.030509761267719
 30
0.0
 10
4.744911008892358
 20
-8.030509761267719
 30
0.0
 10
4.744911008892358
 20
-8.030509761267719
 30
0.0
 10
4.744079417530429
 20
-8.034749850557696
 30
0.0
 10
4.744079417530429
 20
-8.034749850557696
 30
0.0
  0
HATCH
  5
8C
330
79
100
AcDbEntity
  8
Layer 2
 62
   250
420
  2301728
440
 33554687
100
AcDbHatch
 10
0.0
 20
0.0
 30
0.0
210
0.0
220
0.0
230
1.0
  2
SOLID
 70
     1
 71
     1
 91
        1
 92
        1
 93
        1
 72
     4
 94
        3
 73
     0
 74
     0
 95
      128
 96
      124
 40
0.0
 40
0.0
 40
0.0
 40
0.0
 40
1.0
 40
1.0
 40
1.0
 40
2.0
 40
2.0
 40
2.0
 40
3.0
 40
3.0
 40
3.0
 40
4.0
 40
4.0
 40
4.0
 40
5.0
 40
5.0
 40
5.0
 40
6.0
 40
6.0
 40
6.0
 40
7.0
 40
7.0
 40
7.0
 40
8.0
 40
8.0
 40
8.0
 40
9.0
 40
9.0
 40
9.0
 40
10.0
 40
10.0
 40
10.0
 40
11.0
 40
11.0
 40
11.0
 40
12.0
 40
12.0
 40
12.0
 40
13.0
 40
13.0
 40
13.0
 40
14.0
 40
14.0
 40
14.0
 40
15.0
 40
15.0
 40
15.0
 40
16.0
 40
16.0
 40
16.0
 40
17.0
 40
17.0
 40
17.0
 40
18.0
 40
18.0
 40
18.0
 40
19.0
 40
19.0
 40
19.0
 40
20.0
 40
20.0
 40
20.0
 40
21.0
 40
21.0
 40
21.0
 40
22.0
 40
22.0
 40
22.0
 40
23.0
 40
23.0
 40
23.0
 40
24.0
 40
24.0
 40
24.0
 40
25.0
 40
25.0
 40
25.0
 40
26.0
 40
26.0
 40
26.0
 40
27.0
 40
27.0
 40
27.0
 40
28.0
 40
28.0
 40
28.0
 40
29.0
 40
29.0
 40
29.0
 40
30.0
 40
30.0
 40
30.0
 40
31.0
 40
31.0
 40
31.0
 40
32.0
 40
32.0
 40
32.0
 40
33.0
 40
33.0
 40
33.0
 40
34.0
 40
34.0
 40
34.0
 40
35.0
 40
35.0
 40
35.0
 40
36.0
 40
36.0
 40
36.0
 40
37.0
 40
37.0
 40
37.0
 40
38.0
 40
38.0
 40
38.0
 40
39.0
 40
39.0
 40
39.0
 40
40.0
 40
40.0
 40
40.0
 40
41.0
 40
41.0
 40
41.0
 40
41.0
 10
4.744079417530429
 20
-8.034749850557696
 10
4.737632017835241
 20
-8.067510443594704
 10
4.726985595090253
 20
-8.092129654532577
 10
4.712458412656107
 20
-8.107919623849687
 10
4.698074962062289
 20
-8.123493995406306
 10
4.679400089378355
 20
-8.13107071670409
 10
4.655376338921895
 20
-8.13107071670409
 10
4.655376338921895
 20
-8.13107071670409
 10
4.639165440643814
 20
-8.13107071670409
 10
4.639165440643814
 20
-8.13107071670409
 10
4.632851506228941
 20
-8.13107071670409
 10
4.628221287658056
 20
-8.129951661661481
 10
4.625798379492405
 20
-8.127847016856524
 10
4.623118807326085
 20
-8.125506241171024
 10
4.621322159321859
 20
-8.122570005004137
 10
4.620316036439513
 20
-8.11886377683542
 10
4.619679509718025
 20
-8.116471668349781
 10
4.618601520915439
 20
-8.108443218410911
 10
4.618601520915439
 20
-8.081524298027639
 10
4.618601520915439
 20
-8.081524298027639
 10
4.618601520915439
 20
-7.979022962746713
 10
4.618601520915439
 20
-7.979022962746713
 10
4.627810625257148
 20
-7.979567090427963
 10
4.634966417593911
 20
-7.981610135872768
 10
4.639935432645617
 20
-7.985100766280993
 10
4.645807904979392
 20
-7.989248456530731
 10
4.651197848992069
 20
-7.997882633511026
 10
4.655951266283257
 20
-8.01073636666125
 10
4.660889481654875
 20
-8.024154760612796
 10
4.664185047422606
 20
-8.04173111137412
 10
4.665735297986278
 20
-8.062972624064034
 10
4.665735297986278
 20
-8.062972624064034
 10
4.666094627587122
 20
-8.067849240075499
 10
4.666094627587122
 20
-8.067849240075499
 10
4.666094627587122
 20
-8.067849240075499
 10
4.683845509868862
 20
-8.067849240075499
 10
4.683845509868862
 20
-8.067849240075499
 10
4.683845509868862
 20
-8.067849240075499
 10
4.683845509868862
 20
-7.856758499419306
 10
4.683845509868862
 20
-7.856758499419306
 10
4.683845509868862
 20
-7.856758499419306
 10
4.66608436102711
 20
-7.856758499419306
 10
4.66608436102711
 20
-7.856758499419306
 10
4.66608436102711
 20
-7.856758499419306
 10
4.665735297986278
 20
-7.861635115430772
 10
4.665735297986278
 20
-7.861635115430772
 10
4.663661452861358
 20
-7.890556015018748
 10
4.658866969330119
 20
-7.912598319390554
 10
4.651475046112762
 20
-7.927156301504787
 10
4.644658050256717
 20
-7.940615761696435
 10
4.633950028151553
 20
-7.947155560431787
 10
4.61875551931583
 20
-7.947155560431787
 10
4.61875551931583
 20
-7.947155560431787
 10
4.618601520915439
 20
-7.801729737689962
 10
4.618601520915439
 20
-7.801729737689962
 10
4.618601520915439
 20
-7.801729737689962
 10
4.641362484488985
 20
-7.801729737689962
 10
4.641362484488985
 20
-7.801729737689962
 10
4.665899562946631
 20
-7.801729737689962
 10
4.676576785371758
 20
-7.804245044895853
 10
4.681268603302769
 20
-7.80637022282086
 10
4.692982748290331
 20
-7.811534302513008
 10
4.702161052951901
 20
-7.819737283972294
 10
4.708557119846924
 20
-7.830753302878165
 10
4.715189317622489
 20
-7.842169717625008
 10
4.720456062914914
 20
-7.861583782630658
 10
4.724213623883719
 20
-7.888451370213791
 10
4.724213623883719
 20
-7.888451370213791
 10
4.724850150605207
 20
-7.89297892318445
 10
4.724850150605207
 20
-7.89297892318445
 10
4.724850150605207
 20
-7.89297892318445
 10
4.742282769526203
 20
-7.89297892318445
 10
4.742282769526203
 20
-7.89297892318445
 10
4.742282769526203
 20
-7.89297892318445
 10
4.742282769526203
 20
-7.769184742413446
 10
4.742282769526203
 20
-7.769184742413446
 10
4.742282769526203
 20
-7.769184742413446
 10
4.504622171527544
 20
-7.769184742413446
 10
4.504622171527544
 20
-7.769184742413446
 10
4.504622171527544
 20
-7.769184742413446
 10
4.504622171527544
 20
-7.790149057982716
 10
4.504622171527544
 20
-7.790149057982716
 10
4.504622171527544
 20
-7.790149057982716
 10
4.518892689961072
 20
-7.790149057982716
 10
4.518892689961072
 20
-7.790149057982716
 10
4.526274346618467
 20
-7.790149057982716
 10
4.53183882215151
 20
-7.792212636547573
 10
4.535996778961311
 20
-7.796534858317727
 10
4.53883034952797
 20
-7.799358162324374
 10
4.54083232873265
 20
-7.803577718494302
 10
4.541920584095199
 20
-7.808916329706839
 10
4.542341513056221
 20
-7.811452170032806
 10
4.542844574497394
 20
-7.818905692610314
 10
4.542844574497394
 20
-7.839972673779836
 10
4.542844574497394
 20
-7.839972673779836
 10
4.542844574497394
 20
-8.091985922692249
 10
4.542844574497394
 20
-8.091985922692249
 10
4.542844574497394
 20
-8.116348469629503
 10
4.541633120414543
 20
-8.123719859726836
 10
4.540852861852727
 20
-8.126101701652411
 10
4.539323144409132
 20
-8.131378713504822
 10
4.537249299284263
 20
-8.135023342313413
 10
4.534549193997918
 20
-8.137076654318232
 10
4.530750566788961
 20
-8.140218221685623
 10
4.525483821496587
 20
-8.14180953848937
 10
4.518892689961072
 20
-8.14180953848937
 10
4.518892689961072
 20
-8.14180953848937
 10
4.504622171527544
 20
-8.14180953848937
 10
4.504622171527544
 20
-8.14180953848937
 10
4.504622171527544
 20
-8.14180953848937
 10
4.504622171527544
 20
-8.16277385405864
 10
4.504622171527544
 20
-8.16277385405864
 10
4.504622171527544
 20
-8.16277385405864
 10
4.749181897862399
 20
-8.16277385405864
 10
4.749181897862399
 20
-8.16277385405864
 10
4.749181897862399
 20
-8.16277385405864
 10
4.762446293413581
 20
-8.030509761267719
 10
4.762446293413581
 20
-8.030509761267719
 10
4.762446293413581
 20
-8.030509761267719
 10
4.744911008892358
 20
-8.030509761267719
 10
4.744911008892358
 20
-8.030509761267719
 10
4.744911008892358
 20
-8.030509761267719
 10
4.744079417530429
 20
-8.034749850557696
 10
4.744079417530429
 20
-8.034749850557696
 97
        0
 97
        1
330
8B
 75
     2
 76
     1
 98
        1
 10
0.0
 20
0.0
450
        0
451
        0
460
0.0
461
0.0
452
        0
462
0.0
453
        0
470

  0
SPLINE
  5
8D
330
79
100
AcDbEntity
  8
Layer 2
100
AcDbSpline
210
0.0
220
0.0
230
1.0
 70
    11
 71
     3
 72
    14
 73
    10
 74
     0
 42
0.0000000001
 43
0.0000000001
 40
0.0
 40
0.0
 40
0.0
 40
0.0
 40
1.0
 40
1.0
 40
1.0
 40
2.0
 40
2.0
 40
2.0
 40
3.0
 40
3.0
 40
3.0
 40
3.0
 10
4.931649469171335
 20
-8.02231704636847
 30
0.0
 10
4.931649469171335
 20
-8.02231704636847
 30
0.0
 10
4.863869639892022
 20
-8.02231704636847
 30
0.0
 10
4.863869639892022
 20
-8.02231704636847
 30
0.0
 10
4.863869639892022
 20
-8.02231704636847
 30
0.0
 10
4.898252349412814
 20
-7.913337511712319
 30
0.0
 10
4.898252349412814
 20
-7.913337511712319
 30
0.0
 10
4.898252349412814
 20
-7.913337511712319
 30
0.0
 10
4.931649469171335
 20
-8.02231704636847
 30
0.0
 10
4.931649469171335
 20
-8.02231704636847
 30
0.0
  0
SPLINE
  5
8E
330
79
100
AcDbEntity
  8
Layer 2
100
AcDbSpline
210
0.0
220
0.0
230
1.0
 70
     9
 71
     3
 72
    86
 73
    82
 74
     0
 42
0.0000000001
 43
0.0000000001
 40
0.0
 40
0.0
 40
0.0
 40
0.0
 40
1.0
 40
1.0
 40
1.0
 40
2.0
 40
2.0
 40
2.0
 40
3.0
 40
3.0
 40
3.0
 40
4.0
 40
4.0
 40
4.0
 40
5.0
 40
5.0
 40
5.0
 40
6.0
 40
6.0
 40
6.0
 40
7.0
 40
7.0
 40
7.0
 40
8.0
 40
8.0
 40
8.0
 40
9.0
 40
9.0
 40
9.0
 40
10.0
 40
10.0
 40
10.0
 40
11.0
 40
11.0
 40
11.0
 40
12.0
 40
12.0
 40
12.0
 40
13.0
 40
13.0
 40
13.0
 40
14.0
 40
14.0
 40
14.0
 40
15.0
 40
15.0
 40
15.0
 40
16.0
 40
16.0
 40
16.0
 40
17.0
 40
17.0
 40
17.0
 40
18.0
 40
18.0
 40
18.0
 40
19.0
 40
19.0
 40
19.0
 40
20.0
 40
20.0
 40
20.0
 40
21.0
 40
21.0
 40
21.0
 40
22.0
 40
22.0
 40
22.0
 40
23.0
 40
23.0
 40
23.0
 40
24.0
 40
24.0
 40
24.0
 40
25.0
 40
25.0
 40
25.0
 40
26.0
 40
26.0
 40
26.0
 40
27.0
 40
27.0
 40
27.0
 40
27.0
 10
5.051357559052727
 20
-8.133678422950247
 30
0.0
 10
5.047517865603721
 20
-8.128729941018617
 30
0.0
 10
5.040567404467361
 20
-8.115249947706917
 30
0.0
 10
5.029222855640707
 20
-8.079121922982015
 30
0.0
 10
5.029222855640707
 20
-8.079121922982015
 30
0.0
 10
4.930212150767955
 20
-7.76126922463484
 30
0.0
 10
4.930212150767955
 20
-7.76126922463484
 30
0.0
 10
4.930212150767955
 20
-7.76126922463484
 30
0.0
 10
4.918693070420886
 20
-7.76126922463484
 30
0.0
 10
4.918693070420886
 20
-7.76126922463484
 30
0.0
 10
4.918693070420886
 20
-7.76126922463484
 30
0.0
 10
4.82046262410995
 20
-8.070631477842045
 30
0.0
 10
4.82046262410995
 20
-8.070631477842045
 30
0.0
 10
4.811458850968796
 20
-8.099182781269139
 30
0.0
 10
4.803871863110948
 20
-8.118155384193743
 30
0.0
 10
4.797906991736959
 20
-8.127035958614618
 30
0.0
 10
4.792383582443966
 20
-8.135259473193956
 30
0.0
 10
4.785597386268009
 20
-8.140125822645408
 30
0.0
 10
4.777158273928206
 20
-8.141922470649635
 30
0.0
 10
4.777158273928206
 20
-8.141922470649635
 30
0.0
 10
4.773000317118405
 20
-8.142815661371717
 30
0.0
 10
4.773000317118405
 20
-8.142815661371717
 30
0.0
 10
4.773000317118405
 20
-8.142815661371717
 30
0.0
 10
4.773000317118405
 20
-8.16277385405864
 30
0.0
 10
4.773000317118405
 20
-8.16277385405864
 30
0.0
 10
4.773000317118405
 20
-8.16277385405864
 30
0.0
 10
4.873766603755282
 20
-8.16277385405864
 30
0.0
 10
4.873766603755282
 20
-8.16277385405864
 30
0.0
 10
4.873766603755282
 20
-8.16277385405864
 30
0.0
 10
4.873766603755282
 20
-8.142333133050568
 30
0.0
 10
4.873766603755282
 20
-8.142333133050568
 30
0.0
 10
4.873766603755282
 20
-8.142333133050568
 30
0.0
 10
4.869064519264207
 20
-8.141840338169433
 30
0.0
 10
4.869064519264207
 20
-8.141840338169433
 30
0.0
 10
4.851354703222619
 20
-8.139961557685005
 30
0.0
 10
4.846519153451228
 20
-8.137312785198774
 30
0.0
 10
4.845246100008251
 20
-8.136245062956277
 30
0.0
 10
4.840338684316722
 20
-8.132169238626703
 30
0.0
 10
4.837946575831058
 20
-8.125721838931541
 30
0.0
 10
4.837946575831058
 20
-8.116543534269945
 30
0.0
 10
4.837946575831058
 20
-8.108977079532172
 30
0.0
 10
4.839753490395296
 20
-8.099131448469027
 30
0.0
 10
4.843326253283723
 20
-8.087314637881263
 30
0.0
 10
4.843326253283723
 20
-8.087314637881263
 30
0.0
 10
4.853582546747828
 20
-8.053722453482274
 30
0.0
 10
4.853582546747828
 20
-8.053722453482274
 30
0.0
 10
4.853582546747828
 20
-8.053722453482274
 30
0.0
 10
4.941649098634822
 20
-8.053722453482274
 30
0.0
 10
4.941649098634822
 20
-8.053722453482274
 30
0.0
 10
4.941649098634822
 20
-8.053722453482274
 30
0.0
 10
4.95493402730608
 20
-8.097724929745734
 30
0.0
 10
4.95493402730608
 20
-8.097724929745734
 30
0.0
 10
4.959892775797722
 20
-8.114233558264533
 30
0.0
 10
4.960673034359539
 20
-8.117559923712354
 30
0.0
 10
4.960837299319942
 20
-8.118555780034688
 30
0.0
 10
4.96154569196162
 20
-8.121707613962092
 30
0.0
 10
4.961905021562466
 20
-8.124838914769446
 30
0.0
 10
4.961905021562466
 20
-8.127847016856524
 30
0.0
 10
4.961905021562466
 20
-8.132066573026451
 30
0.0
 10
4.960929698360157
 20
-8.135208140393842
 30
0.0
 10
4.959112517235906
 20
-8.137076654318232
 30
0.0
 10
4.955909350508388
 20
-8.140177155445522
 30
0.0
 10
4.949492750493289
 20
-8.14180953848937
 30
0.0
 10
4.940550576712262
 20
-8.14180953848937
 30
0.0
 10
4.940550576712262
 20
-8.14180953848937
 30
0.0
 10
4.929893887407211
 20
-8.14180953848937
 30
0.0
 10
4.929893887407211
 20
-8.14180953848937
 30
0.0
 10
4.929893887407211
 20
-8.14180953848937
 30
0.0
 10
4.929893887407211
 20
-8.16277385405864
 30
0.0
 10
4.929893887407211
 20
-8.16277385405864
 30
0.0
 10
4.929893887407211
 20
-8.16277385405864
 30
0.0
 10
5.071685347900508
 20
-8.16277385405864
 30
0.0
 10
5.071685347900508
 20
-8.16277385405864
 30
0.0
 10
5.071685347900508
 20
-8.16277385405864
 30
0.0
 10
5.071685347900508
 20
-8.142374199290669
 30
0.0
 10
5.071685347900508
 20
-8.142374199290669
 30
0.0
 10
5.071685347900508
 20
-8.142374199290669
 30
0.0
 10
5.067014063089522
 20
-8.141840338169433
 30
0.0
 10
5.067014063089522
 20
-8.141840338169433
 30
0.0
 10
5.060145734433363
 20
-8.141070346167603
 30
0.0
 10
5.055022720981317
 20
-8.138401040561348
 30
0.0
 10
5.051357559052727
 20
-8.133678422950247
 30
0.0
  0
HATCH
  5
8F
330
79
100
AcDbEntity
  8
Layer 2
 62
   250
420
  2301728
440
 33554687
100
AcDbHatch
 10
0.0
 20
0.0
 30
0.0
210
0.0
220
0.0
230
1.0
  2
SOLID
 70
     1
 71
     1
 91
        2
 92
        1
 93
        1
 72
     4
 94
        3
 73
     0
 74
     0
 95
       14
 96
       10
 40
0.0
 40
0.0
 40
0.0
 40
0.0
 40
1.0
 40
1.0
 40
1.0
 40
2.0
 40
2.0
 40
2.0
 40
3.0
 40
3.0
 40
3.0
 40
3.0
 10
4.931649469171335
 20
-8.02231704636847
 10
4.931649469171335
 20
-8.02231704636847
 10
4.863869639892022
 20
-8.02231704636847
 10
4.863869639892022
 20
-8.02231704636847
 10
4.863869639892022
 20
-8.02231704636847
 10
4.898252349412814
 20
-7.913337511712319
 10
4.898252349412814
 20
-7.913337511712319
 10
4.898252349412814
 20
-7.913337511712319
 10
4.931649469171335
 20
-8.02231704636847
 10
4.931649469171335
 20
-8.02231704636847
 97
        0
 97
        1
330
8D
 92
        1
 93
        1
 72
     4
 94
        3
 73
     0
 74
     0
 95
       86
 96
       82
 40
0.0
 40
0.0
 40
0.0
 40
0.0
 40
1.0
 40
1.0
 40
1.0
 40
2.0
 40
2.0
 40
2.0
 40
3.0
 40
3.0
 40
3.0
 40
4.0
 40
4.0
 40
4.0
 40
5.0
 40
5.0
 40
5.0
 40
6.0
 40
6.0
 40
6.0
 40
7.0
 40
7.0
 40
7.0
 40
8.0
 40
8.0
 40
8.0
 40
9.0
 40
9.0
 40
9.0
 40
10.0
 40
10.0
 40
10.0
 40
11.0
 40
11.0
 40
11.0
 40
12.0
 40
12.0
 40
12.0
 40
13.0
 40
13.0
 40
13.0
 40
14.0
 40
14.0
 40
14.0
 40
15.0
 40
15.0
 40
15.0
 40
16.0
 40
16.0
 40
16.0
 40
17.0
 40
17.0
 40
17.0
 40
18.0
 40
18.0
 40
18.0
 40
19.0
 40
19.0
 40
19.0
 40
20.0
 40
20.0
 40
20.0
 40
21.0
 40
21.0
 40
21.0
 40
22.0
 40
22.0
 40
22.0
 40
23.0
 40
23.0
 40
23.0
 40
24.0
 40
24.0
 40
24.0
 40
25.0
 40
25.0
 40
25.0
 40
26.0
 40
26.0
 40
26.0
 40
27.0
 40
27.0
 40
27.0
 40
27.0
 10
5.051357559052727
 20
-8.133678422950247
 10
5.047517865603721
 20
-8.128729941018617
 10
5.040567404467361
 20
-8.115249947706917
 10
5.029222855640707
 20
-8.079121922982015
 10
5.029222855640707
 20
-8.079121922982015
 10
4.930212150767955
 20
-7.76126922463484
 10
4.930212150767955
 20
-7.76126922463484
 10
4.930212150767955
 20
-7.76126922463484
 10
4.918693070420886
 20
-7.76126922463484
 10
4.918693070420886
 20
-7.76126922463484
 10
4.918693070420886
 20
-7.76126922463484
 10
4.82046262410995
 20
-8.070631477842045
 10
4.82046262410995
 20
-8.070631477842045
 10
4.811458850968796
 20
-8.099182781269139
 10
4.803871863110948
 20
-8.118155384193743
 10
4.797906991736959
 20
-8.127035958614618
 10
4.792383582443966
 20
-8.135259473193956
 10
4.785597386268009
 20
-8.140125822645408
 10
4.777158273928206
 20
-8.141922470649635
 10
4.777158273928206
 20
-8.141922470649635
 10
4.773000317118405
 20
-8.142815661371717
 10
4.773000317118405
 20
-8.142815661371717
 10
4.773000317118405
 20
-8.142815661371717
 10
4.773000317118405
 20
-8.16277385405864
 10
4.773000317118405
 20
-8.16277385405864
 10
4.773000317118405
 20
-8.16277385405864
 10
4.873766603755282
 20
-8.16277385405864
 10
4.873766603755282
 20
-8.16277385405864
 10
4.873766603755282
 20
-8.16277385405864
 10
4.873766603755282
 20
-8.142333133050568
 10
4.873766603755282
 20
-8.142333133050568
 10
4.873766603755282
 20
-8.142333133050568
 10
4.869064519264207
 20
-8.141840338169433
 10
4.869064519264207
 20
-8.141840338169433
 10
4.851354703222619
 20
-8.139961557685005
 10
4.846519153451228
 20
-8.137312785198774
 10
4.845246100008251
 20
-8.136245062956277
 10
4.840338684316722
 20
-8.132169238626703
 10
4.837946575831058
 20
-8.125721838931541
 10
4.837946575831058
 20
-8.116543534269945
 10
4.837946575831058
 20
-8.108977079532172
 10
4.839753490395296
 20
-8.099131448469027
 10
4.843326253283723
 20
-8.087314637881263
 10
4.843326253283723
 20
-8.087314637881263
 10
4.853582546747828
 20
-8.053722453482274
 10
4.853582546747828
 20
-8.053722453482274
 10
4.853582546747828
 20
-8.053722453482274
 10
4.941649098634822
 20
-8.053722453482274
 10
4.941649098634822
 20
-8.053722453482274
 10
4.941649098634822
 20
-8.053722453482274
 10
4.95493402730608
 20
-8.097724929745734
 10
4.95493402730608
 20
-8.097724929745734
 10
4.959892775797722
 20
-8.114233558264533
 10
4.960673034359539
 20
-8.117559923712354
 10
4.960837299319942
 20
-8.118555780034688
 10
4.96154569196162
 20
-8.121707613962092
 10
4.961905021562466
 20
-8.124838914769446
 10
4.961905021562466
 20
-8.127847016856524
 10
4.961905021562466
 20
-8.132066573026451
 10
4.960929698360157
 20
-8.135208140393842
 10
4.959112517235906
 20
-8.137076654318232
 10
4.955909350508388
 20
-8.140177155445522
 10
4.949492750493289
 20
-8.14180953848937
 10
4.940550576712262
 20
-8.14180953848937
 10
4.940550576712262
 20
-8.14180953848937
 10
4.929893887407211
 20
-8.14180953848937
 10
4.929893887407211
 20
-8.14180953848937
 10
4.929893887407211
 20
-8.14180953848937
 10
4.929893887407211
 20
-8.16277385405864
 10
4.929893887407211
 20
-8.16277385405864
 10
4.929893887407211
 20
-8.16277385405864
 10
5.071685347900508
 20
-8.16277385405864
 10
5.071685347900508
 20
-8.16277385405864
 10
5.071685347900508
 20
-8.16277385405864
 10
5.071685347900508
 20
-8.142374199290669
 10
5.071685347900508
 20
-8.142374199290669
 10
5.071685347900508
 20
-8.142374199290669
 10
5.067014063089522
 20
-8.141840338169433
 10
5.067014063089522
 20
-8.141840338169433
 10
5.060145734433363
 20
-8.141070346167603
 10
5.055022720981317
 20
-8.138401040561348
 10
5.051357559052727
 20
-8.133678422950247
 97
        0
 97
        1
330
8E
 75
     2
 76
     1
 98
        1
 10
0.0
 20
0.0
450
        0
451
        0
460
0.0
461
0.0
452
        0
462
0.0
453
        0
470

  0
SPLINE
  5
90
330
79
100
AcDbEntity
  8
Layer 2
100
AcDbSpline
210
0.0
220
0.0
230
1.0
 70
    11
 71
     3
 72
    29
 73
    25
 74
     0
 42
0.0000000001
 43
0.0000000001
 40
0.0
 40
0.0
 40
0.0
 40
0.0
 40
1.0
 40
1.0
 40
1.0
 40
2.0
 40
2.0
 40
2.0
 40
3.0
 40
3.0
 40
3.0
 40
4.0
 40
4.0
 40
4.0
 40
5.0
 40
5.0
 40
5.0
 40
6.0
 40
6.0
 40
6.0
 40
7.0
 40
7.0
 40
7.0
 40
8.0
 40
8.0
 40
8.0
 40
8.0
 10
5.18516163584723
 20
-7.800312952406632
 30
0.0
 10
5.18516163584723
 20
-7.800312952406632
 30
0.0
 10
5.201310934765185
 20
-7.800312952406632
 30
0.0
 10
5.201310934765185
 20
-7.800312952406632
 30
0.0
 10
5.221125395611781
 20
-7.800312952406632
 30
0.0
 10
5.235005784764426
 20
-7.806411289060961
 30
0.0
 10
5.243722094224923
 20
-7.818967291970466
 30
0.0
 10
5.252725867366077
 20
-7.831933957280953
 30
0.0
 10
5.257294486576837
 20
-7.852692941649744
 30
0.0
 10
5.257294486576837
 20
-7.880669317715501
 30
0.0
 10
5.257294486576837
 20
-7.900011516800987
 30
0.0
 10
5.254768912810858
 20
-7.915811752678109
 30
0.0
 10
5.249799897759203
 20
-7.927638829825935
 30
0.0
 10
5.245046480468014
 20
-7.938952578972525
 30
0.0
 10
5.238558014532777
 20
-7.946816763950992
 30
0.0
 10
5.230498764913792
 20
-7.951005520440831
 30
0.0
 10
5.22210071881409
 20
-7.955389341571136
 30
0.0
 10
5.20891845574311
 20
-7.957617185096371
 30
0.0
 10
5.191301038741685
 20
-7.957617185096371
 30
0.0
 10
5.191301038741685
 20
-7.957617185096371
 30
0.0
 10
5.18516163584723
 20
-7.957617185096371
 30
0.0
 10
5.18516163584723
 20
-7.957617185096371
 30
0.0
 10
5.18516163584723
 20
-7.957617185096371
 30
0.0
 10
5.18516163584723
 20
-7.800312952406632
 30
0.0
 10
5.18516163584723
 20
-7.800312952406632
 30
0.0
  0
SPLINE
  5
91
330
79
100
AcDbEntity
  8
Layer 2
100
AcDbSpline
210
0.0
220
0.0
230
1.0
 70
     9
 71
     3
 72
    32
 73
    28
 74
     0
 42
0.0000000001
 43
0.0000000001
 40
0.0
 40
0.0
 40
0.0
 40
0.0
 40
1.0
 40
1.0
 40
1.0
 40
2.0
 40
2.0
 40
2.0
 40
3.0
 40
3.0
 40
3.0
 40
4.0
 40
4.0
 40
4.0
 40
5.0
 40
5.0
 40
5.0
 40
6.0
 40
6.0
 40
6.0
 40
7.0
 40
7.0
 40
7.0
 40
8.0
 40
8.0
 40
8.0
 40
9.0
 40
9.0
 40
9.0
 40
9.0
 10
5.568289122827839
 20
-7.969362129763996
 30
0.0
 10
5.568289122827839
 20
-8.029216174704691
 30
0.0
 10
5.560435204409359
 20
-8.0738038448895
 30
0.0
 10
5.544922432212893
 20
-8.101893153115522
 30
0.0
 10
5.534080944827413
 20
-8.121728147082142
 30
0.0
 10
5.518896702551753
 20
-8.13136844694481
 30
0.0
 10
5.498507314343795
 20
-8.13136844694481
 30
0.0
 10
5.492953105370765
 20
-8.13136844694481
 30
0.0
 10
5.488795148560964
 20
-8.130310991262325
 30
0.0
 10
5.48602317735448
 20
-8.128155013657254
 30
0.0
 10
5.484411327430684
 20
-8.126964092694453
 30
0.0
 10
5.483271739267971
 20
-8.125167444690228
 30
0.0
 10
5.482532546946256
 20
-8.122682937164375
 30
0.0
 10
5.48201921894507
 20
-8.120958155080339
 30
0.0
 10
5.481156827903052
 20
-8.11508568274654
 30
0.0
 10
5.481156827903052
 20
-8.095086423819541
 30
0.0
 10
5.481156827903052
 20
-8.095086423819541
 30
0.0
 10
5.481156827903052
 20
-7.801462807129332
 30
0.0
 10
5.481156827903052
 20
-7.801462807129332
 30
0.0
 10
5.499636635946444
 20
-7.801719471129924
 30
0.0
 10
5.513024230217928
 20
-7.804306644256004
 30
0.0
 10
5.52100134735671
 20
-7.80916272714742
 30
0.0
 10
5.533506017466101
 20
-7.816780514685306
 30
0.0
 10
5.544008708370761
 20
-7.831667026720323
 30
0.0
 10
5.552211689830023
 20
-7.853391067731384
 30
0.0
 10
5.562878645695136
 20
-7.882034770198717
 30
0.0
 10
5.568289122827839
 20
-7.921057964850458
 30
0.0
 10
5.568289122827839
 20
-7.969362129763996
 30
0.0
  0
SPLINE
  5
92
330
79
100
AcDbEntity
  8
Layer 2
100
AcDbSpline
210
0.0
220
0.0
230
1.0
 70
     9
 71
     3
 72
   158
 73
   154
 74
     0
 42
0.0000000001
 43
0.0000000001
 40
0.0
 40
0.0
 40
0.0
 40
0.0
 40
1.0
 40
1.0
 40
1.0
 40
2.0
 40
2.0
 40
2.0
 40
3.0
 40
3.0
 40
3.0
 40
4.0
 40
4.0
 40
4.0
 40
5.0
 40
5.0
 40
5.0
 40
6.0
 40
6.0
 40
6.0
 40
7.0
 40
7.0
 40
7.0
 40
8.0
 40
8.0
 40
8.0
 40
9.0
 40
9.0
 40
9.0
 40
10.0
 40
10.0
 40
10.0
 40
11.0
 40
11.0
 40
11.0
 40
12.0
 40
12.0
 40
12.0
 40
13.0
 40
13.0
 40
13.0
 40
14.0
 40
14.0
 40
14.0
 40
15.0
 40
15.0
 40
15.0
 40
16.0
 40
16.0
 40
16.0
 40
17.0
 40
17.0
 40
17.0
 40
18.0
 40
18.0
 40
18.0
 40
19.0
 40
19.0
 40
19.0
 40
20.0
 40
20.0
 40
20.0
 40
21.0
 40
21.0
 40
21.0
 40
22.0
 40
22.0
 40
22.0
 40
23.0
 40
23.0
 40
23.0
 40
24.0
 40
24.0
 40
24.0
 40
25.0
 40
25.0
 40
25.0
 40
26.0
 40
26.0
 40
26.0
 40
27.0
 40
27.0
 40
27.0
 40
28.0
 40
28.0
 40
28.0
 40
29.0
 40
29.0
 40
29.0
 40
30.0
 40
30.0
 40
30.0
 40
31.0
 40
31.0
 40
31.0
 40
32.0
 40
32.0
 40
32.0
 40
33.0
 40
33.0
 40
33.0
 40
34.0
 40
34.0
 40
34.0
 40
35.0
 40
35.0
 40
35.0
 40
36.0
 40
36.0
 40
36.0
 40
37.0
 40
37.0
 40
37.0
 40
38.0
 40
38.0
 40
38.0
 40
39.0
 40
39.0
 40
39.0
 40
40.0
 40
40.0
 40
40.0
 40
41.0
 40
41.0
 40
41.0
 40
42.0
 40
42.0
 40
42.0
 40
43.0
 40
43.0
 40
43.0
 40
44.0
 40
44.0
 40
44.0
 40
45.0
 40
45.0
 40
45.0
 40
46.0
 40
46.0
 40
46.0
 40
47.0
 40
47.0
 40
47.0
 40
48.0
 40
48.0
 40
48.0
 40
49.0
 40
49.0
 40
49.0
 40
50.0
 40
50.0
 40
50.0
 40
51.0
 40
51.0
 40
51.0
 40
51.0
 10
5.631962328097515
 20
-7.860320995747668
 30
0.0
 10
5.619118861507305
 20
-7.828545992472982
 30
0.0
 10
5.599951193942261
 20
-7.804429842976282
 30
0.0
 10
5.574962386843505
 20
-7.78865014021921
 30
0.0
 10
5.554460066475358
 20
-7.775734807708835
 30
0.0
 10
5.527192083051229
 20
-7.769184742413446
 30
0.0
 10
5.493907895452998
 20
-7.769184742413446
 30
0.0
 10
5.493907895452998
 20
-7.769184742413446
 30
0.0
 10
5.367177478515107
 20
-7.769184742413446
 30
0.0
 10
5.367177478515107
 20
-7.769184742413446
 30
0.0
 10
5.367177478515107
 20
-7.769184742413446
 30
0.0
 10
5.367177478515107
 20
-7.790149057982716
 30
0.0
 10
5.367177478515107
 20
-7.790149057982716
 30
0.0
 10
5.367177478515107
 20
-7.790149057982716
 30
0.0
 10
5.381427463828609
 20
-7.790149057982716
 30
0.0
 10
5.381427463828609
 20
-7.790149057982716
 30
0.0
 10
5.387761931363507
 20
-7.790149057982716
 30
0.0
 10
5.392730946415162
 20
-7.791596642946134
 30
0.0
 10
5.396211310263323
 20
-7.79447127975287
 30
0.0
 10
5.399897005311989
 20
-7.797489648399984
 30
0.0
 10
5.402248047557551
 20
-7.80085708008788
 30
0.0
 10
5.403418435400301
 20
-7.804758372897063
 30
0.0
 10
5.40432189268242
 20
-7.807776741544152
 30
0.0
 10
5.405399881484956
 20
-7.816339052604284
 30
0.0
 10
5.405399881484956
 20
-7.839972673779836
 30
0.0
 10
5.405399881484956
 20
-7.839972673779836
 30
0.0
 10
5.405399881484956
 20
-8.091985922692249
 30
0.0
 10
5.405399881484956
 20
-8.091985922692249
 30
0.0
 10
5.405399881484956
 20
-8.117128728191346
 30
0.0
 10
5.404414291722635
 20
-8.124109989007768
 30
0.0
 10
5.403859897481348
 20
-8.125916903572008
 30
0.0
 10
5.402155648517337
 20
-8.131039917024029
 30
0.0
 10
5.399650607871434
 20
-8.134920676713161
 30
0.0
 10
5.396180510583286
 20
-8.137785046959884
 30
0.0
 10
5.392967077295704
 20
-8.140454352566166
 30
0.0
 10
5.388008328804062
 20
-8.14180953848937
 30
0.0
 10
5.381427463828609
 20
-8.14180953848937
 30
0.0
 10
5.381427463828609
 20
-8.14180953848937
 30
0.0
 10
5.370910656403894
 20
-8.14180953848937
 30
0.0
 10
5.370910656403894
 20
-8.14180953848937
 30
0.0
 10
5.365059358850126
 20
-8.14131096866817
 30
0.0
 10
5.360001794718249
 20
-8.13872828716209
 30
0.0
 10
5.355586532247849
 20
-8.134017219431042
 30
0.0
 10
5.353307355922475
 20
-8.131399246624873
 30
0.0
 10
5.348410206791009
 20
-8.124007323407516
 30
0.0
 10
5.338082047406714
 20
-8.103751400479874
 30
0.0
 10
5.338082047406714
 20
-8.103751400479874
 30
0.0
 10
5.275466297819497
 20
-7.979269360187294
 30
0.0
 10
5.275466297819497
 20
-7.979269360187294
 30
0.0
 10
5.290291210494362
 20
-7.973150490412889
 30
0.0
 10
5.302200420122365
 20
-7.964464980632479
 30
0.0
 10
5.310916729582863
 20
-7.953387362366457
 30
0.0
 10
5.325998306258295
 20
-7.934086229521072
 30
0.0
 10
5.33364689347627
 20
-7.909425952343099
 30
0.0
 10
5.33364689347627
 20
-7.880104656914176
 30
0.0
 10
5.33364689347627
 20
-7.856121972697792
 30
0.0
 10
5.328575212824337
 20
-7.834870193447841
 30
0.0
 10
5.31857558336085
 20
-7.81694477964571
 30
0.0
 10
5.308421955496972
 20
-7.798721635602886
 30
0.0
 10
5.295034361225538
 20
-7.786021900853029
 30
0.0
 10
5.278792663267318
 20
-7.779194638436971
 30
0.0
 10
5.26274602994959
 20
-7.772459775061153
 30
0.0
 10
5.238516948292676
 20
-7.769184742413446
 30
0.0
 10
5.204709166133195
 20
-7.769184742413446
 30
0.0
 10
5.204709166133195
 20
-7.769184742413446
 30
0.0
 10
5.073379330304507
 20
-7.769184742413446
 30
0.0
 10
5.073379330304507
 20
-7.769184742413446
 30
0.0
 10
5.073379330304507
 20
-7.769184742413446
 30
0.0
 10
5.073379330304507
 20
-7.790149057982716
 30
0.0
 10
5.073379330304507
 20
-7.790149057982716
 30
0.0
 10
5.073379330304507
 20
-7.790149057982716
 30
0.0
 10
5.078635809036868
 20
-7.790149057982716
 30
0.0
 10
5.078635809036868
 20
-7.790149057982716
 30
0.0
 10
5.093378589231481
 20
-7.790149057982716
 30
0.0
 10
5.098994397564688
 20
-7.792551433028393
 30
0.0
 10
5.101016909889444
 20
-7.793978484871735
 30
0.0
 10
5.104651272137996
 20
-7.796555391437777
 30
0.0
 10
5.10712551310381
 20
-7.799912556565686
 30
0.0
 10
5.108573098067204
 20
-7.804224511775802
 30
0.0
 10
5.109681886549828
 20
-7.807530344103573
 30
0.0
 10
5.111006272792918
 20
-7.816708648765168
 30
0.0
 10
5.111006272792918
 20
-7.841676922743848
 30
0.0
 10
5.111006272792918
 20
-7.841676922743848
 30
0.0
 10
5.111006272792918
 20
-8.090281673728238
 30
0.0
 10
5.111006272792918
 20
-8.090281673728238
 30
0.0
 10
5.111006272792918
 20
-8.11526021426693
 30
0.0
 10
5.109692153109841
 20
-8.124346119888311
 30
0.0
 10
5.108573098067204
 20
-8.127580086295893
 30
0.0
 10
5.10712551310381
 20
-8.131840708705921
 30
0.0
 10
5.104661538698008
 20
-8.135218406953855
 30
0.0
 10
5.101047709569532
 20
-8.137887712560136
 30
0.0
 10
5.099055996924865
 20
-8.13935583064358
 30
0.0
 10
5.093491521391771
 20
-8.14180953848937
 30
0.0
 10
5.078635809036868
 20
-8.14180953848937
 30
0.0
 10
5.078635809036868
 20
-8.14180953848937
 30
0.0
 10
5.073379330304507
 20
-8.14180953848937
 30
0.0
 10
5.073379330304507
 20
-8.14180953848937
 30
0.0
 10
5.073379330304507
 20
-8.14180953848937
 30
0.0
 10
5.073379330304507
 20
-8.16277385405864
 30
0.0
 10
5.073379330304507
 20
-8.16277385405864
 30
0.0
 10
5.073379330304507
 20
-8.16277385405864
 30
0.0
 10
5.222778311775678
 20
-8.16277385405864
 30
0.0
 10
5.222778311775678
 20
-8.16277385405864
 30
0.0
 10
5.222778311775678
 20
-8.16277385405864
 30
0.0
 10
5.222778311775678
 20
-8.14180953848937
 30
0.0
 10
5.222778311775678
 20
-8.14180953848937
 30
0.0
 10
5.222778311775678
 20
-8.14180953848937
 30
0.0
 10
5.217521833043317
 20
-8.14180953848937
 30
0.0
 10
5.217521833043317
 20
-8.14180953848937
 30
0.0
 10
5.202779052848654
 20
-8.14180953848937
 30
0.0
 10
5.19717351107546
 20
-8.139407163443694
 30
0.0
 10
5.195150998750705
 20
-8.13798011160035
 30
0.0
 10
5.19150636994214
 20
-8.135403205034309
 30
0.0
 10
5.189032128976324
 20
-8.1320460399064
 30
0.0
 10
5.187584544012931
 20
-8.127734084696259
 30
0.0
 10
5.186475755530358
 20
-8.124438518928501
 30
0.0
 10
5.18516163584723
 20
-8.115280747386981
 30
0.0
 10
5.18516163584723
 20
-8.090281673728238
 30
0.0
 10
5.18516163584723
 20
-8.090281673728238
 30
0.0
 10
5.18516163584723
 20
-7.988191000848246
 30
0.0
 10
5.18516163584723
 20
-7.988191000848246
 30
0.0
 10
5.18516163584723
 20
-7.988191000848246
 30
0.0
 10
5.194463139229102
 20
-7.988191000848246
 30
0.0
 10
5.194463139229102
 20
-7.988191000848246
 30
0.0
 10
5.194463139229102
 20
-7.988191000848246
 30
0.0
 10
5.281913697514684
 20
-8.16277385405864
 30
0.0
 10
5.281913697514684
 20
-8.16277385405864
 30
0.0
 10
5.281913697514684
 20
-8.16277385405864
 30
0.0
 10
5.367177478515107
 20
-8.16277385405864
 30
0.0
 10
5.367177478515107
 20
-8.16277385405864
 30
0.0
 10
5.367177478515107
 20
-8.16277385405864
 30
0.0
 10
5.375873254855529
 20
-8.16277385405864
 30
0.0
 10
5.375873254855529
 20
-8.16277385405864
 30
0.0
 10
5.375873254855529
 20
-8.16277385405864
 30
0.0
 10
5.493907895452998
 20
-8.16277385405864
 30
0.0
 10
5.493907895452998
 20
-8.16277385405864
 30
0.0
 10
5.512059173575632
 20
-8.16277385405864
 30
0.0
 10
5.525087438246272
 20
-8.161603466215865
 30
0.0
 10
5.533670282426454
 20
-8.159211357730251
 30
0.0
 10
5.552560752870855
 20
-8.15420127643847
 30
0.0
 10
5.568843517069126
 20
-8.146953085061442
 30
0.0
 10
5.582077112940269
 20
-8.137661848239606
 30
0.0
 10
5.595300442251351
 20
-8.128391144537822
 30
0.0
 10
5.607106986279076
 20
-8.115948073788558
 30
0.0
 10
5.617168215102739
 20
-8.100671432472633
 30
0.0
 10
5.627167844566226
 20
-8.085476923636935
 30
0.0
 10
5.635411892265639
 20
-8.066052592071274
 30
0.0
 10
5.641664227320334
 20
-8.042932298896932
 30
0.0
 10
5.647896029254954
 20
-8.019894138202769
 30
0.0
 10
5.651058129742422
 20
-7.994392003102827
 30
0.0
 10
5.651058129742422
 20
-7.967103486558673
 30
0.0
 10
5.651058129742422
 20
-7.927649096385948
 30
0.0
 10
5.64463126316731
 20
-7.891716136301485
 30
0.0
 10
5.631962328097515
 20
-7.860320995747668
 30
0.0
  0
HATCH
  5
93
330
79
100
AcDbEntity
  8
Layer 2
 62
   250
420
  2301728
440
 33554687
100
AcDbHatch
 10
0.0
 20
0.0
 30
0.0
210
0.0
220
0.0
230
1.0
  2
SOLID
 70
     1
 71
     1
 91
        3
 92
        1
 93
        1
 72
     4
 94
        3
 73
     0
 74
     0
 95
       29
 96
       25
 40
0.0
 40
0.0
 40
0.0
 40
0.0
 40
1.0
 40
1.0
 40
1.0
 40
2.0
 40
2.0
 40
2.0
 40
3.0
 40
3.0
 40
3.0
 40
4.0
 40
4.0
 40
4.0
 40
5.0
 40
5.0
 40
5.0
 40
6.0
 40
6.0
 40
6.0
 40
7.0
 40
7.0
 40
7.0
 40
8.0
 40
8.0
 40
8.0
 40
8.0
 10
5.18516163584723
 20
-7.800312952406632
 10
5.18516163584723
 20
-7.800312952406632
 10
5.201310934765185
 20
-7.800312952406632
 10
5.201310934765185
 20
-7.800312952406632
 10
5.221125395611781
 20
-7.800312952406632
 10
5.235005784764426
 20
-7.806411289060961
 10
5.243722094224923
 20
-7.818967291970466
 10
5.252725867366077
 20
-7.831933957280953
 10
5.257294486576837
 20
-7.852692941649744
 10
5.257294486576837
 20
-7.880669317715501
 10
5.257294486576837
 20
-7.900011516800987
 10
5.254768912810858
 20
-7.915811752678109
 10
5.249799897759203
 20
-7.927638829825935
 10
5.245046480468014
 20
-7.938952578972525
 10
5.238558014532777
 20
-7.946816763950992
 10
5.230498764913792
 20
-7.951005520440831
 10
5.22210071881409
 20
-7.955389341571136
 10
5.20891845574311
 20
-7.957617185096371
 10
5.191301038741685
 20
-7.957617185096371
 10
5.191301038741685
 20
-7.957617185096371
 10
5.18516163584723
 20
-7.957617185096371
 10
5.18516163584723
 20
-7.957617185096371
 10
5.18516163584723
 20
-7.957617185096371
 10
5.18516163584723
 20
-7.800312952406632
 10
5.18516163584723
 20
-7.800312952406632
 97
        0
 97
        1
330
90
 92
        1
 93
        1
 72
     4
 94
        3
 73
     0
 74
     0
 95
       32
 96
       28
 40
0.0
 40
0.0
 40
0.0
 40
0.0
 40
1.0
 40
1.0
 40
1.0
 40
2.0
 40
2.0
 40
2.0
 40
3.0
 40
3.0
 40
3.0
 40
4.0
 40
4.0
 40
4.0
 40
5.0
 40
5.0
 40
5.0
 40
6.0
 40
6.0
 40
6.0
 40
7.0
 40
7.0
 40
7.0
 40
8.0
 40
8.0
 40
8.0
 40
9.0
 40
9.0
 40
9.0
 40
9.0
 10
5.568289122827839
 20
-7.969362129763996
 10
5.568289122827839
 20
-8.029216174704691
 10
5.560435204409359
 20
-8.0738038448895
 10
5.544922432212893
 20
-8.101893153115522
 10
5.534080944827413
 20
-8.121728147082142
 10
5.518896702551753
 20
-8.13136844694481
 10
5.498507314343795
 20
-8.13136844694481
 10
5.492953105370765
 20
-8.13136844694481
 10
5.488795148560964
 20
-8.130310991262325
 10
5.48602317735448
 20
-8.128155013657254
 10
5.484411327430684
 20
-8.126964092694453
 10
5.483271739267971
 20
-8.125167444690228
 10
5.482532546946256
 20
-8.122682937164375
 10
5.48201921894507
 20
-8.120958155080339
 10
5.481156827903052
 20
-8.11508568274654
 10
5.481156827903052
 20
-8.095086423819541
 10
5.481156827903052
 20
-8.095086423819541
 10
5.481156827903052
 20
-7.801462807129332
 10
5.481156827903052
 20
-7.801462807129332
 10
5.499636635946444
 20
-7.801719471129924
 10
5.513024230217928
 20
-7.804306644256004
 10
5.52100134735671
 20
-7.80916272714742
 10
5.533506017466101
 20
-7.816780514685306
 10
5.544008708370761
 20
-7.831667026720323
 10
5.552211689830023
 20
-7.853391067731384
 10
5.562878645695136
 20
-7.882034770198717
 10
5.568289122827839
 20
-7.921057964850458
 10
5.568289122827839
 20
-7.969362129763996
 97
        0
 97
        1
330
91
 92
        1
 93
        1
 72
     4
 94
        3
 73
     0
 74
     0
 95
      158
 96
      154
 40
0.0
 40
0.0
 40
0.0
 40
0.0
 40
1.0
 40
1.0
 40
1.0
 40
2.0
 40
2.0
 40
2.0
 40
3.0
 40
3.0
 40
3.0
 40
4.0
 40
4.0
 40
4.0
 40
5.0
 40
5.0
 40
5.0
 40
6.0
 40
6.0
 40
6.0
 40
7.0
 40
7.0
 40
7.0
 40
8.0
 40
8.0
 40
8.0
 40
9.0
 40
9.0
 40
9.0
 40
10.0
 40
10.0
 40
10.0
 40
11.0
 40
11.0
 40
11.0
 40
12.0
 40
12.0
 40
12.0
 40
13.0
 40
13.0
 40
13.0
 40
14.0
 40
14.0
 40
14.0
 40
15.0
 40
15.0
 40
15.0
 40
16.0
 40
16.0
 40
16.0
 40
17.0
 40
17.0
 40
17.0
 40
18.0
 40
18.0
 40
18.0
 40
19.0
 40
19.0
 40
19.0
 40
20.0
 40
20.0
 40
20.0
 40
21.0
 40
21.0
 40
21.0
 40
22.0
 40
22.0
 40
22.0
 40
23.0
 40
23.0
 40
23.0
 40
24.0
 40
24.0
 40
24.0
 40
25.0
 40
25.0
 40
25.0
 40
26.0
 40
26.0
 40
26.0
 40
27.0
 40
27.0
 40
27.0
 40
28.0
 40
28.0
 40
28.0
 40
29.0
 40
29.0
 40
29.0
 40
30.0
 40
30.0
 40
30.0
 40
31.0
 40
31.0
 40
31.0
 40
32.0
 40
32.0
 40
32.0
 40
33.0
 40
33.0
 40
33.0
 40
34.0
 40
34.0
 40
34.0
 40
35.0
 40
35.0
 40
35.0
 40
36.0
 40
36.0
 40
36.0
 40
37.0
 40
37.0
 40
37.0
 40
38.0
 40
38.0
 40
38.0
 40
39.0
 40
39.0
 40
39.0
 40
40.0
 40
40.0
 40
40.0
 40
41.0
 40
41.0
 40
41.0
 40
42.0
 40
42.0
 40
42.0
 40
43.0
 40
43.0
 40
43.0
 40
44.0
 40
44.0
 40
44.0
 40
45.0
 40
45.0
 40
45.0
 40
46.0
 40
46.0
 40
46.0
 40
47.0
 40
47.0
 40
47.0
 40
48.0
 40
48.0
 40
48.0
 40
49.0
 40
49.0
 40
49.0
 40
50.0
 40
50.0
 40
50.0
 40
51.0
 40
51.0
 40
51.0
 40
51.0
 10
5.631962328097515
 20
-7.860320995747668
 10
5.619118861507305
 20
-7.828545992472982
 10
5.599951193942261
 20
-7.804429842976282
 10
5.574962386843505
 20
-7.78865014021921
 10
5.554460066475358
 20
-7.775734807708835
 10
5.527192083051229
 20
-7.769184742413446
 10
5.493907895452998
 20
-7.769184742413446
 10
5.493907895452998
 20
-7.769184742413446
 10
5.367177478515107
 20
-7.769184742413446
 10
5.367177478515107
 20
-7.769184742413446
 10
5.367177478515107
 20
-7.769184742413446
 10
5.367177478515107
 20
-7.790149057982716
 10
5.367177478515107
 20
-7.790149057982716
 10
5.367177478515107
 20
-7.790149057982716
 10
5.381427463828609
 20
-7.790149057982716
 10
5.381427463828609
 20
-7.790149057982716
 10
5.387761931363507
 20
-7.790149057982716
 10
5.392730946415162
 20
-7.791596642946134
 10
5.396211310263323
 20
-7.79447127975287
 10
5.399897005311989
 20
-7.797489648399984
 10
5.402248047557551
 20
-7.80085708008788
 10
5.403418435400301
 20
-7.804758372897063
 10
5.40432189268242
 20
-7.807776741544152
 10
5.405399881484956
 20
-7.816339052604284
 10
5.405399881484956
 20
-7.839972673779836
 10
5.405399881484956
 20
-7.839972673779836
 10
5.405399881484956
 20
-8.091985922692249
 10
5.405399881484956
 20
-8.091985922692249
 10
5.405399881484956
 20
-8.117128728191346
 10
5.404414291722635
 20
-8.124109989007768
 10
5.403859897481348
 20
-8.125916903572008
 10
5.402155648517337
 20
-8.131039917024029
 10
5.399650607871434
 20
-8.134920676713161
 10
5.396180510583286
 20
-8.137785046959884
 10
5.392967077295704
 20
-8.140454352566166
 10
5.388008328804062
 20
-8.14180953848937
 10
5.381427463828609
 20
-8.14180953848937
 10
5.381427463828609
 20
-8.14180953848937
 10
5.370910656403894
 20
-8.14180953848937
 10
5.370910656403894
 20
-8.14180953848937
 10
5.365059358850126
 20
-8.14131096866817
 10
5.360001794718249
 20
-8.13872828716209
 10
5.355586532247849
 20
-8.134017219431042
 10
5.353307355922475
 20
-8.131399246624873
 10
5.348410206791009
 20
-8.124007323407516
 10
5.338082047406714
 20
-8.103751400479874
 10
5.338082047406714
 20
-8.103751400479874
 10
5.275466297819497
 20
-7.979269360187294
 10
5.275466297819497
 20
-7.979269360187294
 10
5.290291210494362
 20
-7.973150490412889
 10
5.302200420122365
 20
-7.964464980632479
 10
5.310916729582863
 20
-7.953387362366457
 10
5.325998306258295
 20
-7.934086229521072
 10
5.33364689347627
 20
-7.909425952343099
 10
5.33364689347627
 20
-7.880104656914176
 10
5.33364689347627
 20
-7.856121972697792
 10
5.328575212824337
 20
-7.834870193447841
 10
5.31857558336085
 20
-7.81694477964571
 10
5.308421955496972
 20
-7.798721635602886
 10
5.295034361225538
 20
-7.786021900853029
 10
5.278792663267318
 20
-7.779194638436971
 10
5.26274602994959
 20
-7.772459775061153
 10
5.238516948292676
 20
-7.769184742413446
 10
5.204709166133195
 20
-7.769184742413446
 10
5.204709166133195
 20
-7.769184742413446
 10
5.073379330304507
 20
-7.769184742413446
 10
5.073379330304507
 20
-7.769184742413446
 10
5.073379330304507
 20
-7.769184742413446
 10
5.073379330304507
 20
-7.790149057982716
 10
5.073379330304507
 20
-7.790149057982716
 10
5.073379330304507
 20
-7.790149057982716
 10
5.078635809036868
 20
-7.790149057982716
 10
5.078635809036868
 20
-7.790149057982716
 10
5.093378589231481
 20
-7.790149057982716
 10
5.098994397564688
 20
-7.792551433028393
 10
5.101016909889444
 20
-7.793978484871735
 10
5.104651272137996
 20
-7.796555391437777
 10
5.10712551310381
 20
-7.799912556565686
 10
5.108573098067204
 20
-7.804224511775802
 10
5.109681886549828
 20
-7.807530344103573
 10
5.111006272792918
 20
-7.816708648765168
 10
5.111006272792918
 20
-7.841676922743848
 10
5.111006272792918
 20
-7.841676922743848
 10
5.111006272792918
 20
-8.090281673728238
 10
5.111006272792918
 20
-8.090281673728238
 10
5.111006272792918
 20
-8.11526021426693
 10
5.109692153109841
 20
-8.124346119888311
 10
5.108573098067204
 20
-8.127580086295893
 10
5.10712551310381
 20
-8.131840708705921
 10
5.104661538698008
 20
-8.135218406953855
 10
5.101047709569532
 20
-8.137887712560136
 10
5.099055996924865
 20
-8.13935583064358
 10
5.093491521391771
 20
-8.14180953848937
 10
5.078635809036868
 20
-8.14180953848937
 10
5.078635809036868
 20
-8.14180953848937
 10
5.073379330304507
 20
-8.14180953848937
 10
5.073379330304507
 20
-8.14180953848937
 10
5.073379330304507
 20
-8.14180953848937
 10
5.073379330304507
 20
-8.16277385405864
 10
5.073379330304507
 20
-8.16277385405864
 10
5.073379330304507
 20
-8.16277385405864
 10
5.222778311775678
 20
-8.16277385405864
 10
5.222778311775678
 20
-8.16277385405864
 10
5.222778311775678
 20
-8.16277385405864
 10
5.222778311775678
 20
-8.14180953848937
 10
5.222778311775678
 20
-8.14180953848937
 10
5.222778311775678
 20
-8.14180953848937
 10
5.217521833043317
 20
-8.14180953848937
 10
5.217521833043317
 20
-8.14180953848937
 10
5.202779052848654
 20
-8.14180953848937
 10
5.19717351107546
 20
-8.139407163443694
 10
5.195150998750705
 20
-8.13798011160035
 10
5.19150636994214
 20
-8.135403205034309
 10
5.189032128976324
 20
-8.1320460399064
 10
5.187584544012931
 20
-8.127734084696259
 10
5.186475755530358
 20
-8.124438518928501
 10
5.18516163584723
 20
-8.115280747386981
 10
5.18516163584723
 20
-8.090281673728238
 10
5.18516163584723
 20
-8.090281673728238
 10
5.18516163584723
 20
-7.988191000848246
 10
5.18516163584723
 20
-7.988191000848246
 10
5.18516163584723
 20
-7.988191000848246
 10
5.194463139229102
 20
-7.988191000848246
 10
5.194463139229102
 20
-7.988191000848246
 10
5.194463139229102
 20
-7.988191000848246
 10
5.281913697514684
 20
-8.16277385405864
 10
5.281913697514684
 20
-8.16277385405864
 10
5.281913697514684
 20
-8.16277385405864
 10
5.367177478515107
 20
-8.16277385405864
 10
5.367177478515107
 20
-8.16277385405864
 10
5.367177478515107
 20
-8.16277385405864
 10
5.375873254855529
 20
-8.16277385405864
 10
5.375873254855529
 20
-8.16277385405864
 10
5.375873254855529
 20
-8.16277385405864
 10
5.493907895452998
 20
-8.16277385405864
 10
5.493907895452998
 20
-8.16277385405864
 10
5.512059173575632
 20
-8.16277385405864
 10
5.525087438246272
 20
-8.161603466215865
 10
5.533670282426454
 20
-8.159211357730251
 10
5.552560752870855
 20
-8.15420127643847
 10
5.568843517069126
 20
-8.146953085061442
 10
5.582077112940269
 20
-8.137661848239606
 10
5.595300442251351
 20
-8.128391144537822
 10
5.607106986279076
 20
-8.115948073788558
 10
5.617168215102739
 20
-8.100671432472633
 10
5.627167844566226
 20
-8.085476923636935
 10
5.635411892265639
 20
-8.066052592071274
 10
5.641664227320334
 20
-8.042932298896932
 10
5.647896029254954
 20
-8.019894138202769
 10
5.651058129742422
 20
-7.994392003102827
 10
5.651058129742422
 20
-7.967103486558673
 10
5.651058129742422
 20
-7.927649096385948
 10
5.64463126316731
 20
-7.891716136301485
 10
5.631962328097515
 20
-7.860320995747668
 97
        0
 97
        1
330
92
 75
     2
 76
     1
 98
        1
 10
0.0
 20
0.0
450
        0
451
        0
460
0.0
461
0.0
452
        0
462
0.0
453
        0
470

  0
ENDBLK
  5
7C
330
79
100
AcDbEntity
  8
0
100
AcDbBlockEnd
  0
ENDSEC
  0
SECTION
  2
ENTITIES
  0
INSERT
  5
7A
330
70
100
AcDbEntity
  8
Layer 2
100
AcDbBlockReference
  2
Block_0
 10
0.0
 20
0.0
 30
0.0
  0
LWPOLYLINE
  5
95
330
70
100
AcDbEntity
  8
Whitebeard
 62
   250
420
  2301728
370
    35
100
AcDbPolyline
 90
        4
 70
     1
 43
0.0
 10
5.729556344379312
 20
-8.466400227197027
 10
2.713261349024327
 20
-8.466400227197027
 10
2.713261349024327
 20
-7.466400227197027
 10
5.729556344379312
 20
-7.466400227197027
  0
LWPOLYLINE
  5
96
330
70
100
AcDbEntity
  8
Whitebeard
 62
   250
420
  2301728
370
    35
100
AcDbPolyline
 90
        4
 70
     1
 43
0.0
 10
5.83613920640596
 20
-8.566400227197037
 10
2.606678486997667
 20
-8.566400227197037
 10
2.606678486997667
 20
-7.366400227197067
 10
5.83613920640596
 20
-7.366400227197067
  0
ENDSEC
  0
SECTION
  2
OBJECTS
  0
DICTIONARY
  5
C
330
0
100
AcDbDictionary
281
     1
  3
ACAD_COLOR
350
63
  3
ACAD_DETAILVIEWSTYLE
350
6A
  3
ACAD_GROUP
350
D
  3
ACAD_LAYOUT
350
62
  3
ACAD_MATERIAL
350
10
  3
ACAD_MLEADERSTYLE
350
66
  3
ACAD_MLINESTYLE
350
5F
  3
ACAD_PLOTSETTINGS
350
61
  3
ACAD_PLOTSTYLENAME
350
E
  3
ACAD_SCALELIST
350
42
  3
ACAD_SECTIONVIEWSTYLE
350
68
  3
ACAD_TABLESTYLE
350
64
  3
ACAD_VISUALSTYLE
350
29
  3
ACDB_RECOMPOSE_DATA
350
9F
  3
AcDbVariableDictionary
350
97
  0
DICTIONARY
  5
63
102
{ACAD_REACTORS
330
C
102
}
330
C
100
AcDbDictionary
281
     1
  0
DICTIONARY
  5
6A
102
{ACAD_REACTORS
330
C
102
}
330
C
100
AcDbDictionary
281
     1
  3
Imperial24
350
6B
  0
DICTIONARY
  5
D
102
{ACAD_REACTORS
330
C
102
}
330
C
100
AcDbDictionary
281
     1
  0
DICTIONARY
  5
62
102
{ACAD_REACTORS
330
C
102
}
330
C
100
AcDbDictionary
281
     1
  3
Layout1
350
6F
  3
Layout2
350
77
  3
Model
350
73
  0
DICTIONARY
  5
10
102
{ACAD_REACTORS
330
C
102
}
330
C
100
AcDbDictionary
281
     1
  3
ByBlock
350
19
  3
ByLayer
350
11
  3
Global
350
21
  0
DICTIONARY
  5
66
102
{ACAD_REACTORS
330
C
102
}
330
C
100
AcDbDictionary
281
     1
  3
Standard
350
67
  0
DICTIONARY
  5
5F
102
{ACAD_REACTORS
330
C
102
}
330
C
100
AcDbDictionary
281
     1
  3
Standard
350
60
  0
DICTIONARY
  5
61
102
{ACAD_REACTORS
330
C
102
}
330
C
100
AcDbDictionary
281
     1
  0
ACDBDICTIONARYWDFLT
  5
E
102
{ACAD_REACTORS
330
C
102
}
330
C
100
AcDbDictionary
281
     1
  3
Normal
350
F
100
AcDbDictionaryWithDefault
340
F
  0
DICTIONARY
  5
42
102
{ACAD_REACTORS
330
C
102
}
330
C
100
AcDbDictionary
281
     1
  3
A0
350
43
  3
A1
350
44
  3
A2
350
45
  3
A3
350
46
  3
A4
350
47
  3
A5
350
48
  3
A6
350
49
  3
A7
350
4A
  3
A8
350
4B
  3
A9
350
4C
  3
B0
350
4D
  3
B1
350
4E
  3
B2
350
4F
  3
B3
350
50
  3
B4
350
51
  3
B5
350
52
  3
B6
350
53
  0
DICTIONARY
  5
68
102
{ACAD_REACTORS
330
C
102
}
330
C
100
AcDbDictionary
281
     1
  3
Imperial24
350
69
  0
DICTIONARY
  5
64
102
{ACAD_REACTORS
330
C
102
}
330
C
100
AcDbDictionary
281
     1
  3
Standard
350
65
  0
DICTIONARY
  5
29
102
{ACAD_REACTORS
330
C
102
}
330
C
100
AcDbDictionary
281
     1
  3
2dWireframe
350
2F
  3
Basic
350
2E
  3
Brighten
350
35
  3
ColorChange
350
39
  3
Conceptual
350
32
  3
Dim
350
34
  3
EdgeColorOff
350
41
  3
Facepattern
350
38
  3
Flat
350
2A
  3
FlatWithEdges
350
2B
  3
Gouraud
350
2C
  3
GouraudWithEdges
350
2D
  3
Hidden
350
31
  3
JitterOff
350
3F
  3
Linepattern
350
37
  3
OverhangOff
350
40
  3
Realistic
350
33
  3
Shaded
350
3E
  3
Shaded with edges
350
3D
  3
Shades of Gray
350
3A
  3
Sketchy
350
3B
  3
Thicken
350
36
  3
Wireframe
350
30
  3
X-Ray
350
3C
  0
XRECORD
  5
9F
102
{ACAD_REACTORS
330
C
102
}
330
C
100
AcDbXrecord
280
     1
 90
        1
330
65
  0
DICTIONARY
  5
97
102
{ACAD_REACTORS
330
C
102
}
330
C
100
AcDbDictionary
281
     1
  3
CANNOSCALE
350
9C
  3
CMLEADERSTYLE
350
99
  3
CTABLESTYLE
350
98
  3
CVIEWDETAILSTYLE
350
9A
  3
CVIEWSECTIONSTYLE
350
9B
  0
ACDBDETAILVIEWSTYLE
  5
6B
102
{ACAD_REACTORS
330
6A
102
}
330
6A
100
AcDbModelDocViewStyle
 70
     0
  3
Imperial24
290
     1
300
Imperial24
 90
        0
100
AcDbDetailViewStyle
 70
     0
 71
     0
 90
        3
 71
     1
340
55
 62
   256
 40
0.24
340
0
 62
   256
 40
0.24
300

 40
0.36
280
     3
 71
     2
340
5D
 90
       25
 62
   256
 71
     3
340
55
 62
   256
 40
0.24
 90
        1
 40
0.75
 90
        1
300
%<\AcVar ViewType \f "%tc1">% %<\AcVar ViewDetailId>%\PSCALE %<\AcVar ViewScale \f "%sn">%
 71
     4
340
5D
 90
       25
 62
   256
340
5D
 90
       25
 62
   256
280
     0
  0
LAYOUT
  5
6F
102
{ACAD_REACTORS
330
62
102
}
330
62
100
AcDbPlotSettings
  1

  2

  4

  6

 40
0.0
 41
0.0
 42
0.0
 43
0.0
 44
0.0
 45
0.0
 46
0.0
 47
0.0
 48
0.0
 49
0.0
140
0.0
141
0.0
142
1.0
143
1.0
 70
   688
 72
     0
 73
     0
 74
     5
  7

 75
    16
147
1.0
 76
     0
 77
     2
 78
   300
148
0.0
149
0.0
100
AcDbLayout
  1
Layout1
 70
     1
 71
     1
 10
0.0
 20
0.0
 11
12.0
 21
9.0
 12
0.0
 22
0.0
 32
0.0
 14
0.0
 24
0.0
 34
0.0
 15
0.0
 25
0.0
 35
0.0
146
0.0
 13
0.0
 23
0.0
 33
0.0
 16
1.0
 26
0.0
 36
0.0
 17
0.0
 27
1.0
 37
0.0
 76
     0
330
6C
  0
LAYOUT
  5
77
102
{ACAD_REACTORS
330
62
102
}
330
62
100
AcDbPlotSettings
  1

  2

  4

  6

 40
0.0
 41
0.0
 42
0.0
 43
0.0
 44
0.0
 45
0.0
 46
0.0
 47
0.0
 48
0.0
 49
0.0
140
0.0
141
0.0
142
1.0
143
1.0
 70
   688
 72
     0
 73
     0
 74
     5
  7

 75
    16
147
1.0
 76
     0
 77
     2
 78
   300
148
0.0
149
0.0
100
AcDbLayout
  1
Layout2
 70
     1
 71
     2
 10
0.0
 20
0.0
 11
12.0
 21
9.0
 12
0.0
 22
0.0
 32
0.0
 14
0.0
 24
0.0
 34
0.0
 15
0.0
 25
0.0
 35
0.0
146
0.0
 13
0.0
 23
0.0
 33
0.0
 16
1.0
 26
0.0
 36
0.0
 17
0.0
 27
1.0
 37
0.0
 76
     0
330
74
  0
LAYOUT
  5
73
102
{ACAD_REACTORS
330
62
102
}
330
62
100
AcDbPlotSettings
  1

  2

  4

  6

 40
0.0
 41
0.0
 42
0.0
 43
0.0
 44
0.0
 45
0.0
 46
0.0
 47
0.0
 48
0.0
 49
0.0
140
0.0
141
0.0
142
1.0
143
1.0
 70
  1712
 72
     0
 73
     0
 74
     0
  7

 75
     0
147
1.0
 76
     0
 77
     2
 78
   300
148
0.0
149
0.0
100
AcDbLayout
  1
Model
 70
     1
 71
     0
 10
0.0
 20
0.0
 11
12.0
 21
9.0
 12
0.0
 22
0.0
 32
0.0
 14
0.0
 24
0.0
 34
0.0
 15
0.0
 25
0.0
 35
0.0
146
0.0
 13
0.0
 23
0.0
 33
0.0
 16
1.0
 26
0.0
 36
0.0
 17
0.0
 27
1.0
 37
0.0
 76
     0
330
70
  0
MATERIAL
  5
19
102
{ACAD_XDICTIONARY
360
1A
102
}
102
{ACAD_REACTORS
330
10
102
}
330
10
100
AcDbMaterial
  1
ByBlock
 72
     0
 43
0.0208333333333333
 43
0.0
 43
0.0
 43
0.0
 43
0.0
 43
0.0208333333333333
 43
0.0
 43
0.0
 43
0.0
 43
0.0
 43
1.0
 43
0.0
 43
0.0
 43
0.0
 43
0.0
 43
1.0
 77
     0
 47
0.0208333333333333
 47
0.0
 47
0.0
 47
0.0
 47
0.0
 47
0.0208333333333333
 47
0.0
 47
0.0
 47
0.0
 47
0.0
 47
1.0
 47
0.0
 47
0.0
 47
0.0
 47
0.0
 47
1.0
171
     0
 49
0.0208333333333333
 49
0.0
 49
0.0
 49
0.0
 49
0.0
 49
0.0208333333333333
 49
0.0
 49
0.0
 49
0.0
 49
0.0
 49
1.0
 49
0.0
 49
0.0
 49
0.0
 49
0.0
 49
1.0
175
     0
142
0.0208333333333333
142
0.0
142
0.0
142
0.0
142
0.0
142
0.0208333333333333
142
0.0
142
0.0
142
0.0
142
0.0
142
1.0
142
0.0
142
0.0
142
0.0
142
0.0
142
1.0
179
     0
144
0.0208333333333333
144
0.0
144
0.0
144
0.0
144
0.0
144
0.0208333333333333
144
0.0
144
0.0
144
0.0
144
0.0
144
1.0
144
0.0
144
0.0
144
0.0
144
0.0
144
1.0
147
0.0208333333333333
147
0.0
147
0.0
147
0.0
147
0.0
147
0.0208333333333333
147
0.0
147
0.0
147
0.0
147
0.0
147
1.0
147
0.0
147
0.0
147
0.0
147
0.0
147
1.0
  0
MATERIAL
  5
11
102
{ACAD_XDICTIONARY
360
12
102
}
102
{ACAD_REACTORS
330
10
102
}
330
10
100
AcDbMaterial
  1
ByLayer
 72
     0
 43
0.0208333333333333
 43
0.0
 43
0.0
 43
0.0
 43
0.0
 43
0.0208333333333333
 43
0.0
 43
0.0
 43
0.0
 43
0.0
 43
1.0
 43
0.0
 43
0.0
 43
0.0
 43
0.0
 43
1.0
 77
     0
 47
0.0208333333333333
 47
0.0
 47
0.0
 47
0.0
 47
0.0
 47
0.0208333333333333
 47
0.0
 47
0.0
 47
0.0
 47
0.0
 47
1.0
 47
0.0
 47
0.0
 47
0.0
 47
0.0
 47
1.0
171
     0
 49
0.0208333333333333
 49
0.0
 49
0.0
 49
0.0
 49
0.0
 49
0.0208333333333333
 49
0.0
 49
0.0
 49
0.0
 49
0.0
 49
1.0
 49
0.0
 49
0.0
 49
0.0
 49
0.0
 49
1.0
175
     0
142
0.0208333333333333
142
0.0
142
0.0
142
0.0
142
0.0
142
0.0208333333333333
142
0.0
142
0.0
142
0.0
142
0.0
142
1.0
142
0.0
142
0.0
142
0.0
142
0.0
142
1.0
179
     0
144
0.0208333333333333
144
0.0
144
0.0
144
0.0
144
0.0
144
0.0208333333333333
144
0.0
144
0.0
144
0.0
144
0.0
144
1.0
144
0.0
144
0.0
144
0.0
144
0.0
144
1.0
147
0.0208333333333333
147
0.0
147
0.0
147
0.0
147
0.0
147
0.0208333333333333
147
0.0
147
0.0
147
0.0
147
0.0
147
1.0
147
0.0
147
0.0
147
0.0
147
0.0
147
1.0
  0
MATERIAL
  5
21
102
{ACAD_XDICTIONARY
360
22
102
}
102
{ACAD_REACTORS
330
10
102
}
330
10
100
AcDbMaterial
  1
Global
 72
     0
 43
0.0208333333333333
 43
0.0
 43
0.0
 43
0.0
 43
0.0
 43
0.0208333333333333
 43
0.0
 43
0.0
 43
0.0
 43
0.0
 43
1.0
 43
0.0
 43
0.0
 43
0.0
 43
0.0
 43
1.0
 77
     0
 47
0.0208333333333333
 47
0.0
 47
0.0
 47
0.0
 47
0.0
 47
0.0208333333333333
 47
0.0
 47
0.0
 47
0.0
 47
0.0
 47
1.0
 47
0.0
 47
0.0
 47
0.0
 47
0.0
 47
1.0
171
     0
 49
0.0208333333333333
 49
0.0
 49
0.0
 49
0.0
 49
0.0
 49
0.0208333333333333
 49
0.0
 49
0.0
 49
0.0
 49
0.0
 49
1.0
 49
0.0
 49
0.0
 49
0.0
 49
0.0
 49
1.0
175
     0
142
0.0208333333333333
142
0.0
142
0.0
142
0.0
142
0.0
142
0.0208333333333333
142
0.0
142
0.0
142
0.0
142
0.0
142
1.0
142
0.0
142
0.0
142
0.0
142
0.0
142
1.0
179
     0
144
0.0208333333333333
144
0.0
144
0.0
144
0.0
144
0.0
144
0.0208333333333333
144
0.0
144
0.0
144
0.0
144
0.0
144
1.0
144
0.0
144
0.0
144
0.0
144
0.0
144
1.0
147
0.0208333333333333
147
0.0
147
0.0
147
0.0
147
0.0
147
0.0208333333333333
147
0.0
147
0.0
147
0.0
147
0.0
147
1.0
147
0.0
147
0.0
147
0.0
147
0.0
147
1.0
  0
MLEADERSTYLE
  5
67
102
{ACAD_REACTORS
330
66
102
}
330
66
100
AcDbMLeaderStyle
179
     2
170
     2
171
     1
172
     0
 90
        2
 40
0.0
 41
0.0
173
     1
 91
-1056964608
340
5B
 92
       -2
290
     1
 42
0.09
291
     1
 43
0.36
  3
Standard
 44
0.18
300

342
55
174
     1
178
     6
175
     1
176
     0
 93
-1056964608
 45
0.18
292
     0
297
     0
 46
0.18
 94
-1056964608
 47
1.0
 49
1.0
140
1.0
293
     1
141
0.0
294
     1
177
     0
142
1.0
295
     1
296
     0
143
0.125
271
     0
272
     9
273
     9
298
     1
  0
MLINESTYLE
  5
60
102
{ACAD_REACTORS
330
5F
102
}
330
5F
100
AcDbMlineStyle
  2
STANDARD
 70
     0
  3

 62
   256
 51
90.0
 52
90.0
 71
     2
 49
0.5
 62
   256
  6
BYLAYER
 49
-0.5
 62
   256
  6
BYLAYER
  0
ACDBPLACEHOLDER
  5
F
102
{ACAD_REACTORS
330
E
102
}
330
E
  0
SCALE
  5
43
102
{ACAD_REACTORS
330
42
102
}
330
42
100
AcDbScale
 70
     0
300
1:1
140
1.0
141
1.0
290
     1
  0
SCALE
  5
44
102
{ACAD_REACTORS
330
42
102
}
330
42
100
AcDbScale
 70
     0
300
1/128" = 1'-0"
140
0.0078125
141
12.0
290
     0
  0
SCALE
  5
45
102
{ACAD_REACTORS
330
42
102
}
330
42
100
AcDbScale
 70
     0
300
1/64" = 1'-0"
140
0.015625
141
12.0
290
     0
  0
SCALE
  5
46
102
{ACAD_REACTORS
330
42
102
}
330
42
100
AcDbScale
 70
     0
300
1/32" = 1'-0"
140
0.03125
141
12.0
290
     0
  0
SCALE
  5
47
102
{ACAD_REACTORS
330
42
102
}
330
42
100
AcDbScale
 70
     0
300
1/16" = 1'-0"
140
0.0625
141
12.0
290
     0
  0
SCALE
  5
48
102
{ACAD_REACTORS
330
42
102
}
330
42
100
AcDbScale
 70
     0
300
3/32" = 1'-0"
140
0.09375
141
12.0
290
     0
  0
SCALE
  5
49
102
{ACAD_REACTORS
330
42
102
}
330
42
100
AcDbScale
 70
     0
300
1/8" = 1'-0"
140
0.125
141
12.0
290
     0
  0
SCALE
  5
4A
102
{ACAD_REACTORS
330
42
102
}
330
42
100
AcDbScale
 70
     0
300
3/16" = 1'-0"
140
0.1875
141
12.0
290
     0
  0
SCALE
  5
4B
102
{ACAD_REACTORS
330
42
102
}
330
42
100
AcDbScale
 70
     0
300
1/4" = 1'-0"
140
0.25
141
12.0
290
     0
  0
SCALE
  5
4C
102
{ACAD_REACTORS
330
42
102
}
330
42
100
AcDbScale
 70
     0
300
3/8" = 1'-0"
140
0.375
141
12.0
290
     0
  0
SCALE
  5
4D
102
{ACAD_REACTORS
330
42
102
}
330
42
100
AcDbScale
 70
     0
300
1/2" = 1'-0"
140
0.5
141
12.0
290
     0
  0
SCALE
  5
4E
102
{ACAD_REACTORS
330
42
102
}
330
42
100
AcDbScale
 70
     0
300
3/4" = 1'-0"
140
0.75
141
12.0
290
     0
  0
SCALE
  5
4F
102
{ACAD_REACTORS
330
42
102
}
330
42
100
AcDbScale
 70
     0
300
1" = 1'-0"
140
1.0
141
12.0
290
     0
  0
SCALE
  5
50
102
{ACAD_REACTORS
330
42
102
}
330
42
100
AcDbScale
 70
     0
300
1-1/2" = 1'-0"
140
1.5
141
12.0
290
     0
  0
SCALE
  5
51
102
{ACAD_REACTORS
330
42
102
}
330
42
100
AcDbScale
 70
     0
300
3" = 1'-0"
140
3.0
141
12.0
290
     0
  0
SCALE
  5
52
102
{ACAD_REACTORS
330
42
102
}
330
42
100
AcDbScale
 70
     0
300
6" = 1'-0"
140
6.0
141
12.0
290
     0
  0
SCALE
  5
53
102
{ACAD_REACTORS
330
42
102
}
330
42
100
AcDbScale
 70
     0
300
1'-0" = 1'-0"
140
12.0
141
12.0
290
     0
  0
ACDBSECTIONVIEWSTYLE
  5
69
102
{ACAD_REACTORS
330
68
102
}
330
68
100
AcDbModelDocViewStyle
 70
     0
  3
Imperial24
290
     1
300
Imperial24
 90
        0
100
AcDbSectionViewStyle
 70
     0
 71
     0
 90
       78
 71
     1
340
55
 62
   256
 40
0.24
340
0
340
0
 62
   256
 40
0.24
300
I, O, Q, S, X, Z
 40
0.48
 90
        3
 40
0.18
 90
        1
 71
     2
340
5D
 90
       25
 62
   256
340
5D
 90
       50
 62
   256
 40
0.24
 40
0.0
 40
0.24
 71
     3
340
55
 62
   256
 40
0.24
 90
        1
 40
0.75
 90
        1
300
%<\AcVar ViewType \f "%tc1">% %<\AcVar ViewSectionStartId>%-%<\AcVar ViewSectionEndId>%\PSCALE %<\AcVar ViewScale \f "%sn">%
 71
     4
 62
   256
 62
   257
300
ANSI31
 40
1.0
 90
        0
290
     0
290
     0
 90
        6
 40
0.0
 40
1.570796326794896
 40
0.2617993877991494
 40
1.308996938995747
 40
-0.2617993877991494
 40
1.832595714594046
  0
TABLESTYLE
  5
65
102
{ACAD_XDICTIONARY
360
9D
102
}
102
{ACAD_REACTORS
330
64
102
}
330
64
100
AcDbTableStyle
280
     0
  3
Standard
 70
     0
 71
     0
 40
0.06
 41
0.06
280
     0
281
     0
  7
Standard
140
0.18
170
     2
 62
     0
 63
     7
283
     0
 90
      512
 91
        0
  1

274
    -2
284
     1
 64
     0
275
    -2
285
     1
 65
     0
276
    -2
286
     1
 66
     0
277
    -2
287
     1
 67
     0
278
    -2
288
     1
 68
     0
279
    -2
289
     1
 69
     0
  7
Standard
140
0.25
170
     5
 62
     0
 63
     7
283
     0
 90
      512
 91
        0
  1

274
    -2
284
     1
 64
     0
275
    -2
285
     1
 65
     0
276
    -2
286
     1
 66
     0
277
    -2
287
     1
 67
     0
278
    -2
288
     1
 68
     0
279
    -2
289
     1
 69
     0
  7
Standard
140
0.18
170
     5
 62
     0
 63
     7
283
     0
 90
      512
 91
        0
  1

274
    -2
284
     1
 64
     0
275
    -2
285
     1
 65
     0
276
    -2
286
     1
 66
     0
277
    -2
287
     1
 67
     0
278
    -2
288
     1
 68
     0
279
    -2
289
     1
 69
     0
  0
VISUALSTYLE
  5
2F
102
{ACAD_REACTORS
330
29
102
}
330
29
100
AcDbVisualStyle
  2
2dWireframe
 70
     4
177
     3
291
     0
 70
    58
 90
        0
176
     1
 90
        2
176
     1
 90
        0
176
     1
 90
        0
176
     1
 40
0.6
176
     1
 40
30.0
176
     1
 62
     7
420
 16777215
176
     1
 90
        1
176
     1
 90
        4
176
     1
 62
     7
176
     1
 62
   257
176
     1
 90
        1
176
     1
 90
        1
176
     1
 40
1.0
176
     1
 90
        0
176
     1
 62
   257
176
     1
 40
1.0
176
     1
 90
        1
176
     1
 90
        6
176
     1
 90
        2
176
     1
 62
     7
176
     1
 90
        5
176
     1
 90
        0
176
     1
 90
        0
176
     1
290
     0
176
     1
 90
        1
176
     1
 40
0.0
176
     1
 90
        0
176
     1
290
     1
176
     1
290
     1
176
     1
290
     0
176
     1
290
     0
176
     1
290
     0
176
     1
290
     0
176
     1
290
     0
176
     1
290
     0
176
     1
290
     0
176
     1
 90
       50
176
     1
 40
0.0
176
     1
 40
1.0
176
     1
 90
        0
176
     1
 62
    18
420
        0
176
     1
 90
       50
176
     1
 90
        3
176
     1
 62
     5
420
      255
176
     1
290
     0
176
     1
 90
       50
176
     1
 90
       50
176
     1
 90
       50
176
     1
290
     0
176
     1
 90
       50
176
     1
 62
   256
176
     0
 40
1.0
176
     0
 90
        2
176
     1
  1
strokes_ogs.tif
176
     1
290
     0
176
     1
 40
1.0
176
     1
 40
1.0
176
     1
  0
VISUALSTYLE
  5
2E
102
{ACAD_REACTORS
330
29
102
}
330
29
100
AcDbVisualStyle
  2
Basic
 70
     7
177
     3
291
     1
 70
    58
 90
        1
176
     1
 90
        0
176
     1
 90
        1
176
     1
 90
        0
176
     1
 40
0.6
176
     1
 40
30.0
176
     1
 62
     7
420
 16777215
176
     1
 90
        0
176
     1
 90
        4
176
     1
 62
     7
176
     1
 62
   257
176
     1
 90
        1
176
     1
 90
        1
176
     1
 40
1.0
176
     1
 90
        8
176
     1
 62
     7
176
     1
 40
1.0
176
     1
 90
        1
176
     1
 90
        6
176
     1
 90
        2
176
     1
 62
     7
176
     1
 90
        5
176
     1
 90
        0
176
     1
 90
        0
176
     1
290
     0
176
     1
 90
        1
176
     1
 40
0.0
176
     1
 90
        0
176
     1
290
     0
176
     1
290
     1
176
     1
290
     1
176
     1
290
     0
176
     1
290
     0
176
     1
290
     0
176
     1
290
     0
176
     1
290
     0
176
     1
290
     0
176
     1
 90
       50
176
     1
 40
0.0
176
     1
 40
1.0
176
     1
 90
        0
176
     1
 62
    18
420
        0
176
     1
 90
       50
176
     1
 90
        3
176
     1
 62
     5
420
      255
176
     1
290
     0
176
     1
 90
       50
176
     1
 90
       50
176
     1
 90
       50
176
     1
290
     0
176
     1
 90
       50
176
     1
 62
   256
176
     0
 40
1.0
176
     0
 90
        2
176
     1
  1
strokes_ogs.tif
176
     1
290
     0
176
     1
 40
1.0
176
     1
 40
1.0
176
     1
  0
VISUALSTYLE
  5
35
102
{ACAD_REACTORS
330
29
102
}
330
29
100
AcDbVisualStyle
  2
Brighten
 70
    12
177
     3
291
     1
 70
    58
 90
        2
176
     1
 90
        2
176
     1
 90
        0
176
     1
 90
        0
176
     1
 40
0.6
176
     1
 40
30.0
176
     1
 62
     7
420
 16777215
176
     1
 90
        1
176
     1
 90
        4
176
     1
 62
     7
176
     1
 62
   257
176
     1
 90
        1
176
     1
 90
        1
176
     1
 40
1.0
176
     1
 90
        8
176
     1
 62
     7
176
     1
 40
1.0
176
     1
 90
        1
176
     1
 90
        6
176
     1
 90
        2
176
     1
 62
     7
176
     1
 90
        5
176
     1
 90
        0
176
     1
 90
        0
176
     1
290
     0
176
     1
 90
        1
176
     1
 40
50.0
176
     1
 90
        0
176
     1
290
     0
176
     1
290
     1
176
     1
290
     1
176
     1
290
     0
176
     1
290
     0
176
     1
290
     0
176
     1
290
     0
176
     1
290
     0
176
     1
290
     0
176
     1
 90
       50
176
     1
 40
0.0
176
     1
 40
1.0
176
     1
 90
        0
176
     1
 62
    18
420
        0
176
     1
 90
       50
176
     1
 90
        3
176
     1
 62
     5
420
      255
176
     1
290
     0
176
     1
 90
       50
176
     1
 90
       50
176
     1
 90
       50
176
     1
290
     0
176
     1
 90
       50
176
     1
 62
   256
176
     0
 40
1.0
176
     0
 90
        2
176
     1
  1
strokes_ogs.tif
176
     1
290
     0
176
     1
 40
1.0
176
     1
 40
1.0
176
     1
  0
VISUALSTYLE
  5
39
102
{ACAD_REACTORS
330
29
102
}
330
29
100
AcDbVisualStyle
  2
ColorChange
 70
    16
177
     3
291
     1
 70
    58
 90
        2
176
     1
 90
        2
176
     1
 90
        3
176
     1
 90
        0
176
     1
 40
0.6
176
     1
 40
30.0
176
     1
 62
     8
420
  8421504
176
     1
 90
        1
176
     1
 90
        4
176
     1
 62
     7
176
     1
 62
   257
176
     1
 90
        1
176
     1
 90
        1
176
     1
 40
1.0
176
     1
 90
        8
176
     1
 62
     8
420
  8421504
176
     1
 40
1.0
176
     1
 90
        1
176
     1
 90
        6
176
     1
 90
        2
176
     1
 62
     7
176
     1
 90
        5
176
     1
 90
        0
176
     1
 90
        0
176
     1
290
     0
176
     1
 90
        1
176
     1
 40
0.0
176
     1
 90
        0
176
     1
290
     0
176
     1
290
     1
176
     1
290
     1
176
     1
290
     0
176
     1
290
     0
176
     1
290
     0
176
     1
290
     0
176
     1
290
     0
176
     1
290
     0
176
     1
 90
       50
176
     1
 40
0.0
176
     1
 40
1.0
176
     1
 90
        0
176
     1
 62
    18
420
        0
176
     1
 90
       50
176
     1
 90
        3
176
     1
 62
     5
420
      255
176
     1
290
     0
176
     1
 90
       50
176
     1
 90
       50
176
     1
 90
       50
176
     1
290
     0
176
     1
 90
       50
176
     1
 62
   256
176
     0
 40
1.0
176
     0
 90
        2
176
     1
  1
strokes_ogs.tif
176
     1
290
     0
176
     1
 40
1.0
176
     1
 40
1.0
176
     1
  0
VISUALSTYLE
  5
32
102
{ACAD_REACTORS
330
29
102
}
330
29
100
AcDbVisualStyle
  2
Conceptual
 70
     9
177
     3
291
     0
 70
    58
 90
        3
176
     1
 90
        2
176
     1
 90
        0
176
     1
 90
        0
176
     1
 40
0.6
176
     1
 40
30.0
176
     1
 62
     7
420
 16777215
176
     1
 90
        2
176
     1
 90
        2
176
     1
 62
     7
176
     1
 62
   257
176
     1
 90
        1
176
     1
 90
        1
176
     1
 40
179.0
176
     1
 90
        8
176
     1
 62
     7
176
     1
 40
1.0
176
     1
 90
        1
176
     1
 90
        6
176
     1
 90
        2
176
     1
 62
     7
176
     1
 90
        3
176
     1
 90
        0
176
     1
 90
        0
176
     1
290
     0
176
     1
 90
        1
176
     1
 40
0.0
176
     1
 90
        0
176
     1
290
     0
176
     1
290
     1
176
     1
290
     1
176
     1
290
     0
176
     1
290
     0
176
     1
290
     0
176
     1
290
     0
176
     1
290
     0
176
     1
290
     0
176
     1
 90
       50
176
     1
 40
0.0
176
     1
 40
1.0
176
     1
 90
        0
176
     1
 62
    18
420
        0
176
     1
 90
       50
176
     1
 90
        3
176
     1
 62
     5
420
      255
176
     1
290
     0
176
     1
 90
       50
176
     1
 90
       50
176
     1
 90
       50
176
     1
290
     0
176
     1
 90
       50
176
     1
 62
   256
176
     0
 40
1.0
176
     0
 90
        2
176
     1
  1
strokes_ogs.tif
176
     1
290
     0
176
     1
 40
1.0
176
     1
 40
1.0
176
     1
  0
VISUALSTYLE
  5
34
102
{ACAD_REACTORS
330
29
102
}
330
29
100
AcDbVisualStyle
  2
Dim
 70
    11
177
     3
291
     1
 70
    58
 90
        2
176
     1
 90
        2
176
     1
 90
        0
176
     1
 90
        0
176
     1
 40
0.6
176
     1
 40
30.0
176
     1
 62
     7
420
 16777215
176
     1
 90
        1
176
     1
 90
        4
176
     1
 62
     7
176
     1
 62
   257
176
     1
 90
        1
176
     1
 90
        1
176
     1
 40
1.0
176
     1
 90
        8
176
     1
 62
     7
176
     1
 40
1.0
176
     1
 90
        1
176
     1
 90
        6
176
     1
 90
        2
176
     1
 62
     7
176
     1
 90
        5
176
     1
 90
        0
176
     1
 90
        0
176
     1
290
     0
176
     1
 90
        1
176
     1
 40
-50.0
176
     1
 90
        0
176
     1
290
     0
176
     1
290
     1
176
     1
290
     1
176
     1
290
     0
176
     1
290
     0
176
     1
290
     0
176
     1
290
     0
176
     1
290
     0
176
     1
290
     0
176
     1
 90
       50
176
     1
 40
0.0
176
     1
 40
1.0
176
     1
 90
        0
176
     1
 62
    18
420
        0
176
     1
 90
       50
176
     1
 90
        3
176
     1
 62
     5
420
      255
176
     1
290
     0
176
     1
 90
       50
176
     1
 90
       50
176
     1
 90
       50
176
     1
290
     0
176
     1
 90
       50
176
     1
 62
   256
176
     0
 40
1.0
176
     0
 90
        2
176
     1
  1
strokes_ogs.tif
176
     1
290
     0
176
     1
 40
1.0
176
     1
 40
1.0
176
     1
  0
VISUALSTYLE
  5
41
102
{ACAD_REACTORS
330
29
102
}
330
29
100
AcDbVisualStyle
  2
EdgeColorOff
 70
    22
177
     3
291
     1
 70
    58
 90
        2
176
     0
 90
        2
176
     0
 90
        0
176
     0
 90
        0
176
     0
 40
0.6
176
     0
 40
30.0
176
     0
 62
     7
420
 16777215
176
     0
 90
        1
176
     0
 90
        4
176
     0
 62
     7
176
     0
 62
   257
176
     0
 90
        1
176
     0
 90
        1
176
     0
 40
1.0
176
     0
 90
        8
176
     2
 62
     7
176
     0
 40
1.0
176
     0
 90
        1
176
     0
 90
        6
176
     0
 90
        2
176
     0
 62
     7
176
     0
 90
        5
176
     0
 90
        0
176
     0
 90
        0
176
     0
290
     0
176
     0
 90
        1
176
     0
 40
0.0
176
     0
 90
        0
176
     0
290
     0
176
     0
290
     1
176
     0
290
     1
176
     0
290
     0
176
     0
290
     0
176
     0
290
     0
176
     0
290
     0
176
     0
290
     0
176
     0
290
     0
176
     0
 90
       50
176
     0
 40
0.0
176
     0
 40
1.0
176
     0
 90
        0
176
     0
 62
    18
420
        0
176
     0
 90
       50
176
     0
 90
        3
176
     0
 62
     5
420
      255
176
     0
290
     0
176
     0
 90
       50
176
     0
 90
       50
176
     0
 90
       50
176
     0
290
     0
176
     0
 90
       50
176
     0
 62
   256
176
     0
 40
1.0
176
     0
 90
        2
176
     0
  1
strokes_ogs.tif
176
     0
290
     0
176
     0
 40
1.0
176
     0
 40
1.0
176
     0
  0
VISUALSTYLE
  5
38
102
{ACAD_REACTORS
330
29
102
}
330
29
100
AcDbVisualStyle
  2
Facepattern
 70
    15
177
     3
291
     1
 70
    58
 90
        2
176
     1
 90
        2
176
     1
 90
        0
176
     1
 90
        0
176
     1
 40
0.6
176
     1
 40
30.0
176
     1
 62
     7
420
 16777215
176
     1
 90
        1
176
     1
 90
        4
176
     1
 62
     7
176
     1
 62
   257
176
     1
 90
        1
176
     1
 90
        1
176
     1
 40
1.0
176
     1
 90
        8
176
     1
 62
     7
176
     1
 40
1.0
176
     1
 90
        1
176
     1
 90
        6
176
     1
 90
        2
176
     1
 62
     7
176
     1
 90
        5
176
     1
 90
        0
176
     1
 90
        0
176
     1
290
     0
176
     1
 90
        1
176
     1
 40
0.0
176
     1
 90
        0
176
     1
290
     0
176
     1
290
     1
176
     1
290
     1
176
     1
290
     0
176
     1
290
     0
176
     1
290
     0
176
     1
290
     0
176
     1
290
     0
176
     1
290
     0
176
     1
 90
       50
176
     1
 40
0.0
176
     1
 40
1.0
176
     1
 90
        0
176
     1
 62
    18
420
        0
176
     1
 90
       50
176
     1
 90
        3
176
     1
 62
     5
420
      255
176
     1
290
     0
176
     1
 90
       50
176
     1
 90
       50
176
     1
 90
       50
176
     1
290
     0
176
     1
 90
       50
176
     1
 62
   256
176
     0
 40
1.0
176
     0
 90
        2
176
     1
  1
strokes_ogs.tif
176
     1
290
     0
176
     1
 40
1.0
176
     1
 40
1.0
176
     1
  0
VISUALSTYLE
  5
2A
102
{ACAD_REACTORS
330
29
102
}
330
29
100
AcDbVisualStyle
  2
Flat
 70
     0
177
     3
291
     1
 70
    58
 90
        2
176
     1
 90
        1
176
     1
 90
        1
176
     1
 90
        2
176
     1
 40
0.6
176
     1
 40
30.0
176
     1
 62
     7
420
 16777215
176
     1
 90
        0
176
     1
 90
        0
176
     1
 62
     7
176
     1
 62
   257
176
     1
 90
        1
176
     1
 90
        1
176
     1
 40
1.0
176
     1
 90
        8
176
     1
 62
     7
176
     1
 40
1.0
176
     1
 90
        1
176
     1
 90
        6
176
     1
 90
        2
176
     1
 62
     7
176
     1
 90
        5
176
     1
 90
        0
176
     1
 90
        0
176
     1
290
     0
176
     1
 90
       13
176
     1
 40
0.0
176
     1
 90
        0
176
     1
290
     0
176
     1
290
     1
176
     1
290
     1
176
     1
290
     0
176
     1
290
     0
176
     1
290
     0
176
     1
290
     0
176
     1
290
     0
176
     1
290
     0
176
     1
 90
       50
176
     1
 40
0.0
176
     1
 40
1.0
176
     1
 90
        0
176
     1
 62
    18
420
        0
176
     1
 90
       50
176
     1
 90
        3
176
     1
 62
     5
420
      255
176
     1
290
     0
176
     1
 90
       50
176
     1
 90
       50
176
     1
 90
       50
176
     1
290
     0
176
     1
 90
       50
176
     1
 62
   256
176
     0
 40
1.0
176
     0
 90
        2
176
     1
  1
strokes_ogs.tif
176
     1
290
     0
176
     1
 40
1.0
176
     1
 40
1.0
176
     1
  0
VISUALSTYLE
  5
2B
102
{ACAD_REACTORS
330
29
102
}
330
29
100
AcDbVisualStyle
  2
FlatWithEdges
 70
     1
177
     3
291
     1
 70
    58
 90
        2
176
     1
 90
        1
176
     1
 90
        1
176
     1
 90
        2
176
     1
 40
0.6
176
     1
 40
30.0
176
     1
 62
     7
420
 16777215
176
     1
 90
        1
176
     1
 90
        0
176
     1
 62
     7
176
     1
 62
   257
176
     1
 90
        1
176
     1
 90
        1
176
     1
 40
1.0
176
     1
 90
        0
176
     1
 62
   257
176
     1
 40
1.0
176
     1
 90
        1
176
     1
 90
        6
176
     1
 90
        2
176
     1
 62
     7
176
     1
 90
        5
176
     1
 90
        0
176
     1
 90
        0
176
     1
290
     0
176
     1
 90
       13
176
     1
 40
0.0
176
     1
 90
        0
176
     1
290
     0
176
     1
290
     1
176
     1
290
     1
176
     1
290
     0
176
     1
290
     0
176
     1
290
     0
176
     1
290
     0
176
     1
290
     0
176
     1
290
     0
176
     1
 90
       50
176
     1
 40
0.0
176
     1
 40
1.0
176
     1
 90
        0
176
     1
 62
    18
420
        0
176
     1
 90
       50
176
     1
 90
        3
176
     1
 62
     5
420
      255
176
     1
290
     0
176
     1
 90
       50
176
     1
 90
       50
176
     1
 90
       50
176
     1
290
     0
176
     1
 90
       50
176
     1
 62
   256
176
     0
 40
1.0
176
     0
 90
        2
176
     1
  1
strokes_ogs.tif
176
     1
290
     0
176
     1
 40
1.0
176
     1
 40
1.0
176
     1
  0
VISUALSTYLE
  5
2C
102
{ACAD_REACTORS
330
29
102
}
330
29
100
AcDbVisualStyle
  2
Gouraud
 70
     2
177
     3
291
     1
 70
    58
 90
        2
176
     1
 90
        2
176
     1
 90
        1
176
     1
 90
        2
176
     1
 40
0.6
176
     1
 40
30.0
176
     1
 62
     7
420
 16777215
176
     1
 90
        0
176
     1
 90
        0
176
     1
 62
     7
176
     1
 62
   257
176
     1
 90
        1
176
     1
 90
        1
176
     1
 40
1.0
176
     1
 90
        0
176
     1
 62
     7
176
     1
 40
1.0
176
     1
 90
        1
176
     1
 90
        6
176
     1
 90
        2
176
     1
 62
     7
176
     1
 90
        5
176
     1
 90
        0
176
     1
 90
        0
176
     1
290
     0
176
     1
 90
       13
176
     1
 40
0.0
176
     1
 90
        0
176
     1
290
     0
176
     1
290
     1
176
     1
290
     1
176
     1
290
     0
176
     1
290
     0
176
     1
290
     0
176
     1
290
     0
176
     1
290
     0
176
     1
290
     0
176
     1
 90
       50
176
     1
 40
0.0
176
     1
 40
1.0
176
     1
 90
        0
176
     1
 62
    18
420
        0
176
     1
 90
       50
176
     1
 90
        3
176
     1
 62
     5
420
      255
176
     1
290
     0
176
     1
 90
       50
176
     1
 90
       50
176
     1
 90
       50
176
     1
290
     0
176
     1
 90
       50
176
     1
 62
   256
176
     0
 40
1.0
176
     0
 90
        2
176
     1
  1
strokes_ogs.tif
176
     1
290
     0
176
     1
 40
1.0
176
     1
 40
1.0
176
     1
  0
VISUALSTYLE
  5
2D
102
{ACAD_REACTORS
330
29
102
}
330
29
100
AcDbVisualStyle
  2
GouraudWithEdges
 70
     3
177
     3
291
     1
 70
    58
 90
        2
176
     1
 90
        2
176
     1
 90
        1
176
     1
 90
        2
176
     1
 40
0.6
176
     1
 40
30.0
176
     1
 62
     7
420
 16777215
176
     1
 90
        1
176
     1
 90
        0
176
     1
 62
     7
176
     1
 62
   257
176
     1
 90
        1
176
     1
 90
        1
176
     1
 40
1.0
176
     1
 90
        0
176
     1
 62
   257
176
     1
 40
1.0
176
     1
 90
        1
176
     1
 90
        6
176
     1
 90
        2
176
     1
 62
     7
176
     1
 90
        5
176
     1
 90
        0
176
     1
 90
        0
176
     1
290
     0
176
     1
 90
       13
176
     1
 40
0.0
176
     1
 90
        0
176
     1
290
     0
176
     1
290
     1
176
     1
290
     1
176
     1
290
     0
176
     1
290
     0
176
     1
290
     0
176
     1
290
     0
176
     1
290
     0
176
     1
290
     0
176
     1
 90
       50
176
     1
 40
0.0
176
     1
 40
1.0
176
     1
 90
        0
176
     1
 62
    18
420
        0
176
     1
 90
       50
176
     1
 90
        3
176
     1
 62
     5
420
      255
176
     1
290
     0
176
     1
 90
       50
176
     1
 90
       50
176
     1
 90
       50
176
     1
290
     0
176
     1
 90
       50
176
     1
 62
   256
176
     0
 40
1.0
176
     0
 90
        2
176
     1
  1
strokes_ogs.tif
176
     1
290
     0
176
     1
 40
1.0
176
     1
 40
1.0
176
     1
  0
VISUALSTYLE
  5
31
102
{ACAD_REACTORS
330
29
102
}
330
29
100
AcDbVisualStyle
  2
Hidden
 70
     6
177
     3
291
     0
 70
    58
 90
        1
176
     1
 90
        2
176
     1
 90
        2
176
     1
 90
        0
176
     1
 40
0.6
176
     1
 40
30.0
176
     1
 62
     7
420
 16777215
176
     1
 90
        2
176
     1
 90
        2
176
     1
 62
     7
176
     1
 62
   257
176
     1
 90
        2
176
     1
 90
        1
176
     1
 40
40.0
176
     1
 90
        0
176
     1
 62
   257
176
     1
 40
1.0
176
     1
 90
        1
176
     1
 90
        6
176
     1
 90
        2
176
     1
 62
     7
176
     1
 90
        3
176
     1
 90
        0
176
     1
 90
        0
176
     1
290
     0
176
     1
 90
        1
176
     1
 40
0.0
176
     1
 90
        0
176
     1
290
     0
176
     1
290
     1
176
     1
290
     1
176
     1
290
     0
176
     1
290
     0
176
     1
290
     0
176
     1
290
     0
176
     1
290
     0
176
     1
290
     0
176
     1
 90
       50
176
     1
 40
0.0
176
     1
 40
1.0
176
     1
 90
        0
176
     1
 62
    18
420
        0
176
     1
 90
       50
176
     1
 90
        3
176
     1
 62
     5
420
      255
176
     1
290
     0
176
     1
 90
       50
176
     1
 90
       50
176
     1
 90
       50
176
     1
290
     0
176
     1
 90
       50
176
     1
 62
   256
176
     0
 40
1.0
176
     0
 90
        2
176
     1
  1
strokes_ogs.tif
176
     1
290
     0
176
     1
 40
1.0
176
     1
 40
1.0
176
     1
  0
VISUALSTYLE
  5
3F
102
{ACAD_REACTORS
330
29
102
}
330
29
100
AcDbVisualStyle
  2
JitterOff
 70
    20
177
     3
291
     1
 70
    58
 90
        2
176
     0
 90
        2
176
     0
 90
        0
176
     0
 90
        0
176
     0
 40
0.6
176
     0
 40
30.0
176
     0
 62
     7
420
 16777215
176
     0
 90
        1
176
     0
 90
        4
176
     0
 62
     7
176
     0
 62
   257
176
     0
 90
        1
176
     0
 90
        1
176
     0
 40
1.0
176
     0
 90
       10
176
     2
 62
     7
176
     0
 40
1.0
176
     0
 90
        1
176
     0
 90
        6
176
     0
 90
        2
176
     0
 62
     7
176
     0
 90
        5
176
     0
 90
        0
176
     0
 90
        0
176
     0
290
     0
176
     0
 90
        1
176
     0
 40
0.0
176
     0
 90
        0
176
     0
290
     0
176
     0
290
     1
176
     0
290
     1
176
     0
290
     0
176
     0
290
     0
176
     0
290
     0
176
     0
290
     0
176
     0
290
     0
176
     0
290
     0
176
     0
 90
       50
176
     0
 40
0.0
176
     0
 40
1.0
176
     0
 90
        0
176
     0
 62
    18
420
        0
176
     0
 90
       50
176
     0
 90
        3
176
     0
 62
     5
420
      255
176
     0
290
     0
176
     0
 90
       50
176
     0
 90
       50
176
     0
 90
       50
176
     0
290
     0
176
     0
 90
       50
176
     0
 62
   256
176
     0
 40
1.0
176
     0
 90
        2
176
     0
  1
strokes_ogs.tif
176
     0
290
     0
176
     0
 40
1.0
176
     0
 40
1.0
176
     0
  0
VISUALSTYLE
  5
37
102
{ACAD_REACTORS
330
29
102
}
330
29
100
AcDbVisualStyle
  2
Linepattern
 70
    14
177
     3
291
     1
 70
    58
 90
        2
176
     1
 90
        2
176
     1
 90
        0
176
     1
 90
        0
176
     1
 40
0.6
176
     1
 40
30.0
176
     1
 62
     7
420
 16777215
176
     1
 90
        1
176
     1
 90
        4
176
     1
 62
     7
176
     1
 62
   257
176
     1
 90
        7
176
     1
 90
        7
176
     1
 40
1.0
176
     1
 90
        8
176
     1
 62
     7
176
     1
 40
1.0
176
     1
 90
        1
176
     1
 90
        6
176
     1
 90
        2
176
     1
 62
     7
176
     1
 90
        5
176
     1
 90
        0
176
     1
 90
        0
176
     1
290
     0
176
     1
 90
        1
176
     1
 40
0.0
176
     1
 90
        0
176
     1
290
     0
176
     1
290
     1
176
     1
290
     1
176
     1
290
     0
176
     1
290
     0
176
     1
290
     0
176
     1
290
     0
176
     1
290
     0
176
     1
290
     0
176
     1
 90
       50
176
     1
 40
0.0
176
     1
 40
1.0
176
     1
 90
        0
176
     1
 62
    18
420
        0
176
     1
 90
       50
176
     1
 90
        3
176
     1
 62
     5
420
      255
176
     1
290
     0
176
     1
 90
       50
176
     1
 90
       50
176
     1
 90
       50
176
     1
290
     0
176
     1
 90
       50
176
     1
 62
   256
176
     0
 40
1.0
176
     0
 90
        2
176
     1
  1
strokes_ogs.tif
176
     1
290
     0
176
     1
 40
1.0
176
     1
 40
1.0
176
     1
  0
VISUALSTYLE
  5
40
102
{ACAD_REACTORS
330
29
102
}
330
29
100
AcDbVisualStyle
  2
OverhangOff
 70
    21
177
     3
291
     1
 70
    58
 90
        2
176
     0
 90
        2
176
     0
 90
        0
176
     0
 90
        0
176
     0
 40
0.6
176
     0
 40
30.0
176
     0
 62
     7
420
 16777215
176
     0
 90
        1
176
     0
 90
        4
176
     0
 62
     7
176
     0
 62
   257
176
     0
 90
        1
176
     0
 90
        1
176
     0
 40
1.0
176
     0
 90
        9
176
     2
 62
     7
176
     0
 40
1.0
176
     0
 90
        1
176
     0
 90
        6
176
     0
 90
        2
176
     0
 62
     7
176
     0
 90
        5
176
     0
 90
        0
176
     0
 90
        0
176
     0
290
     0
176
     0
 90
        1
176
     0
 40
0.0
176
     0
 90
        0
176
     0
290
     0
176
     0
290
     1
176
     0
290
     1
176
     0
290
     0
176
     0
290
     0
176
     0
290
     0
176
     0
290
     0
176
     0
290
     0
176
     0
290
     0
176
     0
 90
       50
176
     0
 40
0.0
176
     0
 40
1.0
176
     0
 90
        0
176
     0
 62
    18
420
        0
176
     0
 90
       50
176
     0
 90
        3
176
     0
 62
     5
420
      255
176
     0
290
     0
176
     0
 90
       50
176
     0
 90
       50
176
     0
 90
       50
176
     0
290
     0
176
     0
 90
       50
176
     0
 62
   256
176
     0
 40
1.0
176
     0
 90
        2
176
     0
  1
strokes_ogs.tif
176
     0
290
     0
176
     0
 40
1.0
176
     0
 40
1.0
176
     0
  0
VISUALSTYLE
  5
33
102
{ACAD_REACTORS
330
29
102
}
330
29
100
AcDbVisualStyle
  2
Realistic
 70
     8
177
     3
291
     0
 70
    58
 90
        2
176
     1
 90
        3
176
     1
 90
        0
176
     1
 90
        2
176
     1
 40
0.6
176
     1
 40
30.0
176
     1
 62
     7
420
 16777215
176
     1
 90
        0
176
     1
 90
        0
176
     1
 62
     7
176
     1
 62
   257
176
     1
 90
        1
176
     1
 90
        1
176
     1
 40
1.0
176
     1
 90
        8
176
     1
 62
   257
176
     1
 40
1.0
176
     1
 90
        1
176
     1
 90
        6
176
     1
 90
        2
176
     1
 62
     7
176
     1
 90
        3
176
     1
 90
        0
176
     1
 90
        0
176
     1
290
     0
176
     1
 90
       13
176
     1
 40
0.0
176
     1
 90
        0
176
     1
290
     0
176
     1
290
     1
176
     1
290
     1
176
     1
290
     0
176
     1
290
     0
176
     1
290
     0
176
     1
290
     0
176
     1
290
     0
176
     1
290
     0
176
     1
 90
       50
176
     1
 40
0.0
176
     1
 40
1.0
176
     1
 90
        0
176
     1
 62
    18
420
        0
176
     1
 90
       50
176
     1
 90
        3
176
     1
 62
     5
420
      255
176
     1
290
     0
176
     1
 90
       50
176
     1
 90
       50
176
     1
 90
       50
176
     1
290
     0
176
     1
 90
       50
176
     1
 62
   256
176
     0
 40
1.0
176
     0
 90
        2
176
     1
  1
strokes_ogs.tif
176
     1
290
     0
176
     1
 40
1.0
176
     1
 40
1.0
176
     1
  0
VISUALSTYLE
  5
3E
102
{ACAD_REACTORS
330
29
102
}
330
29
100
AcDbVisualStyle
  2
Shaded
 70
    27
177
     3
291
     0
 70
    58
 90
        2
176
     1
 90
        2
176
     1
 90
        1
176
     1
 90
        2
176
     1
 40
0.6
176
     1
 40
30.0
176
     1
 62
     7
420
 16777215
176
     1
 90
        0
176
     1
 90
        4
176
     1
 62
     7
176
     1
 62
   257
176
     1
 90
        1
176
     1
 90
        1
176
     1
 40
1.0
176
     1
 90
        8
176
     1
 62
   257
176
     1
 40
1.0
176
     1
 90
        1
176
     1
 90
        6
176
     1
 90
        2
176
     1
 62
     8
420
  7895160
176
     1
 90
        3
176
     1
 90
        0
176
     1
 90
        0
176
     1
290
     0
176
     1
 90
        5
176
     1
 40
0.0
176
     1
 90
        0
176
     1
290
     0
176
     1
290
     1
176
     1
290
     1
176
     1
290
     0
176
     1
290
     0
176
     1
290
     0
176
     1
290
     0
176
     1
290
     0
176
     1
290
     0
176
     1
 90
       50
176
     1
 40
0.0
176
     1
 40
1.0
176
     1
 90
        0
176
     1
 62
    18
420
        0
176
     1
 90
       50
176
     1
 90
        3
176
     1
 62
     5
420
      255
176
     1
290
     0
176
     1
 90
       50
176
     1
 90
       50
176
     1
 90
       50
176
     1
290
     0
176
     1
 90
       50
176
     1
 62
   256
176
     0
 40
1.0
176
     0
 90
        2
176
     1
  1
strokes_ogs.tif
176
     1
290
     0
176
     1
 40
1.0
176
     1
 40
1.0
176
     1
  0
VISUALSTYLE
  5
3D
102
{ACAD_REACTORS
330
29
102
}
330
29
100
AcDbVisualStyle
  2
Shaded with edges
 70
    26
177
     3
291
     0
 70
    58
 90
        2
176
     1
 90
        2
176
     1
 90
        1
176
     1
 90
        2
176
     1
 40
0.6
176
     1
 40
30.0
176
     1
 62
     7
420
 16777215
176
     1
 90
        1
176
     1
 90
        2
176
     1
 62
     7
176
     1
 62
   257
176
     1
 90
        2
176
     1
 90
        1
176
     1
 40
1.0
176
     1
 90
        8
176
     1
 62
   257
176
     1
 40
1.0
176
     1
 90
        1
176
     1
 90
        6
176
     1
 90
        2
176
     1
 62
     7
176
     1
 90
        3
176
     1
 90
        0
176
     1
 90
        0
176
     1
290
     0
176
     1
 90
        5
176
     1
 40
0.0
176
     1
 90
        0
176
     1
290
     0
176
     1
290
     1
176
     1
290
     1
176
     1
290
     0
176
     1
290
     0
176
     1
290
     0
176
     1
290
     0
176
     1
290
     0
176
     1
290
     0
176
     1
 90
       50
176
     1
 40
0.0
176
     1
 40
1.0
176
     1
 90
        0
176
     1
 62
    18
420
        0
176
     1
 90
       50
176
     1
 90
        3
176
     1
 62
     5
420
      255
176
     1
290
     0
176
     1
 90
       50
176
     1
 90
       50
176
     1
 90
       50
176
     1
290
     0
176
     1
 90
       50
176
     1
 62
   256
176
     0
 40
1.0
176
     0
 90
        2
176
     1
  1
strokes_ogs.tif
176
     1
290
     0
176
     1
 40
1.0
176
     1
 40
1.0
176
     1
  0
VISUALSTYLE
  5
3A
102
{ACAD_REACTORS
330
29
102
}
330
29
100
AcDbVisualStyle
  2
Shades of Gray
 70
    23
177
     3
291
     0
 70
    58
 90
        2
176
     1
 90
        2
176
     1
 90
        3
176
     1
 90
        0
176
     1
 40
0.6
176
     1
 40
30.0
176
     1
 62
     7
420
 16777215
176
     1
 90
        2
176
     1
 90
        2
176
     1
 62
     7
176
     1
 62
     7
176
     1
 90
        1
176
     1
 90
        1
176
     1
 40
40.0
176
     1
 90
        8
176
     1
 62
     7
176
     1
 40
1.0
176
     1
 90
        1
176
     1
 90
        6
176
     1
 90
        2
176
     1
 62
     7
176
     1
 90
        3
176
     1
 90
        0
176
     1
 90
        0
176
     1
290
     0
176
     1
 90
        1
176
     1
 40
0.0
176
     1
 90
        0
176
     1
290
     0
176
     1
290
     1
176
     1
290
     1
176
     1
290
     0
176
     1
290
     0
176
     1
290
     0
176
     1
290
     0
176
     1
290
     0
176
     1
290
     0
176
     1
 90
       50
176
     1
 40
0.0
176
     1
 40
1.0
176
     1
 90
        0
176
     1
 62
    18
420
        0
176
     1
 90
       50
176
     1
 90
        3
176
     1
 62
     5
420
      255
176
     1
290
     0
176
     1
 90
       50
176
     1
 90
       50
176
     1
 90
       50
176
     1
290
     0
176
     1
 90
       50
176
     1
 62
   256
176
     0
 40
1.0
176
     0
 90
        2
176
     1
  1
strokes_ogs.tif
176
     1
290
     0
176
     1
 40
1.0
176
     1
 40
1.0
176
     1
  0
VISUALSTYLE
  5
3B
102
{ACAD_REACTORS
330
29
102
}
330
29
100
AcDbVisualStyle
  2
Sketchy
 70
    24
177
     3
291
     0
 70
    58
 90
        1
176
     1
 90
        2
176
     1
 90
        2
176
     1
 90
        0
176
     1
 40
0.6
176
     1
 40
30.0
176
     1
 62
     7
420
 16777215
176
     1
 90
        2
176
     1
 90
        2
176
     1
 62
     7
176
     1
 62
     7
176
     1
 90
        1
176
     1
 90
        1
176
     1
 40
40.0
176
     1
 90
       11
176
     1
 62
     7
176
     1
 40
1.0
176
     1
 90
        1
176
     1
 90
        6
176
     1
 90
        2
176
     1
 62
     7
176
     1
 90
        6
176
     1
 90
        0
176
     1
 90
        0
176
     1
290
     0
176
     1
 90
        1
176
     1
 40
0.0
176
     1
 90
        0
176
     1
290
     0
176
     1
290
     1
176
     1
290
     1
176
     1
290
     0
176
     1
290
     0
176
     1
290
     0
176
     1
290
     0
176
     1
290
     0
176
     1
290
     0
176
     1
 90
       50
176
     1
 40
0.0
176
     1
 40
1.0
176
     1
 90
        0
176
     1
 62
    18
420
        0
176
     1
 90
       50
176
     1
 90
        3
176
     1
 62
     5
420
      255
176
     1
290
     0
176
     1
 90
       50
176
     1
 90
       50
176
     1
 90
       50
176
     1
290
     0
176
     1
 90
       50
176
     1
 62
   256
176
     0
 40
1.0
176
     0
 90
        2
176
     1
  1
strokes_ogs.tif
176
     1
290
     0
176
     1
 40
1.0
176
     1
 40
1.0
176
     1
  0
VISUALSTYLE
  5
36
102
{ACAD_REACTORS
330
29
102
}
330
29
100
AcDbVisualStyle
  2
Thicken
 70
    13
177
     3
291
     1
 70
    58
 90
        2
176
     1
 90
        2
176
     1
 90
        0
176
     1
 90
        0
176
     1
 40
0.6
176
     1
 40
30.0
176
     1
 62
     7
420
 16777215
176
     1
 90
        1
176
     1
 90
        4
176
     1
 62
     7
176
     1
 62
   257
176
     1
 90
        1
176
     1
 90
        1
176
     1
 40
1.0
176
     1
 90
       12
176
     1
 62
     7
176
     1
 40
1.0
176
     1
 90
        1
176
     1
 90
        6
176
     1
 90
        2
176
     1
 62
     7
176
     1
 90
        5
176
     1
 90
        0
176
     1
 90
        0
176
     1
290
     0
176
     1
 90
        1
176
     1
 40
0.0
176
     1
 90
        0
176
     1
290
     0
176
     1
290
     1
176
     1
290
     1
176
     1
290
     0
176
     1
290
     0
176
     1
290
     0
176
     1
290
     0
176
     1
290
     0
176
     1
290
     0
176
     1
 90
       50
176
     1
 40
0.0
176
     1
 40
1.0
176
     1
 90
        0
176
     1
 62
    18
420
        0
176
     1
 90
       50
176
     1
 90
        3
176
     1
 62
     5
420
      255
176
     1
290
     0
176
     1
 90
       50
176
     1
 90
       50
176
     1
 90
       50
176
     1
290
     0
176
     1
 90
       50
176
     1
 62
   256
176
     0
 40
1.0
176
     0
 90
        2
176
     1
  1
strokes_ogs.tif
176
     1
290
     0
176
     1
 40
1.0
176
     1
 40
1.0
176
     1
  0
VISUALSTYLE
  5
30
102
{ACAD_REACTORS
330
29
102
}
330
29
100
AcDbVisualStyle
  2
Wireframe
 70
     5
177
     3
291
     0
 70
    58
 90
        0
176
     1
 90
        2
176
     1
 90
        0
176
     1
 90
        0
176
     1
 40
0.6
176
     1
 40
30.0
176
     1
 62
     7
420
 16777215
176
     1
 90
        1
176
     1
 90
        4
176
     1
 62
     7
176
     1
 62
   257
176
     1
 90
        1
176
     1
 90
        1
176
     1
 40
1.0
176
     1
 90
        0
176
     1
 62
   257
176
     1
 40
1.0
176
     1
 90
        1
176
     1
 90
        6
176
     1
 90
        2
176
     1
 62
     7
176
     1
 90
        3
176
     1
 90
        0
176
     1
 90
        0
176
     1
290
     0
176
     1
 90
        1
176
     1
 40
0.0
176
     1
 90
        0
176
     1
290
     0
176
     1
290
     1
176
     1
290
     1
176
     1
290
     0
176
     1
290
     0
176
     1
290
     0
176
     1
290
     0
176
     1
290
     0
176
     1
290
     0
176
     1
 90
       50
176
     1
 40
0.0
176
     1
 40
1.0
176
     1
 90
        0
176
     1
 62
    18
420
        0
176
     1
 90
       50
176
     1
 90
        3
176
     1
 62
     5
420
      255
176
     1
290
     0
176
     1
 90
       50
176
     1
 90
       50
176
     1
 90
       50
176
     1
290
     0
176
     1
 90
       50
176
     1
 62
   256
176
     0
 40
1.0
176
     0
 90
        2
176
     1
  1
strokes_ogs.tif
176
     1
290
     0
176
     1
 40
1.0
176
     1
 40
1.0
176
     1
  0
VISUALSTYLE
  5
3C
102
{ACAD_REACTORS
330
29
102
}
330
29
100
AcDbVisualStyle
  2
X-Ray
 70
    25
177
     3
291
     0
 70
    58
 90
        2
176
     1
 90
        2
176
     1
 90
        1
176
     1
 90
        1
176
     1
 40
0.5
176
     1
 40
30.0
176
     1
 62
     7
420
 16777215
176
     1
 90
        1
176
     1
 90
        0
176
     1
 62
     7
176
     1
 62
   257
176
     1
 90
        1
176
     1
 90
        1
176
     1
 40
1.0
176
     1
 90
        8
176
     1
 62
     7
176
     1
 40
1.0
176
     1
 90
        1
176
     1
 90
        6
176
     1
 90
        2
176
     1
 62
     7
176
     1
 90
        3
176
     1
 90
        0
176
     1
 90
        0
176
     1
290
     0
176
     1
 90
       13
176
     1
 40
0.0
176
     1
 90
        0
176
     1
290
     0
176
     1
290
     1
176
     1
290
     1
176
     1
290
     0
176
     1
290
     0
176
     1
290
     0
176
     1
290
     0
176
     1
290
     0
176
     1
290
     0
176
     1
 90
       50
176
     1
 40
0.0
176
     1
 40
1.0
176
     1
 90
        0
176
     1
 62
    18
420
        0
176
     1
 90
       50
176
     1
 90
        3
176
     1
 62
     5
420
      255
176
     1
290
     0
176
     1
 90
       50
176
     1
 90
       50
176
     1
 90
       50
176
     1
290
     0
176
     1
 90
       50
176
     1
 62
   256
176
     0
 40
1.0
176
     0
 90
        2
176
     1
  1
strokes_ogs.tif
176
     1
290
     0
176
     1
 40
1.0
176
     1
 40
1.0
176
     1
  0
DICTIONARYVAR
  5
9C
102
{ACAD_REACTORS
330
97
102
}
330
97
100
DictionaryVariables
280
     0
  1
1:1
  0
DICTIONARYVAR
  5
99
102
{ACAD_REACTORS
330
97
102
}
330
97
100
DictionaryVariables
280
     0
  1
STANDARD
  0
DICTIONARYVAR
  5
98
102
{ACAD_REACTORS
330
97
102
}
330
97
100
DictionaryVariables
280
     0
  1
STANDARD
  0
DICTIONARYVAR
  5
9A
102
{ACAD_REACTORS
330
97
102
}
330
97
100
DictionaryVariables
280
     0
  1
Imperial24
  0
DICTIONARYVAR
  5
9B
102
{ACAD_REACTORS
330
97
102
}
330
97
100
DictionaryVariables
280
     0
  1
Imperial24
  0
DICTIONARY
  5
1A
330
19
100
AcDbDictionary
280
     1
281
     1
  3
BUMPTILE
360
1C
  3
DIFFUSETILE
360
1B
  3
OPACITYTILE
360
1F
  3
REFLECTIONTILE
360
1E
  3
REFRACTIONTILE
360
20
  3
SPECULARTILE
360
1D
  0
DICTIONARY
  5
12
330
11
100
AcDbDictionary
280
     1
281
     1
  3
BUMPTILE
360
14
  3
DIFFUSETILE
360
13
  3
OPACITYTILE
360
17
  3
REFLECTIONTILE
360
16
  3
REFRACTIONTILE
360
18
  3
SPECULARTILE
360
15
  0
DICTIONARY
  5
22
330
21
100
AcDbDictionary
280
     1
281
     1
  3
BUMPTILE
360
24
  3
DIFFUSETILE
360
23
  3
OPACITYTILE
360
27
  3
REFLECTIONTILE
360
26
  3
REFRACTIONTILE
360
28
  3
SPECULARTILE
360
25
  0
DICTIONARY
  5
9D
330
65
100
AcDbDictionary
280
     1
281
     1
  3
ACAD_ROUNDTRIP_2008_TABLESTYLE_CELLSTYLEMAP
360
9E
  0
XRECORD
  5
1C
102
{ACAD_REACTORS
330
1A
102
}
330
1A
100
AcDbXrecord
280
     1
270
     1
271
     1
  0
XRECORD
  5
1B
102
{ACAD_REACTORS
330
1A
102
}
330
1A
100
AcDbXrecord
280
     1
270
     1
271
     1
  0
XRECORD
  5
1F
102
{ACAD_REACTORS
330
1A
102
}
330
1A
100
AcDbXrecord
280
     1
270
     1
271
     1
  0
XRECORD
  5
1E
102
{ACAD_REACTORS
330
1A
102
}
330
1A
100
AcDbXrecord
280
     1
270
     1
271
     1
  0
XRECORD
  5
20
102
{ACAD_REACTORS
330
1A
102
}
330
1A
100
AcDbXrecord
280
     1
270
     1
271
     1
  0
XRECORD
  5
1D
102
{ACAD_REACTORS
330
1A
102
}
330
1A
100
AcDbXrecord
280
     1
270
     1
271
     1
  0
XRECORD
  5
14
102
{ACAD_REACTORS
330
12
102
}
330
12
100
AcDbXrecord
280
     1
270
     1
271
     1
  0
XRECORD
  5
13
102
{ACAD_REACTORS
330
12
102
}
330
12
100
AcDbXrecord
280
     1
270
     1
271
     1
  0
XRECORD
  5
17
102
{ACAD_REACTORS
330
12
102
}
330
12
100
AcDbXrecord
280
     1
270
     1
271
     1
  0
XRECORD
  5
16
102
{ACAD_REACTORS
330
12
102
}
330
12
100
AcDbXrecord
280
     1
270
     1
271
     1
  0
XRECORD
  5
18
102
{ACAD_REACTORS
330
12
102
}
330
12
100
AcDbXrecord
280
     1
270
     1
271
     1
  0
XRECORD
  5
15
102
{ACAD_REACTORS
330
12
102
}
330
12
100
AcDbXrecord
280
     1
270
     1
271
     1
  0
XRECORD
  5
24
102
{ACAD_REACTORS
330
22
102
}
330
22
100
AcDbXrecord
280
     1
270
     1
271
     1
  0
XRECORD
  5
23
102
{ACAD_REACTORS
330
22
102
}
330
22
100
AcDbXrecord
280
     1
270
     1
271
     1
  0
XRECORD
  5
27
102
{ACAD_REACTORS
330
22
102
}
330
22
100
AcDbXrecord
280
     1
270
     1
271
     1
  0
XRECORD
  5
26
102
{ACAD_REACTORS
330
22
102
}
330
22
100
AcDbXrecord
280
     1
270
     1
271
     1
  0
XRECORD
  5
28
102
{ACAD_REACTORS
330
22
102
}
330
22
100
AcDbXrecord
280
     1
270
     1
271
     1
  0
XRECORD
  5
25
102
{ACAD_REACTORS
330
22
102
}
330
22
100
AcDbXrecord
280
     1
270
     1
271
     1
  0
CELLSTYLEMAP
  5
9E
102
{ACAD_REACTORS
330
9D
102
}
330
9D
100
AcDbCellStyleMap
 90
        3
300
CELLSTYLE
  1
TABLEFORMAT_BEGIN
 90
        5
170
     1
 91
        0
 92
    32768
 62
   257
 93
        1
300
CONTENTFORMAT
  1
CONTENTFORMAT_BEGIN
 90
        0
 91
        0
 92
      512
 93
        0
300

 40
0.0
140
1.0
 94
        5
 62
     0
340
55
144
0.25
309
CONTENTFORMAT_END
171
     0
 94
        0
309
TABLEFORMAT_END
  1
CELLSTYLE_BEGIN
 90
        1
 91
        1
300
_TITLE
309
CELLSTYLE_END
300
CELLSTYLE
  1
TABLEFORMAT_BEGIN
 90
        5
170
     1
 91
        0
 92
        0
 62
   257
 93
        1
300
CONTENTFORMAT
  1
CONTENTFORMAT_BEGIN
 90
        0
 91
        0
 92
      512
 93
        0
300

 40
0.0
140
1.0
 94
        5
 62
     0
340
55
144
0.18
309
CONTENTFORMAT_END
171
     0
 94
        0
309
TABLEFORMAT_END
  1
CELLSTYLE_BEGIN
 90
        2
 91
        1
300
_HEADER
309
CELLSTYLE_END
300
CELLSTYLE
  1
TABLEFORMAT_BEGIN
 90
        5
170
     1
 91
        0
 92
        0
 62
   257
 93
        1
300
CONTENTFORMAT
  1
CONTENTFORMAT_BEGIN
 90
        0
 91
        0
 92
      512
 93
        0
300

 40
0.0
140
1.0
 94
        2
 62
     0
340
55
144
0.18
309
CONTENTFORMAT_END
171
     0
 94
        0
309
TABLEFORMAT_END
  1
CELLSTYLE_BEGIN
 90
        3
 91
        2
300
_DATA
309
CELLSTYLE_END
  0
ENDSEC
  0
EOF
