  0
SECTION
  2
HEADER
  9
$ACADVER
  1
AC1032
  9
$ACADMAINTVER
 90
      228
  9
$DWGCODEPAGE
  3
ANSI_1252
  9
$REQUIREDVERSIONS
160
                 0
  9
$INSBASE
 10
0.0
 20
0.0
 30
0.0
  9
$EXTMIN
 10
1.000000000000000E+20
 20
1.000000000000000E+20
 30
1.000000000000000E+20
  9
$EXTMAX
 10
-1.000000000000000E+20
 20
-1.000000000000000E+20
 30
-1.000000000000000E+20
  9
$LIMMIN
 10
0.0
 20
0.0
  9
$LIMMAX
 10
12.0
 20
9.0
  9
$ORTHOMODE
 70
     0
  9
$REGENMODE
 70
     1
  9
$FILLMODE
 70
     1
  9
$QTEXTMODE
 70
     0
  9
$MIRRTEXT
 70
     0
  9
$LTSCALE
 40
1.0
  9
$ATTMODE
 70
     1
  9
$TEXTSIZE
 40
0.2
  9
$TRACEWID
 40
0.05
  9
$TEXTSTYLE
  7
Standard
  9
$CLAYER
  8
0
  9
$CELTYPE
  6
ByLayer
  9
$CECOLOR
 62
   256
  9
$CELTSCALE
 40
1.0
  9
$DISPSILH
 70
     0
  9
$DIMSCALE
 40
1.0
  9
$DIMASZ
 40
0.18
  9
$DIMEXO
 40
0.0625
  9
$DIMDLI
 40
0.38
  9
$DIMRND
 40
0.0
  9
$DIMDLE
 40
0.0
  9
$DIMEXE
 40
0.18
  9
$DIMTP
 40
0.0
  9
$DIMTM
 40
0.0
  9
$DIMTXT
 40
0.18
  9
$DIMCEN
 40
0.09
  9
$DIMTSZ
 40
0.0
  9
$DIMTOL
 70
     0
  9
$DIMLIM
 70
     0
  9
$DIMTIH
 70
     1
  9
$DIMTOH
 70
     1
  9
$DIMSE1
 70
     0
  9
$DIMSE2
 70
     0
  9
$DIMTAD
 70
     0
  9
$DIMZIN
 70
     0
  9
$DIMBLK
  1

  9
$DIMASO
 70
     1
  9
$DIMSHO
 70
     1
  9
$DIMPOST
  1

  9
$DIMAPOST
  1

  9
$DIMALT
 70
     0
  9
$DIMALTD
 70
     2
  9
$DIMALTF
 40
25.4
  9
$DIMLFAC
 40
1.0
  9
$DIMTOFL
 70
     0
  9
$DIMTVP
 40
0.0
  9
$DIMTIX
 70
     0
  9
$DIMSOXD
 70
     0
  9
$DIMSAH
 70
     0
  9
$DIMBLK1
  1

  9
$DIMBLK2
  1

  9
$DIMSTYLE
  2
Standard
  9
$DIMCLRD
 70
     0
  9
$DIMCLRE
 70
     0
  9
$DIMCLRT
 70
     0
  9
$DIMTFAC
 40
1.0
  9
$DIMGAP
 40
0.09
  9
$DIMJUST
 70
     0
  9
$DIMSD1
 70
     0
  9
$DIMSD2
 70
     0
  9
$DIMTOLJ
 70
     1
  9
$DIMTZIN
 70
     0
  9
$DIMALTZ
 70
     0
  9
$DIMALTTZ
 70
     0
  9
$DIMUPT
 70
     0
  9
$DIMDEC
 70
     4
  9
$DIMTDEC
 70
     4
  9
$DIMALTU
 70
     2
  9
$DIMALTTD
 70
     2
  9
$DIMTXSTY
  7
Standard
  9
$DIMAUNIT
 70
     0
  9
$DIMADEC
 70
     0
  9
$DIMALTRND
 40
0.0
  9
$DIMAZIN
 70
     0
  9
$DIMDSEP
 70
    46
  9
$DIMATFIT
 70
     3
  9
$DIMFRAC
 70
     0
  9
$DIMLDRBLK
  1

  9
$DIMLUNIT
 70
     2
  9
$DIMLWD
 70
    -2
  9
$DIMLWE
 70
    -2
  9
$DIMTMOVE
 70
     0
  9
$DIMFXL
 40
1.0
  9
$DIMFXLON
 70
     0
  9
$DIMJOGANG
 40
0.7853981633974483
  9
$DIMTFILL
 70
     0
  9
$DIMTFILLCLR
 70
     0
  9
$DIMARCSYM
 70
     0
  9
$DIMLTYPE
  6

  9
$DIMLTEX1
  6

  9
$DIMLTEX2
  6

  9
$DIMTXTDIRECTION
 70
     0
  9
$LUNITS
 70
     2
  9
$LUPREC
 70
     4
  9
$SKETCHINC
 40
0.1
  9
$FILLETRAD
 40
0.0
  9
$AUNITS
 70
     0
  9
$AUPREC
 70
     0
  9
$MENU
  1
.
  9
$ELEVATION
 40
0.0
  9
$PELEVATION
 40
0.0
  9
$THICKNESS
 40
0.0
  9
$LIMCHECK
 70
     0
  9
$CHAMFERA
 40
0.0
  9
$CHAMFERB
 40
0.0
  9
$CHAMFERC
 40
0.0
  9
$CHAMFERD
 40
0.0
  9
$SKPOLY
 70
     0
  9
$TDCREATE
 40
2460253.006157408
  9
$TDUCREATE
 40
2460253.297824074
  9
$TDUPDATE
 40
2460253.006157408
  9
$TDUUPDATE
 40
2460253.297824074
  9
$TDINDWG
 40
0.0000000000
  9
$TDUSRTIMER
 40
0.0000000000
  9
$USRTIMER
 70
     1
  9
$ANGBASE
 50
0.0
  9
$ANGDIR
 70
     0
  9
$PDMODE
 70
     0
  9
$PDSIZE
 40
0.0
  9
$PLINEWID
 40
0.0
  9
$SPLFRAME
 70
     0
  9
$SPLINETYPE
 70
     6
  9
$SPLINESEGS
 70
     8
  9
$HANDSEED
  5
F9
  9
$SURFTAB1
 70
     6
  9
$SURFTAB2
 70
     6
  9
$SURFTYPE
 70
     6
  9
$SURFU
 70
     6
  9
$SURFV
 70
     6
  9
$UCSBASE
  2

  9
$UCSNAME
  2

  9
$UCSORG
 10
0.0
 20
0.0
 30
0.0
  9
$UCSXDIR
 10
1.0
 20
0.0
 30
0.0
  9
$UCSYDIR
 10
0.0
 20
1.0
 30
0.0
  9
$UCSORTHOREF
  2

  9
$UCSORTHOVIEW
 70
     0
  9
$UCSORGTOP
 10
0.0
 20
0.0
 30
0.0
  9
$UCSORGBOTTOM
 10
0.0
 20
0.0
 30
0.0
  9
$UCSORGLEFT
 10
0.0
 20
0.0
 30
0.0
  9
$UCSORGRIGHT
 10
0.0
 20
0.0
 30
0.0
  9
$UCSORGFRONT
 10
0.0
 20
0.0
 30
0.0
  9
$UCSORGBACK
 10
0.0
 20
0.0
 30
0.0
  9
$PUCSBASE
  2

  9
$PUCSNAME
  2

  9
$PUCSORG
 10
0.0
 20
0.0
 30
0.0
  9
$PUCSXDIR
 10
1.0
 20
0.0
 30
0.0
  9
$PUCSYDIR
 10
0.0
 20
1.0
 30
0.0
  9
$PUCSORTHOREF
  2

  9
$PUCSORTHOVIEW
 70
     0
  9
$PUCSORGTOP
 10
0.0
 20
0.0
 30
0.0
  9
$PUCSORGBOTTOM
 10
0.0
 20
0.0
 30
0.0
  9
$PUCSORGLEFT
 10
0.0
 20
0.0
 30
0.0
  9
$PUCSORGRIGHT
 10
0.0
 20
0.0
 30
0.0
  9
$PUCSORGFRONT
 10
0.0
 20
0.0
 30
0.0
  9
$PUCSORGBACK
 10
0.0
 20
0.0
 30
0.0
  9
$USERI1
 70
     0
  9
$USERI2
 70
     0
  9
$USERI3
 70
     0
  9
$USERI4
 70
     0
  9
$USERI5
 70
     0
  9
$USERR1
 40
0.0
  9
$USERR2
 40
0.0
  9
$USERR3
 40
0.0
  9
$USERR4
 40
0.0
  9
$USERR5
 40
0.0
  9
$WORLDVIEW
 70
     1
  9
$SHADEDGE
 70
     3
  9
$SHADEDIF
 70
    70
  9
$TILEMODE
 70
     1
  9
$MAXACTVP
 70
    64
  9
$PINSBASE
 10
0.0
 20
0.0
 30
0.0
  9
$PLIMCHECK
 70
     0
  9
$PEXTMIN
 10
1.000000000000000E+20
 20
1.000000000000000E+20
 30
1.000000000000000E+20
  9
$PEXTMAX
 10
-1.000000000000000E+20
 20
-1.000000000000000E+20
 30
-1.000000000000000E+20
  9
$PLIMMIN
 10
0.0
 20
0.0
  9
$PLIMMAX
 10
12.0
 20
9.0
  9
$UNITMODE
 70
     0
  9
$VISRETAIN
 70
     1
  9
$PLINEGEN
 70
     0
  9
$PSLTSCALE
 70
     1
  9
$TREEDEPTH
 70
  3020
  9
$CMLSTYLE
  2
Standard
  9
$CMLJUST
 70
     0
  9
$CMLSCALE
 40
1.0
  9
$PROXYGRAPHICS
 70
     1
  9
$MEASUREMENT
 70
     0
  9
$CELWEIGHT
370
    -1
  9
$ENDCAPS
280
     0
  9
$JOINSTYLE
280
     0
  9
$LWDISPLAY
290
     1
  9
$INSUNITS
 70
     1
  9
$HYPERLINKBASE
  1

  9
$STYLESHEET
  1

  9
$XEDIT
290
     1
  9
$CEPSNTYPE
380
     0
  9
$PSTYLEMODE
290
     1
  9
$FINGERPRINTGUID
  2
{1A279BB8-F761-5744-9DFC-776BFEAE3B5D}
  9
$VERSIONGUID
  2
{591DA934-D20E-B64E-9978-164049436B6C}
  9
$EXTNAMES
290
     1
  9
$PSVPSCALE
 40
0.0
  9
$OLESTARTUP
290
     0
  9
$SORTENTS
280
   127
  9
$INDEXCTL
280
     0
  9
$HIDETEXT
280
     1
  9
$XCLIPFRAME
280
     2
  9
$HALOGAP
280
     0
  9
$OBSCOLOR
 70
   257
  9
$OBSLTYPE
280
     0
  9
$INTERSECTIONDISPLAY
280
     0
  9
$INTERSECTIONCOLOR
 70
   257
  9
$DIMASSOC
280
     2
  9
$PROJECTNAME
  1

  9
$CAMERADISPLAY
290
     0
  9
$LENSLENGTH
 40
50.0
  9
$CAMERAHEIGHT
 40
0.0
  9
$STEPSPERSEC
 40
2.0
  9
$STEPSIZE
 40
6.0
  9
$3DDWFPREC
 40
2.0
  9
$PSOLWIDTH
 40
0.25
  9
$PSOLHEIGHT
 40
4.0
  9
$LOFTANG1
 40
1.570796326794896
  9
$LOFTANG2
 40
1.570796326794896
  9
$LOFTMAG1
 40
0.0
  9
$LOFTMAG2
 40
0.0
  9
$LOFTPARAM
 70
     7
  9
$LOFTNORMALS
280
     1
  9
$LATITUDE
 40
37.795
  9
$LONGITUDE
 40
-122.394
  9
$NORTHDIRECTION
 40
0.0
  9
$TIMEZONE
 70
 -8000
  9
$LIGHTGLYPHDISPLAY
280
     1
  9
$TILEMODELIGHTSYNCH
280
     1
  9
$CMATERIAL
347
11
  9
$SOLIDHIST
280
     0
  9
$SHOWHIST
280
     1
  9
$DWFFRAME
280
     2
  9
$DGNFRAME
280
     0
  9
$REALWORLDSCALE
290
     1
  9
$INTERFERECOLOR
 62
     1
  9
$INTERFEREOBJVS
345
33
  9
$INTERFEREVPVS
346
30
  9
$CSHADOW
280
     0
  9
$SHADOWPLANELOCATION
 40
0.0
  0
ENDSEC
  0
SECTION
  2
CLASSES
  0
CLASS
  1
ACDBDICTIONARYWDFLT
  2
AcDbDictionaryWithDefault
  3
ObjectDBX Classes
 90
        0
 91
        1
280
     0
281
     0
  0
CLASS
  1
MATERIAL
  2
AcDbMaterial
  3
ObjectDBX Classes
 90
     1153
 91
        3
280
     0
281
     0
  0
CLASS
  1
VISUALSTYLE
  2
AcDbVisualStyle
  3
ObjectDBX Classes
 90
     4095
 91
       24
280
     0
281
     0
  0
CLASS
  1
SCALE
  2
AcDbScale
  3
ObjectDBX Classes
 90
     1153
 91
       17
280
     0
281
     0
  0
CLASS
  1
TABLESTYLE
  2
AcDbTableStyle
  3
ObjectDBX Classes
 90
     4095
 91
        1
280
     0
281
     0
  0
CLASS
  1
MLEADERSTYLE
  2
AcDbMLeaderStyle
  3
ACDB_MLEADERSTYLE_CLASS
 90
     4095
 91
        1
280
     0
281
     0
  0
CLASS
  1
ACDBSECTIONVIEWSTYLE
  2
AcDbSectionViewStyle
  3
ObjectDBX Classes
 90
     1025
 91
        1
280
     0
281
     0
  0
CLASS
  1
ACDBDETAILVIEWSTYLE
  2
AcDbDetailViewStyle
  3
ObjectDBX Classes
 90
     1025
 91
        1
280
     0
281
     0
  0
CLASS
  1
DICTIONARYVAR
  2
AcDbDictionaryVar
  3
ObjectDBX Classes
 90
        0
 91
        5
280
     0
281
     0
  0
CLASS
  1
CELLSTYLEMAP
  2
AcDbCellStyleMap
  3
ObjectDBX Classes
 90
     1152
 91
        1
280
     0
281
     0
  0
ENDSEC
  0
SECTION
  2
TABLES
  0
TABLE
  2
VPORT
  5
8
330
0
100
AcDbSymbolTable
 70
     1
  0
VPORT
  5
57
330
8
100
AcDbSymbolTableRecord
100
AcDbViewportTableRecord
  2
*Active
 70
     0
 10
0.0
 20
0.0
 11
1.0
 21
1.0
 12
0.0
 22
0.0
 13
0.0
 23
0.0
 14
1.0
 24
1.0
 15
0.0
 25
0.0
 16
0.0
 26
0.0
 36
1.0
 17
0.9063715204259157
 27
-9.464948306989626
 37
0.0
 40
28.18769568220839
 41
1.322120462652982
 42
50.0
 43
0.0
 44
0.0
 50
0.0
 51
0.0
 71
     0
 72
   100
 73
     1
 74
     1
 75
     0
 76
     0
 77
     0
 78
     0
281
     0
 65
     1
110
0.0
120
0.0
130
0.0
111
1.0
121
0.0
131
0.0
112
0.0
122
1.0
132
0.0
 79
     0
146
0.0
 60
     3
 61
     5
292
     1
282
     1
141
0.0
142
0.0
 63
   250
421
  3355443
  0
ENDTAB
  0
TABLE
  2
LTYPE
  5
5
330
0
100
AcDbSymbolTable
 70
     1
  0
LTYPE
  5
5B
330
5
100
AcDbSymbolTableRecord
100
AcDbLinetypeTableRecord
  2
ByBlock
 70
     0
  3

 72
    65
 73
     0
 40
0.0
  0
LTYPE
  5
5C
330
5
100
AcDbSymbolTableRecord
100
AcDbLinetypeTableRecord
  2
ByLayer
 70
     0
  3

 72
    65
 73
     0
 40
0.0
  0
LTYPE
  5
5D
330
5
100
AcDbSymbolTableRecord
100
AcDbLinetypeTableRecord
  2
Continuous
 70
     0
  3
Solid line
 72
    65
 73
     0
 40
0.0
  0
ENDTAB
  0
TABLE
  2
LAYER
  5
2
330
0
100
AcDbSymbolTable
 70
     4
  0
LAYER
  5
54
330
2
100
AcDbSymbolTableRecord
100
AcDbLayerTableRecord
  2
0
 70
     0
 62
     7
  6
Continuous
370
    -3
390
F
347
21
348
0
  0
LAYER
  5
78
330
2
100
AcDbSymbolTableRecord
100
AcDbLayerTableRecord
  2
Luffy
 70
     0
 62
     7
  6
Continuous
370
     0
390
F
347
21
348
0
  0
LAYER
  5
EE
330
2
100
AcDbSymbolTableRecord
100
AcDbLayerTableRecord
  2
Crocodile
 70
     1
 62
     7
  6
Continuous
370
     0
390
F
347
21
348
0
  0
LAYER
  5
EF
330
2
100
AcDbSymbolTableRecord
100
AcDbLayerTableRecord
  2
Layer 2
 70
     0
 62
     7
  6
Continuous
370
     0
390
F
347
21
348
0
  0
ENDTAB
  0
TABLE
  2
STYLE
  5
3
330
0
100
AcDbSymbolTable
 70
     2
  0
STYLE
  5
55
330
3
100
AcDbSymbolTableRecord
100
AcDbTextStyleTableRecord
  2
Standard
 70
     0
 40
0.0
 41
1.0
 50
0.0
 71
     0
 42
0.2
  3
txt
  4

  0
STYLE
  5
5A
330
3
100
AcDbSymbolTableRecord
100
AcDbTextStyleTableRecord
  2
Annotative
 70
     0
 40
0.0
 41
1.0
 50
0.0
 71
     0
 42
0.2
  3
txt
  4

1001
AcadAnnotative
1000
AnnotativeData
1002
{
1070
     1
1070
     1
1002
}
  0
ENDTAB
  0
TABLE
  2
VIEW
  5
6
330
0
100
AcDbSymbolTable
 70
     0
  0
ENDTAB
  0
TABLE
  2
UCS
  5
7
330
0
100
AcDbSymbolTable
 70
     0
  0
ENDTAB
  0
TABLE
  2
APPID
  5
9
330
0
100
AcDbSymbolTable
 70
     2
  0
APPID
  5
56
330
9
100
AcDbSymbolTableRecord
100
AcDbRegAppTableRecord
  2
ACAD
 70
     0
  0
APPID
  5
5E
330
9
100
AcDbSymbolTableRecord
100
AcDbRegAppTableRecord
  2
AcadAnnotative
 70
     0
  0
ENDTAB
  0
TABLE
  2
DIMSTYLE
  5
A
330
0
100
AcDbSymbolTable
 70
     2
100
AcDbDimStyleTable
 71
     0
  0
DIMSTYLE
105
58
330
A
100
AcDbSymbolTableRecord
100
AcDbDimStyleTableRecord
  2
Standard
 70
     0
340
55
  0
DIMSTYLE
105
59
330
A
100
AcDbSymbolTableRecord
100
AcDbDimStyleTableRecord
  2
Annotative
 70
     0
340
55
1001
AcadAnnotative
1000
AnnotativeData
1002
{
1070
     1
1070
     1
1002
}
  0
ENDTAB
  0
TABLE
  2
BLOCK_RECORD
  5
1
330
0
100
AcDbSymbolTable
 70
     1
  0
BLOCK_RECORD
  5
70
330
1
100
AcDbSymbolTableRecord
100
AcDbBlockTableRecord
  2
*Model_Space
340
73
 70
     0
280
     1
281
     0
  0
BLOCK_RECORD
  5
6C
330
1
100
AcDbSymbolTableRecord
100
AcDbBlockTableRecord
  2
*Paper_Space
340
6F
 70
     0
280
     1
281
     0
  0
BLOCK_RECORD
  5
74
330
1
100
AcDbSymbolTableRecord
100
AcDbBlockTableRecord
  2
*Paper_Space0
340
77
 70
     0
280
     1
281
     0
  0
ENDTAB
  0
ENDSEC
  0
SECTION
  2
BLOCKS
  0
BLOCK
  5
71
330
70
100
AcDbEntity
  8
0
100
AcDbBlockBegin
  2
*Model_Space
 70
     0
 10
0.0
 20
0.0
 30
0.0
  3
*Model_Space
  1

  0
ENDBLK
  5
72
330
70
100
AcDbEntity
  8
0
100
AcDbBlockEnd
  0
BLOCK
  5
6D
330
6C
100
AcDbEntity
 67
     1
  8
0
100
AcDbBlockBegin
  2
*Paper_Space
 70
     0
 10
0.0
 20
0.0
 30
0.0
  3
*Paper_Space
  1

  0
ENDBLK
  5
6E
330
6C
100
AcDbEntity
 67
     1
  8
0
100
AcDbBlockEnd
  0
BLOCK
  5
75
330
74
100
AcDbEntity
 67
     1
  8
0
100
AcDbBlockBegin
  2
*Paper_Space0
 70
     0
 10
0.0
 20
0.0
 30
0.0
  3
*Paper_Space0
  1

  0
ENDBLK
  5
76
330
74
100
AcDbEntity
 67
     1
  8
0
100
AcDbBlockEnd
  0
ENDSEC
  0
SECTION
  2
ENTITIES
  0
SPLINE
  5
79
330
70
100
AcDbEntity
  8
Luffy
100
AcDbSpline
210
0.0
220
0.0
230
1.0
 70
     9
 71
     3
 72
    23
 73
    19
 74
     0
 42
0.0000000001
 43
0.0000000001
 40
0.0
 40
0.0
 40
0.0
 40
0.0
 40
1.0
 40
1.0
 40
1.0
 40
2.0
 40
2.0
 40
2.0
 40
3.0
 40
3.0
 40
3.0
 40
4.0
 40
4.0
 40
4.0
 40
5.0
 40
5.0
 40
5.0
 40
6.0
 40
6.0
 40
6.0
 40
6.0
 10
3.955152723524305
 20
-9.052494472927516
 30
0.0
 10
4.033514234754774
 20
-8.982699076334634
 30
0.0
 10
3.841835869683159
 20
-8.902347140842012
 30
0.0
 10
3.915395948621961
 20
-9.006259494357637
 30
0.0
 10
3.792895846896701
 20
-8.932969835069444
 30
0.0
 10
4.095742119683159
 20
-8.8945804172092
 30
0.0
 10
3.922532823350694
 20
-9.120219760470918
 30
0.0
 10
3.922315809461805
 20
-9.120986938476562
 30
0.0
 10
3.922264946831596
 20
-9.121778700086805
 30
0.0
 10
3.922068277994791
 20
-9.122549268934461
 30
0.0
 10
3.922068277994791
 20
-9.122549268934461
 30
0.0
 10
4.009307861328125
 20
-9.122549268934461
 30
0.0
 10
4.009307861328125
 20
-9.122549268934461
 30
0.0
 10
4.01613532172309
 20
-9.098851521809894
 30
0.0
 10
4.027089436848958
 20
-9.07072279188368
 30
0.0
 10
4.043801201714409
 20
-9.037022908528644
 30
0.0
 10
3.954087999131944
 20
-8.690172831217447
 30
0.0
 10
3.677889506022135
 20
-9.082411872016058
 30
0.0
 10
3.955152723524305
 20
-9.052494472927516
 30
0.0
  0
HATCH
  5
7A
330
70
100
AcDbEntity
  8
Luffy
 62
   250
420
  2301728
440
 33554559
100
AcDbHatch
 10
0.0
 20
0.0
 30
0.0
210
0.0
220
0.0
230
1.0
  2
SOLID
 70
     1
 71
     1
 91
        1
 92
        1
 93
        1
 72
     4
 94
        3
 73
     0
 74
     0
 95
       23
 96
       19
 40
0.0
 40
0.0
 40
0.0
 40
0.0
 40
1.0
 40
1.0
 40
1.0
 40
2.0
 40
2.0
 40
2.0
 40
3.0
 40
3.0
 40
3.0
 40
4.0
 40
4.0
 40
4.0
 40
5.0
 40
5.0
 40
5.0
 40
6.0
 40
6.0
 40
6.0
 40
6.0
 10
3.955152723524305
 20
-9.052494472927516
 10
4.033514234754774
 20
-8.982699076334634
 10
3.841835869683159
 20
-8.902347140842012
 10
3.915395948621961
 20
-9.006259494357637
 10
3.792895846896701
 20
-8.932969835069444
 10
4.095742119683159
 20
-8.8945804172092
 10
3.922532823350694
 20
-9.120219760470918
 10
3.922315809461805
 20
-9.120986938476562
 10
3.922264946831596
 20
-9.121778700086805
 10
3.922068277994791
 20
-9.122549268934461
 10
3.922068277994791
 20
-9.122549268934461
 10
4.009307861328125
 20
-9.122549268934461
 10
4.009307861328125
 20
-9.122549268934461
 10
4.01613532172309
 20
-9.098851521809894
 10
4.027089436848958
 20
-9.07072279188368
 10
4.043801201714409
 20
-9.037022908528644
 10
3.954087999131944
 20
-8.690172831217447
 10
3.677889506022135
 20
-9.082411872016058
 10
3.955152723524305
 20
-9.052494472927516
 97
        0
 97
        1
330
79
 75
     2
 76
     1
 98
        1
 10
0.0
 20
0.0
450
        0
451
        0
460
0.0
461
0.0
452
        0
462
0.0
453
        0
470

  0
SPLINE
  5
7B
330
70
100
AcDbEntity
  8
Luffy
100
AcDbSpline
210
0.0
220
0.0
230
1.0
 70
     9
 71
     3
 72
    17
 73
    13
 74
     0
 42
0.0000000001
 43
0.0000000001
 40
0.0
 40
0.0
 40
0.0
 40
0.0
 40
1.0
 40
1.0
 40
1.0
 40
2.0
 40
2.0
 40
2.0
 40
3.0
 40
3.0
 40
3.0
 40
4.0
 40
4.0
 40
4.0
 40
4.0
 10
4.306507534450954
 20
-8.702748616536457
 30
0.0
 10
4.3225343492296
 20
-8.692408243815103
 30
0.0
 10
4.339680989583333
 20
-8.691806369357639
 30
0.0
 10
4.357582092285156
 20
-8.696730719672308
 30
0.0
 10
4.301345825195312
 20
-8.6898193359375
 30
0.0
 10
4.267001681857638
 20
-8.800504048665363
 30
0.0
 10
4.351819356282551
 20
-8.754515753851995
 30
0.0
 10
4.354929606119791
 20
-8.740439520941839
 30
0.0
 10
4.359614902072482
 20
-8.757025824652776
 30
0.0
 10
4.360785590277777
 20
-8.7644780476888
 30
0.0
 10
4.318995157877603
 20
-8.808526780870225
 30
0.0
 10
4.255477905273437
 20
-8.735294765896266
 30
0.0
 10
4.306507534450954
 20
-8.702748616536457
 30
0.0
  0
SPLINE
  5
7C
330
70
100
AcDbEntity
  8
Luffy
100
AcDbSpline
210
0.0
220
0.0
230
1.0
 70
     9
 71
     3
 72
    26
 73
    22
 74
     0
 42
0.0000000001
 43
0.0000000001
 40
0.0
 40
0.0
 40
0.0
 40
0.0
 40
1.0
 40
1.0
 40
1.0
 40
2.0
 40
2.0
 40
2.0
 40
3.0
 40
3.0
 40
3.0
 40
4.0
 40
4.0
 40
4.0
 40
5.0
 40
5.0
 40
5.0
 40
6.0
 40
6.0
 40
6.0
 40
7.0
 40
7.0
 40
7.0
 40
7.0
 10
4.639260186089409
 20
-8.667342291937933
 30
0.0
 10
4.596092224121093
 20
-8.419675191243488
 30
0.0
 10
4.310094197591145
 20
-8.700186835394964
 30
0.0
 10
4.554451836480034
 20
-8.68826209174262
 30
0.0
 10
4.598400539822048
 20
-8.665245903862846
 30
0.0
 10
4.55706787109375
 20
-8.596971299913194
 30
0.0
 10
4.521761576334634
 20
-8.641116672092014
 30
0.0
 10
4.519461737738715
 20
-8.656714545355901
 30
0.0
 10
4.506296793619791
 20
-8.632558186848957
 30
0.0
 10
4.520121256510416
 20
-8.629820929633245
 30
0.0
 10
4.579265170627169
 20
-8.588122049967447
 30
0.0
 10
4.6045167711046
 20
-8.681542290581596
 30
0.0
 10
4.551283942328558
 20
-8.701000637478298
 30
0.0
 10
4.480355156792534
 20
-8.719517178005641
 30
0.0
 10
4.446293301052516
 20
-8.638664245605468
 30
0.0
 10
4.378346761067708
 20
-8.630797492133245
 30
0.0
 10
3.989879184299045
 20
-8.681648254394531
 30
0.0
 10
4.507433573404947
 20
-9.003189086914062
 30
0.0
 10
4.377888149685329
 20
-8.70432620578342
 30
0.0
 10
4.463370429144965
 20
-8.743734571668836
 30
0.0
 10
4.562346564398871
 20
-8.86959499782986
 30
0.0
 10
4.639260186089409
 20
-8.667342291937933
 30
0.0
  0
HATCH
  5
7D
330
70
100
AcDbEntity
  8
Luffy
 62
   250
420
  2301728
440
 33554559
100
AcDbHatch
 10
0.0
 20
0.0
 30
0.0
210
0.0
220
0.0
230
1.0
  2
SOLID
 70
     1
 71
     1
 91
        2
 92
        1
 93
        1
 72
     4
 94
        3
 73
     0
 74
     0
 95
       17
 96
       13
 40
0.0
 40
0.0
 40
0.0
 40
0.0
 40
1.0
 40
1.0
 40
1.0
 40
2.0
 40
2.0
 40
2.0
 40
3.0
 40
3.0
 40
3.0
 40
4.0
 40
4.0
 40
4.0
 40
4.0
 10
4.306507534450954
 20
-8.702748616536457
 10
4.3225343492296
 20
-8.692408243815103
 10
4.339680989583333
 20
-8.691806369357639
 10
4.357582092285156
 20
-8.696730719672308
 10
4.301345825195312
 20
-8.6898193359375
 10
4.267001681857638
 20
-8.800504048665363
 10
4.351819356282551
 20
-8.754515753851995
 10
4.354929606119791
 20
-8.740439520941839
 10
4.359614902072482
 20
-8.757025824652776
 10
4.360785590277777
 20
-8.7644780476888
 10
4.318995157877603
 20
-8.808526780870225
 10
4.255477905273437
 20
-8.735294765896266
 10
4.306507534450954
 20
-8.702748616536457
 97
        0
 97
        1
330
7B
 92
        1
 93
        1
 72
     4
 94
        3
 73
     0
 74
     0
 95
       26
 96
       22
 40
0.0
 40
0.0
 40
0.0
 40
0.0
 40
1.0
 40
1.0
 40
1.0
 40
2.0
 40
2.0
 40
2.0
 40
3.0
 40
3.0
 40
3.0
 40
4.0
 40
4.0
 40
4.0
 40
5.0
 40
5.0
 40
5.0
 40
6.0
 40
6.0
 40
6.0
 40
7.0
 40
7.0
 40
7.0
 40
7.0
 10
4.639260186089409
 20
-8.667342291937933
 10
4.596092224121093
 20
-8.419675191243488
 10
4.310094197591145
 20
-8.700186835394964
 10
4.554451836480034
 20
-8.68826209174262
 10
4.598400539822048
 20
-8.665245903862846
 10
4.55706787109375
 20
-8.596971299913194
 10
4.521761576334634
 20
-8.641116672092014
 10
4.519461737738715
 20
-8.656714545355901
 10
4.506296793619791
 20
-8.632558186848957
 10
4.520121256510416
 20
-8.629820929633245
 10
4.579265170627169
 20
-8.588122049967447
 10
4.6045167711046
 20
-8.681542290581596
 10
4.551283942328558
 20
-8.701000637478298
 10
4.480355156792534
 20
-8.719517178005641
 10
4.446293301052516
 20
-8.638664245605468
 10
4.378346761067708
 20
-8.630797492133245
 10
3.989879184299045
 20
-8.681648254394531
 10
4.507433573404947
 20
-9.003189086914062
 10
4.377888149685329
 20
-8.70432620578342
 10
4.463370429144965
 20
-8.743734571668836
 10
4.562346564398871
 20
-8.86959499782986
 10
4.639260186089409
 20
-8.667342291937933
 97
        0
 97
        1
330
7C
 75
     2
 76
     1
 98
        1
 10
0.0
 20
0.0
450
        0
451
        0
460
0.0
461
0.0
452
        0
462
0.0
453
        0
470

  0
SPLINE
  5
7E
330
70
100
AcDbEntity
  8
Luffy
100
AcDbSpline
210
0.0
220
0.0
230
1.0
 70
     9
 71
     3
 72
    29
 73
    25
 74
     0
 42
0.0000000001
 43
0.0000000001
 40
0.0
 40
0.0
 40
0.0
 40
0.0
 40
1.0
 40
1.0
 40
1.0
 40
2.0
 40
2.0
 40
2.0
 40
3.0
 40
3.0
 40
3.0
 40
4.0
 40
4.0
 40
4.0
 40
5.0
 40
5.0
 40
5.0
 40
6.0
 40
6.0
 40
6.0
 40
7.0
 40
7.0
 40
7.0
 40
8.0
 40
8.0
 40
8.0
 40
8.0
 10
3.87815941704644
 20
-9.059872097439235
 30
0.0
 10
3.816993713378906
 20
-9.067988077799478
 30
0.0
 10
3.739536709255641
 20
-9.138883802625867
 30
0.0
 10
3.687739902072482
 20
-9.099753485785589
 30
0.0
 10
3.646497090657551
 20
-9.059694925944009
 30
0.0
 10
3.716150919596354
 20
-8.952228969997829
 30
0.0
 10
3.752174377441406
 20
-9.021474202473957
 30
0.0
 10
3.764015197753906
 20
-9.029025607638887
 30
0.0
 10
3.739679972330729
 20
-9.054807027180988
 30
0.0
 10
3.745099385579426
 20
-9.034896002875433
 30
0.0
 10
3.732988993326822
 20
-8.969839307996961
 30
0.0
 10
3.660279168023003
 20
-9.041464911566839
 30
0.0
 10
3.690936618381076
 20
-9.083101908365884
 30
0.0
 10
3.918019612630208
 20
-9.171631707085502
 30
0.0
 10
3.782307942708333
 20
-8.739615546332464
 30
0.0
 10
3.620313008626301
 20
-9.0316899617513
 30
0.0
 10
3.608922322591145
 20
-9.065406799316406
 30
0.0
 10
3.608582390679253
 20
-9.096355014377168
 30
0.0
 10
3.616025288899739
 20
-9.122549268934461
 30
0.0
 10
3.616025288899739
 20
-9.122549268934461
 30
0.0
 10
3.845624287923176
 20
-9.122549268934461
 30
0.0
 10
3.845624287923176
 20
-9.122549268934461
 30
0.0
 10
3.854378594292534
 20
-9.10403103298611
 30
0.0
 10
3.861914740668402
 20
-9.084197998046875
 30
0.0
 10
3.87815941704644
 20
-9.059872097439235
 30
0.0
  0
HATCH
  5
7F
330
70
100
AcDbEntity
  8
Luffy
 62
   250
420
  2301728
440
 33554559
100
AcDbHatch
 10
0.0
 20
0.0
 30
0.0
210
0.0
220
0.0
230
1.0
  2
SOLID
 70
     1
 71
     1
 91
        1
 92
        1
 93
        1
 72
     4
 94
        3
 73
     0
 74
     0
 95
       29
 96
       25
 40
0.0
 40
0.0
 40
0.0
 40
0.0
 40
1.0
 40
1.0
 40
1.0
 40
2.0
 40
2.0
 40
2.0
 40
3.0
 40
3.0
 40
3.0
 40
4.0
 40
4.0
 40
4.0
 40
5.0
 40
5.0
 40
5.0
 40
6.0
 40
6.0
 40
6.0
 40
7.0
 40
7.0
 40
7.0
 40
8.0
 40
8.0
 40
8.0
 40
8.0
 10
3.87815941704644
 20
-9.059872097439235
 10
3.816993713378906
 20
-9.067988077799478
 10
3.739536709255641
 20
-9.138883802625867
 10
3.687739902072482
 20
-9.099753485785589
 10
3.646497090657551
 20
-9.059694925944009
 10
3.716150919596354
 20
-8.952228969997829
 10
3.752174377441406
 20
-9.021474202473957
 10
3.764015197753906
 20
-9.029025607638887
 10
3.739679972330729
 20
-9.054807027180988
 10
3.745099385579426
 20
-9.034896002875433
 10
3.732988993326822
 20
-8.969839307996961
 10
3.660279168023003
 20
-9.041464911566839
 10
3.690936618381076
 20
-9.083101908365884
 10
3.918019612630208
 20
-9.171631707085502
 10
3.782307942708333
 20
-8.739615546332464
 10
3.620313008626301
 20
-9.0316899617513
 10
3.608922322591145
 20
-9.065406799316406
 10
3.608582390679253
 20
-9.096355014377168
 10
3.616025288899739
 20
-9.122549268934461
 10
3.616025288899739
 20
-9.122549268934461
 10
3.845624287923176
 20
-9.122549268934461
 10
3.845624287923176
 20
-9.122549268934461
 10
3.854378594292534
 20
-9.10403103298611
 10
3.861914740668402
 20
-9.084197998046875
 10
3.87815941704644
 20
-9.059872097439235
 97
        0
 97
        1
330
7E
 75
     2
 76
     1
 98
        1
 10
0.0
 20
0.0
450
        0
451
        0
460
0.0
461
0.0
452
        0
462
0.0
453
        0
470

  0
SPLINE
  5
80
330
70
100
AcDbEntity
  8
Luffy
100
AcDbSpline
210
0.0
220
0.0
230
1.0
 70
     9
 71
     3
 72
    26
 73
    22
 74
     0
 42
0.0000000001
 43
0.0000000001
 40
0.0
 40
0.0
 40
0.0
 40
0.0
 40
1.0
 40
1.0
 40
1.0
 40
2.0
 40
2.0
 40
2.0
 40
3.0
 40
3.0
 40
3.0
 40
4.0
 40
4.0
 40
4.0
 40
5.0
 40
5.0
 40
5.0
 40
6.0
 40
6.0
 40
6.0
 40
7.0
 40
7.0
 40
7.0
 40
7.0
 10
3.88765631781684
 20
-8.36056179470486
 30
0.0
 10
3.833508809407551
 20
-8.342832777235242
 30
0.0
 10
3.769408331976996
 20
-8.427324083116319
 30
0.0
 10
3.84572516547309
 20
-8.422218322753906
 30
0.0
 10
3.866969638400607
 20
-8.412290785047742
 30
0.0
 10
3.843471103244357
 20
-8.441019694010416
 30
0.0
 10
3.83219740125868
 20
-8.432046678331163
 30
0.0
 10
3.74561055501302
 20
-8.416275872124565
 30
0.0
 10
3.850917392306857
 20
-8.325658162434894
 30
0.0
 10
3.905731201171875
 20
-8.35348425971137
 30
0.0
 10
3.961940341525607
 20
-8.391215006510416
 30
0.0
 10
3.95721944173177
 20
-8.428404914008245
 30
0.0
 10
3.88534206814236
 20
-8.539223564995658
 30
0.0
 10
3.949043273925781
 20
-8.492390950520832
 30
0.0
 10
4.022558424207899
 20
-8.456672668457031
 30
0.0
 10
4.0085940890842
 20
-8.372418721516925
 30
0.0
 10
4.008188035753038
 20
-8.285361395941839
 30
0.0
 10
3.904641893174913
 20
-8.258615281846788
 30
0.0
 10
3.813222249348958
 20
-8.308629353841144
 30
0.0
 10
3.520679897732204
 20
-8.529881795247394
 30
0.0
 10
4.040270487467447
 20
-8.546662224663627
 30
0.0
 10
3.88765631781684
 20
-8.36056179470486
 30
0.0
  0
HATCH
  5
81
330
70
100
AcDbEntity
  8
Luffy
 62
   250
420
  2301728
440
 33554559
100
AcDbHatch
 10
0.0
 20
0.0
 30
0.0
210
0.0
220
0.0
230
1.0
  2
SOLID
 70
     1
 71
     1
 91
        1
 92
        1
 93
        1
 72
     4
 94
        3
 73
     0
 74
     0
 95
       26
 96
       22
 40
0.0
 40
0.0
 40
0.0
 40
0.0
 40
1.0
 40
1.0
 40
1.0
 40
2.0
 40
2.0
 40
2.0
 40
3.0
 40
3.0
 40
3.0
 40
4.0
 40
4.0
 40
4.0
 40
5.0
 40
5.0
 40
5.0
 40
6.0
 40
6.0
 40
6.0
 40
7.0
 40
7.0
 40
7.0
 40
7.0
 10
3.88765631781684
 20
-8.36056179470486
 10
3.833508809407551
 20
-8.342832777235242
 10
3.769408331976996
 20
-8.427324083116319
 10
3.84572516547309
 20
-8.422218322753906
 10
3.866969638400607
 20
-8.412290785047742
 10
3.843471103244357
 20
-8.441019694010416
 10
3.83219740125868
 20
-8.432046678331163
 10
3.74561055501302
 20
-8.416275872124565
 10
3.850917392306857
 20
-8.325658162434894
 10
3.905731201171875
 20
-8.35348425971137
 10
3.961940341525607
 20
-8.391215006510416
 10
3.95721944173177
 20
-8.428404914008245
 10
3.88534206814236
 20
-8.539223564995658
 10
3.949043273925781
 20
-8.492390950520832
 10
4.022558424207899
 20
-8.456672668457031
 10
4.0085940890842
 20
-8.372418721516925
 10
4.008188035753038
 20
-8.285361395941839
 10
3.904641893174913
 20
-8.258615281846788
 10
3.813222249348958
 20
-8.308629353841144
 10
3.520679897732204
 20
-8.529881795247394
 10
4.040270487467447
 20
-8.546662224663627
 10
3.88765631781684
 20
-8.36056179470486
 97
        0
 97
        1
330
80
 75
     2
 76
     1
 98
        1
 10
0.0
 20
0.0
450
        0
451
        0
460
0.0
461
0.0
452
        0
462
0.0
453
        0
470

  0
SPLINE
  5
82
330
70
100
AcDbEntity
  8
Luffy
100
AcDbSpline
210
0.0
220
0.0
230
1.0
 70
     9
 71
     3
 72
    23
 73
    19
 74
     0
 42
0.0000000001
 43
0.0000000001
 40
0.0
 40
0.0
 40
0.0
 40
0.0
 40
1.0
 40
1.0
 40
1.0
 40
2.0
 40
2.0
 40
2.0
 40
3.0
 40
3.0
 40
3.0
 40
4.0
 40
4.0
 40
4.0
 40
5.0
 40
5.0
 40
5.0
 40
6.0
 40
6.0
 40
6.0
 40
6.0
 10
4.329694112141926
 20
-8.184295654296875
 30
0.0
 10
4.329694112141926
 20
-8.184295654296875
 30
0.0
 10
4.241405910915798
 20
-8.184295654296875
 30
0.0
 10
4.241405910915798
 20
-8.184295654296875
 30
0.0
 10
4.238688151041666
 20
-8.204962836371526
 30
0.0
 10
4.257261488172742
 20
-8.227301703559026
 30
0.0
 10
4.284999423556857
 20
-8.207923889160156
 30
0.0
 10
4.290831671820746
 20
-8.194922553168401
 30
0.0
 10
4.297044542100694
 20
-8.219083150227863
 30
0.0
 10
4.283788045247395
 20
-8.218135409884983
 30
0.0
 10
4.247042338053384
 20
-8.230791727701822
 30
0.0
 10
4.231326633029513
 20
-8.20731692843967
 30
0.0
 10
4.234627617730034
 20
-8.184295654296875
 30
0.0
 10
4.234627617730034
 20
-8.184295654296875
 30
0.0
 10
4.183525933159722
 20
-8.184295654296875
 30
0.0
 10
4.183525933159722
 20
-8.184295654296875
 30
0.0
 10
4.190801832411024
 20
-8.341492546929252
 30
0.0
 10
4.405834621853298
 20
-8.244222005208332
 30
0.0
 10
4.329694112141926
 20
-8.184295654296875
 30
0.0
  0
HATCH
  5
83
330
70
100
AcDbEntity
  8
Luffy
 62
   250
420
  2301728
440
 33554559
100
AcDbHatch
 10
0.0
 20
0.0
 30
0.0
210
0.0
220
0.0
230
1.0
  2
SOLID
 70
     1
 71
     1
 91
        1
 92
        1
 93
        1
 72
     4
 94
        3
 73
     0
 74
     0
 95
       23
 96
       19
 40
0.0
 40
0.0
 40
0.0
 40
0.0
 40
1.0
 40
1.0
 40
1.0
 40
2.0
 40
2.0
 40
2.0
 40
3.0
 40
3.0
 40
3.0
 40
4.0
 40
4.0
 40
4.0
 40
5.0
 40
5.0
 40
5.0
 40
6.0
 40
6.0
 40
6.0
 40
6.0
 10
4.329694112141926
 20
-8.184295654296875
 10
4.329694112141926
 20
-8.184295654296875
 10
4.241405910915798
 20
-8.184295654296875
 10
4.241405910915798
 20
-8.184295654296875
 10
4.238688151041666
 20
-8.204962836371526
 10
4.257261488172742
 20
-8.227301703559026
 10
4.284999423556857
 20
-8.207923889160156
 10
4.290831671820746
 20
-8.194922553168401
 10
4.297044542100694
 20
-8.219083150227863
 10
4.283788045247395
 20
-8.218135409884983
 10
4.247042338053384
 20
-8.230791727701822
 10
4.231326633029513
 20
-8.20731692843967
 10
4.234627617730034
 20
-8.184295654296875
 10
4.234627617730034
 20
-8.184295654296875
 10
4.183525933159722
 20
-8.184295654296875
 10
4.183525933159722
 20
-8.184295654296875
 10
4.190801832411024
 20
-8.341492546929252
 10
4.405834621853298
 20
-8.244222005208332
 10
4.329694112141926
 20
-8.184295654296875
 97
        0
 97
        1
330
82
 75
     2
 76
     1
 98
        1
 10
0.0
 20
0.0
450
        0
451
        0
460
0.0
461
0.0
452
        0
462
0.0
453
        0
470

  0
SPLINE
  5
84
330
70
100
AcDbEntity
  8
Luffy
100
AcDbSpline
210
0.0
220
0.0
230
1.0
 70
     9
 71
     3
 72
    23
 73
    19
 74
     0
 42
0.0000000001
 43
0.0000000001
 40
0.0
 40
0.0
 40
0.0
 40
0.0
 40
1.0
 40
1.0
 40
1.0
 40
2.0
 40
2.0
 40
2.0
 40
3.0
 40
3.0
 40
3.0
 40
4.0
 40
4.0
 40
4.0
 40
5.0
 40
5.0
 40
5.0
 40
6.0
 40
6.0
 40
6.0
 40
6.0
 10
3.993881225585937
 20
-8.224522908528644
 30
0.0
 10
3.996712578667534
 20
-8.209552341037326
 30
0.0
 10
3.999960157606336
 20
-8.196239047580295
 30
0.0
 10
4.003504435221353
 20
-8.184295654296875
 30
0.0
 10
4.003504435221353
 20
-8.184295654296875
 30
0.0
 10
3.858630710177951
 20
-8.184295654296875
 30
0.0
 10
3.858630710177951
 20
-8.184295654296875
 30
0.0
 10
3.839310540093315
 20
-8.20848168267144
 30
0.0
 10
3.983334011501735
 20
-8.200939602322048
 30
0.0
 10
3.89890882703993
 20
-8.218744066026475
 30
0.0
 10
3.869640774197048
 20
-8.222345987955728
 30
0.0
 10
3.853400336371527
 20
-8.202675713433158
 30
0.0
 10
3.853156195746527
 20
-8.184295654296875
 30
0.0
 10
3.853156195746527
 20
-8.184295654296875
 30
0.0
 10
3.804144117567274
 20
-8.184295654296875
 30
0.0
 10
3.804144117567274
 20
-8.184295654296875
 30
0.0
 10
3.807469685872395
 20
-8.247688293457031
 30
0.0
 10
3.926327175564235
 20
-8.295474582248264
 30
0.0
 10
3.993881225585937
 20
-8.224522908528644
 30
0.0
  0
HATCH
  5
85
330
70
100
AcDbEntity
  8
Luffy
 62
   250
420
  2301728
440
 33554559
100
AcDbHatch
 10
0.0
 20
0.0
 30
0.0
210
0.0
220
0.0
230
1.0
  2
SOLID
 70
     1
 71
     1
 91
        1
 92
        1
 93
        1
 72
     4
 94
        3
 73
     0
 74
     0
 95
       23
 96
       19
 40
0.0
 40
0.0
 40
0.0
 40
0.0
 40
1.0
 40
1.0
 40
1.0
 40
2.0
 40
2.0
 40
2.0
 40
3.0
 40
3.0
 40
3.0
 40
4.0
 40
4.0
 40
4.0
 40
5.0
 40
5.0
 40
5.0
 40
6.0
 40
6.0
 40
6.0
 40
6.0
 10
3.993881225585937
 20
-8.224522908528644
 10
3.996712578667534
 20
-8.209552341037326
 10
3.999960157606336
 20
-8.196239047580295
 10
4.003504435221353
 20
-8.184295654296875
 10
4.003504435221353
 20
-8.184295654296875
 10
3.858630710177951
 20
-8.184295654296875
 10
3.858630710177951
 20
-8.184295654296875
 10
3.839310540093315
 20
-8.20848168267144
 10
3.983334011501735
 20
-8.200939602322048
 10
3.89890882703993
 20
-8.218744066026475
 10
3.869640774197048
 20
-8.222345987955728
 10
3.853400336371527
 20
-8.202675713433158
 10
3.853156195746527
 20
-8.184295654296875
 10
3.853156195746527
 20
-8.184295654296875
 10
3.804144117567274
 20
-8.184295654296875
 10
3.804144117567274
 20
-8.184295654296875
 10
3.807469685872395
 20
-8.247688293457031
 10
3.926327175564235
 20
-8.295474582248264
 10
3.993881225585937
 20
-8.224522908528644
 97
        0
 97
        1
330
84
 75
     2
 76
     1
 98
        1
 10
0.0
 20
0.0
450
        0
451
        0
460
0.0
461
0.0
452
        0
462
0.0
453
        0
470

  0
SPLINE
  5
86
330
70
100
AcDbEntity
  8
Luffy
100
AcDbSpline
210
0.0
220
0.0
230
1.0
 70
     9
 71
     3
 72
    29
 73
    25
 74
     0
 42
0.0000000001
 43
0.0000000001
 40
0.0
 40
0.0
 40
0.0
 40
0.0
 40
1.0
 40
1.0
 40
1.0
 40
2.0
 40
2.0
 40
2.0
 40
3.0
 40
3.0
 40
3.0
 40
4.0
 40
4.0
 40
4.0
 40
5.0
 40
5.0
 40
5.0
 40
6.0
 40
6.0
 40
6.0
 40
7.0
 40
7.0
 40
7.0
 40
8.0
 40
8.0
 40
8.0
 40
8.0
 10
3.281539069281683
 20
-8.201805114746093
 30
0.0
 10
3.247423807779947
 20
-8.186766730414495
 30
0.0
 10
3.21124521891276
 20
-8.250750223795572
 30
0.0
 10
3.258127848307291
 20
-8.248611450195312
 30
0.0
 10
3.270839267306857
 20
-8.24142116970486
 30
0.0
 10
3.257486979166666
 20
-8.263136121961805
 30
0.0
 10
3.250172932942708
 20
-8.255910237630207
 30
0.0
 10
3.196121215820312
 20
-8.241616143120658
 30
0.0
 10
3.257479349772135
 20
-8.173865424262151
 30
0.0
 10
3.292409261067708
 20
-8.196748521592882
 30
0.0
 10
3.32859378390842
 20
-8.227344936794704
 30
0.0
 10
3.327164543999565
 20
-8.256067911783853
 30
0.0
 10
3.287234836154513
 20
-8.340279473198783
 30
0.0
 10
3.32952880859375
 20
-8.303916083441839
 30
0.0
 10
3.369073655870225
 20
-8.271769205729166
 30
0.0
 10
3.356629265679253
 20
-8.213883293999565
 30
0.0
 10
3.356015523274739
 20
-8.202751159667968
 30
0.0
 10
3.353602091471354
 20
-8.192949083116319
 30
0.0
 10
3.349979824490016
 20
-8.184295654296875
 30
0.0
 10
3.349979824490016
 20
-8.184295654296875
 30
0.0
 10
3.210854424370659
 20
-8.184295654296875
 30
0.0
 10
3.210854424370659
 20
-8.184295654296875
 30
0.0
 10
3.094544304741753
 20
-8.326425340440538
 30
0.0
 10
3.377821180555555
 20
-8.34202151828342
 30
0.0
 10
3.281539069281683
 20
-8.201805114746093
 30
0.0
  0
HATCH
  5
87
330
70
100
AcDbEntity
  8
Luffy
 62
   250
420
  2301728
440
 33554559
100
AcDbHatch
 10
0.0
 20
0.0
 30
0.0
210
0.0
220
0.0
230
1.0
  2
SOLID
 70
     1
 71
     1
 91
        1
 92
        1
 93
        1
 72
     4
 94
        3
 73
     0
 74
     0
 95
       29
 96
       25
 40
0.0
 40
0.0
 40
0.0
 40
0.0
 40
1.0
 40
1.0
 40
1.0
 40
2.0
 40
2.0
 40
2.0
 40
3.0
 40
3.0
 40
3.0
 40
4.0
 40
4.0
 40
4.0
 40
5.0
 40
5.0
 40
5.0
 40
6.0
 40
6.0
 40
6.0
 40
7.0
 40
7.0
 40
7.0
 40
8.0
 40
8.0
 40
8.0
 40
8.0
 10
3.281539069281683
 20
-8.201805114746093
 10
3.247423807779947
 20
-8.186766730414495
 10
3.21124521891276
 20
-8.250750223795572
 10
3.258127848307291
 20
-8.248611450195312
 10
3.270839267306857
 20
-8.24142116970486
 10
3.257486979166666
 20
-8.263136121961805
 10
3.250172932942708
 20
-8.255910237630207
 10
3.196121215820312
 20
-8.241616143120658
 10
3.257479349772135
 20
-8.173865424262151
 10
3.292409261067708
 20
-8.196748521592882
 10
3.32859378390842
 20
-8.227344936794704
 10
3.327164543999565
 20
-8.256067911783853
 10
3.287234836154513
 20
-8.340279473198783
 10
3.32952880859375
 20
-8.303916083441839
 10
3.369073655870225
 20
-8.271769205729166
 10
3.356629265679253
 20
-8.213883293999565
 10
3.356015523274739
 20
-8.202751159667968
 10
3.353602091471354
 20
-8.192949083116319
 10
3.349979824490016
 20
-8.184295654296875
 10
3.349979824490016
 20
-8.184295654296875
 10
3.210854424370659
 20
-8.184295654296875
 10
3.210854424370659
 20
-8.184295654296875
 10
3.094544304741753
 20
-8.326425340440538
 10
3.377821180555555
 20
-8.34202151828342
 10
3.281539069281683
 20
-8.201805114746093
 97
        0
 97
        1
330
86
 75
     2
 76
     1
 98
        1
 10
0.0
 20
0.0
450
        0
451
        0
460
0.0
461
0.0
452
        0
462
0.0
453
        0
470

  0
SPLINE
  5
88
330
70
100
AcDbEntity
  8
Luffy
100
AcDbSpline
210
0.0
220
0.0
230
1.0
 70
     9
 71
     3
 72
    17
 73
    13
 74
     0
 42
0.0000000001
 43
0.0000000001
 40
0.0
 40
0.0
 40
0.0
 40
0.0
 40
1.0
 40
1.0
 40
1.0
 40
2.0
 40
2.0
 40
2.0
 40
3.0
 40
3.0
 40
3.0
 40
4.0
 40
4.0
 40
4.0
 40
4.0
 10
3.239072163899739
 20
-8.460360209147134
 30
0.0
 10
3.25681898328993
 20
-8.44705115424262
 30
0.0
 10
3.277208116319444
 20
-8.448482937282985
 30
0.0
 10
3.299234178331162
 20
-8.457663642035589
 30
0.0
 10
3.23413594563802
 20
-8.437906053331163
 30
0.0
 10
3.200631035698784
 20
-8.574892679850259
 30
0.0
 10
3.29218037923177
 20
-8.52450476752387
 30
0.0
 10
3.294568379720051
 20
-8.508033752441406
 30
0.0
 10
3.300860934787326
 20
-8.527968512641058
 30
0.0
 10
3.302669949001735
 20
-8.536866082085502
 30
0.0
 10
3.260231018066406
 20
-8.586390177408853
 30
0.0
 10
3.18573252360026
 20
-8.495678371853298
 30
0.0
 10
3.239072163899739
 20
-8.460360209147134
 30
0.0
  0
SPLINE
  5
89
330
70
100
AcDbEntity
  8
Luffy
100
AcDbSpline
210
0.0
220
0.0
230
1.0
 70
     9
 71
     3
 72
    29
 73
    25
 74
     0
 42
0.0000000001
 43
0.0000000001
 40
0.0
 40
0.0
 40
0.0
 40
0.0
 40
1.0
 40
1.0
 40
1.0
 40
2.0
 40
2.0
 40
2.0
 40
3.0
 40
3.0
 40
3.0
 40
4.0
 40
4.0
 40
4.0
 40
5.0
 40
5.0
 40
5.0
 40
6.0
 40
6.0
 40
6.0
 40
7.0
 40
7.0
 40
7.0
 40
8.0
 40
8.0
 40
8.0
 40
8.0
 10
3.288931952582465
 20
-8.612347073025173
 30
0.0
 10
3.375111897786458
 20
-8.597968207465276
 30
0.0
 10
3.381048414442274
 20
-8.510854085286457
 30
0.0
 10
3.315216912163628
 20
-8.465447319878471
 30
0.0
 10
3.409623040093315
 20
-8.517238193088108
 30
0.0
 10
3.528175354003906
 20
-8.674241807725694
 30
0.0
 10
3.599468655056423
 20
-8.439389546712238
 30
0.0
 10
3.534724765353732
 20
-8.143417358398437
 30
0.0
 10
3.242797003851996
 20
-8.457548353407117
 30
0.0
 10
3.508460998535156
 20
-8.458819071451822
 30
0.0
 10
3.55475362141927
 20
-8.434333801269531
 30
0.0
 10
3.50480482313368
 20
-8.350889417860242
 30
0.0
 10
3.469445122612846
 20
-8.400936550564235
 30
0.0
 10
3.468049791124131
 20
-8.419259813096788
 30
0.0
 10
3.45196787516276
 20
-8.389828999837238
 30
0.0
 10
3.466851128472221
 20
-8.387457953559026
 30
0.0
 10
3.52838389078776
 20
-8.341808742947048
 30
0.0
 10
3.562587314181857
 20
-8.454015096028644
 30
0.0
 10
3.505915323893229
 20
-8.473702324761283
 30
0.0
 10
3.429874844021266
 20
-8.491160074869791
 30
0.0
 10
3.386959499782985
 20
-8.393280029296875
 30
0.0
 10
3.312259250217013
 20
-8.379698859320745
 30
0.0
 10
3.136805216471354
 20
-8.345748901367187
 30
0.0
 10
3.11016845703125
 20
-8.602112664116752
 30
0.0
 10
3.288931952582465
 20
-8.612347073025173
 30
0.0
  0
HATCH
  5
8A
330
70
100
AcDbEntity
  8
Luffy
 62
   250
420
  2301728
440
 33554559
100
AcDbHatch
 10
0.0
 20
0.0
 30
0.0
210
0.0
220
0.0
230
1.0
  2
SOLID
 70
     1
 71
     1
 91
        2
 92
        1
 93
        1
 72
     4
 94
        3
 73
     0
 74
     0
 95
       17
 96
       13
 40
0.0
 40
0.0
 40
0.0
 40
0.0
 40
1.0
 40
1.0
 40
1.0
 40
2.0
 40
2.0
 40
2.0
 40
3.0
 40
3.0
 40
3.0
 40
4.0
 40
4.0
 40
4.0
 40
4.0
 10
3.239072163899739
 20
-8.460360209147134
 10
3.25681898328993
 20
-8.44705115424262
 10
3.277208116319444
 20
-8.448482937282985
 10
3.299234178331162
 20
-8.457663642035589
 10
3.23413594563802
 20
-8.437906053331163
 10
3.200631035698784
 20
-8.574892679850259
 10
3.29218037923177
 20
-8.52450476752387
 10
3.294568379720051
 20
-8.508033752441406
 10
3.300860934787326
 20
-8.527968512641058
 10
3.302669949001735
 20
-8.536866082085502
 10
3.260231018066406
 20
-8.586390177408853
 10
3.18573252360026
 20
-8.495678371853298
 10
3.239072163899739
 20
-8.460360209147134
 97
        0
 97
        1
330
88
 92
        1
 93
        1
 72
     4
 94
        3
 73
     0
 74
     0
 95
       29
 96
       25
 40
0.0
 40
0.0
 40
0.0
 40
0.0
 40
1.0
 40
1.0
 40
1.0
 40
2.0
 40
2.0
 40
2.0
 40
3.0
 40
3.0
 40
3.0
 40
4.0
 40
4.0
 40
4.0
 40
5.0
 40
5.0
 40
5.0
 40
6.0
 40
6.0
 40
6.0
 40
7.0
 40
7.0
 40
7.0
 40
8.0
 40
8.0
 40
8.0
 40
8.0
 10
3.288931952582465
 20
-8.612347073025173
 10
3.375111897786458
 20
-8.597968207465276
 10
3.381048414442274
 20
-8.510854085286457
 10
3.315216912163628
 20
-8.465447319878471
 10
3.409623040093315
 20
-8.517238193088108
 10
3.528175354003906
 20
-8.674241807725694
 10
3.599468655056423
 20
-8.439389546712238
 10
3.534724765353732
 20
-8.143417358398437
 10
3.242797003851996
 20
-8.457548353407117
 10
3.508460998535156
 20
-8.458819071451822
 10
3.55475362141927
 20
-8.434333801269531
 10
3.50480482313368
 20
-8.350889417860242
 10
3.469445122612846
 20
-8.400936550564235
 10
3.468049791124131
 20
-8.419259813096788
 10
3.45196787516276
 20
-8.389828999837238
 10
3.466851128472221
 20
-8.387457953559026
 10
3.52838389078776
 20
-8.341808742947048
 10
3.562587314181857
 20
-8.454015096028644
 10
3.505915323893229
 20
-8.473702324761283
 10
3.429874844021266
 20
-8.491160074869791
 10
3.386959499782985
 20
-8.393280029296875
 10
3.312259250217013
 20
-8.379698859320745
 10
3.136805216471354
 20
-8.345748901367187
 10
3.11016845703125
 20
-8.602112664116752
 10
3.288931952582465
 20
-8.612347073025173
 97
        0
 97
        1
330
89
 75
     2
 76
     1
 98
        1
 10
0.0
 20
0.0
450
        0
451
        0
460
0.0
461
0.0
452
        0
462
0.0
453
        0
470

  0
SPLINE
  5
8B
330
70
100
AcDbEntity
  8
Luffy
100
AcDbSpline
210
0.0
220
0.0
230
1.0
 70
     9
 71
     3
 72
    41
 73
    37
 74
     0
 42
0.0000000001
 43
0.0000000001
 40
0.0
 40
0.0
 40
0.0
 40
0.0
 40
1.0
 40
1.0
 40
1.0
 40
2.0
 40
2.0
 40
2.0
 40
3.0
 40
3.0
 40
3.0
 40
4.0
 40
4.0
 40
4.0
 40
5.0
 40
5.0
 40
5.0
 40
6.0
 40
6.0
 40
6.0
 40
7.0
 40
7.0
 40
7.0
 40
8.0
 40
8.0
 40
8.0
 40
9.0
 40
9.0
 40
9.0
 40
10.0
 40
10.0
 40
10.0
 40
11.0
 40
11.0
 40
11.0
 40
12.0
 40
12.0
 40
12.0
 40
12.0
 10
4.150348239474825
 20
-8.315912882486978
 30
0.0
 10
4.118651496039496
 20
-8.269371032714843
 30
0.0
 10
4.043841891818575
 20
-8.301606072319877
 30
0.0
 10
4.099154154459634
 20
-8.342286851671007
 30
0.0
 10
4.117557949490016
 20
-8.346568637424045
 30
0.0
 10
4.090927124023437
 20
-8.356526692708332
 30
0.0
 10
4.086194356282551
 20
-8.342464023166233
 30
0.0
 10
4.031062655978732
 20
-8.27845509847005
 30
0.0
 10
4.136928134494357
 20
-8.265395270453558
 30
0.0
 10
4.165523105197482
 20
-8.320688883463541
 30
0.0
 10
4.195002237955728
 20
-8.393412272135416
 30
0.0
 10
4.104744805230034
 20
-8.4168217976888
 30
0.0
 10
4.103212144639757
 20
-8.483233981662326
 30
0.0
 10
4.09757826063368
 20
-8.63888465033637
 30
0.0
 10
4.356207953559027
 20
-8.705322265625
 30
0.0
 10
4.337783813476562
 20
-8.542745802137586
 30
0.0
 10
4.313030666775173
 20
-8.477554321289062
 30
0.0
 10
4.253361172146266
 20
-8.445535447862413
 30
0.0
 10
4.207600063747829
 20
-8.475669013129339
 30
0.0
 10
4.11078389485677
 20
-8.538394504123264
 30
0.0
 10
4.327284918891058
 20
-8.635682000054252
 30
0.0
 10
4.250103420681423
 20
-8.525385538736978
 30
0.0
 10
4.233378092447916
 20
-8.520495096842447
 30
0.0
 10
4.252151489257812
 20
-8.517975701226127
 30
0.0
 10
4.260690477159288
 20
-8.517770555284288
 30
0.0
 10
4.316615634494357
 20
-8.564870198567707
 30
0.0
 10
4.238519456651475
 20
-8.618471781412759
 30
0.0
 10
4.194965786404079
 20
-8.563697814941406
 30
0.0
 10
4.132069057888454
 20
-8.48531511094835
 30
0.0
 10
4.235476175944009
 20
-8.466110229492187
 30
0.0
 10
4.251032511393228
 20
-8.410941229926214
 30
0.0
 10
4.281522962782117
 20
-8.338624742296007
 30
0.0
 10
4.198295593261718
 20
-8.241500854492187
 30
0.0
 10
4.116519504123263
 20
-8.229114956325954
 30
0.0
 10
3.833199395073784
 20
-8.240155537923175
 30
0.0
 10
4.191562228732638
 20
-8.559799194335937
 30
0.0
 10
4.150348239474825
 20
-8.315912882486978
 30
0.0
  0
HATCH
  5
8C
330
70
100
AcDbEntity
  8
Luffy
 62
   250
420
  2301728
440
 33554559
100
AcDbHatch
 10
0.0
 20
0.0
 30
0.0
210
0.0
220
0.0
230
1.0
  2
SOLID
 70
     1
 71
     1
 91
        1
 92
        1
 93
        1
 72
     4
 94
        3
 73
     0
 74
     0
 95
       41
 96
       37
 40
0.0
 40
0.0
 40
0.0
 40
0.0
 40
1.0
 40
1.0
 40
1.0
 40
2.0
 40
2.0
 40
2.0
 40
3.0
 40
3.0
 40
3.0
 40
4.0
 40
4.0
 40
4.0
 40
5.0
 40
5.0
 40
5.0
 40
6.0
 40
6.0
 40
6.0
 40
7.0
 40
7.0
 40
7.0
 40
8.0
 40
8.0
 40
8.0
 40
9.0
 40
9.0
 40
9.0
 40
10.0
 40
10.0
 40
10.0
 40
11.0
 40
11.0
 40
11.0
 40
12.0
 40
12.0
 40
12.0
 40
12.0
 10
4.150348239474825
 20
-8.315912882486978
 10
4.118651496039496
 20
-8.269371032714843
 10
4.043841891818575
 20
-8.301606072319877
 10
4.099154154459634
 20
-8.342286851671007
 10
4.117557949490016
 20
-8.346568637424045
 10
4.090927124023437
 20
-8.356526692708332
 10
4.086194356282551
 20
-8.342464023166233
 10
4.031062655978732
 20
-8.27845509847005
 10
4.136928134494357
 20
-8.265395270453558
 10
4.165523105197482
 20
-8.320688883463541
 10
4.195002237955728
 20
-8.393412272135416
 10
4.104744805230034
 20
-8.4168217976888
 10
4.103212144639757
 20
-8.483233981662326
 10
4.09757826063368
 20
-8.63888465033637
 10
4.356207953559027
 20
-8.705322265625
 10
4.337783813476562
 20
-8.542745802137586
 10
4.313030666775173
 20
-8.477554321289062
 10
4.253361172146266
 20
-8.445535447862413
 10
4.207600063747829
 20
-8.475669013129339
 10
4.11078389485677
 20
-8.538394504123264
 10
4.327284918891058
 20
-8.635682000054252
 10
4.250103420681423
 20
-8.525385538736978
 10
4.233378092447916
 20
-8.520495096842447
 10
4.252151489257812
 20
-8.517975701226127
 10
4.260690477159288
 20
-8.517770555284288
 10
4.316615634494357
 20
-8.564870198567707
 10
4.238519456651475
 20
-8.618471781412759
 10
4.194965786404079
 20
-8.563697814941406
 10
4.132069057888454
 20
-8.48531511094835
 10
4.235476175944009
 20
-8.466110229492187
 10
4.251032511393228
 20
-8.410941229926214
 10
4.281522962782117
 20
-8.338624742296007
 10
4.198295593261718
 20
-8.241500854492187
 10
4.116519504123263
 20
-8.229114956325954
 10
3.833199395073784
 20
-8.240155537923175
 10
4.191562228732638
 20
-8.559799194335937
 10
4.150348239474825
 20
-8.315912882486978
 97
        0
 97
        1
330
8B
 75
     2
 76
     1
 98
        1
 10
0.0
 20
0.0
450
        0
451
        0
460
0.0
461
0.0
452
        0
462
0.0
453
        0
470

  0
SPLINE
  5
8D
330
70
100
AcDbEntity
  8
Luffy
100
AcDbSpline
210
0.0
220
0.0
230
1.0
 70
     9
 71
     3
 72
    11
 73
     7
 74
     0
 42
0.0000000001
 43
0.0000000001
 40
0.0
 40
0.0
 40
0.0
 40
0.0
 40
1.0
 40
1.0
 40
1.0
 40
2.0
 40
2.0
 40
2.0
 40
2.0
 10
3.244233025444878
 20
-8.153422037760416
 30
0.0
 10
3.244233025444878
 20
-8.153422037760416
 30
0.0
 10
3.324619717068141
 20
-8.153422037760416
 30
0.0
 10
3.324619717068141
 20
-8.153422037760416
 30
0.0
 10
3.302737765842013
 20
-8.139322916666666
 30
0.0
 10
3.272744072808159
 20
-8.138561672634548
 30
0.0
 10
3.244233025444878
 20
-8.153422037760416
 30
0.0
  0
HATCH
  5
8E
330
70
100
AcDbEntity
  8
Luffy
 62
   250
420
  2301728
440
 33554559
100
AcDbHatch
 10
0.0
 20
0.0
 30
0.0
210
0.0
220
0.0
230
1.0
  2
SOLID
 70
     1
 71
     1
 91
        1
 92
        1
 93
        1
 72
     4
 94
        3
 73
     0
 74
     0
 95
       11
 96
        7
 40
0.0
 40
0.0
 40
0.0
 40
0.0
 40
1.0
 40
1.0
 40
1.0
 40
2.0
 40
2.0
 40
2.0
 40
2.0
 10
3.244233025444878
 20
-8.153422037760416
 10
3.244233025444878
 20
-8.153422037760416
 10
3.324619717068141
 20
-8.153422037760416
 10
3.324619717068141
 20
-8.153422037760416
 10
3.302737765842013
 20
-8.139322916666666
 10
3.272744072808159
 20
-8.138561672634548
 10
3.244233025444878
 20
-8.153422037760416
 97
        0
 97
        1
330
8D
 75
     2
 76
     1
 98
        1
 10
0.0
 20
0.0
450
        0
451
        0
460
0.0
461
0.0
452
        0
462
0.0
453
        0
470

  0
SPLINE
  5
8F
330
70
100
AcDbEntity
  8
Luffy
100
AcDbSpline
210
0.0
220
0.0
230
1.0
 70
     9
 71
     3
 72
    20
 73
    16
 74
     0
 42
0.0000000001
 43
0.0000000001
 40
0.0
 40
0.0
 40
0.0
 40
0.0
 40
1.0
 40
1.0
 40
1.0
 40
2.0
 40
2.0
 40
2.0
 40
3.0
 40
3.0
 40
3.0
 40
4.0
 40
4.0
 40
4.0
 40
5.0
 40
5.0
 40
5.0
 40
5.0
 10
3.496285332573784
 20
-8.185802035861545
 30
0.0
 10
3.450415717230902
 20
-8.176083034939235
 30
0.0
 10
3.43524678548177
 20
-8.252540588378906
 30
0.0
 10
3.488732231987846
 20
-8.241142272949218
 30
0.0
 10
3.500465393066406
 20
-8.230875651041666
 30
0.0
 10
3.494071960449218
 20
-8.257032606336805
 30
0.0
 10
3.482562594943576
 20
-8.250604417588975
 30
0.0
 10
3.433839586046006
 20
-8.247021145290798
 30
0.0
 10
3.441314697265625
 20
-8.203130086263019
 30
0.0
 10
3.467602199978298
 20
-8.184295654296875
 30
0.0
 10
3.467602199978298
 20
-8.184295654296875
 30
0.0
 10
3.40519544813368
 20
-8.184295654296875
 30
0.0
 10
3.40519544813368
 20
-8.184295654296875
 30
0.0
 10
3.336017184787326
 20
-8.356864929199218
 30
0.0
 10
3.665496826171875
 20
-8.318425496419269
 30
0.0
 10
3.496285332573784
 20
-8.185802035861545
 30
0.0
  0
HATCH
  5
90
330
70
100
AcDbEntity
  8
Luffy
 62
   250
420
  2301728
440
 33554559
100
AcDbHatch
 10
0.0
 20
0.0
 30
0.0
210
0.0
220
0.0
230
1.0
  2
SOLID
 70
     1
 71
     1
 91
        1
 92
        1
 93
        1
 72
     4
 94
        3
 73
     0
 74
     0
 95
       20
 96
       16
 40
0.0
 40
0.0
 40
0.0
 40
0.0
 40
1.0
 40
1.0
 40
1.0
 40
2.0
 40
2.0
 40
2.0
 40
3.0
 40
3.0
 40
3.0
 40
4.0
 40
4.0
 40
4.0
 40
5.0
 40
5.0
 40
5.0
 40
5.0
 10
3.496285332573784
 20
-8.185802035861545
 10
3.450415717230902
 20
-8.176083034939235
 10
3.43524678548177
 20
-8.252540588378906
 10
3.488732231987846
 20
-8.241142272949218
 10
3.500465393066406
 20
-8.230875651041666
 10
3.494071960449218
 20
-8.257032606336805
 10
3.482562594943576
 20
-8.250604417588975
 10
3.433839586046006
 20
-8.247021145290798
 10
3.441314697265625
 20
-8.203130086263019
 10
3.467602199978298
 20
-8.184295654296875
 10
3.467602199978298
 20
-8.184295654296875
 10
3.40519544813368
 20
-8.184295654296875
 10
3.40519544813368
 20
-8.184295654296875
 10
3.336017184787326
 20
-8.356864929199218
 10
3.665496826171875
 20
-8.318425496419269
 10
3.496285332573784
 20
-8.185802035861545
 97
        0
 97
        1
330
8F
 75
     2
 76
     1
 98
        1
 10
0.0
 20
0.0
450
        0
451
        0
460
0.0
461
0.0
452
        0
462
0.0
453
        0
470

  0
SPLINE
  5
91
330
70
100
AcDbEntity
  8
Luffy
100
AcDbSpline
210
0.0
220
0.0
230
1.0
 70
     9
 71
     3
 72
    38
 73
    34
 74
     0
 42
0.0000000001
 43
0.0000000001
 40
0.0
 40
0.0
 40
0.0
 40
0.0
 40
1.0
 40
1.0
 40
1.0
 40
2.0
 40
2.0
 40
2.0
 40
3.0
 40
3.0
 40
3.0
 40
4.0
 40
4.0
 40
4.0
 40
5.0
 40
5.0
 40
5.0
 40
6.0
 40
6.0
 40
6.0
 40
7.0
 40
7.0
 40
7.0
 40
8.0
 40
8.0
 40
8.0
 40
9.0
 40
9.0
 40
9.0
 40
10.0
 40
10.0
 40
10.0
 40
11.0
 40
11.0
 40
11.0
 40
11.0
 10
3.829217698838975
 20
-8.65250735812717
 30
0.0
 10
3.854755825466579
 20
-8.570884704589843
 30
0.0
 10
3.763762580023871
 20
-8.478266398111978
 30
0.0
 10
3.680358039008246
 20
-8.476198832194009
 30
0.0
 10
3.395292494032117
 20
-8.526815626356336
 30
0.0
 10
3.779971652560763
 20
-8.820069207085502
 30
0.0
 10
3.720762464735242
 20
-8.564522637261283
 30
0.0
 10
3.685418023003471
 20
-8.519019232855901
 30
0.0
 10
3.612266540527343
 20
-8.563784281412759
 30
0.0
 10
3.671014573838975
 20
-8.599777221679687
 30
0.0
 10
3.689893086751301
 20
-8.601843092176649
 30
0.0
 10
3.66374291314019
 20
-8.616154140896266
 30
0.0
 10
3.657951354980468
 20
-8.601741366916233
 30
0.0
 10
3.597699483235676
 20
-8.540740966796875
 30
0.0
 10
3.703571743435329
 20
-8.512258741590711
 30
0.0
 10
3.736418830023871
 20
-8.567559983995225
 30
0.0
 10
3.771418253580729
 20
-8.641406589084201
 30
0.0
 10
3.682041592068141
 20
-8.678835550944009
 30
0.0
 10
3.685295104980468
 20
-8.750169542100694
 30
0.0
 10
3.690858629014756
 20
-8.917634752061632
 30
0.0
 10
3.956610785590277
 20
-8.953373379177516
 30
0.0
 10
3.926272922092013
 20
-8.78178490532769
 30
0.0
 10
3.89658694797092
 20
-8.715357462565103
 30
0.0
 10
3.83406745062934
 20
-8.689236958821613
 30
0.0
 10
3.790072970920138
 20
-8.727774726019964
 30
0.0
 10
3.69692145453559
 20
-8.808207194010416
 30
0.0
 10
3.922395494249131
 20
-8.882752312554252
 30
0.0
 10
3.83655039469401
 20
-8.775198194715711
 30
0.0
 10
3.819322374131944
 20
-8.772250705295139
 30
0.0
 10
3.838082207573784
 20
-8.766983032226562
 30
0.0
 10
3.846707661946614
 20
-8.765597025553384
 30
0.0
 10
3.941235012478298
 20
-8.889742533365884
 30
0.0
 10
3.639341566297742
 20
-8.868995666503906
 30
0.0
 10
3.829217698838975
 20
-8.65250735812717
 30
0.0
  0
HATCH
  5
92
330
70
100
AcDbEntity
  8
Luffy
 62
   250
420
  2301728
440
 33554559
100
AcDbHatch
 10
0.0
 20
0.0
 30
0.0
210
0.0
220
0.0
230
1.0
  2
SOLID
 70
     1
 71
     1
 91
        1
 92
        1
 93
        1
 72
     4
 94
        3
 73
     0
 74
     0
 95
       38
 96
       34
 40
0.0
 40
0.0
 40
0.0
 40
0.0
 40
1.0
 40
1.0
 40
1.0
 40
2.0
 40
2.0
 40
2.0
 40
3.0
 40
3.0
 40
3.0
 40
4.0
 40
4.0
 40
4.0
 40
5.0
 40
5.0
 40
5.0
 40
6.0
 40
6.0
 40
6.0
 40
7.0
 40
7.0
 40
7.0
 40
8.0
 40
8.0
 40
8.0
 40
9.0
 40
9.0
 40
9.0
 40
10.0
 40
10.0
 40
10.0
 40
11.0
 40
11.0
 40
11.0
 40
11.0
 10
3.829217698838975
 20
-8.65250735812717
 10
3.854755825466579
 20
-8.570884704589843
 10
3.763762580023871
 20
-8.478266398111978
 10
3.680358039008246
 20
-8.476198832194009
 10
3.395292494032117
 20
-8.526815626356336
 10
3.779971652560763
 20
-8.820069207085502
 10
3.720762464735242
 20
-8.564522637261283
 10
3.685418023003471
 20
-8.519019232855901
 10
3.612266540527343
 20
-8.563784281412759
 10
3.671014573838975
 20
-8.599777221679687
 10
3.689893086751301
 20
-8.601843092176649
 10
3.66374291314019
 20
-8.616154140896266
 10
3.657951354980468
 20
-8.601741366916233
 10
3.597699483235676
 20
-8.540740966796875
 10
3.703571743435329
 20
-8.512258741590711
 10
3.736418830023871
 20
-8.567559983995225
 10
3.771418253580729
 20
-8.641406589084201
 10
3.682041592068141
 20
-8.678835550944009
 10
3.685295104980468
 20
-8.750169542100694
 10
3.690858629014756
 20
-8.917634752061632
 10
3.956610785590277
 20
-8.953373379177516
 10
3.926272922092013
 20
-8.78178490532769
 10
3.89658694797092
 20
-8.715357462565103
 10
3.83406745062934
 20
-8.689236958821613
 10
3.790072970920138
 20
-8.727774726019964
 10
3.69692145453559
 20
-8.808207194010416
 10
3.922395494249131
 20
-8.882752312554252
 10
3.83655039469401
 20
-8.775198194715711
 10
3.819322374131944
 20
-8.772250705295139
 10
3.838082207573784
 20
-8.766983032226562
 10
3.846707661946614
 20
-8.765597025553384
 10
3.941235012478298
 20
-8.889742533365884
 10
3.639341566297742
 20
-8.868995666503906
 10
3.829217698838975
 20
-8.65250735812717
 97
        0
 97
        1
330
91
 75
     2
 76
     1
 98
        1
 10
0.0
 20
0.0
450
        0
451
        0
460
0.0
461
0.0
452
        0
462
0.0
453
        0
470

  0
SPLINE
  5
93
330
70
100
AcDbEntity
  8
Luffy
100
AcDbSpline
210
0.0
220
0.0
230
1.0
 70
     9
 71
     3
 72
    14
 73
    10
 74
     0
 42
0.0000000001
 43
0.0000000001
 40
0.0
 40
0.0
 40
0.0
 40
0.0
 40
1.0
 40
1.0
 40
1.0
 40
2.0
 40
2.0
 40
2.0
 40
3.0
 40
3.0
 40
3.0
 40
3.0
 10
3.641368442111545
 20
-8.301241556803384
 30
0.0
 10
3.677241007486979
 20
-8.338723076714408
 30
0.0
 10
3.770651075575086
 20
-8.277882893880207
 30
0.0
 10
3.681923760308159
 20
-8.260459899902343
 30
0.0
 10
3.670606825086805
 20
-8.26908959282769
 30
0.0
 10
3.678063286675346
 20
-8.253800286187065
 30
0.0
 10
3.68206787109375
 20
-8.247494167751735
 30
0.0
 10
3.775588989257812
 20
-8.250421312120225
 30
0.0
 10
3.69419436984592
 20
-8.383558485243055
 30
0.0
 10
3.641368442111545
 20
-8.301241556803384
 30
0.0
  0
SPLINE
  5
94
330
70
100
AcDbEntity
  8
Luffy
100
AcDbSpline
210
0.0
220
0.0
230
1.0
 70
     9
 71
     3
 72
    17
 73
    13
 74
     0
 42
0.0000000001
 43
0.0000000001
 40
0.0
 40
0.0
 40
0.0
 40
0.0
 40
1.0
 40
1.0
 40
1.0
 40
2.0
 40
2.0
 40
2.0
 40
3.0
 40
3.0
 40
3.0
 40
4.0
 40
4.0
 40
4.0
 40
4.0
 10
3.628739251030815
 20
-8.256336636013454
 30
0.0
 10
3.620775858561197
 20
-8.273655361599391
 30
0.0
 10
3.617670694986979
 20
-8.228622436523437
 30
0.0
 10
3.600234137641058
 20
-8.184295654296875
 30
0.0
 10
3.600234137641058
 20
-8.184295654296875
 30
0.0
 10
3.51727803548177
 20
-8.184295654296875
 30
0.0
 10
3.51727803548177
 20
-8.184295654296875
 30
0.0
 10
3.565466139051649
 20
-8.217802259657117
 30
0.0
 10
3.542928059895833
 20
-8.292201571994358
 30
0.0
 10
3.583018832736545
 20
-8.336813184950086
 30
0.0
 10
3.851886325412326
 20
-8.530065748426649
 30
0.0
 10
3.782021416558159
 20
-8.021200391981336
 30
0.0
 10
3.628739251030815
 20
-8.256336636013454
 30
0.0
  0
HATCH
  5
95
330
70
100
AcDbEntity
  8
Luffy
 62
   250
420
  2301728
440
 33554559
100
AcDbHatch
 10
0.0
 20
0.0
 30
0.0
210
0.0
220
0.0
230
1.0
  2
SOLID
 70
     1
 71
     1
 91
        2
 92
        1
 93
        1
 72
     4
 94
        3
 73
     0
 74
     0
 95
       14
 96
       10
 40
0.0
 40
0.0
 40
0.0
 40
0.0
 40
1.0
 40
1.0
 40
1.0
 40
2.0
 40
2.0
 40
2.0
 40
3.0
 40
3.0
 40
3.0
 40
3.0
 10
3.641368442111545
 20
-8.301241556803384
 10
3.677241007486979
 20
-8.338723076714408
 10
3.770651075575086
 20
-8.277882893880207
 10
3.681923760308159
 20
-8.260459899902343
 10
3.670606825086805
 20
-8.26908959282769
 10
3.678063286675346
 20
-8.253800286187065
 10
3.68206787109375
 20
-8.247494167751735
 10
3.775588989257812
 20
-8.250421312120225
 10
3.69419436984592
 20
-8.383558485243055
 10
3.641368442111545
 20
-8.301241556803384
 97
        0
 97
        1
330
93
 92
        1
 93
        1
 72
     4
 94
        3
 73
     0
 74
     0
 95
       17
 96
       13
 40
0.0
 40
0.0
 40
0.0
 40
0.0
 40
1.0
 40
1.0
 40
1.0
 40
2.0
 40
2.0
 40
2.0
 40
3.0
 40
3.0
 40
3.0
 40
4.0
 40
4.0
 40
4.0
 40
4.0
 10
3.628739251030815
 20
-8.256336636013454
 10
3.620775858561197
 20
-8.273655361599391
 10
3.617670694986979
 20
-8.228622436523437
 10
3.600234137641058
 20
-8.184295654296875
 10
3.600234137641058
 20
-8.184295654296875
 10
3.51727803548177
 20
-8.184295654296875
 10
3.51727803548177
 20
-8.184295654296875
 10
3.565466139051649
 20
-8.217802259657117
 10
3.542928059895833
 20
-8.292201571994358
 10
3.583018832736545
 20
-8.336813184950086
 10
3.851886325412326
 20
-8.530065748426649
 10
3.782021416558159
 20
-8.021200391981336
 10
3.628739251030815
 20
-8.256336636013454
 97
        0
 97
        1
330
94
 75
     2
 76
     1
 98
        1
 10
0.0
 20
0.0
450
        0
451
        0
460
0.0
461
0.0
452
        0
462
0.0
453
        0
470

  0
SPLINE
  5
96
330
70
100
AcDbEntity
  8
Luffy
100
AcDbSpline
210
0.0
220
0.0
230
1.0
 70
     9
 71
     3
 72
    14
 73
    10
 74
     0
 42
0.0000000001
 43
0.0000000001
 40
0.0
 40
0.0
 40
0.0
 40
0.0
 40
1.0
 40
1.0
 40
1.0
 40
2.0
 40
2.0
 40
2.0
 40
3.0
 40
3.0
 40
3.0
 40
3.0
 10
4.016404893663194
 20
-8.663795471191406
 30
0.0
 10
4.020165337456597
 20
-8.597323099772134
 30
0.0
 10
3.85626729329427
 20
-8.583113776312933
 30
0.0
 10
3.94083997938368
 20
-8.664734734429252
 30
0.0
 10
3.959668477376301
 20
-8.664773729112413
 30
0.0
 10
3.939754062228732
 20
-8.673546685112846
 30
0.0
 10
3.930548773871527
 20
-8.676513671875
 30
0.0
 10
3.82898457845052
 20
-8.600713941786024
 30
0.0
 10
4.039662679036458
 20
-8.546579149034288
 30
0.0
 10
4.016404893663194
 20
-8.663795471191406
 30
0.0
  0
SPLINE
  5
97
330
70
100
AcDbEntity
  8
Luffy
100
AcDbSpline
210
0.0
220
0.0
230
1.0
 70
     9
 71
     3
 72
    29
 73
    25
 74
     0
 42
0.0000000001
 43
0.0000000001
 40
0.0
 40
0.0
 40
0.0
 40
0.0
 40
1.0
 40
1.0
 40
1.0
 40
2.0
 40
2.0
 40
2.0
 40
3.0
 40
3.0
 40
3.0
 40
4.0
 40
4.0
 40
4.0
 40
5.0
 40
5.0
 40
5.0
 40
6.0
 40
6.0
 40
6.0
 40
7.0
 40
7.0
 40
7.0
 40
8.0
 40
8.0
 40
8.0
 40
8.0
 10
4.080609639485676
 20
-8.863456726074218
 30
0.0
 10
4.12197028266059
 20
-8.904563056098089
 30
0.0
 10
4.197943793402777
 20
-8.845167371961805
 30
0.0
 10
4.131942749023437
 20
-8.818060133192274
 30
0.0
 10
4.111391703287759
 20
-8.819229125976562
 30
0.0
 10
4.138667636447482
 20
-8.799753824869791
 30
0.0
 10
4.145926581488715
 20
-8.813723246256509
 30
0.0
 10
4.215288798014322
 20
-8.866568671332464
 30
0.0
 10
4.102815416124132
 20
-8.914781358506944
 30
0.0
 10
4.063474867078992
 20
-8.863048977322048
 30
0.0
 10
4.020521375868055
 20
-8.792410956488714
 30
0.0
 10
4.114541795518663
 20
-8.73779296875
 30
0.0
 10
4.106080796983507
 20
-8.664192199707031
 30
0.0
 10
4.088457743326822
 20
-8.491038004557291
 30
0.0
 10
3.798704359266492
 20
-8.500558641221788
 30
0.0
 10
3.843396504720051
 20
-8.673643324110242
 30
0.0
 10
3.88613552517361
 20
-8.75448269314236
 30
0.0
 10
3.984161376953125
 20
-8.748509724934894
 30
0.0
 10
4.013201395670572
 20
-8.677905612521701
 30
0.0
 10
3.985756768120659
 20
-8.775089687771266
 30
0.0
 10
3.849626329210069
 20
-8.911465962727863
 30
0.0
 10
4.130409240722656
 20
-8.948198954264322
 30
0.0
 10
4.435053507486978
 20
-8.845493740505641
 30
0.0
 10
3.998891194661458
 20
-8.60813988579644
 30
0.0
 10
4.080609639485676
 20
-8.863456726074218
 30
0.0
  0
HATCH
  5
98
330
70
100
AcDbEntity
  8
Luffy
 62
   250
420
  2301728
440
 33554559
100
AcDbHatch
 10
0.0
 20
0.0
 30
0.0
210
0.0
220
0.0
230
1.0
  2
SOLID
 70
     1
 71
     1
 91
        2
 92
        1
 93
        1
 72
     4
 94
        3
 73
     0
 74
     0
 95
       14
 96
       10
 40
0.0
 40
0.0
 40
0.0
 40
0.0
 40
1.0
 40
1.0
 40
1.0
 40
2.0
 40
2.0
 40
2.0
 40
3.0
 40
3.0
 40
3.0
 40
3.0
 10
4.016404893663194
 20
-8.663795471191406
 10
4.020165337456597
 20
-8.597323099772134
 10
3.85626729329427
 20
-8.583113776312933
 10
3.94083997938368
 20
-8.664734734429252
 10
3.959668477376301
 20
-8.664773729112413
 10
3.939754062228732
 20
-8.673546685112846
 10
3.930548773871527
 20
-8.676513671875
 10
3.82898457845052
 20
-8.600713941786024
 10
4.039662679036458
 20
-8.546579149034288
 10
4.016404893663194
 20
-8.663795471191406
 97
        0
 97
        1
330
96
 92
        1
 93
        1
 72
     4
 94
        3
 73
     0
 74
     0
 95
       29
 96
       25
 40
0.0
 40
0.0
 40
0.0
 40
0.0
 40
1.0
 40
1.0
 40
1.0
 40
2.0
 40
2.0
 40
2.0
 40
3.0
 40
3.0
 40
3.0
 40
4.0
 40
4.0
 40
4.0
 40
5.0
 40
5.0
 40
5.0
 40
6.0
 40
6.0
 40
6.0
 40
7.0
 40
7.0
 40
7.0
 40
8.0
 40
8.0
 40
8.0
 40
8.0
 10
4.080609639485676
 20
-8.863456726074218
 10
4.12197028266059
 20
-8.904563056098089
 10
4.197943793402777
 20
-8.845167371961805
 10
4.131942749023437
 20
-8.818060133192274
 10
4.111391703287759
 20
-8.819229125976562
 10
4.138667636447482
 20
-8.799753824869791
 10
4.145926581488715
 20
-8.813723246256509
 10
4.215288798014322
 20
-8.866568671332464
 10
4.102815416124132
 20
-8.914781358506944
 10
4.063474867078992
 20
-8.863048977322048
 10
4.020521375868055
 20
-8.792410956488714
 10
4.114541795518663
 20
-8.73779296875
 10
4.106080796983507
 20
-8.664192199707031
 10
4.088457743326822
 20
-8.491038004557291
 10
3.798704359266492
 20
-8.500558641221788
 10
3.843396504720051
 20
-8.673643324110242
 10
3.88613552517361
 20
-8.75448269314236
 10
3.984161376953125
 20
-8.748509724934894
 10
4.013201395670572
 20
-8.677905612521701
 10
3.985756768120659
 20
-8.775089687771266
 10
3.849626329210069
 20
-8.911465962727863
 10
4.130409240722656
 20
-8.948198954264322
 10
4.435053507486978
 20
-8.845493740505641
 10
3.998891194661458
 20
-8.60813988579644
 10
4.080609639485676
 20
-8.863456726074218
 97
        0
 97
        1
330
97
 75
     2
 76
     1
 98
        1
 10
0.0
 20
0.0
450
        0
451
        0
460
0.0
461
0.0
452
        0
462
0.0
453
        0
470

  0
SPLINE
  5
99
330
70
100
AcDbEntity
  8
Luffy
100
AcDbSpline
210
0.0
220
0.0
230
1.0
 70
     9
 71
     3
 72
    20
 73
    16
 74
     0
 42
0.0000000001
 43
0.0000000001
 40
0.0
 40
0.0
 40
0.0
 40
0.0
 40
1.0
 40
1.0
 40
1.0
 40
2.0
 40
2.0
 40
2.0
 40
3.0
 40
3.0
 40
3.0
 40
4.0
 40
4.0
 40
4.0
 40
5.0
 40
5.0
 40
5.0
 40
5.0
 10
4.486482408311631
 20
-8.44657982720269
 30
0.0
 10
4.508453369140625
 20
-8.400566948784721
 30
0.0
 10
4.418934292263454
 20
-8.326793246799045
 30
0.0
 10
4.420929802788628
 20
-8.397151523166233
 30
0.0
 10
4.430801391601562
 20
-8.418294270833332
 30
0.0
 10
4.400443183051215
 20
-8.391660902235242
 30
0.0
 10
4.410790337456597
 20
-8.383018493652343
 30
0.0
 10
4.518096076117621
 20
-8.28127966986762
 30
0.0
 10
4.566112094455294
 20
-8.642698499891492
 30
0.0
 10
4.290927463107638
 20
-8.411759270562065
 30
0.0
 10
4.351166619194878
 20
-8.584058973524305
 30
0.0
 10
4.653532240125867
 20
-8.621953328450519
 30
0.0
 10
4.546871609157985
 20
-8.388371785481769
 30
0.0
 10
4.318330552842882
 20
-8.081759134928384
 30
0.0
 10
4.275460984971788
 20
-8.551354302300346
 30
0.0
 10
4.486482408311631
 20
-8.44657982720269
 30
0.0
  0
HATCH
  5
9A
330
70
100
AcDbEntity
  8
Luffy
 62
   250
420
  2301728
440
 33554559
100
AcDbHatch
 10
0.0
 20
0.0
 30
0.0
210
0.0
220
0.0
230
1.0
  2
SOLID
 70
     1
 71
     1
 91
        1
 92
        1
 93
        1
 72
     4
 94
        3
 73
     0
 74
     0
 95
       20
 96
       16
 40
0.0
 40
0.0
 40
0.0
 40
0.0
 40
1.0
 40
1.0
 40
1.0
 40
2.0
 40
2.0
 40
2.0
 40
3.0
 40
3.0
 40
3.0
 40
4.0
 40
4.0
 40
4.0
 40
5.0
 40
5.0
 40
5.0
 40
5.0
 10
4.486482408311631
 20
-8.44657982720269
 10
4.508453369140625
 20
-8.400566948784721
 10
4.418934292263454
 20
-8.326793246799045
 10
4.420929802788628
 20
-8.397151523166233
 10
4.430801391601562
 20
-8.418294270833332
 10
4.400443183051215
 20
-8.391660902235242
 10
4.410790337456597
 20
-8.383018493652343
 10
4.518096076117621
 20
-8.28127966986762
 10
4.566112094455294
 20
-8.642698499891492
 10
4.290927463107638
 20
-8.411759270562065
 10
4.351166619194878
 20
-8.584058973524305
 10
4.653532240125867
 20
-8.621953328450519
 10
4.546871609157985
 20
-8.388371785481769
 10
4.318330552842882
 20
-8.081759134928384
 10
4.275460984971788
 20
-8.551354302300346
 10
4.486482408311631
 20
-8.44657982720269
 97
        0
 97
        1
330
99
 75
     2
 76
     1
 98
        1
 10
0.0
 20
0.0
450
        0
451
        0
460
0.0
461
0.0
452
        0
462
0.0
453
        0
470

  0
SPLINE
  5
9B
330
70
100
AcDbEntity
  8
Luffy
100
AcDbSpline
210
0.0
220
0.0
230
1.0
 70
     9
 71
     3
 72
    26
 73
    22
 74
     0
 42
0.0000000001
 43
0.0000000001
 40
0.0
 40
0.0
 40
0.0
 40
0.0
 40
1.0
 40
1.0
 40
1.0
 40
2.0
 40
2.0
 40
2.0
 40
3.0
 40
3.0
 40
3.0
 40
4.0
 40
4.0
 40
4.0
 40
5.0
 40
5.0
 40
5.0
 40
6.0
 40
6.0
 40
6.0
 40
7.0
 40
7.0
 40
7.0
 40
7.0
 10
3.260299682617187
 20
-8.779927571614582
 30
0.0
 10
3.300164116753471
 20
-8.75954861111111
 30
0.0
 10
3.32890404595269
 20
-8.772025214301214
 30
0.0
 10
3.404402838812933
 20
-8.840515984429252
 30
0.0
 10
3.381282382541232
 20
-8.803426954481336
 30
0.0
 10
3.380238850911458
 20
-8.781906127929687
 30
0.0
 10
3.348772684733072
 20
-8.754655626085069
 30
0.0
 10
3.278734842936197
 20
-8.699774848090276
 30
0.0
 10
3.170882331000433
 20
-8.7210939195421
 30
0.0
 10
3.20840115017361
 20
-8.818067762586805
 30
0.0
 10
3.332975599500867
 20
-9.035530090332031
 30
0.0
 10
3.437504238552516
 20
-8.758588155110675
 30
0.0
 10
3.262755499945746
 20
-8.791605631510416
 30
0.0
 10
3.239156087239583
 20
-8.81620364718967
 30
0.0
 10
3.295084635416666
 20
-8.873458862304687
 30
0.0
 10
3.304417928059895
 20
-8.8307622273763
 30
0.0
 10
3.30025397406684
 20
-8.816608005099826
 30
0.0
 10
3.318971421983506
 20
-8.836997985839843
 30
0.0
 10
3.309859381781683
 20
-8.84071095784505
 30
0.0
 10
3.282123989529079
 20
-8.883400811089408
 30
0.0
 10
3.228556315104166
 20
-8.802193535698783
 30
0.0
 10
3.260299682617187
 20
-8.779927571614582
 30
0.0
  0
HATCH
  5
9C
330
70
100
AcDbEntity
  8
Luffy
 62
   250
420
  2301728
440
 33554559
100
AcDbHatch
 10
0.0
 20
0.0
 30
0.0
210
0.0
220
0.0
230
1.0
  2
SOLID
 70
     1
 71
     1
 91
        1
 92
        1
 93
        1
 72
     4
 94
        3
 73
     0
 74
     0
 95
       26
 96
       22
 40
0.0
 40
0.0
 40
0.0
 40
0.0
 40
1.0
 40
1.0
 40
1.0
 40
2.0
 40
2.0
 40
2.0
 40
3.0
 40
3.0
 40
3.0
 40
4.0
 40
4.0
 40
4.0
 40
5.0
 40
5.0
 40
5.0
 40
6.0
 40
6.0
 40
6.0
 40
7.0
 40
7.0
 40
7.0
 40
7.0
 10
3.260299682617187
 20
-8.779927571614582
 10
3.300164116753471
 20
-8.75954861111111
 10
3.32890404595269
 20
-8.772025214301214
 10
3.404402838812933
 20
-8.840515984429252
 10
3.381282382541232
 20
-8.803426954481336
 10
3.380238850911458
 20
-8.781906127929687
 10
3.348772684733072
 20
-8.754655626085069
 10
3.278734842936197
 20
-8.699774848090276
 10
3.170882331000433
 20
-8.7210939195421
 10
3.20840115017361
 20
-8.818067762586805
 10
3.332975599500867
 20
-9.035530090332031
 10
3.437504238552516
 20
-8.758588155110675
 10
3.262755499945746
 20
-8.791605631510416
 10
3.239156087239583
 20
-8.81620364718967
 10
3.295084635416666
 20
-8.873458862304687
 10
3.304417928059895
 20
-8.8307622273763
 10
3.30025397406684
 20
-8.816608005099826
 10
3.318971421983506
 20
-8.836997985839843
 10
3.309859381781683
 20
-8.84071095784505
 10
3.282123989529079
 20
-8.883400811089408
 10
3.228556315104166
 20
-8.802193535698783
 10
3.260299682617187
 20
-8.779927571614582
 97
        0
 97
        1
330
9B
 75
     2
 76
     1
 98
        1
 10
0.0
 20
0.0
450
        0
451
        0
460
0.0
461
0.0
452
        0
462
0.0
453
        0
470

  0
SPLINE
  5
9D
330
70
100
AcDbEntity
  8
Luffy
100
AcDbSpline
210
0.0
220
0.0
230
1.0
 70
     9
 71
     3
 72
    11
 73
     7
 74
     0
 42
0.0000000001
 43
0.0000000001
 40
0.0
 40
0.0
 40
0.0
 40
0.0
 40
1.0
 40
1.0
 40
1.0
 40
2.0
 40
2.0
 40
2.0
 40
2.0
 10
3.527867635091145
 20
-8.847249348958332
 30
0.0
 10
3.525300767686631
 20
-8.911109076605901
 30
0.0
 10
3.680427551269531
 20
-8.920673794216579
 30
0.0
 10
3.599464416503906
 20
-8.844286600748697
 30
0.0
 10
3.717737833658854
 20
-8.871993170844183
 30
0.0
 10
3.508321974012586
 20
-8.973613315158418
 30
0.0
 10
3.527867635091145
 20
-8.847249348958332
 30
0.0
  0
SPLINE
  5
9E
330
70
100
AcDbEntity
  8
Luffy
100
AcDbSpline
210
0.0
220
0.0
230
1.0
 70
     9
 71
     3
 72
    26
 73
    22
 74
     0
 42
0.0000000001
 43
0.0000000001
 40
0.0
 40
0.0
 40
0.0
 40
0.0
 40
1.0
 40
1.0
 40
1.0
 40
2.0
 40
2.0
 40
2.0
 40
3.0
 40
3.0
 40
3.0
 40
4.0
 40
4.0
 40
4.0
 40
5.0
 40
5.0
 40
5.0
 40
6.0
 40
6.0
 40
6.0
 40
7.0
 40
7.0
 40
7.0
 40
7.0
 10
3.442852444118923
 20
-8.848876105414495
 30
0.0
 10
3.580275641547308
 20
-9.198538886176214
 30
0.0
 10
3.873769124348958
 20
-8.69155799018012
 30
0.0
 10
3.548293219672308
 20
-8.806077745225694
 30
0.0
 10
3.539205763075086
 20
-8.81612565782335
 30
0.0
 10
3.533553229437933
 20
-8.82545216878255
 30
0.0
 10
3.5305421617296
 20
-8.83402591281467
 30
0.0
 10
3.537340799967447
 20
-8.806688944498697
 30
0.0
 10
3.55332522922092
 20
-8.770515441894531
 30
0.0
 10
3.58252461751302
 20
-8.723303900824651
 30
0.0
 10
3.602354261610242
 20
-8.636844211154514
 30
0.0
 10
3.502184549967447
 20
-8.56217532687717
 30
0.0
 10
3.416742960611979
 20
-8.576404995388454
 30
0.0
 10
3.129159715440537
 20
-8.682618035210502
 30
0.0
 10
3.5450685289171
 20
-8.90017361111111
 30
0.0
 10
3.464855617947048
 20
-8.656671312120225
 30
0.0
 10
3.425214131673176
 20
-8.618157280815971
 30
0.0
 10
3.353861490885416
 20
-8.677129109700519
 30
0.0
 10
3.416712443033854
 20
-8.701613532172308
 30
0.0
 10
3.285834418402777
 20
-8.695225185818141
 30
0.0
 10
3.590070088704426
 20
-8.486747741699218
 30
0.0
 10
3.442852444118923
 20
-8.848876105414495
 30
0.0
  0
HATCH
  5
9F
330
70
100
AcDbEntity
  8
Luffy
 62
   250
420
  2301728
440
 33554559
100
AcDbHatch
 10
0.0
 20
0.0
 30
0.0
210
0.0
220
0.0
230
1.0
  2
SOLID
 70
     1
 71
     1
 91
        2
 92
        1
 93
        1
 72
     4
 94
        3
 73
     0
 74
     0
 95
       11
 96
        7
 40
0.0
 40
0.0
 40
0.0
 40
0.0
 40
1.0
 40
1.0
 40
1.0
 40
2.0
 40
2.0
 40
2.0
 40
2.0
 10
3.527867635091145
 20
-8.847249348958332
 10
3.525300767686631
 20
-8.911109076605901
 10
3.680427551269531
 20
-8.920673794216579
 10
3.599464416503906
 20
-8.844286600748697
 10
3.717737833658854
 20
-8.871993170844183
 10
3.508321974012586
 20
-8.973613315158418
 10
3.527867635091145
 20
-8.847249348958332
 97
        0
 97
        1
330
9D
 92
        1
 93
        1
 72
     4
 94
        3
 73
     0
 74
     0
 95
       26
 96
       22
 40
0.0
 40
0.0
 40
0.0
 40
0.0
 40
1.0
 40
1.0
 40
1.0
 40
2.0
 40
2.0
 40
2.0
 40
3.0
 40
3.0
 40
3.0
 40
4.0
 40
4.0
 40
4.0
 40
5.0
 40
5.0
 40
5.0
 40
6.0
 40
6.0
 40
6.0
 40
7.0
 40
7.0
 40
7.0
 40
7.0
 10
3.442852444118923
 20
-8.848876105414495
 10
3.580275641547308
 20
-9.198538886176214
 10
3.873769124348958
 20
-8.69155799018012
 10
3.548293219672308
 20
-8.806077745225694
 10
3.539205763075086
 20
-8.81612565782335
 10
3.533553229437933
 20
-8.82545216878255
 10
3.5305421617296
 20
-8.83402591281467
 10
3.537340799967447
 20
-8.806688944498697
 10
3.55332522922092
 20
-8.770515441894531
 10
3.58252461751302
 20
-8.723303900824651
 10
3.602354261610242
 20
-8.636844211154514
 10
3.502184549967447
 20
-8.56217532687717
 10
3.416742960611979
 20
-8.576404995388454
 10
3.129159715440537
 20
-8.682618035210502
 10
3.5450685289171
 20
-8.90017361111111
 10
3.464855617947048
 20
-8.656671312120225
 10
3.425214131673176
 20
-8.618157280815971
 10
3.353861490885416
 20
-8.677129109700519
 10
3.416712443033854
 20
-8.701613532172308
 10
3.285834418402777
 20
-8.695225185818141
 10
3.590070088704426
 20
-8.486747741699218
 10
3.442852444118923
 20
-8.848876105414495
 97
        0
 97
        1
330
9E
 75
     2
 76
     1
 98
        1
 10
0.0
 20
0.0
450
        0
451
        0
460
0.0
461
0.0
452
        0
462
0.0
453
        0
470

  0
SPLINE
  5
A0
330
70
100
AcDbEntity
  8
Luffy
100
AcDbSpline
210
0.0
220
0.0
230
1.0
 70
     9
 71
     3
 72
    11
 73
     7
 74
     0
 42
0.0000000001
 43
0.0000000001
 40
0.0
 40
0.0
 40
0.0
 40
0.0
 40
1.0
 40
1.0
 40
1.0
 40
2.0
 40
2.0
 40
2.0
 40
2.0
 10
4.247572157118055
 20
-8.294540405273437
 30
0.0
 10
4.288262261284722
 20
-8.337831285264757
 30
0.0
 10
4.272919548882378
 20
-8.28805202907986
 30
0.0
 10
4.272469414605034
 20
-8.372857835557725
 30
0.0
 10
4.327818128797742
 20
-8.430904812282985
 30
0.0
 10
4.434906005859375
 20
-8.171427408854166
 30
0.0
 10
4.247572157118055
 20
-8.294540405273437
 30
0.0
  0
HATCH
  5
A1
330
70
100
AcDbEntity
  8
Luffy
 62
   250
420
  2301728
440
 33554559
100
AcDbHatch
 10
0.0
 20
0.0
 30
0.0
210
0.0
220
0.0
230
1.0
  2
SOLID
 70
     1
 71
     1
 91
        1
 92
        1
 93
        1
 72
     4
 94
        3
 73
     0
 74
     0
 95
       11
 96
        7
 40
0.0
 40
0.0
 40
0.0
 40
0.0
 40
1.0
 40
1.0
 40
1.0
 40
2.0
 40
2.0
 40
2.0
 40
2.0
 10
4.247572157118055
 20
-8.294540405273437
 10
4.288262261284722
 20
-8.337831285264757
 10
4.272919548882378
 20
-8.28805202907986
 10
4.272469414605034
 20
-8.372857835557725
 10
4.327818128797742
 20
-8.430904812282985
 10
4.434906005859375
 20
-8.171427408854166
 10
4.247572157118055
 20
-8.294540405273437
 97
        0
 97
        1
330
A0
 75
     2
 76
     1
 98
        1
 10
0.0
 20
0.0
450
        0
451
        0
460
0.0
461
0.0
452
        0
462
0.0
453
        0
470

  0
SPLINE
  5
A2
330
70
100
AcDbEntity
  8
Luffy
100
AcDbSpline
210
0.0
220
0.0
230
1.0
 70
     9
 71
     3
 72
    26
 73
    22
 74
     0
 42
0.0000000001
 43
0.0000000001
 40
0.0
 40
0.0
 40
0.0
 40
0.0
 40
1.0
 40
1.0
 40
1.0
 40
2.0
 40
2.0
 40
2.0
 40
3.0
 40
3.0
 40
3.0
 40
4.0
 40
4.0
 40
4.0
 40
5.0
 40
5.0
 40
5.0
 40
6.0
 40
6.0
 40
6.0
 40
7.0
 40
7.0
 40
7.0
 40
7.0
 10
2.995539347330728
 20
-8.537096659342447
 30
0.0
 10
3.020748562282986
 20
-8.559188842773437
 30
0.0
 10
3.026692708333333
 20
-8.575458950466579
 30
0.0
 10
3.055375840928819
 20
-8.587651570638019
 30
0.0
 10
3.117821587456596
 20
-8.610347323947483
 30
0.0
 10
3.188353644476996
 20
-8.563852945963541
 30
0.0
 10
3.138537089029947
 20
-8.499693128797742
 30
0.0
 10
2.998443603515625
 20
-8.367095947265625
 30
0.0
 10
2.99214850531684
 20
-8.609379238552516
 30
0.0
 10
3.106797960069444
 20
-8.535219828287759
 30
0.0
 10
3.117403666178385
 20
-8.509707132975259
 30
0.0
 10
3.064285278320312
 20
-8.481248643663194
 30
0.0
 10
3.068074544270833
 20
-8.51670922173394
 30
0.0
 10
3.074424743652343
 20
-8.526440090603298
 30
0.0
 10
3.056350708007812
 20
-8.515970865885416
 30
0.0
 10
3.061846415201822
 20
-8.510570949978298
 30
0.0
 10
3.070973714192708
 20
-8.469981723361545
 30
0.0
 10
3.128235710991753
 20
-8.517531500922308
 30
0.0
 10
3.111349317762586
 20
-8.543521457248264
 30
0.0
 10
3.088306003146701
 20
-8.570326063368055
 30
0.0
 10
3.065113491482204
 20
-8.568741692437065
 30
0.0
 10
2.995539347330728
 20
-8.537096659342447
 30
0.0
  0
HATCH
  5
A3
330
70
100
AcDbEntity
  8
Luffy
 62
   250
420
  2301728
440
 33554559
100
AcDbHatch
 10
0.0
 20
0.0
 30
0.0
210
0.0
220
0.0
230
1.0
  2
SOLID
 70
     1
 71
     1
 91
        1
 92
        1
 93
        1
 72
     4
 94
        3
 73
     0
 74
     0
 95
       26
 96
       22
 40
0.0
 40
0.0
 40
0.0
 40
0.0
 40
1.0
 40
1.0
 40
1.0
 40
2.0
 40
2.0
 40
2.0
 40
3.0
 40
3.0
 40
3.0
 40
4.0
 40
4.0
 40
4.0
 40
5.0
 40
5.0
 40
5.0
 40
6.0
 40
6.0
 40
6.0
 40
7.0
 40
7.0
 40
7.0
 40
7.0
 10
2.995539347330728
 20
-8.537096659342447
 10
3.020748562282986
 20
-8.559188842773437
 10
3.026692708333333
 20
-8.575458950466579
 10
3.055375840928819
 20
-8.587651570638019
 10
3.117821587456596
 20
-8.610347323947483
 10
3.188353644476996
 20
-8.563852945963541
 10
3.138537089029947
 20
-8.499693128797742
 10
2.998443603515625
 20
-8.367095947265625
 10
2.99214850531684
 20
-8.609379238552516
 10
3.106797960069444
 20
-8.535219828287759
 10
3.117403666178385
 20
-8.509707132975259
 10
3.064285278320312
 20
-8.481248643663194
 10
3.068074544270833
 20
-8.51670922173394
 10
3.074424743652343
 20
-8.526440090603298
 10
3.056350708007812
 20
-8.515970865885416
 10
3.061846415201822
 20
-8.510570949978298
 10
3.070973714192708
 20
-8.469981723361545
 10
3.128235710991753
 20
-8.517531500922308
 10
3.111349317762586
 20
-8.543521457248264
 10
3.088306003146701
 20
-8.570326063368055
 10
3.065113491482204
 20
-8.568741692437065
 10
2.995539347330728
 20
-8.537096659342447
 97
        0
 97
        1
330
A2
 75
     2
 76
     1
 98
        1
 10
0.0
 20
0.0
450
        0
451
        0
460
0.0
461
0.0
452
        0
462
0.0
453
        0
470

  0
SPLINE
  5
A4
330
70
100
AcDbEntity
  8
Luffy
100
AcDbSpline
210
0.0
220
0.0
230
1.0
 70
     9
 71
     3
 72
    14
 73
    10
 74
     0
 42
0.0000000001
 43
0.0000000001
 40
0.0
 40
0.0
 40
0.0
 40
0.0
 40
1.0
 40
1.0
 40
1.0
 40
2.0
 40
2.0
 40
2.0
 40
3.0
 40
3.0
 40
3.0
 40
3.0
 10
2.959225124782986
 20
-8.205378214518228
 30
0.0
 10
2.965998331705728
 20
-8.197965833875867
 30
0.0
 10
2.970768398708767
 20
-8.19096204969618
 30
0.0
 10
2.974178738064236
 20
-8.184295654296875
 30
0.0
 10
2.974178738064236
 20
-8.184295654296875
 30
0.0
 10
2.814989725748697
 20
-8.184295654296875
 30
0.0
 10
2.814989725748697
 20
-8.184295654296875
 30
0.0
 10
2.830129835340711
 20
-8.226444668240016
 30
0.0
 10
2.876481797960069
 20
-8.249908447265625
 30
0.0
 10
2.959225124782986
 20
-8.205378214518228
 30
0.0
  0
HATCH
  5
A5
330
70
100
AcDbEntity
  8
Luffy
 62
   250
420
  2301728
440
 33554559
100
AcDbHatch
 10
0.0
 20
0.0
 30
0.0
210
0.0
220
0.0
230
1.0
  2
SOLID
 70
     1
 71
     1
 91
        1
 92
        1
 93
        1
 72
     4
 94
        3
 73
     0
 74
     0
 95
       14
 96
       10
 40
0.0
 40
0.0
 40
0.0
 40
0.0
 40
1.0
 40
1.0
 40
1.0
 40
2.0
 40
2.0
 40
2.0
 40
3.0
 40
3.0
 40
3.0
 40
3.0
 10
2.959225124782986
 20
-8.205378214518228
 10
2.965998331705728
 20
-8.197965833875867
 10
2.970768398708767
 20
-8.19096204969618
 10
2.974178738064236
 20
-8.184295654296875
 10
2.974178738064236
 20
-8.184295654296875
 10
2.814989725748697
 20
-8.184295654296875
 10
2.814989725748697
 20
-8.184295654296875
 10
2.830129835340711
 20
-8.226444668240016
 10
2.876481797960069
 20
-8.249908447265625
 10
2.959225124782986
 20
-8.205378214518228
 97
        0
 97
        1
330
A4
 75
     2
 76
     1
 98
        1
 10
0.0
 20
0.0
450
        0
451
        0
460
0.0
461
0.0
452
        0
462
0.0
453
        0
470

  0
SPLINE
  5
A6
330
70
100
AcDbEntity
  8
Luffy
100
AcDbSpline
210
0.0
220
0.0
230
1.0
 70
     9
 71
     3
 72
    29
 73
    25
 74
     0
 42
0.0000000001
 43
0.0000000001
 40
0.0
 40
0.0
 40
0.0
 40
0.0
 40
1.0
 40
1.0
 40
1.0
 40
2.0
 40
2.0
 40
2.0
 40
3.0
 40
3.0
 40
3.0
 40
4.0
 40
4.0
 40
4.0
 40
5.0
 40
5.0
 40
5.0
 40
6.0
 40
6.0
 40
6.0
 40
7.0
 40
7.0
 40
7.0
 40
8.0
 40
8.0
 40
8.0
 40
8.0
 10
3.048441569010416
 20
-8.3616460164388
 30
0.0
 10
3.090548197428385
 20
-8.402083502875433
 30
0.0
 10
3.165228949652777
 20
-8.34129163953993
 30
0.0
 10
3.09879642062717
 20
-8.315299987792968
 30
0.0
 10
3.078301323784721
 20
-8.316827562120225
 30
0.0
 10
3.105150010850694
 20
-8.296853807237413
 30
0.0
 10
3.11267344156901
 20
-8.310714721679687
 30
0.0
 10
3.182968139648437
 20
-8.362417432996961
 30
0.0
 10
3.071625603569878
 20
-8.412647671169704
 30
0.0
 10
3.031306796603732
 20
-8.361536661783853
 30
0.0
 10
3.00138685438368
 20
-8.305179172092014
 30
0.0
 10
3.052476671006944
 20
-8.244273715549045
 30
0.0
 10
3.066663953993055
 20
-8.184295654296875
 30
0.0
 10
3.066663953993055
 20
-8.184295654296875
 30
0.0
 10
2.978324042426215
 20
-8.184295654296875
 30
0.0
 10
2.978324042426215
 20
-8.184295654296875
 30
0.0
 10
2.971677144368489
 20
-8.2124760945638
 30
0.0
 10
2.955229017469617
 20
-8.247695075141058
 30
0.0
 10
2.923867967393663
 20
-8.291268242730033
 30
0.0
 10
2.903718736436631
 20
-8.381117926703558
 30
0.0
 10
3.009922451443142
 20
-8.459714253743488
 30
0.0
 10
3.099835713704426
 20
-8.445627000596788
 30
0.0
 10
3.401969909667968
 20
-8.33749050564236
 30
0.0
 10
2.961810641818576
 20
-8.107435438368055
 30
0.0
 10
3.048441569010416
 20
-8.3616460164388
 30
0.0
  0
HATCH
  5
A7
330
70
100
AcDbEntity
  8
Luffy
 62
   250
420
  2301728
440
 33554559
100
AcDbHatch
 10
0.0
 20
0.0
 30
0.0
210
0.0
220
0.0
230
1.0
  2
SOLID
 70
     1
 71
     1
 91
        1
 92
        1
 93
        1
 72
     4
 94
        3
 73
     0
 74
     0
 95
       29
 96
       25
 40
0.0
 40
0.0
 40
0.0
 40
0.0
 40
1.0
 40
1.0
 40
1.0
 40
2.0
 40
2.0
 40
2.0
 40
3.0
 40
3.0
 40
3.0
 40
4.0
 40
4.0
 40
4.0
 40
5.0
 40
5.0
 40
5.0
 40
6.0
 40
6.0
 40
6.0
 40
7.0
 40
7.0
 40
7.0
 40
8.0
 40
8.0
 40
8.0
 40
8.0
 10
3.048441569010416
 20
-8.3616460164388
 10
3.090548197428385
 20
-8.402083502875433
 10
3.165228949652777
 20
-8.34129163953993
 10
3.09879642062717
 20
-8.315299987792968
 10
3.078301323784721
 20
-8.316827562120225
 10
3.105150010850694
 20
-8.296853807237413
 10
3.11267344156901
 20
-8.310714721679687
 10
3.182968139648437
 20
-8.362417432996961
 10
3.071625603569878
 20
-8.412647671169704
 10
3.031306796603732
 20
-8.361536661783853
 10
3.00138685438368
 20
-8.305179172092014
 10
3.052476671006944
 20
-8.244273715549045
 10
3.066663953993055
 20
-8.184295654296875
 10
3.066663953993055
 20
-8.184295654296875
 10
2.978324042426215
 20
-8.184295654296875
 10
2.978324042426215
 20
-8.184295654296875
 10
2.971677144368489
 20
-8.2124760945638
 10
2.955229017469617
 20
-8.247695075141058
 10
2.923867967393663
 20
-8.291268242730033
 10
2.903718736436631
 20
-8.381117926703558
 10
3.009922451443142
 20
-8.459714253743488
 10
3.099835713704426
 20
-8.445627000596788
 10
3.401969909667968
 20
-8.33749050564236
 10
2.961810641818576
 20
-8.107435438368055
 10
3.048441569010416
 20
-8.3616460164388
 97
        0
 97
        1
330
A6
 75
     2
 76
     1
 98
        1
 10
0.0
 20
0.0
450
        0
451
        0
460
0.0
461
0.0
452
        0
462
0.0
453
        0
470

  0
SPLINE
  5
A8
330
70
100
AcDbEntity
  8
Luffy
100
AcDbSpline
210
0.0
220
0.0
230
1.0
 70
     9
 71
     3
 72
    14
 73
    10
 74
     0
 42
0.0000000001
 43
0.0000000001
 40
0.0
 40
0.0
 40
0.0
 40
0.0
 40
1.0
 40
1.0
 40
1.0
 40
2.0
 40
2.0
 40
2.0
 40
3.0
 40
3.0
 40
3.0
 40
3.0
 10
2.90385267469618
 20
-8.542958577473957
 30
0.0
 10
2.889064364963107
 20
-8.539232889811197
 30
0.0
 10
2.906209309895833
 20
-8.535474989149305
 30
0.0
 10
2.913952297634548
 20
-8.534688313802082
 30
0.0
 10
2.979909261067708
 20
-8.62211185031467
 30
0.0
 10
2.806813557942708
 20
-8.624589708116319
 30
0.0
 10
2.843976338704426
 20
-8.530600653754339
 30
0.0
 10
2.832450018988715
 20
-8.587120056152343
 30
0.0
 10
2.95587158203125
 20
-8.629993014865451
 30
0.0
 10
2.90385267469618
 20
-8.542958577473957
 30
0.0
  0
SPLINE
  5
A9
330
70
100
AcDbEntity
  8
Luffy
100
AcDbSpline
210
0.0
220
0.0
230
1.0
 70
     9
 71
     3
 72
    26
 73
    22
 74
     0
 42
0.0000000001
 43
0.0000000001
 40
0.0
 40
0.0
 40
0.0
 40
0.0
 40
1.0
 40
1.0
 40
1.0
 40
2.0
 40
2.0
 40
2.0
 40
3.0
 40
3.0
 40
3.0
 40
4.0
 40
4.0
 40
4.0
 40
5.0
 40
5.0
 40
5.0
 40
6.0
 40
6.0
 40
6.0
 40
7.0
 40
7.0
 40
7.0
 40
7.0
 10
2.768115573459201
 20
-8.372599283854166
 30
0.0
 10
2.70658959282769
 20
-8.29322560628255
 30
0.0
 10
2.950025770399305
 20
-8.256496005588108
 30
0.0
 10
2.773917304144965
 20
-8.511029561360675
 30
0.0
 10
2.758207533094617
 20
-8.665724012586805
 30
0.0
 10
2.987514071994357
 20
-8.714229159884983
 30
0.0
 10
2.981942918565538
 20
-8.554285685221353
 30
0.0
 10
2.962164984809027
 20
-8.477369520399305
 30
0.0
 10
2.887685139973958
 20
-8.459971957736545
 30
0.0
 10
2.849900987413194
 20
-8.516127692328558
 30
0.0
 10
2.888436211480034
 20
-8.436027526855468
 30
0.0
 10
3.017301771375867
 20
-8.34405517578125
 30
0.0
 10
2.803280300564236
 20
-8.258196512858072
 30
0.0
 10
2.546365525987412
 20
-8.288162231445312
 30
0.0
 10
2.848576015896267
 20
-8.5810063680013
 30
0.0
 10
2.827946133083767
 20
-8.341979132758245
 30
0.0
 10
2.802462259928385
 20
-8.297964307996961
 30
0.0
 10
2.732625325520833
 20
-8.334944831000433
 30
0.0
 10
2.779860602484808
 20
-8.371563381618923
 30
0.0
 10
2.79620869954427
 20
-8.374573601616752
 30
0.0
 10
2.771451314290364
 20
-8.386233859592014
 30
0.0
 10
2.768115573459201
 20
-8.372599283854166
 30
0.0
  0
HATCH
  5
AA
330
70
100
AcDbEntity
  8
Luffy
 62
   250
420
  2301728
440
 33554559
100
AcDbHatch
 10
0.0
 20
0.0
 30
0.0
210
0.0
220
0.0
230
1.0
  2
SOLID
 70
     1
 71
     1
 91
        2
 92
        1
 93
        1
 72
     4
 94
        3
 73
     0
 74
     0
 95
       14
 96
       10
 40
0.0
 40
0.0
 40
0.0
 40
0.0
 40
1.0
 40
1.0
 40
1.0
 40
2.0
 40
2.0
 40
2.0
 40
3.0
 40
3.0
 40
3.0
 40
3.0
 10
2.90385267469618
 20
-8.542958577473957
 10
2.889064364963107
 20
-8.539232889811197
 10
2.906209309895833
 20
-8.535474989149305
 10
2.913952297634548
 20
-8.534688313802082
 10
2.979909261067708
 20
-8.62211185031467
 10
2.806813557942708
 20
-8.624589708116319
 10
2.843976338704426
 20
-8.530600653754339
 10
2.832450018988715
 20
-8.587120056152343
 10
2.95587158203125
 20
-8.629993014865451
 10
2.90385267469618
 20
-8.542958577473957
 97
        0
 97
        1
330
A8
 92
        1
 93
        1
 72
     4
 94
        3
 73
     0
 74
     0
 95
       26
 96
       22
 40
0.0
 40
0.0
 40
0.0
 40
0.0
 40
1.0
 40
1.0
 40
1.0
 40
2.0
 40
2.0
 40
2.0
 40
3.0
 40
3.0
 40
3.0
 40
4.0
 40
4.0
 40
4.0
 40
5.0
 40
5.0
 40
5.0
 40
6.0
 40
6.0
 40
6.0
 40
7.0
 40
7.0
 40
7.0
 40
7.0
 10
2.768115573459201
 20
-8.372599283854166
 10
2.70658959282769
 20
-8.29322560628255
 10
2.950025770399305
 20
-8.256496005588108
 10
2.773917304144965
 20
-8.511029561360675
 10
2.758207533094617
 20
-8.665724012586805
 10
2.987514071994357
 20
-8.714229159884983
 10
2.981942918565538
 20
-8.554285685221353
 10
2.962164984809027
 20
-8.477369520399305
 10
2.887685139973958
 20
-8.459971957736545
 10
2.849900987413194
 20
-8.516127692328558
 10
2.888436211480034
 20
-8.436027526855468
 10
3.017301771375867
 20
-8.34405517578125
 10
2.803280300564236
 20
-8.258196512858072
 10
2.546365525987412
 20
-8.288162231445312
 10
2.848576015896267
 20
-8.5810063680013
 10
2.827946133083767
 20
-8.341979132758245
 10
2.802462259928385
 20
-8.297964307996961
 10
2.732625325520833
 20
-8.334944831000433
 10
2.779860602484808
 20
-8.371563381618923
 10
2.79620869954427
 20
-8.374573601616752
 10
2.771451314290364
 20
-8.386233859592014
 10
2.768115573459201
 20
-8.372599283854166
 97
        0
 97
        1
330
A9
 75
     2
 76
     1
 98
        1
 10
0.0
 20
0.0
450
        0
451
        0
460
0.0
461
0.0
452
        0
462
0.0
453
        0
470

  0
SPLINE
  5
AB
330
70
100
AcDbEntity
  8
Luffy
100
AcDbSpline
210
0.0
220
0.0
230
1.0
 70
     9
 71
     3
 72
    14
 73
    10
 74
     0
 42
0.0000000001
 43
0.0000000001
 40
0.0
 40
0.0
 40
0.0
 40
0.0
 40
1.0
 40
1.0
 40
1.0
 40
2.0
 40
2.0
 40
2.0
 40
3.0
 40
3.0
 40
3.0
 40
3.0
 10
2.639077080620659
 20
-8.516810099283853
 30
0.0
 10
2.573316786024305
 20
-8.45016140407986
 30
0.0
 10
2.706746419270833
 20
-8.376679314507377
 30
0.0
 10
2.696367899576822
 20
-8.484144422743055
 30
0.0
 10
2.689845614963107
 20
-8.487251281738281
 30
0.0
 10
2.674424913194444
 20
-8.4923095703125
 30
0.0
 10
2.684349907769096
 20
-8.481648763020832
 30
0.0
 10
2.68347676595052
 20
-8.381382412380641
 30
0.0
 10
2.612210591634114
 20
-8.469484965006509
 30
0.0
 10
2.639077080620659
 20
-8.516810099283853
 30
0.0
  0
SPLINE
  5
AC
330
70
100
AcDbEntity
  8
Luffy
100
AcDbSpline
210
0.0
220
0.0
230
1.0
 70
     9
 71
     3
 72
    35
 73
    31
 74
     0
 42
0.0000000001
 43
0.0000000001
 40
0.0
 40
0.0
 40
0.0
 40
0.0
 40
1.0
 40
1.0
 40
1.0
 40
2.0
 40
2.0
 40
2.0
 40
3.0
 40
3.0
 40
3.0
 40
4.0
 40
4.0
 40
4.0
 40
5.0
 40
5.0
 40
5.0
 40
6.0
 40
6.0
 40
6.0
 40
7.0
 40
7.0
 40
7.0
 40
8.0
 40
8.0
 40
8.0
 40
9.0
 40
9.0
 40
9.0
 40
10.0
 40
10.0
 40
10.0
 40
10.0
 10
2.716650221082899
 20
-8.72263929578993
 30
0.0
 10
2.722285800509982
 20
-8.712261623806423
 30
0.0
 10
2.721261766221787
 20
-8.699655320909288
 30
0.0
 10
2.716231452094183
 20
-8.689325968424478
 30
0.0
 10
2.620013766818576
 20
-8.491729736328125
 30
0.0
 10
2.530565049913194
 20
-8.875897725423175
 30
0.0
 10
2.734041002061631
 20
-8.792363484700519
 30
0.0
 10
2.739622328016492
 20
-8.790071275499132
 30
0.0
 10
2.744764539930555
 20
-8.786229451497394
 30
0.0
 10
2.748697916666666
 20
-8.781550937228733
 30
0.0
 10
2.895225524902343
 20
-8.607262505425346
 30
0.0
 10
2.648549397786458
 20
-8.555325826009113
 30
0.0
 10
2.679027133517795
 20
-8.540896097819009
 30
0.0
 10
2.924358791775173
 20
-8.4208009507921
 30
0.0
 10
2.468800014919704
 20
-8.241176181369358
 30
0.0
 10
2.59497578938802
 20
-8.570042080349391
 30
0.0
 10
2.596119350857204
 20
-8.573021782769096
 30
0.0
 10
2.597616407606336
 20
-8.576025221082899
 30
0.0
 10
2.599474589029947
 20
-8.578587002224391
 30
0.0
 10
2.637219746907551
 20
-8.630637274848089
 30
0.0
 10
2.713979932996961
 20
-8.618497212727863
 30
0.0
 10
2.730344984266492
 20
-8.690803527832031
 30
0.0
 10
2.738460116916232
 20
-8.749514261881509
 30
0.0
 10
2.652114020453558
 20
-8.779025607638889
 30
0.0
 10
2.659234788682725
 20
-8.702574835883245
 30
0.0
 10
2.655266655815971
 20
-8.688620673285589
 30
0.0
 10
2.680553860134548
 20
-8.686954074435764
 30
0.0
 10
2.669045342339409
 20
-8.697736104329425
 30
0.0
 10
2.652608235677083
 20
-8.74473402235243
 30
0.0
 10
2.700780232747395
 20
-8.751866658528644
 30
0.0
 10
2.716650221082899
 20
-8.72263929578993
 30
0.0
  0
HATCH
  5
AD
330
70
100
AcDbEntity
  8
Luffy
 62
   250
420
  2301728
440
 33554559
100
AcDbHatch
 10
0.0
 20
0.0
 30
0.0
210
0.0
220
0.0
230
1.0
  2
SOLID
 70
     1
 71
     1
 91
        2
 92
        1
 93
        1
 72
     4
 94
        3
 73
     0
 74
     0
 95
       14
 96
       10
 40
0.0
 40
0.0
 40
0.0
 40
0.0
 40
1.0
 40
1.0
 40
1.0
 40
2.0
 40
2.0
 40
2.0
 40
3.0
 40
3.0
 40
3.0
 40
3.0
 10
2.639077080620659
 20
-8.516810099283853
 10
2.573316786024305
 20
-8.45016140407986
 10
2.706746419270833
 20
-8.376679314507377
 10
2.696367899576822
 20
-8.484144422743055
 10
2.689845614963107
 20
-8.487251281738281
 10
2.674424913194444
 20
-8.4923095703125
 10
2.684349907769096
 20
-8.481648763020832
 10
2.68347676595052
 20
-8.381382412380641
 10
2.612210591634114
 20
-8.469484965006509
 10
2.639077080620659
 20
-8.516810099283853
 97
        0
 97
        1
330
AB
 92
        1
 93
        1
 72
     4
 94
        3
 73
     0
 74
     0
 95
       35
 96
       31
 40
0.0
 40
0.0
 40
0.0
 40
0.0
 40
1.0
 40
1.0
 40
1.0
 40
2.0
 40
2.0
 40
2.0
 40
3.0
 40
3.0
 40
3.0
 40
4.0
 40
4.0
 40
4.0
 40
5.0
 40
5.0
 40
5.0
 40
6.0
 40
6.0
 40
6.0
 40
7.0
 40
7.0
 40
7.0
 40
8.0
 40
8.0
 40
8.0
 40
9.0
 40
9.0
 40
9.0
 40
10.0
 40
10.0
 40
10.0
 40
10.0
 10
2.716650221082899
 20
-8.72263929578993
 10
2.722285800509982
 20
-8.712261623806423
 10
2.721261766221787
 20
-8.699655320909288
 10
2.716231452094183
 20
-8.689325968424478
 10
2.620013766818576
 20
-8.491729736328125
 10
2.530565049913194
 20
-8.875897725423175
 10
2.734041002061631
 20
-8.792363484700519
 10
2.739622328016492
 20
-8.790071275499132
 10
2.744764539930555
 20
-8.786229451497394
 10
2.748697916666666
 20
-8.781550937228733
 10
2.895225524902343
 20
-8.607262505425346
 10
2.648549397786458
 20
-8.555325826009113
 10
2.679027133517795
 20
-8.540896097819009
 10
2.924358791775173
 20
-8.4208009507921
 10
2.468800014919704
 20
-8.241176181369358
 10
2.59497578938802
 20
-8.570042080349391
 10
2.596119350857204
 20
-8.573021782769096
 10
2.597616407606336
 20
-8.576025221082899
 10
2.599474589029947
 20
-8.578587002224391
 10
2.637219746907551
 20
-8.630637274848089
 10
2.713979932996961
 20
-8.618497212727863
 10
2.730344984266492
 20
-8.690803527832031
 10
2.738460116916232
 20
-8.749514261881509
 10
2.652114020453558
 20
-8.779025607638889
 10
2.659234788682725
 20
-8.702574835883245
 10
2.655266655815971
 20
-8.688620673285589
 10
2.680553860134548
 20
-8.686954074435764
 10
2.669045342339409
 20
-8.697736104329425
 10
2.652608235677083
 20
-8.74473402235243
 10
2.700780232747395
 20
-8.751866658528644
 10
2.716650221082899
 20
-8.72263929578993
 97
        0
 97
        1
330
AC
 75
     2
 76
     1
 98
        1
 10
0.0
 20
0.0
450
        0
451
        0
460
0.0
461
0.0
452
        0
462
0.0
453
        0
470

  0
SPLINE
  5
AE
330
70
100
AcDbEntity
  8
Luffy
100
AcDbSpline
210
0.0
220
0.0
230
1.0
 70
     9
 71
     3
 72
    14
 73
    10
 74
     0
 42
0.0000000001
 43
0.0000000001
 40
0.0
 40
0.0
 40
0.0
 40
0.0
 40
1.0
 40
1.0
 40
1.0
 40
2.0
 40
2.0
 40
2.0
 40
3.0
 40
3.0
 40
3.0
 40
3.0
 10
2.33034430609809
 20
-9.121005588107637
 30
0.0
 10
2.329221937391492
 20
-9.121544731987846
 30
0.0
 10
2.32817162407769
 20
-9.122020297580293
 30
0.0
 10
2.327061123318142
 20
-9.122549268934461
 30
0.0
 10
2.327061123318142
 20
-9.122549268934461
 30
0.0
 10
2.329963684082031
 20
-9.122549268934461
 30
0.0
 10
2.329963684082031
 20
-9.122549268934461
 30
0.0
 10
2.330073038736979
 20
-9.122022840711805
 30
0.0
 10
2.330239189995659
 20
-9.121534559461805
 30
0.0
 10
2.33034430609809
 20
-9.121005588107637
 30
0.0
  0
HATCH
  5
AF
330
70
100
AcDbEntity
  8
Luffy
 62
   250
420
  2301728
440
 33554559
100
AcDbHatch
 10
0.0
 20
0.0
 30
0.0
210
0.0
220
0.0
230
1.0
  2
SOLID
 70
     1
 71
     1
 91
        1
 92
        1
 93
        1
 72
     4
 94
        3
 73
     0
 74
     0
 95
       14
 96
       10
 40
0.0
 40
0.0
 40
0.0
 40
0.0
 40
1.0
 40
1.0
 40
1.0
 40
2.0
 40
2.0
 40
2.0
 40
3.0
 40
3.0
 40
3.0
 40
3.0
 10
2.33034430609809
 20
-9.121005588107637
 10
2.329221937391492
 20
-9.121544731987846
 10
2.32817162407769
 20
-9.122020297580293
 10
2.327061123318142
 20
-9.122549268934461
 10
2.327061123318142
 20
-9.122549268934461
 10
2.329963684082031
 20
-9.122549268934461
 10
2.329963684082031
 20
-9.122549268934461
 10
2.330073038736979
 20
-9.122022840711805
 10
2.330239189995659
 20
-9.121534559461805
 10
2.33034430609809
 20
-9.121005588107637
 97
        0
 97
        1
330
AE
 75
     2
 76
     1
 98
        1
 10
0.0
 20
0.0
450
        0
451
        0
460
0.0
461
0.0
452
        0
462
0.0
453
        0
470

  0
SPLINE
  5
B0
330
70
100
AcDbEntity
  8
Luffy
100
AcDbSpline
210
0.0
220
0.0
230
1.0
 70
     9
 71
     3
 72
    20
 73
    16
 74
     0
 42
0.0000000001
 43
0.0000000001
 40
0.0
 40
0.0
 40
0.0
 40
0.0
 40
1.0
 40
1.0
 40
1.0
 40
2.0
 40
2.0
 40
2.0
 40
3.0
 40
3.0
 40
3.0
 40
4.0
 40
4.0
 40
4.0
 40
5.0
 40
5.0
 40
5.0
 40
5.0
 10
2.422780354817708
 20
-9.056156582302516
 30
0.0
 10
2.361878289116753
 20
-9.100417243109808
 30
0.0
 10
2.343146430121527
 20
-8.972893608940971
 30
0.0
 10
2.396769205729166
 20
-8.956837972005207
 30
0.0
 10
2.407342698838975
 20
-8.965059916178384
 30
0.0
 10
2.41754404703776
 20
-8.972758822970918
 30
0.0
 10
2.427463107638888
 20
-8.980064392089843
 30
0.0
 10
2.417426215277777
 20
-8.97697279188368
 30
0.0
 10
2.405928717719183
 20
-8.974583095974391
 30
0.0
 10
2.392831590440537
 20
-8.97304958767361
 30
0.0
 10
2.348097059461805
 20
-8.99544694688585
 30
0.0
 10
2.384290907118055
 20
-9.092758178710937
 30
0.0
 10
2.421905517578125
 20
-9.040991041395399
 30
0.0
 10
2.425187004937065
 20
-9.020871480305988
 30
0.0
 10
2.436557345920138
 20
-9.055038452148437
 30
0.0
 10
2.422780354817708
 20
-9.056156582302516
 30
0.0
  0
SPLINE
  5
B1
330
70
100
AcDbEntity
  8
Luffy
100
AcDbSpline
210
0.0
220
0.0
230
1.0
 70
     9
 71
     3
 72
    44
 73
    40
 74
     0
 42
0.0000000001
 43
0.0000000001
 40
0.0
 40
0.0
 40
0.0
 40
0.0
 40
1.0
 40
1.0
 40
1.0
 40
2.0
 40
2.0
 40
2.0
 40
3.0
 40
3.0
 40
3.0
 40
4.0
 40
4.0
 40
4.0
 40
5.0
 40
5.0
 40
5.0
 40
6.0
 40
6.0
 40
6.0
 40
7.0
 40
7.0
 40
7.0
 40
8.0
 40
8.0
 40
8.0
 40
9.0
 40
9.0
 40
9.0
 40
10.0
 40
10.0
 40
10.0
 40
11.0
 40
11.0
 40
11.0
 40
12.0
 40
12.0
 40
12.0
 40
13.0
 40
13.0
 40
13.0
 40
13.0
 10
2.587380303276909
 20
-9.122549268934461
 30
0.0
 10
2.587380303276909
 20
-9.122549268934461
 30
0.0
 10
2.797058953179253
 20
-9.122549268934461
 30
0.0
 10
2.797058953179253
 20
-9.122549268934461
 30
0.0
 10
2.767450120713975
 20
-9.091395060221353
 30
0.0
 10
2.726216634114583
 20
-9.069730122884113
 30
0.0
 10
2.686534457736545
 20
-9.068812900119356
 30
0.0
 10
2.683558993869357
 20
-9.069347805447048
 30
0.0
 10
2.680762396918402
 20
-9.069947136773002
 30
0.0
 10
2.677931043836805
 20
-9.070534600151908
 30
0.0
 10
2.775675455729166
 20
-8.998555501302082
 30
0.0
 10
2.568993462456596
 20
-8.6225102742513
 30
0.0
 10
2.549160427517361
 20
-8.956269158257377
 30
0.0
 10
2.616964552137586
 20
-9.088778177897134
 30
0.0
 10
2.702383253309461
 20
-8.866774664984808
 30
0.0
 10
2.596481323242187
 20
-8.922264099121093
 30
0.0
 10
2.592501322428385
 20
-8.940235561794704
 30
0.0
 10
2.588977389865451
 20
-8.917557610405815
 30
0.0
 10
2.588322109646267
 20
-8.90751478407118
 30
0.0
 10
2.71057383219401
 20
-8.848663330078125
 30
0.0
 10
2.669119093153211
 20
-9.176103379991319
 30
0.0
 10
2.482233683268229
 20
-8.885379367404514
 30
0.0
 10
2.408431159125433
 20
-8.827206081814235
 30
0.0
 10
2.315999348958333
 20
-8.893865797254774
 30
0.0
 10
2.308042738172742
 20
-8.985340542263454
 30
0.0
 10
2.313971625434027
 20
-9.060665554470485
 30
0.0
 10
2.333827548556857
 20
-9.102774726019964
 30
0.0
 10
2.358241611056857
 20
-9.122549268934461
 30
0.0
 10
2.358241611056857
 20
-9.122549268934461
 30
0.0
 10
2.440522087944878
 20
-9.122549268934461
 30
0.0
 10
2.440522087944878
 20
-9.122549268934461
 30
0.0
 10
2.475907219780815
 20
-9.099024454752603
 30
0.0
 10
2.499085320366753
 20
-9.051064385308158
 30
0.0
 10
2.478063795301649
 20
-9.015336778428819
 30
0.0
 10
2.551279703776041
 20
-9.063199361165363
 30
0.0
 10
2.603127373589409
 20
-9.082034640842012
 30
0.0
 10
2.638520982530381
 20
-9.081971910264757
 30
0.0
 10
2.611527336968315
 20
-9.092697143554687
 30
0.0
 10
2.595562405056423
 20
-9.10689968532986
 30
0.0
 10
2.587380303276909
 20
-9.122549268934461
 30
0.0
  0
HATCH
  5
B2
330
70
100
AcDbEntity
  8
Luffy
 62
   250
420
  2301728
440
 33554559
100
AcDbHatch
 10
0.0
 20
0.0
 30
0.0
210
0.0
220
0.0
230
1.0
  2
SOLID
 70
     1
 71
     1
 91
        2
 92
        1
 93
        1
 72
     4
 94
        3
 73
     0
 74
     0
 95
       20
 96
       16
 40
0.0
 40
0.0
 40
0.0
 40
0.0
 40
1.0
 40
1.0
 40
1.0
 40
2.0
 40
2.0
 40
2.0
 40
3.0
 40
3.0
 40
3.0
 40
4.0
 40
4.0
 40
4.0
 40
5.0
 40
5.0
 40
5.0
 40
5.0
 10
2.422780354817708
 20
-9.056156582302516
 10
2.361878289116753
 20
-9.100417243109808
 10
2.343146430121527
 20
-8.972893608940971
 10
2.396769205729166
 20
-8.956837972005207
 10
2.407342698838975
 20
-8.965059916178384
 10
2.41754404703776
 20
-8.972758822970918
 10
2.427463107638888
 20
-8.980064392089843
 10
2.417426215277777
 20
-8.97697279188368
 10
2.405928717719183
 20
-8.974583095974391
 10
2.392831590440537
 20
-8.97304958767361
 10
2.348097059461805
 20
-8.99544694688585
 10
2.384290907118055
 20
-9.092758178710937
 10
2.421905517578125
 20
-9.040991041395399
 10
2.425187004937065
 20
-9.020871480305988
 10
2.436557345920138
 20
-9.055038452148437
 10
2.422780354817708
 20
-9.056156582302516
 97
        0
 97
        1
330
B0
 92
        1
 93
        1
 72
     4
 94
        3
 73
     0
 74
     0
 95
       44
 96
       40
 40
0.0
 40
0.0
 40
0.0
 40
0.0
 40
1.0
 40
1.0
 40
1.0
 40
2.0
 40
2.0
 40
2.0
 40
3.0
 40
3.0
 40
3.0
 40
4.0
 40
4.0
 40
4.0
 40
5.0
 40
5.0
 40
5.0
 40
6.0
 40
6.0
 40
6.0
 40
7.0
 40
7.0
 40
7.0
 40
8.0
 40
8.0
 40
8.0
 40
9.0
 40
9.0
 40
9.0
 40
10.0
 40
10.0
 40
10.0
 40
11.0
 40
11.0
 40
11.0
 40
12.0
 40
12.0
 40
12.0
 40
13.0
 40
13.0
 40
13.0
 40
13.0
 10
2.587380303276909
 20
-9.122549268934461
 10
2.587380303276909
 20
-9.122549268934461
 10
2.797058953179253
 20
-9.122549268934461
 10
2.797058953179253
 20
-9.122549268934461
 10
2.767450120713975
 20
-9.091395060221353
 10
2.726216634114583
 20
-9.069730122884113
 10
2.686534457736545
 20
-9.068812900119356
 10
2.683558993869357
 20
-9.069347805447048
 10
2.680762396918402
 20
-9.069947136773002
 10
2.677931043836805
 20
-9.070534600151908
 10
2.775675455729166
 20
-8.998555501302082
 10
2.568993462456596
 20
-8.6225102742513
 10
2.549160427517361
 20
-8.956269158257377
 10
2.616964552137586
 20
-9.088778177897134
 10
2.702383253309461
 20
-8.866774664984808
 10
2.596481323242187
 20
-8.922264099121093
 10
2.592501322428385
 20
-8.940235561794704
 10
2.588977389865451
 20
-8.917557610405815
 10
2.588322109646267
 20
-8.90751478407118
 10
2.71057383219401
 20
-8.848663330078125
 10
2.669119093153211
 20
-9.176103379991319
 10
2.482233683268229
 20
-8.885379367404514
 10
2.408431159125433
 20
-8.827206081814235
 10
2.315999348958333
 20
-8.893865797254774
 10
2.308042738172742
 20
-8.985340542263454
 10
2.313971625434027
 20
-9.060665554470485
 10
2.333827548556857
 20
-9.102774726019964
 10
2.358241611056857
 20
-9.122549268934461
 10
2.358241611056857
 20
-9.122549268934461
 10
2.440522087944878
 20
-9.122549268934461
 10
2.440522087944878
 20
-9.122549268934461
 10
2.475907219780815
 20
-9.099024454752603
 10
2.499085320366753
 20
-9.051064385308158
 10
2.478063795301649
 20
-9.015336778428819
 10
2.551279703776041
 20
-9.063199361165363
 10
2.603127373589409
 20
-9.082034640842012
 10
2.638520982530381
 20
-9.081971910264757
 10
2.611527336968315
 20
-9.092697143554687
 10
2.595562405056423
 20
-9.10689968532986
 10
2.587380303276909
 20
-9.122549268934461
 97
        0
 97
        1
330
B1
 75
     2
 76
     1
 98
        1
 10
0.0
 20
0.0
450
        0
451
        0
460
0.0
461
0.0
452
        0
462
0.0
453
        0
470

  0
SPLINE
  5
B3
330
70
100
AcDbEntity
  8
Luffy
100
AcDbSpline
210
0.0
220
0.0
230
1.0
 70
     9
 71
     3
 72
    26
 73
    22
 74
     0
 42
0.0000000001
 43
0.0000000001
 40
0.0
 40
0.0
 40
0.0
 40
0.0
 40
1.0
 40
1.0
 40
1.0
 40
2.0
 40
2.0
 40
2.0
 40
3.0
 40
3.0
 40
3.0
 40
4.0
 40
4.0
 40
4.0
 40
5.0
 40
5.0
 40
5.0
 40
6.0
 40
6.0
 40
6.0
 40
7.0
 40
7.0
 40
7.0
 40
7.0
 10
2.471670362684461
 20
-8.328429328070745
 30
0.0
 10
2.609860738118489
 20
-8.413922627766925
 30
0.0
 10
2.312171936035156
 20
-8.523105197482639
 30
0.0
 10
2.410936143663194
 20
-8.223717583550346
 30
0.0
 10
2.409808688693576
 20
-8.209460788302951
 30
0.0
 10
2.405730353461371
 20
-8.196366204155815
 30
0.0
 10
2.399788750542534
 20
-8.184295654296875
 30
0.0
 10
2.399788750542534
 20
-8.184295654296875
 30
0.0
 10
2.286908467610676
 20
-8.184295654296875
 30
0.0
 10
2.286908467610676
 20
-8.184295654296875
 30
0.0
 10
2.306588066948784
 20
-8.209908379448783
 30
0.0
 10
2.319567362467447
 20
-8.269742329915363
 30
0.0
 10
2.311497158474392
 20
-8.388778686523437
 30
0.0
 10
2.565608554416232
 20
-8.709584554036457
 30
0.0
 10
2.684713575575086
 20
-8.11158498128255
 30
0.0
 10
2.402862548828125
 20
-8.31724633110894
 30
0.0
 10
2.345230950249565
 20
-8.441285027398002
 30
0.0
 10
2.589550442165798
 20
-8.409879048665363
 30
0.0
 10
2.465705871582031
 20
-8.342782762315538
 30
0.0
 10
2.448107401529947
 20
-8.347926669650608
 30
0.0
 10
2.46396976047092
 20
-8.333860609266492
 30
0.0
 10
2.471670362684461
 20
-8.328429328070745
 30
0.0
  0
HATCH
  5
B4
330
70
100
AcDbEntity
  8
Luffy
 62
   250
420
  2301728
440
 33554559
100
AcDbHatch
 10
0.0
 20
0.0
 30
0.0
210
0.0
220
0.0
230
1.0
  2
SOLID
 70
     1
 71
     1
 91
        1
 92
        1
 93
        1
 72
     4
 94
        3
 73
     0
 74
     0
 95
       26
 96
       22
 40
0.0
 40
0.0
 40
0.0
 40
0.0
 40
1.0
 40
1.0
 40
1.0
 40
2.0
 40
2.0
 40
2.0
 40
3.0
 40
3.0
 40
3.0
 40
4.0
 40
4.0
 40
4.0
 40
5.0
 40
5.0
 40
5.0
 40
6.0
 40
6.0
 40
6.0
 40
7.0
 40
7.0
 40
7.0
 40
7.0
 10
2.471670362684461
 20
-8.328429328070745
 10
2.609860738118489
 20
-8.413922627766925
 10
2.312171936035156
 20
-8.523105197482639
 10
2.410936143663194
 20
-8.223717583550346
 10
2.409808688693576
 20
-8.209460788302951
 10
2.405730353461371
 20
-8.196366204155815
 10
2.399788750542534
 20
-8.184295654296875
 10
2.399788750542534
 20
-8.184295654296875
 10
2.286908467610676
 20
-8.184295654296875
 10
2.286908467610676
 20
-8.184295654296875
 10
2.306588066948784
 20
-8.209908379448783
 10
2.319567362467447
 20
-8.269742329915363
 10
2.311497158474392
 20
-8.388778686523437
 10
2.565608554416232
 20
-8.709584554036457
 10
2.684713575575086
 20
-8.11158498128255
 10
2.402862548828125
 20
-8.31724633110894
 10
2.345230950249565
 20
-8.441285027398002
 10
2.589550442165798
 20
-8.409879048665363
 10
2.465705871582031
 20
-8.342782762315538
 10
2.448107401529947
 20
-8.347926669650608
 10
2.46396976047092
 20
-8.333860609266492
 10
2.471670362684461
 20
-8.328429328070745
 97
        0
 97
        1
330
B3
 75
     2
 76
     1
 98
        1
 10
0.0
 20
0.0
450
        0
451
        0
460
0.0
461
0.0
452
        0
462
0.0
453
        0
470

  0
SPLINE
  5
B5
330
70
100
AcDbEntity
  8
Luffy
100
AcDbSpline
210
0.0
220
0.0
230
1.0
 70
     9
 71
     3
 72
    23
 73
    19
 74
     0
 42
0.0000000001
 43
0.0000000001
 40
0.0
 40
0.0
 40
0.0
 40
0.0
 40
1.0
 40
1.0
 40
1.0
 40
2.0
 40
2.0
 40
2.0
 40
3.0
 40
3.0
 40
3.0
 40
4.0
 40
4.0
 40
4.0
 40
5.0
 40
5.0
 40
5.0
 40
6.0
 40
6.0
 40
6.0
 40
6.0
 10
5.033354017469617
 20
-8.512970818413627
 30
0.0
 10
4.983532375759548
 20
-8.507196214463975
 30
0.0
 10
4.940500047471787
 20
-8.536890665690103
 30
0.0
 10
4.953178405761718
 20
-8.612230088975694
 30
0.0
 10
4.971304999457465
 20
-8.656735738118488
 30
0.0
 10
5.003161112467447
 20
-8.683305528428819
 30
0.0
 10
5.033354017469617
 20
-8.683346218532985
 30
0.0
 10
5.033354017469617
 20
-8.683346218532985
 30
0.0
 10
5.033354017469617
 20
-8.627972073025173
 30
0.0
 10
5.033354017469617
 20
-8.627972073025173
 30
0.0
 10
5.030351426866318
 20
-8.629550509982639
 30
0.0
 10
5.024466620551215
 20
-8.630785624186197
 30
0.0
 10
5.020763821072048
 20
-8.631220499674478
 30
0.0
 10
4.985535515679253
 20
-8.601799858940971
 30
0.0
 10
5.004653082953558
 20
-8.564474317762586
 30
0.0
 10
5.033354017469617
 20
-8.560992770724826
 30
0.0
 10
5.033354017469617
 20
-8.560992770724826
 30
0.0
 10
5.033354017469617
 20
-8.512970818413627
 30
0.0
 10
5.033354017469617
 20
-8.512970818413627
 30
0.0
  0
HATCH
  5
B6
330
70
100
AcDbEntity
  8
Luffy
 62
   250
420
  2301728
440
 33554559
100
AcDbHatch
 10
0.0
 20
0.0
 30
0.0
210
0.0
220
0.0
230
1.0
  2
SOLID
 70
     1
 71
     1
 91
        1
 92
        1
 93
        1
 72
     4
 94
        3
 73
     0
 74
     0
 95
       23
 96
       19
 40
0.0
 40
0.0
 40
0.0
 40
0.0
 40
1.0
 40
1.0
 40
1.0
 40
2.0
 40
2.0
 40
2.0
 40
3.0
 40
3.0
 40
3.0
 40
4.0
 40
4.0
 40
4.0
 40
5.0
 40
5.0
 40
5.0
 40
6.0
 40
6.0
 40
6.0
 40
6.0
 10
5.033354017469617
 20
-8.512970818413627
 10
4.983532375759548
 20
-8.507196214463975
 10
4.940500047471787
 20
-8.536890665690103
 10
4.953178405761718
 20
-8.612230088975694
 10
4.971304999457465
 20
-8.656735738118488
 10
5.003161112467447
 20
-8.683305528428819
 10
5.033354017469617
 20
-8.683346218532985
 10
5.033354017469617
 20
-8.683346218532985
 10
5.033354017469617
 20
-8.627972073025173
 10
5.033354017469617
 20
-8.627972073025173
 10
5.030351426866318
 20
-8.629550509982639
 10
5.024466620551215
 20
-8.630785624186197
 10
5.020763821072048
 20
-8.631220499674478
 10
4.985535515679253
 20
-8.601799858940971
 10
5.004653082953558
 20
-8.564474317762586
 10
5.033354017469617
 20
-8.560992770724826
 10
5.033354017469617
 20
-8.560992770724826
 10
5.033354017469617
 20
-8.512970818413627
 10
5.033354017469617
 20
-8.512970818413627
 97
        0
 97
        1
330
B5
 75
     2
 76
     1
 98
        1
 10
0.0
 20
0.0
450
        0
451
        0
460
0.0
461
0.0
452
        0
462
0.0
453
        0
470

  0
SPLINE
  5
B7
330
70
100
AcDbEntity
  8
Luffy
100
AcDbSpline
210
0.0
220
0.0
230
1.0
 70
     9
 71
     3
 72
    41
 73
    37
 74
     0
 42
0.0000000001
 43
0.0000000001
 40
0.0
 40
0.0
 40
0.0
 40
0.0
 40
1.0
 40
1.0
 40
1.0
 40
2.0
 40
2.0
 40
2.0
 40
3.0
 40
3.0
 40
3.0
 40
4.0
 40
4.0
 40
4.0
 40
5.0
 40
5.0
 40
5.0
 40
6.0
 40
6.0
 40
6.0
 40
7.0
 40
7.0
 40
7.0
 40
8.0
 40
8.0
 40
8.0
 40
9.0
 40
9.0
 40
9.0
 40
10.0
 40
10.0
 40
10.0
 40
11.0
 40
11.0
 40
11.0
 40
12.0
 40
12.0
 40
12.0
 40
12.0
 10
2.866734822591145
 20
-8.827654520670572
 30
0.0
 10
2.9129884507921
 20
-8.896214803059894
 30
0.0
 10
2.823499891493055
 20
-8.913709852430555
 30
0.0
 10
2.805290222167968
 20
-8.962315877278644
 30
0.0
 10
2.772852579752604
 20
-9.026090833875867
 30
0.0
 10
2.834656609429253
 20
-9.111012776692707
 30
0.0
 10
2.902921888563367
 20
-9.121425204806856
 30
0.0
 10
3.14433373345269
 20
-9.110054863823783
 30
0.0
 10
2.869268629286024
 20
-8.831062316894531
 30
0.0
 10
2.882097880045572
 20
-9.045294019911024
 30
0.0
 10
2.90476820203993
 20
-9.086036682128906
 30
0.0
 10
2.971173604329426
 20
-9.0572509765625
 30
0.0
 10
2.927932739257812
 20
-9.021800571017793
 30
0.0
 10
2.91270531548394
 20
-9.018142700195312
 30
0.0
 10
2.936206393771701
 20
-9.009229871961805
 30
0.0
 10
2.93894534640842
 20
-9.021568298339843
 30
0.0
 10
2.979916042751736
 20
-9.077534145779079
 30
0.0
 10
2.888898213704426
 20
-9.089640299479166
 30
0.0
 10
2.869655185275607
 20
-9.041182623969183
 30
0.0
 10
2.85124291314019
 20
-8.977403428819444
 30
0.0
 10
2.9299562242296
 20
-8.95628696017795
 30
0.0
 10
2.937286376953125
 20
-8.897875467936197
 30
0.0
 10
2.95619879828559
 20
-8.760963439941406
 30
0.0
 10
2.742772420247395
 20
-8.704055786132812
 30
0.0
 10
2.743644714355468
 20
-8.846917046440971
 30
0.0
 10
2.758729722764756
 20
-8.904101053873697
 30
0.0
 10
2.806454976399739
 20
-8.931908501519096
 30
0.0
 10
2.848021613226996
 20
-8.905140346950954
 30
0.0
 10
2.935869004991319
 20
-8.849411010742187
 30
0.0
 10
2.760992262098524
 20
-8.765127393934461
 30
0.0
 10
2.81646982828776
 20
-8.861668904622394
 30
0.0
 10
2.830217997233072
 20
-8.86587185329861
 30
0.0
 10
2.814058939615885
 20
-8.868197123209634
 30
0.0
 10
2.806794060601128
 20
-8.868428548177082
 30
0.0
 10
2.763616773817274
 20
-8.827336629231769
 30
0.0
 10
2.834750705295138
 20
-8.779741075303819
 30
0.0
 10
2.866734822591145
 20
-8.827654520670572
 30
0.0
  0
HATCH
  5
B8
330
70
100
AcDbEntity
  8
Luffy
 62
   250
420
  2301728
440
 33554559
100
AcDbHatch
 10
0.0
 20
0.0
 30
0.0
210
0.0
220
0.0
230
1.0
  2
SOLID
 70
     1
 71
     1
 91
        1
 92
        1
 93
        1
 72
     4
 94
        3
 73
     0
 74
     0
 95
       41
 96
       37
 40
0.0
 40
0.0
 40
0.0
 40
0.0
 40
1.0
 40
1.0
 40
1.0
 40
2.0
 40
2.0
 40
2.0
 40
3.0
 40
3.0
 40
3.0
 40
4.0
 40
4.0
 40
4.0
 40
5.0
 40
5.0
 40
5.0
 40
6.0
 40
6.0
 40
6.0
 40
7.0
 40
7.0
 40
7.0
 40
8.0
 40
8.0
 40
8.0
 40
9.0
 40
9.0
 40
9.0
 40
10.0
 40
10.0
 40
10.0
 40
11.0
 40
11.0
 40
11.0
 40
12.0
 40
12.0
 40
12.0
 40
12.0
 10
2.866734822591145
 20
-8.827654520670572
 10
2.9129884507921
 20
-8.896214803059894
 10
2.823499891493055
 20
-8.913709852430555
 10
2.805290222167968
 20
-8.962315877278644
 10
2.772852579752604
 20
-9.026090833875867
 10
2.834656609429253
 20
-9.111012776692707
 10
2.902921888563367
 20
-9.121425204806856
 10
3.14433373345269
 20
-9.110054863823783
 10
2.869268629286024
 20
-8.831062316894531
 10
2.882097880045572
 20
-9.045294019911024
 10
2.90476820203993
 20
-9.086036682128906
 10
2.971173604329426
 20
-9.0572509765625
 10
2.927932739257812
 20
-9.021800571017793
 10
2.91270531548394
 20
-9.018142700195312
 10
2.936206393771701
 20
-9.009229871961805
 10
2.93894534640842
 20
-9.021568298339843
 10
2.979916042751736
 20
-9.077534145779079
 10
2.888898213704426
 20
-9.089640299479166
 10
2.869655185275607
 20
-9.041182623969183
 10
2.85124291314019
 20
-8.977403428819444
 10
2.9299562242296
 20
-8.95628696017795
 10
2.937286376953125
 20
-8.897875467936197
 10
2.95619879828559
 20
-8.760963439941406
 10
2.742772420247395
 20
-8.704055786132812
 10
2.743644714355468
 20
-8.846917046440971
 10
2.758729722764756
 20
-8.904101053873697
 10
2.806454976399739
 20
-8.931908501519096
 10
2.848021613226996
 20
-8.905140346950954
 10
2.935869004991319
 20
-8.849411010742187
 10
2.760992262098524
 20
-8.765127393934461
 10
2.81646982828776
 20
-8.861668904622394
 10
2.830217997233072
 20
-8.86587185329861
 10
2.814058939615885
 20
-8.868197123209634
 10
2.806794060601128
 20
-8.868428548177082
 10
2.763616773817274
 20
-8.827336629231769
 10
2.834750705295138
 20
-8.779741075303819
 10
2.866734822591145
 20
-8.827654520670572
 97
        0
 97
        1
330
B7
 75
     2
 76
     1
 98
        1
 10
0.0
 20
0.0
450
        0
451
        0
460
0.0
461
0.0
452
        0
462
0.0
453
        0
470

  0
SPLINE
  5
B9
330
70
100
AcDbEntity
  8
Luffy
100
AcDbSpline
210
0.0
220
0.0
230
1.0
 70
     9
 71
     3
 72
    20
 73
    16
 74
     0
 42
0.0000000001
 43
0.0000000001
 40
0.0
 40
0.0
 40
0.0
 40
0.0
 40
1.0
 40
1.0
 40
1.0
 40
2.0
 40
2.0
 40
2.0
 40
3.0
 40
3.0
 40
3.0
 40
4.0
 40
4.0
 40
4.0
 40
5.0
 40
5.0
 40
5.0
 40
5.0
 10
3.282735188802083
 20
-9.122549268934461
 30
0.0
 10
3.282735188802083
 20
-9.122549268934461
 30
0.0
 10
3.346405029296875
 20
-9.122549268934461
 30
0.0
 10
3.346405029296875
 20
-9.122549268934461
 30
0.0
 10
3.344680786132812
 20
-9.106800503200954
 30
0.0
 10
3.338790045844183
 20
-9.0899904039171
 30
0.0
 10
3.327402750651041
 20
-9.072980244954425
 30
0.0
 10
3.245603773328992
 20
-8.995502048068575
 30
0.0
 10
3.155208163791232
 20
-9.046808030870225
 30
0.0
 10
3.131005181206596
 20
-9.122549268934461
 30
0.0
 10
3.131005181206596
 20
-9.122549268934461
 30
0.0
 10
3.191178215874565
 20
-9.122549268934461
 30
0.0
 10
3.191178215874565
 20
-9.122549268934461
 30
0.0
 10
3.208253648546006
 20
-9.087973700629339
 30
0.0
 10
3.269655015733506
 20
-9.084218343098957
 30
0.0
 10
3.282735188802083
 20
-9.122549268934461
 30
0.0
  0
HATCH
  5
BA
330
70
100
AcDbEntity
  8
Luffy
 62
   250
420
  2301728
440
 33554559
100
AcDbHatch
 10
0.0
 20
0.0
 30
0.0
210
0.0
220
0.0
230
1.0
  2
SOLID
 70
     1
 71
     1
 91
        1
 92
        1
 93
        1
 72
     4
 94
        3
 73
     0
 74
     0
 95
       20
 96
       16
 40
0.0
 40
0.0
 40
0.0
 40
0.0
 40
1.0
 40
1.0
 40
1.0
 40
2.0
 40
2.0
 40
2.0
 40
3.0
 40
3.0
 40
3.0
 40
4.0
 40
4.0
 40
4.0
 40
5.0
 40
5.0
 40
5.0
 40
5.0
 10
3.282735188802083
 20
-9.122549268934461
 10
3.282735188802083
 20
-9.122549268934461
 10
3.346405029296875
 20
-9.122549268934461
 10
3.346405029296875
 20
-9.122549268934461
 10
3.344680786132812
 20
-9.106800503200954
 10
3.338790045844183
 20
-9.0899904039171
 10
3.327402750651041
 20
-9.072980244954425
 10
3.245603773328992
 20
-8.995502048068575
 10
3.155208163791232
 20
-9.046808030870225
 10
3.131005181206596
 20
-9.122549268934461
 10
3.131005181206596
 20
-9.122549268934461
 10
3.191178215874565
 20
-9.122549268934461
 10
3.191178215874565
 20
-9.122549268934461
 10
3.208253648546006
 20
-9.087973700629339
 10
3.269655015733506
 20
-9.084218343098957
 10
3.282735188802083
 20
-9.122549268934461
 97
        0
 97
        1
330
B9
 75
     2
 76
     1
 98
        1
 10
0.0
 20
0.0
450
        0
451
        0
460
0.0
461
0.0
452
        0
462
0.0
453
        0
470

  0
SPLINE
  5
BB
330
70
100
AcDbEntity
  8
Luffy
100
AcDbSpline
210
0.0
220
0.0
230
1.0
 70
     9
 71
     3
 72
    32
 73
    28
 74
     0
 42
0.0000000001
 43
0.0000000001
 40
0.0
 40
0.0
 40
0.0
 40
0.0
 40
1.0
 40
1.0
 40
1.0
 40
2.0
 40
2.0
 40
2.0
 40
3.0
 40
3.0
 40
3.0
 40
4.0
 40
4.0
 40
4.0
 40
5.0
 40
5.0
 40
5.0
 40
6.0
 40
6.0
 40
6.0
 40
7.0
 40
7.0
 40
7.0
 40
8.0
 40
8.0
 40
8.0
 40
9.0
 40
9.0
 40
9.0
 40
9.0
 10
4.50433349609375
 20
-9.040447658962673
 30
0.0
 10
4.565409342447916
 20
-9.076105753580728
 30
0.0
 10
4.546852959526909
 20
-8.97362094455295
 30
0.0
 10
4.494801839192708
 20
-8.967631869845918
 30
0.0
 10
4.386837429470485
 20
-9.024330986870658
 30
0.0
 10
4.460947672526041
 20
-9.106625874837238
 30
0.0
 10
4.530453999837239
 20
-9.122549268934461
 30
0.0
 10
4.530453999837239
 20
-9.122549268934461
 30
0.0
 10
4.573170979817708
 20
-9.122549268934461
 30
0.0
 10
4.573170979817708
 20
-9.122549268934461
 30
0.0
 10
4.611690097384982
 20
-9.111211140950519
 30
0.0
 10
4.630780537923176
 20
-9.062717013888887
 30
0.0
 10
4.577615525987412
 20
-8.950948079427082
 30
0.0
 10
4.489589267306857
 20
-8.823065863715276
 30
0.0
 10
4.336423238118489
 20
-8.859859890407985
 30
0.0
 10
4.353056165907117
 20
-8.997972276475694
 30
0.0
 10
4.362508138020833
 20
-9.047247992621526
 30
0.0
 10
4.387472364637586
 20
-9.067569308810762
 30
0.0
 10
4.40822516547309
 20
-9.121117485894096
 30
0.0
 10
4.436069912380641
 20
-9.070612589518228
 30
0.0
 10
4.420809427897134
 20
-8.965140448676214
 30
0.0
 10
4.48273213704427
 20
-8.953878614637586
 30
0.0
 10
4.539457533094617
 20
-8.951008266872829
 30
0.0
 10
4.589614868164062
 20
-9.07579379611545
 30
0.0
 10
4.511516994900173
 20
-9.054838392469617
 30
0.0
 10
4.49852328830295
 20
-9.058368259006075
 30
0.0
 10
4.490804036458333
 20
-9.022828843858507
 30
0.0
 10
4.50433349609375
 20
-9.040447658962673
 30
0.0
  0
HATCH
  5
BC
330
70
100
AcDbEntity
  8
Luffy
 62
   250
420
  2301728
440
 33554559
100
AcDbHatch
 10
0.0
 20
0.0
 30
0.0
210
0.0
220
0.0
230
1.0
  2
SOLID
 70
     1
 71
     1
 91
        1
 92
        1
 93
        1
 72
     4
 94
        3
 73
     0
 74
     0
 95
       32
 96
       28
 40
0.0
 40
0.0
 40
0.0
 40
0.0
 40
1.0
 40
1.0
 40
1.0
 40
2.0
 40
2.0
 40
2.0
 40
3.0
 40
3.0
 40
3.0
 40
4.0
 40
4.0
 40
4.0
 40
5.0
 40
5.0
 40
5.0
 40
6.0
 40
6.0
 40
6.0
 40
7.0
 40
7.0
 40
7.0
 40
8.0
 40
8.0
 40
8.0
 40
9.0
 40
9.0
 40
9.0
 40
9.0
 10
4.50433349609375
 20
-9.040447658962673
 10
4.565409342447916
 20
-9.076105753580728
 10
4.546852959526909
 20
-8.97362094455295
 10
4.494801839192708
 20
-8.967631869845918
 10
4.386837429470485
 20
-9.024330986870658
 10
4.460947672526041
 20
-9.106625874837238
 10
4.530453999837239
 20
-9.122549268934461
 10
4.530453999837239
 20
-9.122549268934461
 10
4.573170979817708
 20
-9.122549268934461
 10
4.573170979817708
 20
-9.122549268934461
 10
4.611690097384982
 20
-9.111211140950519
 10
4.630780537923176
 20
-9.062717013888887
 10
4.577615525987412
 20
-8.950948079427082
 10
4.489589267306857
 20
-8.823065863715276
 10
4.336423238118489
 20
-8.859859890407985
 10
4.353056165907117
 20
-8.997972276475694
 10
4.362508138020833
 20
-9.047247992621526
 10
4.387472364637586
 20
-9.067569308810762
 10
4.40822516547309
 20
-9.121117485894096
 10
4.436069912380641
 20
-9.070612589518228
 10
4.420809427897134
 20
-8.965140448676214
 10
4.48273213704427
 20
-8.953878614637586
 10
4.539457533094617
 20
-8.951008266872829
 10
4.589614868164062
 20
-9.07579379611545
 10
4.511516994900173
 20
-9.054838392469617
 10
4.49852328830295
 20
-9.058368259006075
 10
4.490804036458333
 20
-9.022828843858507
 10
4.50433349609375
 20
-9.040447658962673
 97
        0
 97
        1
330
BB
 75
     2
 76
     1
 98
        1
 10
0.0
 20
0.0
450
        0
451
        0
460
0.0
461
0.0
452
        0
462
0.0
453
        0
470

  0
SPLINE
  5
BD
330
70
100
AcDbEntity
  8
Luffy
100
AcDbSpline
210
0.0
220
0.0
230
1.0
 70
     9
 71
     3
 72
    11
 73
     7
 74
     0
 42
0.0000000001
 43
0.0000000001
 40
0.0
 40
0.0
 40
0.0
 40
0.0
 40
1.0
 40
1.0
 40
1.0
 40
2.0
 40
2.0
 40
2.0
 40
2.0
 10
3.212999979654947
 20
-9.122549268934461
 30
0.0
 10
3.212999979654947
 20
-9.122549268934461
 30
0.0
 10
3.26180436876085
 20
-9.122549268934461
 30
0.0
 10
3.26180436876085
 20
-9.122549268934461
 30
0.0
 10
3.245806376139322
 20
-9.089505513509113
 30
0.0
 10
3.224354214138454
 20
-9.099711947970918
 30
0.0
 10
3.212999979654947
 20
-9.122549268934461
 30
0.0
  0
HATCH
  5
BE
330
70
100
AcDbEntity
  8
Luffy
 62
   250
420
  2301728
440
 33554559
100
AcDbHatch
 10
0.0
 20
0.0
 30
0.0
210
0.0
220
0.0
230
1.0
  2
SOLID
 70
     1
 71
     1
 91
        1
 92
        1
 93
        1
 72
     4
 94
        3
 73
     0
 74
     0
 95
       11
 96
        7
 40
0.0
 40
0.0
 40
0.0
 40
0.0
 40
1.0
 40
1.0
 40
1.0
 40
2.0
 40
2.0
 40
2.0
 40
2.0
 10
3.212999979654947
 20
-9.122549268934461
 10
3.212999979654947
 20
-9.122549268934461
 10
3.26180436876085
 20
-9.122549268934461
 10
3.26180436876085
 20
-9.122549268934461
 10
3.245806376139322
 20
-9.089505513509113
 10
3.224354214138454
 20
-9.099711947970918
 10
3.212999979654947
 20
-9.122549268934461
 97
        0
 97
        1
330
BD
 75
     2
 76
     1
 98
        1
 10
0.0
 20
0.0
450
        0
451
        0
460
0.0
461
0.0
452
        0
462
0.0
453
        0
470

  0
SPLINE
  5
BF
330
70
100
AcDbEntity
  8
Luffy
100
AcDbSpline
210
0.0
220
0.0
230
1.0
 70
     9
 71
     3
 72
    20
 73
    16
 74
     0
 42
0.0000000001
 43
0.0000000001
 40
0.0
 40
0.0
 40
0.0
 40
0.0
 40
1.0
 40
1.0
 40
1.0
 40
2.0
 40
2.0
 40
2.0
 40
3.0
 40
3.0
 40
3.0
 40
4.0
 40
4.0
 40
4.0
 40
5.0
 40
5.0
 40
5.0
 40
5.0
 10
2.655028449164496
 20
-8.257183498806423
 30
0.0
 10
2.69626956515842
 20
-8.264879014756944
 30
0.0
 10
2.724081251356336
 20
-8.201558430989582
 30
0.0
 10
2.671948750813801
 20
-8.2113774617513
 30
0.0
 10
2.659130520290798
 20
-8.21995120578342
 30
0.0
 10
2.669773525661892
 20
-8.198280334472656
 30
0.0
 10
2.679411994086371
 20
-8.203509012858072
 30
0.0
 10
2.742855495876736
 20
-8.207176208496093
 30
0.0
 10
2.68756612141927
 20
-8.278112623426649
 30
0.0
 10
2.643847995334201
 20
-8.263554890950519
 30
0.0
 10
2.641193813747829
 20
-8.25492943657769
 30
0.0
 10
2.638505723741319
 20
-8.24673122829861
 30
0.0
 10
2.635794745551215
 20
-8.23885515001085
 30
0.0
 10
2.640789455837673
 20
-8.244699266221788
 30
0.0
 10
2.647087944878471
 20
-8.250805324978298
 30
0.0
 10
2.655028449164496
 20
-8.257183498806423
 30
0.0
  0
SPLINE
  5
C0
330
70
100
AcDbEntity
  8
Luffy
100
AcDbSpline
210
0.0
220
0.0
230
1.0
 70
     9
 71
     3
 72
    26
 73
    22
 74
     0
 42
0.0000000001
 43
0.0000000001
 40
0.0
 40
0.0
 40
0.0
 40
0.0
 40
1.0
 40
1.0
 40
1.0
 40
2.0
 40
2.0
 40
2.0
 40
3.0
 40
3.0
 40
3.0
 40
4.0
 40
4.0
 40
4.0
 40
5.0
 40
5.0
 40
5.0
 40
6.0
 40
6.0
 40
6.0
 40
7.0
 40
7.0
 40
7.0
 40
7.0
 10
2.717210557725694
 20
-8.286688910590276
 30
0.0
 10
2.762385050455729
 20
-8.236856248643663
 30
0.0
 10
2.765479193793402
 20
-8.203696356879339
 30
0.0
 10
2.750034756130642
 20
-8.184295654296875
 30
0.0
 10
2.750034756130642
 20
-8.184295654296875
 30
0.0
 10
2.630266825358072
 20
-8.184295654296875
 30
0.0
 10
2.630266825358072
 20
-8.184295654296875
 30
0.0
 10
2.625695122612846
 20
-8.189148796929252
 30
0.0
 10
2.622527228461371
 20
-8.194725884331596
 30
0.0
 10
2.621422661675346
 20
-8.201029459635416
 30
0.0
 10
2.618951585557725
 20
-8.195160759819877
 30
0.0
 10
2.616462707519531
 20
-8.189630296495225
 30
0.0
 10
2.613962809244791
 20
-8.184295654296875
 30
0.0
 10
2.613962809244791
 20
-8.184295654296875
 30
0.0
 10
2.548979865180121
 20
-8.184295654296875
 30
0.0
 10
2.548979865180121
 20
-8.184295654296875
 30
0.0
 10
2.553181966145833
 20
-8.20298343234592
 30
0.0
 10
2.554128858778211
 20
-8.228548685709634
 30
0.0
 10
2.549864874945746
 20
-8.263026767306858
 30
0.0
 10
2.567488776312933
 20
-8.322774251302082
 30
0.0
 10
2.663505554199218
 20
-8.328594631618923
 30
0.0
 10
2.717210557725694
 20
-8.286688910590276
 30
0.0
  0
HATCH
  5
C1
330
70
100
AcDbEntity
  8
Luffy
 62
   250
420
  2301728
440
 33554559
100
AcDbHatch
 10
0.0
 20
0.0
 30
0.0
210
0.0
220
0.0
230
1.0
  2
SOLID
 70
     1
 71
     1
 91
        2
 92
        1
 93
        1
 72
     4
 94
        3
 73
     0
 74
     0
 95
       20
 96
       16
 40
0.0
 40
0.0
 40
0.0
 40
0.0
 40
1.0
 40
1.0
 40
1.0
 40
2.0
 40
2.0
 40
2.0
 40
3.0
 40
3.0
 40
3.0
 40
4.0
 40
4.0
 40
4.0
 40
5.0
 40
5.0
 40
5.0
 40
5.0
 10
2.655028449164496
 20
-8.257183498806423
 10
2.69626956515842
 20
-8.264879014756944
 10
2.724081251356336
 20
-8.201558430989582
 10
2.671948750813801
 20
-8.2113774617513
 10
2.659130520290798
 20
-8.21995120578342
 10
2.669773525661892
 20
-8.198280334472656
 10
2.679411994086371
 20
-8.203509012858072
 10
2.742855495876736
 20
-8.207176208496093
 10
2.68756612141927
 20
-8.278112623426649
 10
2.643847995334201
 20
-8.263554890950519
 10
2.641193813747829
 20
-8.25492943657769
 10
2.638505723741319
 20
-8.24673122829861
 10
2.635794745551215
 20
-8.23885515001085
 10
2.640789455837673
 20
-8.244699266221788
 10
2.647087944878471
 20
-8.250805324978298
 10
2.655028449164496
 20
-8.257183498806423
 97
        0
 97
        1
330
BF
 92
        1
 93
        1
 72
     4
 94
        3
 73
     0
 74
     0
 95
       26
 96
       22
 40
0.0
 40
0.0
 40
0.0
 40
0.0
 40
1.0
 40
1.0
 40
1.0
 40
2.0
 40
2.0
 40
2.0
 40
3.0
 40
3.0
 40
3.0
 40
4.0
 40
4.0
 40
4.0
 40
5.0
 40
5.0
 40
5.0
 40
6.0
 40
6.0
 40
6.0
 40
7.0
 40
7.0
 40
7.0
 40
7.0
 10
2.717210557725694
 20
-8.286688910590276
 10
2.762385050455729
 20
-8.236856248643663
 10
2.765479193793402
 20
-8.203696356879339
 10
2.750034756130642
 20
-8.184295654296875
 10
2.750034756130642
 20
-8.184295654296875
 10
2.630266825358072
 20
-8.184295654296875
 10
2.630266825358072
 20
-8.184295654296875
 10
2.625695122612846
 20
-8.189148796929252
 10
2.622527228461371
 20
-8.194725884331596
 10
2.621422661675346
 20
-8.201029459635416
 10
2.618951585557725
 20
-8.195160759819877
 10
2.616462707519531
 20
-8.189630296495225
 10
2.613962809244791
 20
-8.184295654296875
 10
2.613962809244791
 20
-8.184295654296875
 10
2.548979865180121
 20
-8.184295654296875
 10
2.548979865180121
 20
-8.184295654296875
 10
2.553181966145833
 20
-8.20298343234592
 10
2.554128858778211
 20
-8.228548685709634
 10
2.549864874945746
 20
-8.263026767306858
 10
2.567488776312933
 20
-8.322774251302082
 10
2.663505554199218
 20
-8.328594631618923
 10
2.717210557725694
 20
-8.286688910590276
 97
        0
 97
        1
330
C0
 75
     2
 76
     1
 98
        1
 10
0.0
 20
0.0
450
        0
451
        0
460
0.0
461
0.0
452
        0
462
0.0
453
        0
470

  0
SPLINE
  5
C2
330
70
100
AcDbEntity
  8
Luffy
100
AcDbSpline
210
0.0
220
0.0
230
1.0
 70
     9
 71
     3
 72
    41
 73
    37
 74
     0
 42
0.0000000001
 43
0.0000000001
 40
0.0
 40
0.0
 40
0.0
 40
0.0
 40
1.0
 40
1.0
 40
1.0
 40
2.0
 40
2.0
 40
2.0
 40
3.0
 40
3.0
 40
3.0
 40
4.0
 40
4.0
 40
4.0
 40
5.0
 40
5.0
 40
5.0
 40
6.0
 40
6.0
 40
6.0
 40
7.0
 40
7.0
 40
7.0
 40
8.0
 40
8.0
 40
8.0
 40
9.0
 40
9.0
 40
9.0
 40
10.0
 40
10.0
 40
10.0
 40
11.0
 40
11.0
 40
11.0
 40
12.0
 40
12.0
 40
12.0
 40
12.0
 10
3.19171396891276
 20
-8.856709798177082
 30
0.0
 10
3.146033393012152
 20
-8.795322842068141
 30
0.0
 10
3.034369574652777
 20
-8.794382731119791
 30
0.0
 10
3.017534044053819
 20
-8.719973246256509
 30
0.0
 10
3.011317782931857
 20
-8.661972045898437
 30
0.0
 10
3.132741292317708
 20
-8.649689568413627
 30
0.0
 10
3.116472880045572
 20
-8.721915351019964
 30
0.0
 10
3.120759752061631
 20
-8.736080593532985
 30
0.0
 10
3.085789150661892
 20
-8.732966952853733
 30
0.0
 10
3.102551778157551
 20
-8.724739922417533
 30
0.0
 10
3.134484185112846
 20
-8.67416042751736
 30
0.0
 10
3.033420986599392
 20
-8.661451551649305
 30
0.0
 10
3.030530293782551
 20
-8.712031894259983
 30
0.0
 10
3.148391723632812
 20
-8.94827185736762
 30
0.0
 10
3.318089803059895
 20
-8.568435668945312
 30
0.0
 10
3.008991665310329
 20
-8.62353515625
 30
0.0
 10
2.930105421278211
 20
-8.65391625298394
 30
0.0
 10
2.905874464246961
 20
-8.763409084743923
 30
0.0
 10
2.986316257052951
 20
-8.823605007595485
 30
0.0
 10
3.039477878146701
 20
-8.87130398220486
 30
0.0
 10
3.162357754177516
 20
-8.865302191840276
 30
0.0
 10
3.147352430555555
 20
-8.952681647406683
 30
0.0
 10
3.137291802300346
 20
-9.013650682237413
 30
0.0
 10
3.01855723063151
 20
-8.9818361070421
 30
0.0
 10
3.046885172526041
 20
-8.925148010253906
 30
0.0
 10
3.056116739908854
 20
-8.923368665907117
 30
0.0
 10
3.0777833726671
 20
-8.921379089355468
 30
0.0
 10
3.06321292453342
 20
-8.929784986707899
 30
0.0
 10
3.054159376356336
 20
-9.050128512912325
 30
0.0
 10
3.220235188802083
 20
-8.909737481011283
 30
0.0
 10
3.075508965386284
 20
-8.87375979953342
 30
0.0
 10
3.006780836317274
 20
-8.856302897135416
 30
0.0
 10
2.964461432562933
 20
-8.899836222330728
 30
0.0
 10
2.981335110134548
 20
-8.966151767306856
 30
0.0
 10
3.069542778862846
 20
-9.121543036566839
 30
0.0
 10
3.300953335232204
 20
-9.000112745496961
 30
0.0
 10
3.19171396891276
 20
-8.856709798177082
 30
0.0
  0
HATCH
  5
C3
330
70
100
AcDbEntity
  8
Luffy
 62
   250
420
  2301728
440
 33554559
100
AcDbHatch
 10
0.0
 20
0.0
 30
0.0
210
0.0
220
0.0
230
1.0
  2
SOLID
 70
     1
 71
     1
 91
        1
 92
        1
 93
        1
 72
     4
 94
        3
 73
     0
 74
     0
 95
       41
 96
       37
 40
0.0
 40
0.0
 40
0.0
 40
0.0
 40
1.0
 40
1.0
 40
1.0
 40
2.0
 40
2.0
 40
2.0
 40
3.0
 40
3.0
 40
3.0
 40
4.0
 40
4.0
 40
4.0
 40
5.0
 40
5.0
 40
5.0
 40
6.0
 40
6.0
 40
6.0
 40
7.0
 40
7.0
 40
7.0
 40
8.0
 40
8.0
 40
8.0
 40
9.0
 40
9.0
 40
9.0
 40
10.0
 40
10.0
 40
10.0
 40
11.0
 40
11.0
 40
11.0
 40
12.0
 40
12.0
 40
12.0
 40
12.0
 10
3.19171396891276
 20
-8.856709798177082
 10
3.146033393012152
 20
-8.795322842068141
 10
3.034369574652777
 20
-8.794382731119791
 10
3.017534044053819
 20
-8.719973246256509
 10
3.011317782931857
 20
-8.661972045898437
 10
3.132741292317708
 20
-8.649689568413627
 10
3.116472880045572
 20
-8.721915351019964
 10
3.120759752061631
 20
-8.736080593532985
 10
3.085789150661892
 20
-8.732966952853733
 10
3.102551778157551
 20
-8.724739922417533
 10
3.134484185112846
 20
-8.67416042751736
 10
3.033420986599392
 20
-8.661451551649305
 10
3.030530293782551
 20
-8.712031894259983
 10
3.148391723632812
 20
-8.94827185736762
 10
3.318089803059895
 20
-8.568435668945312
 10
3.008991665310329
 20
-8.62353515625
 10
2.930105421278211
 20
-8.65391625298394
 10
2.905874464246961
 20
-8.763409084743923
 10
2.986316257052951
 20
-8.823605007595485
 10
3.039477878146701
 20
-8.87130398220486
 10
3.162357754177516
 20
-8.865302191840276
 10
3.147352430555555
 20
-8.952681647406683
 10
3.137291802300346
 20
-9.013650682237413
 10
3.01855723063151
 20
-8.9818361070421
 10
3.046885172526041
 20
-8.925148010253906
 10
3.056116739908854
 20
-8.923368665907117
 10
3.0777833726671
 20
-8.921379089355468
 10
3.06321292453342
 20
-8.929784986707899
 10
3.054159376356336
 20
-9.050128512912325
 10
3.220235188802083
 20
-8.909737481011283
 10
3.075508965386284
 20
-8.87375979953342
 10
3.006780836317274
 20
-8.856302897135416
 10
2.964461432562933
 20
-8.899836222330728
 10
2.981335110134548
 20
-8.966151767306856
 10
3.069542778862846
 20
-9.121543036566839
 10
3.300953335232204
 20
-9.000112745496961
 10
3.19171396891276
 20
-8.856709798177082
 97
        0
 97
        1
330
C2
 75
     2
 76
     1
 98
        1
 10
0.0
 20
0.0
450
        0
451
        0
460
0.0
461
0.0
452
        0
462
0.0
453
        0
470

  0
SPLINE
  5
C4
330
70
100
AcDbEntity
  8
Luffy
100
AcDbSpline
210
0.0
220
0.0
230
1.0
 70
     9
 71
     3
 72
    17
 73
    13
 74
     0
 42
0.0000000001
 43
0.0000000001
 40
0.0
 40
0.0
 40
0.0
 40
0.0
 40
1.0
 40
1.0
 40
1.0
 40
2.0
 40
2.0
 40
2.0
 40
3.0
 40
3.0
 40
3.0
 40
4.0
 40
4.0
 40
4.0
 40
4.0
 10
2.515286763509114
 20
-8.755552503797742
 30
0.0
 10
2.271107991536458
 20
-8.816140916612413
 30
0.0
 10
2.620523240831162
 20
-8.931896633572048
 30
0.0
 10
2.604039510091145
 20
-8.746276007758245
 30
0.0
 10
2.527320861816406
 20
-8.629332648383245
 30
0.0
 10
2.300019158257378
 20
-8.75681898328993
 30
0.0
 10
2.365637885199652
 20
-8.844086541069877
 30
0.0
 10
2.577689276801215
 20
-8.62931654188368
 30
0.0
 10
2.577175564236111
 20
-8.84941185845269
 30
0.0
 10
2.494255065917968
 20
-8.79779052734375
 30
0.0
 10
2.539661831325954
 20
-8.818745083279079
 30
0.0
 10
2.564186096191406
 20
-8.759272257486978
 30
0.0
 10
2.515286763509114
 20
-8.755552503797742
 30
0.0
  0
HATCH
  5
C5
330
70
100
AcDbEntity
  8
Luffy
 62
   250
420
  2301728
440
 33554559
100
AcDbHatch
 10
0.0
 20
0.0
 30
0.0
210
0.0
220
0.0
230
1.0
  2
SOLID
 70
     1
 71
     1
 91
        1
 92
        1
 93
        1
 72
     4
 94
        3
 73
     0
 74
     0
 95
       17
 96
       13
 40
0.0
 40
0.0
 40
0.0
 40
0.0
 40
1.0
 40
1.0
 40
1.0
 40
2.0
 40
2.0
 40
2.0
 40
3.0
 40
3.0
 40
3.0
 40
4.0
 40
4.0
 40
4.0
 40
4.0
 10
2.515286763509114
 20
-8.755552503797742
 10
2.271107991536458
 20
-8.816140916612413
 10
2.620523240831162
 20
-8.931896633572048
 10
2.604039510091145
 20
-8.746276007758245
 10
2.527320861816406
 20
-8.629332648383245
 10
2.300019158257378
 20
-8.75681898328993
 10
2.365637885199652
 20
-8.844086541069877
 10
2.577689276801215
 20
-8.62931654188368
 10
2.577175564236111
 20
-8.84941185845269
 10
2.494255065917968
 20
-8.79779052734375
 10
2.539661831325954
 20
-8.818745083279079
 10
2.564186096191406
 20
-8.759272257486978
 10
2.515286763509114
 20
-8.755552503797742
 97
        0
 97
        1
330
C4
 75
     2
 76
     1
 98
        1
 10
0.0
 20
0.0
450
        0
451
        0
460
0.0
461
0.0
452
        0
462
0.0
453
        0
470

  0
SPLINE
  5
C6
330
70
100
AcDbEntity
  8
Luffy
100
AcDbSpline
210
0.0
220
0.0
230
1.0
 70
     9
 71
     3
 72
    29
 73
    25
 74
     0
 42
0.0000000001
 43
0.0000000001
 40
0.0
 40
0.0
 40
0.0
 40
0.0
 40
1.0
 40
1.0
 40
1.0
 40
2.0
 40
2.0
 40
2.0
 40
3.0
 40
3.0
 40
3.0
 40
4.0
 40
4.0
 40
4.0
 40
5.0
 40
5.0
 40
5.0
 40
6.0
 40
6.0
 40
6.0
 40
7.0
 40
7.0
 40
7.0
 40
8.0
 40
8.0
 40
8.0
 40
8.0
 10
4.929345024956597
 20
-8.18449232313368
 30
0.0
 10
4.929364522298176
 20
-8.184426201714408
 30
0.0
 10
4.929373847113715
 20
-8.184361775716144
 30
0.0
 10
4.929393344455294
 20
-8.184295654296875
 30
0.0
 10
4.929393344455294
 20
-8.184295654296875
 30
0.0
 10
4.827484130859375
 20
-8.184295654296875
 30
0.0
 10
4.827484130859375
 20
-8.184295654296875
 30
0.0
 10
4.809357537163628
 20
-8.2144292195638
 30
0.0
 10
4.783649020724825
 20
-8.243253072102863
 30
0.0
 10
4.785423278808593
 20
-8.282146877712673
 30
0.0
 10
4.790986802842881
 20
-8.449612935384113
 30
0.0
 10
5.056738959418402
 20
-8.485350714789495
 30
0.0
 10
5.026401095920138
 20
-8.31376224093967
 30
0.0
 10
4.996715121799044
 20
-8.247334798177082
 30
0.0
 10
4.934195624457465
 20
-8.221214294433593
 30
0.0
 10
4.890201144748263
 20
-8.259752061631944
 30
0.0
 10
4.797049628363715
 20
-8.340184529622394
 30
0.0
 10
5.022523668077256
 20
-8.414729648166233
 30
0.0
 10
4.936678568522134
 20
-8.307176378038194
 30
0.0
 10
4.919450547960068
 20
-8.30422888861762
 30
0.0
 10
4.938210381401909
 20
-8.298960367838541
 30
0.0
 10
4.946836683485242
 20
-8.297574361165363
 30
0.0
 10
5.041241115993923
 20
-8.4219970703125
 30
0.0
 10
4.739488389756943
 20
-8.400595770941839
 30
0.0
 10
4.929345024956597
 20
-8.18449232313368
 30
0.0
  0
HATCH
  5
C7
330
70
100
AcDbEntity
  8
Luffy
 62
   250
420
  2301728
440
 33554559
100
AcDbHatch
 10
0.0
 20
0.0
 30
0.0
210
0.0
220
0.0
230
1.0
  2
SOLID
 70
     1
 71
     1
 91
        1
 92
        1
 93
        1
 72
     4
 94
        3
 73
     0
 74
     0
 95
       29
 96
       25
 40
0.0
 40
0.0
 40
0.0
 40
0.0
 40
1.0
 40
1.0
 40
1.0
 40
2.0
 40
2.0
 40
2.0
 40
3.0
 40
3.0
 40
3.0
 40
4.0
 40
4.0
 40
4.0
 40
5.0
 40
5.0
 40
5.0
 40
6.0
 40
6.0
 40
6.0
 40
7.0
 40
7.0
 40
7.0
 40
8.0
 40
8.0
 40
8.0
 40
8.0
 10
4.929345024956597
 20
-8.18449232313368
 10
4.929364522298176
 20
-8.184426201714408
 10
4.929373847113715
 20
-8.184361775716144
 10
4.929393344455294
 20
-8.184295654296875
 10
4.929393344455294
 20
-8.184295654296875
 10
4.827484130859375
 20
-8.184295654296875
 10
4.827484130859375
 20
-8.184295654296875
 10
4.809357537163628
 20
-8.2144292195638
 10
4.783649020724825
 20
-8.243253072102863
 10
4.785423278808593
 20
-8.282146877712673
 10
4.790986802842881
 20
-8.449612935384113
 10
5.056738959418402
 20
-8.485350714789495
 10
5.026401095920138
 20
-8.31376224093967
 10
4.996715121799044
 20
-8.247334798177082
 10
4.934195624457465
 20
-8.221214294433593
 10
4.890201144748263
 20
-8.259752061631944
 10
4.797049628363715
 20
-8.340184529622394
 10
5.022523668077256
 20
-8.414729648166233
 10
4.936678568522134
 20
-8.307176378038194
 10
4.919450547960068
 20
-8.30422888861762
 10
4.938210381401909
 20
-8.298960367838541
 10
4.946836683485242
 20
-8.297574361165363
 10
5.041241115993923
 20
-8.4219970703125
 10
4.739488389756943
 20
-8.400595770941839
 10
4.929345024956597
 20
-8.18449232313368
 97
        0
 97
        1
330
C6
 75
     2
 76
     1
 98
        1
 10
0.0
 20
0.0
450
        0
451
        0
460
0.0
461
0.0
452
        0
462
0.0
453
        0
470

  0
SPLINE
  5
C8
330
70
100
AcDbEntity
  8
Luffy
100
AcDbSpline
210
0.0
220
0.0
230
1.0
 70
     9
 71
     3
 72
    14
 73
    10
 74
     0
 42
0.0000000001
 43
0.0000000001
 40
0.0
 40
0.0
 40
0.0
 40
0.0
 40
1.0
 40
1.0
 40
1.0
 40
2.0
 40
2.0
 40
2.0
 40
3.0
 40
3.0
 40
3.0
 40
3.0
 10
5.029280768500433
 20
-8.622836642795139
 30
0.0
 10
5.031083001030816
 20
-8.623279995388454
 30
0.0
 10
5.032404581705728
 20
-8.623727586534288
 30
0.0
 10
5.033354017469617
 20
-8.624174329969617
 30
0.0
 10
5.033354017469617
 20
-8.624174329969617
 30
0.0
 10
5.033354017469617
 20
-8.574034796820745
 30
0.0
 10
5.033354017469617
 20
-8.574034796820745
 30
0.0
 10
5.012603759765625
 20
-8.569555494520399
 30
0.0
 10
5.000198364257812
 20
-8.581763373480901
 30
0.0
 10
5.029280768500433
 20
-8.622836642795139
 30
0.0
  0
HATCH
  5
C9
330
70
100
AcDbEntity
  8
Luffy
 62
   250
420
  2301728
440
 33554559
100
AcDbHatch
 10
0.0
 20
0.0
 30
0.0
210
0.0
220
0.0
230
1.0
  2
SOLID
 70
     1
 71
     1
 91
        1
 92
        1
 93
        1
 72
     4
 94
        3
 73
     0
 74
     0
 95
       14
 96
       10
 40
0.0
 40
0.0
 40
0.0
 40
0.0
 40
1.0
 40
1.0
 40
1.0
 40
2.0
 40
2.0
 40
2.0
 40
3.0
 40
3.0
 40
3.0
 40
3.0
 10
5.029280768500433
 20
-8.622836642795139
 10
5.031083001030816
 20
-8.623279995388454
 10
5.032404581705728
 20
-8.623727586534288
 10
5.033354017469617
 20
-8.624174329969617
 10
5.033354017469617
 20
-8.624174329969617
 10
5.033354017469617
 20
-8.574034796820745
 10
5.033354017469617
 20
-8.574034796820745
 10
5.012603759765625
 20
-8.569555494520399
 10
5.000198364257812
 20
-8.581763373480901
 10
5.029280768500433
 20
-8.622836642795139
 97
        0
 97
        1
330
C8
 75
     2
 76
     1
 98
        1
 10
0.0
 20
0.0
450
        0
451
        0
460
0.0
461
0.0
452
        0
462
0.0
453
        0
470

  0
SPLINE
  5
CA
330
70
100
AcDbEntity
  8
Luffy
100
AcDbSpline
210
0.0
220
0.0
230
1.0
 70
     9
 71
     3
 72
    35
 73
    31
 74
     0
 42
0.0000000001
 43
0.0000000001
 40
0.0
 40
0.0
 40
0.0
 40
0.0
 40
1.0
 40
1.0
 40
1.0
 40
2.0
 40
2.0
 40
2.0
 40
3.0
 40
3.0
 40
3.0
 40
4.0
 40
4.0
 40
4.0
 40
5.0
 40
5.0
 40
5.0
 40
6.0
 40
6.0
 40
6.0
 40
7.0
 40
7.0
 40
7.0
 40
8.0
 40
8.0
 40
8.0
 40
9.0
 40
9.0
 40
9.0
 40
10.0
 40
10.0
 40
10.0
 40
10.0
 10
5.033354017469617
 20
-8.891176859537759
 30
0.0
 10
4.998763190375433
 20
-8.868522644042968
 30
0.0
 10
4.950149536132812
 20
-8.857765197753906
 30
0.0
 10
4.903838263617621
 20
-8.866522047254774
 30
0.0
 10
4.579881456163193
 20
-8.981234232584634
 30
0.0
 10
5.02311537000868
 20
-9.160349527994791
 30
0.0
 10
4.951359219021266
 20
-8.93845960828993
 30
0.0
 10
4.910324096679687
 20
-8.904862297905815
 30
0.0
 10
4.827725728352864
 20
-8.963645087348089
 30
0.0
 10
4.89526875813802
 20
-8.982879638671875
 30
0.0
 10
4.91681416829427
 20
-8.980286492241752
 30
0.0
 10
4.887258741590711
 20
-8.999738057454425
 30
0.0
 10
4.880418565538193
 20
-8.987808227539062
 30
0.0
 10
4.810740152994791
 20
-8.945836385091144
 30
0.0
 10
4.930894639756943
 20
-8.894290500217012
 30
0.0
 10
4.969250149197048
 20
-8.937531365288627
 30
0.0
 10
5.010369194878472
 20
-8.997387356228298
 30
0.0
 10
4.909161885579426
 20
-9.053263346354166
 30
0.0
 10
4.914041307237412
 20
-9.118334452311197
 30
0.0
 10
4.914541456434461
 20
-9.119795905219183
 30
0.0
 10
4.915089077419704
 20
-9.121121724446613
 30
0.0
 10
4.915601094563801
 20
-9.122549268934461
 30
0.0
 10
4.915601094563801
 20
-9.122549268934461
 30
0.0
 10
5.005022684733072
 20
-9.122549268934461
 30
0.0
 10
5.005022684733072
 20
-9.122549268934461
 30
0.0
 10
5.005644904242621
 20
-9.104437934027776
 30
0.0
 10
5.013946533203125
 20
-9.080618116590711
 30
0.0
 10
5.033354017469617
 20
-9.050308227539062
 30
0.0
 10
5.033354017469617
 20
-9.050308227539062
 30
0.0
 10
5.033354017469617
 20
-8.891176859537759
 30
0.0
 10
5.033354017469617
 20
-8.891176859537759
 30
0.0
  0
HATCH
  5
CB
330
70
100
AcDbEntity
  8
Luffy
 62
   250
420
  2301728
440
 33554559
100
AcDbHatch
 10
0.0
 20
0.0
 30
0.0
210
0.0
220
0.0
230
1.0
  2
SOLID
 70
     1
 71
     1
 91
        1
 92
        1
 93
        1
 72
     4
 94
        3
 73
     0
 74
     0
 95
       35
 96
       31
 40
0.0
 40
0.0
 40
0.0
 40
0.0
 40
1.0
 40
1.0
 40
1.0
 40
2.0
 40
2.0
 40
2.0
 40
3.0
 40
3.0
 40
3.0
 40
4.0
 40
4.0
 40
4.0
 40
5.0
 40
5.0
 40
5.0
 40
6.0
 40
6.0
 40
6.0
 40
7.0
 40
7.0
 40
7.0
 40
8.0
 40
8.0
 40
8.0
 40
9.0
 40
9.0
 40
9.0
 40
10.0
 40
10.0
 40
10.0
 40
10.0
 10
5.033354017469617
 20
-8.891176859537759
 10
4.998763190375433
 20
-8.868522644042968
 10
4.950149536132812
 20
-8.857765197753906
 10
4.903838263617621
 20
-8.866522047254774
 10
4.579881456163193
 20
-8.981234232584634
 10
5.02311537000868
 20
-9.160349527994791
 10
4.951359219021266
 20
-8.93845960828993
 10
4.910324096679687
 20
-8.904862297905815
 10
4.827725728352864
 20
-8.963645087348089
 10
4.89526875813802
 20
-8.982879638671875
 10
4.91681416829427
 20
-8.980286492241752
 10
4.887258741590711
 20
-8.999738057454425
 10
4.880418565538193
 20
-8.987808227539062
 10
4.810740152994791
 20
-8.945836385091144
 10
4.930894639756943
 20
-8.894290500217012
 10
4.969250149197048
 20
-8.937531365288627
 10
5.010369194878472
 20
-8.997387356228298
 10
4.909161885579426
 20
-9.053263346354166
 10
4.914041307237412
 20
-9.118334452311197
 10
4.914541456434461
 20
-9.119795905219183
 10
4.915089077419704
 20
-9.121121724446613
 10
4.915601094563801
 20
-9.122549268934461
 10
4.915601094563801
 20
-9.122549268934461
 10
5.005022684733072
 20
-9.122549268934461
 10
5.005022684733072
 20
-9.122549268934461
 10
5.005644904242621
 20
-9.104437934027776
 10
5.013946533203125
 20
-9.080618116590711
 10
5.033354017469617
 20
-9.050308227539062
 10
5.033354017469617
 20
-9.050308227539062
 10
5.033354017469617
 20
-8.891176859537759
 10
5.033354017469617
 20
-8.891176859537759
 97
        0
 97
        1
330
CA
 75
     2
 76
     1
 98
        1
 10
0.0
 20
0.0
450
        0
451
        0
460
0.0
461
0.0
452
        0
462
0.0
453
        0
470

  0
SPLINE
  5
CC
330
70
100
AcDbEntity
  8
Luffy
100
AcDbSpline
210
0.0
220
0.0
230
1.0
 70
     9
 71
     3
 72
    17
 73
    13
 74
     0
 42
0.0000000001
 43
0.0000000001
 40
0.0
 40
0.0
 40
0.0
 40
0.0
 40
1.0
 40
1.0
 40
1.0
 40
2.0
 40
2.0
 40
2.0
 40
3.0
 40
3.0
 40
3.0
 40
4.0
 40
4.0
 40
4.0
 40
4.0
 10
5.00852796766493
 20
-9.122549268934461
 30
0.0
 10
5.00852796766493
 20
-9.122549268934461
 30
0.0
 10
5.033354017469617
 20
-9.122549268934461
 30
0.0
 10
5.033354017469617
 20
-9.122549268934461
 30
0.0
 10
5.033354017469617
 20
-9.122549268934461
 30
0.0
 10
5.033354017469617
 20
-9.072622511121961
 30
0.0
 10
5.033354017469617
 20
-9.072622511121961
 30
0.0
 10
5.033258226182725
 20
-9.072652180989582
 30
0.0
 10
5.033171759711371
 20
-9.072674221462673
 30
0.0
 10
5.033075968424478
 20
-9.072703891330293
 30
0.0
 10
5.011075337727864
 20
-9.092962476942274
 30
0.0
 10
5.005200703938801
 20
-9.109583536783853
 30
0.0
 10
5.00852796766493
 20
-9.122549268934461
 30
0.0
  0
HATCH
  5
CD
330
70
100
AcDbEntity
  8
Luffy
 62
   250
420
  2301728
440
 33554559
100
AcDbHatch
 10
0.0
 20
0.0
 30
0.0
210
0.0
220
0.0
230
1.0
  2
SOLID
 70
     1
 71
     1
 91
        1
 92
        1
 93
        1
 72
     4
 94
        3
 73
     0
 74
     0
 95
       17
 96
       13
 40
0.0
 40
0.0
 40
0.0
 40
0.0
 40
1.0
 40
1.0
 40
1.0
 40
2.0
 40
2.0
 40
2.0
 40
3.0
 40
3.0
 40
3.0
 40
4.0
 40
4.0
 40
4.0
 40
4.0
 10
5.00852796766493
 20
-9.122549268934461
 10
5.00852796766493
 20
-9.122549268934461
 10
5.033354017469617
 20
-9.122549268934461
 10
5.033354017469617
 20
-9.122549268934461
 10
5.033354017469617
 20
-9.122549268934461
 10
5.033354017469617
 20
-9.072622511121961
 10
5.033354017469617
 20
-9.072622511121961
 10
5.033258226182725
 20
-9.072652180989582
 10
5.033171759711371
 20
-9.072674221462673
 10
5.033075968424478
 20
-9.072703891330293
 10
5.011075337727864
 20
-9.092962476942274
 10
5.005200703938801
 20
-9.109583536783853
 10
5.00852796766493
 20
-9.122549268934461
 97
        0
 97
        1
330
CC
 75
     2
 76
     1
 98
        1
 10
0.0
 20
0.0
450
        0
451
        0
460
0.0
461
0.0
452
        0
462
0.0
453
        0
470

  0
SPLINE
  5
CE
330
70
100
AcDbEntity
  8
Luffy
100
AcDbSpline
210
0.0
220
0.0
230
1.0
 70
     9
 71
     3
 72
    14
 73
    10
 74
     0
 42
0.0000000001
 43
0.0000000001
 40
0.0
 40
0.0
 40
0.0
 40
0.0
 40
1.0
 40
1.0
 40
1.0
 40
2.0
 40
2.0
 40
2.0
 40
3.0
 40
3.0
 40
3.0
 40
3.0
 10
4.673432244194878
 20
-8.886649237738714
 30
0.0
 10
4.667589823404947
 20
-8.833339267306858
 30
0.0
 10
4.555676778157551
 20
-8.797967698838975
 30
0.0
 10
4.614747789171006
 20
-8.881395128038194
 30
0.0
 10
4.629374186197916
 20
-8.88499026828342
 30
0.0
 10
4.613510979546441
 20
-8.888925340440538
 30
0.0
 10
4.606224060058593
 20
-8.889789157443575
 30
0.0
 10
4.533487108018662
 20
-8.806330362955728
 30
0.0
 10
4.688465542263454
 20
-8.796867370605468
 30
0.0
 10
4.673432244194878
 20
-8.886649237738714
 30
0.0
  0
SPLINE
  5
CF
330
70
100
AcDbEntity
  8
Luffy
100
AcDbSpline
210
0.0
220
0.0
230
1.0
 70
     9
 71
     3
 72
    29
 73
    25
 74
     0
 42
0.0000000001
 43
0.0000000001
 40
0.0
 40
0.0
 40
0.0
 40
0.0
 40
1.0
 40
1.0
 40
1.0
 40
2.0
 40
2.0
 40
2.0
 40
3.0
 40
3.0
 40
3.0
 40
4.0
 40
4.0
 40
4.0
 40
5.0
 40
5.0
 40
5.0
 40
6.0
 40
6.0
 40
6.0
 40
7.0
 40
7.0
 40
7.0
 40
8.0
 40
8.0
 40
8.0
 40
8.0
 10
4.714464823404947
 20
-9.082285563151041
 30
0.0
 10
4.744762844509548
 20
-9.126194424099391
 30
0.0
 10
4.806436326768662
 20
-9.088420444064668
 30
0.0
 10
4.756370544433593
 20
-9.052140977647569
 30
0.0
 10
4.740353054470485
 20
-9.04927995469835
 30
0.0
 10
4.76241217719184
 20
-9.037342495388454
 30
0.0
 10
4.767428927951388
 20
-9.050978766547308
 30
0.0
 10
4.818956163194443
 20
-9.110488891601562
 30
0.0
 10
4.729426066080728
 20
-9.131541781955293
 30
0.0
 10
4.701171027289496
 20
-9.078686184353298
 30
0.0
 10
4.670953538682725
 20
-9.008550855848524
 30
0.0
 10
4.746434529622395
 20
-8.978384229871961
 30
0.0
 10
4.7431640625
 20
-8.91219753689236
 30
0.0
 10
4.653414408365884
 20
-8.565306769476995
 30
0.0
 10
4.377249823676215
 20
-8.957579718695745
 30
0.0
 10
4.654516432020399
 20
-8.927617390950519
 30
0.0
 10
4.682868109809027
 20
-8.924188401963975
 30
0.0
 10
4.566395229763454
 20
-9.043824089898002
 30
0.0
 10
4.657969156901041
 20
-9.122549268934461
 30
0.0
 10
4.657969156901041
 20
-9.122549268934461
 30
0.0
 10
4.832977294921875
 20
-9.122549268934461
 30
0.0
 10
4.832977294921875
 20
-9.122549268934461
 30
0.0
 10
4.875584072536891
 20
-9.039221021864149
 30
0.0
 10
4.672676934136284
 20
-8.890085008409288
 30
0.0
 10
4.714464823404947
 20
-9.082285563151041
 30
0.0
  0
HATCH
  5
D0
330
70
100
AcDbEntity
  8
Luffy
 62
   250
420
  2301728
440
 33554559
100
AcDbHatch
 10
0.0
 20
0.0
 30
0.0
210
0.0
220
0.0
230
1.0
  2
SOLID
 70
     1
 71
     1
 91
        2
 92
        1
 93
        1
 72
     4
 94
        3
 73
     0
 74
     0
 95
       14
 96
       10
 40
0.0
 40
0.0
 40
0.0
 40
0.0
 40
1.0
 40
1.0
 40
1.0
 40
2.0
 40
2.0
 40
2.0
 40
3.0
 40
3.0
 40
3.0
 40
3.0
 10
4.673432244194878
 20
-8.886649237738714
 10
4.667589823404947
 20
-8.833339267306858
 10
4.555676778157551
 20
-8.797967698838975
 10
4.614747789171006
 20
-8.881395128038194
 10
4.629374186197916
 20
-8.88499026828342
 10
4.613510979546441
 20
-8.888925340440538
 10
4.606224060058593
 20
-8.889789157443575
 10
4.533487108018662
 20
-8.806330362955728
 10
4.688465542263454
 20
-8.796867370605468
 10
4.673432244194878
 20
-8.886649237738714
 97
        0
 97
        1
330
CE
 92
        1
 93
        1
 72
     4
 94
        3
 73
     0
 74
     0
 95
       29
 96
       25
 40
0.0
 40
0.0
 40
0.0
 40
0.0
 40
1.0
 40
1.0
 40
1.0
 40
2.0
 40
2.0
 40
2.0
 40
3.0
 40
3.0
 40
3.0
 40
4.0
 40
4.0
 40
4.0
 40
5.0
 40
5.0
 40
5.0
 40
6.0
 40
6.0
 40
6.0
 40
7.0
 40
7.0
 40
7.0
 40
8.0
 40
8.0
 40
8.0
 40
8.0
 10
4.714464823404947
 20
-9.082285563151041
 10
4.744762844509548
 20
-9.126194424099391
 10
4.806436326768662
 20
-9.088420444064668
 10
4.756370544433593
 20
-9.052140977647569
 10
4.740353054470485
 20
-9.04927995469835
 10
4.76241217719184
 20
-9.037342495388454
 10
4.767428927951388
 20
-9.050978766547308
 10
4.818956163194443
 20
-9.110488891601562
 10
4.729426066080728
 20
-9.131541781955293
 10
4.701171027289496
 20
-9.078686184353298
 10
4.670953538682725
 20
-9.008550855848524
 10
4.746434529622395
 20
-8.978384229871961
 10
4.7431640625
 20
-8.91219753689236
 10
4.653414408365884
 20
-8.565306769476995
 10
4.377249823676215
 20
-8.957579718695745
 10
4.654516432020399
 20
-8.927617390950519
 10
4.682868109809027
 20
-8.924188401963975
 10
4.566395229763454
 20
-9.043824089898002
 10
4.657969156901041
 20
-9.122549268934461
 10
4.657969156901041
 20
-9.122549268934461
 10
4.832977294921875
 20
-9.122549268934461
 10
4.832977294921875
 20
-9.122549268934461
 10
4.875584072536891
 20
-9.039221021864149
 10
4.672676934136284
 20
-8.890085008409288
 10
4.714464823404947
 20
-9.082285563151041
 97
        0
 97
        1
330
CF
 75
     2
 76
     1
 98
        1
 10
0.0
 20
0.0
450
        0
451
        0
460
0.0
461
0.0
452
        0
462
0.0
453
        0
470

  0
SPLINE
  5
D1
330
70
100
AcDbEntity
  8
Luffy
100
AcDbSpline
210
0.0
220
0.0
230
1.0
 70
     9
 71
     3
 72
    11
 73
     7
 74
     0
 42
0.0000000001
 43
0.0000000001
 40
0.0
 40
0.0
 40
0.0
 40
0.0
 40
1.0
 40
1.0
 40
1.0
 40
2.0
 40
2.0
 40
2.0
 40
2.0
 10
5.033354017469617
 20
-8.379831949869791
 30
0.0
 10
5.004615783691406
 20
-8.426434834798175
 30
0.0
 10
5.010950724283853
 20
-8.460933261447483
 30
0.0
 10
5.033354017469617
 20
-8.482927110460069
 30
0.0
 10
5.033354017469617
 20
-8.482927110460069
 30
0.0
 10
5.033354017469617
 20
-8.379831949869791
 30
0.0
 10
5.033354017469617
 20
-8.379831949869791
 30
0.0
  0
HATCH
  5
D2
330
70
100
AcDbEntity
  8
Luffy
 62
   250
420
  2301728
440
 33554559
100
AcDbHatch
 10
0.0
 20
0.0
 30
0.0
210
0.0
220
0.0
230
1.0
  2
SOLID
 70
     1
 71
     1
 91
        1
 92
        1
 93
        1
 72
     4
 94
        3
 73
     0
 74
     0
 95
       11
 96
        7
 40
0.0
 40
0.0
 40
0.0
 40
0.0
 40
1.0
 40
1.0
 40
1.0
 40
2.0
 40
2.0
 40
2.0
 40
2.0
 10
5.033354017469617
 20
-8.379831949869791
 10
5.004615783691406
 20
-8.426434834798175
 10
5.010950724283853
 20
-8.460933261447483
 10
5.033354017469617
 20
-8.482927110460069
 10
5.033354017469617
 20
-8.482927110460069
 10
5.033354017469617
 20
-8.379831949869791
 10
5.033354017469617
 20
-8.379831949869791
 97
        0
 97
        1
330
D1
 75
     2
 76
     1
 98
        1
 10
0.0
 20
0.0
450
        0
451
        0
460
0.0
461
0.0
452
        0
462
0.0
453
        0
470

  0
SPLINE
  5
D3
330
70
100
AcDbEntity
  8
Luffy
100
AcDbSpline
210
0.0
220
0.0
230
1.0
 70
     9
 71
     3
 72
    26
 73
    22
 74
     0
 42
0.0000000001
 43
0.0000000001
 40
0.0
 40
0.0
 40
0.0
 40
0.0
 40
1.0
 40
1.0
 40
1.0
 40
2.0
 40
2.0
 40
2.0
 40
3.0
 40
3.0
 40
3.0
 40
4.0
 40
4.0
 40
4.0
 40
5.0
 40
5.0
 40
5.0
 40
6.0
 40
6.0
 40
6.0
 40
7.0
 40
7.0
 40
7.0
 40
7.0
 10
2.543496025933159
 20
-8.199876573350694
 30
0.0
 10
2.545088873969183
 20
-8.194053649902343
 30
0.0
 10
2.545906914605034
 20
-8.188882615831163
 30
0.0
 10
2.54608154296875
 20
-8.184295654296875
 30
0.0
 10
2.54608154296875
 20
-8.184295654296875
 30
0.0
 10
2.465389675564236
 20
-8.184295654296875
 30
0.0
 10
2.465389675564236
 20
-8.184295654296875
 30
0.0
 10
2.46875508626302
 20
-8.189382765028211
 30
0.0
 10
2.477557712131076
 20
-8.193942599826389
 30
0.0
 10
2.494405110677083
 20
-8.196836683485242
 30
0.0
 10
2.506542629665798
 20
-8.189618428548175
 30
0.0
 10
2.496837192111545
 20
-8.202313741048175
 30
0.0
 10
2.491949293348524
 20
-8.207558525933158
 30
0.0
 10
2.469533284505208
 20
-8.204095628526475
 30
0.0
 10
2.460042317708333
 20
-8.194841172960069
 30
0.0
 10
2.458654615614149
 20
-8.184295654296875
 30
0.0
 10
2.458654615614149
 20
-8.184295654296875
 30
0.0
 10
2.423197428385416
 20
-8.184295654296875
 30
0.0
 10
2.423197428385416
 20
-8.184295654296875
 30
0.0
 10
2.407452053493923
 20
-8.242870754665798
 30
0.0
 10
2.434479607476128
 20
-8.291178385416666
 30
0.0
 10
2.543496025933159
 20
-8.199876573350694
 30
0.0
  0
HATCH
  5
D4
330
70
100
AcDbEntity
  8
Luffy
 62
   250
420
  2301728
440
 33554559
100
AcDbHatch
 10
0.0
 20
0.0
 30
0.0
210
0.0
220
0.0
230
1.0
  2
SOLID
 70
     1
 71
     1
 91
        1
 92
        1
 93
        1
 72
     4
 94
        3
 73
     0
 74
     0
 95
       26
 96
       22
 40
0.0
 40
0.0
 40
0.0
 40
0.0
 40
1.0
 40
1.0
 40
1.0
 40
2.0
 40
2.0
 40
2.0
 40
3.0
 40
3.0
 40
3.0
 40
4.0
 40
4.0
 40
4.0
 40
5.0
 40
5.0
 40
5.0
 40
6.0
 40
6.0
 40
6.0
 40
7.0
 40
7.0
 40
7.0
 40
7.0
 10
2.543496025933159
 20
-8.199876573350694
 10
2.545088873969183
 20
-8.194053649902343
 10
2.545906914605034
 20
-8.188882615831163
 10
2.54608154296875
 20
-8.184295654296875
 10
2.54608154296875
 20
-8.184295654296875
 10
2.465389675564236
 20
-8.184295654296875
 10
2.465389675564236
 20
-8.184295654296875
 10
2.46875508626302
 20
-8.189382765028211
 10
2.477557712131076
 20
-8.193942599826389
 10
2.494405110677083
 20
-8.196836683485242
 10
2.506542629665798
 20
-8.189618428548175
 10
2.496837192111545
 20
-8.202313741048175
 10
2.491949293348524
 20
-8.207558525933158
 10
2.469533284505208
 20
-8.204095628526475
 10
2.460042317708333
 20
-8.194841172960069
 10
2.458654615614149
 20
-8.184295654296875
 10
2.458654615614149
 20
-8.184295654296875
 10
2.423197428385416
 20
-8.184295654296875
 10
2.423197428385416
 20
-8.184295654296875
 10
2.407452053493923
 20
-8.242870754665798
 10
2.434479607476128
 20
-8.291178385416666
 10
2.543496025933159
 20
-8.199876573350694
 97
        0
 97
        1
330
D3
 75
     2
 76
     1
 98
        1
 10
0.0
 20
0.0
450
        0
451
        0
460
0.0
461
0.0
452
        0
462
0.0
453
        0
470

  0
SPLINE
  5
D5
330
70
100
AcDbEntity
  8
Luffy
100
AcDbSpline
210
0.0
220
0.0
230
1.0
 70
     9
 71
     3
 72
    14
 73
    10
 74
     0
 42
0.0000000001
 43
0.0000000001
 40
0.0
 40
0.0
 40
0.0
 40
0.0
 40
1.0
 40
1.0
 40
1.0
 40
2.0
 40
2.0
 40
2.0
 40
3.0
 40
3.0
 40
3.0
 40
3.0
 10
4.467059665256075
 20
-8.150266011555988
 30
0.0
 10
4.466248406304253
 20
-8.151767306857639
 30
0.0
 10
4.465548197428384
 20
-8.152764214409721
 30
0.0
 10
4.464927673339843
 20
-8.153422037760416
 30
0.0
 10
4.464927673339843
 20
-8.153422037760416
 30
0.0
 10
4.509312099880641
 20
-8.153422037760416
 30
0.0
 10
4.509312099880641
 20
-8.153422037760416
 30
0.0
 10
4.503572252061631
 20
-8.14749060736762
 30
0.0
 10
4.490498012966579
 20
-8.145076327853733
 30
0.0
 10
4.467059665256075
 20
-8.150266011555988
 30
0.0
  0
HATCH
  5
D6
330
70
100
AcDbEntity
  8
Luffy
 62
   250
420
  2301728
440
 33554559
100
AcDbHatch
 10
0.0
 20
0.0
 30
0.0
210
0.0
220
0.0
230
1.0
  2
SOLID
 70
     1
 71
     1
 91
        1
 92
        1
 93
        1
 72
     4
 94
        3
 73
     0
 74
     0
 95
       14
 96
       10
 40
0.0
 40
0.0
 40
0.0
 40
0.0
 40
1.0
 40
1.0
 40
1.0
 40
2.0
 40
2.0
 40
2.0
 40
3.0
 40
3.0
 40
3.0
 40
3.0
 10
4.467059665256075
 20
-8.150266011555988
 10
4.466248406304253
 20
-8.151767306857639
 10
4.465548197428384
 20
-8.152764214409721
 10
4.464927673339843
 20
-8.153422037760416
 10
4.464927673339843
 20
-8.153422037760416
 10
4.509312099880641
 20
-8.153422037760416
 10
4.509312099880641
 20
-8.153422037760416
 10
4.503572252061631
 20
-8.14749060736762
 10
4.490498012966579
 20
-8.145076327853733
 10
4.467059665256075
 20
-8.150266011555988
 97
        0
 97
        1
330
D5
 75
     2
 76
     1
 98
        1
 10
0.0
 20
0.0
450
        0
451
        0
460
0.0
461
0.0
452
        0
462
0.0
453
        0
470

  0
SPLINE
  5
D7
330
70
100
AcDbEntity
  8
Luffy
100
AcDbSpline
210
0.0
220
0.0
230
1.0
 70
     9
 71
     3
 72
    17
 73
    13
 74
     0
 42
0.0000000001
 43
0.0000000001
 40
0.0
 40
0.0
 40
0.0
 40
0.0
 40
1.0
 40
1.0
 40
1.0
 40
2.0
 40
2.0
 40
2.0
 40
3.0
 40
3.0
 40
3.0
 40
4.0
 40
4.0
 40
4.0
 40
4.0
 10
2.265101114908854
 20
-8.370891994900173
 30
0.0
 10
2.265101114908854
 20
-8.370891994900173
 30
0.0
 10
2.265101114908854
 20
-8.445582919650608
 30
0.0
 10
2.265101114908854
 20
-8.445582919650608
 30
0.0
 10
2.295592414008246
 20
-8.469779120551214
 30
0.0
 10
2.290022956000433
 20
-8.515702989366319
 30
0.0
 10
2.265101114908854
 20
-8.531411912706163
 30
0.0
 10
2.265101114908854
 20
-8.531411912706163
 30
0.0
 10
2.265101114908854
 20
-8.586940341525608
 30
0.0
 10
2.265101114908854
 20
-8.586940341525608
 30
0.0
 10
2.34434339735243
 20
-8.555792066786024
 30
0.0
 10
2.410802205403645
 20
-8.459647284613714
 30
0.0
 10
2.265101114908854
 20
-8.370891994900173
 30
0.0
  0
HATCH
  5
D8
330
70
100
AcDbEntity
  8
Luffy
 62
   250
420
  2301728
440
 33554559
100
AcDbHatch
 10
0.0
 20
0.0
 30
0.0
210
0.0
220
0.0
230
1.0
  2
SOLID
 70
     1
 71
     1
 91
        1
 92
        1
 93
        1
 72
     4
 94
        3
 73
     0
 74
     0
 95
       17
 96
       13
 40
0.0
 40
0.0
 40
0.0
 40
0.0
 40
1.0
 40
1.0
 40
1.0
 40
2.0
 40
2.0
 40
2.0
 40
3.0
 40
3.0
 40
3.0
 40
4.0
 40
4.0
 40
4.0
 40
4.0
 10
2.265101114908854
 20
-8.370891994900173
 10
2.265101114908854
 20
-8.370891994900173
 10
2.265101114908854
 20
-8.445582919650608
 10
2.265101114908854
 20
-8.445582919650608
 10
2.295592414008246
 20
-8.469779120551214
 10
2.290022956000433
 20
-8.515702989366319
 10
2.265101114908854
 20
-8.531411912706163
 10
2.265101114908854
 20
-8.531411912706163
 10
2.265101114908854
 20
-8.586940341525608
 10
2.265101114908854
 20
-8.586940341525608
 10
2.34434339735243
 20
-8.555792066786024
 10
2.410802205403645
 20
-8.459647284613714
 10
2.265101114908854
 20
-8.370891994900173
 97
        0
 97
        1
330
D7
 75
     2
 76
     1
 98
        1
 10
0.0
 20
0.0
450
        0
451
        0
460
0.0
461
0.0
452
        0
462
0.0
453
        0
470

  0
SPLINE
  5
D9
330
70
100
AcDbEntity
  8
Luffy
100
AcDbSpline
210
0.0
220
0.0
230
1.0
 70
     9
 71
     3
 72
    11
 73
     7
 74
     0
 42
0.0000000001
 43
0.0000000001
 40
0.0
 40
0.0
 40
0.0
 40
0.0
 40
1.0
 40
1.0
 40
1.0
 40
2.0
 40
2.0
 40
2.0
 40
2.0
 10
2.265101114908854
 20
-8.477016025119358
 30
0.0
 10
2.265101114908854
 20
-8.477016025119358
 30
0.0
 10
2.265101114908854
 20
-8.518391927083332
 30
0.0
 10
2.265101114908854
 20
-8.518391927083332
 30
0.0
 10
2.269864400227864
 20
-8.508426242404514
 30
0.0
 10
2.269800821940104
 20
-8.492554558648002
 30
0.0
 10
2.265101114908854
 20
-8.477016025119358
 30
0.0
  0
HATCH
  5
DA
330
70
100
AcDbEntity
  8
Luffy
 62
   250
420
  2301728
440
 33554559
100
AcDbHatch
 10
0.0
 20
0.0
 30
0.0
210
0.0
220
0.0
230
1.0
  2
SOLID
 70
     1
 71
     1
 91
        1
 92
        1
 93
        1
 72
     4
 94
        3
 73
     0
 74
     0
 95
       11
 96
        7
 40
0.0
 40
0.0
 40
0.0
 40
0.0
 40
1.0
 40
1.0
 40
1.0
 40
2.0
 40
2.0
 40
2.0
 40
2.0
 10
2.265101114908854
 20
-8.477016025119358
 10
2.265101114908854
 20
-8.477016025119358
 10
2.265101114908854
 20
-8.518391927083332
 10
2.265101114908854
 20
-8.518391927083332
 10
2.269864400227864
 20
-8.508426242404514
 10
2.269800821940104
 20
-8.492554558648002
 10
2.265101114908854
 20
-8.477016025119358
 97
        0
 97
        1
330
D9
 75
     2
 76
     1
 98
        1
 10
0.0
 20
0.0
450
        0
451
        0
460
0.0
461
0.0
452
        0
462
0.0
453
        0
470

  0
SPLINE
  5
DB
330
70
100
AcDbEntity
  8
Luffy
100
AcDbSpline
210
0.0
220
0.0
230
1.0
 70
     9
 71
     3
 72
    23
 73
    19
 74
     0
 42
0.0000000001
 43
0.0000000001
 40
0.0
 40
0.0
 40
0.0
 40
0.0
 40
1.0
 40
1.0
 40
1.0
 40
2.0
 40
2.0
 40
2.0
 40
3.0
 40
3.0
 40
3.0
 40
4.0
 40
4.0
 40
4.0
 40
5.0
 40
5.0
 40
5.0
 40
6.0
 40
6.0
 40
6.0
 40
6.0
 10
4.15684848361545
 20
-9.069034152560762
 30
0.0
 10
4.17578633626302
 20
-9.067774454752603
 30
0.0
 10
4.154902140299478
 20
-9.076875474717882
 30
0.0
 10
4.145334031846788
 20
-9.080111185709634
 30
0.0
 10
4.053119235568575
 20
-8.996253967285156
 30
0.0
 10
4.323743184407551
 20
-8.947093539767793
 30
0.0
 10
4.206155565049913
 20
-9.122549268934461
 30
0.0
 10
4.206155565049913
 20
-9.122549268934461
 30
0.0
 10
4.286833021375867
 20
-9.122549268934461
 30
0.0
 10
4.286833021375867
 20
-9.122549268934461
 30
0.0
 10
4.296122233072916
 20
-9.103306240505641
 30
0.0
 10
4.307876586914062
 20
-9.081802368164062
 30
0.0
 10
4.323158264160156
 20
-9.057231479220918
 30
0.0
 10
4.235577901204426
 20
-8.746195475260416
 30
0.0
 10
3.84177992078993
 20
-9.213582356770832
 30
0.0
 10
4.206711663140191
 20
-9.101626925998262
 30
0.0
 10
4.312093098958333
 20
-9.006941901312933
 30
0.0
 10
4.065367804633246
 20
-8.990634494357637
 30
0.0
 10
4.15684848361545
 20
-9.069034152560762
 30
0.0
  0
HATCH
  5
DC
330
70
100
AcDbEntity
  8
Luffy
 62
   250
420
  2301728
440
 33554559
100
AcDbHatch
 10
0.0
 20
0.0
 30
0.0
210
0.0
220
0.0
230
1.0
  2
SOLID
 70
     1
 71
     1
 91
        1
 92
        1
 93
        1
 72
     4
 94
        3
 73
     0
 74
     0
 95
       23
 96
       19
 40
0.0
 40
0.0
 40
0.0
 40
0.0
 40
1.0
 40
1.0
 40
1.0
 40
2.0
 40
2.0
 40
2.0
 40
3.0
 40
3.0
 40
3.0
 40
4.0
 40
4.0
 40
4.0
 40
5.0
 40
5.0
 40
5.0
 40
6.0
 40
6.0
 40
6.0
 40
6.0
 10
4.15684848361545
 20
-9.069034152560762
 10
4.17578633626302
 20
-9.067774454752603
 10
4.154902140299478
 20
-9.076875474717882
 10
4.145334031846788
 20
-9.080111185709634
 10
4.053119235568575
 20
-8.996253967285156
 10
4.323743184407551
 20
-8.947093539767793
 10
4.206155565049913
 20
-9.122549268934461
 10
4.206155565049913
 20
-9.122549268934461
 10
4.286833021375867
 20
-9.122549268934461
 10
4.286833021375867
 20
-9.122549268934461
 10
4.296122233072916
 20
-9.103306240505641
 10
4.307876586914062
 20
-9.081802368164062
 10
4.323158264160156
 20
-9.057231479220918
 10
4.235577901204426
 20
-8.746195475260416
 10
3.84177992078993
 20
-9.213582356770832
 10
4.206711663140191
 20
-9.101626925998262
 10
4.312093098958333
 20
-9.006941901312933
 10
4.065367804633246
 20
-8.990634494357637
 10
4.15684848361545
 20
-9.069034152560762
 97
        0
 97
        1
330
DB
 75
     2
 76
     1
 98
        1
 10
0.0
 20
0.0
450
        0
451
        0
460
0.0
461
0.0
452
        0
462
0.0
453
        0
470

  0
SPLINE
  5
DD
330
70
100
AcDbEntity
  8
Luffy
100
AcDbSpline
210
0.0
220
0.0
230
1.0
 70
     9
 71
     3
 72
    17
 73
    13
 74
     0
 42
0.0000000001
 43
0.0000000001
 40
0.0
 40
0.0
 40
0.0
 40
0.0
 40
1.0
 40
1.0
 40
1.0
 40
2.0
 40
2.0
 40
2.0
 40
3.0
 40
3.0
 40
3.0
 40
4.0
 40
4.0
 40
4.0
 40
4.0
 10
2.273119608561197
 20
-8.186774359809026
 30
0.0
 10
2.271215650770399
 20
-8.185707092285156
 30
0.0
 10
2.269319322374131
 20
-8.185076395670572
 30
0.0
 10
2.267418755425346
 20
-8.184295654296875
 30
0.0
 10
2.267418755425346
 20
-8.184295654296875
 30
0.0
 10
2.265101114908854
 20
-8.184295654296875
 30
0.0
 10
2.265101114908854
 20
-8.184295654296875
 30
0.0
 10
2.265101114908854
 20
-8.184295654296875
 30
0.0
 10
2.265101114908854
 20
-8.311385260687933
 30
0.0
 10
2.265101114908854
 20
-8.311385260687933
 30
0.0
 10
2.305513170030381
 20
-8.302068074544269
 30
0.0
 10
2.32615237765842
 20
-8.264055040147569
 30
0.0
 10
2.273119608561197
 20
-8.186774359809026
 30
0.0
  0
HATCH
  5
DE
330
70
100
AcDbEntity
  8
Luffy
 62
   250
420
  2301728
440
 33554559
100
AcDbHatch
 10
0.0
 20
0.0
 30
0.0
210
0.0
220
0.0
230
1.0
  2
SOLID
 70
     1
 71
     1
 91
        1
 92
        1
 93
        1
 72
     4
 94
        3
 73
     0
 74
     0
 95
       17
 96
       13
 40
0.0
 40
0.0
 40
0.0
 40
0.0
 40
1.0
 40
1.0
 40
1.0
 40
2.0
 40
2.0
 40
2.0
 40
3.0
 40
3.0
 40
3.0
 40
4.0
 40
4.0
 40
4.0
 40
4.0
 10
2.273119608561197
 20
-8.186774359809026
 10
2.271215650770399
 20
-8.185707092285156
 10
2.269319322374131
 20
-8.185076395670572
 10
2.267418755425346
 20
-8.184295654296875
 10
2.267418755425346
 20
-8.184295654296875
 10
2.265101114908854
 20
-8.184295654296875
 10
2.265101114908854
 20
-8.184295654296875
 10
2.265101114908854
 20
-8.184295654296875
 10
2.265101114908854
 20
-8.311385260687933
 10
2.265101114908854
 20
-8.311385260687933
 10
2.305513170030381
 20
-8.302068074544269
 10
2.32615237765842
 20
-8.264055040147569
 10
2.273119608561197
 20
-8.186774359809026
 97
        0
 97
        1
330
DD
 75
     2
 76
     1
 98
        1
 10
0.0
 20
0.0
450
        0
451
        0
460
0.0
461
0.0
452
        0
462
0.0
453
        0
470

  0
SPLINE
  5
DF
330
70
100
AcDbEntity
  8
Luffy
100
AcDbSpline
210
0.0
220
0.0
230
1.0
 70
     9
 71
     3
 72
    17
 73
    13
 74
     0
 42
0.0000000001
 43
0.0000000001
 40
0.0
 40
0.0
 40
0.0
 40
0.0
 40
1.0
 40
1.0
 40
1.0
 40
2.0
 40
2.0
 40
2.0
 40
3.0
 40
3.0
 40
3.0
 40
4.0
 40
4.0
 40
4.0
 40
4.0
 10
4.695225185818141
 20
-8.291011386447483
 30
0.0
 10
4.687834845648871
 20
-8.296502855088975
 30
0.0
 10
4.669692145453558
 20
-8.307121276855468
 30
0.0
 10
4.67930433485243
 20
-8.292636447482639
 30
0.0
 10
4.648809644911024
 20
-8.184267679850259
 30
0.0
 10
4.577861362033419
 20
-8.317220052083332
 30
0.0
 10
4.639496697319878
 20
-8.350062900119358
 30
0.0
 10
4.616628858778211
 20
-8.340645684136283
 30
0.0
 10
4.600622389051649
 20
-8.326346503363714
 30
0.0
 10
4.597629970974391
 20
-8.302041795518663
 30
0.0
 10
4.584058125813801
 20
-8.23470730251736
 30
0.0
 10
4.699132283528645
 20
-8.220917595757377
 30
0.0
 10
4.695225185818141
 20
-8.291011386447483
 30
0.0
  0
SPLINE
  5
E0
330
70
100
AcDbEntity
  8
Luffy
100
AcDbSpline
210
0.0
220
0.0
230
1.0
 70
     9
 71
     3
 72
    26
 73
    22
 74
     0
 42
0.0000000001
 43
0.0000000001
 40
0.0
 40
0.0
 40
0.0
 40
0.0
 40
1.0
 40
1.0
 40
1.0
 40
2.0
 40
2.0
 40
2.0
 40
3.0
 40
3.0
 40
3.0
 40
4.0
 40
4.0
 40
4.0
 40
5.0
 40
5.0
 40
5.0
 40
6.0
 40
6.0
 40
6.0
 40
7.0
 40
7.0
 40
7.0
 40
7.0
 10
4.594146728515625
 20
-8.419314066569009
 30
0.0
 10
4.97554694281684
 20
-8.479545593261718
 30
0.0
 10
4.717182583279079
 20
-8.636951022677951
 30
0.0
 10
4.709063212076822
 20
-8.529688517252603
 30
0.0
 10
4.700140211317274
 20
-8.516658359103733
 30
0.0
 10
4.731741163465711
 20
-8.506095038519964
 30
0.0
 10
4.72015380859375
 20
-8.521258884006076
 30
0.0
 10
4.710869683159722
 20
-8.586427476671007
 30
0.0
 10
4.803551567925347
 20
-8.559755113389757
 30
0.0
 10
4.787540859646266
 20
-8.506046719021266
 30
0.0
 10
4.598339504665798
 20
-8.307034810384113
 30
0.0
 10
4.589676751030816
 20
-8.768757290310329
 30
0.0
 10
4.838719685872395
 20
-8.589520772298175
 30
0.0
 10
4.949213663736978
 20
-8.354715983072916
 30
0.0
 10
4.757120768229166
 20
-8.385776943630641
 30
0.0
 10
4.654884338378906
 20
-8.355445014105901
 30
0.0
 10
4.664293077256943
 20
-8.357374403211805
 30
0.0
 10
4.675607469346787
 20
-8.357666863335502
 30
0.0
 10
4.689143710666232
 20
-8.35575442843967
 30
0.0
 10
4.964287651909722
 20
-8.141063266330295
 30
0.0
 10
4.330545213487413
 20
-8.125495910644531
 30
0.0
 10
4.594146728515625
 20
-8.419314066569009
 30
0.0
  0
HATCH
  5
E1
330
70
100
AcDbEntity
  8
Luffy
 62
   250
420
  2301728
440
 33554559
100
AcDbHatch
 10
0.0
 20
0.0
 30
0.0
210
0.0
220
0.0
230
1.0
  2
SOLID
 70
     1
 71
     1
 91
        2
 92
        1
 93
        1
 72
     4
 94
        3
 73
     0
 74
     0
 95
       17
 96
       13
 40
0.0
 40
0.0
 40
0.0
 40
0.0
 40
1.0
 40
1.0
 40
1.0
 40
2.0
 40
2.0
 40
2.0
 40
3.0
 40
3.0
 40
3.0
 40
4.0
 40
4.0
 40
4.0
 40
4.0
 10
4.695225185818141
 20
-8.291011386447483
 10
4.687834845648871
 20
-8.296502855088975
 10
4.669692145453558
 20
-8.307121276855468
 10
4.67930433485243
 20
-8.292636447482639
 10
4.648809644911024
 20
-8.184267679850259
 10
4.577861362033419
 20
-8.317220052083332
 10
4.639496697319878
 20
-8.350062900119358
 10
4.616628858778211
 20
-8.340645684136283
 10
4.600622389051649
 20
-8.326346503363714
 10
4.597629970974391
 20
-8.302041795518663
 10
4.584058125813801
 20
-8.23470730251736
 10
4.699132283528645
 20
-8.220917595757377
 10
4.695225185818141
 20
-8.291011386447483
 97
        0
 97
        1
330
DF
 92
        1
 93
        1
 72
     4
 94
        3
 73
     0
 74
     0
 95
       26
 96
       22
 40
0.0
 40
0.0
 40
0.0
 40
0.0
 40
1.0
 40
1.0
 40
1.0
 40
2.0
 40
2.0
 40
2.0
 40
3.0
 40
3.0
 40
3.0
 40
4.0
 40
4.0
 40
4.0
 40
5.0
 40
5.0
 40
5.0
 40
6.0
 40
6.0
 40
6.0
 40
7.0
 40
7.0
 40
7.0
 40
7.0
 10
4.594146728515625
 20
-8.419314066569009
 10
4.97554694281684
 20
-8.479545593261718
 10
4.717182583279079
 20
-8.636951022677951
 10
4.709063212076822
 20
-8.529688517252603
 10
4.700140211317274
 20
-8.516658359103733
 10
4.731741163465711
 20
-8.506095038519964
 10
4.72015380859375
 20
-8.521258884006076
 10
4.710869683159722
 20
-8.586427476671007
 10
4.803551567925347
 20
-8.559755113389757
 10
4.787540859646266
 20
-8.506046719021266
 10
4.598339504665798
 20
-8.307034810384113
 10
4.589676751030816
 20
-8.768757290310329
 10
4.838719685872395
 20
-8.589520772298175
 10
4.949213663736978
 20
-8.354715983072916
 10
4.757120768229166
 20
-8.385776943630641
 10
4.654884338378906
 20
-8.355445014105901
 10
4.664293077256943
 20
-8.357374403211805
 10
4.675607469346787
 20
-8.357666863335502
 10
4.689143710666232
 20
-8.35575442843967
 10
4.964287651909722
 20
-8.141063266330295
 10
4.330545213487413
 20
-8.125495910644531
 10
4.594146728515625
 20
-8.419314066569009
 97
        0
 97
        1
330
E0
 75
     2
 76
     1
 98
        1
 10
0.0
 20
0.0
450
        0
451
        0
460
0.0
461
0.0
452
        0
462
0.0
453
        0
470

  0
SPLINE
  5
E2
330
70
100
AcDbEntity
  8
Luffy
100
AcDbSpline
210
0.0
220
0.0
230
1.0
 70
     9
 71
     3
 72
    17
 73
    13
 74
     0
 42
0.0000000001
 43
0.0000000001
 40
0.0
 40
0.0
 40
0.0
 40
0.0
 40
1.0
 40
1.0
 40
1.0
 40
2.0
 40
2.0
 40
2.0
 40
3.0
 40
3.0
 40
3.0
 40
4.0
 40
4.0
 40
4.0
 40
4.0
 10
4.786417643229166
 20
-8.640322367350259
 30
0.0
 10
4.504620869954426
 20
-8.866056654188367
 30
0.0
 10
5.011057535807291
 20
-8.887866550021701
 30
0.0
 10
4.859683566623263
 20
-8.694547017415363
 30
0.0
 10
4.817802429199218
 20
-8.679723951551649
 30
0.0
 10
4.770855373806423
 20
-8.73065185546875
 30
0.0
 10
4.789599100748697
 20
-8.750425550672742
 30
0.0
 10
4.687041388617621
 20
-8.709599812825519
 30
0.0
 10
5.051240709092881
 20
-8.584044562445745
 30
0.0
 10
4.860020955403645
 20
-8.8788579305013
 30
0.0
 10
5.031337314181857
 20
-8.815773857964408
 30
0.0
 10
5.013942294650607
 20
-8.531446668836805
 30
0.0
 10
4.786417643229166
 20
-8.640322367350259
 30
0.0
  0
HATCH
  5
E3
330
70
100
AcDbEntity
  8
Luffy
 62
   250
420
  2301728
440
 33554559
100
AcDbHatch
 10
0.0
 20
0.0
 30
0.0
210
0.0
220
0.0
230
1.0
  2
SOLID
 70
     1
 71
     1
 91
        1
 92
        1
 93
        1
 72
     4
 94
        3
 73
     0
 74
     0
 95
       17
 96
       13
 40
0.0
 40
0.0
 40
0.0
 40
0.0
 40
1.0
 40
1.0
 40
1.0
 40
2.0
 40
2.0
 40
2.0
 40
3.0
 40
3.0
 40
3.0
 40
4.0
 40
4.0
 40
4.0
 40
4.0
 10
4.786417643229166
 20
-8.640322367350259
 10
4.504620869954426
 20
-8.866056654188367
 10
5.011057535807291
 20
-8.887866550021701
 10
4.859683566623263
 20
-8.694547017415363
 10
4.817802429199218
 20
-8.679723951551649
 10
4.770855373806423
 20
-8.73065185546875
 10
4.789599100748697
 20
-8.750425550672742
 10
4.687041388617621
 20
-8.709599812825519
 10
5.051240709092881
 20
-8.584044562445745
 10
4.860020955403645
 20
-8.8788579305013
 10
5.031337314181857
 20
-8.815773857964408
 10
5.013942294650607
 20
-8.531446668836805
 10
4.786417643229166
 20
-8.640322367350259
 97
        0
 97
        1
330
E2
 75
     2
 76
     1
 98
        1
 10
0.0
 20
0.0
450
        0
451
        0
460
0.0
461
0.0
452
        0
462
0.0
453
        0
470

  0
SPLINE
  5
E4
330
70
100
AcDbEntity
  8
Luffy
100
AcDbSpline
210
0.0
220
0.0
230
1.0
 70
     9
 71
     3
 72
    35
 73
    31
 74
     0
 42
0.0000000001
 43
0.0000000001
 40
0.0
 40
0.0
 40
0.0
 40
0.0
 40
1.0
 40
1.0
 40
1.0
 40
2.0
 40
2.0
 40
2.0
 40
3.0
 40
3.0
 40
3.0
 40
4.0
 40
4.0
 40
4.0
 40
5.0
 40
5.0
 40
5.0
 40
6.0
 40
6.0
 40
6.0
 40
7.0
 40
7.0
 40
7.0
 40
8.0
 40
8.0
 40
8.0
 40
9.0
 40
9.0
 40
9.0
 40
10.0
 40
10.0
 40
10.0
 40
10.0
 10
4.495957268608941
 20
-8.20615980360243
 30
0.0
 10
4.47949727376302
 20
-8.210713704427082
 30
0.0
 10
4.464254591200086
 20
-8.207511901855468
 30
0.0
 10
4.449651930067274
 20
-8.199716356065538
 30
0.0
 10
4.469205220540364
 20
-8.206447177463108
 30
0.0
 10
4.489726596408419
 20
-8.196953667534721
 30
0.0
 10
4.501914978027343
 20
-8.184295654296875
 30
0.0
 10
4.501914978027343
 20
-8.184295654296875
 30
0.0
 10
4.428525288899739
 20
-8.184295654296875
 30
0.0
 10
4.428525288899739
 20
-8.184295654296875
 30
0.0
 10
4.429292466905382
 20
-8.185202704535589
 30
0.0
 10
4.429906209309895
 20
-8.186125013563367
 30
0.0
 10
4.430725945366753
 20
-8.187025282118055
 30
0.0
 10
4.42962646484375
 20
-8.186152140299478
 30
0.0
 10
4.428535461425781
 20
-8.185206943088108
 30
0.0
 10
4.427440219455294
 20
-8.184295654296875
 30
0.0
 10
4.427440219455294
 20
-8.184295654296875
 30
0.0
 10
4.339753044976128
 20
-8.184295654296875
 30
0.0
 10
4.339753044976128
 20
-8.184295654296875
 30
0.0
 10
4.361419677734375
 20
-8.208543565538194
 30
0.0
 10
4.379869249131944
 20
-8.238506740993923
 30
0.0
 10
4.41327412923177
 20
-8.251397026909721
 30
0.0
 10
4.494499206542968
 20
-8.283714294433593
 30
0.0
 10
4.557935926649305
 20
-8.237047831217447
 30
0.0
 10
4.568306816948784
 20
-8.184295654296875
 30
0.0
 10
4.568306816948784
 20
-8.184295654296875
 30
0.0
 10
4.520439995659722
 20
-8.184295654296875
 30
0.0
 10
4.520439995659722
 20
-8.184295654296875
 30
0.0
 10
4.517503526475693
 20
-8.193801879882812
 30
0.0
 10
4.509877522786458
 20
-8.202056884765625
 30
0.0
 10
4.495957268608941
 20
-8.20615980360243
 30
0.0
  0
HATCH
  5
E5
330
70
100
AcDbEntity
  8
Luffy
 62
   250
420
  2301728
440
 33554559
100
AcDbHatch
 10
0.0
 20
0.0
 30
0.0
210
0.0
220
0.0
230
1.0
  2
SOLID
 70
     1
 71
     1
 91
        1
 92
        1
 93
        1
 72
     4
 94
        3
 73
     0
 74
     0
 95
       35
 96
       31
 40
0.0
 40
0.0
 40
0.0
 40
0.0
 40
1.0
 40
1.0
 40
1.0
 40
2.0
 40
2.0
 40
2.0
 40
3.0
 40
3.0
 40
3.0
 40
4.0
 40
4.0
 40
4.0
 40
5.0
 40
5.0
 40
5.0
 40
6.0
 40
6.0
 40
6.0
 40
7.0
 40
7.0
 40
7.0
 40
8.0
 40
8.0
 40
8.0
 40
9.0
 40
9.0
 40
9.0
 40
10.0
 40
10.0
 40
10.0
 40
10.0
 10
4.495957268608941
 20
-8.20615980360243
 10
4.47949727376302
 20
-8.210713704427082
 10
4.464254591200086
 20
-8.207511901855468
 10
4.449651930067274
 20
-8.199716356065538
 10
4.469205220540364
 20
-8.206447177463108
 10
4.489726596408419
 20
-8.196953667534721
 10
4.501914978027343
 20
-8.184295654296875
 10
4.501914978027343
 20
-8.184295654296875
 10
4.428525288899739
 20
-8.184295654296875
 10
4.428525288899739
 20
-8.184295654296875
 10
4.429292466905382
 20
-8.185202704535589
 10
4.429906209309895
 20
-8.186125013563367
 10
4.430725945366753
 20
-8.187025282118055
 10
4.42962646484375
 20
-8.186152140299478
 10
4.428535461425781
 20
-8.185206943088108
 10
4.427440219455294
 20
-8.184295654296875
 10
4.427440219455294
 20
-8.184295654296875
 10
4.339753044976128
 20
-8.184295654296875
 10
4.339753044976128
 20
-8.184295654296875
 10
4.361419677734375
 20
-8.208543565538194
 10
4.379869249131944
 20
-8.238506740993923
 10
4.41327412923177
 20
-8.251397026909721
 10
4.494499206542968
 20
-8.283714294433593
 10
4.557935926649305
 20
-8.237047831217447
 10
4.568306816948784
 20
-8.184295654296875
 10
4.568306816948784
 20
-8.184295654296875
 10
4.520439995659722
 20
-8.184295654296875
 10
4.520439995659722
 20
-8.184295654296875
 10
4.517503526475693
 20
-8.193801879882812
 10
4.509877522786458
 20
-8.202056884765625
 10
4.495957268608941
 20
-8.20615980360243
 97
        0
 97
        1
330
E4
 75
     2
 76
     1
 98
        1
 10
0.0
 20
0.0
450
        0
451
        0
460
0.0
461
0.0
452
        0
462
0.0
453
        0
470

  0
SPLINE
  5
E6
330
70
100
AcDbEntity
  8
Luffy
100
AcDbSpline
210
0.0
220
0.0
230
1.0
 70
     9
 71
     3
 72
    23
 73
    19
 74
     0
 42
0.0000000001
 43
0.0000000001
 40
0.0
 40
0.0
 40
0.0
 40
0.0
 40
1.0
 40
1.0
 40
1.0
 40
2.0
 40
2.0
 40
2.0
 40
3.0
 40
3.0
 40
3.0
 40
4.0
 40
4.0
 40
4.0
 40
5.0
 40
5.0
 40
5.0
 40
6.0
 40
6.0
 40
6.0
 40
6.0
 10
3.454163445366753
 20
-9.006359524197048
 30
0.0
 10
3.417511834038628
 20
-8.961733500162759
 30
0.0
 10
3.345928615993923
 20
-9.008561876085069
 30
0.0
 10
3.405631171332465
 20
-9.043026394314235
 30
0.0
 10
3.42452409532335
 20
-9.044583638509113
 30
0.0
 10
3.398881700303819
 20
-9.059629652235242
 30
0.0
 10
3.392643398708766
 20
-9.045338948567707
 30
0.0
 10
3.31667243109809
 20
-8.973624335394964
 30
0.0
 10
3.529863993326822
 20
-8.914026896158853
 30
0.0
 10
3.455811394585503
 20
-9.122549268934461
 30
0.0
 10
3.455811394585503
 20
-9.122549268934461
 30
0.0
 10
3.542107476128471
 20
-9.122549268934461
 30
0.0
 10
3.542107476128471
 20
-9.122549268934461
 30
0.0
 10
3.578659057617187
 20
-9.049229939778644
 30
0.0
 10
3.604889763726128
 20
-8.972165425618488
 30
0.0
 10
3.411147223578558
 20
-8.918973286946613
 30
0.0
 10
3.12838406032986
 20
-8.977412753634981
 30
0.0
 10
3.521080017089843
 20
-9.260755750868055
 30
0.0
 10
3.454163445366753
 20
-9.006359524197048
 30
0.0
  0
HATCH
  5
E7
330
70
100
AcDbEntity
  8
Luffy
 62
   250
420
  2301728
440
 33554559
100
AcDbHatch
 10
0.0
 20
0.0
 30
0.0
210
0.0
220
0.0
230
1.0
  2
SOLID
 70
     1
 71
     1
 91
        1
 92
        1
 93
        1
 72
     4
 94
        3
 73
     0
 74
     0
 95
       23
 96
       19
 40
0.0
 40
0.0
 40
0.0
 40
0.0
 40
1.0
 40
1.0
 40
1.0
 40
2.0
 40
2.0
 40
2.0
 40
3.0
 40
3.0
 40
3.0
 40
4.0
 40
4.0
 40
4.0
 40
5.0
 40
5.0
 40
5.0
 40
6.0
 40
6.0
 40
6.0
 40
6.0
 10
3.454163445366753
 20
-9.006359524197048
 10
3.417511834038628
 20
-8.961733500162759
 10
3.345928615993923
 20
-9.008561876085069
 10
3.405631171332465
 20
-9.043026394314235
 10
3.42452409532335
 20
-9.044583638509113
 10
3.398881700303819
 20
-9.059629652235242
 10
3.392643398708766
 20
-9.045338948567707
 10
3.31667243109809
 20
-8.973624335394964
 10
3.529863993326822
 20
-8.914026896158853
 10
3.455811394585503
 20
-9.122549268934461
 10
3.455811394585503
 20
-9.122549268934461
 10
3.542107476128471
 20
-9.122549268934461
 10
3.542107476128471
 20
-9.122549268934461
 10
3.578659057617187
 20
-9.049229939778644
 10
3.604889763726128
 20
-8.972165425618488
 10
3.411147223578558
 20
-8.918973286946613
 10
3.12838406032986
 20
-8.977412753634981
 10
3.521080017089843
 20
-9.260755750868055
 10
3.454163445366753
 20
-9.006359524197048
 97
        0
 97
        1
330
E6
 75
     2
 76
     1
 98
        1
 10
0.0
 20
0.0
450
        0
451
        0
460
0.0
461
0.0
452
        0
462
0.0
453
        0
470

  0
SPLINE
  5
E8
330
70
100
AcDbEntity
  8
Luffy
100
AcDbSpline
210
0.0
220
0.0
230
1.0
 70
    11
 71
     3
 72
    14
 73
    10
 74
     0
 42
0.0000000001
 43
0.0000000001
 40
0.0
 40
0.0
 40
0.0
 40
0.0
 40
1.0
 40
1.0
 40
1.0
 40
2.0
 40
2.0
 40
2.0
 40
3.0
 40
3.0
 40
3.0
 40
3.0
 10
5.033354017469617
 20
-8.184295654296875
 30
0.0
 10
5.033354017469617
 20
-8.184295654296875
 30
0.0
 10
4.978679233127169
 20
-8.184295654296875
 30
0.0
 10
4.978679233127169
 20
-8.184295654296875
 30
0.0
 10
4.994850158691406
 20
-8.199910481770832
 30
0.0
 10
5.013604905870225
 20
-8.21414099799262
 30
0.0
 10
5.033354017469617
 20
-8.225480821397569
 30
0.0
 10
5.033354017469617
 20
-8.225480821397569
 30
0.0
 10
5.033354017469617
 20
-8.184295654296875
 30
0.0
 10
5.033354017469617
 20
-8.184295654296875
 30
0.0
  0
HATCH
  5
E9
330
70
100
AcDbEntity
  8
Luffy
 62
   250
420
  2301728
440
 33554559
100
AcDbHatch
 10
0.0
 20
0.0
 30
0.0
210
0.0
220
0.0
230
1.0
  2
SOLID
 70
     1
 71
     1
 91
        1
 92
        1
 93
        1
 72
     4
 94
        3
 73
     0
 74
     0
 95
       14
 96
       10
 40
0.0
 40
0.0
 40
0.0
 40
0.0
 40
1.0
 40
1.0
 40
1.0
 40
2.0
 40
2.0
 40
2.0
 40
3.0
 40
3.0
 40
3.0
 40
3.0
 10
5.033354017469617
 20
-8.184295654296875
 10
5.033354017469617
 20
-8.184295654296875
 10
4.978679233127169
 20
-8.184295654296875
 10
4.978679233127169
 20
-8.184295654296875
 10
4.994850158691406
 20
-8.199910481770832
 10
5.013604905870225
 20
-8.21414099799262
 10
5.033354017469617
 20
-8.225480821397569
 10
5.033354017469617
 20
-8.225480821397569
 10
5.033354017469617
 20
-8.184295654296875
 10
5.033354017469617
 20
-8.184295654296875
 97
        0
 97
        1
330
E8
 75
     2
 76
     1
 98
        1
 10
0.0
 20
0.0
450
        0
451
        0
460
0.0
461
0.0
452
        0
462
0.0
453
        0
470

  0
SPLINE
  5
EA
330
70
100
AcDbEntity
  8
Luffy
100
AcDbSpline
210
0.0
220
0.0
230
1.0
 70
     9
 71
     3
 72
    50
 73
    46
 74
     0
 42
0.0000000001
 43
0.0000000001
 40
0.0
 40
0.0
 40
0.0
 40
0.0
 40
1.0
 40
1.0
 40
1.0
 40
2.0
 40
2.0
 40
2.0
 40
3.0
 40
3.0
 40
3.0
 40
4.0
 40
4.0
 40
4.0
 40
5.0
 40
5.0
 40
5.0
 40
6.0
 40
6.0
 40
6.0
 40
7.0
 40
7.0
 40
7.0
 40
8.0
 40
8.0
 40
8.0
 40
9.0
 40
9.0
 40
9.0
 40
10.0
 40
10.0
 40
10.0
 40
11.0
 40
11.0
 40
11.0
 40
12.0
 40
12.0
 40
12.0
 40
13.0
 40
13.0
 40
13.0
 40
14.0
 40
14.0
 40
14.0
 40
15.0
 40
15.0
 40
15.0
 40
15.0
 10
2.343821207682291
 20
-8.766357421875
 30
0.0
 10
2.414443969726562
 20
-8.73454369439019
 30
0.0
 10
2.405670166015625
 20
-8.6712163289388
 30
0.0
 10
2.335643344455295
 20
-8.652575174967447
 30
0.0
 10
2.43009779188368
 20
-8.666852315266925
 30
0.0
 10
2.56846703423394
 20
-8.751091003417968
 30
0.0
 10
2.579445732964409
 20
-8.561685350206163
 30
0.0
 10
2.458380805121527
 20
-8.361920674641925
 30
0.0
 10
2.269705030653211
 20
-8.664972941080728
 30
0.0
 10
2.503619723849826
 20
-8.59884304470486
 30
0.0
 10
2.53902604844835
 20
-8.569279988606769
 30
0.0
 10
2.477019415961371
 20
-8.520960489908853
 30
0.0
 10
2.456765916612412
 20
-8.566428290473089
 30
0.0
 10
2.459507412380642
 20
-8.580160352918836
 30
0.0
 10
2.438988579644096
 20
-8.56272972954644
 30
0.0
 10
2.451568603515625
 20
-8.557226392957899
 30
0.0
 10
2.509863111707899
 20
-8.491420321994358
 30
0.0
 10
2.633102416992187
 20
-8.678983900282117
 30
0.0
 10
2.313926696777343
 20
-8.590597364637586
 30
0.0
 10
2.294995625813801
 20
-8.59288109673394
 30
0.0
 10
2.278824700249565
 20
-8.597626580132377
 30
0.0
 10
2.265101114908854
 20
-8.604042053222656
 30
0.0
 10
2.265101114908854
 20
-8.604042053222656
 30
0.0
 10
2.265101114908854
 20
-8.670383877224391
 30
0.0
 10
2.265101114908854
 20
-8.670383877224391
 30
0.0
 10
2.265797932942708
 20
-8.6695802476671
 30
0.0
 10
2.26623789469401
 20
-8.668764750162759
 30
0.0
 10
2.267035590277777
 20
-8.667967054578992
 30
0.0
 10
2.279640197753906
 20
-8.653872172037759
 30
0.0
 10
2.297737121582031
 20
-8.649749755859375
 30
0.0
 10
2.318945142957899
 20
-8.650828043619791
 30
0.0
 10
2.25783454047309
 20
-8.653311835394964
 30
0.0
 10
2.258204989963107
 20
-8.761160956488714
 30
0.0
 10
2.32764180501302
 20
-8.701397365993923
 30
0.0
 10
2.326173570421006
 20
-8.688768174913194
 30
0.0
 10
2.336027357313367
 20
-8.701734754774305
 30
0.0
 10
2.339546203613281
 20
-8.707774692111545
 30
0.0
 10
2.322703891330295
 20
-8.737461513943141
 30
0.0
 10
2.282446119520399
 20
-8.729284498426649
 30
0.0
 10
2.265101114908854
 20
-8.709352281358507
 30
0.0
 10
2.265101114908854
 20
-8.709352281358507
 30
0.0
 10
2.265101114908854
 20
-8.764691670735675
 30
0.0
 10
2.265101114908854
 20
-8.764691670735675
 30
0.0
 10
2.286105685763888
 20
-8.772116767035589
 30
0.0
 10
2.312456766764322
 20
-8.773763868543836
 30
0.0
 10
2.343821207682291
 20
-8.766357421875
 30
0.0
  0
HATCH
  5
EB
330
70
100
AcDbEntity
  8
Luffy
 62
   250
420
  2301728
440
 33554559
100
AcDbHatch
 10
0.0
 20
0.0
 30
0.0
210
0.0
220
0.0
230
1.0
  2
SOLID
 70
     1
 71
     1
 91
        1
 92
        1
 93
        1
 72
     4
 94
        3
 73
     0
 74
     0
 95
       50
 96
       46
 40
0.0
 40
0.0
 40
0.0
 40
0.0
 40
1.0
 40
1.0
 40
1.0
 40
2.0
 40
2.0
 40
2.0
 40
3.0
 40
3.0
 40
3.0
 40
4.0
 40
4.0
 40
4.0
 40
5.0
 40
5.0
 40
5.0
 40
6.0
 40
6.0
 40
6.0
 40
7.0
 40
7.0
 40
7.0
 40
8.0
 40
8.0
 40
8.0
 40
9.0
 40
9.0
 40
9.0
 40
10.0
 40
10.0
 40
10.0
 40
11.0
 40
11.0
 40
11.0
 40
12.0
 40
12.0
 40
12.0
 40
13.0
 40
13.0
 40
13.0
 40
14.0
 40
14.0
 40
14.0
 40
15.0
 40
15.0
 40
15.0
 40
15.0
 10
2.343821207682291
 20
-8.766357421875
 10
2.414443969726562
 20
-8.73454369439019
 10
2.405670166015625
 20
-8.6712163289388
 10
2.335643344455295
 20
-8.652575174967447
 10
2.43009779188368
 20
-8.666852315266925
 10
2.56846703423394
 20
-8.751091003417968
 10
2.579445732964409
 20
-8.561685350206163
 10
2.458380805121527
 20
-8.361920674641925
 10
2.269705030653211
 20
-8.664972941080728
 10
2.503619723849826
 20
-8.59884304470486
 10
2.53902604844835
 20
-8.569279988606769
 10
2.477019415961371
 20
-8.520960489908853
 10
2.456765916612412
 20
-8.566428290473089
 10
2.459507412380642
 20
-8.580160352918836
 10
2.438988579644096
 20
-8.56272972954644
 10
2.451568603515625
 20
-8.557226392957899
 10
2.509863111707899
 20
-8.491420321994358
 10
2.633102416992187
 20
-8.678983900282117
 10
2.313926696777343
 20
-8.590597364637586
 10
2.294995625813801
 20
-8.59288109673394
 10
2.278824700249565
 20
-8.597626580132377
 10
2.265101114908854
 20
-8.604042053222656
 10
2.265101114908854
 20
-8.604042053222656
 10
2.265101114908854
 20
-8.670383877224391
 10
2.265101114908854
 20
-8.670383877224391
 10
2.265797932942708
 20
-8.6695802476671
 10
2.26623789469401
 20
-8.668764750162759
 10
2.267035590277777
 20
-8.667967054578992
 10
2.279640197753906
 20
-8.653872172037759
 10
2.297737121582031
 20
-8.649749755859375
 10
2.318945142957899
 20
-8.650828043619791
 10
2.25783454047309
 20
-8.653311835394964
 10
2.258204989963107
 20
-8.761160956488714
 10
2.32764180501302
 20
-8.701397365993923
 10
2.326173570421006
 20
-8.688768174913194
 10
2.336027357313367
 20
-8.701734754774305
 10
2.339546203613281
 20
-8.707774692111545
 10
2.322703891330295
 20
-8.737461513943141
 10
2.282446119520399
 20
-8.729284498426649
 10
2.265101114908854
 20
-8.709352281358507
 10
2.265101114908854
 20
-8.709352281358507
 10
2.265101114908854
 20
-8.764691670735675
 10
2.265101114908854
 20
-8.764691670735675
 10
2.286105685763888
 20
-8.772116767035589
 10
2.312456766764322
 20
-8.773763868543836
 10
2.343821207682291
 20
-8.766357421875
 97
        0
 97
        1
330
EA
 75
     2
 76
     1
 98
        1
 10
0.0
 20
0.0
450
        0
451
        0
460
0.0
461
0.0
452
        0
462
0.0
453
        0
470

  0
SPLINE
  5
EC
330
70
100
AcDbEntity
  8
Luffy
100
AcDbSpline
210
0.0
220
0.0
230
1.0
 70
     9
 71
     3
 72
    35
 73
    31
 74
     0
 42
0.0000000001
 43
0.0000000001
 40
0.0
 40
0.0
 40
0.0
 40
0.0
 40
1.0
 40
1.0
 40
1.0
 40
2.0
 40
2.0
 40
2.0
 40
3.0
 40
3.0
 40
3.0
 40
4.0
 40
4.0
 40
4.0
 40
5.0
 40
5.0
 40
5.0
 40
6.0
 40
6.0
 40
6.0
 40
7.0
 40
7.0
 40
7.0
 40
8.0
 40
8.0
 40
8.0
 40
9.0
 40
9.0
 40
9.0
 40
10.0
 40
10.0
 40
10.0
 40
10.0
 10
2.330354478624131
 20
-8.836109585232204
 30
0.0
 10
2.328097025553385
 20
-8.829418606228298
 30
0.0
 10
2.324493408203125
 20
-8.822912428114149
 30
0.0
 10
2.319967481825086
 20
-8.817481146918401
 30
0.0
 10
2.31279076470269
 20
-8.808870103624132
 30
0.0
 10
2.30194346110026
 20
-8.797876993815103
 30
0.0
 10
2.28971438937717
 20
-8.798789978027343
 30
0.0
 10
2.2801759507921
 20
-8.799501207139757
 30
0.0
 10
2.273197597927517
 20
-8.799342685275608
 30
0.0
 10
2.26477559407552
 20
-8.798170301649305
 30
0.0
 10
2.26477559407552
 20
-8.798170301649305
 30
0.0
 10
2.26477559407552
 20
-8.964389377170137
 30
0.0
 10
2.26477559407552
 20
-8.964389377170137
 30
0.0
 10
2.267650180392795
 20
-8.96739535861545
 30
0.0
 10
2.270772298177083
 20
-8.970060560438367
 30
0.0
 10
2.274019877115885
 20
-8.972260369194877
 30
0.0
 10
2.278924730088975
 20
-8.975583394368488
 30
0.0
 10
2.285349527994791
 20
-8.979798210991752
 30
0.0
 10
2.291597154405381
 20
-8.978646172417533
 30
0.0
 10
2.296580844455295
 20
-8.977727254231769
 30
0.0
 10
2.299591064453125
 20
-8.973091125488281
 30
0.0
 10
2.29924096001519
 20
-8.968065049913194
 30
0.0
 10
2.297714233398437
 20
-8.946127997504339
 30
0.0
 10
2.299423217773437
 20
-8.927868313259548
 30
0.0
 10
2.304833306206596
 20
-8.908342997233072
 30
0.0
 10
2.310493469238281
 20
-8.887915717230901
 30
0.0
 10
2.319545321994357
 20
-8.868619283040363
 30
0.0
 10
2.331492953830295
 20
-8.851122538248697
 30
0.0
 10
2.334136115180121
 20
-8.847252739800346
 30
0.0
 10
2.331631130642361
 20
-8.839892069498697
 30
0.0
 10
2.330354478624131
 20
-8.836109585232204
 30
0.0
  0
HATCH
  5
ED
330
70
100
AcDbEntity
  8
Luffy
 62
   250
420
  2301728
440
 33554559
100
AcDbHatch
 10
0.0
 20
0.0
 30
0.0
210
0.0
220
0.0
230
1.0
  2
SOLID
 70
     1
 71
     1
 91
        1
 92
        1
 93
        1
 72
     4
 94
        3
 73
     0
 74
     0
 95
       35
 96
       31
 40
0.0
 40
0.0
 40
0.0
 40
0.0
 40
1.0
 40
1.0
 40
1.0
 40
2.0
 40
2.0
 40
2.0
 40
3.0
 40
3.0
 40
3.0
 40
4.0
 40
4.0
 40
4.0
 40
5.0
 40
5.0
 40
5.0
 40
6.0
 40
6.0
 40
6.0
 40
7.0
 40
7.0
 40
7.0
 40
8.0
 40
8.0
 40
8.0
 40
9.0
 40
9.0
 40
9.0
 40
10.0
 40
10.0
 40
10.0
 40
10.0
 10
2.330354478624131
 20
-8.836109585232204
 10
2.328097025553385
 20
-8.829418606228298
 10
2.324493408203125
 20
-8.822912428114149
 10
2.319967481825086
 20
-8.817481146918401
 10
2.31279076470269
 20
-8.808870103624132
 10
2.30194346110026
 20
-8.797876993815103
 10
2.28971438937717
 20
-8.798789978027343
 10
2.2801759507921
 20
-8.799501207139757
 10
2.273197597927517
 20
-8.799342685275608
 10
2.26477559407552
 20
-8.798170301649305
 10
2.26477559407552
 20
-8.798170301649305
 10
2.26477559407552
 20
-8.964389377170137
 10
2.26477559407552
 20
-8.964389377170137
 10
2.267650180392795
 20
-8.96739535861545
 10
2.270772298177083
 20
-8.970060560438367
 10
2.274019877115885
 20
-8.972260369194877
 10
2.278924730088975
 20
-8.975583394368488
 10
2.285349527994791
 20
-8.979798210991752
 10
2.291597154405381
 20
-8.978646172417533
 10
2.296580844455295
 20
-8.977727254231769
 10
2.299591064453125
 20
-8.973091125488281
 10
2.29924096001519
 20
-8.968065049913194
 10
2.297714233398437
 20
-8.946127997504339
 10
2.299423217773437
 20
-8.927868313259548
 10
2.304833306206596
 20
-8.908342997233072
 10
2.310493469238281
 20
-8.887915717230901
 10
2.319545321994357
 20
-8.868619283040363
 10
2.331492953830295
 20
-8.851122538248697
 10
2.334136115180121
 20
-8.847252739800346
 10
2.331631130642361
 20
-8.839892069498697
 10
2.330354478624131
 20
-8.836109585232204
 97
        0
 97
        1
330
EC
 75
     2
 76
     1
 98
        1
 10
0.0
 20
0.0
450
        0
451
        0
460
0.0
461
0.0
452
        0
462
0.0
453
        0
470

  0
ENDSEC
  0
SECTION
  2
OBJECTS
  0
DICTIONARY
  5
C
330
0
100
AcDbDictionary
281
     1
  3
ACAD_COLOR
350
63
  3
ACAD_DETAILVIEWSTYLE
350
6A
  3
ACAD_GROUP
350
D
  3
ACAD_LAYOUT
350
62
  3
ACAD_MATERIAL
350
10
  3
ACAD_MLEADERSTYLE
350
66
  3
ACAD_MLINESTYLE
350
5F
  3
ACAD_PLOTSETTINGS
350
61
  3
ACAD_PLOTSTYLENAME
350
E
  3
ACAD_SCALELIST
350
42
  3
ACAD_SECTIONVIEWSTYLE
350
68
  3
ACAD_TABLESTYLE
350
64
  3
ACAD_VISUALSTYLE
350
29
  3
ACDB_RECOMPOSE_DATA
350
F8
  3
AcDbVariableDictionary
350
F0
  0
DICTIONARY
  5
63
102
{ACAD_REACTORS
330
C
102
}
330
C
100
AcDbDictionary
281
     1
  0
DICTIONARY
  5
6A
102
{ACAD_REACTORS
330
C
102
}
330
C
100
AcDbDictionary
281
     1
  3
Imperial24
350
6B
  0
DICTIONARY
  5
D
102
{ACAD_REACTORS
330
C
102
}
330
C
100
AcDbDictionary
281
     1
  0
DICTIONARY
  5
62
102
{ACAD_REACTORS
330
C
102
}
330
C
100
AcDbDictionary
281
     1
  3
Layout1
350
6F
  3
Layout2
350
77
  3
Model
350
73
  0
DICTIONARY
  5
10
102
{ACAD_REACTORS
330
C
102
}
330
C
100
AcDbDictionary
281
     1
  3
ByBlock
350
19
  3
ByLayer
350
11
  3
Global
350
21
  0
DICTIONARY
  5
66
102
{ACAD_REACTORS
330
C
102
}
330
C
100
AcDbDictionary
281
     1
  3
Standard
350
67
  0
DICTIONARY
  5
5F
102
{ACAD_REACTORS
330
C
102
}
330
C
100
AcDbDictionary
281
     1
  3
Standard
350
60
  0
DICTIONARY
  5
61
102
{ACAD_REACTORS
330
C
102
}
330
C
100
AcDbDictionary
281
     1
  0
ACDBDICTIONARYWDFLT
  5
E
102
{ACAD_REACTORS
330
C
102
}
330
C
100
AcDbDictionary
281
     1
  3
Normal
350
F
100
AcDbDictionaryWithDefault
340
F
  0
DICTIONARY
  5
42
102
{ACAD_REACTORS
330
C
102
}
330
C
100
AcDbDictionary
281
     1
  3
A0
350
43
  3
A1
350
44
  3
A2
350
45
  3
A3
350
46
  3
A4
350
47
  3
A5
350
48
  3
A6
350
49
  3
A7
350
4A
  3
A8
350
4B
  3
A9
350
4C
  3
B0
350
4D
  3
B1
350
4E
  3
B2
350
4F
  3
B3
350
50
  3
B4
350
51
  3
B5
350
52
  3
B6
350
53
  0
DICTIONARY
  5
68
102
{ACAD_REACTORS
330
C
102
}
330
C
100
AcDbDictionary
281
     1
  3
Imperial24
350
69
  0
DICTIONARY
  5
64
102
{ACAD_REACTORS
330
C
102
}
330
C
100
AcDbDictionary
281
     1
  3
Standard
350
65
  0
DICTIONARY
  5
29
102
{ACAD_REACTORS
330
C
102
}
330
C
100
AcDbDictionary
281
     1
  3
2dWireframe
350
2F
  3
Basic
350
2E
  3
Brighten
350
35
  3
ColorChange
350
39
  3
Conceptual
350
32
  3
Dim
350
34
  3
EdgeColorOff
350
41
  3
Facepattern
350
38
  3
Flat
350
2A
  3
FlatWithEdges
350
2B
  3
Gouraud
350
2C
  3
GouraudWithEdges
350
2D
  3
Hidden
350
31
  3
JitterOff
350
3F
  3
Linepattern
350
37
  3
OverhangOff
350
40
  3
Realistic
350
33
  3
Shaded
350
3E
  3
Shaded with edges
350
3D
  3
Shades of Gray
350
3A
  3
Sketchy
350
3B
  3
Thicken
350
36
  3
Wireframe
350
30
  3
X-Ray
350
3C
  0
XRECORD
  5
F8
102
{ACAD_REACTORS
330
C
102
}
330
C
100
AcDbXrecord
280
     1
 90
        1
330
65
  0
DICTIONARY
  5
F0
102
{ACAD_REACTORS
330
C
102
}
330
C
100
AcDbDictionary
281
     1
  3
CANNOSCALE
350
F5
  3
CMLEADERSTYLE
350
F2
  3
CTABLESTYLE
350
F1
  3
CVIEWDETAILSTYLE
350
F3
  3
CVIEWSECTIONSTYLE
350
F4
  0
ACDBDETAILVIEWSTYLE
  5
6B
102
{ACAD_REACTORS
330
6A
102
}
330
6A
100
AcDbModelDocViewStyle
 70
     0
  3
Imperial24
290
     1
300
Imperial24
 90
        0
100
AcDbDetailViewStyle
 70
     0
 71
     0
 90
        3
 71
     1
340
55
 62
   256
 40
0.24
340
0
 62
   256
 40
0.24
300

 40
0.36
280
     3
 71
     2
340
5D
 90
       25
 62
   256
 71
     3
340
55
 62
   256
 40
0.24
 90
        1
 40
0.75
 90
        1
300
%<\AcVar ViewType \f "%tc1">% %<\AcVar ViewDetailId>%\PSCALE %<\AcVar ViewScale \f "%sn">%
 71
     4
340
5D
 90
       25
 62
   256
340
5D
 90
       25
 62
   256
280
     0
  0
LAYOUT
  5
6F
102
{ACAD_REACTORS
330
62
102
}
330
62
100
AcDbPlotSettings
  1

  2

  4

  6

 40
0.0
 41
0.0
 42
0.0
 43
0.0
 44
0.0
 45
0.0
 46
0.0
 47
0.0
 48
0.0
 49
0.0
140
0.0
141
0.0
142
1.0
143
1.0
 70
   688
 72
     0
 73
     0
 74
     5
  7

 75
    16
147
1.0
 76
     0
 77
     2
 78
   300
148
0.0
149
0.0
100
AcDbLayout
  1
Layout1
 70
     1
 71
     1
 10
0.0
 20
0.0
 11
12.0
 21
9.0
 12
0.0
 22
0.0
 32
0.0
 14
0.0
 24
0.0
 34
0.0
 15
0.0
 25
0.0
 35
0.0
146
0.0
 13
0.0
 23
0.0
 33
0.0
 16
1.0
 26
0.0
 36
0.0
 17
0.0
 27
1.0
 37
0.0
 76
     0
330
6C
  0
LAYOUT
  5
77
102
{ACAD_REACTORS
330
62
102
}
330
62
100
AcDbPlotSettings
  1

  2

  4

  6

 40
0.0
 41
0.0
 42
0.0
 43
0.0
 44
0.0
 45
0.0
 46
0.0
 47
0.0
 48
0.0
 49
0.0
140
0.0
141
0.0
142
1.0
143
1.0
 70
   688
 72
     0
 73
     0
 74
     5
  7

 75
    16
147
1.0
 76
     0
 77
     2
 78
   300
148
0.0
149
0.0
100
AcDbLayout
  1
Layout2
 70
     1
 71
     2
 10
0.0
 20
0.0
 11
12.0
 21
9.0
 12
0.0
 22
0.0
 32
0.0
 14
0.0
 24
0.0
 34
0.0
 15
0.0
 25
0.0
 35
0.0
146
0.0
 13
0.0
 23
0.0
 33
0.0
 16
1.0
 26
0.0
 36
0.0
 17
0.0
 27
1.0
 37
0.0
 76
     0
330
74
  0
LAYOUT
  5
73
102
{ACAD_REACTORS
330
62
102
}
330
62
100
AcDbPlotSettings
  1

  2

  4

  6

 40
0.0
 41
0.0
 42
0.0
 43
0.0
 44
0.0
 45
0.0
 46
0.0
 47
0.0
 48
0.0
 49
0.0
140
0.0
141
0.0
142
1.0
143
1.0
 70
  1712
 72
     0
 73
     0
 74
     0
  7

 75
     0
147
1.0
 76
     0
 77
     2
 78
   300
148
0.0
149
0.0
100
AcDbLayout
  1
Model
 70
     1
 71
     0
 10
0.0
 20
0.0
 11
12.0
 21
9.0
 12
0.0
 22
0.0
 32
0.0
 14
0.0
 24
0.0
 34
0.0
 15
0.0
 25
0.0
 35
0.0
146
0.0
 13
0.0
 23
0.0
 33
0.0
 16
1.0
 26
0.0
 36
0.0
 17
0.0
 27
1.0
 37
0.0
 76
     0
330
70
  0
MATERIAL
  5
19
102
{ACAD_XDICTIONARY
360
1A
102
}
102
{ACAD_REACTORS
330
10
102
}
330
10
100
AcDbMaterial
  1
ByBlock
 72
     0
 43
0.0208333333333333
 43
0.0
 43
0.0
 43
0.0
 43
0.0
 43
0.0208333333333333
 43
0.0
 43
0.0
 43
0.0
 43
0.0
 43
1.0
 43
0.0
 43
0.0
 43
0.0
 43
0.0
 43
1.0
 77
     0
 47
0.0208333333333333
 47
0.0
 47
0.0
 47
0.0
 47
0.0
 47
0.0208333333333333
 47
0.0
 47
0.0
 47
0.0
 47
0.0
 47
1.0
 47
0.0
 47
0.0
 47
0.0
 47
0.0
 47
1.0
171
     0
 49
0.0208333333333333
 49
0.0
 49
0.0
 49
0.0
 49
0.0
 49
0.0208333333333333
 49
0.0
 49
0.0
 49
0.0
 49
0.0
 49
1.0
 49
0.0
 49
0.0
 49
0.0
 49
0.0
 49
1.0
175
     0
142
0.0208333333333333
142
0.0
142
0.0
142
0.0
142
0.0
142
0.0208333333333333
142
0.0
142
0.0
142
0.0
142
0.0
142
1.0
142
0.0
142
0.0
142
0.0
142
0.0
142
1.0
179
     0
144
0.0208333333333333
144
0.0
144
0.0
144
0.0
144
0.0
144
0.0208333333333333
144
0.0
144
0.0
144
0.0
144
0.0
144
1.0
144
0.0
144
0.0
144
0.0
144
0.0
144
1.0
147
0.0208333333333333
147
0.0
147
0.0
147
0.0
147
0.0
147
0.0208333333333333
147
0.0
147
0.0
147
0.0
147
0.0
147
1.0
147
0.0
147
0.0
147
0.0
147
0.0
147
1.0
  0
MATERIAL
  5
11
102
{ACAD_XDICTIONARY
360
12
102
}
102
{ACAD_REACTORS
330
10
102
}
330
10
100
AcDbMaterial
  1
ByLayer
 72
     0
 43
0.0208333333333333
 43
0.0
 43
0.0
 43
0.0
 43
0.0
 43
0.0208333333333333
 43
0.0
 43
0.0
 43
0.0
 43
0.0
 43
1.0
 43
0.0
 43
0.0
 43
0.0
 43
0.0
 43
1.0
 77
     0
 47
0.0208333333333333
 47
0.0
 47
0.0
 47
0.0
 47
0.0
 47
0.0208333333333333
 47
0.0
 47
0.0
 47
0.0
 47
0.0
 47
1.0
 47
0.0
 47
0.0
 47
0.0
 47
0.0
 47
1.0
171
     0
 49
0.0208333333333333
 49
0.0
 49
0.0
 49
0.0
 49
0.0
 49
0.0208333333333333
 49
0.0
 49
0.0
 49
0.0
 49
0.0
 49
1.0
 49
0.0
 49
0.0
 49
0.0
 49
0.0
 49
1.0
175
     0
142
0.0208333333333333
142
0.0
142
0.0
142
0.0
142
0.0
142
0.0208333333333333
142
0.0
142
0.0
142
0.0
142
0.0
142
1.0
142
0.0
142
0.0
142
0.0
142
0.0
142
1.0
179
     0
144
0.0208333333333333
144
0.0
144
0.0
144
0.0
144
0.0
144
0.0208333333333333
144
0.0
144
0.0
144
0.0
144
0.0
144
1.0
144
0.0
144
0.0
144
0.0
144
0.0
144
1.0
147
0.0208333333333333
147
0.0
147
0.0
147
0.0
147
0.0
147
0.0208333333333333
147
0.0
147
0.0
147
0.0
147
0.0
147
1.0
147
0.0
147
0.0
147
0.0
147
0.0
147
1.0
  0
MATERIAL
  5
21
102
{ACAD_XDICTIONARY
360
22
102
}
102
{ACAD_REACTORS
330
10
102
}
330
10
100
AcDbMaterial
  1
Global
 72
     0
 43
0.0208333333333333
 43
0.0
 43
0.0
 43
0.0
 43
0.0
 43
0.0208333333333333
 43
0.0
 43
0.0
 43
0.0
 43
0.0
 43
1.0
 43
0.0
 43
0.0
 43
0.0
 43
0.0
 43
1.0
 77
     0
 47
0.0208333333333333
 47
0.0
 47
0.0
 47
0.0
 47
0.0
 47
0.0208333333333333
 47
0.0
 47
0.0
 47
0.0
 47
0.0
 47
1.0
 47
0.0
 47
0.0
 47
0.0
 47
0.0
 47
1.0
171
     0
 49
0.0208333333333333
 49
0.0
 49
0.0
 49
0.0
 49
0.0
 49
0.0208333333333333
 49
0.0
 49
0.0
 49
0.0
 49
0.0
 49
1.0
 49
0.0
 49
0.0
 49
0.0
 49
0.0
 49
1.0
175
     0
142
0.0208333333333333
142
0.0
142
0.0
142
0.0
142
0.0
142
0.0208333333333333
142
0.0
142
0.0
142
0.0
142
0.0
142
1.0
142
0.0
142
0.0
142
0.0
142
0.0
142
1.0
179
     0
144
0.0208333333333333
144
0.0
144
0.0
144
0.0
144
0.0
144
0.0208333333333333
144
0.0
144
0.0
144
0.0
144
0.0
144
1.0
144
0.0
144
0.0
144
0.0
144
0.0
144
1.0
147
0.0208333333333333
147
0.0
147
0.0
147
0.0
147
0.0
147
0.0208333333333333
147
0.0
147
0.0
147
0.0
147
0.0
147
1.0
147
0.0
147
0.0
147
0.0
147
0.0
147
1.0
  0
MLEADERSTYLE
  5
67
102
{ACAD_REACTORS
330
66
102
}
330
66
100
AcDbMLeaderStyle
179
     2
170
     2
171
     1
172
     0
 90
        2
 40
0.0
 41
0.0
173
     1
 91
-1056964608
340
5B
 92
       -2
290
     1
 42
0.09
291
     1
 43
0.36
  3
Standard
 44
0.18
300

342
55
174
     1
178
     6
175
     1
176
     0
 93
-1056964608
 45
0.18
292
     0
297
     0
 46
0.18
 94
-1056964608
 47
1.0
 49
1.0
140
1.0
293
     1
141
0.0
294
     1
177
     0
142
1.0
295
     1
296
     0
143
0.125
271
     0
272
     9
273
     9
298
     1
  0
MLINESTYLE
  5
60
102
{ACAD_REACTORS
330
5F
102
}
330
5F
100
AcDbMlineStyle
  2
STANDARD
 70
     0
  3

 62
   256
 51
90.0
 52
90.0
 71
     2
 49
0.5
 62
   256
  6
BYLAYER
 49
-0.5
 62
   256
  6
BYLAYER
  0
ACDBPLACEHOLDER
  5
F
102
{ACAD_REACTORS
330
E
102
}
330
E
  0
SCALE
  5
43
102
{ACAD_REACTORS
330
42
102
}
330
42
100
AcDbScale
 70
     0
300
1:1
140
1.0
141
1.0
290
     1
  0
SCALE
  5
44
102
{ACAD_REACTORS
330
42
102
}
330
42
100
AcDbScale
 70
     0
300
1/128" = 1'-0"
140
0.0078125
141
12.0
290
     0
  0
SCALE
  5
45
102
{ACAD_REACTORS
330
42
102
}
330
42
100
AcDbScale
 70
     0
300
1/64" = 1'-0"
140
0.015625
141
12.0
290
     0
  0
SCALE
  5
46
102
{ACAD_REACTORS
330
42
102
}
330
42
100
AcDbScale
 70
     0
300
1/32" = 1'-0"
140
0.03125
141
12.0
290
     0
  0
SCALE
  5
47
102
{ACAD_REACTORS
330
42
102
}
330
42
100
AcDbScale
 70
     0
300
1/16" = 1'-0"
140
0.0625
141
12.0
290
     0
  0
SCALE
  5
48
102
{ACAD_REACTORS
330
42
102
}
330
42
100
AcDbScale
 70
     0
300
3/32" = 1'-0"
140
0.09375
141
12.0
290
     0
  0
SCALE
  5
49
102
{ACAD_REACTORS
330
42
102
}
330
42
100
AcDbScale
 70
     0
300
1/8" = 1'-0"
140
0.125
141
12.0
290
     0
  0
SCALE
  5
4A
102
{ACAD_REACTORS
330
42
102
}
330
42
100
AcDbScale
 70
     0
300
3/16" = 1'-0"
140
0.1875
141
12.0
290
     0
  0
SCALE
  5
4B
102
{ACAD_REACTORS
330
42
102
}
330
42
100
AcDbScale
 70
     0
300
1/4" = 1'-0"
140
0.25
141
12.0
290
     0
  0
SCALE
  5
4C
102
{ACAD_REACTORS
330
42
102
}
330
42
100
AcDbScale
 70
     0
300
3/8" = 1'-0"
140
0.375
141
12.0
290
     0
  0
SCALE
  5
4D
102
{ACAD_REACTORS
330
42
102
}
330
42
100
AcDbScale
 70
     0
300
1/2" = 1'-0"
140
0.5
141
12.0
290
     0
  0
SCALE
  5
4E
102
{ACAD_REACTORS
330
42
102
}
330
42
100
AcDbScale
 70
     0
300
3/4" = 1'-0"
140
0.75
141
12.0
290
     0
  0
SCALE
  5
4F
102
{ACAD_REACTORS
330
42
102
}
330
42
100
AcDbScale
 70
     0
300
1" = 1'-0"
140
1.0
141
12.0
290
     0
  0
SCALE
  5
50
102
{ACAD_REACTORS
330
42
102
}
330
42
100
AcDbScale
 70
     0
300
1-1/2" = 1'-0"
140
1.5
141
12.0
290
     0
  0
SCALE
  5
51
102
{ACAD_REACTORS
330
42
102
}
330
42
100
AcDbScale
 70
     0
300
3" = 1'-0"
140
3.0
141
12.0
290
     0
  0
SCALE
  5
52
102
{ACAD_REACTORS
330
42
102
}
330
42
100
AcDbScale
 70
     0
300
6" = 1'-0"
140
6.0
141
12.0
290
     0
  0
SCALE
  5
53
102
{ACAD_REACTORS
330
42
102
}
330
42
100
AcDbScale
 70
     0
300
1'-0" = 1'-0"
140
12.0
141
12.0
290
     0
  0
ACDBSECTIONVIEWSTYLE
  5
69
102
{ACAD_REACTORS
330
68
102
}
330
68
100
AcDbModelDocViewStyle
 70
     0
  3
Imperial24
290
     1
300
Imperial24
 90
        0
100
AcDbSectionViewStyle
 70
     0
 71
     0
 90
       78
 71
     1
340
55
 62
   256
 40
0.24
340
0
340
0
 62
   256
 40
0.24
300
I, O, Q, S, X, Z
 40
0.48
 90
        3
 40
0.18
 90
        1
 71
     2
340
5D
 90
       25
 62
   256
340
5D
 90
       50
 62
   256
 40
0.24
 40
0.0
 40
0.24
 71
     3
340
55
 62
   256
 40
0.24
 90
        1
 40
0.75
 90
        1
300
%<\AcVar ViewType \f "%tc1">% %<\AcVar ViewSectionStartId>%-%<\AcVar ViewSectionEndId>%\PSCALE %<\AcVar ViewScale \f "%sn">%
 71
     4
 62
   256
 62
   257
300
ANSI31
 40
1.0
 90
        0
290
     0
290
     0
 90
        6
 40
0.0
 40
1.570796326794896
 40
0.2617993877991494
 40
1.308996938995747
 40
-0.2617993877991494
 40
1.832595714594046
  0
TABLESTYLE
  5
65
102
{ACAD_XDICTIONARY
360
F6
102
}
102
{ACAD_REACTORS
330
64
102
}
330
64
100
AcDbTableStyle
280
     0
  3
Standard
 70
     0
 71
     0
 40
0.06
 41
0.06
280
     0
281
     0
  7
Standard
140
0.18
170
     2
 62
     0
 63
     7
283
     0
 90
      512
 91
        0
  1

274
    -2
284
     1
 64
     0
275
    -2
285
     1
 65
     0
276
    -2
286
     1
 66
     0
277
    -2
287
     1
 67
     0
278
    -2
288
     1
 68
     0
279
    -2
289
     1
 69
     0
  7
Standard
140
0.25
170
     5
 62
     0
 63
     7
283
     0
 90
      512
 91
        0
  1

274
    -2
284
     1
 64
     0
275
    -2
285
     1
 65
     0
276
    -2
286
     1
 66
     0
277
    -2
287
     1
 67
     0
278
    -2
288
     1
 68
     0
279
    -2
289
     1
 69
     0
  7
Standard
140
0.18
170
     5
 62
     0
 63
     7
283
     0
 90
      512
 91
        0
  1

274
    -2
284
     1
 64
     0
275
    -2
285
     1
 65
     0
276
    -2
286
     1
 66
     0
277
    -2
287
     1
 67
     0
278
    -2
288
     1
 68
     0
279
    -2
289
     1
 69
     0
  0
VISUALSTYLE
  5
2F
102
{ACAD_REACTORS
330
29
102
}
330
29
100
AcDbVisualStyle
  2
2dWireframe
 70
     4
177
     3
291
     0
 70
    58
 90
        0
176
     1
 90
        2
176
     1
 90
        0
176
     1
 90
        0
176
     1
 40
0.6
176
     1
 40
30.0
176
     1
 62
     7
420
 16777215
176
     1
 90
        1
176
     1
 90
        4
176
     1
 62
     7
176
     1
 62
   257
176
     1
 90
        1
176
     1
 90
        1
176
     1
 40
1.0
176
     1
 90
        0
176
     1
 62
   257
176
     1
 40
1.0
176
     1
 90
        1
176
     1
 90
        6
176
     1
 90
        2
176
     1
 62
     7
176
     1
 90
        5
176
     1
 90
        0
176
     1
 90
        0
176
     1
290
     0
176
     1
 90
        1
176
     1
 40
0.0
176
     1
 90
        0
176
     1
290
     1
176
     1
290
     1
176
     1
290
     0
176
     1
290
     0
176
     1
290
     0
176
     1
290
     0
176
     1
290
     0
176
     1
290
     0
176
     1
290
     0
176
     1
 90
       50
176
     1
 40
0.0
176
     1
 40
1.0
176
     1
 90
        0
176
     1
 62
    18
420
        0
176
     1
 90
       50
176
     1
 90
        3
176
     1
 62
     5
420
      255
176
     1
290
     0
176
     1
 90
       50
176
     1
 90
       50
176
     1
 90
       50
176
     1
290
     0
176
     1
 90
       50
176
     1
 62
   256
176
     0
 40
1.0
176
     0
 90
        2
176
     1
  1
strokes_ogs.tif
176
     1
290
     0
176
     1
 40
1.0
176
     1
 40
1.0
176
     1
  0
VISUALSTYLE
  5
2E
102
{ACAD_REACTORS
330
29
102
}
330
29
100
AcDbVisualStyle
  2
Basic
 70
     7
177
     3
291
     1
 70
    58
 90
        1
176
     1
 90
        0
176
     1
 90
        1
176
     1
 90
        0
176
     1
 40
0.6
176
     1
 40
30.0
176
     1
 62
     7
420
 16777215
176
     1
 90
        0
176
     1
 90
        4
176
     1
 62
     7
176
     1
 62
   257
176
     1
 90
        1
176
     1
 90
        1
176
     1
 40
1.0
176
     1
 90
        8
176
     1
 62
     7
176
     1
 40
1.0
176
     1
 90
        1
176
     1
 90
        6
176
     1
 90
        2
176
     1
 62
     7
176
     1
 90
        5
176
     1
 90
        0
176
     1
 90
        0
176
     1
290
     0
176
     1
 90
        1
176
     1
 40
0.0
176
     1
 90
        0
176
     1
290
     0
176
     1
290
     1
176
     1
290
     1
176
     1
290
     0
176
     1
290
     0
176
     1
290
     0
176
     1
290
     0
176
     1
290
     0
176
     1
290
     0
176
     1
 90
       50
176
     1
 40
0.0
176
     1
 40
1.0
176
     1
 90
        0
176
     1
 62
    18
420
        0
176
     1
 90
       50
176
     1
 90
        3
176
     1
 62
     5
420
      255
176
     1
290
     0
176
     1
 90
       50
176
     1
 90
       50
176
     1
 90
       50
176
     1
290
     0
176
     1
 90
       50
176
     1
 62
   256
176
     0
 40
1.0
176
     0
 90
        2
176
     1
  1
strokes_ogs.tif
176
     1
290
     0
176
     1
 40
1.0
176
     1
 40
1.0
176
     1
  0
VISUALSTYLE
  5
35
102
{ACAD_REACTORS
330
29
102
}
330
29
100
AcDbVisualStyle
  2
Brighten
 70
    12
177
     3
291
     1
 70
    58
 90
        2
176
     1
 90
        2
176
     1
 90
        0
176
     1
 90
        0
176
     1
 40
0.6
176
     1
 40
30.0
176
     1
 62
     7
420
 16777215
176
     1
 90
        1
176
     1
 90
        4
176
     1
 62
     7
176
     1
 62
   257
176
     1
 90
        1
176
     1
 90
        1
176
     1
 40
1.0
176
     1
 90
        8
176
     1
 62
     7
176
     1
 40
1.0
176
     1
 90
        1
176
     1
 90
        6
176
     1
 90
        2
176
     1
 62
     7
176
     1
 90
        5
176
     1
 90
        0
176
     1
 90
        0
176
     1
290
     0
176
     1
 90
        1
176
     1
 40
50.0
176
     1
 90
        0
176
     1
290
     0
176
     1
290
     1
176
     1
290
     1
176
     1
290
     0
176
     1
290
     0
176
     1
290
     0
176
     1
290
     0
176
     1
290
     0
176
     1
290
     0
176
     1
 90
       50
176
     1
 40
0.0
176
     1
 40
1.0
176
     1
 90
        0
176
     1
 62
    18
420
        0
176
     1
 90
       50
176
     1
 90
        3
176
     1
 62
     5
420
      255
176
     1
290
     0
176
     1
 90
       50
176
     1
 90
       50
176
     1
 90
       50
176
     1
290
     0
176
     1
 90
       50
176
     1
 62
   256
176
     0
 40
1.0
176
     0
 90
        2
176
     1
  1
strokes_ogs.tif
176
     1
290
     0
176
     1
 40
1.0
176
     1
 40
1.0
176
     1
  0
VISUALSTYLE
  5
39
102
{ACAD_REACTORS
330
29
102
}
330
29
100
AcDbVisualStyle
  2
ColorChange
 70
    16
177
     3
291
     1
 70
    58
 90
        2
176
     1
 90
        2
176
     1
 90
        3
176
     1
 90
        0
176
     1
 40
0.6
176
     1
 40
30.0
176
     1
 62
     8
420
  8421504
176
     1
 90
        1
176
     1
 90
        4
176
     1
 62
     7
176
     1
 62
   257
176
     1
 90
        1
176
     1
 90
        1
176
     1
 40
1.0
176
     1
 90
        8
176
     1
 62
     8
420
  8421504
176
     1
 40
1.0
176
     1
 90
        1
176
     1
 90
        6
176
     1
 90
        2
176
     1
 62
     7
176
     1
 90
        5
176
     1
 90
        0
176
     1
 90
        0
176
     1
290
     0
176
     1
 90
        1
176
     1
 40
0.0
176
     1
 90
        0
176
     1
290
     0
176
     1
290
     1
176
     1
290
     1
176
     1
290
     0
176
     1
290
     0
176
     1
290
     0
176
     1
290
     0
176
     1
290
     0
176
     1
290
     0
176
     1
 90
       50
176
     1
 40
0.0
176
     1
 40
1.0
176
     1
 90
        0
176
     1
 62
    18
420
        0
176
     1
 90
       50
176
     1
 90
        3
176
     1
 62
     5
420
      255
176
     1
290
     0
176
     1
 90
       50
176
     1
 90
       50
176
     1
 90
       50
176
     1
290
     0
176
     1
 90
       50
176
     1
 62
   256
176
     0
 40
1.0
176
     0
 90
        2
176
     1
  1
strokes_ogs.tif
176
     1
290
     0
176
     1
 40
1.0
176
     1
 40
1.0
176
     1
  0
VISUALSTYLE
  5
32
102
{ACAD_REACTORS
330
29
102
}
330
29
100
AcDbVisualStyle
  2
Conceptual
 70
     9
177
     3
291
     0
 70
    58
 90
        3
176
     1
 90
        2
176
     1
 90
        0
176
     1
 90
        0
176
     1
 40
0.6
176
     1
 40
30.0
176
     1
 62
     7
420
 16777215
176
     1
 90
        2
176
     1
 90
        2
176
     1
 62
     7
176
     1
 62
   257
176
     1
 90
        1
176
     1
 90
        1
176
     1
 40
179.0
176
     1
 90
        8
176
     1
 62
     7
176
     1
 40
1.0
176
     1
 90
        1
176
     1
 90
        6
176
     1
 90
        2
176
     1
 62
     7
176
     1
 90
        3
176
     1
 90
        0
176
     1
 90
        0
176
     1
290
     0
176
     1
 90
        1
176
     1
 40
0.0
176
     1
 90
        0
176
     1
290
     0
176
     1
290
     1
176
     1
290
     1
176
     1
290
     0
176
     1
290
     0
176
     1
290
     0
176
     1
290
     0
176
     1
290
     0
176
     1
290
     0
176
     1
 90
       50
176
     1
 40
0.0
176
     1
 40
1.0
176
     1
 90
        0
176
     1
 62
    18
420
        0
176
     1
 90
       50
176
     1
 90
        3
176
     1
 62
     5
420
      255
176
     1
290
     0
176
     1
 90
       50
176
     1
 90
       50
176
     1
 90
       50
176
     1
290
     0
176
     1
 90
       50
176
     1
 62
   256
176
     0
 40
1.0
176
     0
 90
        2
176
     1
  1
strokes_ogs.tif
176
     1
290
     0
176
     1
 40
1.0
176
     1
 40
1.0
176
     1
  0
VISUALSTYLE
  5
34
102
{ACAD_REACTORS
330
29
102
}
330
29
100
AcDbVisualStyle
  2
Dim
 70
    11
177
     3
291
     1
 70
    58
 90
        2
176
     1
 90
        2
176
     1
 90
        0
176
     1
 90
        0
176
     1
 40
0.6
176
     1
 40
30.0
176
     1
 62
     7
420
 16777215
176
     1
 90
        1
176
     1
 90
        4
176
     1
 62
     7
176
     1
 62
   257
176
     1
 90
        1
176
     1
 90
        1
176
     1
 40
1.0
176
     1
 90
        8
176
     1
 62
     7
176
     1
 40
1.0
176
     1
 90
        1
176
     1
 90
        6
176
     1
 90
        2
176
     1
 62
     7
176
     1
 90
        5
176
     1
 90
        0
176
     1
 90
        0
176
     1
290
     0
176
     1
 90
        1
176
     1
 40
-50.0
176
     1
 90
        0
176
     1
290
     0
176
     1
290
     1
176
     1
290
     1
176
     1
290
     0
176
     1
290
     0
176
     1
290
     0
176
     1
290
     0
176
     1
290
     0
176
     1
290
     0
176
     1
 90
       50
176
     1
 40
0.0
176
     1
 40
1.0
176
     1
 90
        0
176
     1
 62
    18
420
        0
176
     1
 90
       50
176
     1
 90
        3
176
     1
 62
     5
420
      255
176
     1
290
     0
176
     1
 90
       50
176
     1
 90
       50
176
     1
 90
       50
176
     1
290
     0
176
     1
 90
       50
176
     1
 62
   256
176
     0
 40
1.0
176
     0
 90
        2
176
     1
  1
strokes_ogs.tif
176
     1
290
     0
176
     1
 40
1.0
176
     1
 40
1.0
176
     1
  0
VISUALSTYLE
  5
41
102
{ACAD_REACTORS
330
29
102
}
330
29
100
AcDbVisualStyle
  2
EdgeColorOff
 70
    22
177
     3
291
     1
 70
    58
 90
        2
176
     0
 90
        2
176
     0
 90
        0
176
     0
 90
        0
176
     0
 40
0.6
176
     0
 40
30.0
176
     0
 62
     7
420
 16777215
176
     0
 90
        1
176
     0
 90
        4
176
     0
 62
     7
176
     0
 62
   257
176
     0
 90
        1
176
     0
 90
        1
176
     0
 40
1.0
176
     0
 90
        8
176
     2
 62
     7
176
     0
 40
1.0
176
     0
 90
        1
176
     0
 90
        6
176
     0
 90
        2
176
     0
 62
     7
176
     0
 90
        5
176
     0
 90
        0
176
     0
 90
        0
176
     0
290
     0
176
     0
 90
        1
176
     0
 40
0.0
176
     0
 90
        0
176
     0
290
     0
176
     0
290
     1
176
     0
290
     1
176
     0
290
     0
176
     0
290
     0
176
     0
290
     0
176
     0
290
     0
176
     0
290
     0
176
     0
290
     0
176
     0
 90
       50
176
     0
 40
0.0
176
     0
 40
1.0
176
     0
 90
        0
176
     0
 62
    18
420
        0
176
     0
 90
       50
176
     0
 90
        3
176
     0
 62
     5
420
      255
176
     0
290
     0
176
     0
 90
       50
176
     0
 90
       50
176
     0
 90
       50
176
     0
290
     0
176
     0
 90
       50
176
     0
 62
   256
176
     0
 40
1.0
176
     0
 90
        2
176
     0
  1
strokes_ogs.tif
176
     0
290
     0
176
     0
 40
1.0
176
     0
 40
1.0
176
     0
  0
VISUALSTYLE
  5
38
102
{ACAD_REACTORS
330
29
102
}
330
29
100
AcDbVisualStyle
  2
Facepattern
 70
    15
177
     3
291
     1
 70
    58
 90
        2
176
     1
 90
        2
176
     1
 90
        0
176
     1
 90
        0
176
     1
 40
0.6
176
     1
 40
30.0
176
     1
 62
     7
420
 16777215
176
     1
 90
        1
176
     1
 90
        4
176
     1
 62
     7
176
     1
 62
   257
176
     1
 90
        1
176
     1
 90
        1
176
     1
 40
1.0
176
     1
 90
        8
176
     1
 62
     7
176
     1
 40
1.0
176
     1
 90
        1
176
     1
 90
        6
176
     1
 90
        2
176
     1
 62
     7
176
     1
 90
        5
176
     1
 90
        0
176
     1
 90
        0
176
     1
290
     0
176
     1
 90
        1
176
     1
 40
0.0
176
     1
 90
        0
176
     1
290
     0
176
     1
290
     1
176
     1
290
     1
176
     1
290
     0
176
     1
290
     0
176
     1
290
     0
176
     1
290
     0
176
     1
290
     0
176
     1
290
     0
176
     1
 90
       50
176
     1
 40
0.0
176
     1
 40
1.0
176
     1
 90
        0
176
     1
 62
    18
420
        0
176
     1
 90
       50
176
     1
 90
        3
176
     1
 62
     5
420
      255
176
     1
290
     0
176
     1
 90
       50
176
     1
 90
       50
176
     1
 90
       50
176
     1
290
     0
176
     1
 90
       50
176
     1
 62
   256
176
     0
 40
1.0
176
     0
 90
        2
176
     1
  1
strokes_ogs.tif
176
     1
290
     0
176
     1
 40
1.0
176
     1
 40
1.0
176
     1
  0
VISUALSTYLE
  5
2A
102
{ACAD_REACTORS
330
29
102
}
330
29
100
AcDbVisualStyle
  2
Flat
 70
     0
177
     3
291
     1
 70
    58
 90
        2
176
     1
 90
        1
176
     1
 90
        1
176
     1
 90
        2
176
     1
 40
0.6
176
     1
 40
30.0
176
     1
 62
     7
420
 16777215
176
     1
 90
        0
176
     1
 90
        0
176
     1
 62
     7
176
     1
 62
   257
176
     1
 90
        1
176
     1
 90
        1
176
     1
 40
1.0
176
     1
 90
        8
176
     1
 62
     7
176
     1
 40
1.0
176
     1
 90
        1
176
     1
 90
        6
176
     1
 90
        2
176
     1
 62
     7
176
     1
 90
        5
176
     1
 90
        0
176
     1
 90
        0
176
     1
290
     0
176
     1
 90
       13
176
     1
 40
0.0
176
     1
 90
        0
176
     1
290
     0
176
     1
290
     1
176
     1
290
     1
176
     1
290
     0
176
     1
290
     0
176
     1
290
     0
176
     1
290
     0
176
     1
290
     0
176
     1
290
     0
176
     1
 90
       50
176
     1
 40
0.0
176
     1
 40
1.0
176
     1
 90
        0
176
     1
 62
    18
420
        0
176
     1
 90
       50
176
     1
 90
        3
176
     1
 62
     5
420
      255
176
     1
290
     0
176
     1
 90
       50
176
     1
 90
       50
176
     1
 90
       50
176
     1
290
     0
176
     1
 90
       50
176
     1
 62
   256
176
     0
 40
1.0
176
     0
 90
        2
176
     1
  1
strokes_ogs.tif
176
     1
290
     0
176
     1
 40
1.0
176
     1
 40
1.0
176
     1
  0
VISUALSTYLE
  5
2B
102
{ACAD_REACTORS
330
29
102
}
330
29
100
AcDbVisualStyle
  2
FlatWithEdges
 70
     1
177
     3
291
     1
 70
    58
 90
        2
176
     1
 90
        1
176
     1
 90
        1
176
     1
 90
        2
176
     1
 40
0.6
176
     1
 40
30.0
176
     1
 62
     7
420
 16777215
176
     1
 90
        1
176
     1
 90
        0
176
     1
 62
     7
176
     1
 62
   257
176
     1
 90
        1
176
     1
 90
        1
176
     1
 40
1.0
176
     1
 90
        0
176
     1
 62
   257
176
     1
 40
1.0
176
     1
 90
        1
176
     1
 90
        6
176
     1
 90
        2
176
     1
 62
     7
176
     1
 90
        5
176
     1
 90
        0
176
     1
 90
        0
176
     1
290
     0
176
     1
 90
       13
176
     1
 40
0.0
176
     1
 90
        0
176
     1
290
     0
176
     1
290
     1
176
     1
290
     1
176
     1
290
     0
176
     1
290
     0
176
     1
290
     0
176
     1
290
     0
176
     1
290
     0
176
     1
290
     0
176
     1
 90
       50
176
     1
 40
0.0
176
     1
 40
1.0
176
     1
 90
        0
176
     1
 62
    18
420
        0
176
     1
 90
       50
176
     1
 90
        3
176
     1
 62
     5
420
      255
176
     1
290
     0
176
     1
 90
       50
176
     1
 90
       50
176
     1
 90
       50
176
     1
290
     0
176
     1
 90
       50
176
     1
 62
   256
176
     0
 40
1.0
176
     0
 90
        2
176
     1
  1
strokes_ogs.tif
176
     1
290
     0
176
     1
 40
1.0
176
     1
 40
1.0
176
     1
  0
VISUALSTYLE
  5
2C
102
{ACAD_REACTORS
330
29
102
}
330
29
100
AcDbVisualStyle
  2
Gouraud
 70
     2
177
     3
291
     1
 70
    58
 90
        2
176
     1
 90
        2
176
     1
 90
        1
176
     1
 90
        2
176
     1
 40
0.6
176
     1
 40
30.0
176
     1
 62
     7
420
 16777215
176
     1
 90
        0
176
     1
 90
        0
176
     1
 62
     7
176
     1
 62
   257
176
     1
 90
        1
176
     1
 90
        1
176
     1
 40
1.0
176
     1
 90
        0
176
     1
 62
     7
176
     1
 40
1.0
176
     1
 90
        1
176
     1
 90
        6
176
     1
 90
        2
176
     1
 62
     7
176
     1
 90
        5
176
     1
 90
        0
176
     1
 90
        0
176
     1
290
     0
176
     1
 90
       13
176
     1
 40
0.0
176
     1
 90
        0
176
     1
290
     0
176
     1
290
     1
176
     1
290
     1
176
     1
290
     0
176
     1
290
     0
176
     1
290
     0
176
     1
290
     0
176
     1
290
     0
176
     1
290
     0
176
     1
 90
       50
176
     1
 40
0.0
176
     1
 40
1.0
176
     1
 90
        0
176
     1
 62
    18
420
        0
176
     1
 90
       50
176
     1
 90
        3
176
     1
 62
     5
420
      255
176
     1
290
     0
176
     1
 90
       50
176
     1
 90
       50
176
     1
 90
       50
176
     1
290
     0
176
     1
 90
       50
176
     1
 62
   256
176
     0
 40
1.0
176
     0
 90
        2
176
     1
  1
strokes_ogs.tif
176
     1
290
     0
176
     1
 40
1.0
176
     1
 40
1.0
176
     1
  0
VISUALSTYLE
  5
2D
102
{ACAD_REACTORS
330
29
102
}
330
29
100
AcDbVisualStyle
  2
GouraudWithEdges
 70
     3
177
     3
291
     1
 70
    58
 90
        2
176
     1
 90
        2
176
     1
 90
        1
176
     1
 90
        2
176
     1
 40
0.6
176
     1
 40
30.0
176
     1
 62
     7
420
 16777215
176
     1
 90
        1
176
     1
 90
        0
176
     1
 62
     7
176
     1
 62
   257
176
     1
 90
        1
176
     1
 90
        1
176
     1
 40
1.0
176
     1
 90
        0
176
     1
 62
   257
176
     1
 40
1.0
176
     1
 90
        1
176
     1
 90
        6
176
     1
 90
        2
176
     1
 62
     7
176
     1
 90
        5
176
     1
 90
        0
176
     1
 90
        0
176
     1
290
     0
176
     1
 90
       13
176
     1
 40
0.0
176
     1
 90
        0
176
     1
290
     0
176
     1
290
     1
176
     1
290
     1
176
     1
290
     0
176
     1
290
     0
176
     1
290
     0
176
     1
290
     0
176
     1
290
     0
176
     1
290
     0
176
     1
 90
       50
176
     1
 40
0.0
176
     1
 40
1.0
176
     1
 90
        0
176
     1
 62
    18
420
        0
176
     1
 90
       50
176
     1
 90
        3
176
     1
 62
     5
420
      255
176
     1
290
     0
176
     1
 90
       50
176
     1
 90
       50
176
     1
 90
       50
176
     1
290
     0
176
     1
 90
       50
176
     1
 62
   256
176
     0
 40
1.0
176
     0
 90
        2
176
     1
  1
strokes_ogs.tif
176
     1
290
     0
176
     1
 40
1.0
176
     1
 40
1.0
176
     1
  0
VISUALSTYLE
  5
31
102
{ACAD_REACTORS
330
29
102
}
330
29
100
AcDbVisualStyle
  2
Hidden
 70
     6
177
     3
291
     0
 70
    58
 90
        1
176
     1
 90
        2
176
     1
 90
        2
176
     1
 90
        0
176
     1
 40
0.6
176
     1
 40
30.0
176
     1
 62
     7
420
 16777215
176
     1
 90
        2
176
     1
 90
        2
176
     1
 62
     7
176
     1
 62
   257
176
     1
 90
        2
176
     1
 90
        1
176
     1
 40
40.0
176
     1
 90
        0
176
     1
 62
   257
176
     1
 40
1.0
176
     1
 90
        1
176
     1
 90
        6
176
     1
 90
        2
176
     1
 62
     7
176
     1
 90
        3
176
     1
 90
        0
176
     1
 90
        0
176
     1
290
     0
176
     1
 90
        1
176
     1
 40
0.0
176
     1
 90
        0
176
     1
290
     0
176
     1
290
     1
176
     1
290
     1
176
     1
290
     0
176
     1
290
     0
176
     1
290
     0
176
     1
290
     0
176
     1
290
     0
176
     1
290
     0
176
     1
 90
       50
176
     1
 40
0.0
176
     1
 40
1.0
176
     1
 90
        0
176
     1
 62
    18
420
        0
176
     1
 90
       50
176
     1
 90
        3
176
     1
 62
     5
420
      255
176
     1
290
     0
176
     1
 90
       50
176
     1
 90
       50
176
     1
 90
       50
176
     1
290
     0
176
     1
 90
       50
176
     1
 62
   256
176
     0
 40
1.0
176
     0
 90
        2
176
     1
  1
strokes_ogs.tif
176
     1
290
     0
176
     1
 40
1.0
176
     1
 40
1.0
176
     1
  0
VISUALSTYLE
  5
3F
102
{ACAD_REACTORS
330
29
102
}
330
29
100
AcDbVisualStyle
  2
JitterOff
 70
    20
177
     3
291
     1
 70
    58
 90
        2
176
     0
 90
        2
176
     0
 90
        0
176
     0
 90
        0
176
     0
 40
0.6
176
     0
 40
30.0
176
     0
 62
     7
420
 16777215
176
     0
 90
        1
176
     0
 90
        4
176
     0
 62
     7
176
     0
 62
   257
176
     0
 90
        1
176
     0
 90
        1
176
     0
 40
1.0
176
     0
 90
       10
176
     2
 62
     7
176
     0
 40
1.0
176
     0
 90
        1
176
     0
 90
        6
176
     0
 90
        2
176
     0
 62
     7
176
     0
 90
        5
176
     0
 90
        0
176
     0
 90
        0
176
     0
290
     0
176
     0
 90
        1
176
     0
 40
0.0
176
     0
 90
        0
176
     0
290
     0
176
     0
290
     1
176
     0
290
     1
176
     0
290
     0
176
     0
290
     0
176
     0
290
     0
176
     0
290
     0
176
     0
290
     0
176
     0
290
     0
176
     0
 90
       50
176
     0
 40
0.0
176
     0
 40
1.0
176
     0
 90
        0
176
     0
 62
    18
420
        0
176
     0
 90
       50
176
     0
 90
        3
176
     0
 62
     5
420
      255
176
     0
290
     0
176
     0
 90
       50
176
     0
 90
       50
176
     0
 90
       50
176
     0
290
     0
176
     0
 90
       50
176
     0
 62
   256
176
     0
 40
1.0
176
     0
 90
        2
176
     0
  1
strokes_ogs.tif
176
     0
290
     0
176
     0
 40
1.0
176
     0
 40
1.0
176
     0
  0
VISUALSTYLE
  5
37
102
{ACAD_REACTORS
330
29
102
}
330
29
100
AcDbVisualStyle
  2
Linepattern
 70
    14
177
     3
291
     1
 70
    58
 90
        2
176
     1
 90
        2
176
     1
 90
        0
176
     1
 90
        0
176
     1
 40
0.6
176
     1
 40
30.0
176
     1
 62
     7
420
 16777215
176
     1
 90
        1
176
     1
 90
        4
176
     1
 62
     7
176
     1
 62
   257
176
     1
 90
        7
176
     1
 90
        7
176
     1
 40
1.0
176
     1
 90
        8
176
     1
 62
     7
176
     1
 40
1.0
176
     1
 90
        1
176
     1
 90
        6
176
     1
 90
        2
176
     1
 62
     7
176
     1
 90
        5
176
     1
 90
        0
176
     1
 90
        0
176
     1
290
     0
176
     1
 90
        1
176
     1
 40
0.0
176
     1
 90
        0
176
     1
290
     0
176
     1
290
     1
176
     1
290
     1
176
     1
290
     0
176
     1
290
     0
176
     1
290
     0
176
     1
290
     0
176
     1
290
     0
176
     1
290
     0
176
     1
 90
       50
176
     1
 40
0.0
176
     1
 40
1.0
176
     1
 90
        0
176
     1
 62
    18
420
        0
176
     1
 90
       50
176
     1
 90
        3
176
     1
 62
     5
420
      255
176
     1
290
     0
176
     1
 90
       50
176
     1
 90
       50
176
     1
 90
       50
176
     1
290
     0
176
     1
 90
       50
176
     1
 62
   256
176
     0
 40
1.0
176
     0
 90
        2
176
     1
  1
strokes_ogs.tif
176
     1
290
     0
176
     1
 40
1.0
176
     1
 40
1.0
176
     1
  0
VISUALSTYLE
  5
40
102
{ACAD_REACTORS
330
29
102
}
330
29
100
AcDbVisualStyle
  2
OverhangOff
 70
    21
177
     3
291
     1
 70
    58
 90
        2
176
     0
 90
        2
176
     0
 90
        0
176
     0
 90
        0
176
     0
 40
0.6
176
     0
 40
30.0
176
     0
 62
     7
420
 16777215
176
     0
 90
        1
176
     0
 90
        4
176
     0
 62
     7
176
     0
 62
   257
176
     0
 90
        1
176
     0
 90
        1
176
     0
 40
1.0
176
     0
 90
        9
176
     2
 62
     7
176
     0
 40
1.0
176
     0
 90
        1
176
     0
 90
        6
176
     0
 90
        2
176
     0
 62
     7
176
     0
 90
        5
176
     0
 90
        0
176
     0
 90
        0
176
     0
290
     0
176
     0
 90
        1
176
     0
 40
0.0
176
     0
 90
        0
176
     0
290
     0
176
     0
290
     1
176
     0
290
     1
176
     0
290
     0
176
     0
290
     0
176
     0
290
     0
176
     0
290
     0
176
     0
290
     0
176
     0
290
     0
176
     0
 90
       50
176
     0
 40
0.0
176
     0
 40
1.0
176
     0
 90
        0
176
     0
 62
    18
420
        0
176
     0
 90
       50
176
     0
 90
        3
176
     0
 62
     5
420
      255
176
     0
290
     0
176
     0
 90
       50
176
     0
 90
       50
176
     0
 90
       50
176
     0
290
     0
176
     0
 90
       50
176
     0
 62
   256
176
     0
 40
1.0
176
     0
 90
        2
176
     0
  1
strokes_ogs.tif
176
     0
290
     0
176
     0
 40
1.0
176
     0
 40
1.0
176
     0
  0
VISUALSTYLE
  5
33
102
{ACAD_REACTORS
330
29
102
}
330
29
100
AcDbVisualStyle
  2
Realistic
 70
     8
177
     3
291
     0
 70
    58
 90
        2
176
     1
 90
        3
176
     1
 90
        0
176
     1
 90
        2
176
     1
 40
0.6
176
     1
 40
30.0
176
     1
 62
     7
420
 16777215
176
     1
 90
        0
176
     1
 90
        0
176
     1
 62
     7
176
     1
 62
   257
176
     1
 90
        1
176
     1
 90
        1
176
     1
 40
1.0
176
     1
 90
        8
176
     1
 62
   257
176
     1
 40
1.0
176
     1
 90
        1
176
     1
 90
        6
176
     1
 90
        2
176
     1
 62
     7
176
     1
 90
        3
176
     1
 90
        0
176
     1
 90
        0
176
     1
290
     0
176
     1
 90
       13
176
     1
 40
0.0
176
     1
 90
        0
176
     1
290
     0
176
     1
290
     1
176
     1
290
     1
176
     1
290
     0
176
     1
290
     0
176
     1
290
     0
176
     1
290
     0
176
     1
290
     0
176
     1
290
     0
176
     1
 90
       50
176
     1
 40
0.0
176
     1
 40
1.0
176
     1
 90
        0
176
     1
 62
    18
420
        0
176
     1
 90
       50
176
     1
 90
        3
176
     1
 62
     5
420
      255
176
     1
290
     0
176
     1
 90
       50
176
     1
 90
       50
176
     1
 90
       50
176
     1
290
     0
176
     1
 90
       50
176
     1
 62
   256
176
     0
 40
1.0
176
     0
 90
        2
176
     1
  1
strokes_ogs.tif
176
     1
290
     0
176
     1
 40
1.0
176
     1
 40
1.0
176
     1
  0
VISUALSTYLE
  5
3E
102
{ACAD_REACTORS
330
29
102
}
330
29
100
AcDbVisualStyle
  2
Shaded
 70
    27
177
     3
291
     0
 70
    58
 90
        2
176
     1
 90
        2
176
     1
 90
        1
176
     1
 90
        2
176
     1
 40
0.6
176
     1
 40
30.0
176
     1
 62
     7
420
 16777215
176
     1
 90
        0
176
     1
 90
        4
176
     1
 62
     7
176
     1
 62
   257
176
     1
 90
        1
176
     1
 90
        1
176
     1
 40
1.0
176
     1
 90
        8
176
     1
 62
   257
176
     1
 40
1.0
176
     1
 90
        1
176
     1
 90
        6
176
     1
 90
        2
176
     1
 62
     8
420
  7895160
176
     1
 90
        3
176
     1
 90
        0
176
     1
 90
        0
176
     1
290
     0
176
     1
 90
        5
176
     1
 40
0.0
176
     1
 90
        0
176
     1
290
     0
176
     1
290
     1
176
     1
290
     1
176
     1
290
     0
176
     1
290
     0
176
     1
290
     0
176
     1
290
     0
176
     1
290
     0
176
     1
290
     0
176
     1
 90
       50
176
     1
 40
0.0
176
     1
 40
1.0
176
     1
 90
        0
176
     1
 62
    18
420
        0
176
     1
 90
       50
176
     1
 90
        3
176
     1
 62
     5
420
      255
176
     1
290
     0
176
     1
 90
       50
176
     1
 90
       50
176
     1
 90
       50
176
     1
290
     0
176
     1
 90
       50
176
     1
 62
   256
176
     0
 40
1.0
176
     0
 90
        2
176
     1
  1
strokes_ogs.tif
176
     1
290
     0
176
     1
 40
1.0
176
     1
 40
1.0
176
     1
  0
VISUALSTYLE
  5
3D
102
{ACAD_REACTORS
330
29
102
}
330
29
100
AcDbVisualStyle
  2
Shaded with edges
 70
    26
177
     3
291
     0
 70
    58
 90
        2
176
     1
 90
        2
176
     1
 90
        1
176
     1
 90
        2
176
     1
 40
0.6
176
     1
 40
30.0
176
     1
 62
     7
420
 16777215
176
     1
 90
        1
176
     1
 90
        2
176
     1
 62
     7
176
     1
 62
   257
176
     1
 90
        2
176
     1
 90
        1
176
     1
 40
1.0
176
     1
 90
        8
176
     1
 62
   257
176
     1
 40
1.0
176
     1
 90
        1
176
     1
 90
        6
176
     1
 90
        2
176
     1
 62
     7
176
     1
 90
        3
176
     1
 90
        0
176
     1
 90
        0
176
     1
290
     0
176
     1
 90
        5
176
     1
 40
0.0
176
     1
 90
        0
176
     1
290
     0
176
     1
290
     1
176
     1
290
     1
176
     1
290
     0
176
     1
290
     0
176
     1
290
     0
176
     1
290
     0
176
     1
290
     0
176
     1
290
     0
176
     1
 90
       50
176
     1
 40
0.0
176
     1
 40
1.0
176
     1
 90
        0
176
     1
 62
    18
420
        0
176
     1
 90
       50
176
     1
 90
        3
176
     1
 62
     5
420
      255
176
     1
290
     0
176
     1
 90
       50
176
     1
 90
       50
176
     1
 90
       50
176
     1
290
     0
176
     1
 90
       50
176
     1
 62
   256
176
     0
 40
1.0
176
     0
 90
        2
176
     1
  1
strokes_ogs.tif
176
     1
290
     0
176
     1
 40
1.0
176
     1
 40
1.0
176
     1
  0
VISUALSTYLE
  5
3A
102
{ACAD_REACTORS
330
29
102
}
330
29
100
AcDbVisualStyle
  2
Shades of Gray
 70
    23
177
     3
291
     0
 70
    58
 90
        2
176
     1
 90
        2
176
     1
 90
        3
176
     1
 90
        0
176
     1
 40
0.6
176
     1
 40
30.0
176
     1
 62
     7
420
 16777215
176
     1
 90
        2
176
     1
 90
        2
176
     1
 62
     7
176
     1
 62
     7
176
     1
 90
        1
176
     1
 90
        1
176
     1
 40
40.0
176
     1
 90
        8
176
     1
 62
     7
176
     1
 40
1.0
176
     1
 90
        1
176
     1
 90
        6
176
     1
 90
        2
176
     1
 62
     7
176
     1
 90
        3
176
     1
 90
        0
176
     1
 90
        0
176
     1
290
     0
176
     1
 90
        1
176
     1
 40
0.0
176
     1
 90
        0
176
     1
290
     0
176
     1
290
     1
176
     1
290
     1
176
     1
290
     0
176
     1
290
     0
176
     1
290
     0
176
     1
290
     0
176
     1
290
     0
176
     1
290
     0
176
     1
 90
       50
176
     1
 40
0.0
176
     1
 40
1.0
176
     1
 90
        0
176
     1
 62
    18
420
        0
176
     1
 90
       50
176
     1
 90
        3
176
     1
 62
     5
420
      255
176
     1
290
     0
176
     1
 90
       50
176
     1
 90
       50
176
     1
 90
       50
176
     1
290
     0
176
     1
 90
       50
176
     1
 62
   256
176
     0
 40
1.0
176
     0
 90
        2
176
     1
  1
strokes_ogs.tif
176
     1
290
     0
176
     1
 40
1.0
176
     1
 40
1.0
176
     1
  0
VISUALSTYLE
  5
3B
102
{ACAD_REACTORS
330
29
102
}
330
29
100
AcDbVisualStyle
  2
Sketchy
 70
    24
177
     3
291
     0
 70
    58
 90
        1
176
     1
 90
        2
176
     1
 90
        2
176
     1
 90
        0
176
     1
 40
0.6
176
     1
 40
30.0
176
     1
 62
     7
420
 16777215
176
     1
 90
        2
176
     1
 90
        2
176
     1
 62
     7
176
     1
 62
     7
176
     1
 90
        1
176
     1
 90
        1
176
     1
 40
40.0
176
     1
 90
       11
176
     1
 62
     7
176
     1
 40
1.0
176
     1
 90
        1
176
     1
 90
        6
176
     1
 90
        2
176
     1
 62
     7
176
     1
 90
        6
176
     1
 90
        0
176
     1
 90
        0
176
     1
290
     0
176
     1
 90
        1
176
     1
 40
0.0
176
     1
 90
        0
176
     1
290
     0
176
     1
290
     1
176
     1
290
     1
176
     1
290
     0
176
     1
290
     0
176
     1
290
     0
176
     1
290
     0
176
     1
290
     0
176
     1
290
     0
176
     1
 90
       50
176
     1
 40
0.0
176
     1
 40
1.0
176
     1
 90
        0
176
     1
 62
    18
420
        0
176
     1
 90
       50
176
     1
 90
        3
176
     1
 62
     5
420
      255
176
     1
290
     0
176
     1
 90
       50
176
     1
 90
       50
176
     1
 90
       50
176
     1
290
     0
176
     1
 90
       50
176
     1
 62
   256
176
     0
 40
1.0
176
     0
 90
        2
176
     1
  1
strokes_ogs.tif
176
     1
290
     0
176
     1
 40
1.0
176
     1
 40
1.0
176
     1
  0
VISUALSTYLE
  5
36
102
{ACAD_REACTORS
330
29
102
}
330
29
100
AcDbVisualStyle
  2
Thicken
 70
    13
177
     3
291
     1
 70
    58
 90
        2
176
     1
 90
        2
176
     1
 90
        0
176
     1
 90
        0
176
     1
 40
0.6
176
     1
 40
30.0
176
     1
 62
     7
420
 16777215
176
     1
 90
        1
176
     1
 90
        4
176
     1
 62
     7
176
     1
 62
   257
176
     1
 90
        1
176
     1
 90
        1
176
     1
 40
1.0
176
     1
 90
       12
176
     1
 62
     7
176
     1
 40
1.0
176
     1
 90
        1
176
     1
 90
        6
176
     1
 90
        2
176
     1
 62
     7
176
     1
 90
        5
176
     1
 90
        0
176
     1
 90
        0
176
     1
290
     0
176
     1
 90
        1
176
     1
 40
0.0
176
     1
 90
        0
176
     1
290
     0
176
     1
290
     1
176
     1
290
     1
176
     1
290
     0
176
     1
290
     0
176
     1
290
     0
176
     1
290
     0
176
     1
290
     0
176
     1
290
     0
176
     1
 90
       50
176
     1
 40
0.0
176
     1
 40
1.0
176
     1
 90
        0
176
     1
 62
    18
420
        0
176
     1
 90
       50
176
     1
 90
        3
176
     1
 62
     5
420
      255
176
     1
290
     0
176
     1
 90
       50
176
     1
 90
       50
176
     1
 90
       50
176
     1
290
     0
176
     1
 90
       50
176
     1
 62
   256
176
     0
 40
1.0
176
     0
 90
        2
176
     1
  1
strokes_ogs.tif
176
     1
290
     0
176
     1
 40
1.0
176
     1
 40
1.0
176
     1
  0
VISUALSTYLE
  5
30
102
{ACAD_REACTORS
330
29
102
}
330
29
100
AcDbVisualStyle
  2
Wireframe
 70
     5
177
     3
291
     0
 70
    58
 90
        0
176
     1
 90
        2
176
     1
 90
        0
176
     1
 90
        0
176
     1
 40
0.6
176
     1
 40
30.0
176
     1
 62
     7
420
 16777215
176
     1
 90
        1
176
     1
 90
        4
176
     1
 62
     7
176
     1
 62
   257
176
     1
 90
        1
176
     1
 90
        1
176
     1
 40
1.0
176
     1
 90
        0
176
     1
 62
   257
176
     1
 40
1.0
176
     1
 90
        1
176
     1
 90
        6
176
     1
 90
        2
176
     1
 62
     7
176
     1
 90
        3
176
     1
 90
        0
176
     1
 90
        0
176
     1
290
     0
176
     1
 90
        1
176
     1
 40
0.0
176
     1
 90
        0
176
     1
290
     0
176
     1
290
     1
176
     1
290
     1
176
     1
290
     0
176
     1
290
     0
176
     1
290
     0
176
     1
290
     0
176
     1
290
     0
176
     1
290
     0
176
     1
 90
       50
176
     1
 40
0.0
176
     1
 40
1.0
176
     1
 90
        0
176
     1
 62
    18
420
        0
176
     1
 90
       50
176
     1
 90
        3
176
     1
 62
     5
420
      255
176
     1
290
     0
176
     1
 90
       50
176
     1
 90
       50
176
     1
 90
       50
176
     1
290
     0
176
     1
 90
       50
176
     1
 62
   256
176
     0
 40
1.0
176
     0
 90
        2
176
     1
  1
strokes_ogs.tif
176
     1
290
     0
176
     1
 40
1.0
176
     1
 40
1.0
176
     1
  0
VISUALSTYLE
  5
3C
102
{ACAD_REACTORS
330
29
102
}
330
29
100
AcDbVisualStyle
  2
X-Ray
 70
    25
177
     3
291
     0
 70
    58
 90
        2
176
     1
 90
        2
176
     1
 90
        1
176
     1
 90
        1
176
     1
 40
0.5
176
     1
 40
30.0
176
     1
 62
     7
420
 16777215
176
     1
 90
        1
176
     1
 90
        0
176
     1
 62
     7
176
     1
 62
   257
176
     1
 90
        1
176
     1
 90
        1
176
     1
 40
1.0
176
     1
 90
        8
176
     1
 62
     7
176
     1
 40
1.0
176
     1
 90
        1
176
     1
 90
        6
176
     1
 90
        2
176
     1
 62
     7
176
     1
 90
        3
176
     1
 90
        0
176
     1
 90
        0
176
     1
290
     0
176
     1
 90
       13
176
     1
 40
0.0
176
     1
 90
        0
176
     1
290
     0
176
     1
290
     1
176
     1
290
     1
176
     1
290
     0
176
     1
290
     0
176
     1
290
     0
176
     1
290
     0
176
     1
290
     0
176
     1
290
     0
176
     1
 90
       50
176
     1
 40
0.0
176
     1
 40
1.0
176
     1
 90
        0
176
     1
 62
    18
420
        0
176
     1
 90
       50
176
     1
 90
        3
176
     1
 62
     5
420
      255
176
     1
290
     0
176
     1
 90
       50
176
     1
 90
       50
176
     1
 90
       50
176
     1
290
     0
176
     1
 90
       50
176
     1
 62
   256
176
     0
 40
1.0
176
     0
 90
        2
176
     1
  1
strokes_ogs.tif
176
     1
290
     0
176
     1
 40
1.0
176
     1
 40
1.0
176
     1
  0
DICTIONARYVAR
  5
F5
102
{ACAD_REACTORS
330
F0
102
}
330
F0
100
DictionaryVariables
280
     0
  1
1:1
  0
DICTIONARYVAR
  5
F2
102
{ACAD_REACTORS
330
F0
102
}
330
F0
100
DictionaryVariables
280
     0
  1
STANDARD
  0
DICTIONARYVAR
  5
F1
102
{ACAD_REACTORS
330
F0
102
}
330
F0
100
DictionaryVariables
280
     0
  1
STANDARD
  0
DICTIONARYVAR
  5
F3
102
{ACAD_REACTORS
330
F0
102
}
330
F0
100
DictionaryVariables
280
     0
  1
Imperial24
  0
DICTIONARYVAR
  5
F4
102
{ACAD_REACTORS
330
F0
102
}
330
F0
100
DictionaryVariables
280
     0
  1
Imperial24
  0
DICTIONARY
  5
1A
330
19
100
AcDbDictionary
280
     1
281
     1
  3
BUMPTILE
360
1C
  3
DIFFUSETILE
360
1B
  3
OPACITYTILE
360
1F
  3
REFLECTIONTILE
360
1E
  3
REFRACTIONTILE
360
20
  3
SPECULARTILE
360
1D
  0
DICTIONARY
  5
12
330
11
100
AcDbDictionary
280
     1
281
     1
  3
BUMPTILE
360
14
  3
DIFFUSETILE
360
13
  3
OPACITYTILE
360
17
  3
REFLECTIONTILE
360
16
  3
REFRACTIONTILE
360
18
  3
SPECULARTILE
360
15
  0
DICTIONARY
  5
22
330
21
100
AcDbDictionary
280
     1
281
     1
  3
BUMPTILE
360
24
  3
DIFFUSETILE
360
23
  3
OPACITYTILE
360
27
  3
REFLECTIONTILE
360
26
  3
REFRACTIONTILE
360
28
  3
SPECULARTILE
360
25
  0
DICTIONARY
  5
F6
330
65
100
AcDbDictionary
280
     1
281
     1
  3
ACAD_ROUNDTRIP_2008_TABLESTYLE_CELLSTYLEMAP
360
F7
  0
XRECORD
  5
1C
102
{ACAD_REACTORS
330
1A
102
}
330
1A
100
AcDbXrecord
280
     1
270
     1
271
     1
  0
XRECORD
  5
1B
102
{ACAD_REACTORS
330
1A
102
}
330
1A
100
AcDbXrecord
280
     1
270
     1
271
     1
  0
XRECORD
  5
1F
102
{ACAD_REACTORS
330
1A
102
}
330
1A
100
AcDbXrecord
280
     1
270
     1
271
     1
  0
XRECORD
  5
1E
102
{ACAD_REACTORS
330
1A
102
}
330
1A
100
AcDbXrecord
280
     1
270
     1
271
     1
  0
XRECORD
  5
20
102
{ACAD_REACTORS
330
1A
102
}
330
1A
100
AcDbXrecord
280
     1
270
     1
271
     1
  0
XRECORD
  5
1D
102
{ACAD_REACTORS
330
1A
102
}
330
1A
100
AcDbXrecord
280
     1
270
     1
271
     1
  0
XRECORD
  5
14
102
{ACAD_REACTORS
330
12
102
}
330
12
100
AcDbXrecord
280
     1
270
     1
271
     1
  0
XRECORD
  5
13
102
{ACAD_REACTORS
330
12
102
}
330
12
100
AcDbXrecord
280
     1
270
     1
271
     1
  0
XRECORD
  5
17
102
{ACAD_REACTORS
330
12
102
}
330
12
100
AcDbXrecord
280
     1
270
     1
271
     1
  0
XRECORD
  5
16
102
{ACAD_REACTORS
330
12
102
}
330
12
100
AcDbXrecord
280
     1
270
     1
271
     1
  0
XRECORD
  5
18
102
{ACAD_REACTORS
330
12
102
}
330
12
100
AcDbXrecord
280
     1
270
     1
271
     1
  0
XRECORD
  5
15
102
{ACAD_REACTORS
330
12
102
}
330
12
100
AcDbXrecord
280
     1
270
     1
271
     1
  0
XRECORD
  5
24
102
{ACAD_REACTORS
330
22
102
}
330
22
100
AcDbXrecord
280
     1
270
     1
271
     1
  0
XRECORD
  5
23
102
{ACAD_REACTORS
330
22
102
}
330
22
100
AcDbXrecord
280
     1
270
     1
271
     1
  0
XRECORD
  5
27
102
{ACAD_REACTORS
330
22
102
}
330
22
100
AcDbXrecord
280
     1
270
     1
271
     1
  0
XRECORD
  5
26
102
{ACAD_REACTORS
330
22
102
}
330
22
100
AcDbXrecord
280
     1
270
     1
271
     1
  0
XRECORD
  5
28
102
{ACAD_REACTORS
330
22
102
}
330
22
100
AcDbXrecord
280
     1
270
     1
271
     1
  0
XRECORD
  5
25
102
{ACAD_REACTORS
330
22
102
}
330
22
100
AcDbXrecord
280
     1
270
     1
271
     1
  0
CELLSTYLEMAP
  5
F7
102
{ACAD_REACTORS
330
F6
102
}
330
F6
100
AcDbCellStyleMap
 90
        3
300
CELLSTYLE
  1
TABLEFORMAT_BEGIN
 90
        5
170
     1
 91
        0
 92
    32768
 62
   257
 93
        1
300
CONTENTFORMAT
  1
CONTENTFORMAT_BEGIN
 90
        0
 91
        0
 92
      512
 93
        0
300

 40
0.0
140
1.0
 94
        5
 62
     0
340
55
144
0.25
309
CONTENTFORMAT_END
171
     0
 94
        0
309
TABLEFORMAT_END
  1
CELLSTYLE_BEGIN
 90
        1
 91
        1
300
_TITLE
309
CELLSTYLE_END
300
CELLSTYLE
  1
TABLEFORMAT_BEGIN
 90
        5
170
     1
 91
        0
 92
        0
 62
   257
 93
        1
300
CONTENTFORMAT
  1
CONTENTFORMAT_BEGIN
 90
        0
 91
        0
 92
      512
 93
        0
300

 40
0.0
140
1.0
 94
        5
 62
     0
340
55
144
0.18
309
CONTENTFORMAT_END
171
     0
 94
        0
309
TABLEFORMAT_END
  1
CELLSTYLE_BEGIN
 90
        2
 91
        1
300
_HEADER
309
CELLSTYLE_END
300
CELLSTYLE
  1
TABLEFORMAT_BEGIN
 90
        5
170
     1
 91
        0
 92
        0
 62
   257
 93
        1
300
CONTENTFORMAT
  1
CONTENTFORMAT_BEGIN
 90
        0
 91
        0
 92
      512
 93
        0
300

 40
0.0
140
1.0
 94
        2
 62
     0
340
55
144
0.18
309
CONTENTFORMAT_END
171
     0
 94
        0
309
TABLEFORMAT_END
  1
CELLSTYLE_BEGIN
 90
        3
 91
        2
300
_DATA
309
CELLSTYLE_END
  0
ENDSEC
  0
EOF
