  0
SECTION
  2
HEADER
  9
$ACADVER
  1
AC1032
  9
$ACADMAINTVER
 90
      228
  9
$DWGCODEPAGE
  3
ANSI_1252
  9
$REQUIREDVERSIONS
160
                 0
  9
$INSBASE
 10
0.0
 20
0.0
 30
0.0
  9
$EXTMIN
 10
1.000000000000000E+20
 20
1.000000000000000E+20
 30
1.000000000000000E+20
  9
$EXTMAX
 10
-1.000000000000000E+20
 20
-1.000000000000000E+20
 30
-1.000000000000000E+20
  9
$LIMMIN
 10
0.0
 20
0.0
  9
$LIMMAX
 10
12.0
 20
9.0
  9
$ORTHOMODE
 70
     0
  9
$REGENMODE
 70
     1
  9
$FILLMODE
 70
     1
  9
$QTEXTMODE
 70
     0
  9
$MIRRTEXT
 70
     0
  9
$LTSCALE
 40
1.0
  9
$ATTMODE
 70
     1
  9
$TEXTSIZE
 40
0.2
  9
$TRACEWID
 40
0.05
  9
$TEXTSTYLE
  7
Standard
  9
$CLAYER
  8
0
  9
$CELTYPE
  6
ByLayer
  9
$CECOLOR
 62
   256
  9
$CELTSCALE
 40
1.0
  9
$DISPSILH
 70
     0
  9
$DIMSCALE
 40
1.0
  9
$DIMASZ
 40
0.18
  9
$DIMEXO
 40
0.0625
  9
$DIMDLI
 40
0.38
  9
$DIMRND
 40
0.0
  9
$DIMDLE
 40
0.0
  9
$DIMEXE
 40
0.18
  9
$DIMTP
 40
0.0
  9
$DIMTM
 40
0.0
  9
$DIMTXT
 40
0.18
  9
$DIMCEN
 40
0.09
  9
$DIMTSZ
 40
0.0
  9
$DIMTOL
 70
     0
  9
$DIMLIM
 70
     0
  9
$DIMTIH
 70
     1
  9
$DIMTOH
 70
     1
  9
$DIMSE1
 70
     0
  9
$DIMSE2
 70
     0
  9
$DIMTAD
 70
     0
  9
$DIMZIN
 70
     0
  9
$DIMBLK
  1

  9
$DIMASO
 70
     1
  9
$DIMSHO
 70
     1
  9
$DIMPOST
  1

  9
$DIMAPOST
  1

  9
$DIMALT
 70
     0
  9
$DIMALTD
 70
     2
  9
$DIMALTF
 40
25.4
  9
$DIMLFAC
 40
1.0
  9
$DIMTOFL
 70
     0
  9
$DIMTVP
 40
0.0
  9
$DIMTIX
 70
     0
  9
$DIMSOXD
 70
     0
  9
$DIMSAH
 70
     0
  9
$DIMBLK1
  1

  9
$DIMBLK2
  1

  9
$DIMSTYLE
  2
Standard
  9
$DIMCLRD
 70
     0
  9
$DIMCLRE
 70
     0
  9
$DIMCLRT
 70
     0
  9
$DIMTFAC
 40
1.0
  9
$DIMGAP
 40
0.09
  9
$DIMJUST
 70
     0
  9
$DIMSD1
 70
     0
  9
$DIMSD2
 70
     0
  9
$DIMTOLJ
 70
     1
  9
$DIMTZIN
 70
     0
  9
$DIMALTZ
 70
     0
  9
$DIMALTTZ
 70
     0
  9
$DIMUPT
 70
     0
  9
$DIMDEC
 70
     4
  9
$DIMTDEC
 70
     4
  9
$DIMALTU
 70
     2
  9
$DIMALTTD
 70
     2
  9
$DIMTXSTY
  7
Standard
  9
$DIMAUNIT
 70
     0
  9
$DIMADEC
 70
     0
  9
$DIMALTRND
 40
0.0
  9
$DIMAZIN
 70
     0
  9
$DIMDSEP
 70
    46
  9
$DIMATFIT
 70
     3
  9
$DIMFRAC
 70
     0
  9
$DIMLDRBLK
  1

  9
$DIMLUNIT
 70
     2
  9
$DIMLWD
 70
    -2
  9
$DIMLWE
 70
    -2
  9
$DIMTMOVE
 70
     0
  9
$DIMFXL
 40
1.0
  9
$DIMFXLON
 70
     0
  9
$DIMJOGANG
 40
0.7853981633974483
  9
$DIMTFILL
 70
     0
  9
$DIMTFILLCLR
 70
     0
  9
$DIMARCSYM
 70
     0
  9
$DIMLTYPE
  6

  9
$DIMLTEX1
  6

  9
$DIMLTEX2
  6

  9
$DIMTXTDIRECTION
 70
     0
  9
$LUNITS
 70
     2
  9
$LUPREC
 70
     4
  9
$SKETCHINC
 40
0.1
  9
$FILLETRAD
 40
0.0
  9
$AUNITS
 70
     0
  9
$AUPREC
 70
     0
  9
$MENU
  1
.
  9
$ELEVATION
 40
0.0
  9
$PELEVATION
 40
0.0
  9
$THICKNESS
 40
0.0
  9
$LIMCHECK
 70
     0
  9
$CHAMFERA
 40
0.0
  9
$CHAMFERB
 40
0.0
  9
$CHAMFERC
 40
0.0
  9
$CHAMFERD
 40
0.0
  9
$SKPOLY
 70
     0
  9
$TDCREATE
 40
2460332.744259259
  9
$TDUCREATE
 40
2460333.077592593
  9
$TDUPDATE
 40
2460332.744259259
  9
$TDUUPDATE
 40
2460333.077592593
  9
$TDINDWG
 40
0.0000000000
  9
$TDUSRTIMER
 40
0.0000000000
  9
$USRTIMER
 70
     1
  9
$ANGBASE
 50
0.0
  9
$ANGDIR
 70
     0
  9
$PDMODE
 70
     0
  9
$PDSIZE
 40
0.0
  9
$PLINEWID
 40
0.0
  9
$SPLFRAME
 70
     0
  9
$SPLINETYPE
 70
     6
  9
$SPLINESEGS
 70
     8
  9
$HANDSEED
  5
C5
  9
$SURFTAB1
 70
     6
  9
$SURFTAB2
 70
     6
  9
$SURFTYPE
 70
     6
  9
$SURFU
 70
     6
  9
$SURFV
 70
     6
  9
$UCSBASE
  2

  9
$UCSNAME
  2

  9
$UCSORG
 10
0.0
 20
0.0
 30
0.0
  9
$UCSXDIR
 10
1.0
 20
0.0
 30
0.0
  9
$UCSYDIR
 10
0.0
 20
1.0
 30
0.0
  9
$UCSORTHOREF
  2

  9
$UCSORTHOVIEW
 70
     0
  9
$UCSORGTOP
 10
0.0
 20
0.0
 30
0.0
  9
$UCSORGBOTTOM
 10
0.0
 20
0.0
 30
0.0
  9
$UCSORGLEFT
 10
0.0
 20
0.0
 30
0.0
  9
$UCSORGRIGHT
 10
0.0
 20
0.0
 30
0.0
  9
$UCSORGFRONT
 10
0.0
 20
0.0
 30
0.0
  9
$UCSORGBACK
 10
0.0
 20
0.0
 30
0.0
  9
$PUCSBASE
  2

  9
$PUCSNAME
  2

  9
$PUCSORG
 10
0.0
 20
0.0
 30
0.0
  9
$PUCSXDIR
 10
1.0
 20
0.0
 30
0.0
  9
$PUCSYDIR
 10
0.0
 20
1.0
 30
0.0
  9
$PUCSORTHOREF
  2

  9
$PUCSORTHOVIEW
 70
     0
  9
$PUCSORGTOP
 10
0.0
 20
0.0
 30
0.0
  9
$PUCSORGBOTTOM
 10
0.0
 20
0.0
 30
0.0
  9
$PUCSORGLEFT
 10
0.0
 20
0.0
 30
0.0
  9
$PUCSORGRIGHT
 10
0.0
 20
0.0
 30
0.0
  9
$PUCSORGFRONT
 10
0.0
 20
0.0
 30
0.0
  9
$PUCSORGBACK
 10
0.0
 20
0.0
 30
0.0
  9
$USERI1
 70
     0
  9
$USERI2
 70
     0
  9
$USERI3
 70
     0
  9
$USERI4
 70
     0
  9
$USERI5
 70
     0
  9
$USERR1
 40
0.0
  9
$USERR2
 40
0.0
  9
$USERR3
 40
0.0
  9
$USERR4
 40
0.0
  9
$USERR5
 40
0.0
  9
$WORLDVIEW
 70
     1
  9
$SHADEDGE
 70
     3
  9
$SHADEDIF
 70
    70
  9
$TILEMODE
 70
     1
  9
$MAXACTVP
 70
    64
  9
$PINSBASE
 10
0.0
 20
0.0
 30
0.0
  9
$PLIMCHECK
 70
     0
  9
$PEXTMIN
 10
1.000000000000000E+20
 20
1.000000000000000E+20
 30
1.000000000000000E+20
  9
$PEXTMAX
 10
-1.000000000000000E+20
 20
-1.000000000000000E+20
 30
-1.000000000000000E+20
  9
$PLIMMIN
 10
0.0
 20
0.0
  9
$PLIMMAX
 10
12.0
 20
9.0
  9
$UNITMODE
 70
     0
  9
$VISRETAIN
 70
     1
  9
$PLINEGEN
 70
     0
  9
$PSLTSCALE
 70
     1
  9
$TREEDEPTH
 70
  3020
  9
$CMLSTYLE
  2
Standard
  9
$CMLJUST
 70
     0
  9
$CMLSCALE
 40
1.0
  9
$PROXYGRAPHICS
 70
     1
  9
$MEASUREMENT
 70
     0
  9
$CELWEIGHT
370
    -1
  9
$ENDCAPS
280
     0
  9
$JOINSTYLE
280
     0
  9
$LWDISPLAY
290
     1
  9
$INSUNITS
 70
     1
  9
$HYPERLINKBASE
  1

  9
$STYLESHEET
  1

  9
$XEDIT
290
     1
  9
$CEPSNTYPE
380
     0
  9
$PSTYLEMODE
290
     1
  9
$FINGERPRINTGUID
  2
{CB48AA77-DB79-984A-8E38-B42B8B56E3EF}
  9
$VERSIONGUID
  2
{9674E052-C309-E640-800F-CF16DB62BED5}
  9
$EXTNAMES
290
     1
  9
$PSVPSCALE
 40
0.0
  9
$OLESTARTUP
290
     0
  9
$SORTENTS
280
   127
  9
$INDEXCTL
280
     0
  9
$HIDETEXT
280
     1
  9
$XCLIPFRAME
280
     2
  9
$HALOGAP
280
     0
  9
$OBSCOLOR
 70
   257
  9
$OBSLTYPE
280
     0
  9
$INTERSECTIONDISPLAY
280
     0
  9
$INTERSECTIONCOLOR
 70
   257
  9
$DIMASSOC
280
     2
  9
$PROJECTNAME
  1

  9
$CAMERADISPLAY
290
     0
  9
$LENSLENGTH
 40
50.0
  9
$CAMERAHEIGHT
 40
0.0
  9
$STEPSPERSEC
 40
2.0
  9
$STEPSIZE
 40
6.0
  9
$3DDWFPREC
 40
2.0
  9
$PSOLWIDTH
 40
0.25
  9
$PSOLHEIGHT
 40
4.0
  9
$LOFTANG1
 40
1.570796326794896
  9
$LOFTANG2
 40
1.570796326794896
  9
$LOFTMAG1
 40
0.0
  9
$LOFTMAG2
 40
0.0
  9
$LOFTPARAM
 70
     7
  9
$LOFTNORMALS
280
     1
  9
$LATITUDE
 40
37.795
  9
$LONGITUDE
 40
-122.394
  9
$NORTHDIRECTION
 40
0.0
  9
$TIMEZONE
 70
 -8000
  9
$LIGHTGLYPHDISPLAY
280
     1
  9
$TILEMODELIGHTSYNCH
280
     1
  9
$CMATERIAL
347
11
  9
$SOLIDHIST
280
     0
  9
$SHOWHIST
280
     1
  9
$DWFFRAME
280
     2
  9
$DGNFRAME
280
     0
  9
$REALWORLDSCALE
290
     1
  9
$INTERFERECOLOR
 62
     1
  9
$INTERFEREOBJVS
345
33
  9
$INTERFEREVPVS
346
30
  9
$CSHADOW
280
     0
  9
$SHADOWPLANELOCATION
 40
0.0
  0
ENDSEC
  0
SECTION
  2
CLASSES
  0
CLASS
  1
ACDBDICTIONARYWDFLT
  2
AcDbDictionaryWithDefault
  3
ObjectDBX Classes
 90
        0
 91
        1
280
     0
281
     0
  0
CLASS
  1
MATERIAL
  2
AcDbMaterial
  3
ObjectDBX Classes
 90
     1153
 91
        3
280
     0
281
     0
  0
CLASS
  1
VISUALSTYLE
  2
AcDbVisualStyle
  3
ObjectDBX Classes
 90
     4095
 91
       24
280
     0
281
     0
  0
CLASS
  1
SCALE
  2
AcDbScale
  3
ObjectDBX Classes
 90
     1153
 91
       17
280
     0
281
     0
  0
CLASS
  1
TABLESTYLE
  2
AcDbTableStyle
  3
ObjectDBX Classes
 90
     4095
 91
        1
280
     0
281
     0
  0
CLASS
  1
MLEADERSTYLE
  2
AcDbMLeaderStyle
  3
ACDB_MLEADERSTYLE_CLASS
 90
     4095
 91
        1
280
     0
281
     0
  0
CLASS
  1
ACDBSECTIONVIEWSTYLE
  2
AcDbSectionViewStyle
  3
ObjectDBX Classes
 90
     1025
 91
        1
280
     0
281
     0
  0
CLASS
  1
ACDBDETAILVIEWSTYLE
  2
AcDbDetailViewStyle
  3
ObjectDBX Classes
 90
     1025
 91
        1
280
     0
281
     0
  0
CLASS
  1
DICTIONARYVAR
  2
AcDbDictionaryVar
  3
ObjectDBX Classes
 90
        0
 91
        5
280
     0
281
     0
  0
CLASS
  1
CELLSTYLEMAP
  2
AcDbCellStyleMap
  3
ObjectDBX Classes
 90
     1152
 91
        1
280
     0
281
     0
  0
ENDSEC
  0
SECTION
  2
TABLES
  0
TABLE
  2
VPORT
  5
8
330
0
100
AcDbSymbolTable
 70
     1
  0
VPORT
  5
57
330
8
100
AcDbSymbolTableRecord
100
AcDbViewportTableRecord
  2
*Active
 70
     0
 10
0.0
 20
0.0
 11
1.0
 21
1.0
 12
0.0
 22
0.0
 13
0.0
 23
0.0
 14
1.0
 24
1.0
 15
0.0
 25
0.0
 16
0.0
 26
0.0
 36
1.0
 17
2.099759910531626
 27
-7.273241100036417
 37
0.0
 40
17.21939019693887
 41
0.9059533432819797
 42
50.0
 43
0.0
 44
0.0
 50
0.0
 51
0.0
 71
     0
 72
   100
 73
     1
 74
     1
 75
     0
 76
     0
 77
     0
 78
     0
281
     0
 65
     1
110
0.0
120
0.0
130
0.0
111
1.0
121
0.0
131
0.0
112
0.0
122
1.0
132
0.0
 79
     0
146
0.0
 60
     3
 61
     5
292
     1
282
     1
141
0.0
142
0.0
 63
   250
421
  3355443
  0
ENDTAB
  0
TABLE
  2
LTYPE
  5
5
330
0
100
AcDbSymbolTable
 70
     1
  0
LTYPE
  5
5B
330
5
100
AcDbSymbolTableRecord
100
AcDbLinetypeTableRecord
  2
ByBlock
 70
     0
  3

 72
    65
 73
     0
 40
0.0
  0
LTYPE
  5
5C
330
5
100
AcDbSymbolTableRecord
100
AcDbLinetypeTableRecord
  2
ByLayer
 70
     0
  3

 72
    65
 73
     0
 40
0.0
  0
LTYPE
  5
5D
330
5
100
AcDbSymbolTableRecord
100
AcDbLinetypeTableRecord
  2
Continuous
 70
     0
  3
Solid line
 72
    65
 73
     0
 40
0.0
  0
ENDTAB
  0
TABLE
  2
LAYER
  5
2
330
0
100
AcDbSymbolTable
 70
     4
  0
LAYER
  5
54
330
2
100
AcDbSymbolTableRecord
100
AcDbLayerTableRecord
  2
0
 70
     0
 62
     7
  6
Continuous
370
    -3
390
F
347
21
348
0
  0
LAYER
  5
78
330
2
100
AcDbSymbolTableRecord
100
AcDbLayerTableRecord
  2
Layer 2
 70
     0
 62
     7
  6
Continuous
370
     0
390
F
347
21
348
0
  0
LAYER
  5
7A
330
2
100
AcDbSymbolTableRecord
100
AcDbLayerTableRecord
  2
Whitebeard
 70
     1
 62
     7
  6
Continuous
370
     0
390
F
347
21
348
0
  0
LAYER
  5
7B
330
2
100
AcDbSymbolTableRecord
100
AcDbLayerTableRecord
  2
Layer 3
 70
     0
 62
     7
  6
Continuous
370
     0
390
F
347
21
348
0
  0
ENDTAB
  0
TABLE
  2
STYLE
  5
3
330
0
100
AcDbSymbolTable
 70
     2
  0
STYLE
  5
55
330
3
100
AcDbSymbolTableRecord
100
AcDbTextStyleTableRecord
  2
Standard
 70
     0
 40
0.0
 41
1.0
 50
0.0
 71
     0
 42
0.2
  3
txt
  4

  0
STYLE
  5
5A
330
3
100
AcDbSymbolTableRecord
100
AcDbTextStyleTableRecord
  2
Annotative
 70
     0
 40
0.0
 41
1.0
 50
0.0
 71
     0
 42
0.2
  3
txt
  4

1001
AcadAnnotative
1000
AnnotativeData
1002
{
1070
     1
1070
     1
1002
}
  0
ENDTAB
  0
TABLE
  2
VIEW
  5
6
330
0
100
AcDbSymbolTable
 70
     0
  0
ENDTAB
  0
TABLE
  2
UCS
  5
7
330
0
100
AcDbSymbolTable
 70
     0
  0
ENDTAB
  0
TABLE
  2
APPID
  5
9
330
0
100
AcDbSymbolTable
 70
     2
  0
APPID
  5
56
330
9
100
AcDbSymbolTableRecord
100
AcDbRegAppTableRecord
  2
ACAD
 70
     0
  0
APPID
  5
5E
330
9
100
AcDbSymbolTableRecord
100
AcDbRegAppTableRecord
  2
AcadAnnotative
 70
     0
  0
ENDTAB
  0
TABLE
  2
DIMSTYLE
  5
A
330
0
100
AcDbSymbolTable
 70
     2
100
AcDbDimStyleTable
 71
     0
  0
DIMSTYLE
105
58
330
A
100
AcDbSymbolTableRecord
100
AcDbDimStyleTableRecord
  2
Standard
 70
     0
340
55
  0
DIMSTYLE
105
59
330
A
100
AcDbSymbolTableRecord
100
AcDbDimStyleTableRecord
  2
Annotative
 70
     0
340
55
1001
AcadAnnotative
1000
AnnotativeData
1002
{
1070
     1
1070
     1
1002
}
  0
ENDTAB
  0
TABLE
  2
BLOCK_RECORD
  5
1
330
0
100
AcDbSymbolTable
 70
     2
  0
BLOCK_RECORD
  5
70
330
1
100
AcDbSymbolTableRecord
100
AcDbBlockTableRecord
  2
*Model_Space
340
73
 70
     0
280
     1
281
     0
  0
BLOCK_RECORD
  5
6C
330
1
100
AcDbSymbolTableRecord
100
AcDbBlockTableRecord
  2
*Paper_Space
340
6F
 70
     0
280
     1
281
     0
  0
BLOCK_RECORD
  5
74
330
1
100
AcDbSymbolTableRecord
100
AcDbBlockTableRecord
  2
*Paper_Space0
340
77
 70
     0
280
     1
281
     0
  0
BLOCK_RECORD
  5
7C
330
1
100
AcDbSymbolTableRecord
100
AcDbBlockTableRecord
  2
Block_0
340
0
102
{BLKREFS
331
7D
102
}
 70
     0
280
     1
281
     0
  0
ENDTAB
  0
ENDSEC
  0
SECTION
  2
BLOCKS
  0
BLOCK
  5
71
330
70
100
AcDbEntity
  8
0
100
AcDbBlockBegin
  2
*Model_Space
 70
     0
 10
0.0
 20
0.0
 30
0.0
  3
*Model_Space
  1

  0
ENDBLK
  5
72
330
70
100
AcDbEntity
  8
0
100
AcDbBlockEnd
  0
BLOCK
  5
6D
330
6C
100
AcDbEntity
 67
     1
  8
0
100
AcDbBlockBegin
  2
*Paper_Space
 70
     0
 10
0.0
 20
0.0
 30
0.0
  3
*Paper_Space
  1

  0
ENDBLK
  5
6E
330
6C
100
AcDbEntity
 67
     1
  8
0
100
AcDbBlockEnd
  0
BLOCK
  5
75
330
74
100
AcDbEntity
 67
     1
  8
0
100
AcDbBlockBegin
  2
*Paper_Space0
 70
     0
 10
0.0
 20
0.0
 30
0.0
  3
*Paper_Space0
  1

  0
ENDBLK
  5
76
330
74
100
AcDbEntity
 67
     1
  8
0
100
AcDbBlockEnd
  0
BLOCK
  5
7E
330
7C
100
AcDbEntity
  8
0
100
AcDbBlockBegin
  2
Block_0
 70
     0
 10
0.0
 20
0.0
 30
0.0
  3
Block_0
  1

  0
SPLINE
  5
80
330
7C
100
AcDbEntity
  8
Layer 3
100
AcDbSpline
210
0.0
220
0.0
230
1.0
 70
     9
 71
     3
 72
    11
 73
     7
 74
     0
 42
0.0000000001
 43
0.0000000001
 40
0.0
 40
0.0
 40
0.0
 40
0.0
 40
1.0
 40
1.0
 40
1.0
 40
2.0
 40
2.0
 40
2.0
 40
2.0
 10
4.480649224051047
 20
-10.19566059286947
 30
0.0
 10
4.504479922183514
 20
-10.20027280363009
 30
0.0
 10
4.507877025721604
 20
-10.19693714324964
 30
0.0
 10
4.503776841274858
 20
-10.17387631871217
 30
0.0
 10
4.496145356542734
 20
-10.18106463320636
 30
0.0
 10
4.489128456230976
 20
-10.18767389943481
 30
0.0
 10
4.480649224051047
 20
-10.19566059286947
 30
0.0
  0
SPLINE
  5
81
330
7C
100
AcDbEntity
  8
Layer 3
100
AcDbSpline
210
0.0
220
0.0
230
1.0
 70
     9
 71
     3
 72
    17
 73
    13
 74
     0
 42
0.0000000001
 43
0.0000000001
 40
0.0
 40
0.0
 40
0.0
 40
0.0
 40
1.0
 40
1.0
 40
1.0
 40
2.0
 40
2.0
 40
2.0
 40
3.0
 40
3.0
 40
3.0
 40
4.0
 40
4.0
 40
4.0
 40
4.0
 10
4.47579406826781
 20
-10.45164058273796
 30
0.0
 10
4.476322830964186
 20
-10.45079291171204
 30
0.0
 10
4.476851593660563
 20
-10.44994524068612
 30
0.0
 10
4.477380356356989
 20
-10.44909749323837
 30
0.0
 10
4.469499583589645
 20
-10.44211773393979
 30
0.0
 10
4.461618810822301
 20
-10.43513789821938
 30
0.0
 10
4.451044244690996
 20
-10.42577217271992
 30
0.0
 10
4.451044244690996
 20
-10.4369797409345
 30
0.0
 10
4.451044244690996
 20
-10.4440282034653
 30
0.0
 10
4.451044244690996
 20
-10.45164058273796
 30
0.0
 10
4.459515299734271
 20
-10.45164058273796
 30
0.0
 10
4.467654684001015
 20
-10.45164058273796
 30
0.0
 10
4.47579406826781
 20
-10.45164058273796
 30
0.0
  0
SPLINE
  5
82
330
7C
100
AcDbEntity
  8
Layer 3
100
AcDbSpline
210
0.0
220
0.0
230
1.0
 70
     9
 71
     3
 72
    17
 73
    13
 74
     0
 42
0.0000000001
 43
0.0000000001
 40
0.0
 40
0.0
 40
0.0
 40
0.0
 40
1.0
 40
1.0
 40
1.0
 40
2.0
 40
2.0
 40
2.0
 40
3.0
 40
3.0
 40
3.0
 40
4.0
 40
4.0
 40
4.0
 40
4.0
 10
3.867374444740486
 20
-10.43512062688402
 30
0.0
 10
3.851974068811689
 20
-10.44842352904998
 30
0.0
 10
3.838536511367363
 20
-10.46003078347672
 30
0.0
 10
3.82243935933156
 20
-10.47393550761611
 30
0.0
 10
3.83997855323749
 20
-10.4703358862076
 30
0.0
 10
3.853640867307073
 20
-10.46768863374293
 30
0.0
 10
3.867190955907694
 20
-10.46455594976398
 30
0.0
 10
3.868918853662484
 20
-10.46415649281731
 30
0.0
 10
3.871396373225176
 20
-10.46109656242798
 30
0.0
 10
3.871244370189616
 20
-10.45948421449209
 30
0.0
 10
3.870563222348462
 20
-10.45225677201693
 30
0.0
 10
3.869056336548863
 20
-10.44510697412902
 30
0.0
 10
3.867374444740486
 20
-10.43512062688402
 30
0.0
  0
SPLINE
  5
83
330
7C
100
AcDbEntity
  8
Layer 3
100
AcDbSpline
210
0.0
220
0.0
230
1.0
 70
     9
 71
     3
 72
    14
 73
    10
 74
     0
 42
0.0000000001
 43
0.0000000001
 40
0.0
 40
0.0
 40
0.0
 40
0.0
 40
1.0
 40
1.0
 40
1.0
 40
2.0
 40
2.0
 40
2.0
 40
3.0
 40
3.0
 40
3.0
 40
3.0
 10
4.617687258904652
 20
-10.57270851686126
 30
0.0
 10
4.60451503808152
 20
-10.56104379321242
 30
0.0
 10
4.593200326450212
 20
-10.55102412604611
 30
0.0
 10
4.579418259360687
 20
-10.538819252847
 30
0.0
 10
4.580188285799295
 20
-10.55502221091736
 30
0.0
 10
4.580767257643174
 20
-10.56720201775364
 30
0.0
 10
4.581405532833311
 20
-10.58063330860722
 30
0.0
 10
4.593054513583537
 20
-10.57808891993639
 30
0.0
 10
4.603993229772362
 20
-10.57569951475279
 30
0.0
 10
4.617687258904652
 20
-10.57270851686126
 30
0.0
  0
SPLINE
  5
84
330
7C
100
AcDbEntity
  8
Layer 3
100
AcDbSpline
210
0.0
220
0.0
230
1.0
 70
     9
 71
     3
 72
    14
 73
    10
 74
     0
 42
0.0000000001
 43
0.0000000001
 40
0.0
 40
0.0
 40
0.0
 40
0.0
 40
1.0
 40
1.0
 40
1.0
 40
2.0
 40
2.0
 40
2.0
 40
3.0
 40
3.0
 40
3.0
 40
3.0
 10
3.312242851714876
 20
-9.254431158821311
 30
0.0
 10
3.302612945474518
 20
-9.249791488739093
 30
0.0
 10
3.29375755545579
 20
-9.241725101656609
 30
0.0
 10
3.285930927560608
 20
-9.242623277964639
 30
0.0
 10
3.273438904082013
 20
-9.244056846563504
 30
0.0
 10
3.267388778230472
 20
-9.255903993915756
 30
0.0
 10
3.264191637207608
 20
-9.269182154511705
 30
0.0
 10
3.282011566735086
 20
-9.272390572532028
 30
0.0
 10
3.297529259737782
 20
-9.271339910775571
 30
0.0
 10
3.312242851714876
 20
-9.254431158821311
 30
0.0
  0
SPLINE
  5
85
330
7C
100
AcDbEntity
  8
Layer 3
100
AcDbSpline
210
0.0
220
0.0
230
1.0
 70
     9
 71
     3
 72
    14
 73
    10
 74
     0
 42
0.0000000001
 43
0.0000000001
 40
0.0
 40
0.0
 40
0.0
 40
0.0
 40
1.0
 40
1.0
 40
1.0
 40
2.0
 40
2.0
 40
2.0
 40
3.0
 40
3.0
 40
3.0
 40
3.0
 10
3.325863277064551
 20
-9.412885157560847
 30
0.0
 10
3.317987615007622
 20
-9.425367938773407
 30
0.0
 10
3.310437022790917
 20
-9.437335464849486
 30
0.0
 10
3.302302806550894
 20
-9.450228039062317
 30
0.0
 10
3.31914342843667
 20
-9.452929359977259
 30
0.0
 10
3.33508886401877
 20
-9.455487103364298
 30
0.0
 10
3.352629032303159
 20
-9.458300630642749
 30
0.0
 10
3.343047806773584
 20
-9.442043451278397
 30
0.0
 10
3.334611686062973
 20
-9.427729239826147
 30
0.0
 10
3.325863277064551
 20
-9.412885157560847
 30
0.0
  0
SPLINE
  5
86
330
7C
100
AcDbEntity
  8
Layer 3
100
AcDbSpline
210
0.0
220
0.0
230
1.0
 70
     9
 71
     3
 72
    26
 73
    22
 74
     0
 42
0.0000000001
 43
0.0000000001
 40
0.0
 40
0.0
 40
0.0
 40
0.0
 40
1.0
 40
1.0
 40
1.0
 40
2.0
 40
2.0
 40
2.0
 40
3.0
 40
3.0
 40
3.0
 40
4.0
 40
4.0
 40
4.0
 40
5.0
 40
5.0
 40
5.0
 40
6.0
 40
6.0
 40
6.0
 40
7.0
 40
7.0
 40
7.0
 40
7.0
 10
4.897823580356871
 20
-10.65692064406691
 30
0.0
 10
4.89659471720357
 20
-10.65538777484244
 30
0.0
 10
4.895404982031196
 20
-10.65305538034992
 30
0.0
 10
4.894714587147644
 20
-10.65319477378221
 30
0.0
 10
4.892196334745348
 20
-10.65370328469157
 30
0.0
 10
4.889111796524275
 20
-10.6543855788603
 30
0.0
 10
4.887537965194673
 20
-10.65615566146961
 30
0.0
 10
4.853293492477884
 20
-10.69466875236382
 30
0.0
 10
4.819166403704078
 20
-10.73328715255065
 30
0.0
 10
4.785282030687463
 20
-10.77211678269741
 30
0.0
 10
4.783472514409797
 20
-10.77419041284686
 30
0.0
 10
4.783990348783365
 20
-10.77829502976015
 30
0.0
 10
4.783424674339307
 20
-10.78145415569505
 30
0.0
 10
4.786150335609641
 20
-10.78036636725447
 30
0.0
 10
4.789733449901151
 20
-10.7800397403193
 30
0.0
 10
4.791475103586763
 20
-10.77807829742791
 30
0.0
 10
4.825702152124525
 20
-10.73953020533195
 30
0.0
 10
4.859718276389659
 20
-10.70079487973309
 30
0.0
 10
4.893761148298103
 20
-10.66208339774774
 30
0.0
 10
4.895087220029254
 20
-10.66057559488606
 30
0.0
 10
4.896252500213474
 20
-10.6589264116243
 30
0.0
 10
4.897823580356871
 20
-10.65692064406691
 30
0.0
  0
SPLINE
  5
87
330
7C
100
AcDbEntity
  8
Layer 3
100
AcDbSpline
210
0.0
220
0.0
230
1.0
 70
     9
 71
     3
 72
    20
 73
    16
 74
     0
 42
0.0000000001
 43
0.0000000001
 40
0.0
 40
0.0
 40
0.0
 40
0.0
 40
1.0
 40
1.0
 40
1.0
 40
2.0
 40
2.0
 40
2.0
 40
3.0
 40
3.0
 40
3.0
 40
4.0
 40
4.0
 40
4.0
 40
5.0
 40
5.0
 40
5.0
 40
5.0
 10
3.654227748684206
 20
-9.778442485061431
 30
0.0
 10
3.660162668615081
 20
-9.778442485061431
 30
0.0
 10
3.665939471763345
 20
-9.778818939034913
 30
0.0
 10
3.67164092297945
 20
-9.778325139329378
 30
0.0
 10
3.676330740116453
 20
-9.777918957260958
 30
0.0
 10
3.684478912894569
 20
-9.777313849148514
 30
0.0
 10
3.684940233319037
 20
-9.775350763187589
 30
0.0
 10
3.686681046364431
 20
-9.767942544854854
 30
0.0
 10
3.689219512342838
 20
-9.757123275998639
 30
0.0
 10
3.68545118972717
 20
-9.752703113316682
 30
0.0
 10
3.674747699955382
 20
-9.740148151678187
 30
0.0
 10
3.661085194831204
 20
-9.730115836697677
 30
0.0
 10
3.646831184681736
 20
-9.717540814326765
 30
0.0
 10
3.64951171885683
 20
-9.739611823219849
 30
0.0
 10
3.651792299343242
 20
-9.758389585852581
 30
0.0
 10
3.654227748684206
 20
-9.778442485061431
 30
0.0
  0
SPLINE
  5
88
330
7C
100
AcDbEntity
  8
Layer 3
100
AcDbSpline
210
0.0
220
0.0
230
1.0
 70
     9
 71
     3
 72
    20
 73
    16
 74
     0
 42
0.0000000001
 43
0.0000000001
 40
0.0
 40
0.0
 40
0.0
 40
0.0
 40
1.0
 40
1.0
 40
1.0
 40
2.0
 40
2.0
 40
2.0
 40
3.0
 40
3.0
 40
3.0
 40
4.0
 40
4.0
 40
4.0
 40
5.0
 40
5.0
 40
5.0
 40
5.0
 10
4.447569343721952
 20
-10.22108269935423
 30
0.0
 10
4.447018189427049
 20
-10.22250980075505
 30
0.0
 10
4.446467035132147
 20
-10.22393690215588
 30
0.0
 10
4.445915804415386
 20
-10.22536392713489
 30
0.0
 10
4.463745324883524
 20
-10.24113877006938
 30
0.0
 10
4.481574845351612
 20
-10.25691361300386
 30
0.0
 10
4.499566456537928
 20
-10.27283189972806
 30
0.0
 10
4.500498038741852
 20
-10.25724688863892
 30
0.0
 10
4.501649868682584
 20
-10.24376301956082
 30
0.0
 10
4.501845814274954
 20
-10.2302653181301
 30
0.0
 10
4.501889833253572
 20
-10.22722930777606
 30
0.0
 10
4.498705793799545
 20
-10.22156744307199
 30
0.0
 10
4.496820925589745
 20
-10.22148689445483
 30
0.0
 10
4.480427906408522
 20
-10.22078648831055
 30
0.0
 10
4.46399232026359
 20
-10.22108269935423
 30
0.0
 10
4.447569343721952
 20
-10.22108269935423
 30
0.0
  0
SPLINE
  5
89
330
7C
100
AcDbEntity
  8
Layer 3
100
AcDbSpline
210
0.0
220
0.0
230
1.0
 70
     9
 71
     3
 72
    14
 73
    10
 74
     0
 42
0.0000000001
 43
0.0000000001
 40
0.0
 40
0.0
 40
0.0
 40
0.0
 40
1.0
 40
1.0
 40
1.0
 40
2.0
 40
2.0
 40
2.0
 40
3.0
 40
3.0
 40
3.0
 40
3.0
 10
4.621372472771605
 20
-10.64057737550219
 30
0.0
 10
4.631565617509977
 20
-10.62863432351974
 30
0.0
 10
4.640784689502525
 20
-10.61783255526438
 30
0.0
 10
4.650160579106416
 20
-10.60684706891076
 30
0.0
 10
4.62895947999406
 20
-10.59304925892262
 30
0.0
 10
4.603226107363576
 20
-10.59369884454471
 30
0.0
 10
4.584686322334087
 20
-10.60832246891313
 30
0.0
 10
4.596614701323662
 20
-10.61880999057108
 30
0.0
 10
4.608324361013197
 20
-10.62910538772851
 30
0.0
 10
4.621372472771605
 20
-10.64057737550219
 30
0.0
  0
SPLINE
  5
8A
330
7C
100
AcDbEntity
  8
Layer 3
100
AcDbSpline
210
0.0
220
0.0
230
1.0
 70
     9
 71
     3
 72
    23
 73
    19
 74
     0
 42
0.0000000001
 43
0.0000000001
 40
0.0
 40
0.0
 40
0.0
 40
0.0
 40
1.0
 40
1.0
 40
1.0
 40
2.0
 40
2.0
 40
2.0
 40
3.0
 40
3.0
 40
3.0
 40
4.0
 40
4.0
 40
4.0
 40
5.0
 40
5.0
 40
5.0
 40
6.0
 40
6.0
 40
6.0
 40
6.0
 10
3.294641880305713
 20
-9.293188116576629
 30
0.0
 10
3.305116696833086
 20
-9.306757310636738
 30
0.0
 10
3.315575101770769
 20
-9.32030524032042
 30
0.0
 10
3.325957056212372
 20
-9.333754155960377
 30
0.0
 10
3.333782671518191
 20
-9.321417369116362
 30
0.0
 10
3.341900762750406
 20
-9.309086839310339
 30
0.0
 10
3.349341899789806
 20
-9.296360511253093
 30
0.0
 10
3.350398871124272
 20
-9.294552809994103
 30
0.0
 10
3.349014078763426
 20
-9.290060371358928
 30
0.0
 10
3.347284518833677
 20
-9.28813641337903
 30
0.0
 10
3.343426954616814
 20
-9.283845288970344
 30
0.0
 10
3.339023709819204
 20
-9.279723458038056
 30
0.0
 10
3.334074173066129
 20
-9.27686228174366
 30
0.0
 10
3.33134417485649
 20
-9.275284161238408
 30
0.0
 10
3.326414001486606
 20
-9.275111209066531
 30
0.0
 10
3.323593185475349
 20
-9.276528643104862
 30
0.0
 10
3.314061309347582
 20
-9.281318324478535
 30
0.0
 10
3.30502906964322
 20
-9.287102301726841
 30
0.0
 10
3.294641880305713
 20
-9.293188116576629
 30
0.0
  0
SPLINE
  5
8B
330
7C
100
AcDbEntity
  8
Layer 3
100
AcDbSpline
210
0.0
220
0.0
230
1.0
 70
     9
 71
     3
 72
    23
 73
    19
 74
     0
 42
0.0000000001
 43
0.0000000001
 40
0.0
 40
0.0
 40
0.0
 40
0.0
 40
1.0
 40
1.0
 40
1.0
 40
2.0
 40
2.0
 40
2.0
 40
3.0
 40
3.0
 40
3.0
 40
4.0
 40
4.0
 40
4.0
 40
5.0
 40
5.0
 40
5.0
 40
6.0
 40
6.0
 40
6.0
 40
6.0
 10
4.826597204689909
 20
-10.77508577109963
 30
0.0
 10
4.827203994082815
 20
-10.77583195392483
 30
0.0
 10
4.827810630632003
 20
-10.77657828959369
 30
0.0
 10
4.828417267181192
 20
-10.77732447241891
 30
0.0
 10
4.845821576543256
 20
-10.77246587765295
 30
0.0
 10
4.863243310084397
 20
-10.76766704476421
 30
0.0
 10
4.880604058998843
 20
-10.76265713475919
 30
0.0
 10
4.882371237578328
 20
-10.76214709541308
 30
0.0
 10
4.884933203271859
 20
-10.76055889677796
 30
0.0
 10
4.88516659556482
 20
-10.75914723258837
 30
0.0
 10
4.888217355333558
 20
-10.74069365139204
 30
0.0
 10
4.890914587680198
 20
-10.7221818367552
 30
0.0
 10
4.893700622202459
 20
-10.70368454226756
 30
0.0
 10
4.892613139449243
 20
-10.70329983473562
 30
0.0
 10
4.891525809539694
 20
-10.70291528004734
 30
0.0
 10
4.890438479630144
 20
-10.70253057251534
 30
0.0
 10
4.869158054650066
 20
-10.72671563871012
 30
0.0
 10
4.847877629669988
 20
-10.75090070490485
 30
0.0
 10
4.826597204689909
 20
-10.77508577109963
 30
0.0
  0
SPLINE
  5
8C
330
7C
100
AcDbEntity
  8
Layer 3
100
AcDbSpline
210
0.0
220
0.0
230
1.0
 70
     9
 71
     3
 72
    20
 73
    16
 74
     0
 42
0.0000000001
 43
0.0000000001
 40
0.0
 40
0.0
 40
0.0
 40
0.0
 40
1.0
 40
1.0
 40
1.0
 40
2.0
 40
2.0
 40
2.0
 40
3.0
 40
3.0
 40
3.0
 40
4.0
 40
4.0
 40
4.0
 40
5.0
 40
5.0
 40
5.0
 40
5.0
 10
4.600825544591644
 20
-10.25398856715843
 30
0.0
 10
4.601652276033973
 20
-10.25197676227587
 30
0.0
 10
4.601995868617172
 20
-10.25156683553741
 30
0.0
 10
4.601932438491707
 20
-10.25123470622993
 30
0.0
 10
4.59396393345446
 20
-10.20952588334047
 30
0.0
 10
4.586018966343266
 20
-10.16781224587523
 30
0.0
 10
4.577791391275568
 20
-10.12615439635166
 30
0.0
 10
4.577429915982343
 20
-10.12432348195938
 30
0.0
 10
4.574473460761534
 20
-10.12300497599019
 30
0.0
 10
4.570045732317617
 20
-10.11906030998362
 30
0.0
 10
4.573887916639629
 20
-10.16663015288671
 30
0.0
 10
4.577424872141035
 20
-10.21042170012427
 30
0.0
 10
4.581054145222651
 20
-10.2553557538384
 30
0.0
 10
4.58848953151874
 20
-10.25484158771302
 30
0.0
 10
4.59457347403352
 20
-10.25442088549544
 30
0.0
 10
4.600825544591644
 20
-10.25398856715843
 30
0.0
  0
SPLINE
  5
8D
330
7C
100
AcDbEntity
  8
Layer 3
100
AcDbSpline
210
0.0
220
0.0
230
1.0
 70
     9
 71
     3
 72
    26
 73
    22
 74
     0
 42
0.0000000001
 43
0.0000000001
 40
0.0
 40
0.0
 40
0.0
 40
0.0
 40
1.0
 40
1.0
 40
1.0
 40
2.0
 40
2.0
 40
2.0
 40
3.0
 40
3.0
 40
3.0
 40
4.0
 40
4.0
 40
4.0
 40
5.0
 40
5.0
 40
5.0
 40
6.0
 40
6.0
 40
6.0
 40
7.0
 40
7.0
 40
7.0
 40
7.0
 10
3.461020828411265
 20
-9.553691056499069
 30
0.0
 10
3.460121992964862
 20
-9.554053143167012
 30
0.0
 10
3.459223138413006
 20
-9.554415191624052
 30
0.0
 10
3.458324283861176
 20
-9.55477727829197
 30
0.0
 10
3.460930230322446
 20
-9.568050261308371
 30
0.0
 10
3.463770887353348
 20
-9.581282358641525
 30
0.0
 10
3.466090672242646
 20
-9.594605168696235
 30
0.0
 10
3.470242575168135
 20
-9.618449890235952
 30
0.0
 10
3.470105684551021
 20
-9.618302931041675
 30
0.0
 10
3.494259876323262
 20
-9.617490910803123
 30
0.0
 10
3.502958802181638
 20
-9.617198482640434
 30
0.0
 10
3.511696798704658
 20
-9.617846769091277
 30
0.0
 10
3.520408257744444
 20
-9.618252645472313
 30
0.0
 10
3.524070965380133
 20
-9.618423295436361
 30
0.0
 10
3.527711128573628
 20
-9.619078498063545
 30
0.0
 10
3.531361532293431
 20
-9.61951337653209
 30
0.0
 10
3.531686267788093
 20
-9.61852138286531
 30
0.0
 10
3.532011003282781
 20
-9.617529427409433
 30
0.0
 10
3.532335738777419
 20
-9.616537433742626
 30
0.0
 10
3.508564114725686
 20
-9.595588641328099
 30
0.0
 10
3.484792471568475
 20
-9.574639848913596
 30
0.0
 10
3.461020828411265
 20
-9.553691056499069
 30
0.0
  0
SPLINE
  5
8E
330
7C
100
AcDbEntity
  8
Layer 3
100
AcDbSpline
210
0.0
220
0.0
230
1.0
 70
     9
 71
     3
 72
    20
 73
    16
 74
     0
 42
0.0000000001
 43
0.0000000001
 40
0.0
 40
0.0
 40
0.0
 40
0.0
 40
1.0
 40
1.0
 40
1.0
 40
2.0
 40
2.0
 40
2.0
 40
3.0
 40
3.0
 40
3.0
 40
4.0
 40
4.0
 40
4.0
 40
5.0
 40
5.0
 40
5.0
 40
5.0
 10
4.898366786780646
 20
-10.84118775684843
 30
0.0
 10
4.899420032550475
 20
-10.84151346672153
 30
0.0
 10
4.900473431164022
 20
-10.84183902375096
 30
0.0
 10
4.901526829777568
 20
-10.84216473362408
 30
0.0
 10
4.924617840941032
 20
-10.81591612496249
 30
0.0
 10
4.947709004948162
 20
-10.7896675163009
 30
0.0
 10
4.970800016111625
 20
-10.76341890763933
 30
0.0
 10
4.950621135502968
 20
-10.76653829421851
 30
0.0
 10
4.931913375273804
 20
-10.77184961195217
 30
0.0
 10
4.913321164863469
 20
-10.777538453565
 30
0.0
 10
4.910829812948147
 20
-10.77830068497617
 30
0.0
 10
4.907336570737975
 20
-10.78070827855718
 30
0.0
 10
4.906990991187007
 20
-10.78279780444892
 30
0.0
 10
4.903780815464389
 20
-10.8022055887132
 30
0.0
 10
4.901159240737317
 20
-10.82171088724266
 30
0.0
 10
4.898366786780646
 20
-10.84118775684843
 30
0.0
  0
SPLINE
  5
8F
330
7C
100
AcDbEntity
  8
Layer 3
100
AcDbSpline
210
0.0
220
0.0
230
1.0
 70
     9
 71
     3
 72
    23
 73
    19
 74
     0
 42
0.0000000001
 43
0.0000000001
 40
0.0
 40
0.0
 40
0.0
 40
0.0
 40
1.0
 40
1.0
 40
1.0
 40
2.0
 40
2.0
 40
2.0
 40
3.0
 40
3.0
 40
3.0
 40
4.0
 40
4.0
 40
4.0
 40
5.0
 40
5.0
 40
5.0
 40
6.0
 40
6.0
 40
6.0
 40
6.0
 10
4.853968755837513
 20
-10.65734035280065
 30
0.0
 10
4.853451838525996
 20
-10.65663299226907
 30
0.0
 10
4.85293492121448
 20
-10.65592563173754
 30
0.0
 10
4.852417851059296
 20
-10.65521827120599
 30
0.0
 10
4.838524666617431
 20
-10.65859688065931
 30
0.0
 10
4.824793496471935
 20
-10.66328520757042
 30
0.0
 10
4.810698099847008
 20
-10.66503022381693
 30
0.0
 10
4.792057437991514
 20
-10.6673384690087
 30
0.0
 10
4.783263424261323
 20
-10.67513487206702
 30
0.0
 10
4.783907813198437
 20
-10.69504551202463
 30
0.0
 10
4.784373375034874
 20
-10.70943192300824
 30
0.0
 10
4.780742267829155
 20
-10.72395084945878
 30
0.0
 10
4.77893810108018
 20
-10.73841077825045
 30
0.0
 10
4.779824441556052
 20
-10.73874535305675
 30
0.0
 10
4.780710782031974
 20
-10.73907992786308
 30
0.0
 10
4.781597122507845
 20
-10.73941450266938
 30
0.0
 10
4.80572105123234
 20
-10.71205640176521
 30
0.0
 10
4.829844979956734
 20
-10.68469845370477
 30
0.0
 10
4.853968755837513
 20
-10.65734035280065
 30
0.0
  0
SPLINE
  5
90
330
7C
100
AcDbEntity
  8
Layer 3
100
AcDbSpline
210
0.0
220
0.0
230
1.0
 70
     9
 71
     3
 72
    20
 73
    16
 74
     0
 42
0.0000000001
 43
0.0000000001
 40
0.0
 40
0.0
 40
0.0
 40
0.0
 40
1.0
 40
1.0
 40
1.0
 40
2.0
 40
2.0
 40
2.0
 40
3.0
 40
3.0
 40
3.0
 40
4.0
 40
4.0
 40
4.0
 40
5.0
 40
5.0
 40
5.0
 40
5.0
 10
4.773127290214056
 20
-10.58677181631424
 30
0.0
 10
4.772130290916897
 20
-10.58642165145306
 30
0.0
 10
4.771133291619687
 20
-10.58607148659184
 30
0.0
 10
4.770136292322527
 20
-10.58572132173059
 30
0.0
 10
4.746271739315917
 20
-10.61290655643741
 30
0.0
 10
4.72240703346559
 20
-10.64009163830054
 30
0.0
 10
4.69854248045898
 20
-10.66727687300737
 30
0.0
 10
4.720143265783487
 20
-10.66441258252307
 30
0.0
 10
4.740108623777081
 20
-10.6591870100915
 30
0.0
 10
4.759877577647253
 20
-10.65330222288632
 30
0.0
 10
4.762658874015591
 20
-10.65247411585088
 30
0.0
 10
4.766108555778146
 20
-10.648638962338
 30
0.0
 10
4.766484245533243
 20
-10.6458263330161
 30
0.0
 10
4.769106431635084
 20
-10.62619600835986
 30
0.0
 10
4.771000164778064
 20
-10.60646832228215
 30
0.0
 10
4.773127290214056
 20
-10.58677181631424
 30
0.0
  0
SPLINE
  5
91
330
7C
100
AcDbEntity
  8
Layer 3
100
AcDbSpline
210
0.0
220
0.0
230
1.0
 70
     9
 71
     3
 72
    14
 73
    10
 74
     0
 42
0.0000000001
 43
0.0000000001
 40
0.0
 40
0.0
 40
0.0
 40
0.0
 40
1.0
 40
1.0
 40
1.0
 40
2.0
 40
2.0
 40
2.0
 40
3.0
 40
3.0
 40
3.0
 40
3.0
 10
4.81149701374036
 20
-10.80749810667476
 30
0.0
 10
4.832147569932531
 20
-10.8256927706843
 30
0.0
 10
4.850947647741905
 20
-10.8422572040479
 30
0.0
 10
4.872052455338462
 20
-10.86085231848806
 30
0.0
 10
4.875641989064383
 20
-10.83437658412425
 30
0.0
 10
4.878722706193583
 20
-10.8116530091574
 30
0.0
 10
4.882176056204343
 20
-10.78618130489985
 30
0.0
 10
4.857977234078766
 20
-10.79347974326242
 30
0.0
 10
4.836381645439232
 20
-10.79999287081881
 30
0.0
 10
4.81149701374036
 20
-10.80749810667476
 30
0.0
  0
SPLINE
  5
92
330
7C
100
AcDbEntity
  8
Layer 3
100
AcDbSpline
210
0.0
220
0.0
230
1.0
 70
     9
 71
     3
 72
    23
 73
    19
 74
     0
 42
0.0000000001
 43
0.0000000001
 40
0.0
 40
0.0
 40
0.0
 40
0.0
 40
1.0
 40
1.0
 40
1.0
 40
2.0
 40
2.0
 40
2.0
 40
3.0
 40
3.0
 40
3.0
 40
4.0
 40
4.0
 40
4.0
 40
5.0
 40
5.0
 40
5.0
 40
6.0
 40
6.0
 40
6.0
 40
6.0
 10
4.55571189955847
 20
-10.2561919615886
 30
0.0
 10
4.55235331262669
 20
-10.21451752852623
 30
0.0
 10
4.548997476881064
 20
-10.17287519263575
 30
0.0
 10
4.545641488291772
 20
-10.13123285674527
 30
0.0
 10
4.543573971889372
 20
-10.1309248003167
 30
0.0
 10
4.541506302643306
 20
-10.13061674388814
 30
0.0
 10
4.539438786240958
 20
-10.13030868745959
 30
0.0
 10
4.536514428192049
 20
-10.13922092577304
 30
0.0
 10
4.531937830007917
 20
-10.14796083284197
 30
0.0
 10
4.530986683813479
 20
-10.15707887516482
 30
0.0
 10
4.528488606776414
 20
-10.18102825641151
 30
0.0
 10
4.527781093401168
 20
-10.20515837530484
 30
0.0
 10
4.52596622759486
 20
-10.22918670031004
 30
0.0
 10
4.5238701294251
 20
-10.25693875578854
 30
0.0
 10
4.5236870227015
 20
-10.25692675755997
 30
0.0
 10
4.552149572006858
 20
-10.25762869214104
 30
0.0
 10
4.552527707260777
 20
-10.25763801560525
 30
0.0
 10
4.552913331854824
 20
-10.25733676072029
 30
0.0
 10
4.55571189955847
 20
-10.2561919615886
 30
0.0
  0
SPLINE
  5
93
330
7C
100
AcDbEntity
  8
Layer 3
100
AcDbSpline
210
0.0
220
0.0
230
1.0
 70
     9
 71
     3
 72
    14
 73
    10
 74
     0
 42
0.0000000001
 43
0.0000000001
 40
0.0
 40
0.0
 40
0.0
 40
0.0
 40
1.0
 40
1.0
 40
1.0
 40
2.0
 40
2.0
 40
2.0
 40
3.0
 40
3.0
 40
3.0
 40
3.0
 10
4.92128646018351
 20
-10.67520900124974
 30
0.0
 10
4.917333769883978
 20
-10.70286774566413
 30
0.0
 10
4.91384526582778
 20
-10.72727886765541
 30
0.0
 10
4.910051532951026
 20
-10.75382567432848
 30
0.0
 10
4.936009432941242
 20
-10.74632487093913
 30
0.0
 10
4.959520611369422
 20
-10.73953096955031
 30
0.0
 10
4.985850380022863
 20
-10.7319227170569
 30
0.0
 10
4.963606581354294
 20
-10.71238333438774
 30
0.0
 10
4.943794067036504
 20
-10.69497994208771
 30
0.0
 10
4.92128646018351
 20
-10.67520900124974
 30
0.0
  0
SPLINE
  5
94
330
7C
100
AcDbEntity
  8
Layer 3
100
AcDbSpline
210
0.0
220
0.0
230
1.0
 70
     9
 71
     3
 72
    14
 73
    10
 74
     0
 42
0.0000000001
 43
0.0000000001
 40
0.0
 40
0.0
 40
0.0
 40
0.0
 40
1.0
 40
1.0
 40
1.0
 40
2.0
 40
2.0
 40
2.0
 40
3.0
 40
3.0
 40
3.0
 40
3.0
 10
4.762768921462162
 20
-10.67807145760993
 30
0.0
 10
4.736424479815847
 20
-10.68456517401948
 30
0.0
 10
4.712752662684402
 20
-10.69040028703006
 30
0.0
 10
4.685912701841187
 20
-10.69701612553659
 30
0.0
 10
4.709198283003918
 20
-10.71757925514619
 30
0.0
 10
4.729813532306985
 20
-10.735784159682
 30
0.0
 10
4.752864498427369
 20
-10.75614018611092
 30
0.0
 10
4.756257475186203
 20
-10.72939651678348
 30
0.0
 10
4.759297688741323
 20
-10.70543276823125
 30
0.0
 10
4.762768921462162
 20
-10.67807145760993
 30
0.0
  0
SPLINE
  5
95
330
7C
100
AcDbEntity
  8
Layer 3
100
AcDbSpline
210
0.0
220
0.0
230
1.0
 70
     9
 71
     3
 72
    14
 73
    10
 74
     0
 42
0.0000000001
 43
0.0000000001
 40
0.0
 40
0.0
 40
0.0
 40
0.0
 40
1.0
 40
1.0
 40
1.0
 40
2.0
 40
2.0
 40
2.0
 40
3.0
 40
3.0
 40
3.0
 40
3.0
 10
4.799263711617615
 20
-10.56728226068344
 30
0.0
 10
4.795979101024916
 20
-10.59553006462432
 30
0.0
 10
4.793139418372422
 20
-10.61995219136022
 30
0.0
 10
4.790011778234732
 20
-10.64685023280023
 30
0.0
 10
4.816373949747407
 20
-10.63979420450745
 30
0.0
 10
4.839978057130514
 20
-10.6334764111687
 30
0.0
 10
4.86602384223435
 20
-10.62650505827229
 30
0.0
 10
4.843162249428208
 20
-10.60622468946293
 30
0.0
 10
4.822552961028551
 20
-10.58794214033979
 30
0.0
 10
4.799263711617615
 20
-10.56728226068344
 30
0.0
  0
SPLINE
  5
96
330
7C
100
AcDbEntity
  8
Layer 3
100
AcDbSpline
210
0.0
220
0.0
230
1.0
 70
     9
 71
     3
 72
    23
 73
    19
 74
     0
 42
0.0000000001
 43
0.0000000001
 40
0.0
 40
0.0
 40
0.0
 40
0.0
 40
1.0
 40
1.0
 40
1.0
 40
2.0
 40
2.0
 40
2.0
 40
3.0
 40
3.0
 40
3.0
 40
4.0
 40
4.0
 40
4.0
 40
5.0
 40
5.0
 40
5.0
 40
6.0
 40
6.0
 40
6.0
 40
6.0
 10
3.790402025715012
 20
-10.50599744906445
 30
0.0
 10
3.789508234109891
 20
-10.50530751271195
 30
0.0
 10
3.788614442504795
 20
-10.50461757635942
 30
0.0
 10
3.787720612688771
 20
-10.5039276400069
 30
0.0
 10
3.760464573149167
 20
-10.5279523731858
 30
0.0
 10
3.733208495398634
 20
-10.55197725920831
 30
0.0
 10
3.70595245585903
 20
-10.57600199238716
 30
0.0
 10
3.70640407071005
 20
-10.57708275001866
 30
0.0
 10
3.706855647350165
 20
-10.57816335480652
 30
0.0
 10
3.70730726220121
 20
-10.57924411243799
 30
0.0
 10
3.728507406040559
 20
-10.57729015888672
 30
0.0
 10
3.746413883299434
 20
-10.5854477315509
 30
0.0
 10
3.763820905636723
 20
-10.59570980878705
 30
0.0
 10
3.770441444086271
 20
-10.59961297773566
 30
0.0
 10
3.77699561016963
 20
-10.59893175347267
 30
0.0
 10
3.775673703428638
 20
-10.58900104132567
 30
0.0
 10
3.771781195326411
 20
-10.55975944780476
 30
0.0
 10
3.775041274509147
 20
-10.53191209429443
 30
0.0
 10
3.790402025715012
 20
-10.50599744906445
 30
0.0
  0
SPLINE
  5
97
330
7C
100
AcDbEntity
  8
Layer 3
100
AcDbSpline
210
0.0
220
0.0
230
1.0
 70
     9
 71
     3
 72
    17
 73
    13
 74
     0
 42
0.0000000001
 43
0.0000000001
 40
0.0
 40
0.0
 40
0.0
 40
0.0
 40
1.0
 40
1.0
 40
1.0
 40
2.0
 40
2.0
 40
2.0
 40
3.0
 40
3.0
 40
3.0
 40
4.0
 40
4.0
 40
4.0
 40
4.0
 10
4.594214444239065
 20
-10.0993399604023
 30
0.0
 10
4.612791064594426
 20
-10.09950564294687
 30
0.0
 10
4.62671435924042
 20
-10.08596675014549
 30
0.0
 10
4.627054283575362
 20
-10.06740694259446
 30
0.0
 10
4.627378312168048
 20
-10.04971903179199
 30
0.0
 10
4.612539331060436
 20
-10.0345236192324
 30
0.0
 10
4.594867086734691
 20
-10.03444612748876
 30
0.0
 10
4.57749028923427
 20
-10.03436993491641
 30
0.0
 10
4.56302088413473
 20
-10.04858477887397
 30
0.0
 10
4.562744237081536
 20
-10.06600399049441
 30
0.0
 10
4.562447108975775
 20
-10.08469478507557
 30
0.0
 10
4.576120504211884
 20
-10.09917855748065
 30
0.0
 10
4.594214444239065
 20
-10.0993399604023
 30
0.0
  0
SPLINE
  5
98
330
7C
100
AcDbEntity
  8
Layer 3
100
AcDbSpline
210
0.0
220
0.0
230
1.0
 70
     9
 71
     3
 72
    35
 73
    31
 74
     0
 42
0.0000000001
 43
0.0000000001
 40
0.0
 40
0.0
 40
0.0
 40
0.0
 40
1.0
 40
1.0
 40
1.0
 40
2.0
 40
2.0
 40
2.0
 40
3.0
 40
3.0
 40
3.0
 40
4.0
 40
4.0
 40
4.0
 40
5.0
 40
5.0
 40
5.0
 40
6.0
 40
6.0
 40
6.0
 40
7.0
 40
7.0
 40
7.0
 40
8.0
 40
8.0
 40
8.0
 40
9.0
 40
9.0
 40
9.0
 40
10.0
 40
10.0
 40
10.0
 40
10.0
 10
3.373564918979809
 20
-10.22242214490699
 30
0.0
 10
3.372406125099081
 20
-10.22415799053293
 30
0.0
 10
3.371982862749923
 20
-10.22449623358744
 30
0.0
 10
3.371980837571224
 20
-10.22483684571895
 30
0.0
 10
3.371664661322382
 20
-10.27814795561567
 30
0.0
 10
3.37125688394811
 20
-10.3314596768871
 30
0.0
 10
3.371471361836155
 20
-10.38476895265974
 30
0.0
 10
3.371481497282401
 20
-10.38729064404472
 30
0.0
 10
3.376839652049966
 20
-10.39163079306245
 30
0.0
 10
3.380028563396156
 20
-10.39195413385856
 30
0.0
 10
3.389515761406957
 20
-10.39291590268847
 30
0.0
 10
3.399208056525215
 20
-10.3928304630737
 30
0.0
 10
3.408727351707915
 20
-10.39203835072395
 30
0.0
 10
3.412755928892541
 20
-10.39170324096476
 30
0.0
 10
3.419876132423698
 20
-10.3885623034273
 30
0.0
 10
3.419865414260938
 20
-10.38673016628564
 30
0.0
 10
3.419824337523045
 20
-10.37971441230143
 30
0.0
 10
3.424946090887816
 20
-10.3706815803278
 30
0.0
 10
3.414022296062815
 20
-10.36625645022637
 30
0.0
 10
3.377016759659277
 20
-10.35126584819234
 30
0.0
 10
3.370869692706416
 20
-10.3122871954617
 30
0.0
 10
3.382058059934226
 20
-10.28104396116267
 30
0.0
 10
3.386015010751255
 20
-10.2699942804652
 30
0.0
 10
3.396672341732937
 20
-10.25968329325284
 30
0.0
 10
3.40685260939161
 20
-10.25292332316002
 30
0.0
 10
3.421122286017862
 20
-10.24344785590137
 30
0.0
 10
3.423870549046771
 20
-10.24066564247098
 30
0.0
 10
3.418057158943585
 20
-10.22242214490699
 30
0.0
 10
3.403284588413094
 20
-10.22242214490699
 30
0.0
 10
3.388374917105415
 20
-10.22242214490699
 30
0.0
 10
3.373564918979809
 20
-10.22242214490699
 30
0.0
  0
SPLINE
  5
99
330
7C
100
AcDbEntity
  8
Layer 3
100
AcDbSpline
210
0.0
220
0.0
230
1.0
 70
     9
 71
     3
 72
    23
 73
    19
 74
     0
 42
0.0000000001
 43
0.0000000001
 40
0.0
 40
0.0
 40
0.0
 40
0.0
 40
1.0
 40
1.0
 40
1.0
 40
2.0
 40
2.0
 40
2.0
 40
3.0
 40
3.0
 40
3.0
 40
4.0
 40
4.0
 40
4.0
 40
5.0
 40
5.0
 40
5.0
 40
6.0
 40
6.0
 40
6.0
 40
6.0
 10
4.731317972607762
 20
-9.68152534193862
 30
0.0
 10
4.728202254276791
 20
-9.684032131065249
 30
0.0
 10
4.72500262476784
 20
-9.686442170145078
 30
0.0
 10
4.721984115014669
 20
-9.689060993686021
 30
0.0
 10
4.698099233799161
 20
-9.709783004296619
 30
0.0
 10
4.674330513777249
 20
-9.730639975872918
 30
0.0
 10
4.650358664510222
 20
-9.751260689337337
 30
0.0
 10
4.634546680562556
 20
-9.764862324467609
 30
0.0
 10
4.632415275503641
 20
-9.775719460344513
 30
0.0
 10
4.642490730611648
 20
-9.795640149773866
 30
0.0
 10
4.656906793268388
 20
-9.795640149773866
 30
0.0
 10
4.671472184196343
 20
-9.795840718887397
 30
0.0
 10
4.68602855734745
 20
-9.795566746598574
 30
0.0
 10
4.695133913645173
 20
-9.795395447048905
 30
0.0
 10
4.70608928979469
 20
-9.785719410676669
 30
0.0
 10
4.706535746171716
 20
-9.777018096635856
 30
0.0
 10
4.708239953156735
 20
-9.743801574060574
 30
0.0
 10
4.714132535389404
 20
-9.711839668798019
 30
0.0
 10
4.731317972607762
 20
-9.68152534193862
 30
0.0
  0
SPLINE
  5
9A
330
7C
100
AcDbEntity
  8
Layer 3
100
AcDbSpline
210
0.0
220
0.0
230
1.0
 70
     9
 71
     3
 72
    23
 73
    19
 74
     0
 42
0.0000000001
 43
0.0000000001
 40
0.0
 40
0.0
 40
0.0
 40
0.0
 40
1.0
 40
1.0
 40
1.0
 40
2.0
 40
2.0
 40
2.0
 40
3.0
 40
3.0
 40
3.0
 40
4.0
 40
4.0
 40
4.0
 40
5.0
 40
5.0
 40
5.0
 40
6.0
 40
6.0
 40
6.0
 40
6.0
 10
4.60392674277341
 20
-10.12550817329045
 30
0.0
 10
4.611985578423046
 20
-10.16566884258779
 30
0.0
 10
4.619879495746494
 20
-10.20500690722211
 30
0.0
 10
4.628414897977235
 20
-10.24754200302284
 30
0.0
 10
4.643279098291385
 20
-10.23961713485505
 30
0.0
 10
4.655941738299461
 20
-10.23292808422785
 30
0.0
 10
4.668543240837177
 20
-10.22612516506216
 30
0.0
 10
4.6766792625431
 20
-10.22173281992918
 30
0.0
 10
4.678094442137257
 20
-10.21546905682986
 30
0.0
 10
4.673804120157834
 20
-10.20737300374516
 30
0.0
 10
4.663295964603725
 20
-10.18754253029546
 30
0.0
 10
4.653095483368891
 20
-10.16754843769083
 30
0.0
 10
4.642507390572341
 20
-10.14776129542322
 30
0.0
 10
4.636943575086282
 20
-10.13736349300297
 30
0.0
 10
4.630825854119166
 20
-10.12726228373561
 30
0.0
 10
4.625135331225843
 20
-10.11733623332073
 30
0.0
 10
4.617226435222138
 20
-10.12038363052857
 30
0.0
 10
4.611064236745404
 20
-10.12275798061013
 30
0.0
 10
4.60392674277341
 20
-10.12550817329045
 30
0.0
  0
SPLINE
  5
9B
330
7C
100
AcDbEntity
  8
Layer 3
100
AcDbSpline
210
0.0
220
0.0
230
1.0
 70
     9
 71
     3
 72
    23
 73
    19
 74
     0
 42
0.0000000001
 43
0.0000000001
 40
0.0
 40
0.0
 40
0.0
 40
0.0
 40
1.0
 40
1.0
 40
1.0
 40
2.0
 40
2.0
 40
2.0
 40
3.0
 40
3.0
 40
3.0
 40
4.0
 40
4.0
 40
4.0
 40
5.0
 40
5.0
 40
5.0
 40
6.0
 40
6.0
 40
6.0
 40
6.0
 10
3.61778660665896
 20
-10.3092718190039
 30
0.0
 10
3.63286872384386
 20
-10.32340940048331
 30
0.0
 10
3.647798990836867
 20
-10.3376888973157
 30
0.0
 10
3.663201697631696
 20
-10.35143924934257
 30
0.0
 10
3.664896848628965
 20
-10.35295255457653
 30
0.0
 10
3.670528144597887
 20
-10.35273368243282
 30
0.0
 10
3.67225050176944
 20
-10.35110933626834
 30
0.0
 10
3.684322248126894
 20
-10.33972393443703
 30
0.0
 10
3.696452686455864
 20
-10.32827158707568
 30
0.0
 10
3.707153310408759
 20
-10.31564486533143
 30
0.0
 10
3.710123521560363
 20
-10.31214015984558
 30
0.0
 10
3.710916550972215
 20
-10.30246859415084
 30
0.0
 10
3.708283512969374
 20
-10.29927767673141
 30
0.0
 10
3.696229343634639
 20
-10.28466979526158
 30
0.0
 10
3.682603635625405
 20
-10.2713585631153
 30
0.0
 10
3.66960183550077
 20
-10.25764435861778
 30
0.0
 10
3.651601588646801
 20
-10.27557941764404
 30
0.0
 10
3.635857429080235
 20
-10.29126652830862
 30
0.0
 10
3.61778660665896
 20
-10.3092718190039
 30
0.0
  0
SPLINE
  5
9C
330
7C
100
AcDbEntity
  8
Layer 3
100
AcDbSpline
210
0.0
220
0.0
230
1.0
 70
     9
 71
     3
 72
    17
 73
    13
 74
     0
 42
0.0000000001
 43
0.0000000001
 40
0.0
 40
0.0
 40
0.0
 40
0.0
 40
1.0
 40
1.0
 40
1.0
 40
2.0
 40
2.0
 40
2.0
 40
3.0
 40
3.0
 40
3.0
 40
4.0
 40
4.0
 40
4.0
 40
4.0
 10
3.575709889041895
 20
-10.30936245530362
 30
0.0
 10
3.559864929071131
 20
-10.29192627803516
 30
0.0
 10
3.544916129782475
 20
-10.27547617174104
 30
0.0
 10
3.531145755234117
 20
-10.260322944036
 30
0.0
 10
3.514327887950583
 20
-10.2765100063641
 30
0.0
 10
3.498339274030058
 20
-10.29189884259537
 30
0.0
 10
3.483260863304318
 20
-10.3064117317207
 30
0.0
 10
3.499097990036665
 20
-10.32263677570219
 30
0.0
 10
3.514611298336426
 20
-10.33853007248543
 30
0.0
 10
3.530070614607716
 20
-10.35436803985802
 30
0.0
 10
3.546172581219302
 20
-10.33848964533321
 30
0.0
 10
3.561779448954085
 20
-10.32309950993067
 30
0.0
 10
3.575709889041895
 20
-10.30936245530362
 30
0.0
  0
SPLINE
  5
9D
330
7C
100
AcDbEntity
  8
Layer 3
100
AcDbSpline
210
0.0
220
0.0
230
1.0
 70
     9
 71
     3
 72
    20
 73
    16
 74
     0
 42
0.0000000001
 43
0.0000000001
 40
0.0
 40
0.0
 40
0.0
 40
0.0
 40
1.0
 40
1.0
 40
1.0
 40
2.0
 40
2.0
 40
2.0
 40
3.0
 40
3.0
 40
3.0
 40
4.0
 40
4.0
 40
4.0
 40
5.0
 40
5.0
 40
5.0
 40
5.0
 10
4.55624746379845
 20
-10.58312236786749
 30
0.0
 10
4.566460172527285
 20
-10.51388295998577
 30
0.0
 10
4.520809740504798
 20
-10.46649171491784
 30
0.0
 10
4.455674261739836
 20
-10.4751850810875
 30
0.0
 10
4.451925235638226
 20
-10.47568549128206
 30
0.0
 10
4.448434362505066
 20
-10.47811952681895
 30
0.0
 10
4.44482335424272
 20
-10.47965346594919
 30
0.0
 10
4.446704707048032
 20
-10.48303207540251
 30
0.0
 10
4.447865554765611
 20
-10.48720745893769
 30
0.0
 10
4.450581128353329
 20
-10.48966380965129
 30
0.0
 10
4.473049148694295
 20
-10.50998789175196
 30
0.0
 10
4.495780518688635
 20
-10.53002111233758
 30
0.0
 10
4.518483459759282
 20
-10.55008444312736
 30
0.0
 10
4.530458303226295
 20
-10.56066688070796
 30
0.0
 10
4.542535399112415
 20
-10.57113346278227
 30
0.0
 10
4.55624746379845
 20
-10.58312236786749
 30
0.0
  0
SPLINE
  5
9E
330
7C
100
AcDbEntity
  8
Layer 3
100
AcDbSpline
210
0.0
220
0.0
230
1.0
 70
     9
 71
     3
 72
    26
 73
    22
 74
     0
 42
0.0000000001
 43
0.0000000001
 40
0.0
 40
0.0
 40
0.0
 40
0.0
 40
1.0
 40
1.0
 40
1.0
 40
2.0
 40
2.0
 40
2.0
 40
3.0
 40
3.0
 40
3.0
 40
4.0
 40
4.0
 40
4.0
 40
5.0
 40
5.0
 40
5.0
 40
6.0
 40
6.0
 40
6.0
 40
7.0
 40
7.0
 40
7.0
 40
7.0
 10
3.787324632935754
 20
-10.32253322411187
 30
0.0
 10
3.791221344239071
 20
-10.32049772845953
 30
0.0
 10
3.792845270083388
 20
-10.3200039669649
 30
0.0
 10
3.79401364535205
 20
-10.31898694514623
 30
0.0
 10
3.818143764245355
 20
-10.297980492455
 30
0.0
 10
3.841943053002422
 20
-10.27658176646986
 30
0.0
 10
3.866453179484652
 20
-10.25603040582331
 30
0.0
 10
3.875754634218461
 20
-10.24823140442251
 30
0.0
 10
3.876876201111397
 20
-10.23838475629716
 30
0.0
 10
3.876627142341703
 20
-10.2279971179814
 30
0.0
 10
3.876569061744905
 20
-10.22557339939256
 30
0.0
 10
3.871728044001656
 20
-10.22127298973057
 30
0.0
 10
3.869015985818476
 20
-10.2212153676648
 30
0.0
 10
3.84444965107443
 20
-10.22069417073036
 30
0.0
 10
3.819862529590535
 20
-10.22070372346007
 30
0.0
 10
3.795296691588443
 20
-10.22124624208732
 30
0.0
 10
3.792590517886765
 20
-10.22130592754269
 30
0.0
 10
3.787710142897013
 20
-10.22564110914095
 30
0.0
 10
3.787668913315453
 20
-10.22805863756091
 30
0.0
 10
3.787145805835052
 20
-10.25874261685018
 30
0.0
 10
3.787324632935754
 20
-10.28943867078988
 30
0.0
 10
3.787324632935754
 20
-10.32253322411187
 30
0.0
  0
SPLINE
  5
9F
330
7C
100
AcDbEntity
  8
Layer 3
100
AcDbSpline
210
0.0
220
0.0
230
1.0
 70
     9
 71
     3
 72
    23
 73
    19
 74
     0
 42
0.0000000001
 43
0.0000000001
 40
0.0
 40
0.0
 40
0.0
 40
0.0
 40
1.0
 40
1.0
 40
1.0
 40
2.0
 40
2.0
 40
2.0
 40
3.0
 40
3.0
 40
3.0
 40
4.0
 40
4.0
 40
4.0
 40
5.0
 40
5.0
 40
5.0
 40
6.0
 40
6.0
 40
6.0
 40
6.0
 10
4.92043557944041
 20
-9.520477705430064
 30
0.0
 10
4.919613586152055
 20
-9.519731216917508
 30
0.0
 10
4.91879159286365
 20
-9.518984728404953
 30
0.0
 10
4.917969752418912
 20
-9.518238239892399
 30
0.0
 10
4.868445803120898
 20
-9.561477639351197
 30
0.0
 10
4.818922006666499
 20
-9.60471703881002
 30
0.0
 10
4.769398057368485
 20
-9.647956438268794
 30
0.0
 10
4.772127845418077
 20
-9.649695264346393
 30
0.0
 10
4.773812182725249
 20
-9.649794650946583
 30
0.0
 10
4.775120371746323
 20
-9.649141053178027
 30
0.0
 10
4.802992027401083
 20
-9.635217414633745
 30
0.0
 10
4.832792264556979
 20
-9.633986373458027
 30
0.0
 10
4.863047517335695
 20
-9.635597307589932
 30
0.0
 10
4.878550757058317
 20
-9.636422778071972
 30
0.0
 10
4.88824929966179
 20
-9.629143712645271
 30
0.0
 10
4.891100445589952
 20
-9.613981199686906
 30
0.0
 10
4.897177510139322
 20
-9.581665193838462
 30
0.0
 10
4.903446852032806
 20
-9.549438945438623
 30
0.0
 10
4.92043557944041
 20
-9.520477705430064
 30
0.0
  0
SPLINE
  5
A0
330
7C
100
AcDbEntity
  8
Layer 3
100
AcDbSpline
210
0.0
220
0.0
230
1.0
 70
     9
 71
     3
 72
    23
 73
    19
 74
     0
 42
0.0000000001
 43
0.0000000001
 40
0.0
 40
0.0
 40
0.0
 40
0.0
 40
1.0
 40
1.0
 40
1.0
 40
2.0
 40
2.0
 40
2.0
 40
3.0
 40
3.0
 40
3.0
 40
4.0
 40
4.0
 40
4.0
 40
5.0
 40
5.0
 40
5.0
 40
6.0
 40
6.0
 40
6.0
 40
6.0
 10
3.443004800447776
 20
-9.603044585098587
 30
0.0
 10
3.443430527401233
 20
-9.598950858297181
 30
0.0
 10
3.444263257957825
 20
-9.596849754497043
 30
0.0
 10
3.443729279471022
 20
-9.595187770577441
 30
0.0
 10
3.436269113393993
 20
-9.571969211366523
 30
0.0
 10
3.429151412678013
 20
-9.54861859521975
 30
0.0
 10
3.420837308984371
 20
-9.525704003869071
 30
0.0
 10
3.415166197237895
 20
-9.510073731946425
 30
0.0
 10
3.403131954897364
 20
-9.498504975020496
 30
0.0
 10
3.387728789571484
 20
-9.493906959616298
 30
0.0
 10
3.360818769008397
 20
-9.485874069180605
 30
0.0
 10
3.333126580487158
 20
-9.480454003171644
 30
0.0
 10
3.305722511847534
 20
-9.474110321935313
 30
0.0
 10
3.30461316289595
 20
-9.473853525454538
 30
0.0
 10
3.303099083890831
 20
-9.475345107781095
 30
0.0
 10
3.300022770570042
 20
-9.476916302557304
 30
0.0
 10
3.347900478847097
 20
-9.51915052558229
 30
0.0
 10
3.394733653443785
 20
-9.560463292296844
 30
0.0
 10
3.443004800447776
 20
-9.603044585098587
 30
0.0
  0
SPLINE
  5
A1
330
7C
100
AcDbEntity
  8
Layer 3
100
AcDbSpline
210
0.0
220
0.0
230
1.0
 70
     9
 71
     3
 72
    14
 73
    10
 74
     0
 42
0.0000000001
 43
0.0000000001
 40
0.0
 40
0.0
 40
0.0
 40
0.0
 40
1.0
 40
1.0
 40
1.0
 40
2.0
 40
2.0
 40
2.0
 40
3.0
 40
3.0
 40
3.0
 40
3.0
 10
3.276487232681018
 20
-9.443073044489437
 30
0.0
 10
3.298912026919904
 20
-9.419208797170186
 30
0.0
 10
3.315510878768741
 20
-9.394021936207915
 30
0.0
 10
3.309402557687715
 20
-9.361024667885581
 30
0.0
 10
3.303628696780176
 20
-9.32983420286564
 30
0.0
 10
3.281272878026356
 20
-9.310823258100045
 30
0.0
 10
3.254194022517897
 20
-9.29336511910593
 30
0.0
 10
3.242126044712297
 20
-9.347404538670515
 30
0.0
 10
3.248583635086181
 20
-9.395979481585577
 30
0.0
 10
3.276487232681018
 20
-9.443073044489437
 30
0.0
  0
SPLINE
  5
A2
330
7C
100
AcDbEntity
  8
Layer 3
100
AcDbSpline
210
0.0
220
0.0
230
1.0
 70
     9
 71
     3
 72
    11
 73
     7
 74
     0
 42
0.0000000001
 43
0.0000000001
 40
0.0
 40
0.0
 40
0.0
 40
0.0
 40
1.0
 40
1.0
 40
1.0
 40
2.0
 40
2.0
 40
2.0
 40
2.0
 10
3.487596598960863
 20
-9.642363162164251
 30
0.0
 10
3.535622661130749
 20
-9.684554818225503
 30
0.0
 10
3.581669875335617
 20
-9.725007953896515
 30
0.0
 10
3.630144017846482
 20
-9.767593258844776
 30
0.0
 10
3.622650168844403
 20
-9.672663465616373
 30
0.0
 10
3.571946915954892
 20
-9.634682729244913
 30
0.0
 10
3.487596598960863
 20
-9.642363162164251
 30
0.0
  0
SPLINE
  5
A3
330
7C
100
AcDbEntity
  8
Layer 3
100
AcDbSpline
210
0.0
220
0.0
230
1.0
 70
     9
 71
     3
 72
    23
 73
    19
 74
     0
 42
0.0000000001
 43
0.0000000001
 40
0.0
 40
0.0
 40
0.0
 40
0.0
 40
1.0
 40
1.0
 40
1.0
 40
2.0
 40
2.0
 40
2.0
 40
3.0
 40
3.0
 40
3.0
 40
4.0
 40
4.0
 40
4.0
 40
5.0
 40
5.0
 40
5.0
 40
6.0
 40
6.0
 40
6.0
 40
6.0
 10
3.295915880107056
 20
-10.78540180215332
 30
0.0
 10
3.307905262828777
 20
-10.79919151142664
 30
0.0
 10
3.318558686744002
 20
-10.81142939885972
 30
0.0
 10
3.329195460251311
 20
-10.82368180644195
 30
0.0
 10
3.353231217280305
 20
-10.85136821556168
 30
0.0
 10
3.377131335099748
 20
-10.87917552402897
 30
0.0
 10
3.401509175380599
 20
-10.90655731570283
 30
0.0
 10
3.403678810463866
 20
-10.90899410242597
 30
0.0
 10
3.410408345559719
 20
-10.91076204522379
 30
0.0
 10
3.412494203203196
 20
-10.90928175422378
 30
0.0
 10
3.420507204855564
 20
-10.90359444104767
 30
0.0
 10
3.427491320198896
 20
-10.89645725276303
 30
0.0
 10
3.435288525686498
 20
-10.88947642355874
 30
0.0
 10
3.397612750659163
 20
-10.84626629366387
 30
0.0
 10
3.360819924888674
 20
-10.80406905880843
 30
0.0
 10
3.323562454343775
 20
-10.76133870521186
 30
0.0
 10
3.313776427841376
 20
-10.76985637757618
 30
0.0
 10
3.305382797672639
 20
-10.77716199959155
 30
0.0
 10
3.295915880107056
 20
-10.78540180215332
 30
0.0
  0
SPLINE
  5
A4
330
7C
100
AcDbEntity
  8
Layer 3
100
AcDbSpline
210
0.0
220
0.0
230
1.0
 70
     9
 71
     3
 72
    29
 73
    25
 74
     0
 42
0.0000000001
 43
0.0000000001
 40
0.0
 40
0.0
 40
0.0
 40
0.0
 40
1.0
 40
1.0
 40
1.0
 40
2.0
 40
2.0
 40
2.0
 40
3.0
 40
3.0
 40
3.0
 40
4.0
 40
4.0
 40
4.0
 40
5.0
 40
5.0
 40
5.0
 40
6.0
 40
6.0
 40
6.0
 40
7.0
 40
7.0
 40
7.0
 40
8.0
 40
8.0
 40
8.0
 40
8.0
 10
3.88785824848234
 20
-10.3582537846276
 30
0.0
 10
3.88785824848234
 20
-10.37791391380061
 30
0.0
 10
3.887432273157905
 20
-10.39603735265725
 30
0.0
 10
3.888222551383553
 20
-10.41410752549291
 30
0.0
 10
3.888378146245536
 20
-10.41766480920321
 30
0.0
 10
3.892497894682769
 20
-10.42254831748834
 30
0.0
 10
3.896023692595841
 20
-10.42422539472093
 30
0.0
 10
3.929749490298844
 20
-10.44026710271335
 30
0.0
 10
3.963726410161168
 20
-10.455782111399
 30
0.0
 10
3.99769973819712
 20
-10.47129834283403
 30
0.0
 10
3.999337228917662
 20
-10.4720462833615
 30
0.0
 10
4.001613988312252
 20
-10.47139448150609
 30
0.0
 10
4.004887976269452
 20
-10.47139448150609
 30
0.0
 10
4.004887976269452
 20
-10.44925912542549
 30
0.0
 10
4.005159885168697
 20
-10.42769708597282
 30
0.0
 10
4.004526730241751
 20
-10.4061617177415
 30
0.0
 10
4.004451836840593
 20
-10.40361320229143
 30
0.0
 10
3.999832136739895
 20
-10.4001077325872
 30
0.0
 10
3.996623642297713
 20
-10.3989116544023
 30
0.0
 10
3.966279893030736
 20
-10.38760007606639
 30
0.0
 10
3.93576824498589
 20
-10.37673976868321
 30
0.0
 10
3.905349296630422
 20
-10.36562810987523
 30
0.0
 10
3.899661601345112
 20
-10.36355050579022
 30
0.0
 10
3.894171303667108
 20
-10.36093275215497
 30
0.0
 10
3.88785824848234
 20
-10.3582537846276
 30
0.0
  0
SPLINE
  5
A5
330
7C
100
AcDbEntity
  8
Layer 3
100
AcDbSpline
210
0.0
220
0.0
230
1.0
 70
     9
 71
     3
 72
    26
 73
    22
 74
     0
 42
0.0000000001
 43
0.0000000001
 40
0.0
 40
0.0
 40
0.0
 40
0.0
 40
1.0
 40
1.0
 40
1.0
 40
2.0
 40
2.0
 40
2.0
 40
3.0
 40
3.0
 40
3.0
 40
4.0
 40
4.0
 40
4.0
 40
5.0
 40
5.0
 40
5.0
 40
6.0
 40
6.0
 40
6.0
 40
7.0
 40
7.0
 40
7.0
 40
7.0
 10
4.319097279834219
 20
-10.47583099846141
 30
0.0
 10
4.35862708685982
 20
-10.46397873562233
 30
0.0
 10
4.393107244524673
 20
-10.4481782149503
 30
0.0
 10
4.424568433905354
 20
-10.42599807567272
 30
0.0
 10
4.426719250111065
 20
-10.42448171356523
 30
0.0
 10
4.429103229344162
 20
-10.4214418821193
 30
0.0
 10
4.429142204481473
 20
-10.41907364578479
 30
0.0
 10
4.429495044107044
 20
-10.39766024680681
 30
0.0
 10
4.429348772709317
 20
-10.37623851784845
 30
0.0
 10
4.429348772709317
 20
-10.35207637820508
 30
0.0
 10
4.421121961860004
 20
-10.35650716352254
 30
0.0
 10
4.415664219884925
 20
-10.35995615748851
 30
0.0
 10
4.409815198099825
 20
-10.36250811192134
 30
0.0
 10
4.385152724683772
 20
-10.37326876522787
 30
0.0
 10
4.360281848915721
 20
-10.38355613809234
 30
0.0
 10
4.335702904568506
 20
-10.39450112087191
 30
0.0
 10
4.32974605157013
 20
-10.39715372286524
 30
0.0
 10
4.32011346101275
 20
-10.40134568993923
 30
0.0
 10
4.319841552113479
 20
-10.40535042351042
 30
0.0
 10
4.318302798407507
 20
-10.42801622356786
 30
0.0
 10
4.319097279834219
 20
-10.45084036967336
 30
0.0
 10
4.319097279834219
 20
-10.47583099846141
 30
0.0
  0
SPLINE
  5
A6
330
7C
100
AcDbEntity
  8
Layer 3
100
AcDbSpline
210
0.0
220
0.0
230
1.0
 70
     9
 71
     3
 72
    23
 73
    19
 74
     0
 42
0.0000000001
 43
0.0000000001
 40
0.0
 40
0.0
 40
0.0
 40
0.0
 40
1.0
 40
1.0
 40
1.0
 40
2.0
 40
2.0
 40
2.0
 40
3.0
 40
3.0
 40
3.0
 40
4.0
 40
4.0
 40
4.0
 40
5.0
 40
5.0
 40
5.0
 40
6.0
 40
6.0
 40
6.0
 40
6.0
 10
5.010916590008567
 20
-10.75526133497513
 30
0.0
 10
5.001501419579981
 20
-10.76576521090636
 30
0.0
 10
4.993129101551276
 20
-10.77495906369242
 30
0.0
 10
4.984917422225836
 20
-10.78429429687857
 30
0.0
 10
4.958013572726157
 20
-10.81487923346594
 30
0.0
 10
4.931074263493706
 20
-10.84543482406757
 30
0.0
 10
4.904491844244224
 20
-10.87629732477017
 30
0.0
 10
4.902519855139189
 20
-10.8785869230335
 30
0.0
 10
4.90153217930621
 20
-10.88499626973402
 30
0.0
 10
4.90304395610345
 20
-10.88648267448108
 30
0.0
 10
4.912691448919227
 20
-10.89596738878215
 30
0.0
 10
4.923168271519872
 20
-10.90460871168024
 30
0.0
 10
4.93448252462013
 20
-10.91449830887844
 30
0.0
 10
4.972481449388977
 20
-10.87129658538573
 30
0.0
 10
5.009387541875967
 20
-10.82933717528981
 30
0.0
 10
5.046761336010831
 20
-10.78684617488951
 30
0.0
 10
5.034376412961718
 20
-10.7759331364382
 30
0.0
 10
5.023215462068264
 20
-10.76609856296325
 30
0.0
 10
5.010916590008567
 20
-10.75526133497513
 30
0.0
  0
SPLINE
  5
A7
330
7C
100
AcDbEntity
  8
Layer 3
100
AcDbSpline
210
0.0
220
0.0
230
1.0
 70
     9
 71
     3
 72
    17
 73
    13
 74
     0
 42
0.0000000001
 43
0.0000000001
 40
0.0
 40
0.0
 40
0.0
 40
0.0
 40
1.0
 40
1.0
 40
1.0
 40
2.0
 40
2.0
 40
2.0
 40
3.0
 40
3.0
 40
3.0
 40
4.0
 40
4.0
 40
4.0
 40
4.0
 10
3.747955311769778
 20
-10.70689655211428
 30
0.0
 10
3.68054727681134
 20
-10.62962994722382
 30
0.0
 10
3.613977589414641
 20
-10.55332427052303
 30
0.0
 10
3.546859651752886
 20
-10.47639025347111
 30
0.0
 10
3.539454490293691
 20
-10.48313142379177
 30
0.0
 10
3.5334233552689
 20
-10.48862187431347
 30
0.0
 10
3.526672804167623
 20
-10.49476710714217
 30
0.0
 10
3.593909635103677
 20
-10.57185641336875
 30
0.0
 10
3.660264156815805
 20
-10.64793404730524
 30
0.0
 10
3.727173768547471
 20
-10.72464812230775
 30
0.0
 10
3.734410687330561
 20
-10.71846635984045
 30
0.0
 10
3.740342091856872
 20
-10.71339974483173
 30
0.0
 10
3.747955311769778
 20
-10.70689655211428
 30
0.0
  0
SPLINE
  5
A8
330
7C
100
AcDbEntity
  8
Layer 3
100
AcDbSpline
210
0.0
220
0.0
230
1.0
 70
     9
 71
     3
 72
    32
 73
    28
 74
     0
 42
0.0000000001
 43
0.0000000001
 40
0.0
 40
0.0
 40
0.0
 40
0.0
 40
1.0
 40
1.0
 40
1.0
 40
2.0
 40
2.0
 40
2.0
 40
3.0
 40
3.0
 40
3.0
 40
4.0
 40
4.0
 40
4.0
 40
5.0
 40
5.0
 40
5.0
 40
6.0
 40
6.0
 40
6.0
 40
7.0
 40
7.0
 40
7.0
 40
8.0
 40
8.0
 40
8.0
 40
9.0
 40
9.0
 40
9.0
 40
9.0
 10
3.73605497959468
 20
-10.30679766200208
 30
0.0
 10
3.736040115547211
 20
-10.30679766200208
 30
0.0
 10
3.736025213288813
 20
-10.30679766200208
 30
0.0
 10
3.736010349241344
 20
-10.30679766200208
 30
0.0
 10
3.736010349241344
 20
-10.35389009768384
 30
0.0
 10
3.735944817515347
 20
-10.40098283905293
 30
0.0
 10
3.7361324713383
 20
-10.44807458693814
 30
0.0
 10
3.73614779391682
 20
-10.45191531924519
 30
0.0
 10
3.737354685791766
 20
-10.45878388476964
 30
0.0
 10
3.738924084654753
 20
-10.45906114319753
 30
0.0
 10
3.745730213537626
 20
-10.46026394650413
 30
0.0
 10
3.75318432318401
 20
-10.46067792360001
 30
0.0
 10
3.7597317641456
 20
-10.45890287357123
 30
0.0
 10
3.762017732371607
 20
-10.4582830160441
 30
0.0
 10
3.763441700477086
 20
-10.45054217166191
 30
0.0
 10
3.763451482472343
 20
-10.44604948465578
 30
0.0
 10
3.763653159702572
 20
-10.35353137357674
 30
0.0
 10
3.763439216767361
 20
-10.26101226901381
 30
0.0
 10
3.763797176656074
 20
-10.16849522784049
 30
0.0
 10
3.763837985917512
 20
-10.1579488613674
 30
0.0
 10
3.761629624067886
 20
-10.15383759575421
 30
0.0
 10
3.750091302138899
 20
-10.15404699159004
 30
0.0
 10
3.739378106793689
 20
-10.15424140874562
 30
0.0
 10
3.735648109729734
 20
-10.15669340341449
 30
0.0
 10
3.735798737172217
 20
-10.16802317014781
 30
0.0
 10
3.736413589069014
 20
-10.2142742778162
 30
0.0
 10
3.73605497959468
 20
-10.26053837719703
 30
0.0
 10
3.73605497959468
 20
-10.30679766200208
 30
0.0
  0
SPLINE
  5
A9
330
7C
100
AcDbEntity
  8
Layer 3
100
AcDbSpline
210
0.0
220
0.0
230
1.0
 70
     9
 71
     3
 72
    47
 73
    43
 74
     0
 42
0.0000000001
 43
0.0000000001
 40
0.0
 40
0.0
 40
0.0
 40
0.0
 40
1.0
 40
1.0
 40
1.0
 40
2.0
 40
2.0
 40
2.0
 40
3.0
 40
3.0
 40
3.0
 40
4.0
 40
4.0
 40
4.0
 40
5.0
 40
5.0
 40
5.0
 40
6.0
 40
6.0
 40
6.0
 40
7.0
 40
7.0
 40
7.0
 40
8.0
 40
8.0
 40
8.0
 40
9.0
 40
9.0
 40
9.0
 40
10.0
 40
10.0
 40
10.0
 40
11.0
 40
11.0
 40
11.0
 40
12.0
 40
12.0
 40
12.0
 40
13.0
 40
13.0
 40
13.0
 40
14.0
 40
14.0
 40
14.0
 40
14.0
 10
5.090554411685212
 20
-9.287082479812598
 30
0.0
 10
5.067775507307715
 20
-9.2906627951543
 30
0.0
 10
5.04920943316597
 20
-9.287237348667126
 30
0.0
 10
5.032941822220714
 20
-9.274267426001616
 30
0.0
 10
5.031394432847037
 20
-9.273033757825183
 30
0.0
 10
5.025946167179906
 20
-9.275000636219802
 30
0.0
 10
5.023454815264535
 20
-9.276947683147479
 30
0.0
 10
5.014598135627263
 20
-9.283869361849282
 30
0.0
 10
5.006448052303185
 20
-9.291692502998103
 30
0.0
 10
4.997619495902275
 20
-9.298653347891786
 30
0.0
 10
4.991083747481878
 20
-9.303806415104645
 30
0.0
 10
4.990414139338225
 20
-9.308339873161305
 30
0.0
 10
4.995372541024531
 20
-9.315382871530724
 30
0.0
 10
5.007031456613705
 20
-9.331943617540646
 30
0.0
 10
5.015240996127658
 20
-9.350104187857771
 30
0.0
 10
5.016603291809966
 20
-9.37071761258946
 30
0.0
 10
5.019535597729953
 20
-9.415084730899126
 30
0.0
 10
4.998924016675143
 20
-9.448278403344854
 30
0.0
 10
4.966584281846002
 20
-9.47590000674606
 30
0.0
 10
4.961730425234009
 20
-9.480045738608142
 30
0.0
 10
4.957037513012614
 20
-9.484379678351539
 30
0.0
 10
4.952270013077369
 20
-9.488626516305151
 30
0.0
 10
4.965970614487736
 20
-9.486210783798393
 30
0.0
 10
4.978249616869586
 20
-9.480874533440101
 30
0.0
 10
4.991080996295724
 20
-9.478393383840106
 30
0.0
 10
5.011497548820216
 20
-9.474445431694473
 30
0.0
 10
5.032319595616601
 20
-9.472635934522308
 30
0.0
 10
5.052879056977947
 20
-9.469352489362613
 30
0.0
 10
5.056978782893641
 20
-9.468697745266455
 30
0.0
 10
5.062599456227088
 20
-9.466319746042168
 30
0.0
 10
5.063948607353292
 20
-9.463195009934326
 30
0.0
 10
5.065059628032612
 20
-9.460621485437791
 30
0.0
 10
5.061327032626169
 20
-9.45546283943079
 30
0.0
 10
5.058952147591778
 20
-9.451989123000203
 30
0.0
 10
5.054973168179937
 20
-9.44616910330261
 30
0.0
 10
5.050075292589276
 20
-9.440978952392949
 30
0.0
 10
5.046070635439946
 20
-9.435174408117466
 30
0.0
 10
5.019694096621732
 20
-9.396943753230667
 30
0.0
 10
5.020689414638455
 20
-9.359343578506493
 30
0.0
 10
5.050646010874692
 20
-9.323956819025926
 30
0.0
 10
5.061455115626484
 20
-9.311188267903288
 30
0.0
 10
5.075305198151732
 20
-9.300993957731911
 30
0.0
 10
5.090554411685212
 20
-9.287082479812598
 30
0.0
  0
SPLINE
  5
AA
330
7C
100
AcDbEntity
  8
Layer 3
100
AcDbSpline
210
0.0
220
0.0
230
1.0
 70
     9
 71
     3
 72
    23
 73
    19
 74
     0
 42
0.0000000001
 43
0.0000000001
 40
0.0
 40
0.0
 40
0.0
 40
0.0
 40
1.0
 40
1.0
 40
1.0
 40
2.0
 40
2.0
 40
2.0
 40
3.0
 40
3.0
 40
3.0
 40
4.0
 40
4.0
 40
4.0
 40
5.0
 40
5.0
 40
5.0
 40
6.0
 40
6.0
 40
6.0
 40
6.0
 10
4.594768044032788
 20
-10.70669968945986
 30
0.0
 10
4.597819568019909
 20
-10.70909367995374
 30
0.0
 10
4.600213405670097
 20
-10.71077251488858
 30
0.0
 10
4.602381340367501
 20
-10.71270507032525
 30
0.0
 10
4.615684701064487
 20
-10.72456528103544
 30
0.0
 10
4.615481266131988
 20
-10.72441977385609
 30
0.0
 10
4.627188480322703
 20
-10.71113979824152
 30
0.0
 10
4.685302397043742
 20
-10.64521770949911
 30
0.0
 10
4.743743093543622
 20
-10.57958204980516
 30
0.0
 10
4.801575166526541
 20
-10.51341434127579
 30
0.0
 10
4.819473619492454
 20
-10.49293619274994
 30
0.0
 10
4.823315345283364
 20
-10.49889480345056
 30
0.0
 10
4.798993789686164
 20
-10.47849063126379
 30
0.0
 10
4.798498270489264
 20
-10.47807474362195
 30
0.0
 10
4.797429587508127
 20
-10.47834191436724
 30
0.0
 10
4.79575778338234
 20
-10.47823461810682
 30
0.0
 10
4.729306091303315
 20
-10.55377026836898
 30
0.0
 10
4.662516003326168
 20
-10.62969047331944
 30
0.0
 10
4.594768044032788
 20
-10.70669968945986
 30
0.0
  0
SPLINE
  5
AB
330
7C
100
AcDbEntity
  8
Layer 3
100
AcDbSpline
210
0.0
220
0.0
230
1.0
 70
     9
 71
     3
 72
    26
 73
    22
 74
     0
 42
0.0000000001
 43
0.0000000001
 40
0.0
 40
0.0
 40
0.0
 40
0.0
 40
1.0
 40
1.0
 40
1.0
 40
2.0
 40
2.0
 40
2.0
 40
3.0
 40
3.0
 40
3.0
 40
4.0
 40
4.0
 40
4.0
 40
5.0
 40
5.0
 40
5.0
 40
6.0
 40
6.0
 40
6.0
 40
7.0
 40
7.0
 40
7.0
 40
7.0
 10
4.415495480466865
 20
-10.24722103130372
 30
0.0
 10
4.383512864886218
 20
-10.26163747606961
 30
0.0
 10
4.353631773425831
 20
-10.27501397246545
 30
0.0
 10
4.323895119239068
 20
-10.28870433334954
 30
0.0
 10
4.321749958249382
 20
-10.28969200918249
 30
0.0
 10
4.319309732543564
 20
-10.29295132414682
 30
0.0
 10
4.319282449947447
 20
-10.2951823068605
 30
0.0
 10
4.318961631071967
 20
-10.3213424190338
 30
0.0
 10
4.319076569516179
 20
-10.34750788073575
 30
0.0
 10
4.319076569516179
 20
-10.37365591825864
 30
0.0
 10
4.321717631811957
 20
-10.37395319920807
 30
0.0
 10
4.32304171657534
 20
-10.37448150337342
 30
0.0
 10
4.324122703472337
 20
-10.37416878521278
 30
0.0
 10
4.359222412977007
 20
-10.36401851312545
 30
0.0
 10
4.391836043673139
 20
-10.34850220526858
 30
0.0
 10
4.421975288101925
 20
-10.32792547257185
 30
0.0
 10
4.424372259047509
 20
-10.32628905175703
 30
0.0
 10
4.426188118337677
 20
-10.32146713947324
 30
0.0
 10
4.425795310090935
 20
-10.31844832403271
 30
0.0
 10
4.422687539631093
 20
-10.29456695822177
 30
0.0
 10
4.418977947197896
 20
-10.27076392479466
 30
0.0
 10
4.415495480466865
 20
-10.24722103130372
 30
0.0
  0
SPLINE
  5
AC
330
7C
100
AcDbEntity
  8
Layer 3
100
AcDbSpline
210
0.0
220
0.0
230
1.0
 70
     9
 71
     3
 72
    29
 73
    25
 74
     0
 42
0.0000000001
 43
0.0000000001
 40
0.0
 40
0.0
 40
0.0
 40
0.0
 40
1.0
 40
1.0
 40
1.0
 40
2.0
 40
2.0
 40
2.0
 40
3.0
 40
3.0
 40
3.0
 40
4.0
 40
4.0
 40
4.0
 40
5.0
 40
5.0
 40
5.0
 40
6.0
 40
6.0
 40
6.0
 40
7.0
 40
7.0
 40
7.0
 40
8.0
 40
8.0
 40
8.0
 40
8.0
 10
4.027784570277313
 20
-10.40695979099465
 30
0.0
 10
4.027784570277313
 20
-10.43020433363045
 30
0.0
 10
4.027516100360799
 20
-10.45219112565817
 30
0.0
 10
4.028134047342013
 20
-10.4741529277449
 30
0.0
 10
4.028208864321287
 20
-10.47681103211054
 30
0.0
 10
4.032780189398636
 20
-10.48117303777389
 30
0.0
 10
4.035754527329471
 20
-10.4816395166724
 30
0.0
 10
4.07061220887355
 20
-10.48710642926802
 30
0.0
 10
4.105562284419622
 20
-10.49198443518078
 30
0.0
 10
4.140489968367193
 20
-10.49700473855576
 30
0.0
 10
4.148158059159666
 20
-10.49810689430187
 30
0.0
 10
4.15074180507703
 20
-10.49464636063832
 30
0.0
 10
4.150598743396509
 20
-10.4870968001164
 30
0.0
 10
4.150243763959476
 20
-10.46837024011511
 30
0.0
 10
4.150096193390532
 20
-10.44961953081305
 30
0.0
 10
4.150680285497527
 20
-10.43090397555637
 30
0.0
 10
4.150960295111594
 20
-10.4219297591324
 30
0.0
 10
4.147379244209661
 20
-10.41967256372838
 30
0.0
 10
4.139053467080303
 20
-10.41932683133374
 30
0.0
 10
4.124529267522953
 20
-10.41872371018909
 30
0.0
 10
4.110029293688208
 20
-10.41708606662483
 30
0.0
 10
4.095572116082697
 20
-10.41542152257365
 30
0.0
 10
4.073751465130574
 20
-10.41290915465288
 30
0.0
 10
4.05197628517198
 20
-10.41000107445549
 30
0.0
 10
4.027784570277313
 20
-10.40695979099465
 30
0.0
  0
SPLINE
  5
AD
330
7C
100
AcDbEntity
  8
Layer 3
100
AcDbSpline
210
0.0
220
0.0
230
1.0
 70
     9
 71
     3
 72
    26
 73
    22
 74
     0
 42
0.0000000001
 43
0.0000000001
 40
0.0
 40
0.0
 40
0.0
 40
0.0
 40
1.0
 40
1.0
 40
1.0
 40
2.0
 40
2.0
 40
2.0
 40
3.0
 40
3.0
 40
3.0
 40
4.0
 40
4.0
 40
4.0
 40
5.0
 40
5.0
 40
5.0
 40
6.0
 40
6.0
 40
6.0
 40
7.0
 40
7.0
 40
7.0
 40
7.0
 10
4.173793688259516
 20
-10.49700794827294
 30
0.0
 10
4.214523547405532
 20
-10.49835939205425
 30
0.0
 10
4.252098407395907
 20
-10.49184687587257
 30
0.0
 10
4.289414044512164
 20
-10.48349289908499
 30
0.0
 10
4.292089190947661
 20
-10.4828939047196
 30
0.0
 10
4.29593374434661
 20
-10.47898401064925
 30
0.0
 10
4.295987851007844
 20
-10.47654187439747
 30
0.0
 10
4.296492693668975
 20
-10.45375884324072
 30
0.0
 10
4.296286889659515
 20
-10.43095999276354
 30
0.0
 10
4.296286889659515
 20
-10.40868738306206
 30
0.0
 10
4.29418460132087
 20
-10.40789030329284
 30
0.0
 10
4.293376516807003
 20
-10.40727120998405
 30
0.0
 10
4.292645541927514
 20
-10.40735168217939
 30
0.0
 10
4.25507878265196
 20
-10.41148648571864
 30
0.0
 10
4.217507132378765
 20
-10.41558605879064
 30
0.0
 10
4.179985691253047
 20
-10.42010236014471
 30
0.0
 10
4.177714434230816
 20
-10.42037572105884
 30
0.0
 10
4.174100598360458
 20
-10.42398267896379
 30
0.0
 10
4.174061776066815
 20
-10.42609291517353
 30
0.0
 10
4.173634730836687
 20
-10.44930138670186
 30
0.0
 10
4.173793688259516
 20
-10.4725205572875
 30
0.0
 10
4.173793688259516
 20
-10.49700794827294
 30
0.0
  0
SPLINE
  5
AE
330
7C
100
AcDbEntity
  8
Layer 3
100
AcDbSpline
210
0.0
220
0.0
230
1.0
 70
     9
 71
     3
 72
    29
 73
    25
 74
     0
 42
0.0000000001
 43
0.0000000001
 40
0.0
 40
0.0
 40
0.0
 40
0.0
 40
1.0
 40
1.0
 40
1.0
 40
2.0
 40
2.0
 40
2.0
 40
3.0
 40
3.0
 40
3.0
 40
4.0
 40
4.0
 40
4.0
 40
5.0
 40
5.0
 40
5.0
 40
6.0
 40
6.0
 40
6.0
 40
7.0
 40
7.0
 40
7.0
 40
8.0
 40
8.0
 40
8.0
 40
8.0
 10
4.02825586375161
 20
-10.30164094564646
 30
0.0
 10
4.028191516564094
 20
-10.30272774060315
 30
0.0
 10
4.027809101687302
 20
-10.30632438155996
 30
0.0
 10
4.027794352272571
 20
-10.3099226273754
 30
0.0
 10
4.027715714201374
 20
-10.32909572017552
 30
0.0
 10
4.02855742432396
 20
-10.34831902212315
 30
0.0
 10
4.027412013817587
 20
-10.36742486370596
 30
0.0
 10
4.02667996903238
 20
-10.37963585065204
 30
0.0
 10
4.030894709814118
 20
-10.38483666240813
 30
0.0
 10
4.042711436498519
 20
-10.38608126846007
 30
0.0
 10
4.074978570581631
 20
-10.38947951832574
 30
0.0
 10
4.107211467681357
 20
-10.39322709241239
 30
0.0
 10
4.139417082184991
 20
-10.39716931292016
 30
0.0
 10
4.147732389522616
 20
-10.39818717537908
 30
0.0
 10
4.150701683612143
 20
-10.39524470535464
 30
0.0
 10
4.1505771924382
 20
-10.38705067947378
 30
0.0
 10
4.150279682223273
 20
-10.36746498517083
 30
0.0
 10
4.150011059463091
 20
-10.34785491230162
 30
0.0
 10
4.150697786098413
 20
-10.32828862914554
 30
0.0
 10
4.151027699172598
 20
-10.3188899658339
 30
0.0
 10
4.147557765623004
 20
-10.31666333916503
 30
0.0
 10
4.138693673067463
 20
-10.31567329425512
 30
0.0
 10
4.102443050684112
 20
-10.31162461812715
 30
0.0
 10
4.066304844824293
 20
-10.30656832006654
 30
0.0
 10
4.02825586375161
 20
-10.30164094564646
 30
0.0
  0
SPLINE
  5
AF
330
7C
100
AcDbEntity
  8
Layer 3
100
AcDbSpline
210
0.0
220
0.0
230
1.0
 70
     9
 71
     3
 72
    23
 73
    19
 74
     0
 42
0.0000000001
 43
0.0000000001
 40
0.0
 40
0.0
 40
0.0
 40
0.0
 40
1.0
 40
1.0
 40
1.0
 40
2.0
 40
2.0
 40
2.0
 40
3.0
 40
3.0
 40
3.0
 40
4.0
 40
4.0
 40
4.0
 40
5.0
 40
5.0
 40
5.0
 40
6.0
 40
6.0
 40
6.0
 40
6.0
 10
4.296269236214962
 20
-10.30042973593769
 30
0.0
 10
4.254783030139302
 20
-10.30678016140119
 30
0.0
 10
4.215170534685133
 20
-10.31284377570707
 30
0.0
 10
4.174657942824246
 20
-10.31904517858667
 30
0.0
 10
4.174657942824246
 20
-10.34411024224479
 30
0.0
 10
4.174657942824246
 20
-10.37049977277544
 30
0.0
 10
4.174657942824246
 20
-10.39841070925493
 30
0.0
 10
4.197610324773778
 20
-10.39645293461174
 30
0.0
 10
4.219530553380687
 20
-10.3949597283211
 30
0.0
 10
4.241355101846567
 20
-10.39258644814531
 30
0.0
 10
4.255393640624055
 20
-10.3910597690897
 30
0.0
 10
4.269422626671863
 20
-10.38881525971073
 30
0.0
 10
4.283181002991644
 20
-10.38568425701219
 30
0.0
 10
4.287968219761043
 20
-10.38459486371301
 30
0.0
 10
4.295564397604064
 20
-10.38002514349427
 30
0.0
 10
4.295693932619289
 20
-10.37679670295243
 30
0.0
 10
4.296725551009027
 20
-10.35108877879396
 30
0.0
 10
4.296269236214962
 20
-10.32532116918009
 30
0.0
 10
4.296269236214962
 20
-10.30042973593769
 30
0.0
  0
SPLINE
  5
B0
330
7C
100
AcDbEntity
  8
Layer 3
100
AcDbSpline
210
0.0
220
0.0
230
1.0
 70
     9
 71
     3
 72
    29
 73
    25
 74
     0
 42
0.0000000001
 43
0.0000000001
 40
0.0
 40
0.0
 40
0.0
 40
0.0
 40
1.0
 40
1.0
 40
1.0
 40
2.0
 40
2.0
 40
2.0
 40
3.0
 40
3.0
 40
3.0
 40
4.0
 40
4.0
 40
4.0
 40
5.0
 40
5.0
 40
5.0
 40
6.0
 40
6.0
 40
6.0
 40
7.0
 40
7.0
 40
7.0
 40
8.0
 40
8.0
 40
8.0
 40
8.0
 10
4.001964611704478
 20
-10.37826621847332
 30
0.0
 10
4.003772217436183
 20
-10.37409389181163
 30
0.0
 10
4.004667040736118
 20
-10.37298615727134
 30
0.0
 10
4.004673307326811
 20
-10.37187337888975
 30
0.0
 10
4.004814229195895
 20
-10.34688794678674
 30
0.0
 10
4.005195879854328
 20
-10.32189273268848
 30
0.0
 10
4.004515954762584
 20
-10.29692717026331
 30
0.0
 10
4.004424936353643
 20
-10.29358333274621
 30
0.0
 10
3.999482048300503
 20
-10.2891509425702
 30
0.0
 10
3.995755719484754
 20
-10.28732644761231
 30
0.0
 10
3.972657066137495
 20
-10.27601700908783
 30
0.0
 10
3.949184557159266
 20
-10.26547354664457
 30
0.0
 10
3.926009252708631
 20
-10.25431649326485
 30
0.0
 10
3.917244967073378
 20
-10.25009724359473
 30
0.0
 10
3.908941046589587
 20
-10.24492188031066
 30
0.0
 10
3.897773981949133
 20
-10.23870519306347
 30
0.0
 10
3.894860552223083
 20
-10.26315253900588
 30
0.0
 10
3.892019341133845
 20
-10.284838840367
 30
0.0
 10
3.889751446672511
 20
-10.30658490360535
 30
0.0
 10
3.887077828673757
 20
-10.33222213756378
 30
0.0
 10
3.886999267024419
 20
-10.33295265391224
 30
0.0
 10
3.910678802761493
 20
-10.3427747706276
 30
0.0
 10
3.940823243875254
 20
-10.35527837679099
 30
0.0
 10
3.971502943541635
 20
-10.36649167664341
 30
0.0
 10
4.001964611704478
 20
-10.37826621847332
 30
0.0
  0
SPLINE
  5
B1
330
7C
100
AcDbEntity
  8
Layer 3
100
AcDbSpline
210
0.0
220
0.0
230
1.0
 70
     9
 71
     3
 72
    92
 73
    88
 74
     0
 42
0.0000000001
 43
0.0000000001
 40
0.0
 40
0.0
 40
0.0
 40
0.0
 40
1.0
 40
1.0
 40
1.0
 40
2.0
 40
2.0
 40
2.0
 40
3.0
 40
3.0
 40
3.0
 40
4.0
 40
4.0
 40
4.0
 40
5.0
 40
5.0
 40
5.0
 40
6.0
 40
6.0
 40
6.0
 40
7.0
 40
7.0
 40
7.0
 40
8.0
 40
8.0
 40
8.0
 40
9.0
 40
9.0
 40
9.0
 40
10.0
 40
10.0
 40
10.0
 40
11.0
 40
11.0
 40
11.0
 40
12.0
 40
12.0
 40
12.0
 40
13.0
 40
13.0
 40
13.0
 40
14.0
 40
14.0
 40
14.0
 40
15.0
 40
15.0
 40
15.0
 40
16.0
 40
16.0
 40
16.0
 40
17.0
 40
17.0
 40
17.0
 40
18.0
 40
18.0
 40
18.0
 40
19.0
 40
19.0
 40
19.0
 40
20.0
 40
20.0
 40
20.0
 40
21.0
 40
21.0
 40
21.0
 40
22.0
 40
22.0
 40
22.0
 40
23.0
 40
23.0
 40
23.0
 40
24.0
 40
24.0
 40
24.0
 40
25.0
 40
25.0
 40
25.0
 40
26.0
 40
26.0
 40
26.0
 40
27.0
 40
27.0
 40
27.0
 40
28.0
 40
28.0
 40
28.0
 40
29.0
 40
29.0
 40
29.0
 40
29.0
 10
3.711446956738073
 20
-10.34600313474761
 30
0.0
 10
3.698475152184805
 20
-10.35857254011345
 30
0.0
 10
3.68719414258405
 20
-10.36794904109206
 30
0.0
 10
3.677889822031324
 20
-10.37899107960574
 30
0.0
 10
3.669851658488848
 20
-10.3885306647864
 30
0.0
 10
3.664566438812799
 20
-10.38661171243691
 30
0.0
 10
3.657186764036572
 20
-10.37886047468477
 30
0.0
 10
3.640538266651244
 20
-10.36137393542516
 30
0.0
 10
3.623105069834461
 20
-10.34463350256886
 30
0.0
 10
3.606496617492236
 20
-10.32711028082705
 30
0.0
 10
3.600378094095832
 20
-10.32065485175823
 30
0.0
 10
3.596933800072848
 20
-10.3207234785687
 30
0.0
 10
3.590766939863947
 20
-10.32748856892461
 30
0.0
 10
3.571757733695196
 20
-10.34834164298718
 30
0.0
 10
3.551867307313664
 20
-10.36839152353344
 30
0.0
 10
3.532560686457271
 20
-10.38850185375354
 30
0.0
 10
3.528497547496499
 20
-10.38594286851162
 30
0.0
 10
3.526910896403579
 20
-10.38529358857691
 30
0.0
 10
3.525781056846678
 20
-10.3841805809298
 30
0.0
 10
3.501449432672314
 20
-10.36021110073976
 30
0.0
 10
3.477036629400622
 20
-10.33631911229331
 30
0.0
 10
3.45315640991723
 20
-10.31190653828715
 30
0.0
 10
3.451443529053575
 20
-10.31015556113728
 30
0.0
 10
3.452220930199574
 20
-10.3030912028642
 30
0.0
 10
3.454332045260495
 20
-10.30091952349676
 30
0.0
 10
3.476981892259244
 20
-10.27762010998134
 30
0.0
 10
3.500235280722765
 20
-10.25490899177404
 30
0.0
 10
3.523075055094143
 20
-10.23179138581101
 30
0.0
 10
3.528675629484243
 20
-10.22612271956336
 30
0.0
 10
3.531948069899246
 20
-10.22735716151088
 30
0.0
 10
3.537145480883534
 20
-10.23277378853713
 30
0.0
 10
3.554743787081077
 20
-10.25111395972607
 30
0.0
 10
3.573278604691116
 20
-10.26855464588296
 30
0.0
 10
3.590912676308814
 20
-10.2868620321034
 30
0.0
 10
3.59664198328485
 20
-10.29280994374673
 30
0.0
 10
3.60041787166243
 20
-10.29313404876125
 30
0.0
 10
3.60615711347739
 20
-10.28721540668183
 30
0.0
 10
3.620638784281936
 20
-10.27228105112052
 30
0.0
 10
3.635577037357001
 20
-10.25778910157878
 30
0.0
 10
3.650343417718633
 20
-10.24313116380515
 30
0.0
 10
3.667573485290303
 20
-10.22602765079702
 30
0.0
 10
3.667553309925071
 20
-10.2260586780632
 30
0.0
 10
3.684891208710016
 20
-10.24298374607984
 30
0.0
 10
3.692925398316926
 20
-10.25082653719374
 30
0.0
 10
3.701079990529453
 20
-10.25854590703946
 30
0.0
 10
3.711533084149424
 20
-10.26858009435497
 30
0.0
 10
3.711533084149424
 20
-10.25469401714405
 30
0.0
 10
3.710800160513094
 20
-10.24466449156062
 30
0.0
 10
3.71172872405441
 20
-10.2347912486357
 30
0.0
 10
3.71276240583375
 20
-10.22380033633158
 30
0.0
 10
3.709183150845067
 20
-10.22051931756525
 30
0.0
 10
3.697934849790903
 20
-10.22059711499625
 30
0.0
 10
3.623260473641822
 20
-10.22111426157324
 30
0.0
 10
3.548581015440529
 20
-10.22092924430371
 30
0.0
 10
3.47390321941422
 20
-10.22091388351431
 30
0.0
 10
3.445114100490046
 20
-10.22090792261095
 30
0.0
 10
3.444765636014709
 20
-10.22084197056486
 30
0.0
 10
3.445079347659252
 20
-10.24964666043845
 30
0.0
 10
3.445216009010866
 20
-10.26219726603219
 30
0.0
 10
3.442994903819756
 20
-10.26967705341611
 30
0.0
 10
3.427828875456877
 20
-10.27093831942872
 30
0.0
 10
3.410590936435912
 20
-10.27237191668577
 30
0.0
 10
3.401581374911933
 20
-10.28548254150759
 30
0.0
 10
3.400809896458415
 20
-10.30453037891541
 30
0.0
 10
3.400025292554194
 20
-10.32390201565039
 30
0.0
 10
3.409386547376142
 20
-10.33966623594938
 30
0.0
 10
3.424452291182281
 20
-10.3443440166469
 30
0.0
 10
3.444925281234089
 20
-10.35070070870112
 30
0.0
 10
3.444923179633532
 20
-10.35070078512295
 30
0.0
 10
3.444906481461935
 20
-10.372128780672
 30
0.0
 10
3.444903883119447
 20
-10.37546665728574
 30
0.0
 10
3.445262492593782
 20
-10.37884305050574
 30
0.0
 10
3.444880268771561
 20
-10.38213499759487
 30
0.0
 10
3.443781838590034
 20
-10.39159495122046
 30
0.0
 10
3.447960603791569
 20
-10.39423593709441
 30
0.0
 10
3.457118213520971
 20
-10.39410089970685
 30
0.0
 10
3.490071577497474
 20
-10.39361485681787
 30
0.0
 10
3.523035888902237
 20
-10.3938563498256
 30
0.0
 10
3.555996073527744
 20
-10.39385268157737
 30
0.0
 10
3.603559038465416
 20
-10.39384733204873
 30
0.0
 10
3.651121965192158
 20
-10.39387644876898
 30
0.0
 10
3.698684930129855
 20
-10.39386613182086
 30
0.0
 10
3.704489436194358
 20
-10.39386483264962
 30
0.0
 10
3.711241267361401
 20
-10.39489897296001
 30
0.0
 10
3.711393499662487
 20
-10.38604642010199
 30
0.0
 10
3.711605684895403
 20
-10.37370979565435
 30
0.0
 10
3.711446956738073
 20
-10.36136675177239
 30
0.0
 10
3.711446956738073
 20
-10.34600313474761
 30
0.0
  0
SPLINE
  5
B2
330
7C
100
AcDbEntity
  8
Layer 3
100
AcDbSpline
210
0.0
220
0.0
230
1.0
 70
     9
 71
     3
 72
    38
 73
    34
 74
     0
 42
0.0000000001
 43
0.0000000001
 40
0.0
 40
0.0
 40
0.0
 40
0.0
 40
1.0
 40
1.0
 40
1.0
 40
2.0
 40
2.0
 40
2.0
 40
3.0
 40
3.0
 40
3.0
 40
4.0
 40
4.0
 40
4.0
 40
5.0
 40
5.0
 40
5.0
 40
6.0
 40
6.0
 40
6.0
 40
7.0
 40
7.0
 40
7.0
 40
8.0
 40
8.0
 40
8.0
 40
9.0
 40
9.0
 40
9.0
 40
10.0
 40
10.0
 40
10.0
 40
11.0
 40
11.0
 40
11.0
 40
11.0
 10
4.58621078515638
 20
-10.34962598839484
 30
0.0
 10
4.605043112981371
 20
-10.36562910335909
 30
0.0
 10
4.620869311390909
 20
-10.37934468344969
 30
0.0
 10
4.637106659288317
 20
-10.39255473308261
 30
0.0
 10
4.639260838054901
 20
-10.39430739151284
 30
0.0
 10
4.643506223993603
 20
-10.39381393570556
 30
0.0
 10
4.64678349808984
 20
-10.39381508203311
 30
0.0
 10
4.769883794570104
 20
-10.3938565790911
 30
0.0
 10
4.892987606454956
 20
-10.39428744541315
 30
0.0
 10
5.016081024969758
 20
-10.39335678027128
 30
0.0
 10
5.035733206271666
 20
-10.39320821621845
 30
0.0
 10
5.056149911639876
 20
-10.3893215543868
 30
0.0
 10
5.074819919481114
 20
-10.3830292859419
 30
0.0
 10
5.14129667792291
 20
-10.36062507783559
 30
0.0
 10
5.183457841670866
 20
-10.31433866327812
 30
0.0
 10
5.202208398129313
 20
-10.24676968392908
 30
0.0
 10
5.205899420055907
 20
-10.23346922726197
 30
0.0
 10
5.197034028329173
 20
-10.22137982745996
 30
0.0
 10
5.1829092857185
 20
-10.22103356011247
 30
0.0
 10
5.165810358020658
 20
-10.22061438633159
 30
0.0
 10
5.148692477707021
 20
-10.22103531781474
 30
0.0
 10
5.131586519200102
 20
-10.2208059758792
 30
0.0
 10
5.125168307566354
 20
-10.22071992488971
 30
0.0
 10
5.122103791866796
 20
-10.2224846579704
 30
0.0
 10
5.121126050872817
 20
-10.22969429415734
 30
0.0
 10
5.111261672881052
 20
-10.30244024164901
 30
0.0
 10
5.058712947239124
 20
-10.34832765779086
 30
0.0
 10
4.985414622703223
 20
-10.34837167676947
 30
0.0
 10
4.856889904169165
 20
-10.34844886282573
 30
0.0
 10
4.728365032791543
 20
-10.34836151266505
 30
0.0
 10
4.599840314257486
 20
-10.34838917737036
 30
0.0
 10
4.596732696641361
 20
-10.34838986516688
 30
0.0
 10
4.593624926181569
 20
-10.34893330085613
 30
0.0
 10
4.58621078515638
 20
-10.34962598839484
 30
0.0
  0
SPLINE
  5
B3
330
7C
100
AcDbEntity
  8
Layer 3
100
AcDbSpline
210
0.0
220
0.0
230
1.0
 70
     9
 71
     3
 72
    35
 73
    31
 74
     0
 42
0.0000000001
 43
0.0000000001
 40
0.0
 40
0.0
 40
0.0
 40
0.0
 40
1.0
 40
1.0
 40
1.0
 40
2.0
 40
2.0
 40
2.0
 40
3.0
 40
3.0
 40
3.0
 40
4.0
 40
4.0
 40
4.0
 40
5.0
 40
5.0
 40
5.0
 40
6.0
 40
6.0
 40
6.0
 40
7.0
 40
7.0
 40
7.0
 40
8.0
 40
8.0
 40
8.0
 40
9.0
 40
9.0
 40
9.0
 40
10.0
 40
10.0
 40
10.0
 40
10.0
 10
4.668296398300778
 20
-10.58665015274836
 30
0.0
 10
4.689736086391071
 20
-10.5623608471667
 30
0.0
 10
4.710462300202707
 20
-10.53917002908295
 30
0.0
 10
4.730604039798158
 20
-10.51548246905286
 30
0.0
 10
4.732134463523808
 20
-10.51368273477048
 30
0.0
 10
4.730844615743863
 20
-10.50688761063227
 30
0.0
 10
4.728631592162072
 20
-10.50489040232072
 30
0.0
 10
4.69434631018387
 20
-10.47395216757675
 30
0.0
 10
4.659762983037858
 20
-10.44334254673574
 30
0.0
 10
4.625105526709047
 20
-10.41281905330601
 30
0.0
 10
4.572980789423809
 20
-10.36691153822082
 30
0.0
 10
4.520756856592949
 20
-10.32111643965913
 30
0.0
 10
4.46854285860104
 20
-10.275310259931
 30
0.0
 10
4.459744718091593
 20
-10.26759188356919
 30
0.0
 10
4.450784028332969
 20
-10.26005883016422
 30
0.0
 10
4.439608480868502
 20
-10.25047660159804
 30
0.0
 10
4.440181873918214
 20
-10.25856478323339
 30
0.0
 10
4.440401357436636
 20
-10.26308406503911
 30
0.0
 10
4.440836885490802
 20
-10.26758240726124
 30
0.0
 10
4.444725916399394
 20
-10.30774995452407
 30
0.0
 10
4.448326225604457
 20
-10.34795120381737
 30
0.0
 10
4.452915433391833
 20
-10.38803904310324
 30
0.0
 10
4.45361790292577
 20
-10.39417541099881
 30
0.0
 10
4.457648008547114
 20
-10.4012237971078
 30
0.0
 10
4.462323725855008
 20
-10.40541064391871
 30
0.0
 10
4.505109179596703
 20
-10.44372205758269
 30
0.0
 10
4.548360271596745
 20
-10.48151387917088
 30
0.0
 10
4.591511862363782
 20
-10.51941590104931
 30
0.0
 10
4.61676240182247
 20
-10.54159474115565
 30
0.0
 10
4.642078969749061
 20
-10.56369822932985
 30
0.0
 10
4.668296398300778
 20
-10.58665015274836
 30
0.0
  0
SPLINE
  5
B4
330
7C
100
AcDbEntity
  8
Layer 3
100
AcDbSpline
210
0.0
220
0.0
230
1.0
 70
     9
 71
     3
 72
    32
 73
    28
 74
     0
 42
0.0000000001
 43
0.0000000001
 40
0.0
 40
0.0
 40
0.0
 40
0.0
 40
1.0
 40
1.0
 40
1.0
 40
2.0
 40
2.0
 40
2.0
 40
3.0
 40
3.0
 40
3.0
 40
4.0
 40
4.0
 40
4.0
 40
5.0
 40
5.0
 40
5.0
 40
6.0
 40
6.0
 40
6.0
 40
7.0
 40
7.0
 40
7.0
 40
8.0
 40
8.0
 40
8.0
 40
9.0
 40
9.0
 40
9.0
 40
9.0
 10
3.692348795550035
 20
-9.726829544824568
 30
0.0
 10
3.703831979122949
 20
-9.695797043743544
 30
0.0
 10
3.713756042570088
 20
-9.666677495897777
 30
0.0
 10
3.725566349820105
 20
-9.638344137709383
 30
0.0
 10
3.729550143807702
 20
-9.628786746240468
 30
0.0
 10
3.72872081402286
 20
-9.623496253457611
 30
0.0
 10
3.721334949077724
 20
-9.617040747967013
 30
0.0
 10
3.665186028863546
 20
-9.567964477795333
 30
0.0
 10
3.609259878306829
 20
-9.518633455427107
 30
0.0
 10
3.553253217343883
 20
-9.469394406740699
 30
0.0
 10
3.494745174099357
 20
-9.41795620503616
 30
0.0
 10
3.436092005784656
 20
-9.366681316799207
 30
0.0
 10
3.377883459722852
 20
-9.314906505556917
 30
0.0
 10
3.3708650309743
 20
-9.308663815779405
 30
0.0
 10
3.367373135699027
 20
-9.30920088935065
 30
0.0
 10
3.362232076267471
 20
-9.316209354602101
 30
0.0
 10
3.336757649481948
 20
-9.350936975730796
 30
0.0
 10
3.336286623484106
 20
-9.402779878830616
 30
0.0
 10
3.36541310661164
 20
-9.434730435450243
 30
0.0
 10
3.38998399800774
 20
-9.461683748984492
 30
0.0
 10
3.418137153502407
 20
-9.485464505445886
 30
0.0
 10
3.445472557120713
 20
-9.509786538679614
 30
0.0
 10
3.517054542704853
 20
-9.57347762560289
 30
0.0
 10
3.589035526704643
 20
-9.636720517552374
 30
0.0
 10
3.660914392023515
 20
-9.700077469094923
 30
0.0
 10
3.671360569467146
 20
-9.709285192444566
 30
0.0
 10
3.682119082962243
 20
-9.718138624153702
 30
0.0
 10
3.692348795550035
 20
-9.726829544824568
 30
0.0
  0
SPLINE
  5
B5
330
7C
100
AcDbEntity
  8
Layer 3
100
AcDbSpline
210
0.0
220
0.0
230
1.0
 70
     9
 71
     3
 72
    44
 73
    40
 74
     0
 42
0.0000000001
 43
0.0000000001
 40
0.0
 40
0.0
 40
0.0
 40
0.0
 40
1.0
 40
1.0
 40
1.0
 40
2.0
 40
2.0
 40
2.0
 40
3.0
 40
3.0
 40
3.0
 40
4.0
 40
4.0
 40
4.0
 40
5.0
 40
5.0
 40
5.0
 40
6.0
 40
6.0
 40
6.0
 40
7.0
 40
7.0
 40
7.0
 40
8.0
 40
8.0
 40
8.0
 40
9.0
 40
9.0
 40
9.0
 40
10.0
 40
10.0
 40
10.0
 40
11.0
 40
11.0
 40
11.0
 40
12.0
 40
12.0
 40
12.0
 40
13.0
 40
13.0
 40
13.0
 40
13.0
 10
4.506997563211093
 20
-10.27862918392886
 30
0.0
 10
4.509111849778315
 20
-10.28098771469
 30
0.0
 10
4.511003901640858
 20
-10.28360241145171
 30
0.0
 10
4.513377411082197
 20
-10.28566213282665
 30
0.0
 10
4.526265648355724
 20
-10.29684608669329
 30
0.0
 10
4.538955494538109
 20
-10.30830080313161
 30
0.0
 10
4.552408489193642
 20
-10.31876929575188
 30
0.0
 10
4.557223829199377
 20
-10.32251641130756
 30
0.0
 10
4.563976157108375
 20
-10.32583648163303
 30
0.0
 10
4.569854524879221
 20
-10.32585352370286
 30
0.0
 10
4.709575195508452
 20
-10.32625863586557
 30
0.0
 10
4.849297547418069
 20
-10.32617610028064
 30
0.0
 10
4.989019440796684
 20
-10.32620949662378
 30
0.0
 10
5.017852177484832
 20
-10.32621637458919
 30
0.0
 10
5.04295613985841
 20
-10.31644385564661
 30
0.0
 10
5.063998587235269
 20
-10.29690936397507
 30
0.0
 10
5.085570026574032
 20
-10.27688378557321
 30
0.0
 10
5.097181102092715
 20
-10.25203988671397
 30
0.0
 10
5.099325040332965
 20
-10.2208999747398
 30
0.0
 10
5.092636295393099
 20
-10.2208999747398
 30
0.0
 10
5.087311680259643
 20
-10.22090028042716
 30
0.0
 10
5.081987217969905
 20
-10.2208999747398
 30
0.0
 10
4.960199542977306
 20
-10.22089386099279
 30
0.0
 10
4.838411562297374
 20
-10.22098556719826
 30
0.0
 10
4.71662465152316
 20
-10.22069997879003
 30
0.0
 10
4.706591992644385
 20
-10.22067651728581
 30
0.0
 10
4.699495460777521
 20
-10.2216096279265
 30
0.0
 10
4.695388398365366
 20
-10.23268414572127
 30
0.0
 10
4.693342127233917
 20
-10.23820111462073
 30
0.0
 10
4.68676297120962
 20
-10.24268470742815
 30
0.0
 10
4.681294224489874
 20
-10.24615418244672
 30
0.0
 10
4.668645340412618
 20
-10.25417939248768
 30
0.0
 10
4.655704677758294
 20
-10.2618618505857
 30
0.0
 10
4.642325659441793
 20
-10.26857359849876
 30
0.0
 10
4.634646334639177
 20
-10.27242617619069
 30
0.0
 10
4.626007304396225
 20
-10.27584750545138
 30
0.0
 10
4.617579351269569
 20
-10.27646973205552
 30
0.0
 10
4.581026633361008
 20
-10.27916811072974
 30
0.0
 10
4.544490728256808
 20
-10.28969353761926
 30
0.0
 10
4.506997563211093
 20
-10.27862918392886
 30
0.0
  0
SPLINE
  5
B6
330
7C
100
AcDbEntity
  8
Layer 3
100
AcDbSpline
210
0.0
220
0.0
230
1.0
 70
     9
 71
     3
 72
    29
 73
    25
 74
     0
 42
0.0000000001
 43
0.0000000001
 40
0.0
 40
0.0
 40
0.0
 40
0.0
 40
1.0
 40
1.0
 40
1.0
 40
2.0
 40
2.0
 40
2.0
 40
3.0
 40
3.0
 40
3.0
 40
4.0
 40
4.0
 40
4.0
 40
5.0
 40
5.0
 40
5.0
 40
6.0
 40
6.0
 40
6.0
 40
7.0
 40
7.0
 40
7.0
 40
8.0
 40
8.0
 40
8.0
 40
8.0
 10
3.893826641178217
 20
-10.45183377714417
 30
0.0
 10
3.894066300061846
 20
-10.45584156758885
 30
0.0
 10
3.893685260778132
 20
-10.45925273274512
 30
0.0
 10
3.894552801481874
 20
-10.46230960626091
 30
0.0
 10
3.898632963407054
 20
-10.47668600598374
 30
0.0
 10
3.902452832552373
 20
-10.49117971322776
 30
0.0
 10
3.907455482482772
 20
-10.50524377689915
 30
0.0
 10
3.93752900413099
 20
-10.58978986753638
 30
0.0
 10
3.99875764569909
 20
-10.63891734033942
 30
0.0
 10
4.084565613723624
 20
-10.65933633836279
 30
0.0
 10
4.123084741943052
 20
-10.66850237359982
 30
0.0
 10
4.162272790509556
 20
-10.66827356661717
 30
0.0
 10
4.201464660167983
 20
-10.66495533041577
 30
0.0
 10
4.247709042714606
 20
-10.66104008681681
 30
0.0
 10
4.291901116804587
 20
-10.6497272093096
 30
0.0
 10
4.330892761247747
 20
-10.6236921232631
 30
0.0
 10
4.380356872246693
 20
-10.59066443904925
 30
0.0
 10
4.407105585415466
 20
-10.54243140743693
 30
0.0
 10
4.419681563059358
 20
-10.48541047584141
 30
0.0
 10
4.421833296327122
 20
-10.47565476970322
 30
0.0
 10
4.423844642678659
 20
-10.4658681127206
 30
0.0
 10
4.425964737305522
 20
-10.45588856701917
 30
0.0
 10
4.246843030447583
 20
-10.54624011899391
 30
0.0
 10
4.07091277596199
 20
-10.53907832287748
 30
0.0
 10
3.893826641178217
 20
-10.45183377714417
 30
0.0
  0
SPLINE
  5
B7
330
7C
100
AcDbEntity
  8
Layer 3
100
AcDbSpline
210
0.0
220
0.0
230
1.0
 70
     9
 71
     3
 72
   122
 73
   118
 74
     0
 42
0.0000000001
 43
0.0000000001
 40
0.0
 40
0.0
 40
0.0
 40
0.0
 40
1.0
 40
1.0
 40
1.0
 40
2.0
 40
2.0
 40
2.0
 40
3.0
 40
3.0
 40
3.0
 40
4.0
 40
4.0
 40
4.0
 40
5.0
 40
5.0
 40
5.0
 40
6.0
 40
6.0
 40
6.0
 40
7.0
 40
7.0
 40
7.0
 40
8.0
 40
8.0
 40
8.0
 40
9.0
 40
9.0
 40
9.0
 40
10.0
 40
10.0
 40
10.0
 40
11.0
 40
11.0
 40
11.0
 40
12.0
 40
12.0
 40
12.0
 40
13.0
 40
13.0
 40
13.0
 40
14.0
 40
14.0
 40
14.0
 40
15.0
 40
15.0
 40
15.0
 40
16.0
 40
16.0
 40
16.0
 40
17.0
 40
17.0
 40
17.0
 40
18.0
 40
18.0
 40
18.0
 40
19.0
 40
19.0
 40
19.0
 40
20.0
 40
20.0
 40
20.0
 40
21.0
 40
21.0
 40
21.0
 40
22.0
 40
22.0
 40
22.0
 40
23.0
 40
23.0
 40
23.0
 40
24.0
 40
24.0
 40
24.0
 40
25.0
 40
25.0
 40
25.0
 40
26.0
 40
26.0
 40
26.0
 40
27.0
 40
27.0
 40
27.0
 40
28.0
 40
28.0
 40
28.0
 40
29.0
 40
29.0
 40
29.0
 40
30.0
 40
30.0
 40
30.0
 40
31.0
 40
31.0
 40
31.0
 40
32.0
 40
32.0
 40
32.0
 40
33.0
 40
33.0
 40
33.0
 40
34.0
 40
34.0
 40
34.0
 40
35.0
 40
35.0
 40
35.0
 40
36.0
 40
36.0
 40
36.0
 40
37.0
 40
37.0
 40
37.0
 40
38.0
 40
38.0
 40
38.0
 40
39.0
 40
39.0
 40
39.0
 40
39.0
 10
4.611144938206178
 20
-9.929119639956802
 30
0.0
 10
4.609926621266493
 20
-9.928517817983395
 30
0.0
 10
4.608708457170425
 20
-9.927915919588157
 30
0.0
 10
4.60749014023074
 20
-9.927314097614726
 30
0.0
 10
4.607173906665517
 20
-9.92704264724653
 30
0.0
 10
4.606858743006063
 20
-9.926534518446361
 30
0.0
 10
4.606541439535122
 20
-9.926533219275116
 30
0.0
 10
4.542722479771605
 20
-9.926277511805539
 30
0.0
 10
4.478903290742512
 20
-9.925983134885957
 30
0.0
 10
4.415084865931854
 20
-9.926103728546143
 30
0.0
 10
4.41248407794463
 20
-9.926108619543784
 30
0.0
 10
4.407839693590251
 20
-9.929839304404266
 30
0.0
 10
4.407621203555739
 20
-9.932160999839474
 30
0.0
 10
4.405999684999313
 20
-9.949392977957131
 30
0.0
 10
4.405258011062541
 20
-9.966707797346998
 30
0.0
 10
4.403992465426982
 20
-9.988200904301921
 30
0.0
 10
4.450431494394782
 20
-9.9793166363812
 30
0.0
 10
4.493869284944771
 20
-9.971006449306715
 30
0.0
 10
4.53972536813305
 20
-9.962233604425616
 30
0.0
 10
4.535557779625301
 20
-9.966722088230703
 30
0.0
 10
4.532832729729685
 20
-9.970078458929164
 30
0.0
 10
4.529687512569302
 20
-9.972979279051969
 30
0.0
 10
4.496643779769505
 20
-10.00345470314566
 30
0.0
 10
4.456804922831477
 20
-10.01911178002794
 30
0.0
 10
4.412939704942169
 20
-10.02498732019077
 30
0.0
 10
4.402659286464944
 20
-10.02636436528779
 30
0.0
 10
4.399178959545401
 20
-10.030104144347
 30
0.0
 10
4.397900651462931
 20
-10.04013015452587
 30
0.0
 10
4.394269009304354
 20
-10.06861112149416
 30
0.0
 10
4.389613161674307
 20
-10.09697004278736
 30
0.0
 10
4.384841917069049
 20
-10.12528960683405
 30
0.0
 10
4.38398163643986
 20
-10.1303955790893
 30
0.0
 10
4.380655452367363
 20
-10.13508596939004
 30
0.0
 10
4.378467647992112
 20
-10.13996825492578
 30
0.0
 10
4.377209056743822
 20
-10.13973914225577
 30
0.0
 10
4.375950389073724
 20
-10.13951002958576
 30
0.0
 10
4.374691797825436
 20
-10.13928091691574
 30
0.0
 10
4.373927273759136
 20
-10.13288280422539
 30
0.0
 10
4.372947010844478
 20
-10.12650196287043
 30
0.0
 10
4.372435748748936
 20
-10.12008367481482
 30
0.0
 10
4.370349126887074
 20
-10.09389024272024
 30
0.0
 10
4.3680178023003
 20
-10.06770659262088
 30
0.0
 10
4.366588561087988
 20
-10.04147510245098
 30
0.0
 10
4.36596113779885
 20
-10.02995917212049
 30
0.0
 10
4.36180600605073
 20
-10.0253734033158
 30
0.0
 10
4.349741519767854
 20
-10.02372865252063
 30
0.0
 10
4.313718940148772
 20
-10.01881778521755
 30
0.0
 10
4.280633481025461
 20
-10.00549707676338
 30
0.0
 10
4.251430862641907
 20
-9.983509061986245
 30
0.0
 10
4.243469694101096
 20
-9.977514685865495
 30
0.0
 10
4.236331818019936
 20
-9.970426713244478
 30
0.0
 10
4.228816112372214
 20
-9.963840602832886
 30
0.0
 10
4.244814642026211
 20
-9.964467185481781
 30
0.0
 10
4.258790897005837
 20
-9.968133446732911
 30
0.0
 10
4.272959429329628
 20
-9.970765796939202
 30
0.0
 10
4.299562329631649
 20
-9.975708150039508
 30
0.0
 10
4.326274513161908
 20
-9.980062666362728
 30
0.0
 10
4.352945199634202
 20
-9.984639111703168
 30
0.0
 10
4.3594280641428
 20
-9.985751507975566
 30
0.0
 10
4.362181772227637
 20
-9.983260996700437
 30
0.0
 10
4.361702989413237
 20
-9.976428502283471
 30
0.0
 10
4.360770490147261
 20
-9.963120709119921
 30
0.0
 10
4.35993840917624
 20
-9.949782500064857
 30
0.0
 10
4.359815446439092
 20
-9.936450022647653
 30
0.0
 10
4.359739635975907
 20
-9.928240483133675
 30
0.0
 10
4.356354989197395
 20
-9.925704500864993
 30
0.0
 10
4.348458397109602
 20
-9.925725058339367
 30
0.0
 10
4.275020526297642
 20
-9.925916495043338
 30
0.0
 10
4.201581814845464
 20
-9.92589066446208
 30
0.0
 10
4.128143638346172
 20
-9.925761435134214
 30
0.0
 10
4.12115677181666
 20
-9.925749131218328
 30
0.0
 10
4.117896845477616
 20
-9.927513864298967
 30
0.0
 10
4.117134766910137
 20
-9.935407858044273
 30
0.0
 10
4.114109990566273
 20
-9.96674004736259
 30
0.0
 10
4.103568362247111
 20
-9.995219409472332
 30
0.0
 10
4.083968606326026
 20
-10.02034476996052
 30
0.0
 10
4.036751908735848
 20
-10.08087292896248
 30
0.0
 10
3.953327843522553
 20
-10.09724867680832
 30
0.0
 10
3.889136632986643
 20
-10.06525230529688
 30
0.0
 10
3.836238888811067
 20
-10.03888516636473
 30
0.0
 10
3.806358026616205
 20
-9.995706216579693
 30
0.0
 10
3.799994036276454
 20
-9.936813408486814
 30
0.0
 10
3.799072503544241
 20
-9.928285266330677
 30
0.0
 10
3.795895685953862
 20
-9.925418683191283
 30
0.0
 10
3.787468802732923
 20
-9.925654826670349
 30
0.0
 10
3.769540583461169
 20
-9.926156994567135
 30
0.0
 10
3.751588214888645
 20
-9.925739425644906
 30
0.0
 10
3.733646774638954
 20
-9.925858032337322
 30
0.0
 10
3.727261195130015
 20
-9.925900293613645
 30
0.0
 10
3.720878634283685
 20
-9.92640322572884
 30
0.0
 10
3.713660056741673
 20
-9.926734208708795
 30
0.0
 10
3.714451175607564
 20
-9.931109970302914
 30
0.0
 10
3.714806842841122
 20
-9.933521767085064
 30
0.0
 10
3.715328307251992
 20
-9.935897110650481
 30
0.0
 10
3.732500867390651
 20
-10.0141252551053
 30
0.0
 10
3.767939928066501
 20
-10.08329947515929
 30
0.0
 10
3.821640369016399
 20
-10.14237271521144
 30
0.0
 10
3.897903669808051
 20
-10.22626646904043
 30
0.0
 10
3.992522464367109
 20
-10.27673430445831
 30
0.0
 10
4.105463318139527
 20
-10.29061793617039
 30
0.0
 10
4.218374138129673
 20
-10.30449797605615
 30
0.0
 10
4.322480245332295
 20
-10.27907800938285
 30
0.0
 10
4.417007027998579
 20
-10.2160707259596
 30
0.0
 10
4.465302878361677
 20
-10.18387902023048
 30
0.0
 10
4.506131550944069
 20
-10.14361602209217
 30
0.0
 10
4.538295515546021
 20
-10.09503145002552
 30
0.0
 10
4.540472773707657
 20
-10.09174248338803
 30
0.0
 10
4.541999070654102
 20
-10.08638951575272
 30
0.0
 10
4.540946741946274
 20
-10.08285424153175
 30
0.0
 10
4.532627154985751
 20
-10.05490570550803
 30
0.0
 10
4.548651897330146
 20
-10.02295518709931
 30
0.0
 10
4.576088712727267
 20
-10.01344693487216
 30
0.0
 10
4.579714928935396
 20
-10.01219025416983
 30
0.0
 10
4.584743333025143
 20
-10.00993580995196
 30
0.0
 10
4.585760813374867
 20
-10.00698462783801
 30
0.0
 10
4.594656468149448
 20
-9.981179418679857
 30
0.0
 10
4.602787293170396
 20
-9.955110401337327
 30
0.0
 10
4.611144938206178
 20
-9.929119639956802
 30
0.0
  0
SPLINE
  5
B8
330
7C
100
AcDbEntity
  8
Layer 3
100
AcDbSpline
210
0.0
220
0.0
230
1.0
 70
     9
 71
     3
 72
   329
 73
   325
 74
     0
 42
0.0000000001
 43
0.0000000001
 40
0.0
 40
0.0
 40
0.0
 40
0.0
 40
1.0
 40
1.0
 40
1.0
 40
2.0
 40
2.0
 40
2.0
 40
3.0
 40
3.0
 40
3.0
 40
4.0
 40
4.0
 40
4.0
 40
5.0
 40
5.0
 40
5.0
 40
6.0
 40
6.0
 40
6.0
 40
7.0
 40
7.0
 40
7.0
 40
8.0
 40
8.0
 40
8.0
 40
9.0
 40
9.0
 40
9.0
 40
10.0
 40
10.0
 40
10.0
 40
11.0
 40
11.0
 40
11.0
 40
12.0
 40
12.0
 40
12.0
 40
13.0
 40
13.0
 40
13.0
 40
14.0
 40
14.0
 40
14.0
 40
15.0
 40
15.0
 40
15.0
 40
16.0
 40
16.0
 40
16.0
 40
17.0
 40
17.0
 40
17.0
 40
18.0
 40
18.0
 40
18.0
 40
19.0
 40
19.0
 40
19.0
 40
20.0
 40
20.0
 40
20.0
 40
21.0
 40
21.0
 40
21.0
 40
22.0
 40
22.0
 40
22.0
 40
23.0
 40
23.0
 40
23.0
 40
24.0
 40
24.0
 40
24.0
 40
25.0
 40
25.0
 40
25.0
 40
26.0
 40
26.0
 40
26.0
 40
27.0
 40
27.0
 40
27.0
 40
28.0
 40
28.0
 40
28.0
 40
29.0
 40
29.0
 40
29.0
 40
30.0
 40
30.0
 40
30.0
 40
31.0
 40
31.0
 40
31.0
 40
32.0
 40
32.0
 40
32.0
 40
33.0
 40
33.0
 40
33.0
 40
34.0
 40
34.0
 40
34.0
 40
35.0
 40
35.0
 40
35.0
 40
36.0
 40
36.0
 40
36.0
 40
37.0
 40
37.0
 40
37.0
 40
38.0
 40
38.0
 40
38.0
 40
39.0
 40
39.0
 40
39.0
 40
40.0
 40
40.0
 40
40.0
 40
41.0
 40
41.0
 40
41.0
 40
42.0
 40
42.0
 40
42.0
 40
43.0
 40
43.0
 40
43.0
 40
44.0
 40
44.0
 40
44.0
 40
45.0
 40
45.0
 40
45.0
 40
46.0
 40
46.0
 40
46.0
 40
47.0
 40
47.0
 40
47.0
 40
48.0
 40
48.0
 40
48.0
 40
49.0
 40
49.0
 40
49.0
 40
50.0
 40
50.0
 40
50.0
 40
51.0
 40
51.0
 40
51.0
 40
52.0
 40
52.0
 40
52.0
 40
53.0
 40
53.0
 40
53.0
 40
54.0
 40
54.0
 40
54.0
 40
55.0
 40
55.0
 40
55.0
 40
56.0
 40
56.0
 40
56.0
 40
57.0
 40
57.0
 40
57.0
 40
58.0
 40
58.0
 40
58.0
 40
59.0
 40
59.0
 40
59.0
 40
60.0
 40
60.0
 40
60.0
 40
61.0
 40
61.0
 40
61.0
 40
62.0
 40
62.0
 40
62.0
 40
63.0
 40
63.0
 40
63.0
 40
64.0
 40
64.0
 40
64.0
 40
65.0
 40
65.0
 40
65.0
 40
66.0
 40
66.0
 40
66.0
 40
67.0
 40
67.0
 40
67.0
 40
68.0
 40
68.0
 40
68.0
 40
69.0
 40
69.0
 40
69.0
 40
70.0
 40
70.0
 40
70.0
 40
71.0
 40
71.0
 40
71.0
 40
72.0
 40
72.0
 40
72.0
 40
73.0
 40
73.0
 40
73.0
 40
74.0
 40
74.0
 40
74.0
 40
75.0
 40
75.0
 40
75.0
 40
76.0
 40
76.0
 40
76.0
 40
77.0
 40
77.0
 40
77.0
 40
78.0
 40
78.0
 40
78.0
 40
79.0
 40
79.0
 40
79.0
 40
80.0
 40
80.0
 40
80.0
 40
81.0
 40
81.0
 40
81.0
 40
82.0
 40
82.0
 40
82.0
 40
83.0
 40
83.0
 40
83.0
 40
84.0
 40
84.0
 40
84.0
 40
85.0
 40
85.0
 40
85.0
 40
86.0
 40
86.0
 40
86.0
 40
87.0
 40
87.0
 40
87.0
 40
88.0
 40
88.0
 40
88.0
 40
89.0
 40
89.0
 40
89.0
 40
90.0
 40
90.0
 40
90.0
 40
91.0
 40
91.0
 40
91.0
 40
92.0
 40
92.0
 40
92.0
 40
93.0
 40
93.0
 40
93.0
 40
94.0
 40
94.0
 40
94.0
 40
95.0
 40
95.0
 40
95.0
 40
96.0
 40
96.0
 40
96.0
 40
97.0
 40
97.0
 40
97.0
 40
98.0
 40
98.0
 40
98.0
 40
99.0
 40
99.0
 40
99.0
 40
100.0
 40
100.0
 40
100.0
 40
101.0
 40
101.0
 40
101.0
 40
102.0
 40
102.0
 40
102.0
 40
103.0
 40
103.0
 40
103.0
 40
104.0
 40
104.0
 40
104.0
 40
105.0
 40
105.0
 40
105.0
 40
106.0
 40
106.0
 40
106.0
 40
107.0
 40
107.0
 40
107.0
 40
108.0
 40
108.0
 40
108.0
 40
108.0
 10
3.536525355879929
 20
-10.5434423155086
 30
0.0
 10
3.525892460780874
 20
-10.53092518267987
 30
0.0
 10
3.516059664113678
 20
-10.51873773365981
 30
0.0
 10
3.505562398671422
 20
-10.50715218303503
 30
0.0
 10
3.493291726269894
 20
-10.49360962198544
 30
0.0
 10
3.493189492956263
 20
-10.49174233079836
 30
0.0
 10
3.507181261568979
 20
-10.47941212578512
 30
0.0
 10
3.516565786840576
 20
-10.47114221301922
 30
0.0
 10
3.525778878824338
 20
-10.46267696603564
 30
0.0
 10
3.535199780890757
 20
-10.45444916170244
 30
0.0
 10
3.546111940490921
 20
-10.44491905282967
 30
0.0
 10
3.552023016808359
 20
-10.4454650868614
 30
0.0
 10
3.561347971257317
 20
-10.45617201561589
 30
0.0
 10
3.571706836751142
 20
-10.46806615762213
 30
0.0
 10
3.58224173994856
 20
-10.47980707384337
 30
0.0
 10
3.593989495924258
 20
-10.49307069518461
 30
0.0
 10
3.622242840448431
 20
-10.46849198010288
 30
0.0
 10
3.649924167515943
 20
-10.4444109240295
 30
0.0
 10
3.67760549458343
 20
-10.42032986795609
 30
0.0
 10
3.677308977852412
 20
-10.41932545574069
 30
0.0
 10
3.67701246112137
 20
-10.41832104352521
 30
0.0
 10
3.676715944390353
 20
-10.41731663130978
 30
0.0
 10
3.672914072587875
 20
-10.41712572955872
 30
0.0
 10
3.669112238996275
 20
-10.41676937452863
 30
0.0
 10
3.665310252561059
 20
-10.4167679225137
 30
0.0
 10
3.563898550097039
 20
-10.41672917664186
 30
0.0
 10
3.462486121625589
 20
-10.41655187797795
 30
0.0
 10
3.361076176863864
 20
-10.41696906479102
 30
0.0
 10
3.350010017707593
 20
-10.41701453578457
 30
0.0
 10
3.346891662823231
 20
-10.41391127421318
 30
0.0
 10
3.346972622207759
 20
-10.40295727365676
 30
0.0
 10
3.347444507951295
 20
-10.33911049634424
 30
0.0
 10
3.347209109585112
 20
-10.27525844592489
 30
0.0
 10
3.347258936623448
 20
-10.21140822962964
 30
0.0
 10
3.347262127235151
 20
-10.20731568736674
 30
0.0
 10
3.347653703179806
 20
-10.20322337436932
 30
0.0
 10
3.347944918145837
 20
-10.19757251440991
 30
0.0
 10
3.355349563757625
 20
-10.19757251440991
 30
0.0
 10
3.361898953476106
 20
-10.19757243798808
 30
0.0
 10
3.368448352747312
 20
-10.19757251440991
 30
0.0
 10
3.477372140374452
 20
-10.19757282009724
 30
0.0
 10
3.586295918448866
 20
-10.19757885742246
 30
0.0
 10
3.695219696523281
 20
-10.19756716488127
 30
0.0
 10
3.71131635181713
 20
-10.197565407179
 30
0.0
 10
3.711305461705225
 20
-10.19752643204166
 30
0.0
 10
3.711325178539406
 20
-10.18116367590824
 30
0.0
 10
3.71133729140072
 20
-10.17114813552115
 30
0.0
 10
3.711036991788684
 20
-10.16111593517341
 30
0.0
 10
3.711511074660089
 20
-10.15112133436992
 30
0.0
 10
3.71211935427881
 20
-10.13829935482982
 30
0.0
 10
3.719305223274179
 20
-10.13112227434582
 30
0.0
 10
3.732034235648446
 20
-10.13057753948533
 30
0.0
 10
3.742443157446081
 20
-10.13013192374857
 30
0.0
 10
3.752883259353615
 20
-10.13035599257728
 30
0.0
 10
3.763309299642944
 20
-10.13038082967455
 30
0.0
 10
3.779361935958174
 20
-10.13041911701533
 30
0.0
 10
3.787743883138444
 20
-10.13853037804582
 30
0.0
 10
3.788174634827706
 20
-10.15482786992965
 30
0.0
 10
3.788472259675396
 20
-10.16608862774337
 30
0.0
 10
3.787843193316777
 20
-10.17739157041162
 30
0.0
 10
3.788596330529217
 20
-10.18861075474557
 30
0.0
 10
3.788802860546133
 20
-10.19168742151732
 30
0.0
 10
3.79237458798381
 20
-10.1969747427939
 30
0.0
 10
3.794608703992808
 20
-10.19708555445883
 30
0.0
 10
3.809797964594432
 20
-10.19783953231151
 30
0.0
 10
3.825042478184842
 20
-10.19748004398606
 30
0.0
 10
3.842927442696337
 20
-10.19748004398606
 30
0.0
 10
3.827672268259549
 20
-10.18146225602891
 30
0.0
 10
3.814274794069206
 20
-10.1680773532309
 30
0.0
 10
3.801641385414111
 20
-10.15400648801594
 30
0.0
 10
3.757878763842174
 20
-10.10526395201034
 30
0.0
 10
3.726211120866436
 20
-10.04927578513219
 30
0.0
 10
3.705594725235818
 20
-9.987349641449629
 30
0.0
 10
3.691733637965903
 20
-9.945714871321088
 30
0.0
 10
3.682854948839323
 20
-9.902750437635024
 30
0.0
 10
3.682375096119181
 20
-9.85861354011202
 30
0.0
 10
3.682247165962558
 20
-9.846841978733765
 30
0.0
 10
3.677329000373926
 20
-9.839314733388542
 30
0.0
 10
3.669065010300477
 20
-9.832091646958133
 30
0.0
 10
3.60821129426909
 20
-9.77890269736925
 30
0.0
 10
3.5475336541522
 20
-9.725512185182953
 30
0.0
 10
3.4868373862123
 20
-9.672143223954915
 30
0.0
 10
3.424877005546376
 20
-9.61766282172746
 30
0.0
 10
3.363010060129984
 20
-9.563075963879857
 30
0.0
 10
3.301007838507782
 20
-9.508643229773774
 30
0.0
 10
3.232877028494284
 20
-9.448830092592617
 30
0.0
 10
3.207880226851759
 20
-9.354014091480873
 30
0.0
 10
3.238339602956532
 20
-9.268294825328261
 30
0.0
 10
3.242199118318441
 20
-9.257433314301149
 30
0.0
 10
3.247711652363073
 20
-9.246865630911669
 30
0.0
 10
3.254107737486542
 20
-9.237260103237581
 30
0.0
 10
3.267447006894599
 20
-9.217227417604817
 30
0.0
 10
3.293123664968662
 20
-9.212415689725048
 30
0.0
 10
3.312165245338494
 20
-9.227908933710093
 30
0.0
 10
3.34218404895076
 20
-9.252333833125753
 30
0.0
 10
3.370842677586703
 20
-9.278436915502551
 30
0.0
 10
3.399947972759719
 20
-9.303976721170378
 30
0.0
 10
3.462270478304516
 20
-9.35866451316042
 30
0.0
 10
3.524551964427852
 20
-9.413399209053446
 30
0.0
 10
3.58677003953115
 20
-9.46820576057957
 30
0.0
 10
3.630868152971465
 20
-9.507050827937593
 30
0.0
 10
3.674820721021483
 20
-9.546061023781854
 30
0.0
 10
3.718874395163033
 20
-9.584956529552906
 30
0.0
 10
3.725981282188942
 20
-9.591231297396889
 30
0.0
 10
3.733277198630907
 20
-9.597291931251094
 30
0.0
 10
3.740762794074473
 20
-9.603688324450104
 30
0.0
 10
3.840273121211667
 20
-9.44312678814693
 30
0.0
 10
3.982145907217828
 20
-9.354024198268941
 30
0.0
 10
4.172086806510125
 20
-9.358268113087255
 30
0.0
 10
4.361534020729651
 20
-9.362501004055475
 30
0.0
 10
4.499371428007608
 20
-9.457179216593505
 30
0.0
 10
4.592104284451149
 20
-9.621957805438997
 30
0.0
 10
4.60951516609129
 20
-9.60711301627167
 30
0.0
 10
4.626892727810096
 20
-9.592563635718734
 30
0.0
 10
4.643977135358682
 20
-9.577677655180801
 30
0.0
 10
4.687347445425808
 20
-9.539888279091453
 30
0.0
 10
4.730563689067745
 20
-9.501922177501985
 30
0.0
 10
4.773882643659791
 20
-9.464073784648284
 30
0.0
 10
4.854229659992066
 20
-9.393873314838703
 30
0.0
 10
4.934606022310137
 20
-9.323706623481433
 30
0.0
 10
5.014969851446772
 20
-9.253525483620427
 30
0.0
 10
5.021859891507649
 20
-9.247508491412013
 30
0.0
 10
5.028325790368222
 20
-9.240902888655428
 30
0.0
 10
5.035715629248922
 20
-9.235580031224243
 30
0.0
 10
5.058582265896322
 20
-9.219109491641221
 30
0.0
 10
5.084771876899063
 20
-9.224537070872125
 30
0.0
 10
5.098723447625085
 20
-9.248766796078395
 30
0.0
 10
5.120935760496422
 20
-9.287342419141497
 30
0.0
 10
5.127983382387027
 20
-9.329130873586032
 30
0.0
 10
5.122832244825606
 20
-9.372986615167468
 30
0.0
 10
5.115442405944905
 20
-9.435904064720261
 30
0.0
 10
5.083995278182379
 20
-9.484931405810179
 30
0.0
 10
5.036410150911731
 20
-9.525709124132212
 30
0.0
 10
4.958538743596187
 20
-9.592440520137895
 30
0.0
 10
4.881810912662861
 20
-9.660505744691286
 30
0.0
 10
4.804545224834454
 20
-9.72794480691588
 30
0.0
 10
4.752454724532551
 20
-9.773410527356215
 30
0.0
 10
4.70020526680787
 20
-9.818694631298789
 30
0.0
 10
4.648259662310642
 20
-9.864324849745191
 30
0.0
 10
4.644550451986585
 20
-9.867583018382017
 30
0.0
 10
4.640891985762942
 20
-9.872805916049198
 30
0.0
 10
4.640357949959732
 20
-9.877475213922707
 30
0.0
 10
4.635367451101526
 20
-9.921114987390232
 30
0.0
 10
4.626933842758843
 20
-9.963898224898658
 30
0.0
 10
4.611301144442854
 20
-10.00509074185126
 30
0.0
 10
4.610599744814686
 20
-10.00693885115707
 30
0.0
 10
4.610639637014046
 20
-10.00906826924817
 30
0.0
 10
4.610306590644515
 20
-10.01124629162816
 30
0.0
 10
4.637456824149542
 20
-10.02341318317381
 30
0.0
 10
4.653542703964249
 20
-10.04240485053077
 30
0.0
 10
4.65079809007812
 20
-10.07344220439849
 30
0.0
 10
4.650578606559697
 20
-10.07592461495884
 30
0.0
 10
4.650894687281202
 20
-10.07889918215518
 30
0.0
 10
4.649650234072977
 20
-10.08077526185366
 30
0.0
 10
4.640381946416785
 20
-10.09474861280344
 30
0.0
 10
4.647019183037905
 20
-10.10647829501451
 30
0.0
 10
4.653831119980496
 20
-10.118790923005
 30
0.0
 10
4.666922486499136
 20
-10.14245418089063
 30
0.0
 10
4.678989189015307
 20
-10.16669113751335
 30
0.0
 10
4.692409016593223
 20
-10.1901592904468
 30
0.0
 10
4.694578021196345
 20
-10.19395233552702
 30
0.0
 10
4.701520180950688
 20
-10.19700225465552
 30
0.0
 10
4.706277440359599
 20
-10.19703251770334
 30
0.0
 10
4.785149668064225
 20
-10.19753476202198
 30
0.0
 10
4.864025258329724
 20
-10.19753224010135
 30
0.0
 10
4.942900084376838
 20
-10.19757465422134
 30
0.0
 10
5.020941453859828
 20
-10.19761668623222
 30
0.0
 10
5.098982670499203
 20
-10.19752528571409
 30
0.0
 10
5.177024039982243
 20
-10.19761385862421
 30
0.0
 10
5.203717729427731
 20
-10.19764419809384
 30
0.0
 10
5.219373048607722
 20
-10.20869815841423
 30
0.0
 10
5.224396561699879
 20
-10.23133423037671
 30
0.0
 10
5.22562542485323
 20
-10.2368716803287
 30
0.0
 10
5.226026180971151
 20
-10.24317227875389
 30
0.0
 10
5.224701179145717
 20
-10.24860854619255
 30
0.0
 10
5.209145514042347
 20
-10.31242299706764
 30
0.0
 10
5.172893286800368
 20
-10.35984144830985
 30
0.0
 10
5.114380448085512
 20
-10.39101001847325
 30
0.0
 10
5.079354791341781
 20
-10.40966741671124
 30
0.0
 10
5.042313279358065
 20
-10.4165172588854
 30
0.0
 10
5.003601950216332
 20
-10.41662944614343
 30
0.0
 10
4.895513959572048
 20
-10.41694292852245
 30
0.0
 10
4.787424287647328
 20
-10.41666505871987
 30
0.0
 10
4.679335379940943
 20
-10.41666215469005
 30
0.0
 10
4.675781153104177
 20
-10.41666207826822
 30
0.0
 10
4.67222692626736
 20
-10.41711174436237
 30
0.0
 10
4.664505416610229
 20
-10.41763317056234
 30
0.0
 10
4.694467209531441
 20
-10.44405831366945
 30
0.0
 10
4.721638688307418
 20
-10.46802267359637
 30
0.0
 10
4.750113465106829
 20
-10.4931365708089
 30
0.0
 10
4.7614585926296
 20
-10.48050663934744
 30
0.0
 10
4.772132277884666
 20
-10.46851261399911
 30
0.0
 10
4.78293190632851
 20
-10.45663306856393
 30
0.0
 10
4.793444341505593
 20
-10.44506929816293
 30
0.0
 10
4.797869013076024
 20
-10.4449272299663
 30
0.0
 10
4.809881608930961
 20
-10.45555574991514
 30
0.0
 10
4.820186940927341
 20
-10.46467371581616
 30
0.0
 10
4.830267898407655
 20
-10.47405510779238
 30
0.0
 10
4.840777429554918
 20
-10.48292982298337
 30
0.0
 10
4.849066600623978
 20
-10.48992960480351
 30
0.0
 10
4.84864796179598
 20
-10.49664555591766
 30
0.0
 10
4.841831439543132
 20
-10.50428223733474
 30
0.0
 10
4.830523147346235
 20
-10.5169512967772
 30
0.0
 10
4.819450234410017
 20
-10.52983036343021
 30
0.0
 10
4.807659414728655
 20
-10.54332951687585
 30
0.0
 10
4.828177455453871
 20
-10.56183063245539
 30
0.0
 10
4.847458226623656
 20
-10.57955071685165
 30
0.0
 10
4.867101848679667
 20
-10.5968590403853
 30
0.0
 10
4.907724335143458
 20
-10.63265166669415
 30
0.0
 10
4.948538487576696
 20
-10.66822664360868
 30
0.0
 10
4.989276982390365
 20
-10.70388767151267
 30
0.0
 10
5.013736555826881
 20
-10.72529893067925
 30
0.0
 10
5.038075994134159
 20
-10.74684912474708
 30
0.0
 10
5.06270843376794
 20
-10.76805970016729
 30
0.0
 10
5.079010587383915
 20
-10.78209732188275
 30
0.0
 10
5.079973961072406
 20
-10.78616158806567
 30
0.0
 10
5.065756289506857
 20
-10.80246771561719
 30
0.0
 10
5.026065538090657
 20
-10.84798853620264
 30
0.0
 10
4.986012852850231
 20
-10.89319388744128
 30
0.0
 10
4.946071743493146
 20
-10.9384964472577
 30
0.0
 10
4.93896145569546
 20
-10.94656109096702
 30
0.0
 10
4.93211100214656
 20
-10.94521866496259
 30
0.0
 10
4.924538820760643
 20
-10.93849537735198
 30
0.0
 10
4.888696825944482
 20
-10.90667210130335
 30
0.0
 10
4.85259881797141
 20
-10.87513739411462
 30
0.0
 10
4.816654723579858
 20
-10.84342890366653
 30
0.0
 10
4.767899730814733
 20
-10.80041915183061
 30
0.0
 10
4.719134497523277
 20
-10.75742025189563
 30
0.0
 10
4.670562917169086
 20
-10.71420416109744
 30
0.0
 10
4.664390936697018
 20
-10.70871294635736
 30
0.0
 10
4.660360448966482
 20
-10.70902352470655
 30
0.0
 10
4.655206865906292
 20
-10.71537693062174
 30
0.0
 10
4.646548424516494
 20
-10.72605138009516
 30
0.0
 10
4.636984384347694
 20
-10.73598744177083
 30
0.0
 10
4.628212838637838
 20
-10.74657507603638
 30
0.0
 10
4.621039426402072
 20
-10.75523382311351
 30
0.0
 10
4.614097725178781
 20
-10.75544184335626
 30
0.0
 10
4.605945196355883
 20
-10.74799698075228
 30
0.0
 10
4.59516620180822
 20
-10.73815369518779
 30
0.0
 10
4.583999901386126
 20
-10.72873607926039
 30
0.0
 10
4.573088544215225
 20
-10.71903585537645
 30
0.0
 10
4.565553350998849
 20
-10.71233732844133
 30
0.0
 10
4.564889703758555
 20
-10.7047568934969
 30
0.0
 10
4.571343680812408
 20
-10.69705938029682
 30
0.0
 10
4.580453622420488
 20
-10.68619418191603
 30
0.0
 10
4.589621644625291
 20
-10.67535466127277
 30
0.0
 10
4.599272194314607
 20
-10.66497581146836
 30
0.0
 10
4.60386208989856
 20
-10.66003972495875
 30
0.0
 10
4.604999552533753
 20
-10.65655702896222
 30
0.0
 10
4.599363289145381
 20
-10.65161803842276
 30
0.0
 10
4.546695956811036
 20
-10.60546643198735
 30
0.0
 10
4.494165037457378
 20
-10.55915923068993
 30
0.0
 10
4.441558307640535
 20
-10.51293823322569
 30
0.0
 10
4.440727525840758
 20
-10.51220840467383
 30
0.0
 10
4.439438824388338
 20
-10.51199977305635
 30
0.0
 10
4.438362957754457
 20
-10.51154750861969
 30
0.0
 10
4.431383504143241
 20
-10.52728230651112
 30
0.0
 10
4.425036441240611
 20
-10.54303498711263
 30
0.0
 10
4.417545037737328
 20
-10.55822336886308
 30
0.0
 10
4.389021580227184
 20
-10.61605207928513
 30
0.0
 10
4.34239073244627
 20
-10.65288373690199
 30
0.0
 10
4.281692458433174
 20
-10.67206821655597
 30
0.0
 10
4.217632082083708
 20
-10.69231526544402
 30
0.0
 10
4.152023628564039
 20
-10.69605198762971
 30
0.0
 10
4.086332563037583
 20
-10.68274801555804
 30
0.0
 10
3.997566382089997
 20
-10.6647708480991
 30
0.0
 10
3.931036204783468
 20
-10.61677350143486
 30
0.0
 10
3.893543803956163
 20
-10.53230933500781
 30
0.0
 10
3.892899797128216
 20
-10.53085869568091
 30
0.0
 10
3.891608879442502
 20
-10.52969524962082
 30
0.0
 10
3.889269606984574
 20
-10.52662630145462
 30
0.0
 10
3.877751231155267
 20
-10.53640310002015
 30
0.0
 10
3.866431704948227
 20
-10.5457817408102
 30
0.0
 10
3.855363606587818
 20
-10.55544818624179
 30
0.0
 10
3.818958191771798
 20
-10.58724318621042
 30
0.0
 10
3.782809439698363
 20
-10.61933546712844
 30
0.0
 10
3.746143388204195
 20
-10.65082584965118
 30
0.0
 10
3.739458273301629
 20
-10.65656742233217
 30
0.0
 10
3.738410300638583
 20
-10.65986563601202
 30
0.0
 10
3.744918498986432
 20
-10.66643485719742
 30
0.0
 10
3.754577531499737
 20
-10.67618475527597
 30
0.0
 10
3.763180108526007
 20
-10.68698927471748
 30
0.0
 10
3.772118788795296
 20
-10.69744194801733
 30
0.0
 10
3.778615141758286
 20
-10.70503873723505
 30
0.0
 10
3.778816742566631
 20
-10.71233473009884
 30
0.0
 10
3.770753665505
 20
-10.71916791231233
 30
0.0
 10
3.759307279047005
 20
-10.72886828903994
 30
0.0
 10
3.747518331700676
 20
-10.73822461465336
 30
0.0
 10
3.736703380678313
 20
-10.74859123696372
 30
0.0
 10
3.728085901393645
 20
-10.75685152057804
 30
0.0
 10
3.721585421651449
 20
-10.75496726374293
 30
0.0
 10
3.714681472816057
 20
-10.74698454424381
 30
0.0
 10
3.705412459152436
 20
-10.7362672985412
 30
0.0
 10
3.695741848730676
 20
-10.72589089423559
 30
0.0
 10
3.686668857081283
 20
-10.71501346836071
 30
0.0
 10
3.682142047724533
 20
-10.70958629512082
 30
0.0
 10
3.678671617432983
 20
-10.70943818959899
 30
0.0
 10
3.673343219418559
 20
-10.71410924517474
 30
0.0
 10
3.620062525413282
 20
-10.760816744059
 30
0.0
 10
3.566584739488108
 20
-10.8072995627399
 30
0.0
 10
3.513214402667017
 20
-10.85390496204874
 30
0.0
 10
3.480884755520492
 20
-10.88213671740368
 30
0.0
 10
3.448628511549284
 20
-10.91045238393664
 30
0.0
 10
3.416379623179965
 20
-10.93877630402809
 30
0.0
 10
3.408850104285041
 20
-10.94538939134842
 30
0.0
 10
3.402126396354358
 20
-10.94429548916082
 30
0.0
 10
3.395838101845027
 20
-10.93707347263613
 30
0.0
 10
3.363284653346251
 20
-10.89968592257042
 30
0.0
 10
3.330717917000406
 20
-10.86230983578035
 30
0.0
 10
3.298195877877004
 20
-10.82489492669671
 30
0.0
 10
3.289722286584012
 20
-10.81514655705491
 30
0.0
 10
3.281180245206087
 20
-10.80544511042154
 30
0.0
 10
3.273054664633794
 20
-10.79541046457499
 30
0.0
 10
3.2644440680909
 20
-10.78477667151934
 30
0.0
 10
3.265160193251984
 20
-10.77991991087747
 30
0.0
 10
3.276116171223495
 20
-10.77030818348182
 30
0.0
 10
3.296181197622773
 20
-10.75270502449757
 30
0.0
 10
3.316313212539347
 20
-10.73517828735119
 30
0.0
 10
3.336428605706158
 20
-10.71763275043271
 30
0.0
 10
3.390146088725916
 20
-10.67077806308864
 30
0.0
 10
3.443860190079324
 20
-10.62391955465268
 30
0.0
 10
3.497597523671452
 20
-10.5770876410163
 30
0.0
 10
3.510119738552399
 20
-10.56617460256499
 30
0.0
 10
3.522728997906698
 20
-10.55536152387763
 30
0.0
 10
3.536525355879929
 20
-10.5434423155086
 30
0.0
  0
HATCH
  5
B9
330
7C
100
AcDbEntity
  8
Layer 3
 62
    18
420
        0
440
 33554687
100
AcDbHatch
 10
0.0
 20
0.0
 30
0.0
210
0.0
220
0.0
230
1.0
  2
SOLID
 70
     1
 71
     1
 91
       57
 92
        1
 93
        1
 72
     4
 94
        3
 73
     0
 74
     0
 95
       11
 96
        7
 40
0.0
 40
0.0
 40
0.0
 40
0.0
 40
1.0
 40
1.0
 40
1.0
 40
2.0
 40
2.0
 40
2.0
 40
2.0
 10
4.480649224051047
 20
-10.19566059286947
 10
4.504479922183514
 20
-10.20027280363009
 10
4.507877025721604
 20
-10.19693714324964
 10
4.503776841274858
 20
-10.17387631871217
 10
4.496145356542734
 20
-10.18106463320636
 10
4.489128456230976
 20
-10.18767389943481
 10
4.480649224051047
 20
-10.19566059286947
 97
        0
 97
        1
330
80
 92
        1
 93
        1
 72
     4
 94
        3
 73
     0
 74
     0
 95
       17
 96
       13
 40
0.0
 40
0.0
 40
0.0
 40
0.0
 40
1.0
 40
1.0
 40
1.0
 40
2.0
 40
2.0
 40
2.0
 40
3.0
 40
3.0
 40
3.0
 40
4.0
 40
4.0
 40
4.0
 40
4.0
 10
4.47579406826781
 20
-10.45164058273796
 10
4.476322830964186
 20
-10.45079291171204
 10
4.476851593660563
 20
-10.44994524068612
 10
4.477380356356989
 20
-10.44909749323837
 10
4.469499583589645
 20
-10.44211773393979
 10
4.461618810822301
 20
-10.43513789821938
 10
4.451044244690996
 20
-10.42577217271992
 10
4.451044244690996
 20
-10.4369797409345
 10
4.451044244690996
 20
-10.4440282034653
 10
4.451044244690996
 20
-10.45164058273796
 10
4.459515299734271
 20
-10.45164058273796
 10
4.467654684001015
 20
-10.45164058273796
 10
4.47579406826781
 20
-10.45164058273796
 97
        0
 97
        1
330
81
 92
        1
 93
        1
 72
     4
 94
        3
 73
     0
 74
     0
 95
       17
 96
       13
 40
0.0
 40
0.0
 40
0.0
 40
0.0
 40
1.0
 40
1.0
 40
1.0
 40
2.0
 40
2.0
 40
2.0
 40
3.0
 40
3.0
 40
3.0
 40
4.0
 40
4.0
 40
4.0
 40
4.0
 10
3.867374444740486
 20
-10.43512062688402
 10
3.851974068811689
 20
-10.44842352904998
 10
3.838536511367363
 20
-10.46003078347672
 10
3.82243935933156
 20
-10.47393550761611
 10
3.83997855323749
 20
-10.4703358862076
 10
3.853640867307073
 20
-10.46768863374293
 10
3.867190955907694
 20
-10.46455594976398
 10
3.868918853662484
 20
-10.46415649281731
 10
3.871396373225176
 20
-10.46109656242798
 10
3.871244370189616
 20
-10.45948421449209
 10
3.870563222348462
 20
-10.45225677201693
 10
3.869056336548863
 20
-10.44510697412902
 10
3.867374444740486
 20
-10.43512062688402
 97
        0
 97
        1
330
82
 92
        1
 93
        1
 72
     4
 94
        3
 73
     0
 74
     0
 95
       14
 96
       10
 40
0.0
 40
0.0
 40
0.0
 40
0.0
 40
1.0
 40
1.0
 40
1.0
 40
2.0
 40
2.0
 40
2.0
 40
3.0
 40
3.0
 40
3.0
 40
3.0
 10
4.617687258904652
 20
-10.57270851686126
 10
4.60451503808152
 20
-10.56104379321242
 10
4.593200326450212
 20
-10.55102412604611
 10
4.579418259360687
 20
-10.538819252847
 10
4.580188285799295
 20
-10.55502221091736
 10
4.580767257643174
 20
-10.56720201775364
 10
4.581405532833311
 20
-10.58063330860722
 10
4.593054513583537
 20
-10.57808891993639
 10
4.603993229772362
 20
-10.57569951475279
 10
4.617687258904652
 20
-10.57270851686126
 97
        0
 97
        1
330
83
 92
        1
 93
        1
 72
     4
 94
        3
 73
     0
 74
     0
 95
       14
 96
       10
 40
0.0
 40
0.0
 40
0.0
 40
0.0
 40
1.0
 40
1.0
 40
1.0
 40
2.0
 40
2.0
 40
2.0
 40
3.0
 40
3.0
 40
3.0
 40
3.0
 10
3.312242851714876
 20
-9.254431158821311
 10
3.302612945474518
 20
-9.249791488739093
 10
3.29375755545579
 20
-9.241725101656609
 10
3.285930927560608
 20
-9.242623277964639
 10
3.273438904082013
 20
-9.244056846563504
 10
3.267388778230472
 20
-9.255903993915756
 10
3.264191637207608
 20
-9.269182154511705
 10
3.282011566735086
 20
-9.272390572532028
 10
3.297529259737782
 20
-9.271339910775571
 10
3.312242851714876
 20
-9.254431158821311
 97
        0
 97
        1
330
84
 92
        1
 93
        1
 72
     4
 94
        3
 73
     0
 74
     0
 95
       14
 96
       10
 40
0.0
 40
0.0
 40
0.0
 40
0.0
 40
1.0
 40
1.0
 40
1.0
 40
2.0
 40
2.0
 40
2.0
 40
3.0
 40
3.0
 40
3.0
 40
3.0
 10
3.325863277064551
 20
-9.412885157560847
 10
3.317987615007622
 20
-9.425367938773407
 10
3.310437022790917
 20
-9.437335464849486
 10
3.302302806550894
 20
-9.450228039062317
 10
3.31914342843667
 20
-9.452929359977259
 10
3.33508886401877
 20
-9.455487103364298
 10
3.352629032303159
 20
-9.458300630642749
 10
3.343047806773584
 20
-9.442043451278397
 10
3.334611686062973
 20
-9.427729239826147
 10
3.325863277064551
 20
-9.412885157560847
 97
        0
 97
        1
330
85
 92
        1
 93
        1
 72
     4
 94
        3
 73
     0
 74
     0
 95
       26
 96
       22
 40
0.0
 40
0.0
 40
0.0
 40
0.0
 40
1.0
 40
1.0
 40
1.0
 40
2.0
 40
2.0
 40
2.0
 40
3.0
 40
3.0
 40
3.0
 40
4.0
 40
4.0
 40
4.0
 40
5.0
 40
5.0
 40
5.0
 40
6.0
 40
6.0
 40
6.0
 40
7.0
 40
7.0
 40
7.0
 40
7.0
 10
4.897823580356871
 20
-10.65692064406691
 10
4.89659471720357
 20
-10.65538777484244
 10
4.895404982031196
 20
-10.65305538034992
 10
4.894714587147644
 20
-10.65319477378221
 10
4.892196334745348
 20
-10.65370328469157
 10
4.889111796524275
 20
-10.6543855788603
 10
4.887537965194673
 20
-10.65615566146961
 10
4.853293492477884
 20
-10.69466875236382
 10
4.819166403704078
 20
-10.73328715255065
 10
4.785282030687463
 20
-10.77211678269741
 10
4.783472514409797
 20
-10.77419041284686
 10
4.783990348783365
 20
-10.77829502976015
 10
4.783424674339307
 20
-10.78145415569505
 10
4.786150335609641
 20
-10.78036636725447
 10
4.789733449901151
 20
-10.7800397403193
 10
4.791475103586763
 20
-10.77807829742791
 10
4.825702152124525
 20
-10.73953020533195
 10
4.859718276389659
 20
-10.70079487973309
 10
4.893761148298103
 20
-10.66208339774774
 10
4.895087220029254
 20
-10.66057559488606
 10
4.896252500213474
 20
-10.6589264116243
 10
4.897823580356871
 20
-10.65692064406691
 97
        0
 97
        1
330
86
 92
        1
 93
        1
 72
     4
 94
        3
 73
     0
 74
     0
 95
       20
 96
       16
 40
0.0
 40
0.0
 40
0.0
 40
0.0
 40
1.0
 40
1.0
 40
1.0
 40
2.0
 40
2.0
 40
2.0
 40
3.0
 40
3.0
 40
3.0
 40
4.0
 40
4.0
 40
4.0
 40
5.0
 40
5.0
 40
5.0
 40
5.0
 10
3.654227748684206
 20
-9.778442485061431
 10
3.660162668615081
 20
-9.778442485061431
 10
3.665939471763345
 20
-9.778818939034913
 10
3.67164092297945
 20
-9.778325139329378
 10
3.676330740116453
 20
-9.777918957260958
 10
3.684478912894569
 20
-9.777313849148514
 10
3.684940233319037
 20
-9.775350763187589
 10
3.686681046364431
 20
-9.767942544854854
 10
3.689219512342838
 20
-9.757123275998639
 10
3.68545118972717
 20
-9.752703113316682
 10
3.674747699955382
 20
-9.740148151678187
 10
3.661085194831204
 20
-9.730115836697677
 10
3.646831184681736
 20
-9.717540814326765
 10
3.64951171885683
 20
-9.739611823219849
 10
3.651792299343242
 20
-9.758389585852581
 10
3.654227748684206
 20
-9.778442485061431
 97
        0
 97
        1
330
87
 92
        1
 93
        1
 72
     4
 94
        3
 73
     0
 74
     0
 95
       20
 96
       16
 40
0.0
 40
0.0
 40
0.0
 40
0.0
 40
1.0
 40
1.0
 40
1.0
 40
2.0
 40
2.0
 40
2.0
 40
3.0
 40
3.0
 40
3.0
 40
4.0
 40
4.0
 40
4.0
 40
5.0
 40
5.0
 40
5.0
 40
5.0
 10
4.447569343721952
 20
-10.22108269935423
 10
4.447018189427049
 20
-10.22250980075505
 10
4.446467035132147
 20
-10.22393690215588
 10
4.445915804415386
 20
-10.22536392713489
 10
4.463745324883524
 20
-10.24113877006938
 10
4.481574845351612
 20
-10.25691361300386
 10
4.499566456537928
 20
-10.27283189972806
 10
4.500498038741852
 20
-10.25724688863892
 10
4.501649868682584
 20
-10.24376301956082
 10
4.501845814274954
 20
-10.2302653181301
 10
4.501889833253572
 20
-10.22722930777606
 10
4.498705793799545
 20
-10.22156744307199
 10
4.496820925589745
 20
-10.22148689445483
 10
4.480427906408522
 20
-10.22078648831055
 10
4.46399232026359
 20
-10.22108269935423
 10
4.447569343721952
 20
-10.22108269935423
 97
        0
 97
        1
330
88
 92
        1
 93
        1
 72
     4
 94
        3
 73
     0
 74
     0
 95
       14
 96
       10
 40
0.0
 40
0.0
 40
0.0
 40
0.0
 40
1.0
 40
1.0
 40
1.0
 40
2.0
 40
2.0
 40
2.0
 40
3.0
 40
3.0
 40
3.0
 40
3.0
 10
4.621372472771605
 20
-10.64057737550219
 10
4.631565617509977
 20
-10.62863432351974
 10
4.640784689502525
 20
-10.61783255526438
 10
4.650160579106416
 20
-10.60684706891076
 10
4.62895947999406
 20
-10.59304925892262
 10
4.603226107363576
 20
-10.59369884454471
 10
4.584686322334087
 20
-10.60832246891313
 10
4.596614701323662
 20
-10.61880999057108
 10
4.608324361013197
 20
-10.62910538772851
 10
4.621372472771605
 20
-10.64057737550219
 97
        0
 97
        1
330
89
 92
        1
 93
        1
 72
     4
 94
        3
 73
     0
 74
     0
 95
       23
 96
       19
 40
0.0
 40
0.0
 40
0.0
 40
0.0
 40
1.0
 40
1.0
 40
1.0
 40
2.0
 40
2.0
 40
2.0
 40
3.0
 40
3.0
 40
3.0
 40
4.0
 40
4.0
 40
4.0
 40
5.0
 40
5.0
 40
5.0
 40
6.0
 40
6.0
 40
6.0
 40
6.0
 10
3.294641880305713
 20
-9.293188116576629
 10
3.305116696833086
 20
-9.306757310636738
 10
3.315575101770769
 20
-9.32030524032042
 10
3.325957056212372
 20
-9.333754155960377
 10
3.333782671518191
 20
-9.321417369116362
 10
3.341900762750406
 20
-9.309086839310339
 10
3.349341899789806
 20
-9.296360511253093
 10
3.350398871124272
 20
-9.294552809994103
 10
3.349014078763426
 20
-9.290060371358928
 10
3.347284518833677
 20
-9.28813641337903
 10
3.343426954616814
 20
-9.283845288970344
 10
3.339023709819204
 20
-9.279723458038056
 10
3.334074173066129
 20
-9.27686228174366
 10
3.33134417485649
 20
-9.275284161238408
 10
3.326414001486606
 20
-9.275111209066531
 10
3.323593185475349
 20
-9.276528643104862
 10
3.314061309347582
 20
-9.281318324478535
 10
3.30502906964322
 20
-9.287102301726841
 10
3.294641880305713
 20
-9.293188116576629
 97
        0
 97
        1
330
8A
 92
        1
 93
        1
 72
     4
 94
        3
 73
     0
 74
     0
 95
       23
 96
       19
 40
0.0
 40
0.0
 40
0.0
 40
0.0
 40
1.0
 40
1.0
 40
1.0
 40
2.0
 40
2.0
 40
2.0
 40
3.0
 40
3.0
 40
3.0
 40
4.0
 40
4.0
 40
4.0
 40
5.0
 40
5.0
 40
5.0
 40
6.0
 40
6.0
 40
6.0
 40
6.0
 10
4.826597204689909
 20
-10.77508577109963
 10
4.827203994082815
 20
-10.77583195392483
 10
4.827810630632003
 20
-10.77657828959369
 10
4.828417267181192
 20
-10.77732447241891
 10
4.845821576543256
 20
-10.77246587765295
 10
4.863243310084397
 20
-10.76766704476421
 10
4.880604058998843
 20
-10.76265713475919
 10
4.882371237578328
 20
-10.76214709541308
 10
4.884933203271859
 20
-10.76055889677796
 10
4.88516659556482
 20
-10.75914723258837
 10
4.888217355333558
 20
-10.74069365139204
 10
4.890914587680198
 20
-10.7221818367552
 10
4.893700622202459
 20
-10.70368454226756
 10
4.892613139449243
 20
-10.70329983473562
 10
4.891525809539694
 20
-10.70291528004734
 10
4.890438479630144
 20
-10.70253057251534
 10
4.869158054650066
 20
-10.72671563871012
 10
4.847877629669988
 20
-10.75090070490485
 10
4.826597204689909
 20
-10.77508577109963
 97
        0
 97
        1
330
8B
 92
        1
 93
        1
 72
     4
 94
        3
 73
     0
 74
     0
 95
       20
 96
       16
 40
0.0
 40
0.0
 40
0.0
 40
0.0
 40
1.0
 40
1.0
 40
1.0
 40
2.0
 40
2.0
 40
2.0
 40
3.0
 40
3.0
 40
3.0
 40
4.0
 40
4.0
 40
4.0
 40
5.0
 40
5.0
 40
5.0
 40
5.0
 10
4.600825544591644
 20
-10.25398856715843
 10
4.601652276033973
 20
-10.25197676227587
 10
4.601995868617172
 20
-10.25156683553741
 10
4.601932438491707
 20
-10.25123470622993
 10
4.59396393345446
 20
-10.20952588334047
 10
4.586018966343266
 20
-10.16781224587523
 10
4.577791391275568
 20
-10.12615439635166
 10
4.577429915982343
 20
-10.12432348195938
 10
4.574473460761534
 20
-10.12300497599019
 10
4.570045732317617
 20
-10.11906030998362
 10
4.573887916639629
 20
-10.16663015288671
 10
4.577424872141035
 20
-10.21042170012427
 10
4.581054145222651
 20
-10.2553557538384
 10
4.58848953151874
 20
-10.25484158771302
 10
4.59457347403352
 20
-10.25442088549544
 10
4.600825544591644
 20
-10.25398856715843
 97
        0
 97
        1
330
8C
 92
        1
 93
        1
 72
     4
 94
        3
 73
     0
 74
     0
 95
       26
 96
       22
 40
0.0
 40
0.0
 40
0.0
 40
0.0
 40
1.0
 40
1.0
 40
1.0
 40
2.0
 40
2.0
 40
2.0
 40
3.0
 40
3.0
 40
3.0
 40
4.0
 40
4.0
 40
4.0
 40
5.0
 40
5.0
 40
5.0
 40
6.0
 40
6.0
 40
6.0
 40
7.0
 40
7.0
 40
7.0
 40
7.0
 10
3.461020828411265
 20
-9.553691056499069
 10
3.460121992964862
 20
-9.554053143167012
 10
3.459223138413006
 20
-9.554415191624052
 10
3.458324283861176
 20
-9.55477727829197
 10
3.460930230322446
 20
-9.568050261308371
 10
3.463770887353348
 20
-9.581282358641525
 10
3.466090672242646
 20
-9.594605168696235
 10
3.470242575168135
 20
-9.618449890235952
 10
3.470105684551021
 20
-9.618302931041675
 10
3.494259876323262
 20
-9.617490910803123
 10
3.502958802181638
 20
-9.617198482640434
 10
3.511696798704658
 20
-9.617846769091277
 10
3.520408257744444
 20
-9.618252645472313
 10
3.524070965380133
 20
-9.618423295436361
 10
3.527711128573628
 20
-9.619078498063545
 10
3.531361532293431
 20
-9.61951337653209
 10
3.531686267788093
 20
-9.61852138286531
 10
3.532011003282781
 20
-9.617529427409433
 10
3.532335738777419
 20
-9.616537433742626
 10
3.508564114725686
 20
-9.595588641328099
 10
3.484792471568475
 20
-9.574639848913596
 10
3.461020828411265
 20
-9.553691056499069
 97
        0
 97
        1
330
8D
 92
        1
 93
        1
 72
     4
 94
        3
 73
     0
 74
     0
 95
       20
 96
       16
 40
0.0
 40
0.0
 40
0.0
 40
0.0
 40
1.0
 40
1.0
 40
1.0
 40
2.0
 40
2.0
 40
2.0
 40
3.0
 40
3.0
 40
3.0
 40
4.0
 40
4.0
 40
4.0
 40
5.0
 40
5.0
 40
5.0
 40
5.0
 10
4.898366786780646
 20
-10.84118775684843
 10
4.899420032550475
 20
-10.84151346672153
 10
4.900473431164022
 20
-10.84183902375096
 10
4.901526829777568
 20
-10.84216473362408
 10
4.924617840941032
 20
-10.81591612496249
 10
4.947709004948162
 20
-10.7896675163009
 10
4.970800016111625
 20
-10.76341890763933
 10
4.950621135502968
 20
-10.76653829421851
 10
4.931913375273804
 20
-10.77184961195217
 10
4.913321164863469
 20
-10.777538453565
 10
4.910829812948147
 20
-10.77830068497617
 10
4.907336570737975
 20
-10.78070827855718
 10
4.906990991187007
 20
-10.78279780444892
 10
4.903780815464389
 20
-10.8022055887132
 10
4.901159240737317
 20
-10.82171088724266
 10
4.898366786780646
 20
-10.84118775684843
 97
        0
 97
        1
330
8E
 92
        1
 93
        1
 72
     4
 94
        3
 73
     0
 74
     0
 95
       23
 96
       19
 40
0.0
 40
0.0
 40
0.0
 40
0.0
 40
1.0
 40
1.0
 40
1.0
 40
2.0
 40
2.0
 40
2.0
 40
3.0
 40
3.0
 40
3.0
 40
4.0
 40
4.0
 40
4.0
 40
5.0
 40
5.0
 40
5.0
 40
6.0
 40
6.0
 40
6.0
 40
6.0
 10
4.853968755837513
 20
-10.65734035280065
 10
4.853451838525996
 20
-10.65663299226907
 10
4.85293492121448
 20
-10.65592563173754
 10
4.852417851059296
 20
-10.65521827120599
 10
4.838524666617431
 20
-10.65859688065931
 10
4.824793496471935
 20
-10.66328520757042
 10
4.810698099847008
 20
-10.66503022381693
 10
4.792057437991514
 20
-10.6673384690087
 10
4.783263424261323
 20
-10.67513487206702
 10
4.783907813198437
 20
-10.69504551202463
 10
4.784373375034874
 20
-10.70943192300824
 10
4.780742267829155
 20
-10.72395084945878
 10
4.77893810108018
 20
-10.73841077825045
 10
4.779824441556052
 20
-10.73874535305675
 10
4.780710782031974
 20
-10.73907992786308
 10
4.781597122507845
 20
-10.73941450266938
 10
4.80572105123234
 20
-10.71205640176521
 10
4.829844979956734
 20
-10.68469845370477
 10
4.853968755837513
 20
-10.65734035280065
 97
        0
 97
        1
330
8F
 92
        1
 93
        1
 72
     4
 94
        3
 73
     0
 74
     0
 95
       20
 96
       16
 40
0.0
 40
0.0
 40
0.0
 40
0.0
 40
1.0
 40
1.0
 40
1.0
 40
2.0
 40
2.0
 40
2.0
 40
3.0
 40
3.0
 40
3.0
 40
4.0
 40
4.0
 40
4.0
 40
5.0
 40
5.0
 40
5.0
 40
5.0
 10
4.773127290214056
 20
-10.58677181631424
 10
4.772130290916897
 20
-10.58642165145306
 10
4.771133291619687
 20
-10.58607148659184
 10
4.770136292322527
 20
-10.58572132173059
 10
4.746271739315917
 20
-10.61290655643741
 10
4.72240703346559
 20
-10.64009163830054
 10
4.69854248045898
 20
-10.66727687300737
 10
4.720143265783487
 20
-10.66441258252307
 10
4.740108623777081
 20
-10.6591870100915
 10
4.759877577647253
 20
-10.65330222288632
 10
4.762658874015591
 20
-10.65247411585088
 10
4.766108555778146
 20
-10.648638962338
 10
4.766484245533243
 20
-10.6458263330161
 10
4.769106431635084
 20
-10.62619600835986
 10
4.771000164778064
 20
-10.60646832228215
 10
4.773127290214056
 20
-10.58677181631424
 97
        0
 97
        1
330
90
 92
        1
 93
        1
 72
     4
 94
        3
 73
     0
 74
     0
 95
       14
 96
       10
 40
0.0
 40
0.0
 40
0.0
 40
0.0
 40
1.0
 40
1.0
 40
1.0
 40
2.0
 40
2.0
 40
2.0
 40
3.0
 40
3.0
 40
3.0
 40
3.0
 10
4.81149701374036
 20
-10.80749810667476
 10
4.832147569932531
 20
-10.8256927706843
 10
4.850947647741905
 20
-10.8422572040479
 10
4.872052455338462
 20
-10.86085231848806
 10
4.875641989064383
 20
-10.83437658412425
 10
4.878722706193583
 20
-10.8116530091574
 10
4.882176056204343
 20
-10.78618130489985
 10
4.857977234078766
 20
-10.79347974326242
 10
4.836381645439232
 20
-10.79999287081881
 10
4.81149701374036
 20
-10.80749810667476
 97
        0
 97
        1
330
91
 92
        1
 93
        1
 72
     4
 94
        3
 73
     0
 74
     0
 95
       23
 96
       19
 40
0.0
 40
0.0
 40
0.0
 40
0.0
 40
1.0
 40
1.0
 40
1.0
 40
2.0
 40
2.0
 40
2.0
 40
3.0
 40
3.0
 40
3.0
 40
4.0
 40
4.0
 40
4.0
 40
5.0
 40
5.0
 40
5.0
 40
6.0
 40
6.0
 40
6.0
 40
6.0
 10
4.55571189955847
 20
-10.2561919615886
 10
4.55235331262669
 20
-10.21451752852623
 10
4.548997476881064
 20
-10.17287519263575
 10
4.545641488291772
 20
-10.13123285674527
 10
4.543573971889372
 20
-10.1309248003167
 10
4.541506302643306
 20
-10.13061674388814
 10
4.539438786240958
 20
-10.13030868745959
 10
4.536514428192049
 20
-10.13922092577304
 10
4.531937830007917
 20
-10.14796083284197
 10
4.530986683813479
 20
-10.15707887516482
 10
4.528488606776414
 20
-10.18102825641151
 10
4.527781093401168
 20
-10.20515837530484
 10
4.52596622759486
 20
-10.22918670031004
 10
4.5238701294251
 20
-10.25693875578854
 10
4.5236870227015
 20
-10.25692675755997
 10
4.552149572006858
 20
-10.25762869214104
 10
4.552527707260777
 20
-10.25763801560525
 10
4.552913331854824
 20
-10.25733676072029
 10
4.55571189955847
 20
-10.2561919615886
 97
        0
 97
        1
330
92
 92
        1
 93
        1
 72
     4
 94
        3
 73
     0
 74
     0
 95
       14
 96
       10
 40
0.0
 40
0.0
 40
0.0
 40
0.0
 40
1.0
 40
1.0
 40
1.0
 40
2.0
 40
2.0
 40
2.0
 40
3.0
 40
3.0
 40
3.0
 40
3.0
 10
4.92128646018351
 20
-10.67520900124974
 10
4.917333769883978
 20
-10.70286774566413
 10
4.91384526582778
 20
-10.72727886765541
 10
4.910051532951026
 20
-10.75382567432848
 10
4.936009432941242
 20
-10.74632487093913
 10
4.959520611369422
 20
-10.73953096955031
 10
4.985850380022863
 20
-10.7319227170569
 10
4.963606581354294
 20
-10.71238333438774
 10
4.943794067036504
 20
-10.69497994208771
 10
4.92128646018351
 20
-10.67520900124974
 97
        0
 97
        1
330
93
 92
        1
 93
        1
 72
     4
 94
        3
 73
     0
 74
     0
 95
       14
 96
       10
 40
0.0
 40
0.0
 40
0.0
 40
0.0
 40
1.0
 40
1.0
 40
1.0
 40
2.0
 40
2.0
 40
2.0
 40
3.0
 40
3.0
 40
3.0
 40
3.0
 10
4.762768921462162
 20
-10.67807145760993
 10
4.736424479815847
 20
-10.68456517401948
 10
4.712752662684402
 20
-10.69040028703006
 10
4.685912701841187
 20
-10.69701612553659
 10
4.709198283003918
 20
-10.71757925514619
 10
4.729813532306985
 20
-10.735784159682
 10
4.752864498427369
 20
-10.75614018611092
 10
4.756257475186203
 20
-10.72939651678348
 10
4.759297688741323
 20
-10.70543276823125
 10
4.762768921462162
 20
-10.67807145760993
 97
        0
 97
        1
330
94
 92
        1
 93
        1
 72
     4
 94
        3
 73
     0
 74
     0
 95
       14
 96
       10
 40
0.0
 40
0.0
 40
0.0
 40
0.0
 40
1.0
 40
1.0
 40
1.0
 40
2.0
 40
2.0
 40
2.0
 40
3.0
 40
3.0
 40
3.0
 40
3.0
 10
4.799263711617615
 20
-10.56728226068344
 10
4.795979101024916
 20
-10.59553006462432
 10
4.793139418372422
 20
-10.61995219136022
 10
4.790011778234732
 20
-10.64685023280023
 10
4.816373949747407
 20
-10.63979420450745
 10
4.839978057130514
 20
-10.6334764111687
 10
4.86602384223435
 20
-10.62650505827229
 10
4.843162249428208
 20
-10.60622468946293
 10
4.822552961028551
 20
-10.58794214033979
 10
4.799263711617615
 20
-10.56728226068344
 97
        0
 97
        1
330
95
 92
        1
 93
        1
 72
     4
 94
        3
 73
     0
 74
     0
 95
       23
 96
       19
 40
0.0
 40
0.0
 40
0.0
 40
0.0
 40
1.0
 40
1.0
 40
1.0
 40
2.0
 40
2.0
 40
2.0
 40
3.0
 40
3.0
 40
3.0
 40
4.0
 40
4.0
 40
4.0
 40
5.0
 40
5.0
 40
5.0
 40
6.0
 40
6.0
 40
6.0
 40
6.0
 10
3.790402025715012
 20
-10.50599744906445
 10
3.789508234109891
 20
-10.50530751271195
 10
3.788614442504795
 20
-10.50461757635942
 10
3.787720612688771
 20
-10.5039276400069
 10
3.760464573149167
 20
-10.5279523731858
 10
3.733208495398634
 20
-10.55197725920831
 10
3.70595245585903
 20
-10.57600199238716
 10
3.70640407071005
 20
-10.57708275001866
 10
3.706855647350165
 20
-10.57816335480652
 10
3.70730726220121
 20
-10.57924411243799
 10
3.728507406040559
 20
-10.57729015888672
 10
3.746413883299434
 20
-10.5854477315509
 10
3.763820905636723
 20
-10.59570980878705
 10
3.770441444086271
 20
-10.59961297773566
 10
3.77699561016963
 20
-10.59893175347267
 10
3.775673703428638
 20
-10.58900104132567
 10
3.771781195326411
 20
-10.55975944780476
 10
3.775041274509147
 20
-10.53191209429443
 10
3.790402025715012
 20
-10.50599744906445
 97
        0
 97
        1
330
96
 92
        1
 93
        1
 72
     4
 94
        3
 73
     0
 74
     0
 95
       17
 96
       13
 40
0.0
 40
0.0
 40
0.0
 40
0.0
 40
1.0
 40
1.0
 40
1.0
 40
2.0
 40
2.0
 40
2.0
 40
3.0
 40
3.0
 40
3.0
 40
4.0
 40
4.0
 40
4.0
 40
4.0
 10
4.594214444239065
 20
-10.0993399604023
 10
4.612791064594426
 20
-10.09950564294687
 10
4.62671435924042
 20
-10.08596675014549
 10
4.627054283575362
 20
-10.06740694259446
 10
4.627378312168048
 20
-10.04971903179199
 10
4.612539331060436
 20
-10.0345236192324
 10
4.594867086734691
 20
-10.03444612748876
 10
4.57749028923427
 20
-10.03436993491641
 10
4.56302088413473
 20
-10.04858477887397
 10
4.562744237081536
 20
-10.06600399049441
 10
4.562447108975775
 20
-10.08469478507557
 10
4.576120504211884
 20
-10.09917855748065
 10
4.594214444239065
 20
-10.0993399604023
 97
        0
 97
        1
330
97
 92
        1
 93
        1
 72
     4
 94
        3
 73
     0
 74
     0
 95
       35
 96
       31
 40
0.0
 40
0.0
 40
0.0
 40
0.0
 40
1.0
 40
1.0
 40
1.0
 40
2.0
 40
2.0
 40
2.0
 40
3.0
 40
3.0
 40
3.0
 40
4.0
 40
4.0
 40
4.0
 40
5.0
 40
5.0
 40
5.0
 40
6.0
 40
6.0
 40
6.0
 40
7.0
 40
7.0
 40
7.0
 40
8.0
 40
8.0
 40
8.0
 40
9.0
 40
9.0
 40
9.0
 40
10.0
 40
10.0
 40
10.0
 40
10.0
 10
3.373564918979809
 20
-10.22242214490699
 10
3.372406125099081
 20
-10.22415799053293
 10
3.371982862749923
 20
-10.22449623358744
 10
3.371980837571224
 20
-10.22483684571895
 10
3.371664661322382
 20
-10.27814795561567
 10
3.37125688394811
 20
-10.3314596768871
 10
3.371471361836155
 20
-10.38476895265974
 10
3.371481497282401
 20
-10.38729064404472
 10
3.376839652049966
 20
-10.39163079306245
 10
3.380028563396156
 20
-10.39195413385856
 10
3.389515761406957
 20
-10.39291590268847
 10
3.399208056525215
 20
-10.3928304630737
 10
3.408727351707915
 20
-10.39203835072395
 10
3.412755928892541
 20
-10.39170324096476
 10
3.419876132423698
 20
-10.3885623034273
 10
3.419865414260938
 20
-10.38673016628564
 10
3.419824337523045
 20
-10.37971441230143
 10
3.424946090887816
 20
-10.3706815803278
 10
3.414022296062815
 20
-10.36625645022637
 10
3.377016759659277
 20
-10.35126584819234
 10
3.370869692706416
 20
-10.3122871954617
 10
3.382058059934226
 20
-10.28104396116267
 10
3.386015010751255
 20
-10.2699942804652
 10
3.396672341732937
 20
-10.25968329325284
 10
3.40685260939161
 20
-10.25292332316002
 10
3.421122286017862
 20
-10.24344785590137
 10
3.423870549046771
 20
-10.24066564247098
 10
3.418057158943585
 20
-10.22242214490699
 10
3.403284588413094
 20
-10.22242214490699
 10
3.388374917105415
 20
-10.22242214490699
 10
3.373564918979809
 20
-10.22242214490699
 97
        0
 97
        1
330
98
 92
        1
 93
        1
 72
     4
 94
        3
 73
     0
 74
     0
 95
       23
 96
       19
 40
0.0
 40
0.0
 40
0.0
 40
0.0
 40
1.0
 40
1.0
 40
1.0
 40
2.0
 40
2.0
 40
2.0
 40
3.0
 40
3.0
 40
3.0
 40
4.0
 40
4.0
 40
4.0
 40
5.0
 40
5.0
 40
5.0
 40
6.0
 40
6.0
 40
6.0
 40
6.0
 10
4.731317972607762
 20
-9.68152534193862
 10
4.728202254276791
 20
-9.684032131065249
 10
4.72500262476784
 20
-9.686442170145078
 10
4.721984115014669
 20
-9.689060993686021
 10
4.698099233799161
 20
-9.709783004296619
 10
4.674330513777249
 20
-9.730639975872918
 10
4.650358664510222
 20
-9.751260689337337
 10
4.634546680562556
 20
-9.764862324467609
 10
4.632415275503641
 20
-9.775719460344513
 10
4.642490730611648
 20
-9.795640149773866
 10
4.656906793268388
 20
-9.795640149773866
 10
4.671472184196343
 20
-9.795840718887397
 10
4.68602855734745
 20
-9.795566746598574
 10
4.695133913645173
 20
-9.795395447048905
 10
4.70608928979469
 20
-9.785719410676669
 10
4.706535746171716
 20
-9.777018096635856
 10
4.708239953156735
 20
-9.743801574060574
 10
4.714132535389404
 20
-9.711839668798019
 10
4.731317972607762
 20
-9.68152534193862
 97
        0
 97
        1
330
99
 92
        1
 93
        1
 72
     4
 94
        3
 73
     0
 74
     0
 95
       23
 96
       19
 40
0.0
 40
0.0
 40
0.0
 40
0.0
 40
1.0
 40
1.0
 40
1.0
 40
2.0
 40
2.0
 40
2.0
 40
3.0
 40
3.0
 40
3.0
 40
4.0
 40
4.0
 40
4.0
 40
5.0
 40
5.0
 40
5.0
 40
6.0
 40
6.0
 40
6.0
 40
6.0
 10
4.60392674277341
 20
-10.12550817329045
 10
4.611985578423046
 20
-10.16566884258779
 10
4.619879495746494
 20
-10.20500690722211
 10
4.628414897977235
 20
-10.24754200302284
 10
4.643279098291385
 20
-10.23961713485505
 10
4.655941738299461
 20
-10.23292808422785
 10
4.668543240837177
 20
-10.22612516506216
 10
4.6766792625431
 20
-10.22173281992918
 10
4.678094442137257
 20
-10.21546905682986
 10
4.673804120157834
 20
-10.20737300374516
 10
4.663295964603725
 20
-10.18754253029546
 10
4.653095483368891
 20
-10.16754843769083
 10
4.642507390572341
 20
-10.14776129542322
 10
4.636943575086282
 20
-10.13736349300297
 10
4.630825854119166
 20
-10.12726228373561
 10
4.625135331225843
 20
-10.11733623332073
 10
4.617226435222138
 20
-10.12038363052857
 10
4.611064236745404
 20
-10.12275798061013
 10
4.60392674277341
 20
-10.12550817329045
 97
        0
 97
        1
330
9A
 92
        1
 93
        1
 72
     4
 94
        3
 73
     0
 74
     0
 95
       23
 96
       19
 40
0.0
 40
0.0
 40
0.0
 40
0.0
 40
1.0
 40
1.0
 40
1.0
 40
2.0
 40
2.0
 40
2.0
 40
3.0
 40
3.0
 40
3.0
 40
4.0
 40
4.0
 40
4.0
 40
5.0
 40
5.0
 40
5.0
 40
6.0
 40
6.0
 40
6.0
 40
6.0
 10
3.61778660665896
 20
-10.3092718190039
 10
3.63286872384386
 20
-10.32340940048331
 10
3.647798990836867
 20
-10.3376888973157
 10
3.663201697631696
 20
-10.35143924934257
 10
3.664896848628965
 20
-10.35295255457653
 10
3.670528144597887
 20
-10.35273368243282
 10
3.67225050176944
 20
-10.35110933626834
 10
3.684322248126894
 20
-10.33972393443703
 10
3.696452686455864
 20
-10.32827158707568
 10
3.707153310408759
 20
-10.31564486533143
 10
3.710123521560363
 20
-10.31214015984558
 10
3.710916550972215
 20
-10.30246859415084
 10
3.708283512969374
 20
-10.29927767673141
 10
3.696229343634639
 20
-10.28466979526158
 10
3.682603635625405
 20
-10.2713585631153
 10
3.66960183550077
 20
-10.25764435861778
 10
3.651601588646801
 20
-10.27557941764404
 10
3.635857429080235
 20
-10.29126652830862
 10
3.61778660665896
 20
-10.3092718190039
 97
        0
 97
        1
330
9B
 92
        1
 93
        1
 72
     4
 94
        3
 73
     0
 74
     0
 95
       17
 96
       13
 40
0.0
 40
0.0
 40
0.0
 40
0.0
 40
1.0
 40
1.0
 40
1.0
 40
2.0
 40
2.0
 40
2.0
 40
3.0
 40
3.0
 40
3.0
 40
4.0
 40
4.0
 40
4.0
 40
4.0
 10
3.575709889041895
 20
-10.30936245530362
 10
3.559864929071131
 20
-10.29192627803516
 10
3.544916129782475
 20
-10.27547617174104
 10
3.531145755234117
 20
-10.260322944036
 10
3.514327887950583
 20
-10.2765100063641
 10
3.498339274030058
 20
-10.29189884259537
 10
3.483260863304318
 20
-10.3064117317207
 10
3.499097990036665
 20
-10.32263677570219
 10
3.514611298336426
 20
-10.33853007248543
 10
3.530070614607716
 20
-10.35436803985802
 10
3.546172581219302
 20
-10.33848964533321
 10
3.561779448954085
 20
-10.32309950993067
 10
3.575709889041895
 20
-10.30936245530362
 97
        0
 97
        1
330
9C
 92
        1
 93
        1
 72
     4
 94
        3
 73
     0
 74
     0
 95
       20
 96
       16
 40
0.0
 40
0.0
 40
0.0
 40
0.0
 40
1.0
 40
1.0
 40
1.0
 40
2.0
 40
2.0
 40
2.0
 40
3.0
 40
3.0
 40
3.0
 40
4.0
 40
4.0
 40
4.0
 40
5.0
 40
5.0
 40
5.0
 40
5.0
 10
4.55624746379845
 20
-10.58312236786749
 10
4.566460172527285
 20
-10.51388295998577
 10
4.520809740504798
 20
-10.46649171491784
 10
4.455674261739836
 20
-10.4751850810875
 10
4.451925235638226
 20
-10.47568549128206
 10
4.448434362505066
 20
-10.47811952681895
 10
4.44482335424272
 20
-10.47965346594919
 10
4.446704707048032
 20
-10.48303207540251
 10
4.447865554765611
 20
-10.48720745893769
 10
4.450581128353329
 20
-10.48966380965129
 10
4.473049148694295
 20
-10.50998789175196
 10
4.495780518688635
 20
-10.53002111233758
 10
4.518483459759282
 20
-10.55008444312736
 10
4.530458303226295
 20
-10.56066688070796
 10
4.542535399112415
 20
-10.57113346278227
 10
4.55624746379845
 20
-10.58312236786749
 97
        0
 97
        1
330
9D
 92
        1
 93
        1
 72
     4
 94
        3
 73
     0
 74
     0
 95
       26
 96
       22
 40
0.0
 40
0.0
 40
0.0
 40
0.0
 40
1.0
 40
1.0
 40
1.0
 40
2.0
 40
2.0
 40
2.0
 40
3.0
 40
3.0
 40
3.0
 40
4.0
 40
4.0
 40
4.0
 40
5.0
 40
5.0
 40
5.0
 40
6.0
 40
6.0
 40
6.0
 40
7.0
 40
7.0
 40
7.0
 40
7.0
 10
3.787324632935754
 20
-10.32253322411187
 10
3.791221344239071
 20
-10.32049772845953
 10
3.792845270083388
 20
-10.3200039669649
 10
3.79401364535205
 20
-10.31898694514623
 10
3.818143764245355
 20
-10.297980492455
 10
3.841943053002422
 20
-10.27658176646986
 10
3.866453179484652
 20
-10.25603040582331
 10
3.875754634218461
 20
-10.24823140442251
 10
3.876876201111397
 20
-10.23838475629716
 10
3.876627142341703
 20
-10.2279971179814
 10
3.876569061744905
 20
-10.22557339939256
 10
3.871728044001656
 20
-10.22127298973057
 10
3.869015985818476
 20
-10.2212153676648
 10
3.84444965107443
 20
-10.22069417073036
 10
3.819862529590535
 20
-10.22070372346007
 10
3.795296691588443
 20
-10.22124624208732
 10
3.792590517886765
 20
-10.22130592754269
 10
3.787710142897013
 20
-10.22564110914095
 10
3.787668913315453
 20
-10.22805863756091
 10
3.787145805835052
 20
-10.25874261685018
 10
3.787324632935754
 20
-10.28943867078988
 10
3.787324632935754
 20
-10.32253322411187
 97
        0
 97
        1
330
9E
 92
        1
 93
        1
 72
     4
 94
        3
 73
     0
 74
     0
 95
       23
 96
       19
 40
0.0
 40
0.0
 40
0.0
 40
0.0
 40
1.0
 40
1.0
 40
1.0
 40
2.0
 40
2.0
 40
2.0
 40
3.0
 40
3.0
 40
3.0
 40
4.0
 40
4.0
 40
4.0
 40
5.0
 40
5.0
 40
5.0
 40
6.0
 40
6.0
 40
6.0
 40
6.0
 10
4.92043557944041
 20
-9.520477705430064
 10
4.919613586152055
 20
-9.519731216917508
 10
4.91879159286365
 20
-9.518984728404953
 10
4.917969752418912
 20
-9.518238239892399
 10
4.868445803120898
 20
-9.561477639351197
 10
4.818922006666499
 20
-9.60471703881002
 10
4.769398057368485
 20
-9.647956438268794
 10
4.772127845418077
 20
-9.649695264346393
 10
4.773812182725249
 20
-9.649794650946583
 10
4.775120371746323
 20
-9.649141053178027
 10
4.802992027401083
 20
-9.635217414633745
 10
4.832792264556979
 20
-9.633986373458027
 10
4.863047517335695
 20
-9.635597307589932
 10
4.878550757058317
 20
-9.636422778071972
 10
4.88824929966179
 20
-9.629143712645271
 10
4.891100445589952
 20
-9.613981199686906
 10
4.897177510139322
 20
-9.581665193838462
 10
4.903446852032806
 20
-9.549438945438623
 10
4.92043557944041
 20
-9.520477705430064
 97
        0
 97
        1
330
9F
 92
        1
 93
        1
 72
     4
 94
        3
 73
     0
 74
     0
 95
       23
 96
       19
 40
0.0
 40
0.0
 40
0.0
 40
0.0
 40
1.0
 40
1.0
 40
1.0
 40
2.0
 40
2.0
 40
2.0
 40
3.0
 40
3.0
 40
3.0
 40
4.0
 40
4.0
 40
4.0
 40
5.0
 40
5.0
 40
5.0
 40
6.0
 40
6.0
 40
6.0
 40
6.0
 10
3.443004800447776
 20
-9.603044585098587
 10
3.443430527401233
 20
-9.598950858297181
 10
3.444263257957825
 20
-9.596849754497043
 10
3.443729279471022
 20
-9.595187770577441
 10
3.436269113393993
 20
-9.571969211366523
 10
3.429151412678013
 20
-9.54861859521975
 10
3.420837308984371
 20
-9.525704003869071
 10
3.415166197237895
 20
-9.510073731946425
 10
3.403131954897364
 20
-9.498504975020496
 10
3.387728789571484
 20
-9.493906959616298
 10
3.360818769008397
 20
-9.485874069180605
 10
3.333126580487158
 20
-9.480454003171644
 10
3.305722511847534
 20
-9.474110321935313
 10
3.30461316289595
 20
-9.473853525454538
 10
3.303099083890831
 20
-9.475345107781095
 10
3.300022770570042
 20
-9.476916302557304
 10
3.347900478847097
 20
-9.51915052558229
 10
3.394733653443785
 20
-9.560463292296844
 10
3.443004800447776
 20
-9.603044585098587
 97
        0
 97
        1
330
A0
 92
        1
 93
        1
 72
     4
 94
        3
 73
     0
 74
     0
 95
       14
 96
       10
 40
0.0
 40
0.0
 40
0.0
 40
0.0
 40
1.0
 40
1.0
 40
1.0
 40
2.0
 40
2.0
 40
2.0
 40
3.0
 40
3.0
 40
3.0
 40
3.0
 10
3.276487232681018
 20
-9.443073044489437
 10
3.298912026919904
 20
-9.419208797170186
 10
3.315510878768741
 20
-9.394021936207915
 10
3.309402557687715
 20
-9.361024667885581
 10
3.303628696780176
 20
-9.32983420286564
 10
3.281272878026356
 20
-9.310823258100045
 10
3.254194022517897
 20
-9.29336511910593
 10
3.242126044712297
 20
-9.347404538670515
 10
3.248583635086181
 20
-9.395979481585577
 10
3.276487232681018
 20
-9.443073044489437
 97
        0
 97
        1
330
A1
 92
        1
 93
        1
 72
     4
 94
        3
 73
     0
 74
     0
 95
       11
 96
        7
 40
0.0
 40
0.0
 40
0.0
 40
0.0
 40
1.0
 40
1.0
 40
1.0
 40
2.0
 40
2.0
 40
2.0
 40
2.0
 10
3.487596598960863
 20
-9.642363162164251
 10
3.535622661130749
 20
-9.684554818225503
 10
3.581669875335617
 20
-9.725007953896515
 10
3.630144017846482
 20
-9.767593258844776
 10
3.622650168844403
 20
-9.672663465616373
 10
3.571946915954892
 20
-9.634682729244913
 10
3.487596598960863
 20
-9.642363162164251
 97
        0
 97
        1
330
A2
 92
        1
 93
        1
 72
     4
 94
        3
 73
     0
 74
     0
 95
       23
 96
       19
 40
0.0
 40
0.0
 40
0.0
 40
0.0
 40
1.0
 40
1.0
 40
1.0
 40
2.0
 40
2.0
 40
2.0
 40
3.0
 40
3.0
 40
3.0
 40
4.0
 40
4.0
 40
4.0
 40
5.0
 40
5.0
 40
5.0
 40
6.0
 40
6.0
 40
6.0
 40
6.0
 10
3.295915880107056
 20
-10.78540180215332
 10
3.307905262828777
 20
-10.79919151142664
 10
3.318558686744002
 20
-10.81142939885972
 10
3.329195460251311
 20
-10.82368180644195
 10
3.353231217280305
 20
-10.85136821556168
 10
3.377131335099748
 20
-10.87917552402897
 10
3.401509175380599
 20
-10.90655731570283
 10
3.403678810463866
 20
-10.90899410242597
 10
3.410408345559719
 20
-10.91076204522379
 10
3.412494203203196
 20
-10.90928175422378
 10
3.420507204855564
 20
-10.90359444104767
 10
3.427491320198896
 20
-10.89645725276303
 10
3.435288525686498
 20
-10.88947642355874
 10
3.397612750659163
 20
-10.84626629366387
 10
3.360819924888674
 20
-10.80406905880843
 10
3.323562454343775
 20
-10.76133870521186
 10
3.313776427841376
 20
-10.76985637757618
 10
3.305382797672639
 20
-10.77716199959155
 10
3.295915880107056
 20
-10.78540180215332
 97
        0
 97
        1
330
A3
 92
        1
 93
        1
 72
     4
 94
        3
 73
     0
 74
     0
 95
       29
 96
       25
 40
0.0
 40
0.0
 40
0.0
 40
0.0
 40
1.0
 40
1.0
 40
1.0
 40
2.0
 40
2.0
 40
2.0
 40
3.0
 40
3.0
 40
3.0
 40
4.0
 40
4.0
 40
4.0
 40
5.0
 40
5.0
 40
5.0
 40
6.0
 40
6.0
 40
6.0
 40
7.0
 40
7.0
 40
7.0
 40
8.0
 40
8.0
 40
8.0
 40
8.0
 10
3.88785824848234
 20
-10.3582537846276
 10
3.88785824848234
 20
-10.37791391380061
 10
3.887432273157905
 20
-10.39603735265725
 10
3.888222551383553
 20
-10.41410752549291
 10
3.888378146245536
 20
-10.41766480920321
 10
3.892497894682769
 20
-10.42254831748834
 10
3.896023692595841
 20
-10.42422539472093
 10
3.929749490298844
 20
-10.44026710271335
 10
3.963726410161168
 20
-10.455782111399
 10
3.99769973819712
 20
-10.47129834283403
 10
3.999337228917662
 20
-10.4720462833615
 10
4.001613988312252
 20
-10.47139448150609
 10
4.004887976269452
 20
-10.47139448150609
 10
4.004887976269452
 20
-10.44925912542549
 10
4.005159885168697
 20
-10.42769708597282
 10
4.004526730241751
 20
-10.4061617177415
 10
4.004451836840593
 20
-10.40361320229143
 10
3.999832136739895
 20
-10.4001077325872
 10
3.996623642297713
 20
-10.3989116544023
 10
3.966279893030736
 20
-10.38760007606639
 10
3.93576824498589
 20
-10.37673976868321
 10
3.905349296630422
 20
-10.36562810987523
 10
3.899661601345112
 20
-10.36355050579022
 10
3.894171303667108
 20
-10.36093275215497
 10
3.88785824848234
 20
-10.3582537846276
 97
        0
 97
        1
330
A4
 92
        1
 93
        1
 72
     4
 94
        3
 73
     0
 74
     0
 95
       26
 96
       22
 40
0.0
 40
0.0
 40
0.0
 40
0.0
 40
1.0
 40
1.0
 40
1.0
 40
2.0
 40
2.0
 40
2.0
 40
3.0
 40
3.0
 40
3.0
 40
4.0
 40
4.0
 40
4.0
 40
5.0
 40
5.0
 40
5.0
 40
6.0
 40
6.0
 40
6.0
 40
7.0
 40
7.0
 40
7.0
 40
7.0
 10
4.319097279834219
 20
-10.47583099846141
 10
4.35862708685982
 20
-10.46397873562233
 10
4.393107244524673
 20
-10.4481782149503
 10
4.424568433905354
 20
-10.42599807567272
 10
4.426719250111065
 20
-10.42448171356523
 10
4.429103229344162
 20
-10.4214418821193
 10
4.429142204481473
 20
-10.41907364578479
 10
4.429495044107044
 20
-10.39766024680681
 10
4.429348772709317
 20
-10.37623851784845
 10
4.429348772709317
 20
-10.35207637820508
 10
4.421121961860004
 20
-10.35650716352254
 10
4.415664219884925
 20
-10.35995615748851
 10
4.409815198099825
 20
-10.36250811192134
 10
4.385152724683772
 20
-10.37326876522787
 10
4.360281848915721
 20
-10.38355613809234
 10
4.335702904568506
 20
-10.39450112087191
 10
4.32974605157013
 20
-10.39715372286524
 10
4.32011346101275
 20
-10.40134568993923
 10
4.319841552113479
 20
-10.40535042351042
 10
4.318302798407507
 20
-10.42801622356786
 10
4.319097279834219
 20
-10.45084036967336
 10
4.319097279834219
 20
-10.47583099846141
 97
        0
 97
        1
330
A5
 92
        1
 93
        1
 72
     4
 94
        3
 73
     0
 74
     0
 95
       23
 96
       19
 40
0.0
 40
0.0
 40
0.0
 40
0.0
 40
1.0
 40
1.0
 40
1.0
 40
2.0
 40
2.0
 40
2.0
 40
3.0
 40
3.0
 40
3.0
 40
4.0
 40
4.0
 40
4.0
 40
5.0
 40
5.0
 40
5.0
 40
6.0
 40
6.0
 40
6.0
 40
6.0
 10
5.010916590008567
 20
-10.75526133497513
 10
5.001501419579981
 20
-10.76576521090636
 10
4.993129101551276
 20
-10.77495906369242
 10
4.984917422225836
 20
-10.78429429687857
 10
4.958013572726157
 20
-10.81487923346594
 10
4.931074263493706
 20
-10.84543482406757
 10
4.904491844244224
 20
-10.87629732477017
 10
4.902519855139189
 20
-10.8785869230335
 10
4.90153217930621
 20
-10.88499626973402
 10
4.90304395610345
 20
-10.88648267448108
 10
4.912691448919227
 20
-10.89596738878215
 10
4.923168271519872
 20
-10.90460871168024
 10
4.93448252462013
 20
-10.91449830887844
 10
4.972481449388977
 20
-10.87129658538573
 10
5.009387541875967
 20
-10.82933717528981
 10
5.046761336010831
 20
-10.78684617488951
 10
5.034376412961718
 20
-10.7759331364382
 10
5.023215462068264
 20
-10.76609856296325
 10
5.010916590008567
 20
-10.75526133497513
 97
        0
 97
        1
330
A6
 92
        1
 93
        1
 72
     4
 94
        3
 73
     0
 74
     0
 95
       17
 96
       13
 40
0.0
 40
0.0
 40
0.0
 40
0.0
 40
1.0
 40
1.0
 40
1.0
 40
2.0
 40
2.0
 40
2.0
 40
3.0
 40
3.0
 40
3.0
 40
4.0
 40
4.0
 40
4.0
 40
4.0
 10
3.747955311769778
 20
-10.70689655211428
 10
3.68054727681134
 20
-10.62962994722382
 10
3.613977589414641
 20
-10.55332427052303
 10
3.546859651752886
 20
-10.47639025347111
 10
3.539454490293691
 20
-10.48313142379177
 10
3.5334233552689
 20
-10.48862187431347
 10
3.526672804167623
 20
-10.49476710714217
 10
3.593909635103677
 20
-10.57185641336875
 10
3.660264156815805
 20
-10.64793404730524
 10
3.727173768547471
 20
-10.72464812230775
 10
3.734410687330561
 20
-10.71846635984045
 10
3.740342091856872
 20
-10.71339974483173
 10
3.747955311769778
 20
-10.70689655211428
 97
        0
 97
        1
330
A7
 92
        1
 93
        1
 72
     4
 94
        3
 73
     0
 74
     0
 95
       32
 96
       28
 40
0.0
 40
0.0
 40
0.0
 40
0.0
 40
1.0
 40
1.0
 40
1.0
 40
2.0
 40
2.0
 40
2.0
 40
3.0
 40
3.0
 40
3.0
 40
4.0
 40
4.0
 40
4.0
 40
5.0
 40
5.0
 40
5.0
 40
6.0
 40
6.0
 40
6.0
 40
7.0
 40
7.0
 40
7.0
 40
8.0
 40
8.0
 40
8.0
 40
9.0
 40
9.0
 40
9.0
 40
9.0
 10
3.73605497959468
 20
-10.30679766200208
 10
3.736040115547211
 20
-10.30679766200208
 10
3.736025213288813
 20
-10.30679766200208
 10
3.736010349241344
 20
-10.30679766200208
 10
3.736010349241344
 20
-10.35389009768384
 10
3.735944817515347
 20
-10.40098283905293
 10
3.7361324713383
 20
-10.44807458693814
 10
3.73614779391682
 20
-10.45191531924519
 10
3.737354685791766
 20
-10.45878388476964
 10
3.738924084654753
 20
-10.45906114319753
 10
3.745730213537626
 20
-10.46026394650413
 10
3.75318432318401
 20
-10.46067792360001
 10
3.7597317641456
 20
-10.45890287357123
 10
3.762017732371607
 20
-10.4582830160441
 10
3.763441700477086
 20
-10.45054217166191
 10
3.763451482472343
 20
-10.44604948465578
 10
3.763653159702572
 20
-10.35353137357674
 10
3.763439216767361
 20
-10.26101226901381
 10
3.763797176656074
 20
-10.16849522784049
 10
3.763837985917512
 20
-10.1579488613674
 10
3.761629624067886
 20
-10.15383759575421
 10
3.750091302138899
 20
-10.15404699159004
 10
3.739378106793689
 20
-10.15424140874562
 10
3.735648109729734
 20
-10.15669340341449
 10
3.735798737172217
 20
-10.16802317014781
 10
3.736413589069014
 20
-10.2142742778162
 10
3.73605497959468
 20
-10.26053837719703
 10
3.73605497959468
 20
-10.30679766200208
 97
        0
 97
        1
330
A8
 92
        1
 93
        1
 72
     4
 94
        3
 73
     0
 74
     0
 95
       47
 96
       43
 40
0.0
 40
0.0
 40
0.0
 40
0.0
 40
1.0
 40
1.0
 40
1.0
 40
2.0
 40
2.0
 40
2.0
 40
3.0
 40
3.0
 40
3.0
 40
4.0
 40
4.0
 40
4.0
 40
5.0
 40
5.0
 40
5.0
 40
6.0
 40
6.0
 40
6.0
 40
7.0
 40
7.0
 40
7.0
 40
8.0
 40
8.0
 40
8.0
 40
9.0
 40
9.0
 40
9.0
 40
10.0
 40
10.0
 40
10.0
 40
11.0
 40
11.0
 40
11.0
 40
12.0
 40
12.0
 40
12.0
 40
13.0
 40
13.0
 40
13.0
 40
14.0
 40
14.0
 40
14.0
 40
14.0
 10
5.090554411685212
 20
-9.287082479812598
 10
5.067775507307715
 20
-9.2906627951543
 10
5.04920943316597
 20
-9.287237348667126
 10
5.032941822220714
 20
-9.274267426001616
 10
5.031394432847037
 20
-9.273033757825183
 10
5.025946167179906
 20
-9.275000636219802
 10
5.023454815264535
 20
-9.276947683147479
 10
5.014598135627263
 20
-9.283869361849282
 10
5.006448052303185
 20
-9.291692502998103
 10
4.997619495902275
 20
-9.298653347891786
 10
4.991083747481878
 20
-9.303806415104645
 10
4.990414139338225
 20
-9.308339873161305
 10
4.995372541024531
 20
-9.315382871530724
 10
5.007031456613705
 20
-9.331943617540646
 10
5.015240996127658
 20
-9.350104187857771
 10
5.016603291809966
 20
-9.37071761258946
 10
5.019535597729953
 20
-9.415084730899126
 10
4.998924016675143
 20
-9.448278403344854
 10
4.966584281846002
 20
-9.47590000674606
 10
4.961730425234009
 20
-9.480045738608142
 10
4.957037513012614
 20
-9.484379678351539
 10
4.952270013077369
 20
-9.488626516305151
 10
4.965970614487736
 20
-9.486210783798393
 10
4.978249616869586
 20
-9.480874533440101
 10
4.991080996295724
 20
-9.478393383840106
 10
5.011497548820216
 20
-9.474445431694473
 10
5.032319595616601
 20
-9.472635934522308
 10
5.052879056977947
 20
-9.469352489362613
 10
5.056978782893641
 20
-9.468697745266455
 10
5.062599456227088
 20
-9.466319746042168
 10
5.063948607353292
 20
-9.463195009934326
 10
5.065059628032612
 20
-9.460621485437791
 10
5.061327032626169
 20
-9.45546283943079
 10
5.058952147591778
 20
-9.451989123000203
 10
5.054973168179937
 20
-9.44616910330261
 10
5.050075292589276
 20
-9.440978952392949
 10
5.046070635439946
 20
-9.435174408117466
 10
5.019694096621732
 20
-9.396943753230667
 10
5.020689414638455
 20
-9.359343578506493
 10
5.050646010874692
 20
-9.323956819025926
 10
5.061455115626484
 20
-9.311188267903288
 10
5.075305198151732
 20
-9.300993957731911
 10
5.090554411685212
 20
-9.287082479812598
 97
        0
 97
        1
330
A9
 92
        1
 93
        1
 72
     4
 94
        3
 73
     0
 74
     0
 95
       23
 96
       19
 40
0.0
 40
0.0
 40
0.0
 40
0.0
 40
1.0
 40
1.0
 40
1.0
 40
2.0
 40
2.0
 40
2.0
 40
3.0
 40
3.0
 40
3.0
 40
4.0
 40
4.0
 40
4.0
 40
5.0
 40
5.0
 40
5.0
 40
6.0
 40
6.0
 40
6.0
 40
6.0
 10
4.594768044032788
 20
-10.70669968945986
 10
4.597819568019909
 20
-10.70909367995374
 10
4.600213405670097
 20
-10.71077251488858
 10
4.602381340367501
 20
-10.71270507032525
 10
4.615684701064487
 20
-10.72456528103544
 10
4.615481266131988
 20
-10.72441977385609
 10
4.627188480322703
 20
-10.71113979824152
 10
4.685302397043742
 20
-10.64521770949911
 10
4.743743093543622
 20
-10.57958204980516
 10
4.801575166526541
 20
-10.51341434127579
 10
4.819473619492454
 20
-10.49293619274994
 10
4.823315345283364
 20
-10.49889480345056
 10
4.798993789686164
 20
-10.47849063126379
 10
4.798498270489264
 20
-10.47807474362195
 10
4.797429587508127
 20
-10.47834191436724
 10
4.79575778338234
 20
-10.47823461810682
 10
4.729306091303315
 20
-10.55377026836898
 10
4.662516003326168
 20
-10.62969047331944
 10
4.594768044032788
 20
-10.70669968945986
 97
        0
 97
        1
330
AA
 92
        1
 93
        1
 72
     4
 94
        3
 73
     0
 74
     0
 95
       26
 96
       22
 40
0.0
 40
0.0
 40
0.0
 40
0.0
 40
1.0
 40
1.0
 40
1.0
 40
2.0
 40
2.0
 40
2.0
 40
3.0
 40
3.0
 40
3.0
 40
4.0
 40
4.0
 40
4.0
 40
5.0
 40
5.0
 40
5.0
 40
6.0
 40
6.0
 40
6.0
 40
7.0
 40
7.0
 40
7.0
 40
7.0
 10
4.415495480466865
 20
-10.24722103130372
 10
4.383512864886218
 20
-10.26163747606961
 10
4.353631773425831
 20
-10.27501397246545
 10
4.323895119239068
 20
-10.28870433334954
 10
4.321749958249382
 20
-10.28969200918249
 10
4.319309732543564
 20
-10.29295132414682
 10
4.319282449947447
 20
-10.2951823068605
 10
4.318961631071967
 20
-10.3213424190338
 10
4.319076569516179
 20
-10.34750788073575
 10
4.319076569516179
 20
-10.37365591825864
 10
4.321717631811957
 20
-10.37395319920807
 10
4.32304171657534
 20
-10.37448150337342
 10
4.324122703472337
 20
-10.37416878521278
 10
4.359222412977007
 20
-10.36401851312545
 10
4.391836043673139
 20
-10.34850220526858
 10
4.421975288101925
 20
-10.32792547257185
 10
4.424372259047509
 20
-10.32628905175703
 10
4.426188118337677
 20
-10.32146713947324
 10
4.425795310090935
 20
-10.31844832403271
 10
4.422687539631093
 20
-10.29456695822177
 10
4.418977947197896
 20
-10.27076392479466
 10
4.415495480466865
 20
-10.24722103130372
 97
        0
 97
        1
330
AB
 92
        1
 93
        1
 72
     4
 94
        3
 73
     0
 74
     0
 95
       29
 96
       25
 40
0.0
 40
0.0
 40
0.0
 40
0.0
 40
1.0
 40
1.0
 40
1.0
 40
2.0
 40
2.0
 40
2.0
 40
3.0
 40
3.0
 40
3.0
 40
4.0
 40
4.0
 40
4.0
 40
5.0
 40
5.0
 40
5.0
 40
6.0
 40
6.0
 40
6.0
 40
7.0
 40
7.0
 40
7.0
 40
8.0
 40
8.0
 40
8.0
 40
8.0
 10
4.027784570277313
 20
-10.40695979099465
 10
4.027784570277313
 20
-10.43020433363045
 10
4.027516100360799
 20
-10.45219112565817
 10
4.028134047342013
 20
-10.4741529277449
 10
4.028208864321287
 20
-10.47681103211054
 10
4.032780189398636
 20
-10.48117303777389
 10
4.035754527329471
 20
-10.4816395166724
 10
4.07061220887355
 20
-10.48710642926802
 10
4.105562284419622
 20
-10.49198443518078
 10
4.140489968367193
 20
-10.49700473855576
 10
4.148158059159666
 20
-10.49810689430187
 10
4.15074180507703
 20
-10.49464636063832
 10
4.150598743396509
 20
-10.4870968001164
 10
4.150243763959476
 20
-10.46837024011511
 10
4.150096193390532
 20
-10.44961953081305
 10
4.150680285497527
 20
-10.43090397555637
 10
4.150960295111594
 20
-10.4219297591324
 10
4.147379244209661
 20
-10.41967256372838
 10
4.139053467080303
 20
-10.41932683133374
 10
4.124529267522953
 20
-10.41872371018909
 10
4.110029293688208
 20
-10.41708606662483
 10
4.095572116082697
 20
-10.41542152257365
 10
4.073751465130574
 20
-10.41290915465288
 10
4.05197628517198
 20
-10.41000107445549
 10
4.027784570277313
 20
-10.40695979099465
 97
        0
 97
        1
330
AC
 92
        1
 93
        1
 72
     4
 94
        3
 73
     0
 74
     0
 95
       26
 96
       22
 40
0.0
 40
0.0
 40
0.0
 40
0.0
 40
1.0
 40
1.0
 40
1.0
 40
2.0
 40
2.0
 40
2.0
 40
3.0
 40
3.0
 40
3.0
 40
4.0
 40
4.0
 40
4.0
 40
5.0
 40
5.0
 40
5.0
 40
6.0
 40
6.0
 40
6.0
 40
7.0
 40
7.0
 40
7.0
 40
7.0
 10
4.173793688259516
 20
-10.49700794827294
 10
4.214523547405532
 20
-10.49835939205425
 10
4.252098407395907
 20
-10.49184687587257
 10
4.289414044512164
 20
-10.48349289908499
 10
4.292089190947661
 20
-10.4828939047196
 10
4.29593374434661
 20
-10.47898401064925
 10
4.295987851007844
 20
-10.47654187439747
 10
4.296492693668975
 20
-10.45375884324072
 10
4.296286889659515
 20
-10.43095999276354
 10
4.296286889659515
 20
-10.40868738306206
 10
4.29418460132087
 20
-10.40789030329284
 10
4.293376516807003
 20
-10.40727120998405
 10
4.292645541927514
 20
-10.40735168217939
 10
4.25507878265196
 20
-10.41148648571864
 10
4.217507132378765
 20
-10.41558605879064
 10
4.179985691253047
 20
-10.42010236014471
 10
4.177714434230816
 20
-10.42037572105884
 10
4.174100598360458
 20
-10.42398267896379
 10
4.174061776066815
 20
-10.42609291517353
 10
4.173634730836687
 20
-10.44930138670186
 10
4.173793688259516
 20
-10.4725205572875
 10
4.173793688259516
 20
-10.49700794827294
 97
        0
 97
        1
330
AD
 92
        1
 93
        1
 72
     4
 94
        3
 73
     0
 74
     0
 95
       29
 96
       25
 40
0.0
 40
0.0
 40
0.0
 40
0.0
 40
1.0
 40
1.0
 40
1.0
 40
2.0
 40
2.0
 40
2.0
 40
3.0
 40
3.0
 40
3.0
 40
4.0
 40
4.0
 40
4.0
 40
5.0
 40
5.0
 40
5.0
 40
6.0
 40
6.0
 40
6.0
 40
7.0
 40
7.0
 40
7.0
 40
8.0
 40
8.0
 40
8.0
 40
8.0
 10
4.02825586375161
 20
-10.30164094564646
 10
4.028191516564094
 20
-10.30272774060315
 10
4.027809101687302
 20
-10.30632438155996
 10
4.027794352272571
 20
-10.3099226273754
 10
4.027715714201374
 20
-10.32909572017552
 10
4.02855742432396
 20
-10.34831902212315
 10
4.027412013817587
 20
-10.36742486370596
 10
4.02667996903238
 20
-10.37963585065204
 10
4.030894709814118
 20
-10.38483666240813
 10
4.042711436498519
 20
-10.38608126846007
 10
4.074978570581631
 20
-10.38947951832574
 10
4.107211467681357
 20
-10.39322709241239
 10
4.139417082184991
 20
-10.39716931292016
 10
4.147732389522616
 20
-10.39818717537908
 10
4.150701683612143
 20
-10.39524470535464
 10
4.1505771924382
 20
-10.38705067947378
 10
4.150279682223273
 20
-10.36746498517083
 10
4.150011059463091
 20
-10.34785491230162
 10
4.150697786098413
 20
-10.32828862914554
 10
4.151027699172598
 20
-10.3188899658339
 10
4.147557765623004
 20
-10.31666333916503
 10
4.138693673067463
 20
-10.31567329425512
 10
4.102443050684112
 20
-10.31162461812715
 10
4.066304844824293
 20
-10.30656832006654
 10
4.02825586375161
 20
-10.30164094564646
 97
        0
 97
        1
330
AE
 92
        1
 93
        1
 72
     4
 94
        3
 73
     0
 74
     0
 95
       23
 96
       19
 40
0.0
 40
0.0
 40
0.0
 40
0.0
 40
1.0
 40
1.0
 40
1.0
 40
2.0
 40
2.0
 40
2.0
 40
3.0
 40
3.0
 40
3.0
 40
4.0
 40
4.0
 40
4.0
 40
5.0
 40
5.0
 40
5.0
 40
6.0
 40
6.0
 40
6.0
 40
6.0
 10
4.296269236214962
 20
-10.30042973593769
 10
4.254783030139302
 20
-10.30678016140119
 10
4.215170534685133
 20
-10.31284377570707
 10
4.174657942824246
 20
-10.31904517858667
 10
4.174657942824246
 20
-10.34411024224479
 10
4.174657942824246
 20
-10.37049977277544
 10
4.174657942824246
 20
-10.39841070925493
 10
4.197610324773778
 20
-10.39645293461174
 10
4.219530553380687
 20
-10.3949597283211
 10
4.241355101846567
 20
-10.39258644814531
 10
4.255393640624055
 20
-10.3910597690897
 10
4.269422626671863
 20
-10.38881525971073
 10
4.283181002991644
 20
-10.38568425701219
 10
4.287968219761043
 20
-10.38459486371301
 10
4.295564397604064
 20
-10.38002514349427
 10
4.295693932619289
 20
-10.37679670295243
 10
4.296725551009027
 20
-10.35108877879396
 10
4.296269236214962
 20
-10.32532116918009
 10
4.296269236214962
 20
-10.30042973593769
 97
        0
 97
        1
330
AF
 92
        1
 93
        1
 72
     4
 94
        3
 73
     0
 74
     0
 95
       29
 96
       25
 40
0.0
 40
0.0
 40
0.0
 40
0.0
 40
1.0
 40
1.0
 40
1.0
 40
2.0
 40
2.0
 40
2.0
 40
3.0
 40
3.0
 40
3.0
 40
4.0
 40
4.0
 40
4.0
 40
5.0
 40
5.0
 40
5.0
 40
6.0
 40
6.0
 40
6.0
 40
7.0
 40
7.0
 40
7.0
 40
8.0
 40
8.0
 40
8.0
 40
8.0
 10
4.001964611704478
 20
-10.37826621847332
 10
4.003772217436183
 20
-10.37409389181163
 10
4.004667040736118
 20
-10.37298615727134
 10
4.004673307326811
 20
-10.37187337888975
 10
4.004814229195895
 20
-10.34688794678674
 10
4.005195879854328
 20
-10.32189273268848
 10
4.004515954762584
 20
-10.29692717026331
 10
4.004424936353643
 20
-10.29358333274621
 10
3.999482048300503
 20
-10.2891509425702
 10
3.995755719484754
 20
-10.28732644761231
 10
3.972657066137495
 20
-10.27601700908783
 10
3.949184557159266
 20
-10.26547354664457
 10
3.926009252708631
 20
-10.25431649326485
 10
3.917244967073378
 20
-10.25009724359473
 10
3.908941046589587
 20
-10.24492188031066
 10
3.897773981949133
 20
-10.23870519306347
 10
3.894860552223083
 20
-10.26315253900588
 10
3.892019341133845
 20
-10.284838840367
 10
3.889751446672511
 20
-10.30658490360535
 10
3.887077828673757
 20
-10.33222213756378
 10
3.886999267024419
 20
-10.33295265391224
 10
3.910678802761493
 20
-10.3427747706276
 10
3.940823243875254
 20
-10.35527837679099
 10
3.971502943541635
 20
-10.36649167664341
 10
4.001964611704478
 20
-10.37826621847332
 97
        0
 97
        1
330
B0
 92
        1
 93
        1
 72
     4
 94
        3
 73
     0
 74
     0
 95
       92
 96
       88
 40
0.0
 40
0.0
 40
0.0
 40
0.0
 40
1.0
 40
1.0
 40
1.0
 40
2.0
 40
2.0
 40
2.0
 40
3.0
 40
3.0
 40
3.0
 40
4.0
 40
4.0
 40
4.0
 40
5.0
 40
5.0
 40
5.0
 40
6.0
 40
6.0
 40
6.0
 40
7.0
 40
7.0
 40
7.0
 40
8.0
 40
8.0
 40
8.0
 40
9.0
 40
9.0
 40
9.0
 40
10.0
 40
10.0
 40
10.0
 40
11.0
 40
11.0
 40
11.0
 40
12.0
 40
12.0
 40
12.0
 40
13.0
 40
13.0
 40
13.0
 40
14.0
 40
14.0
 40
14.0
 40
15.0
 40
15.0
 40
15.0
 40
16.0
 40
16.0
 40
16.0
 40
17.0
 40
17.0
 40
17.0
 40
18.0
 40
18.0
 40
18.0
 40
19.0
 40
19.0
 40
19.0
 40
20.0
 40
20.0
 40
20.0
 40
21.0
 40
21.0
 40
21.0
 40
22.0
 40
22.0
 40
22.0
 40
23.0
 40
23.0
 40
23.0
 40
24.0
 40
24.0
 40
24.0
 40
25.0
 40
25.0
 40
25.0
 40
26.0
 40
26.0
 40
26.0
 40
27.0
 40
27.0
 40
27.0
 40
28.0
 40
28.0
 40
28.0
 40
29.0
 40
29.0
 40
29.0
 40
29.0
 10
3.711446956738073
 20
-10.34600313474761
 10
3.698475152184805
 20
-10.35857254011345
 10
3.68719414258405
 20
-10.36794904109206
 10
3.677889822031324
 20
-10.37899107960574
 10
3.669851658488848
 20
-10.3885306647864
 10
3.664566438812799
 20
-10.38661171243691
 10
3.657186764036572
 20
-10.37886047468477
 10
3.640538266651244
 20
-10.36137393542516
 10
3.623105069834461
 20
-10.34463350256886
 10
3.606496617492236
 20
-10.32711028082705
 10
3.600378094095832
 20
-10.32065485175823
 10
3.596933800072848
 20
-10.3207234785687
 10
3.590766939863947
 20
-10.32748856892461
 10
3.571757733695196
 20
-10.34834164298718
 10
3.551867307313664
 20
-10.36839152353344
 10
3.532560686457271
 20
-10.38850185375354
 10
3.528497547496499
 20
-10.38594286851162
 10
3.526910896403579
 20
-10.38529358857691
 10
3.525781056846678
 20
-10.3841805809298
 10
3.501449432672314
 20
-10.36021110073976
 10
3.477036629400622
 20
-10.33631911229331
 10
3.45315640991723
 20
-10.31190653828715
 10
3.451443529053575
 20
-10.31015556113728
 10
3.452220930199574
 20
-10.3030912028642
 10
3.454332045260495
 20
-10.30091952349676
 10
3.476981892259244
 20
-10.27762010998134
 10
3.500235280722765
 20
-10.25490899177404
 10
3.523075055094143
 20
-10.23179138581101
 10
3.528675629484243
 20
-10.22612271956336
 10
3.531948069899246
 20
-10.22735716151088
 10
3.537145480883534
 20
-10.23277378853713
 10
3.554743787081077
 20
-10.25111395972607
 10
3.573278604691116
 20
-10.26855464588296
 10
3.590912676308814
 20
-10.2868620321034
 10
3.59664198328485
 20
-10.29280994374673
 10
3.60041787166243
 20
-10.29313404876125
 10
3.60615711347739
 20
-10.28721540668183
 10
3.620638784281936
 20
-10.27228105112052
 10
3.635577037357001
 20
-10.25778910157878
 10
3.650343417718633
 20
-10.24313116380515
 10
3.667573485290303
 20
-10.22602765079702
 10
3.667553309925071
 20
-10.2260586780632
 10
3.684891208710016
 20
-10.24298374607984
 10
3.692925398316926
 20
-10.25082653719374
 10
3.701079990529453
 20
-10.25854590703946
 10
3.711533084149424
 20
-10.26858009435497
 10
3.711533084149424
 20
-10.25469401714405
 10
3.710800160513094
 20
-10.24466449156062
 10
3.71172872405441
 20
-10.2347912486357
 10
3.71276240583375
 20
-10.22380033633158
 10
3.709183150845067
 20
-10.22051931756525
 10
3.697934849790903
 20
-10.22059711499625
 10
3.623260473641822
 20
-10.22111426157324
 10
3.548581015440529
 20
-10.22092924430371
 10
3.47390321941422
 20
-10.22091388351431
 10
3.445114100490046
 20
-10.22090792261095
 10
3.444765636014709
 20
-10.22084197056486
 10
3.445079347659252
 20
-10.24964666043845
 10
3.445216009010866
 20
-10.26219726603219
 10
3.442994903819756
 20
-10.26967705341611
 10
3.427828875456877
 20
-10.27093831942872
 10
3.410590936435912
 20
-10.27237191668577
 10
3.401581374911933
 20
-10.28548254150759
 10
3.400809896458415
 20
-10.30453037891541
 10
3.400025292554194
 20
-10.32390201565039
 10
3.409386547376142
 20
-10.33966623594938
 10
3.424452291182281
 20
-10.3443440166469
 10
3.444925281234089
 20
-10.35070070870112
 10
3.444923179633532
 20
-10.35070078512295
 10
3.444906481461935
 20
-10.372128780672
 10
3.444903883119447
 20
-10.37546665728574
 10
3.445262492593782
 20
-10.37884305050574
 10
3.444880268771561
 20
-10.38213499759487
 10
3.443781838590034
 20
-10.39159495122046
 10
3.447960603791569
 20
-10.39423593709441
 10
3.457118213520971
 20
-10.39410089970685
 10
3.490071577497474
 20
-10.39361485681787
 10
3.523035888902237
 20
-10.3938563498256
 10
3.555996073527744
 20
-10.39385268157737
 10
3.603559038465416
 20
-10.39384733204873
 10
3.651121965192158
 20
-10.39387644876898
 10
3.698684930129855
 20
-10.39386613182086
 10
3.704489436194358
 20
-10.39386483264962
 10
3.711241267361401
 20
-10.39489897296001
 10
3.711393499662487
 20
-10.38604642010199
 10
3.711605684895403
 20
-10.37370979565435
 10
3.711446956738073
 20
-10.36136675177239
 10
3.711446956738073
 20
-10.34600313474761
 97
        0
 97
        1
330
B1
 92
        1
 93
        1
 72
     4
 94
        3
 73
     0
 74
     0
 95
       38
 96
       34
 40
0.0
 40
0.0
 40
0.0
 40
0.0
 40
1.0
 40
1.0
 40
1.0
 40
2.0
 40
2.0
 40
2.0
 40
3.0
 40
3.0
 40
3.0
 40
4.0
 40
4.0
 40
4.0
 40
5.0
 40
5.0
 40
5.0
 40
6.0
 40
6.0
 40
6.0
 40
7.0
 40
7.0
 40
7.0
 40
8.0
 40
8.0
 40
8.0
 40
9.0
 40
9.0
 40
9.0
 40
10.0
 40
10.0
 40
10.0
 40
11.0
 40
11.0
 40
11.0
 40
11.0
 10
4.58621078515638
 20
-10.34962598839484
 10
4.605043112981371
 20
-10.36562910335909
 10
4.620869311390909
 20
-10.37934468344969
 10
4.637106659288317
 20
-10.39255473308261
 10
4.639260838054901
 20
-10.39430739151284
 10
4.643506223993603
 20
-10.39381393570556
 10
4.64678349808984
 20
-10.39381508203311
 10
4.769883794570104
 20
-10.3938565790911
 10
4.892987606454956
 20
-10.39428744541315
 10
5.016081024969758
 20
-10.39335678027128
 10
5.035733206271666
 20
-10.39320821621845
 10
5.056149911639876
 20
-10.3893215543868
 10
5.074819919481114
 20
-10.3830292859419
 10
5.14129667792291
 20
-10.36062507783559
 10
5.183457841670866
 20
-10.31433866327812
 10
5.202208398129313
 20
-10.24676968392908
 10
5.205899420055907
 20
-10.23346922726197
 10
5.197034028329173
 20
-10.22137982745996
 10
5.1829092857185
 20
-10.22103356011247
 10
5.165810358020658
 20
-10.22061438633159
 10
5.148692477707021
 20
-10.22103531781474
 10
5.131586519200102
 20
-10.2208059758792
 10
5.125168307566354
 20
-10.22071992488971
 10
5.122103791866796
 20
-10.2224846579704
 10
5.121126050872817
 20
-10.22969429415734
 10
5.111261672881052
 20
-10.30244024164901
 10
5.058712947239124
 20
-10.34832765779086
 10
4.985414622703223
 20
-10.34837167676947
 10
4.856889904169165
 20
-10.34844886282573
 10
4.728365032791543
 20
-10.34836151266505
 10
4.599840314257486
 20
-10.34838917737036
 10
4.596732696641361
 20
-10.34838986516688
 10
4.593624926181569
 20
-10.34893330085613
 10
4.58621078515638
 20
-10.34962598839484
 97
        0
 97
        1
330
B2
 92
        1
 93
        1
 72
     4
 94
        3
 73
     0
 74
     0
 95
       35
 96
       31
 40
0.0
 40
0.0
 40
0.0
 40
0.0
 40
1.0
 40
1.0
 40
1.0
 40
2.0
 40
2.0
 40
2.0
 40
3.0
 40
3.0
 40
3.0
 40
4.0
 40
4.0
 40
4.0
 40
5.0
 40
5.0
 40
5.0
 40
6.0
 40
6.0
 40
6.0
 40
7.0
 40
7.0
 40
7.0
 40
8.0
 40
8.0
 40
8.0
 40
9.0
 40
9.0
 40
9.0
 40
10.0
 40
10.0
 40
10.0
 40
10.0
 10
4.668296398300778
 20
-10.58665015274836
 10
4.689736086391071
 20
-10.5623608471667
 10
4.710462300202707
 20
-10.53917002908295
 10
4.730604039798158
 20
-10.51548246905286
 10
4.732134463523808
 20
-10.51368273477048
 10
4.730844615743863
 20
-10.50688761063227
 10
4.728631592162072
 20
-10.50489040232072
 10
4.69434631018387
 20
-10.47395216757675
 10
4.659762983037858
 20
-10.44334254673574
 10
4.625105526709047
 20
-10.41281905330601
 10
4.572980789423809
 20
-10.36691153822082
 10
4.520756856592949
 20
-10.32111643965913
 10
4.46854285860104
 20
-10.275310259931
 10
4.459744718091593
 20
-10.26759188356919
 10
4.450784028332969
 20
-10.26005883016422
 10
4.439608480868502
 20
-10.25047660159804
 10
4.440181873918214
 20
-10.25856478323339
 10
4.440401357436636
 20
-10.26308406503911
 10
4.440836885490802
 20
-10.26758240726124
 10
4.444725916399394
 20
-10.30774995452407
 10
4.448326225604457
 20
-10.34795120381737
 10
4.452915433391833
 20
-10.38803904310324
 10
4.45361790292577
 20
-10.39417541099881
 10
4.457648008547114
 20
-10.4012237971078
 10
4.462323725855008
 20
-10.40541064391871
 10
4.505109179596703
 20
-10.44372205758269
 10
4.548360271596745
 20
-10.48151387917088
 10
4.591511862363782
 20
-10.51941590104931
 10
4.61676240182247
 20
-10.54159474115565
 10
4.642078969749061
 20
-10.56369822932985
 10
4.668296398300778
 20
-10.58665015274836
 97
        0
 97
        1
330
B3
 92
        1
 93
        1
 72
     4
 94
        3
 73
     0
 74
     0
 95
       32
 96
       28
 40
0.0
 40
0.0
 40
0.0
 40
0.0
 40
1.0
 40
1.0
 40
1.0
 40
2.0
 40
2.0
 40
2.0
 40
3.0
 40
3.0
 40
3.0
 40
4.0
 40
4.0
 40
4.0
 40
5.0
 40
5.0
 40
5.0
 40
6.0
 40
6.0
 40
6.0
 40
7.0
 40
7.0
 40
7.0
 40
8.0
 40
8.0
 40
8.0
 40
9.0
 40
9.0
 40
9.0
 40
9.0
 10
3.692348795550035
 20
-9.726829544824568
 10
3.703831979122949
 20
-9.695797043743544
 10
3.713756042570088
 20
-9.666677495897777
 10
3.725566349820105
 20
-9.638344137709383
 10
3.729550143807702
 20
-9.628786746240468
 10
3.72872081402286
 20
-9.623496253457611
 10
3.721334949077724
 20
-9.617040747967013
 10
3.665186028863546
 20
-9.567964477795333
 10
3.609259878306829
 20
-9.518633455427107
 10
3.553253217343883
 20
-9.469394406740699
 10
3.494745174099357
 20
-9.41795620503616
 10
3.436092005784656
 20
-9.366681316799207
 10
3.377883459722852
 20
-9.314906505556917
 10
3.3708650309743
 20
-9.308663815779405
 10
3.367373135699027
 20
-9.30920088935065
 10
3.362232076267471
 20
-9.316209354602101
 10
3.336757649481948
 20
-9.350936975730796
 10
3.336286623484106
 20
-9.402779878830616
 10
3.36541310661164
 20
-9.434730435450243
 10
3.38998399800774
 20
-9.461683748984492
 10
3.418137153502407
 20
-9.485464505445886
 10
3.445472557120713
 20
-9.509786538679614
 10
3.517054542704853
 20
-9.57347762560289
 10
3.589035526704643
 20
-9.636720517552374
 10
3.660914392023515
 20
-9.700077469094923
 10
3.671360569467146
 20
-9.709285192444566
 10
3.682119082962243
 20
-9.718138624153702
 10
3.692348795550035
 20
-9.726829544824568
 97
        0
 97
        1
330
B4
 92
        1
 93
        1
 72
     4
 94
        3
 73
     0
 74
     0
 95
       44
 96
       40
 40
0.0
 40
0.0
 40
0.0
 40
0.0
 40
1.0
 40
1.0
 40
1.0
 40
2.0
 40
2.0
 40
2.0
 40
3.0
 40
3.0
 40
3.0
 40
4.0
 40
4.0
 40
4.0
 40
5.0
 40
5.0
 40
5.0
 40
6.0
 40
6.0
 40
6.0
 40
7.0
 40
7.0
 40
7.0
 40
8.0
 40
8.0
 40
8.0
 40
9.0
 40
9.0
 40
9.0
 40
10.0
 40
10.0
 40
10.0
 40
11.0
 40
11.0
 40
11.0
 40
12.0
 40
12.0
 40
12.0
 40
13.0
 40
13.0
 40
13.0
 40
13.0
 10
4.506997563211093
 20
-10.27862918392886
 10
4.509111849778315
 20
-10.28098771469
 10
4.511003901640858
 20
-10.28360241145171
 10
4.513377411082197
 20
-10.28566213282665
 10
4.526265648355724
 20
-10.29684608669329
 10
4.538955494538109
 20
-10.30830080313161
 10
4.552408489193642
 20
-10.31876929575188
 10
4.557223829199377
 20
-10.32251641130756
 10
4.563976157108375
 20
-10.32583648163303
 10
4.569854524879221
 20
-10.32585352370286
 10
4.709575195508452
 20
-10.32625863586557
 10
4.849297547418069
 20
-10.32617610028064
 10
4.989019440796684
 20
-10.32620949662378
 10
5.017852177484832
 20
-10.32621637458919
 10
5.04295613985841
 20
-10.31644385564661
 10
5.063998587235269
 20
-10.29690936397507
 10
5.085570026574032
 20
-10.27688378557321
 10
5.097181102092715
 20
-10.25203988671397
 10
5.099325040332965
 20
-10.2208999747398
 10
5.092636295393099
 20
-10.2208999747398
 10
5.087311680259643
 20
-10.22090028042716
 10
5.081987217969905
 20
-10.2208999747398
 10
4.960199542977306
 20
-10.22089386099279
 10
4.838411562297374
 20
-10.22098556719826
 10
4.71662465152316
 20
-10.22069997879003
 10
4.706591992644385
 20
-10.22067651728581
 10
4.699495460777521
 20
-10.2216096279265
 10
4.695388398365366
 20
-10.23268414572127
 10
4.693342127233917
 20
-10.23820111462073
 10
4.68676297120962
 20
-10.24268470742815
 10
4.681294224489874
 20
-10.24615418244672
 10
4.668645340412618
 20
-10.25417939248768
 10
4.655704677758294
 20
-10.2618618505857
 10
4.642325659441793
 20
-10.26857359849876
 10
4.634646334639177
 20
-10.27242617619069
 10
4.626007304396225
 20
-10.27584750545138
 10
4.617579351269569
 20
-10.27646973205552
 10
4.581026633361008
 20
-10.27916811072974
 10
4.544490728256808
 20
-10.28969353761926
 10
4.506997563211093
 20
-10.27862918392886
 97
        0
 97
        1
330
B5
 92
        1
 93
        1
 72
     4
 94
        3
 73
     0
 74
     0
 95
       29
 96
       25
 40
0.0
 40
0.0
 40
0.0
 40
0.0
 40
1.0
 40
1.0
 40
1.0
 40
2.0
 40
2.0
 40
2.0
 40
3.0
 40
3.0
 40
3.0
 40
4.0
 40
4.0
 40
4.0
 40
5.0
 40
5.0
 40
5.0
 40
6.0
 40
6.0
 40
6.0
 40
7.0
 40
7.0
 40
7.0
 40
8.0
 40
8.0
 40
8.0
 40
8.0
 10
3.893826641178217
 20
-10.45183377714417
 10
3.894066300061846
 20
-10.45584156758885
 10
3.893685260778132
 20
-10.45925273274512
 10
3.894552801481874
 20
-10.46230960626091
 10
3.898632963407054
 20
-10.47668600598374
 10
3.902452832552373
 20
-10.49117971322776
 10
3.907455482482772
 20
-10.50524377689915
 10
3.93752900413099
 20
-10.58978986753638
 10
3.99875764569909
 20
-10.63891734033942
 10
4.084565613723624
 20
-10.65933633836279
 10
4.123084741943052
 20
-10.66850237359982
 10
4.162272790509556
 20
-10.66827356661717
 10
4.201464660167983
 20
-10.66495533041577
 10
4.247709042714606
 20
-10.66104008681681
 10
4.291901116804587
 20
-10.6497272093096
 10
4.330892761247747
 20
-10.6236921232631
 10
4.380356872246693
 20
-10.59066443904925
 10
4.407105585415466
 20
-10.54243140743693
 10
4.419681563059358
 20
-10.48541047584141
 10
4.421833296327122
 20
-10.47565476970322
 10
4.423844642678659
 20
-10.4658681127206
 10
4.425964737305522
 20
-10.45588856701917
 10
4.246843030447583
 20
-10.54624011899391
 10
4.07091277596199
 20
-10.53907832287748
 10
3.893826641178217
 20
-10.45183377714417
 97
        0
 97
        1
330
B6
 92
        1
 93
        1
 72
     4
 94
        3
 73
     0
 74
     0
 95
      122
 96
      118
 40
0.0
 40
0.0
 40
0.0
 40
0.0
 40
1.0
 40
1.0
 40
1.0
 40
2.0
 40
2.0
 40
2.0
 40
3.0
 40
3.0
 40
3.0
 40
4.0
 40
4.0
 40
4.0
 40
5.0
 40
5.0
 40
5.0
 40
6.0
 40
6.0
 40
6.0
 40
7.0
 40
7.0
 40
7.0
 40
8.0
 40
8.0
 40
8.0
 40
9.0
 40
9.0
 40
9.0
 40
10.0
 40
10.0
 40
10.0
 40
11.0
 40
11.0
 40
11.0
 40
12.0
 40
12.0
 40
12.0
 40
13.0
 40
13.0
 40
13.0
 40
14.0
 40
14.0
 40
14.0
 40
15.0
 40
15.0
 40
15.0
 40
16.0
 40
16.0
 40
16.0
 40
17.0
 40
17.0
 40
17.0
 40
18.0
 40
18.0
 40
18.0
 40
19.0
 40
19.0
 40
19.0
 40
20.0
 40
20.0
 40
20.0
 40
21.0
 40
21.0
 40
21.0
 40
22.0
 40
22.0
 40
22.0
 40
23.0
 40
23.0
 40
23.0
 40
24.0
 40
24.0
 40
24.0
 40
25.0
 40
25.0
 40
25.0
 40
26.0
 40
26.0
 40
26.0
 40
27.0
 40
27.0
 40
27.0
 40
28.0
 40
28.0
 40
28.0
 40
29.0
 40
29.0
 40
29.0
 40
30.0
 40
30.0
 40
30.0
 40
31.0
 40
31.0
 40
31.0
 40
32.0
 40
32.0
 40
32.0
 40
33.0
 40
33.0
 40
33.0
 40
34.0
 40
34.0
 40
34.0
 40
35.0
 40
35.0
 40
35.0
 40
36.0
 40
36.0
 40
36.0
 40
37.0
 40
37.0
 40
37.0
 40
38.0
 40
38.0
 40
38.0
 40
39.0
 40
39.0
 40
39.0
 40
39.0
 10
4.611144938206178
 20
-9.929119639956802
 10
4.609926621266493
 20
-9.928517817983395
 10
4.608708457170425
 20
-9.927915919588157
 10
4.60749014023074
 20
-9.927314097614726
 10
4.607173906665517
 20
-9.92704264724653
 10
4.606858743006063
 20
-9.926534518446361
 10
4.606541439535122
 20
-9.926533219275116
 10
4.542722479771605
 20
-9.926277511805539
 10
4.478903290742512
 20
-9.925983134885957
 10
4.415084865931854
 20
-9.926103728546143
 10
4.41248407794463
 20
-9.926108619543784
 10
4.407839693590251
 20
-9.929839304404266
 10
4.407621203555739
 20
-9.932160999839474
 10
4.405999684999313
 20
-9.949392977957131
 10
4.405258011062541
 20
-9.966707797346998
 10
4.403992465426982
 20
-9.988200904301921
 10
4.450431494394782
 20
-9.9793166363812
 10
4.493869284944771
 20
-9.971006449306715
 10
4.53972536813305
 20
-9.962233604425616
 10
4.535557779625301
 20
-9.966722088230703
 10
4.532832729729685
 20
-9.970078458929164
 10
4.529687512569302
 20
-9.972979279051969
 10
4.496643779769505
 20
-10.00345470314566
 10
4.456804922831477
 20
-10.01911178002794
 10
4.412939704942169
 20
-10.02498732019077
 10
4.402659286464944
 20
-10.02636436528779
 10
4.399178959545401
 20
-10.030104144347
 10
4.397900651462931
 20
-10.04013015452587
 10
4.394269009304354
 20
-10.06861112149416
 10
4.389613161674307
 20
-10.09697004278736
 10
4.384841917069049
 20
-10.12528960683405
 10
4.38398163643986
 20
-10.1303955790893
 10
4.380655452367363
 20
-10.13508596939004
 10
4.378467647992112
 20
-10.13996825492578
 10
4.377209056743822
 20
-10.13973914225577
 10
4.375950389073724
 20
-10.13951002958576
 10
4.374691797825436
 20
-10.13928091691574
 10
4.373927273759136
 20
-10.13288280422539
 10
4.372947010844478
 20
-10.12650196287043
 10
4.372435748748936
 20
-10.12008367481482
 10
4.370349126887074
 20
-10.09389024272024
 10
4.3680178023003
 20
-10.06770659262088
 10
4.366588561087988
 20
-10.04147510245098
 10
4.36596113779885
 20
-10.02995917212049
 10
4.36180600605073
 20
-10.0253734033158
 10
4.349741519767854
 20
-10.02372865252063
 10
4.313718940148772
 20
-10.01881778521755
 10
4.280633481025461
 20
-10.00549707676338
 10
4.251430862641907
 20
-9.983509061986245
 10
4.243469694101096
 20
-9.977514685865495
 10
4.236331818019936
 20
-9.970426713244478
 10
4.228816112372214
 20
-9.963840602832886
 10
4.244814642026211
 20
-9.964467185481781
 10
4.258790897005837
 20
-9.968133446732911
 10
4.272959429329628
 20
-9.970765796939202
 10
4.299562329631649
 20
-9.975708150039508
 10
4.326274513161908
 20
-9.980062666362728
 10
4.352945199634202
 20
-9.984639111703168
 10
4.3594280641428
 20
-9.985751507975566
 10
4.362181772227637
 20
-9.983260996700437
 10
4.361702989413237
 20
-9.976428502283471
 10
4.360770490147261
 20
-9.963120709119921
 10
4.35993840917624
 20
-9.949782500064857
 10
4.359815446439092
 20
-9.936450022647653
 10
4.359739635975907
 20
-9.928240483133675
 10
4.356354989197395
 20
-9.925704500864993
 10
4.348458397109602
 20
-9.925725058339367
 10
4.275020526297642
 20
-9.925916495043338
 10
4.201581814845464
 20
-9.92589066446208
 10
4.128143638346172
 20
-9.925761435134214
 10
4.12115677181666
 20
-9.925749131218328
 10
4.117896845477616
 20
-9.927513864298967
 10
4.117134766910137
 20
-9.935407858044273
 10
4.114109990566273
 20
-9.96674004736259
 10
4.103568362247111
 20
-9.995219409472332
 10
4.083968606326026
 20
-10.02034476996052
 10
4.036751908735848
 20
-10.08087292896248
 10
3.953327843522553
 20
-10.09724867680832
 10
3.889136632986643
 20
-10.06525230529688
 10
3.836238888811067
 20
-10.03888516636473
 10
3.806358026616205
 20
-9.995706216579693
 10
3.799994036276454
 20
-9.936813408486814
 10
3.799072503544241
 20
-9.928285266330677
 10
3.795895685953862
 20
-9.925418683191283
 10
3.787468802732923
 20
-9.925654826670349
 10
3.769540583461169
 20
-9.926156994567135
 10
3.751588214888645
 20
-9.925739425644906
 10
3.733646774638954
 20
-9.925858032337322
 10
3.727261195130015
 20
-9.925900293613645
 10
3.720878634283685
 20
-9.92640322572884
 10
3.713660056741673
 20
-9.926734208708795
 10
3.714451175607564
 20
-9.931109970302914
 10
3.714806842841122
 20
-9.933521767085064
 10
3.715328307251992
 20
-9.935897110650481
 10
3.732500867390651
 20
-10.0141252551053
 10
3.767939928066501
 20
-10.08329947515929
 10
3.821640369016399
 20
-10.14237271521144
 10
3.897903669808051
 20
-10.22626646904043
 10
3.992522464367109
 20
-10.27673430445831
 10
4.105463318139527
 20
-10.29061793617039
 10
4.218374138129673
 20
-10.30449797605615
 10
4.322480245332295
 20
-10.27907800938285
 10
4.417007027998579
 20
-10.2160707259596
 10
4.465302878361677
 20
-10.18387902023048
 10
4.506131550944069
 20
-10.14361602209217
 10
4.538295515546021
 20
-10.09503145002552
 10
4.540472773707657
 20
-10.09174248338803
 10
4.541999070654102
 20
-10.08638951575272
 10
4.540946741946274
 20
-10.08285424153175
 10
4.532627154985751
 20
-10.05490570550803
 10
4.548651897330146
 20
-10.02295518709931
 10
4.576088712727267
 20
-10.01344693487216
 10
4.579714928935396
 20
-10.01219025416983
 10
4.584743333025143
 20
-10.00993580995196
 10
4.585760813374867
 20
-10.00698462783801
 10
4.594656468149448
 20
-9.981179418679857
 10
4.602787293170396
 20
-9.955110401337327
 10
4.611144938206178
 20
-9.929119639956802
 97
        0
 97
        1
330
B7
 92
        1
 93
        1
 72
     4
 94
        3
 73
     0
 74
     0
 95
      329
 96
      325
 40
0.0
 40
0.0
 40
0.0
 40
0.0
 40
1.0
 40
1.0
 40
1.0
 40
2.0
 40
2.0
 40
2.0
 40
3.0
 40
3.0
 40
3.0
 40
4.0
 40
4.0
 40
4.0
 40
5.0
 40
5.0
 40
5.0
 40
6.0
 40
6.0
 40
6.0
 40
7.0
 40
7.0
 40
7.0
 40
8.0
 40
8.0
 40
8.0
 40
9.0
 40
9.0
 40
9.0
 40
10.0
 40
10.0
 40
10.0
 40
11.0
 40
11.0
 40
11.0
 40
12.0
 40
12.0
 40
12.0
 40
13.0
 40
13.0
 40
13.0
 40
14.0
 40
14.0
 40
14.0
 40
15.0
 40
15.0
 40
15.0
 40
16.0
 40
16.0
 40
16.0
 40
17.0
 40
17.0
 40
17.0
 40
18.0
 40
18.0
 40
18.0
 40
19.0
 40
19.0
 40
19.0
 40
20.0
 40
20.0
 40
20.0
 40
21.0
 40
21.0
 40
21.0
 40
22.0
 40
22.0
 40
22.0
 40
23.0
 40
23.0
 40
23.0
 40
24.0
 40
24.0
 40
24.0
 40
25.0
 40
25.0
 40
25.0
 40
26.0
 40
26.0
 40
26.0
 40
27.0
 40
27.0
 40
27.0
 40
28.0
 40
28.0
 40
28.0
 40
29.0
 40
29.0
 40
29.0
 40
30.0
 40
30.0
 40
30.0
 40
31.0
 40
31.0
 40
31.0
 40
32.0
 40
32.0
 40
32.0
 40
33.0
 40
33.0
 40
33.0
 40
34.0
 40
34.0
 40
34.0
 40
35.0
 40
35.0
 40
35.0
 40
36.0
 40
36.0
 40
36.0
 40
37.0
 40
37.0
 40
37.0
 40
38.0
 40
38.0
 40
38.0
 40
39.0
 40
39.0
 40
39.0
 40
40.0
 40
40.0
 40
40.0
 40
41.0
 40
41.0
 40
41.0
 40
42.0
 40
42.0
 40
42.0
 40
43.0
 40
43.0
 40
43.0
 40
44.0
 40
44.0
 40
44.0
 40
45.0
 40
45.0
 40
45.0
 40
46.0
 40
46.0
 40
46.0
 40
47.0
 40
47.0
 40
47.0
 40
48.0
 40
48.0
 40
48.0
 40
49.0
 40
49.0
 40
49.0
 40
50.0
 40
50.0
 40
50.0
 40
51.0
 40
51.0
 40
51.0
 40
52.0
 40
52.0
 40
52.0
 40
53.0
 40
53.0
 40
53.0
 40
54.0
 40
54.0
 40
54.0
 40
55.0
 40
55.0
 40
55.0
 40
56.0
 40
56.0
 40
56.0
 40
57.0
 40
57.0
 40
57.0
 40
58.0
 40
58.0
 40
58.0
 40
59.0
 40
59.0
 40
59.0
 40
60.0
 40
60.0
 40
60.0
 40
61.0
 40
61.0
 40
61.0
 40
62.0
 40
62.0
 40
62.0
 40
63.0
 40
63.0
 40
63.0
 40
64.0
 40
64.0
 40
64.0
 40
65.0
 40
65.0
 40
65.0
 40
66.0
 40
66.0
 40
66.0
 40
67.0
 40
67.0
 40
67.0
 40
68.0
 40
68.0
 40
68.0
 40
69.0
 40
69.0
 40
69.0
 40
70.0
 40
70.0
 40
70.0
 40
71.0
 40
71.0
 40
71.0
 40
72.0
 40
72.0
 40
72.0
 40
73.0
 40
73.0
 40
73.0
 40
74.0
 40
74.0
 40
74.0
 40
75.0
 40
75.0
 40
75.0
 40
76.0
 40
76.0
 40
76.0
 40
77.0
 40
77.0
 40
77.0
 40
78.0
 40
78.0
 40
78.0
 40
79.0
 40
79.0
 40
79.0
 40
80.0
 40
80.0
 40
80.0
 40
81.0
 40
81.0
 40
81.0
 40
82.0
 40
82.0
 40
82.0
 40
83.0
 40
83.0
 40
83.0
 40
84.0
 40
84.0
 40
84.0
 40
85.0
 40
85.0
 40
85.0
 40
86.0
 40
86.0
 40
86.0
 40
87.0
 40
87.0
 40
87.0
 40
88.0
 40
88.0
 40
88.0
 40
89.0
 40
89.0
 40
89.0
 40
90.0
 40
90.0
 40
90.0
 40
91.0
 40
91.0
 40
91.0
 40
92.0
 40
92.0
 40
92.0
 40
93.0
 40
93.0
 40
93.0
 40
94.0
 40
94.0
 40
94.0
 40
95.0
 40
95.0
 40
95.0
 40
96.0
 40
96.0
 40
96.0
 40
97.0
 40
97.0
 40
97.0
 40
98.0
 40
98.0
 40
98.0
 40
99.0
 40
99.0
 40
99.0
 40
100.0
 40
100.0
 40
100.0
 40
101.0
 40
101.0
 40
101.0
 40
102.0
 40
102.0
 40
102.0
 40
103.0
 40
103.0
 40
103.0
 40
104.0
 40
104.0
 40
104.0
 40
105.0
 40
105.0
 40
105.0
 40
106.0
 40
106.0
 40
106.0
 40
107.0
 40
107.0
 40
107.0
 40
108.0
 40
108.0
 40
108.0
 40
108.0
 10
3.536525355879929
 20
-10.5434423155086
 10
3.525892460780874
 20
-10.53092518267987
 10
3.516059664113678
 20
-10.51873773365981
 10
3.505562398671422
 20
-10.50715218303503
 10
3.493291726269894
 20
-10.49360962198544
 10
3.493189492956263
 20
-10.49174233079836
 10
3.507181261568979
 20
-10.47941212578512
 10
3.516565786840576
 20
-10.47114221301922
 10
3.525778878824338
 20
-10.46267696603564
 10
3.535199780890757
 20
-10.45444916170244
 10
3.546111940490921
 20
-10.44491905282967
 10
3.552023016808359
 20
-10.4454650868614
 10
3.561347971257317
 20
-10.45617201561589
 10
3.571706836751142
 20
-10.46806615762213
 10
3.58224173994856
 20
-10.47980707384337
 10
3.593989495924258
 20
-10.49307069518461
 10
3.622242840448431
 20
-10.46849198010288
 10
3.649924167515943
 20
-10.4444109240295
 10
3.67760549458343
 20
-10.42032986795609
 10
3.677308977852412
 20
-10.41932545574069
 10
3.67701246112137
 20
-10.41832104352521
 10
3.676715944390353
 20
-10.41731663130978
 10
3.672914072587875
 20
-10.41712572955872
 10
3.669112238996275
 20
-10.41676937452863
 10
3.665310252561059
 20
-10.4167679225137
 10
3.563898550097039
 20
-10.41672917664186
 10
3.462486121625589
 20
-10.41655187797795
 10
3.361076176863864
 20
-10.41696906479102
 10
3.350010017707593
 20
-10.41701453578457
 10
3.346891662823231
 20
-10.41391127421318
 10
3.346972622207759
 20
-10.40295727365676
 10
3.347444507951295
 20
-10.33911049634424
 10
3.347209109585112
 20
-10.27525844592489
 10
3.347258936623448
 20
-10.21140822962964
 10
3.347262127235151
 20
-10.20731568736674
 10
3.347653703179806
 20
-10.20322337436932
 10
3.347944918145837
 20
-10.19757251440991
 10
3.355349563757625
 20
-10.19757251440991
 10
3.361898953476106
 20
-10.19757243798808
 10
3.368448352747312
 20
-10.19757251440991
 10
3.477372140374452
 20
-10.19757282009724
 10
3.586295918448866
 20
-10.19757885742246
 10
3.695219696523281
 20
-10.19756716488127
 10
3.71131635181713
 20
-10.197565407179
 10
3.711305461705225
 20
-10.19752643204166
 10
3.711325178539406
 20
-10.18116367590824
 10
3.71133729140072
 20
-10.17114813552115
 10
3.711036991788684
 20
-10.16111593517341
 10
3.711511074660089
 20
-10.15112133436992
 10
3.71211935427881
 20
-10.13829935482982
 10
3.719305223274179
 20
-10.13112227434582
 10
3.732034235648446
 20
-10.13057753948533
 10
3.742443157446081
 20
-10.13013192374857
 10
3.752883259353615
 20
-10.13035599257728
 10
3.763309299642944
 20
-10.13038082967455
 10
3.779361935958174
 20
-10.13041911701533
 10
3.787743883138444
 20
-10.13853037804582
 10
3.788174634827706
 20
-10.15482786992965
 10
3.788472259675396
 20
-10.16608862774337
 10
3.787843193316777
 20
-10.17739157041162
 10
3.788596330529217
 20
-10.18861075474557
 10
3.788802860546133
 20
-10.19168742151732
 10
3.79237458798381
 20
-10.1969747427939
 10
3.794608703992808
 20
-10.19708555445883
 10
3.809797964594432
 20
-10.19783953231151
 10
3.825042478184842
 20
-10.19748004398606
 10
3.842927442696337
 20
-10.19748004398606
 10
3.827672268259549
 20
-10.18146225602891
 10
3.814274794069206
 20
-10.1680773532309
 10
3.801641385414111
 20
-10.15400648801594
 10
3.757878763842174
 20
-10.10526395201034
 10
3.726211120866436
 20
-10.04927578513219
 10
3.705594725235818
 20
-9.987349641449629
 10
3.691733637965903
 20
-9.945714871321088
 10
3.682854948839323
 20
-9.902750437635024
 10
3.682375096119181
 20
-9.85861354011202
 10
3.682247165962558
 20
-9.846841978733765
 10
3.677329000373926
 20
-9.839314733388542
 10
3.669065010300477
 20
-9.832091646958133
 10
3.60821129426909
 20
-9.77890269736925
 10
3.5475336541522
 20
-9.725512185182953
 10
3.4868373862123
 20
-9.672143223954915
 10
3.424877005546376
 20
-9.61766282172746
 10
3.363010060129984
 20
-9.563075963879857
 10
3.301007838507782
 20
-9.508643229773774
 10
3.232877028494284
 20
-9.448830092592617
 10
3.207880226851759
 20
-9.354014091480873
 10
3.238339602956532
 20
-9.268294825328261
 10
3.242199118318441
 20
-9.257433314301149
 10
3.247711652363073
 20
-9.246865630911669
 10
3.254107737486542
 20
-9.237260103237581
 10
3.267447006894599
 20
-9.217227417604817
 10
3.293123664968662
 20
-9.212415689725048
 10
3.312165245338494
 20
-9.227908933710093
 10
3.34218404895076
 20
-9.252333833125753
 10
3.370842677586703
 20
-9.278436915502551
 10
3.399947972759719
 20
-9.303976721170378
 10
3.462270478304516
 20
-9.35866451316042
 10
3.524551964427852
 20
-9.413399209053446
 10
3.58677003953115
 20
-9.46820576057957
 10
3.630868152971465
 20
-9.507050827937593
 10
3.674820721021483
 20
-9.546061023781854
 10
3.718874395163033
 20
-9.584956529552906
 10
3.725981282188942
 20
-9.591231297396889
 10
3.733277198630907
 20
-9.597291931251094
 10
3.740762794074473
 20
-9.603688324450104
 10
3.840273121211667
 20
-9.44312678814693
 10
3.982145907217828
 20
-9.354024198268941
 10
4.172086806510125
 20
-9.358268113087255
 10
4.361534020729651
 20
-9.362501004055475
 10
4.499371428007608
 20
-9.457179216593505
 10
4.592104284451149
 20
-9.621957805438997
 10
4.60951516609129
 20
-9.60711301627167
 10
4.626892727810096
 20
-9.592563635718734
 10
4.643977135358682
 20
-9.577677655180801
 10
4.687347445425808
 20
-9.539888279091453
 10
4.730563689067745
 20
-9.501922177501985
 10
4.773882643659791
 20
-9.464073784648284
 10
4.854229659992066
 20
-9.393873314838703
 10
4.934606022310137
 20
-9.323706623481433
 10
5.014969851446772
 20
-9.253525483620427
 10
5.021859891507649
 20
-9.247508491412013
 10
5.028325790368222
 20
-9.240902888655428
 10
5.035715629248922
 20
-9.235580031224243
 10
5.058582265896322
 20
-9.219109491641221
 10
5.084771876899063
 20
-9.224537070872125
 10
5.098723447625085
 20
-9.248766796078395
 10
5.120935760496422
 20
-9.287342419141497
 10
5.127983382387027
 20
-9.329130873586032
 10
5.122832244825606
 20
-9.372986615167468
 10
5.115442405944905
 20
-9.435904064720261
 10
5.083995278182379
 20
-9.484931405810179
 10
5.036410150911731
 20
-9.525709124132212
 10
4.958538743596187
 20
-9.592440520137895
 10
4.881810912662861
 20
-9.660505744691286
 10
4.804545224834454
 20
-9.72794480691588
 10
4.752454724532551
 20
-9.773410527356215
 10
4.70020526680787
 20
-9.818694631298789
 10
4.648259662310642
 20
-9.864324849745191
 10
4.644550451986585
 20
-9.867583018382017
 10
4.640891985762942
 20
-9.872805916049198
 10
4.640357949959732
 20
-9.877475213922707
 10
4.635367451101526
 20
-9.921114987390232
 10
4.626933842758843
 20
-9.963898224898658
 10
4.611301144442854
 20
-10.00509074185126
 10
4.610599744814686
 20
-10.00693885115707
 10
4.610639637014046
 20
-10.00906826924817
 10
4.610306590644515
 20
-10.01124629162816
 10
4.637456824149542
 20
-10.02341318317381
 10
4.653542703964249
 20
-10.04240485053077
 10
4.65079809007812
 20
-10.07344220439849
 10
4.650578606559697
 20
-10.07592461495884
 10
4.650894687281202
 20
-10.07889918215518
 10
4.649650234072977
 20
-10.08077526185366
 10
4.640381946416785
 20
-10.09474861280344
 10
4.647019183037905
 20
-10.10647829501451
 10
4.653831119980496
 20
-10.118790923005
 10
4.666922486499136
 20
-10.14245418089063
 10
4.678989189015307
 20
-10.16669113751335
 10
4.692409016593223
 20
-10.1901592904468
 10
4.694578021196345
 20
-10.19395233552702
 10
4.701520180950688
 20
-10.19700225465552
 10
4.706277440359599
 20
-10.19703251770334
 10
4.785149668064225
 20
-10.19753476202198
 10
4.864025258329724
 20
-10.19753224010135
 10
4.942900084376838
 20
-10.19757465422134
 10
5.020941453859828
 20
-10.19761668623222
 10
5.098982670499203
 20
-10.19752528571409
 10
5.177024039982243
 20
-10.19761385862421
 10
5.203717729427731
 20
-10.19764419809384
 10
5.219373048607722
 20
-10.20869815841423
 10
5.224396561699879
 20
-10.23133423037671
 10
5.22562542485323
 20
-10.2368716803287
 10
5.226026180971151
 20
-10.24317227875389
 10
5.224701179145717
 20
-10.24860854619255
 10
5.209145514042347
 20
-10.31242299706764
 10
5.172893286800368
 20
-10.35984144830985
 10
5.114380448085512
 20
-10.39101001847325
 10
5.079354791341781
 20
-10.40966741671124
 10
5.042313279358065
 20
-10.4165172588854
 10
5.003601950216332
 20
-10.41662944614343
 10
4.895513959572048
 20
-10.41694292852245
 10
4.787424287647328
 20
-10.41666505871987
 10
4.679335379940943
 20
-10.41666215469005
 10
4.675781153104177
 20
-10.41666207826822
 10
4.67222692626736
 20
-10.41711174436237
 10
4.664505416610229
 20
-10.41763317056234
 10
4.694467209531441
 20
-10.44405831366945
 10
4.721638688307418
 20
-10.46802267359637
 10
4.750113465106829
 20
-10.4931365708089
 10
4.7614585926296
 20
-10.48050663934744
 10
4.772132277884666
 20
-10.46851261399911
 10
4.78293190632851
 20
-10.45663306856393
 10
4.793444341505593
 20
-10.44506929816293
 10
4.797869013076024
 20
-10.4449272299663
 10
4.809881608930961
 20
-10.45555574991514
 10
4.820186940927341
 20
-10.46467371581616
 10
4.830267898407655
 20
-10.47405510779238
 10
4.840777429554918
 20
-10.48292982298337
 10
4.849066600623978
 20
-10.48992960480351
 10
4.84864796179598
 20
-10.49664555591766
 10
4.841831439543132
 20
-10.50428223733474
 10
4.830523147346235
 20
-10.5169512967772
 10
4.819450234410017
 20
-10.52983036343021
 10
4.807659414728655
 20
-10.54332951687585
 10
4.828177455453871
 20
-10.56183063245539
 10
4.847458226623656
 20
-10.57955071685165
 10
4.867101848679667
 20
-10.5968590403853
 10
4.907724335143458
 20
-10.63265166669415
 10
4.948538487576696
 20
-10.66822664360868
 10
4.989276982390365
 20
-10.70388767151267
 10
5.013736555826881
 20
-10.72529893067925
 10
5.038075994134159
 20
-10.74684912474708
 10
5.06270843376794
 20
-10.76805970016729
 10
5.079010587383915
 20
-10.78209732188275
 10
5.079973961072406
 20
-10.78616158806567
 10
5.065756289506857
 20
-10.80246771561719
 10
5.026065538090657
 20
-10.84798853620264
 10
4.986012852850231
 20
-10.89319388744128
 10
4.946071743493146
 20
-10.9384964472577
 10
4.93896145569546
 20
-10.94656109096702
 10
4.93211100214656
 20
-10.94521866496259
 10
4.924538820760643
 20
-10.93849537735198
 10
4.888696825944482
 20
-10.90667210130335
 10
4.85259881797141
 20
-10.87513739411462
 10
4.816654723579858
 20
-10.84342890366653
 10
4.767899730814733
 20
-10.80041915183061
 10
4.719134497523277
 20
-10.75742025189563
 10
4.670562917169086
 20
-10.71420416109744
 10
4.664390936697018
 20
-10.70871294635736
 10
4.660360448966482
 20
-10.70902352470655
 10
4.655206865906292
 20
-10.71537693062174
 10
4.646548424516494
 20
-10.72605138009516
 10
4.636984384347694
 20
-10.73598744177083
 10
4.628212838637838
 20
-10.74657507603638
 10
4.621039426402072
 20
-10.75523382311351
 10
4.614097725178781
 20
-10.75544184335626
 10
4.605945196355883
 20
-10.74799698075228
 10
4.59516620180822
 20
-10.73815369518779
 10
4.583999901386126
 20
-10.72873607926039
 10
4.573088544215225
 20
-10.71903585537645
 10
4.565553350998849
 20
-10.71233732844133
 10
4.564889703758555
 20
-10.7047568934969
 10
4.571343680812408
 20
-10.69705938029682
 10
4.580453622420488
 20
-10.68619418191603
 10
4.589621644625291
 20
-10.67535466127277
 10
4.599272194314607
 20
-10.66497581146836
 10
4.60386208989856
 20
-10.66003972495875
 10
4.604999552533753
 20
-10.65655702896222
 10
4.599363289145381
 20
-10.65161803842276
 10
4.546695956811036
 20
-10.60546643198735
 10
4.494165037457378
 20
-10.55915923068993
 10
4.441558307640535
 20
-10.51293823322569
 10
4.440727525840758
 20
-10.51220840467383
 10
4.439438824388338
 20
-10.51199977305635
 10
4.438362957754457
 20
-10.51154750861969
 10
4.431383504143241
 20
-10.52728230651112
 10
4.425036441240611
 20
-10.54303498711263
 10
4.417545037737328
 20
-10.55822336886308
 10
4.389021580227184
 20
-10.61605207928513
 10
4.34239073244627
 20
-10.65288373690199
 10
4.281692458433174
 20
-10.67206821655597
 10
4.217632082083708
 20
-10.69231526544402
 10
4.152023628564039
 20
-10.69605198762971
 10
4.086332563037583
 20
-10.68274801555804
 10
3.997566382089997
 20
-10.6647708480991
 10
3.931036204783468
 20
-10.61677350143486
 10
3.893543803956163
 20
-10.53230933500781
 10
3.892899797128216
 20
-10.53085869568091
 10
3.891608879442502
 20
-10.52969524962082
 10
3.889269606984574
 20
-10.52662630145462
 10
3.877751231155267
 20
-10.53640310002015
 10
3.866431704948227
 20
-10.5457817408102
 10
3.855363606587818
 20
-10.55544818624179
 10
3.818958191771798
 20
-10.58724318621042
 10
3.782809439698363
 20
-10.61933546712844
 10
3.746143388204195
 20
-10.65082584965118
 10
3.739458273301629
 20
-10.65656742233217
 10
3.738410300638583
 20
-10.65986563601202
 10
3.744918498986432
 20
-10.66643485719742
 10
3.754577531499737
 20
-10.67618475527597
 10
3.763180108526007
 20
-10.68698927471748
 10
3.772118788795296
 20
-10.69744194801733
 10
3.778615141758286
 20
-10.70503873723505
 10
3.778816742566631
 20
-10.71233473009884
 10
3.770753665505
 20
-10.71916791231233
 10
3.759307279047005
 20
-10.72886828903994
 10
3.747518331700676
 20
-10.73822461465336
 10
3.736703380678313
 20
-10.74859123696372
 10
3.728085901393645
 20
-10.75685152057804
 10
3.721585421651449
 20
-10.75496726374293
 10
3.714681472816057
 20
-10.74698454424381
 10
3.705412459152436
 20
-10.7362672985412
 10
3.695741848730676
 20
-10.72589089423559
 10
3.686668857081283
 20
-10.71501346836071
 10
3.682142047724533
 20
-10.70958629512082
 10
3.678671617432983
 20
-10.70943818959899
 10
3.673343219418559
 20
-10.71410924517474
 10
3.620062525413282
 20
-10.760816744059
 10
3.566584739488108
 20
-10.8072995627399
 10
3.513214402667017
 20
-10.85390496204874
 10
3.480884755520492
 20
-10.88213671740368
 10
3.448628511549284
 20
-10.91045238393664
 10
3.416379623179965
 20
-10.93877630402809
 10
3.408850104285041
 20
-10.94538939134842
 10
3.402126396354358
 20
-10.94429548916082
 10
3.395838101845027
 20
-10.93707347263613
 10
3.363284653346251
 20
-10.89968592257042
 10
3.330717917000406
 20
-10.86230983578035
 10
3.298195877877004
 20
-10.82489492669671
 10
3.289722286584012
 20
-10.81514655705491
 10
3.281180245206087
 20
-10.80544511042154
 10
3.273054664633794
 20
-10.79541046457499
 10
3.2644440680909
 20
-10.78477667151934
 10
3.265160193251984
 20
-10.77991991087747
 10
3.276116171223495
 20
-10.77030818348182
 10
3.296181197622773
 20
-10.75270502449757
 10
3.316313212539347
 20
-10.73517828735119
 10
3.336428605706158
 20
-10.71763275043271
 10
3.390146088725916
 20
-10.67077806308864
 10
3.443860190079324
 20
-10.62391955465268
 10
3.497597523671452
 20
-10.5770876410163
 10
3.510119738552399
 20
-10.56617460256499
 10
3.522728997906698
 20
-10.55536152387763
 10
3.536525355879929
 20
-10.5434423155086
 97
        0
 97
        1
330
B8
 75
     2
 76
     1
 98
        1
 10
0.0
 20
0.0
450
        0
451
        0
460
0.0
461
0.0
452
        0
462
0.0
453
        0
470

  0
SPLINE
  5
BA
330
7C
100
AcDbEntity
  8
Layer 3
100
AcDbSpline
210
0.0
220
0.0
230
1.0
 70
     9
 71
     3
 72
    17
 73
    13
 74
     0
 42
0.0000000001
 43
0.0000000001
 40
0.0
 40
0.0
 40
0.0
 40
0.0
 40
1.0
 40
1.0
 40
1.0
 40
2.0
 40
2.0
 40
2.0
 40
3.0
 40
3.0
 40
3.0
 40
4.0
 40
4.0
 40
4.0
 40
4.0
 10
4.154357322227825
 20
-10.22519770963746
 30
0.0
 10
4.122317772377956
 20
-10.22436669857221
 30
0.0
 10
4.099347431296513
 20
-10.19963406990895
 30
0.0
 10
4.100484970353591
 20
-10.16719208266075
 30
0.0
 10
4.101523619552406
 20
-10.13756593445156
 30
0.0
 10
4.12739447506927
 20
-10.11359431445003
 30
0.0
 10
4.157624126532305
 20
-10.11424756832038
 30
0.0
 10
4.187887250760291
 20
-10.11490158640908
 30
0.0
 10
4.212786402608369
 20
-10.14133895701025
 30
0.0
 10
4.211708319741167
 20
-10.17167315354749
 30
0.0
 10
4.210586905691924
 20
-10.20323025233476
 30
0.0
 10
4.186165008221526
 20
-10.22602268337755
 30
0.0
 10
4.154357322227825
 20
-10.22519770963746
 30
0.0
  0
HATCH
  5
BB
330
7C
100
AcDbEntity
  8
Layer 3
 62
    18
420
        0
440
 33554687
100
AcDbHatch
 10
0.0
 20
0.0
 30
0.0
210
0.0
220
0.0
230
1.0
  2
SOLID
 70
     1
 71
     1
 91
        1
 92
        1
 93
        1
 72
     4
 94
        3
 73
     0
 74
     0
 95
       17
 96
       13
 40
0.0
 40
0.0
 40
0.0
 40
0.0
 40
1.0
 40
1.0
 40
1.0
 40
2.0
 40
2.0
 40
2.0
 40
3.0
 40
3.0
 40
3.0
 40
4.0
 40
4.0
 40
4.0
 40
4.0
 10
4.154357322227825
 20
-10.22519770963746
 10
4.122317772377956
 20
-10.22436669857221
 10
4.099347431296513
 20
-10.19963406990895
 10
4.100484970353591
 20
-10.16719208266075
 10
4.101523619552406
 20
-10.13756593445156
 10
4.12739447506927
 20
-10.11359431445003
 10
4.157624126532305
 20
-10.11424756832038
 10
4.187887250760291
 20
-10.11490158640908
 10
4.212786402608369
 20
-10.14133895701025
 10
4.211708319741167
 20
-10.17167315354749
 10
4.210586905691924
 20
-10.20323025233476
 10
4.186165008221526
 20
-10.22602268337755
 10
4.154357322227825
 20
-10.22519770963746
 97
        0
 97
        1
330
BA
 75
     2
 76
     1
 98
        1
 10
0.0
 20
0.0
450
        0
451
        0
460
0.0
461
0.0
452
        0
462
0.0
453
        0
470

  0
ENDBLK
  5
7F
330
7C
100
AcDbEntity
  8
0
100
AcDbBlockEnd
  0
ENDSEC
  0
SECTION
  2
ENTITIES
  0
LWPOLYLINE
  5
79
330
70
100
AcDbEntity
  8
Layer 2
 62
   250
420
  2301728
370
    35
100
AcDbPolyline
 90
        4
 70
     1
 43
0.0
 10
2.610524549195613
 20
-11.59639533589903
 10
2.610524549195613
 20
-8.566395335899034
 10
5.840524549195631
 20
-8.566395335899034
 10
5.840524549195631
 20
-11.59639533589901
  0
INSERT
  5
7D
330
70
100
AcDbEntity
  8
Layer 3
100
AcDbBlockReference
  2
Block_0
 10
0.0
 20
0.0
 30
0.0
  0
ENDSEC
  0
SECTION
  2
OBJECTS
  0
DICTIONARY
  5
C
330
0
100
AcDbDictionary
281
     1
  3
ACAD_COLOR
350
63
  3
ACAD_DETAILVIEWSTYLE
350
6A
  3
ACAD_GROUP
350
D
  3
ACAD_LAYOUT
350
62
  3
ACAD_MATERIAL
350
10
  3
ACAD_MLEADERSTYLE
350
66
  3
ACAD_MLINESTYLE
350
5F
  3
ACAD_PLOTSETTINGS
350
61
  3
ACAD_PLOTSTYLENAME
350
E
  3
ACAD_SCALELIST
350
42
  3
ACAD_SECTIONVIEWSTYLE
350
68
  3
ACAD_TABLESTYLE
350
64
  3
ACAD_VISUALSTYLE
350
29
  3
ACDB_RECOMPOSE_DATA
350
C4
  3
AcDbVariableDictionary
350
BC
  0
DICTIONARY
  5
63
102
{ACAD_REACTORS
330
C
102
}
330
C
100
AcDbDictionary
281
     1
  0
DICTIONARY
  5
6A
102
{ACAD_REACTORS
330
C
102
}
330
C
100
AcDbDictionary
281
     1
  3
Imperial24
350
6B
  0
DICTIONARY
  5
D
102
{ACAD_REACTORS
330
C
102
}
330
C
100
AcDbDictionary
281
     1
  0
DICTIONARY
  5
62
102
{ACAD_REACTORS
330
C
102
}
330
C
100
AcDbDictionary
281
     1
  3
Layout1
350
6F
  3
Layout2
350
77
  3
Model
350
73
  0
DICTIONARY
  5
10
102
{ACAD_REACTORS
330
C
102
}
330
C
100
AcDbDictionary
281
     1
  3
ByBlock
350
19
  3
ByLayer
350
11
  3
Global
350
21
  0
DICTIONARY
  5
66
102
{ACAD_REACTORS
330
C
102
}
330
C
100
AcDbDictionary
281
     1
  3
Standard
350
67
  0
DICTIONARY
  5
5F
102
{ACAD_REACTORS
330
C
102
}
330
C
100
AcDbDictionary
281
     1
  3
Standard
350
60
  0
DICTIONARY
  5
61
102
{ACAD_REACTORS
330
C
102
}
330
C
100
AcDbDictionary
281
     1
  0
ACDBDICTIONARYWDFLT
  5
E
102
{ACAD_REACTORS
330
C
102
}
330
C
100
AcDbDictionary
281
     1
  3
Normal
350
F
100
AcDbDictionaryWithDefault
340
F
  0
DICTIONARY
  5
42
102
{ACAD_REACTORS
330
C
102
}
330
C
100
AcDbDictionary
281
     1
  3
A0
350
43
  3
A1
350
44
  3
A2
350
45
  3
A3
350
46
  3
A4
350
47
  3
A5
350
48
  3
A6
350
49
  3
A7
350
4A
  3
A8
350
4B
  3
A9
350
4C
  3
B0
350
4D
  3
B1
350
4E
  3
B2
350
4F
  3
B3
350
50
  3
B4
350
51
  3
B5
350
52
  3
B6
350
53
  0
DICTIONARY
  5
68
102
{ACAD_REACTORS
330
C
102
}
330
C
100
AcDbDictionary
281
     1
  3
Imperial24
350
69
  0
DICTIONARY
  5
64
102
{ACAD_REACTORS
330
C
102
}
330
C
100
AcDbDictionary
281
     1
  3
Standard
350
65
  0
DICTIONARY
  5
29
102
{ACAD_REACTORS
330
C
102
}
330
C
100
AcDbDictionary
281
     1
  3
2dWireframe
350
2F
  3
Basic
350
2E
  3
Brighten
350
35
  3
ColorChange
350
39
  3
Conceptual
350
32
  3
Dim
350
34
  3
EdgeColorOff
350
41
  3
Facepattern
350
38
  3
Flat
350
2A
  3
FlatWithEdges
350
2B
  3
Gouraud
350
2C
  3
GouraudWithEdges
350
2D
  3
Hidden
350
31
  3
JitterOff
350
3F
  3
Linepattern
350
37
  3
OverhangOff
350
40
  3
Realistic
350
33
  3
Shaded
350
3E
  3
Shaded with edges
350
3D
  3
Shades of Gray
350
3A
  3
Sketchy
350
3B
  3
Thicken
350
36
  3
Wireframe
350
30
  3
X-Ray
350
3C
  0
XRECORD
  5
C4
102
{ACAD_REACTORS
330
C
102
}
330
C
100
AcDbXrecord
280
     1
 90
        1
330
65
  0
DICTIONARY
  5
BC
102
{ACAD_REACTORS
330
C
102
}
330
C
100
AcDbDictionary
281
     1
  3
CANNOSCALE
350
C1
  3
CMLEADERSTYLE
350
BE
  3
CTABLESTYLE
350
BD
  3
CVIEWDETAILSTYLE
350
BF
  3
CVIEWSECTIONSTYLE
350
C0
  0
ACDBDETAILVIEWSTYLE
  5
6B
102
{ACAD_REACTORS
330
6A
102
}
330
6A
100
AcDbModelDocViewStyle
 70
     0
  3
Imperial24
290
     1
300
Imperial24
 90
        0
100
AcDbDetailViewStyle
 70
     0
 71
     0
 90
        3
 71
     1
340
55
 62
   256
 40
0.24
340
0
 62
   256
 40
0.24
300

 40
0.36
280
     3
 71
     2
340
5D
 90
       25
 62
   256
 71
     3
340
55
 62
   256
 40
0.24
 90
        1
 40
0.75
 90
        1
300
%<\AcVar ViewType \f "%tc1">% %<\AcVar ViewDetailId>%\PSCALE %<\AcVar ViewScale \f "%sn">%
 71
     4
340
5D
 90
       25
 62
   256
340
5D
 90
       25
 62
   256
280
     0
  0
LAYOUT
  5
6F
102
{ACAD_REACTORS
330
62
102
}
330
62
100
AcDbPlotSettings
  1

  2

  4

  6

 40
0.0
 41
0.0
 42
0.0
 43
0.0
 44
0.0
 45
0.0
 46
0.0
 47
0.0
 48
0.0
 49
0.0
140
0.0
141
0.0
142
1.0
143
1.0
 70
   688
 72
     0
 73
     0
 74
     5
  7

 75
    16
147
1.0
 76
     0
 77
     2
 78
   300
148
0.0
149
0.0
100
AcDbLayout
  1
Layout1
 70
     1
 71
     1
 10
0.0
 20
0.0
 11
12.0
 21
9.0
 12
0.0
 22
0.0
 32
0.0
 14
0.0
 24
0.0
 34
0.0
 15
0.0
 25
0.0
 35
0.0
146
0.0
 13
0.0
 23
0.0
 33
0.0
 16
1.0
 26
0.0
 36
0.0
 17
0.0
 27
1.0
 37
0.0
 76
     0
330
6C
  0
LAYOUT
  5
77
102
{ACAD_REACTORS
330
62
102
}
330
62
100
AcDbPlotSettings
  1

  2

  4

  6

 40
0.0
 41
0.0
 42
0.0
 43
0.0
 44
0.0
 45
0.0
 46
0.0
 47
0.0
 48
0.0
 49
0.0
140
0.0
141
0.0
142
1.0
143
1.0
 70
   688
 72
     0
 73
     0
 74
     5
  7

 75
    16
147
1.0
 76
     0
 77
     2
 78
   300
148
0.0
149
0.0
100
AcDbLayout
  1
Layout2
 70
     1
 71
     2
 10
0.0
 20
0.0
 11
12.0
 21
9.0
 12
0.0
 22
0.0
 32
0.0
 14
0.0
 24
0.0
 34
0.0
 15
0.0
 25
0.0
 35
0.0
146
0.0
 13
0.0
 23
0.0
 33
0.0
 16
1.0
 26
0.0
 36
0.0
 17
0.0
 27
1.0
 37
0.0
 76
     0
330
74
  0
LAYOUT
  5
73
102
{ACAD_REACTORS
330
62
102
}
330
62
100
AcDbPlotSettings
  1

  2

  4

  6

 40
0.0
 41
0.0
 42
0.0
 43
0.0
 44
0.0
 45
0.0
 46
0.0
 47
0.0
 48
0.0
 49
0.0
140
0.0
141
0.0
142
1.0
143
1.0
 70
  1712
 72
     0
 73
     0
 74
     0
  7

 75
     0
147
1.0
 76
     0
 77
     2
 78
   300
148
0.0
149
0.0
100
AcDbLayout
  1
Model
 70
     1
 71
     0
 10
0.0
 20
0.0
 11
12.0
 21
9.0
 12
0.0
 22
0.0
 32
0.0
 14
0.0
 24
0.0
 34
0.0
 15
0.0
 25
0.0
 35
0.0
146
0.0
 13
0.0
 23
0.0
 33
0.0
 16
1.0
 26
0.0
 36
0.0
 17
0.0
 27
1.0
 37
0.0
 76
     0
330
70
  0
MATERIAL
  5
19
102
{ACAD_XDICTIONARY
360
1A
102
}
102
{ACAD_REACTORS
330
10
102
}
330
10
100
AcDbMaterial
  1
ByBlock
 72
     0
 43
0.0208333333333333
 43
0.0
 43
0.0
 43
0.0
 43
0.0
 43
0.0208333333333333
 43
0.0
 43
0.0
 43
0.0
 43
0.0
 43
1.0
 43
0.0
 43
0.0
 43
0.0
 43
0.0
 43
1.0
 77
     0
 47
0.0208333333333333
 47
0.0
 47
0.0
 47
0.0
 47
0.0
 47
0.0208333333333333
 47
0.0
 47
0.0
 47
0.0
 47
0.0
 47
1.0
 47
0.0
 47
0.0
 47
0.0
 47
0.0
 47
1.0
171
     0
 49
0.0208333333333333
 49
0.0
 49
0.0
 49
0.0
 49
0.0
 49
0.0208333333333333
 49
0.0
 49
0.0
 49
0.0
 49
0.0
 49
1.0
 49
0.0
 49
0.0
 49
0.0
 49
0.0
 49
1.0
175
     0
142
0.0208333333333333
142
0.0
142
0.0
142
0.0
142
0.0
142
0.0208333333333333
142
0.0
142
0.0
142
0.0
142
0.0
142
1.0
142
0.0
142
0.0
142
0.0
142
0.0
142
1.0
179
     0
144
0.0208333333333333
144
0.0
144
0.0
144
0.0
144
0.0
144
0.0208333333333333
144
0.0
144
0.0
144
0.0
144
0.0
144
1.0
144
0.0
144
0.0
144
0.0
144
0.0
144
1.0
147
0.0208333333333333
147
0.0
147
0.0
147
0.0
147
0.0
147
0.0208333333333333
147
0.0
147
0.0
147
0.0
147
0.0
147
1.0
147
0.0
147
0.0
147
0.0
147
0.0
147
1.0
  0
MATERIAL
  5
11
102
{ACAD_XDICTIONARY
360
12
102
}
102
{ACAD_REACTORS
330
10
102
}
330
10
100
AcDbMaterial
  1
ByLayer
 72
     0
 43
0.0208333333333333
 43
0.0
 43
0.0
 43
0.0
 43
0.0
 43
0.0208333333333333
 43
0.0
 43
0.0
 43
0.0
 43
0.0
 43
1.0
 43
0.0
 43
0.0
 43
0.0
 43
0.0
 43
1.0
 77
     0
 47
0.0208333333333333
 47
0.0
 47
0.0
 47
0.0
 47
0.0
 47
0.0208333333333333
 47
0.0
 47
0.0
 47
0.0
 47
0.0
 47
1.0
 47
0.0
 47
0.0
 47
0.0
 47
0.0
 47
1.0
171
     0
 49
0.0208333333333333
 49
0.0
 49
0.0
 49
0.0
 49
0.0
 49
0.0208333333333333
 49
0.0
 49
0.0
 49
0.0
 49
0.0
 49
1.0
 49
0.0
 49
0.0
 49
0.0
 49
0.0
 49
1.0
175
     0
142
0.0208333333333333
142
0.0
142
0.0
142
0.0
142
0.0
142
0.0208333333333333
142
0.0
142
0.0
142
0.0
142
0.0
142
1.0
142
0.0
142
0.0
142
0.0
142
0.0
142
1.0
179
     0
144
0.0208333333333333
144
0.0
144
0.0
144
0.0
144
0.0
144
0.0208333333333333
144
0.0
144
0.0
144
0.0
144
0.0
144
1.0
144
0.0
144
0.0
144
0.0
144
0.0
144
1.0
147
0.0208333333333333
147
0.0
147
0.0
147
0.0
147
0.0
147
0.0208333333333333
147
0.0
147
0.0
147
0.0
147
0.0
147
1.0
147
0.0
147
0.0
147
0.0
147
0.0
147
1.0
  0
MATERIAL
  5
21
102
{ACAD_XDICTIONARY
360
22
102
}
102
{ACAD_REACTORS
330
10
102
}
330
10
100
AcDbMaterial
  1
Global
 72
     0
 43
0.0208333333333333
 43
0.0
 43
0.0
 43
0.0
 43
0.0
 43
0.0208333333333333
 43
0.0
 43
0.0
 43
0.0
 43
0.0
 43
1.0
 43
0.0
 43
0.0
 43
0.0
 43
0.0
 43
1.0
 77
     0
 47
0.0208333333333333
 47
0.0
 47
0.0
 47
0.0
 47
0.0
 47
0.0208333333333333
 47
0.0
 47
0.0
 47
0.0
 47
0.0
 47
1.0
 47
0.0
 47
0.0
 47
0.0
 47
0.0
 47
1.0
171
     0
 49
0.0208333333333333
 49
0.0
 49
0.0
 49
0.0
 49
0.0
 49
0.0208333333333333
 49
0.0
 49
0.0
 49
0.0
 49
0.0
 49
1.0
 49
0.0
 49
0.0
 49
0.0
 49
0.0
 49
1.0
175
     0
142
0.0208333333333333
142
0.0
142
0.0
142
0.0
142
0.0
142
0.0208333333333333
142
0.0
142
0.0
142
0.0
142
0.0
142
1.0
142
0.0
142
0.0
142
0.0
142
0.0
142
1.0
179
     0
144
0.0208333333333333
144
0.0
144
0.0
144
0.0
144
0.0
144
0.0208333333333333
144
0.0
144
0.0
144
0.0
144
0.0
144
1.0
144
0.0
144
0.0
144
0.0
144
0.0
144
1.0
147
0.0208333333333333
147
0.0
147
0.0
147
0.0
147
0.0
147
0.0208333333333333
147
0.0
147
0.0
147
0.0
147
0.0
147
1.0
147
0.0
147
0.0
147
0.0
147
0.0
147
1.0
  0
MLEADERSTYLE
  5
67
102
{ACAD_REACTORS
330
66
102
}
330
66
100
AcDbMLeaderStyle
179
     2
170
     2
171
     1
172
     0
 90
        2
 40
0.0
 41
0.0
173
     1
 91
-1056964608
340
5B
 92
       -2
290
     1
 42
0.09
291
     1
 43
0.36
  3
Standard
 44
0.18
300

342
55
174
     1
178
     6
175
     1
176
     0
 93
-1056964608
 45
0.18
292
     0
297
     0
 46
0.18
 94
-1056964608
 47
1.0
 49
1.0
140
1.0
293
     1
141
0.0
294
     1
177
     0
142
1.0
295
     1
296
     0
143
0.125
271
     0
272
     9
273
     9
298
     1
  0
MLINESTYLE
  5
60
102
{ACAD_REACTORS
330
5F
102
}
330
5F
100
AcDbMlineStyle
  2
STANDARD
 70
     0
  3

 62
   256
 51
90.0
 52
90.0
 71
     2
 49
0.5
 62
   256
  6
BYLAYER
 49
-0.5
 62
   256
  6
BYLAYER
  0
ACDBPLACEHOLDER
  5
F
102
{ACAD_REACTORS
330
E
102
}
330
E
  0
SCALE
  5
43
102
{ACAD_REACTORS
330
42
102
}
330
42
100
AcDbScale
 70
     0
300
1:1
140
1.0
141
1.0
290
     1
  0
SCALE
  5
44
102
{ACAD_REACTORS
330
42
102
}
330
42
100
AcDbScale
 70
     0
300
1/128" = 1'-0"
140
0.0078125
141
12.0
290
     0
  0
SCALE
  5
45
102
{ACAD_REACTORS
330
42
102
}
330
42
100
AcDbScale
 70
     0
300
1/64" = 1'-0"
140
0.015625
141
12.0
290
     0
  0
SCALE
  5
46
102
{ACAD_REACTORS
330
42
102
}
330
42
100
AcDbScale
 70
     0
300
1/32" = 1'-0"
140
0.03125
141
12.0
290
     0
  0
SCALE
  5
47
102
{ACAD_REACTORS
330
42
102
}
330
42
100
AcDbScale
 70
     0
300
1/16" = 1'-0"
140
0.0625
141
12.0
290
     0
  0
SCALE
  5
48
102
{ACAD_REACTORS
330
42
102
}
330
42
100
AcDbScale
 70
     0
300
3/32" = 1'-0"
140
0.09375
141
12.0
290
     0
  0
SCALE
  5
49
102
{ACAD_REACTORS
330
42
102
}
330
42
100
AcDbScale
 70
     0
300
1/8" = 1'-0"
140
0.125
141
12.0
290
     0
  0
SCALE
  5
4A
102
{ACAD_REACTORS
330
42
102
}
330
42
100
AcDbScale
 70
     0
300
3/16" = 1'-0"
140
0.1875
141
12.0
290
     0
  0
SCALE
  5
4B
102
{ACAD_REACTORS
330
42
102
}
330
42
100
AcDbScale
 70
     0
300
1/4" = 1'-0"
140
0.25
141
12.0
290
     0
  0
SCALE
  5
4C
102
{ACAD_REACTORS
330
42
102
}
330
42
100
AcDbScale
 70
     0
300
3/8" = 1'-0"
140
0.375
141
12.0
290
     0
  0
SCALE
  5
4D
102
{ACAD_REACTORS
330
42
102
}
330
42
100
AcDbScale
 70
     0
300
1/2" = 1'-0"
140
0.5
141
12.0
290
     0
  0
SCALE
  5
4E
102
{ACAD_REACTORS
330
42
102
}
330
42
100
AcDbScale
 70
     0
300
3/4" = 1'-0"
140
0.75
141
12.0
290
     0
  0
SCALE
  5
4F
102
{ACAD_REACTORS
330
42
102
}
330
42
100
AcDbScale
 70
     0
300
1" = 1'-0"
140
1.0
141
12.0
290
     0
  0
SCALE
  5
50
102
{ACAD_REACTORS
330
42
102
}
330
42
100
AcDbScale
 70
     0
300
1-1/2" = 1'-0"
140
1.5
141
12.0
290
     0
  0
SCALE
  5
51
102
{ACAD_REACTORS
330
42
102
}
330
42
100
AcDbScale
 70
     0
300
3" = 1'-0"
140
3.0
141
12.0
290
     0
  0
SCALE
  5
52
102
{ACAD_REACTORS
330
42
102
}
330
42
100
AcDbScale
 70
     0
300
6" = 1'-0"
140
6.0
141
12.0
290
     0
  0
SCALE
  5
53
102
{ACAD_REACTORS
330
42
102
}
330
42
100
AcDbScale
 70
     0
300
1'-0" = 1'-0"
140
12.0
141
12.0
290
     0
  0
ACDBSECTIONVIEWSTYLE
  5
69
102
{ACAD_REACTORS
330
68
102
}
330
68
100
AcDbModelDocViewStyle
 70
     0
  3
Imperial24
290
     1
300
Imperial24
 90
        0
100
AcDbSectionViewStyle
 70
     0
 71
     0
 90
       78
 71
     1
340
55
 62
   256
 40
0.24
340
0
340
0
 62
   256
 40
0.24
300
I, O, Q, S, X, Z
 40
0.48
 90
        3
 40
0.18
 90
        1
 71
     2
340
5D
 90
       25
 62
   256
340
5D
 90
       50
 62
   256
 40
0.24
 40
0.0
 40
0.24
 71
     3
340
55
 62
   256
 40
0.24
 90
        1
 40
0.75
 90
        1
300
%<\AcVar ViewType \f "%tc1">% %<\AcVar ViewSectionStartId>%-%<\AcVar ViewSectionEndId>%\PSCALE %<\AcVar ViewScale \f "%sn">%
 71
     4
 62
   256
 62
   257
300
ANSI31
 40
1.0
 90
        0
290
     0
290
     0
 90
        6
 40
0.0
 40
1.570796326794896
 40
0.2617993877991494
 40
1.308996938995747
 40
-0.2617993877991494
 40
1.832595714594046
  0
TABLESTYLE
  5
65
102
{ACAD_XDICTIONARY
360
C2
102
}
102
{ACAD_REACTORS
330
64
102
}
330
64
100
AcDbTableStyle
280
     0
  3
Standard
 70
     0
 71
     0
 40
0.06
 41
0.06
280
     0
281
     0
  7
Standard
140
0.18
170
     2
 62
     0
 63
     7
283
     0
 90
      512
 91
        0
  1

274
    -2
284
     1
 64
     0
275
    -2
285
     1
 65
     0
276
    -2
286
     1
 66
     0
277
    -2
287
     1
 67
     0
278
    -2
288
     1
 68
     0
279
    -2
289
     1
 69
     0
  7
Standard
140
0.25
170
     5
 62
     0
 63
     7
283
     0
 90
      512
 91
        0
  1

274
    -2
284
     1
 64
     0
275
    -2
285
     1
 65
     0
276
    -2
286
     1
 66
     0
277
    -2
287
     1
 67
     0
278
    -2
288
     1
 68
     0
279
    -2
289
     1
 69
     0
  7
Standard
140
0.18
170
     5
 62
     0
 63
     7
283
     0
 90
      512
 91
        0
  1

274
    -2
284
     1
 64
     0
275
    -2
285
     1
 65
     0
276
    -2
286
     1
 66
     0
277
    -2
287
     1
 67
     0
278
    -2
288
     1
 68
     0
279
    -2
289
     1
 69
     0
  0
VISUALSTYLE
  5
2F
102
{ACAD_REACTORS
330
29
102
}
330
29
100
AcDbVisualStyle
  2
2dWireframe
 70
     4
177
     3
291
     0
 70
    58
 90
        0
176
     1
 90
        2
176
     1
 90
        0
176
     1
 90
        0
176
     1
 40
0.6
176
     1
 40
30.0
176
     1
 62
     7
420
 16777215
176
     1
 90
        1
176
     1
 90
        4
176
     1
 62
     7
176
     1
 62
   257
176
     1
 90
        1
176
     1
 90
        1
176
     1
 40
1.0
176
     1
 90
        0
176
     1
 62
   257
176
     1
 40
1.0
176
     1
 90
        1
176
     1
 90
        6
176
     1
 90
        2
176
     1
 62
     7
176
     1
 90
        5
176
     1
 90
        0
176
     1
 90
        0
176
     1
290
     0
176
     1
 90
        1
176
     1
 40
0.0
176
     1
 90
        0
176
     1
290
     1
176
     1
290
     1
176
     1
290
     0
176
     1
290
     0
176
     1
290
     0
176
     1
290
     0
176
     1
290
     0
176
     1
290
     0
176
     1
290
     0
176
     1
 90
       50
176
     1
 40
0.0
176
     1
 40
1.0
176
     1
 90
        0
176
     1
 62
    18
420
        0
176
     1
 90
       50
176
     1
 90
        3
176
     1
 62
     5
420
      255
176
     1
290
     0
176
     1
 90
       50
176
     1
 90
       50
176
     1
 90
       50
176
     1
290
     0
176
     1
 90
       50
176
     1
 62
   256
176
     0
 40
1.0
176
     0
 90
        2
176
     1
  1
strokes_ogs.tif
176
     1
290
     0
176
     1
 40
1.0
176
     1
 40
1.0
176
     1
  0
VISUALSTYLE
  5
2E
102
{ACAD_REACTORS
330
29
102
}
330
29
100
AcDbVisualStyle
  2
Basic
 70
     7
177
     3
291
     1
 70
    58
 90
        1
176
     1
 90
        0
176
     1
 90
        1
176
     1
 90
        0
176
     1
 40
0.6
176
     1
 40
30.0
176
     1
 62
     7
420
 16777215
176
     1
 90
        0
176
     1
 90
        4
176
     1
 62
     7
176
     1
 62
   257
176
     1
 90
        1
176
     1
 90
        1
176
     1
 40
1.0
176
     1
 90
        8
176
     1
 62
     7
176
     1
 40
1.0
176
     1
 90
        1
176
     1
 90
        6
176
     1
 90
        2
176
     1
 62
     7
176
     1
 90
        5
176
     1
 90
        0
176
     1
 90
        0
176
     1
290
     0
176
     1
 90
        1
176
     1
 40
0.0
176
     1
 90
        0
176
     1
290
     0
176
     1
290
     1
176
     1
290
     1
176
     1
290
     0
176
     1
290
     0
176
     1
290
     0
176
     1
290
     0
176
     1
290
     0
176
     1
290
     0
176
     1
 90
       50
176
     1
 40
0.0
176
     1
 40
1.0
176
     1
 90
        0
176
     1
 62
    18
420
        0
176
     1
 90
       50
176
     1
 90
        3
176
     1
 62
     5
420
      255
176
     1
290
     0
176
     1
 90
       50
176
     1
 90
       50
176
     1
 90
       50
176
     1
290
     0
176
     1
 90
       50
176
     1
 62
   256
176
     0
 40
1.0
176
     0
 90
        2
176
     1
  1
strokes_ogs.tif
176
     1
290
     0
176
     1
 40
1.0
176
     1
 40
1.0
176
     1
  0
VISUALSTYLE
  5
35
102
{ACAD_REACTORS
330
29
102
}
330
29
100
AcDbVisualStyle
  2
Brighten
 70
    12
177
     3
291
     1
 70
    58
 90
        2
176
     1
 90
        2
176
     1
 90
        0
176
     1
 90
        0
176
     1
 40
0.6
176
     1
 40
30.0
176
     1
 62
     7
420
 16777215
176
     1
 90
        1
176
     1
 90
        4
176
     1
 62
     7
176
     1
 62
   257
176
     1
 90
        1
176
     1
 90
        1
176
     1
 40
1.0
176
     1
 90
        8
176
     1
 62
     7
176
     1
 40
1.0
176
     1
 90
        1
176
     1
 90
        6
176
     1
 90
        2
176
     1
 62
     7
176
     1
 90
        5
176
     1
 90
        0
176
     1
 90
        0
176
     1
290
     0
176
     1
 90
        1
176
     1
 40
50.0
176
     1
 90
        0
176
     1
290
     0
176
     1
290
     1
176
     1
290
     1
176
     1
290
     0
176
     1
290
     0
176
     1
290
     0
176
     1
290
     0
176
     1
290
     0
176
     1
290
     0
176
     1
 90
       50
176
     1
 40
0.0
176
     1
 40
1.0
176
     1
 90
        0
176
     1
 62
    18
420
        0
176
     1
 90
       50
176
     1
 90
        3
176
     1
 62
     5
420
      255
176
     1
290
     0
176
     1
 90
       50
176
     1
 90
       50
176
     1
 90
       50
176
     1
290
     0
176
     1
 90
       50
176
     1
 62
   256
176
     0
 40
1.0
176
     0
 90
        2
176
     1
  1
strokes_ogs.tif
176
     1
290
     0
176
     1
 40
1.0
176
     1
 40
1.0
176
     1
  0
VISUALSTYLE
  5
39
102
{ACAD_REACTORS
330
29
102
}
330
29
100
AcDbVisualStyle
  2
ColorChange
 70
    16
177
     3
291
     1
 70
    58
 90
        2
176
     1
 90
        2
176
     1
 90
        3
176
     1
 90
        0
176
     1
 40
0.6
176
     1
 40
30.0
176
     1
 62
     8
420
  8421504
176
     1
 90
        1
176
     1
 90
        4
176
     1
 62
     7
176
     1
 62
   257
176
     1
 90
        1
176
     1
 90
        1
176
     1
 40
1.0
176
     1
 90
        8
176
     1
 62
     8
420
  8421504
176
     1
 40
1.0
176
     1
 90
        1
176
     1
 90
        6
176
     1
 90
        2
176
     1
 62
     7
176
     1
 90
        5
176
     1
 90
        0
176
     1
 90
        0
176
     1
290
     0
176
     1
 90
        1
176
     1
 40
0.0
176
     1
 90
        0
176
     1
290
     0
176
     1
290
     1
176
     1
290
     1
176
     1
290
     0
176
     1
290
     0
176
     1
290
     0
176
     1
290
     0
176
     1
290
     0
176
     1
290
     0
176
     1
 90
       50
176
     1
 40
0.0
176
     1
 40
1.0
176
     1
 90
        0
176
     1
 62
    18
420
        0
176
     1
 90
       50
176
     1
 90
        3
176
     1
 62
     5
420
      255
176
     1
290
     0
176
     1
 90
       50
176
     1
 90
       50
176
     1
 90
       50
176
     1
290
     0
176
     1
 90
       50
176
     1
 62
   256
176
     0
 40
1.0
176
     0
 90
        2
176
     1
  1
strokes_ogs.tif
176
     1
290
     0
176
     1
 40
1.0
176
     1
 40
1.0
176
     1
  0
VISUALSTYLE
  5
32
102
{ACAD_REACTORS
330
29
102
}
330
29
100
AcDbVisualStyle
  2
Conceptual
 70
     9
177
     3
291
     0
 70
    58
 90
        3
176
     1
 90
        2
176
     1
 90
        0
176
     1
 90
        0
176
     1
 40
0.6
176
     1
 40
30.0
176
     1
 62
     7
420
 16777215
176
     1
 90
        2
176
     1
 90
        2
176
     1
 62
     7
176
     1
 62
   257
176
     1
 90
        1
176
     1
 90
        1
176
     1
 40
179.0
176
     1
 90
        8
176
     1
 62
     7
176
     1
 40
1.0
176
     1
 90
        1
176
     1
 90
        6
176
     1
 90
        2
176
     1
 62
     7
176
     1
 90
        3
176
     1
 90
        0
176
     1
 90
        0
176
     1
290
     0
176
     1
 90
        1
176
     1
 40
0.0
176
     1
 90
        0
176
     1
290
     0
176
     1
290
     1
176
     1
290
     1
176
     1
290
     0
176
     1
290
     0
176
     1
290
     0
176
     1
290
     0
176
     1
290
     0
176
     1
290
     0
176
     1
 90
       50
176
     1
 40
0.0
176
     1
 40
1.0
176
     1
 90
        0
176
     1
 62
    18
420
        0
176
     1
 90
       50
176
     1
 90
        3
176
     1
 62
     5
420
      255
176
     1
290
     0
176
     1
 90
       50
176
     1
 90
       50
176
     1
 90
       50
176
     1
290
     0
176
     1
 90
       50
176
     1
 62
   256
176
     0
 40
1.0
176
     0
 90
        2
176
     1
  1
strokes_ogs.tif
176
     1
290
     0
176
     1
 40
1.0
176
     1
 40
1.0
176
     1
  0
VISUALSTYLE
  5
34
102
{ACAD_REACTORS
330
29
102
}
330
29
100
AcDbVisualStyle
  2
Dim
 70
    11
177
     3
291
     1
 70
    58
 90
        2
176
     1
 90
        2
176
     1
 90
        0
176
     1
 90
        0
176
     1
 40
0.6
176
     1
 40
30.0
176
     1
 62
     7
420
 16777215
176
     1
 90
        1
176
     1
 90
        4
176
     1
 62
     7
176
     1
 62
   257
176
     1
 90
        1
176
     1
 90
        1
176
     1
 40
1.0
176
     1
 90
        8
176
     1
 62
     7
176
     1
 40
1.0
176
     1
 90
        1
176
     1
 90
        6
176
     1
 90
        2
176
     1
 62
     7
176
     1
 90
        5
176
     1
 90
        0
176
     1
 90
        0
176
     1
290
     0
176
     1
 90
        1
176
     1
 40
-50.0
176
     1
 90
        0
176
     1
290
     0
176
     1
290
     1
176
     1
290
     1
176
     1
290
     0
176
     1
290
     0
176
     1
290
     0
176
     1
290
     0
176
     1
290
     0
176
     1
290
     0
176
     1
 90
       50
176
     1
 40
0.0
176
     1
 40
1.0
176
     1
 90
        0
176
     1
 62
    18
420
        0
176
     1
 90
       50
176
     1
 90
        3
176
     1
 62
     5
420
      255
176
     1
290
     0
176
     1
 90
       50
176
     1
 90
       50
176
     1
 90
       50
176
     1
290
     0
176
     1
 90
       50
176
     1
 62
   256
176
     0
 40
1.0
176
     0
 90
        2
176
     1
  1
strokes_ogs.tif
176
     1
290
     0
176
     1
 40
1.0
176
     1
 40
1.0
176
     1
  0
VISUALSTYLE
  5
41
102
{ACAD_REACTORS
330
29
102
}
330
29
100
AcDbVisualStyle
  2
EdgeColorOff
 70
    22
177
     3
291
     1
 70
    58
 90
        2
176
     0
 90
        2
176
     0
 90
        0
176
     0
 90
        0
176
     0
 40
0.6
176
     0
 40
30.0
176
     0
 62
     7
420
 16777215
176
     0
 90
        1
176
     0
 90
        4
176
     0
 62
     7
176
     0
 62
   257
176
     0
 90
        1
176
     0
 90
        1
176
     0
 40
1.0
176
     0
 90
        8
176
     2
 62
     7
176
     0
 40
1.0
176
     0
 90
        1
176
     0
 90
        6
176
     0
 90
        2
176
     0
 62
     7
176
     0
 90
        5
176
     0
 90
        0
176
     0
 90
        0
176
     0
290
     0
176
     0
 90
        1
176
     0
 40
0.0
176
     0
 90
        0
176
     0
290
     0
176
     0
290
     1
176
     0
290
     1
176
     0
290
     0
176
     0
290
     0
176
     0
290
     0
176
     0
290
     0
176
     0
290
     0
176
     0
290
     0
176
     0
 90
       50
176
     0
 40
0.0
176
     0
 40
1.0
176
     0
 90
        0
176
     0
 62
    18
420
        0
176
     0
 90
       50
176
     0
 90
        3
176
     0
 62
     5
420
      255
176
     0
290
     0
176
     0
 90
       50
176
     0
 90
       50
176
     0
 90
       50
176
     0
290
     0
176
     0
 90
       50
176
     0
 62
   256
176
     0
 40
1.0
176
     0
 90
        2
176
     0
  1
strokes_ogs.tif
176
     0
290
     0
176
     0
 40
1.0
176
     0
 40
1.0
176
     0
  0
VISUALSTYLE
  5
38
102
{ACAD_REACTORS
330
29
102
}
330
29
100
AcDbVisualStyle
  2
Facepattern
 70
    15
177
     3
291
     1
 70
    58
 90
        2
176
     1
 90
        2
176
     1
 90
        0
176
     1
 90
        0
176
     1
 40
0.6
176
     1
 40
30.0
176
     1
 62
     7
420
 16777215
176
     1
 90
        1
176
     1
 90
        4
176
     1
 62
     7
176
     1
 62
   257
176
     1
 90
        1
176
     1
 90
        1
176
     1
 40
1.0
176
     1
 90
        8
176
     1
 62
     7
176
     1
 40
1.0
176
     1
 90
        1
176
     1
 90
        6
176
     1
 90
        2
176
     1
 62
     7
176
     1
 90
        5
176
     1
 90
        0
176
     1
 90
        0
176
     1
290
     0
176
     1
 90
        1
176
     1
 40
0.0
176
     1
 90
        0
176
     1
290
     0
176
     1
290
     1
176
     1
290
     1
176
     1
290
     0
176
     1
290
     0
176
     1
290
     0
176
     1
290
     0
176
     1
290
     0
176
     1
290
     0
176
     1
 90
       50
176
     1
 40
0.0
176
     1
 40
1.0
176
     1
 90
        0
176
     1
 62
    18
420
        0
176
     1
 90
       50
176
     1
 90
        3
176
     1
 62
     5
420
      255
176
     1
290
     0
176
     1
 90
       50
176
     1
 90
       50
176
     1
 90
       50
176
     1
290
     0
176
     1
 90
       50
176
     1
 62
   256
176
     0
 40
1.0
176
     0
 90
        2
176
     1
  1
strokes_ogs.tif
176
     1
290
     0
176
     1
 40
1.0
176
     1
 40
1.0
176
     1
  0
VISUALSTYLE
  5
2A
102
{ACAD_REACTORS
330
29
102
}
330
29
100
AcDbVisualStyle
  2
Flat
 70
     0
177
     3
291
     1
 70
    58
 90
        2
176
     1
 90
        1
176
     1
 90
        1
176
     1
 90
        2
176
     1
 40
0.6
176
     1
 40
30.0
176
     1
 62
     7
420
 16777215
176
     1
 90
        0
176
     1
 90
        0
176
     1
 62
     7
176
     1
 62
   257
176
     1
 90
        1
176
     1
 90
        1
176
     1
 40
1.0
176
     1
 90
        8
176
     1
 62
     7
176
     1
 40
1.0
176
     1
 90
        1
176
     1
 90
        6
176
     1
 90
        2
176
     1
 62
     7
176
     1
 90
        5
176
     1
 90
        0
176
     1
 90
        0
176
     1
290
     0
176
     1
 90
       13
176
     1
 40
0.0
176
     1
 90
        0
176
     1
290
     0
176
     1
290
     1
176
     1
290
     1
176
     1
290
     0
176
     1
290
     0
176
     1
290
     0
176
     1
290
     0
176
     1
290
     0
176
     1
290
     0
176
     1
 90
       50
176
     1
 40
0.0
176
     1
 40
1.0
176
     1
 90
        0
176
     1
 62
    18
420
        0
176
     1
 90
       50
176
     1
 90
        3
176
     1
 62
     5
420
      255
176
     1
290
     0
176
     1
 90
       50
176
     1
 90
       50
176
     1
 90
       50
176
     1
290
     0
176
     1
 90
       50
176
     1
 62
   256
176
     0
 40
1.0
176
     0
 90
        2
176
     1
  1
strokes_ogs.tif
176
     1
290
     0
176
     1
 40
1.0
176
     1
 40
1.0
176
     1
  0
VISUALSTYLE
  5
2B
102
{ACAD_REACTORS
330
29
102
}
330
29
100
AcDbVisualStyle
  2
FlatWithEdges
 70
     1
177
     3
291
     1
 70
    58
 90
        2
176
     1
 90
        1
176
     1
 90
        1
176
     1
 90
        2
176
     1
 40
0.6
176
     1
 40
30.0
176
     1
 62
     7
420
 16777215
176
     1
 90
        1
176
     1
 90
        0
176
     1
 62
     7
176
     1
 62
   257
176
     1
 90
        1
176
     1
 90
        1
176
     1
 40
1.0
176
     1
 90
        0
176
     1
 62
   257
176
     1
 40
1.0
176
     1
 90
        1
176
     1
 90
        6
176
     1
 90
        2
176
     1
 62
     7
176
     1
 90
        5
176
     1
 90
        0
176
     1
 90
        0
176
     1
290
     0
176
     1
 90
       13
176
     1
 40
0.0
176
     1
 90
        0
176
     1
290
     0
176
     1
290
     1
176
     1
290
     1
176
     1
290
     0
176
     1
290
     0
176
     1
290
     0
176
     1
290
     0
176
     1
290
     0
176
     1
290
     0
176
     1
 90
       50
176
     1
 40
0.0
176
     1
 40
1.0
176
     1
 90
        0
176
     1
 62
    18
420
        0
176
     1
 90
       50
176
     1
 90
        3
176
     1
 62
     5
420
      255
176
     1
290
     0
176
     1
 90
       50
176
     1
 90
       50
176
     1
 90
       50
176
     1
290
     0
176
     1
 90
       50
176
     1
 62
   256
176
     0
 40
1.0
176
     0
 90
        2
176
     1
  1
strokes_ogs.tif
176
     1
290
     0
176
     1
 40
1.0
176
     1
 40
1.0
176
     1
  0
VISUALSTYLE
  5
2C
102
{ACAD_REACTORS
330
29
102
}
330
29
100
AcDbVisualStyle
  2
Gouraud
 70
     2
177
     3
291
     1
 70
    58
 90
        2
176
     1
 90
        2
176
     1
 90
        1
176
     1
 90
        2
176
     1
 40
0.6
176
     1
 40
30.0
176
     1
 62
     7
420
 16777215
176
     1
 90
        0
176
     1
 90
        0
176
     1
 62
     7
176
     1
 62
   257
176
     1
 90
        1
176
     1
 90
        1
176
     1
 40
1.0
176
     1
 90
        0
176
     1
 62
     7
176
     1
 40
1.0
176
     1
 90
        1
176
     1
 90
        6
176
     1
 90
        2
176
     1
 62
     7
176
     1
 90
        5
176
     1
 90
        0
176
     1
 90
        0
176
     1
290
     0
176
     1
 90
       13
176
     1
 40
0.0
176
     1
 90
        0
176
     1
290
     0
176
     1
290
     1
176
     1
290
     1
176
     1
290
     0
176
     1
290
     0
176
     1
290
     0
176
     1
290
     0
176
     1
290
     0
176
     1
290
     0
176
     1
 90
       50
176
     1
 40
0.0
176
     1
 40
1.0
176
     1
 90
        0
176
     1
 62
    18
420
        0
176
     1
 90
       50
176
     1
 90
        3
176
     1
 62
     5
420
      255
176
     1
290
     0
176
     1
 90
       50
176
     1
 90
       50
176
     1
 90
       50
176
     1
290
     0
176
     1
 90
       50
176
     1
 62
   256
176
     0
 40
1.0
176
     0
 90
        2
176
     1
  1
strokes_ogs.tif
176
     1
290
     0
176
     1
 40
1.0
176
     1
 40
1.0
176
     1
  0
VISUALSTYLE
  5
2D
102
{ACAD_REACTORS
330
29
102
}
330
29
100
AcDbVisualStyle
  2
GouraudWithEdges
 70
     3
177
     3
291
     1
 70
    58
 90
        2
176
     1
 90
        2
176
     1
 90
        1
176
     1
 90
        2
176
     1
 40
0.6
176
     1
 40
30.0
176
     1
 62
     7
420
 16777215
176
     1
 90
        1
176
     1
 90
        0
176
     1
 62
     7
176
     1
 62
   257
176
     1
 90
        1
176
     1
 90
        1
176
     1
 40
1.0
176
     1
 90
        0
176
     1
 62
   257
176
     1
 40
1.0
176
     1
 90
        1
176
     1
 90
        6
176
     1
 90
        2
176
     1
 62
     7
176
     1
 90
        5
176
     1
 90
        0
176
     1
 90
        0
176
     1
290
     0
176
     1
 90
       13
176
     1
 40
0.0
176
     1
 90
        0
176
     1
290
     0
176
     1
290
     1
176
     1
290
     1
176
     1
290
     0
176
     1
290
     0
176
     1
290
     0
176
     1
290
     0
176
     1
290
     0
176
     1
290
     0
176
     1
 90
       50
176
     1
 40
0.0
176
     1
 40
1.0
176
     1
 90
        0
176
     1
 62
    18
420
        0
176
     1
 90
       50
176
     1
 90
        3
176
     1
 62
     5
420
      255
176
     1
290
     0
176
     1
 90
       50
176
     1
 90
       50
176
     1
 90
       50
176
     1
290
     0
176
     1
 90
       50
176
     1
 62
   256
176
     0
 40
1.0
176
     0
 90
        2
176
     1
  1
strokes_ogs.tif
176
     1
290
     0
176
     1
 40
1.0
176
     1
 40
1.0
176
     1
  0
VISUALSTYLE
  5
31
102
{ACAD_REACTORS
330
29
102
}
330
29
100
AcDbVisualStyle
  2
Hidden
 70
     6
177
     3
291
     0
 70
    58
 90
        1
176
     1
 90
        2
176
     1
 90
        2
176
     1
 90
        0
176
     1
 40
0.6
176
     1
 40
30.0
176
     1
 62
     7
420
 16777215
176
     1
 90
        2
176
     1
 90
        2
176
     1
 62
     7
176
     1
 62
   257
176
     1
 90
        2
176
     1
 90
        1
176
     1
 40
40.0
176
     1
 90
        0
176
     1
 62
   257
176
     1
 40
1.0
176
     1
 90
        1
176
     1
 90
        6
176
     1
 90
        2
176
     1
 62
     7
176
     1
 90
        3
176
     1
 90
        0
176
     1
 90
        0
176
     1
290
     0
176
     1
 90
        1
176
     1
 40
0.0
176
     1
 90
        0
176
     1
290
     0
176
     1
290
     1
176
     1
290
     1
176
     1
290
     0
176
     1
290
     0
176
     1
290
     0
176
     1
290
     0
176
     1
290
     0
176
     1
290
     0
176
     1
 90
       50
176
     1
 40
0.0
176
     1
 40
1.0
176
     1
 90
        0
176
     1
 62
    18
420
        0
176
     1
 90
       50
176
     1
 90
        3
176
     1
 62
     5
420
      255
176
     1
290
     0
176
     1
 90
       50
176
     1
 90
       50
176
     1
 90
       50
176
     1
290
     0
176
     1
 90
       50
176
     1
 62
   256
176
     0
 40
1.0
176
     0
 90
        2
176
     1
  1
strokes_ogs.tif
176
     1
290
     0
176
     1
 40
1.0
176
     1
 40
1.0
176
     1
  0
VISUALSTYLE
  5
3F
102
{ACAD_REACTORS
330
29
102
}
330
29
100
AcDbVisualStyle
  2
JitterOff
 70
    20
177
     3
291
     1
 70
    58
 90
        2
176
     0
 90
        2
176
     0
 90
        0
176
     0
 90
        0
176
     0
 40
0.6
176
     0
 40
30.0
176
     0
 62
     7
420
 16777215
176
     0
 90
        1
176
     0
 90
        4
176
     0
 62
     7
176
     0
 62
   257
176
     0
 90
        1
176
     0
 90
        1
176
     0
 40
1.0
176
     0
 90
       10
176
     2
 62
     7
176
     0
 40
1.0
176
     0
 90
        1
176
     0
 90
        6
176
     0
 90
        2
176
     0
 62
     7
176
     0
 90
        5
176
     0
 90
        0
176
     0
 90
        0
176
     0
290
     0
176
     0
 90
        1
176
     0
 40
0.0
176
     0
 90
        0
176
     0
290
     0
176
     0
290
     1
176
     0
290
     1
176
     0
290
     0
176
     0
290
     0
176
     0
290
     0
176
     0
290
     0
176
     0
290
     0
176
     0
290
     0
176
     0
 90
       50
176
     0
 40
0.0
176
     0
 40
1.0
176
     0
 90
        0
176
     0
 62
    18
420
        0
176
     0
 90
       50
176
     0
 90
        3
176
     0
 62
     5
420
      255
176
     0
290
     0
176
     0
 90
       50
176
     0
 90
       50
176
     0
 90
       50
176
     0
290
     0
176
     0
 90
       50
176
     0
 62
   256
176
     0
 40
1.0
176
     0
 90
        2
176
     0
  1
strokes_ogs.tif
176
     0
290
     0
176
     0
 40
1.0
176
     0
 40
1.0
176
     0
  0
VISUALSTYLE
  5
37
102
{ACAD_REACTORS
330
29
102
}
330
29
100
AcDbVisualStyle
  2
Linepattern
 70
    14
177
     3
291
     1
 70
    58
 90
        2
176
     1
 90
        2
176
     1
 90
        0
176
     1
 90
        0
176
     1
 40
0.6
176
     1
 40
30.0
176
     1
 62
     7
420
 16777215
176
     1
 90
        1
176
     1
 90
        4
176
     1
 62
     7
176
     1
 62
   257
176
     1
 90
        7
176
     1
 90
        7
176
     1
 40
1.0
176
     1
 90
        8
176
     1
 62
     7
176
     1
 40
1.0
176
     1
 90
        1
176
     1
 90
        6
176
     1
 90
        2
176
     1
 62
     7
176
     1
 90
        5
176
     1
 90
        0
176
     1
 90
        0
176
     1
290
     0
176
     1
 90
        1
176
     1
 40
0.0
176
     1
 90
        0
176
     1
290
     0
176
     1
290
     1
176
     1
290
     1
176
     1
290
     0
176
     1
290
     0
176
     1
290
     0
176
     1
290
     0
176
     1
290
     0
176
     1
290
     0
176
     1
 90
       50
176
     1
 40
0.0
176
     1
 40
1.0
176
     1
 90
        0
176
     1
 62
    18
420
        0
176
     1
 90
       50
176
     1
 90
        3
176
     1
 62
     5
420
      255
176
     1
290
     0
176
     1
 90
       50
176
     1
 90
       50
176
     1
 90
       50
176
     1
290
     0
176
     1
 90
       50
176
     1
 62
   256
176
     0
 40
1.0
176
     0
 90
        2
176
     1
  1
strokes_ogs.tif
176
     1
290
     0
176
     1
 40
1.0
176
     1
 40
1.0
176
     1
  0
VISUALSTYLE
  5
40
102
{ACAD_REACTORS
330
29
102
}
330
29
100
AcDbVisualStyle
  2
OverhangOff
 70
    21
177
     3
291
     1
 70
    58
 90
        2
176
     0
 90
        2
176
     0
 90
        0
176
     0
 90
        0
176
     0
 40
0.6
176
     0
 40
30.0
176
     0
 62
     7
420
 16777215
176
     0
 90
        1
176
     0
 90
        4
176
     0
 62
     7
176
     0
 62
   257
176
     0
 90
        1
176
     0
 90
        1
176
     0
 40
1.0
176
     0
 90
        9
176
     2
 62
     7
176
     0
 40
1.0
176
     0
 90
        1
176
     0
 90
        6
176
     0
 90
        2
176
     0
 62
     7
176
     0
 90
        5
176
     0
 90
        0
176
     0
 90
        0
176
     0
290
     0
176
     0
 90
        1
176
     0
 40
0.0
176
     0
 90
        0
176
     0
290
     0
176
     0
290
     1
176
     0
290
     1
176
     0
290
     0
176
     0
290
     0
176
     0
290
     0
176
     0
290
     0
176
     0
290
     0
176
     0
290
     0
176
     0
 90
       50
176
     0
 40
0.0
176
     0
 40
1.0
176
     0
 90
        0
176
     0
 62
    18
420
        0
176
     0
 90
       50
176
     0
 90
        3
176
     0
 62
     5
420
      255
176
     0
290
     0
176
     0
 90
       50
176
     0
 90
       50
176
     0
 90
       50
176
     0
290
     0
176
     0
 90
       50
176
     0
 62
   256
176
     0
 40
1.0
176
     0
 90
        2
176
     0
  1
strokes_ogs.tif
176
     0
290
     0
176
     0
 40
1.0
176
     0
 40
1.0
176
     0
  0
VISUALSTYLE
  5
33
102
{ACAD_REACTORS
330
29
102
}
330
29
100
AcDbVisualStyle
  2
Realistic
 70
     8
177
     3
291
     0
 70
    58
 90
        2
176
     1
 90
        3
176
     1
 90
        0
176
     1
 90
        2
176
     1
 40
0.6
176
     1
 40
30.0
176
     1
 62
     7
420
 16777215
176
     1
 90
        0
176
     1
 90
        0
176
     1
 62
     7
176
     1
 62
   257
176
     1
 90
        1
176
     1
 90
        1
176
     1
 40
1.0
176
     1
 90
        8
176
     1
 62
   257
176
     1
 40
1.0
176
     1
 90
        1
176
     1
 90
        6
176
     1
 90
        2
176
     1
 62
     7
176
     1
 90
        3
176
     1
 90
        0
176
     1
 90
        0
176
     1
290
     0
176
     1
 90
       13
176
     1
 40
0.0
176
     1
 90
        0
176
     1
290
     0
176
     1
290
     1
176
     1
290
     1
176
     1
290
     0
176
     1
290
     0
176
     1
290
     0
176
     1
290
     0
176
     1
290
     0
176
     1
290
     0
176
     1
 90
       50
176
     1
 40
0.0
176
     1
 40
1.0
176
     1
 90
        0
176
     1
 62
    18
420
        0
176
     1
 90
       50
176
     1
 90
        3
176
     1
 62
     5
420
      255
176
     1
290
     0
176
     1
 90
       50
176
     1
 90
       50
176
     1
 90
       50
176
     1
290
     0
176
     1
 90
       50
176
     1
 62
   256
176
     0
 40
1.0
176
     0
 90
        2
176
     1
  1
strokes_ogs.tif
176
     1
290
     0
176
     1
 40
1.0
176
     1
 40
1.0
176
     1
  0
VISUALSTYLE
  5
3E
102
{ACAD_REACTORS
330
29
102
}
330
29
100
AcDbVisualStyle
  2
Shaded
 70
    27
177
     3
291
     0
 70
    58
 90
        2
176
     1
 90
        2
176
     1
 90
        1
176
     1
 90
        2
176
     1
 40
0.6
176
     1
 40
30.0
176
     1
 62
     7
420
 16777215
176
     1
 90
        0
176
     1
 90
        4
176
     1
 62
     7
176
     1
 62
   257
176
     1
 90
        1
176
     1
 90
        1
176
     1
 40
1.0
176
     1
 90
        8
176
     1
 62
   257
176
     1
 40
1.0
176
     1
 90
        1
176
     1
 90
        6
176
     1
 90
        2
176
     1
 62
     8
420
  7895160
176
     1
 90
        3
176
     1
 90
        0
176
     1
 90
        0
176
     1
290
     0
176
     1
 90
        5
176
     1
 40
0.0
176
     1
 90
        0
176
     1
290
     0
176
     1
290
     1
176
     1
290
     1
176
     1
290
     0
176
     1
290
     0
176
     1
290
     0
176
     1
290
     0
176
     1
290
     0
176
     1
290
     0
176
     1
 90
       50
176
     1
 40
0.0
176
     1
 40
1.0
176
     1
 90
        0
176
     1
 62
    18
420
        0
176
     1
 90
       50
176
     1
 90
        3
176
     1
 62
     5
420
      255
176
     1
290
     0
176
     1
 90
       50
176
     1
 90
       50
176
     1
 90
       50
176
     1
290
     0
176
     1
 90
       50
176
     1
 62
   256
176
     0
 40
1.0
176
     0
 90
        2
176
     1
  1
strokes_ogs.tif
176
     1
290
     0
176
     1
 40
1.0
176
     1
 40
1.0
176
     1
  0
VISUALSTYLE
  5
3D
102
{ACAD_REACTORS
330
29
102
}
330
29
100
AcDbVisualStyle
  2
Shaded with edges
 70
    26
177
     3
291
     0
 70
    58
 90
        2
176
     1
 90
        2
176
     1
 90
        1
176
     1
 90
        2
176
     1
 40
0.6
176
     1
 40
30.0
176
     1
 62
     7
420
 16777215
176
     1
 90
        1
176
     1
 90
        2
176
     1
 62
     7
176
     1
 62
   257
176
     1
 90
        2
176
     1
 90
        1
176
     1
 40
1.0
176
     1
 90
        8
176
     1
 62
   257
176
     1
 40
1.0
176
     1
 90
        1
176
     1
 90
        6
176
     1
 90
        2
176
     1
 62
     7
176
     1
 90
        3
176
     1
 90
        0
176
     1
 90
        0
176
     1
290
     0
176
     1
 90
        5
176
     1
 40
0.0
176
     1
 90
        0
176
     1
290
     0
176
     1
290
     1
176
     1
290
     1
176
     1
290
     0
176
     1
290
     0
176
     1
290
     0
176
     1
290
     0
176
     1
290
     0
176
     1
290
     0
176
     1
 90
       50
176
     1
 40
0.0
176
     1
 40
1.0
176
     1
 90
        0
176
     1
 62
    18
420
        0
176
     1
 90
       50
176
     1
 90
        3
176
     1
 62
     5
420
      255
176
     1
290
     0
176
     1
 90
       50
176
     1
 90
       50
176
     1
 90
       50
176
     1
290
     0
176
     1
 90
       50
176
     1
 62
   256
176
     0
 40
1.0
176
     0
 90
        2
176
     1
  1
strokes_ogs.tif
176
     1
290
     0
176
     1
 40
1.0
176
     1
 40
1.0
176
     1
  0
VISUALSTYLE
  5
3A
102
{ACAD_REACTORS
330
29
102
}
330
29
100
AcDbVisualStyle
  2
Shades of Gray
 70
    23
177
     3
291
     0
 70
    58
 90
        2
176
     1
 90
        2
176
     1
 90
        3
176
     1
 90
        0
176
     1
 40
0.6
176
     1
 40
30.0
176
     1
 62
     7
420
 16777215
176
     1
 90
        2
176
     1
 90
        2
176
     1
 62
     7
176
     1
 62
     7
176
     1
 90
        1
176
     1
 90
        1
176
     1
 40
40.0
176
     1
 90
        8
176
     1
 62
     7
176
     1
 40
1.0
176
     1
 90
        1
176
     1
 90
        6
176
     1
 90
        2
176
     1
 62
     7
176
     1
 90
        3
176
     1
 90
        0
176
     1
 90
        0
176
     1
290
     0
176
     1
 90
        1
176
     1
 40
0.0
176
     1
 90
        0
176
     1
290
     0
176
     1
290
     1
176
     1
290
     1
176
     1
290
     0
176
     1
290
     0
176
     1
290
     0
176
     1
290
     0
176
     1
290
     0
176
     1
290
     0
176
     1
 90
       50
176
     1
 40
0.0
176
     1
 40
1.0
176
     1
 90
        0
176
     1
 62
    18
420
        0
176
     1
 90
       50
176
     1
 90
        3
176
     1
 62
     5
420
      255
176
     1
290
     0
176
     1
 90
       50
176
     1
 90
       50
176
     1
 90
       50
176
     1
290
     0
176
     1
 90
       50
176
     1
 62
   256
176
     0
 40
1.0
176
     0
 90
        2
176
     1
  1
strokes_ogs.tif
176
     1
290
     0
176
     1
 40
1.0
176
     1
 40
1.0
176
     1
  0
VISUALSTYLE
  5
3B
102
{ACAD_REACTORS
330
29
102
}
330
29
100
AcDbVisualStyle
  2
Sketchy
 70
    24
177
     3
291
     0
 70
    58
 90
        1
176
     1
 90
        2
176
     1
 90
        2
176
     1
 90
        0
176
     1
 40
0.6
176
     1
 40
30.0
176
     1
 62
     7
420
 16777215
176
     1
 90
        2
176
     1
 90
        2
176
     1
 62
     7
176
     1
 62
     7
176
     1
 90
        1
176
     1
 90
        1
176
     1
 40
40.0
176
     1
 90
       11
176
     1
 62
     7
176
     1
 40
1.0
176
     1
 90
        1
176
     1
 90
        6
176
     1
 90
        2
176
     1
 62
     7
176
     1
 90
        6
176
     1
 90
        0
176
     1
 90
        0
176
     1
290
     0
176
     1
 90
        1
176
     1
 40
0.0
176
     1
 90
        0
176
     1
290
     0
176
     1
290
     1
176
     1
290
     1
176
     1
290
     0
176
     1
290
     0
176
     1
290
     0
176
     1
290
     0
176
     1
290
     0
176
     1
290
     0
176
     1
 90
       50
176
     1
 40
0.0
176
     1
 40
1.0
176
     1
 90
        0
176
     1
 62
    18
420
        0
176
     1
 90
       50
176
     1
 90
        3
176
     1
 62
     5
420
      255
176
     1
290
     0
176
     1
 90
       50
176
     1
 90
       50
176
     1
 90
       50
176
     1
290
     0
176
     1
 90
       50
176
     1
 62
   256
176
     0
 40
1.0
176
     0
 90
        2
176
     1
  1
strokes_ogs.tif
176
     1
290
     0
176
     1
 40
1.0
176
     1
 40
1.0
176
     1
  0
VISUALSTYLE
  5
36
102
{ACAD_REACTORS
330
29
102
}
330
29
100
AcDbVisualStyle
  2
Thicken
 70
    13
177
     3
291
     1
 70
    58
 90
        2
176
     1
 90
        2
176
     1
 90
        0
176
     1
 90
        0
176
     1
 40
0.6
176
     1
 40
30.0
176
     1
 62
     7
420
 16777215
176
     1
 90
        1
176
     1
 90
        4
176
     1
 62
     7
176
     1
 62
   257
176
     1
 90
        1
176
     1
 90
        1
176
     1
 40
1.0
176
     1
 90
       12
176
     1
 62
     7
176
     1
 40
1.0
176
     1
 90
        1
176
     1
 90
        6
176
     1
 90
        2
176
     1
 62
     7
176
     1
 90
        5
176
     1
 90
        0
176
     1
 90
        0
176
     1
290
     0
176
     1
 90
        1
176
     1
 40
0.0
176
     1
 90
        0
176
     1
290
     0
176
     1
290
     1
176
     1
290
     1
176
     1
290
     0
176
     1
290
     0
176
     1
290
     0
176
     1
290
     0
176
     1
290
     0
176
     1
290
     0
176
     1
 90
       50
176
     1
 40
0.0
176
     1
 40
1.0
176
     1
 90
        0
176
     1
 62
    18
420
        0
176
     1
 90
       50
176
     1
 90
        3
176
     1
 62
     5
420
      255
176
     1
290
     0
176
     1
 90
       50
176
     1
 90
       50
176
     1
 90
       50
176
     1
290
     0
176
     1
 90
       50
176
     1
 62
   256
176
     0
 40
1.0
176
     0
 90
        2
176
     1
  1
strokes_ogs.tif
176
     1
290
     0
176
     1
 40
1.0
176
     1
 40
1.0
176
     1
  0
VISUALSTYLE
  5
30
102
{ACAD_REACTORS
330
29
102
}
330
29
100
AcDbVisualStyle
  2
Wireframe
 70
     5
177
     3
291
     0
 70
    58
 90
        0
176
     1
 90
        2
176
     1
 90
        0
176
     1
 90
        0
176
     1
 40
0.6
176
     1
 40
30.0
176
     1
 62
     7
420
 16777215
176
     1
 90
        1
176
     1
 90
        4
176
     1
 62
     7
176
     1
 62
   257
176
     1
 90
        1
176
     1
 90
        1
176
     1
 40
1.0
176
     1
 90
        0
176
     1
 62
   257
176
     1
 40
1.0
176
     1
 90
        1
176
     1
 90
        6
176
     1
 90
        2
176
     1
 62
     7
176
     1
 90
        3
176
     1
 90
        0
176
     1
 90
        0
176
     1
290
     0
176
     1
 90
        1
176
     1
 40
0.0
176
     1
 90
        0
176
     1
290
     0
176
     1
290
     1
176
     1
290
     1
176
     1
290
     0
176
     1
290
     0
176
     1
290
     0
176
     1
290
     0
176
     1
290
     0
176
     1
290
     0
176
     1
 90
       50
176
     1
 40
0.0
176
     1
 40
1.0
176
     1
 90
        0
176
     1
 62
    18
420
        0
176
     1
 90
       50
176
     1
 90
        3
176
     1
 62
     5
420
      255
176
     1
290
     0
176
     1
 90
       50
176
     1
 90
       50
176
     1
 90
       50
176
     1
290
     0
176
     1
 90
       50
176
     1
 62
   256
176
     0
 40
1.0
176
     0
 90
        2
176
     1
  1
strokes_ogs.tif
176
     1
290
     0
176
     1
 40
1.0
176
     1
 40
1.0
176
     1
  0
VISUALSTYLE
  5
3C
102
{ACAD_REACTORS
330
29
102
}
330
29
100
AcDbVisualStyle
  2
X-Ray
 70
    25
177
     3
291
     0
 70
    58
 90
        2
176
     1
 90
        2
176
     1
 90
        1
176
     1
 90
        1
176
     1
 40
0.5
176
     1
 40
30.0
176
     1
 62
     7
420
 16777215
176
     1
 90
        1
176
     1
 90
        0
176
     1
 62
     7
176
     1
 62
   257
176
     1
 90
        1
176
     1
 90
        1
176
     1
 40
1.0
176
     1
 90
        8
176
     1
 62
     7
176
     1
 40
1.0
176
     1
 90
        1
176
     1
 90
        6
176
     1
 90
        2
176
     1
 62
     7
176
     1
 90
        3
176
     1
 90
        0
176
     1
 90
        0
176
     1
290
     0
176
     1
 90
       13
176
     1
 40
0.0
176
     1
 90
        0
176
     1
290
     0
176
     1
290
     1
176
     1
290
     1
176
     1
290
     0
176
     1
290
     0
176
     1
290
     0
176
     1
290
     0
176
     1
290
     0
176
     1
290
     0
176
     1
 90
       50
176
     1
 40
0.0
176
     1
 40
1.0
176
     1
 90
        0
176
     1
 62
    18
420
        0
176
     1
 90
       50
176
     1
 90
        3
176
     1
 62
     5
420
      255
176
     1
290
     0
176
     1
 90
       50
176
     1
 90
       50
176
     1
 90
       50
176
     1
290
     0
176
     1
 90
       50
176
     1
 62
   256
176
     0
 40
1.0
176
     0
 90
        2
176
     1
  1
strokes_ogs.tif
176
     1
290
     0
176
     1
 40
1.0
176
     1
 40
1.0
176
     1
  0
DICTIONARYVAR
  5
C1
102
{ACAD_REACTORS
330
BC
102
}
330
BC
100
DictionaryVariables
280
     0
  1
1:1
  0
DICTIONARYVAR
  5
BE
102
{ACAD_REACTORS
330
BC
102
}
330
BC
100
DictionaryVariables
280
     0
  1
STANDARD
  0
DICTIONARYVAR
  5
BD
102
{ACAD_REACTORS
330
BC
102
}
330
BC
100
DictionaryVariables
280
     0
  1
STANDARD
  0
DICTIONARYVAR
  5
BF
102
{ACAD_REACTORS
330
BC
102
}
330
BC
100
DictionaryVariables
280
     0
  1
Imperial24
  0
DICTIONARYVAR
  5
C0
102
{ACAD_REACTORS
330
BC
102
}
330
BC
100
DictionaryVariables
280
     0
  1
Imperial24
  0
DICTIONARY
  5
1A
330
19
100
AcDbDictionary
280
     1
281
     1
  3
BUMPTILE
360
1C
  3
DIFFUSETILE
360
1B
  3
OPACITYTILE
360
1F
  3
REFLECTIONTILE
360
1E
  3
REFRACTIONTILE
360
20
  3
SPECULARTILE
360
1D
  0
DICTIONARY
  5
12
330
11
100
AcDbDictionary
280
     1
281
     1
  3
BUMPTILE
360
14
  3
DIFFUSETILE
360
13
  3
OPACITYTILE
360
17
  3
REFLECTIONTILE
360
16
  3
REFRACTIONTILE
360
18
  3
SPECULARTILE
360
15
  0
DICTIONARY
  5
22
330
21
100
AcDbDictionary
280
     1
281
     1
  3
BUMPTILE
360
24
  3
DIFFUSETILE
360
23
  3
OPACITYTILE
360
27
  3
REFLECTIONTILE
360
26
  3
REFRACTIONTILE
360
28
  3
SPECULARTILE
360
25
  0
DICTIONARY
  5
C2
330
65
100
AcDbDictionary
280
     1
281
     1
  3
ACAD_ROUNDTRIP_2008_TABLESTYLE_CELLSTYLEMAP
360
C3
  0
XRECORD
  5
1C
102
{ACAD_REACTORS
330
1A
102
}
330
1A
100
AcDbXrecord
280
     1
270
     1
271
     1
  0
XRECORD
  5
1B
102
{ACAD_REACTORS
330
1A
102
}
330
1A
100
AcDbXrecord
280
     1
270
     1
271
     1
  0
XRECORD
  5
1F
102
{ACAD_REACTORS
330
1A
102
}
330
1A
100
AcDbXrecord
280
     1
270
     1
271
     1
  0
XRECORD
  5
1E
102
{ACAD_REACTORS
330
1A
102
}
330
1A
100
AcDbXrecord
280
     1
270
     1
271
     1
  0
XRECORD
  5
20
102
{ACAD_REACTORS
330
1A
102
}
330
1A
100
AcDbXrecord
280
     1
270
     1
271
     1
  0
XRECORD
  5
1D
102
{ACAD_REACTORS
330
1A
102
}
330
1A
100
AcDbXrecord
280
     1
270
     1
271
     1
  0
XRECORD
  5
14
102
{ACAD_REACTORS
330
12
102
}
330
12
100
AcDbXrecord
280
     1
270
     1
271
     1
  0
XRECORD
  5
13
102
{ACAD_REACTORS
330
12
102
}
330
12
100
AcDbXrecord
280
     1
270
     1
271
     1
  0
XRECORD
  5
17
102
{ACAD_REACTORS
330
12
102
}
330
12
100
AcDbXrecord
280
     1
270
     1
271
     1
  0
XRECORD
  5
16
102
{ACAD_REACTORS
330
12
102
}
330
12
100
AcDbXrecord
280
     1
270
     1
271
     1
  0
XRECORD
  5
18
102
{ACAD_REACTORS
330
12
102
}
330
12
100
AcDbXrecord
280
     1
270
     1
271
     1
  0
XRECORD
  5
15
102
{ACAD_REACTORS
330
12
102
}
330
12
100
AcDbXrecord
280
     1
270
     1
271
     1
  0
XRECORD
  5
24
102
{ACAD_REACTORS
330
22
102
}
330
22
100
AcDbXrecord
280
     1
270
     1
271
     1
  0
XRECORD
  5
23
102
{ACAD_REACTORS
330
22
102
}
330
22
100
AcDbXrecord
280
     1
270
     1
271
     1
  0
XRECORD
  5
27
102
{ACAD_REACTORS
330
22
102
}
330
22
100
AcDbXrecord
280
     1
270
     1
271
     1
  0
XRECORD
  5
26
102
{ACAD_REACTORS
330
22
102
}
330
22
100
AcDbXrecord
280
     1
270
     1
271
     1
  0
XRECORD
  5
28
102
{ACAD_REACTORS
330
22
102
}
330
22
100
AcDbXrecord
280
     1
270
     1
271
     1
  0
XRECORD
  5
25
102
{ACAD_REACTORS
330
22
102
}
330
22
100
AcDbXrecord
280
     1
270
     1
271
     1
  0
CELLSTYLEMAP
  5
C3
102
{ACAD_REACTORS
330
C2
102
}
330
C2
100
AcDbCellStyleMap
 90
        3
300
CELLSTYLE
  1
TABLEFORMAT_BEGIN
 90
        5
170
     1
 91
        0
 92
    32768
 62
   257
 93
        1
300
CONTENTFORMAT
  1
CONTENTFORMAT_BEGIN
 90
        0
 91
        0
 92
      512
 93
        0
300

 40
0.0
140
1.0
 94
        5
 62
     0
340
55
144
0.25
309
CONTENTFORMAT_END
171
     0
 94
        0
309
TABLEFORMAT_END
  1
CELLSTYLE_BEGIN
 90
        1
 91
        1
300
_TITLE
309
CELLSTYLE_END
300
CELLSTYLE
  1
TABLEFORMAT_BEGIN
 90
        5
170
     1
 91
        0
 92
        0
 62
   257
 93
        1
300
CONTENTFORMAT
  1
CONTENTFORMAT_BEGIN
 90
        0
 91
        0
 92
      512
 93
        0
300

 40
0.0
140
1.0
 94
        5
 62
     0
340
55
144
0.18
309
CONTENTFORMAT_END
171
     0
 94
        0
309
TABLEFORMAT_END
  1
CELLSTYLE_BEGIN
 90
        2
 91
        1
300
_HEADER
309
CELLSTYLE_END
300
CELLSTYLE
  1
TABLEFORMAT_BEGIN
 90
        5
170
     1
 91
        0
 92
        0
 62
   257
 93
        1
300
CONTENTFORMAT
  1
CONTENTFORMAT_BEGIN
 90
        0
 91
        0
 92
      512
 93
        0
300

 40
0.0
140
1.0
 94
        2
 62
     0
340
55
144
0.18
309
CONTENTFORMAT_END
171
     0
 94
        0
309
TABLEFORMAT_END
  1
CELLSTYLE_BEGIN
 90
        3
 91
        2
300
_DATA
309
CELLSTYLE_END
  0
ENDSEC
  0
EOF
