  0
SECTION
  2
HEADER
  9
$ACADVER
  1
AC1032
  9
$ACADMAINTVER
 90
      228
  9
$DWGCODEPAGE
  3
ANSI_1252
  9
$REQUIREDVERSIONS
160
                 0
  9
$INSBASE
 10
0.0
 20
0.0
 30
0.0
  9
$EXTMIN
 10
1.000000000000000E+20
 20
1.000000000000000E+20
 30
1.000000000000000E+20
  9
$EXTMAX
 10
-1.000000000000000E+20
 20
-1.000000000000000E+20
 30
-1.000000000000000E+20
  9
$LIMMIN
 10
0.0
 20
0.0
  9
$LIMMAX
 10
12.0
 20
9.0
  9
$ORTHOMODE
 70
     0
  9
$REGENMODE
 70
     1
  9
$FILLMODE
 70
     1
  9
$QTEXTMODE
 70
     0
  9
$MIRRTEXT
 70
     0
  9
$LTSCALE
 40
1.0
  9
$ATTMODE
 70
     1
  9
$TEXTSIZE
 40
0.2
  9
$TRACEWID
 40
0.05
  9
$TEXTSTYLE
  7
Standard
  9
$CLAYER
  8
0
  9
$CELTYPE
  6
ByLayer
  9
$CECOLOR
 62
   256
  9
$CELTSCALE
 40
1.0
  9
$DISPSILH
 70
     0
  9
$DIMSCALE
 40
1.0
  9
$DIMASZ
 40
0.18
  9
$DIMEXO
 40
0.0625
  9
$DIMDLI
 40
0.38
  9
$DIMRND
 40
0.0
  9
$DIMDLE
 40
0.0
  9
$DIMEXE
 40
0.18
  9
$DIMTP
 40
0.0
  9
$DIMTM
 40
0.0
  9
$DIMTXT
 40
0.18
  9
$DIMCEN
 40
0.09
  9
$DIMTSZ
 40
0.0
  9
$DIMTOL
 70
     0
  9
$DIMLIM
 70
     0
  9
$DIMTIH
 70
     1
  9
$DIMTOH
 70
     1
  9
$DIMSE1
 70
     0
  9
$DIMSE2
 70
     0
  9
$DIMTAD
 70
     0
  9
$DIMZIN
 70
     0
  9
$DIMBLK
  1

  9
$DIMASO
 70
     1
  9
$DIMSHO
 70
     1
  9
$DIMPOST
  1

  9
$DIMAPOST
  1

  9
$DIMALT
 70
     0
  9
$DIMALTD
 70
     2
  9
$DIMALTF
 40
25.4
  9
$DIMLFAC
 40
1.0
  9
$DIMTOFL
 70
     0
  9
$DIMTVP
 40
0.0
  9
$DIMTIX
 70
     0
  9
$DIMSOXD
 70
     0
  9
$DIMSAH
 70
     0
  9
$DIMBLK1
  1

  9
$DIMBLK2
  1

  9
$DIMSTYLE
  2
Standard
  9
$DIMCLRD
 70
     0
  9
$DIMCLRE
 70
     0
  9
$DIMCLRT
 70
     0
  9
$DIMTFAC
 40
1.0
  9
$DIMGAP
 40
0.09
  9
$DIMJUST
 70
     0
  9
$DIMSD1
 70
     0
  9
$DIMSD2
 70
     0
  9
$DIMTOLJ
 70
     1
  9
$DIMTZIN
 70
     0
  9
$DIMALTZ
 70
     0
  9
$DIMALTTZ
 70
     0
  9
$DIMUPT
 70
     0
  9
$DIMDEC
 70
     4
  9
$DIMTDEC
 70
     4
  9
$DIMALTU
 70
     2
  9
$DIMALTTD
 70
     2
  9
$DIMTXSTY
  7
Standard
  9
$DIMAUNIT
 70
     0
  9
$DIMADEC
 70
     0
  9
$DIMALTRND
 40
0.0
  9
$DIMAZIN
 70
     0
  9
$DIMDSEP
 70
    46
  9
$DIMATFIT
 70
     3
  9
$DIMFRAC
 70
     0
  9
$DIMLDRBLK
  1

  9
$DIMLUNIT
 70
     2
  9
$DIMLWD
 70
    -2
  9
$DIMLWE
 70
    -2
  9
$DIMTMOVE
 70
     0
  9
$DIMFXL
 40
1.0
  9
$DIMFXLON
 70
     0
  9
$DIMJOGANG
 40
0.7853981633974483
  9
$DIMTFILL
 70
     0
  9
$DIMTFILLCLR
 70
     0
  9
$DIMARCSYM
 70
     0
  9
$DIMLTYPE
  6

  9
$DIMLTEX1
  6

  9
$DIMLTEX2
  6

  9
$DIMTXTDIRECTION
 70
     0
  9
$LUNITS
 70
     2
  9
$LUPREC
 70
     4
  9
$SKETCHINC
 40
0.1
  9
$FILLETRAD
 40
0.0
  9
$AUNITS
 70
     0
  9
$AUPREC
 70
     0
  9
$MENU
  1
.
  9
$ELEVATION
 40
0.0
  9
$PELEVATION
 40
0.0
  9
$THICKNESS
 40
0.0
  9
$LIMCHECK
 70
     0
  9
$CHAMFERA
 40
0.0
  9
$CHAMFERB
 40
0.0
  9
$CHAMFERC
 40
0.0
  9
$CHAMFERD
 40
0.0
  9
$SKPOLY
 70
     0
  9
$TDCREATE
 40
2460329.422835648
  9
$TDUCREATE
 40
2460329.756168982
  9
$TDUPDATE
 40
2460329.422835648
  9
$TDUUPDATE
 40
2460329.756168982
  9
$TDINDWG
 40
0.0000000000
  9
$TDUSRTIMER
 40
0.0000000000
  9
$USRTIMER
 70
     1
  9
$ANGBASE
 50
0.0
  9
$ANGDIR
 70
     0
  9
$PDMODE
 70
     0
  9
$PDSIZE
 40
0.0
  9
$PLINEWID
 40
0.0
  9
$SPLFRAME
 70
     0
  9
$SPLINETYPE
 70
     6
  9
$SPLINESEGS
 70
     8
  9
$HANDSEED
  5
BB
  9
$SURFTAB1
 70
     6
  9
$SURFTAB2
 70
     6
  9
$SURFTYPE
 70
     6
  9
$SURFU
 70
     6
  9
$SURFV
 70
     6
  9
$UCSBASE
  2

  9
$UCSNAME
  2

  9
$UCSORG
 10
0.0
 20
0.0
 30
0.0
  9
$UCSXDIR
 10
1.0
 20
0.0
 30
0.0
  9
$UCSYDIR
 10
0.0
 20
1.0
 30
0.0
  9
$UCSORTHOREF
  2

  9
$UCSORTHOVIEW
 70
     0
  9
$UCSORGTOP
 10
0.0
 20
0.0
 30
0.0
  9
$UCSORGBOTTOM
 10
0.0
 20
0.0
 30
0.0
  9
$UCSORGLEFT
 10
0.0
 20
0.0
 30
0.0
  9
$UCSORGRIGHT
 10
0.0
 20
0.0
 30
0.0
  9
$UCSORGFRONT
 10
0.0
 20
0.0
 30
0.0
  9
$UCSORGBACK
 10
0.0
 20
0.0
 30
0.0
  9
$PUCSBASE
  2

  9
$PUCSNAME
  2

  9
$PUCSORG
 10
0.0
 20
0.0
 30
0.0
  9
$PUCSXDIR
 10
1.0
 20
0.0
 30
0.0
  9
$PUCSYDIR
 10
0.0
 20
1.0
 30
0.0
  9
$PUCSORTHOREF
  2

  9
$PUCSORTHOVIEW
 70
     0
  9
$PUCSORGTOP
 10
0.0
 20
0.0
 30
0.0
  9
$PUCSORGBOTTOM
 10
0.0
 20
0.0
 30
0.0
  9
$PUCSORGLEFT
 10
0.0
 20
0.0
 30
0.0
  9
$PUCSORGRIGHT
 10
0.0
 20
0.0
 30
0.0
  9
$PUCSORGFRONT
 10
0.0
 20
0.0
 30
0.0
  9
$PUCSORGBACK
 10
0.0
 20
0.0
 30
0.0
  9
$USERI1
 70
     0
  9
$USERI2
 70
     0
  9
$USERI3
 70
     0
  9
$USERI4
 70
     0
  9
$USERI5
 70
     0
  9
$USERR1
 40
0.0
  9
$USERR2
 40
0.0
  9
$USERR3
 40
0.0
  9
$USERR4
 40
0.0
  9
$USERR5
 40
0.0
  9
$WORLDVIEW
 70
     1
  9
$SHADEDGE
 70
     3
  9
$SHADEDIF
 70
    70
  9
$TILEMODE
 70
     1
  9
$MAXACTVP
 70
    64
  9
$PINSBASE
 10
0.0
 20
0.0
 30
0.0
  9
$PLIMCHECK
 70
     0
  9
$PEXTMIN
 10
1.000000000000000E+20
 20
1.000000000000000E+20
 30
1.000000000000000E+20
  9
$PEXTMAX
 10
-1.000000000000000E+20
 20
-1.000000000000000E+20
 30
-1.000000000000000E+20
  9
$PLIMMIN
 10
0.0
 20
0.0
  9
$PLIMMAX
 10
12.0
 20
9.0
  9
$UNITMODE
 70
     0
  9
$VISRETAIN
 70
     1
  9
$PLINEGEN
 70
     0
  9
$PSLTSCALE
 70
     1
  9
$TREEDEPTH
 70
  3020
  9
$CMLSTYLE
  2
Standard
  9
$CMLJUST
 70
     0
  9
$CMLSCALE
 40
1.0
  9
$PROXYGRAPHICS
 70
     1
  9
$MEASUREMENT
 70
     0
  9
$CELWEIGHT
370
    -1
  9
$ENDCAPS
280
     0
  9
$JOINSTYLE
280
     0
  9
$LWDISPLAY
290
     1
  9
$INSUNITS
 70
     1
  9
$HYPERLINKBASE
  1

  9
$STYLESHEET
  1

  9
$XEDIT
290
     1
  9
$CEPSNTYPE
380
     0
  9
$PSTYLEMODE
290
     1
  9
$FINGERPRINTGUID
  2
{F3A3ED3F-F331-0A40-8363-4862FE197377}
  9
$VERSIONGUID
  2
{7435A0AE-CBEF-9D4F-8754-E9A0574A4D4A}
  9
$EXTNAMES
290
     1
  9
$PSVPSCALE
 40
0.0
  9
$OLESTARTUP
290
     0
  9
$SORTENTS
280
   127
  9
$INDEXCTL
280
     0
  9
$HIDETEXT
280
     1
  9
$XCLIPFRAME
280
     2
  9
$HALOGAP
280
     0
  9
$OBSCOLOR
 70
   257
  9
$OBSLTYPE
280
     0
  9
$INTERSECTIONDISPLAY
280
     0
  9
$INTERSECTIONCOLOR
 70
   257
  9
$DIMASSOC
280
     2
  9
$PROJECTNAME
  1

  9
$CAMERADISPLAY
290
     0
  9
$LENSLENGTH
 40
50.0
  9
$CAMERAHEIGHT
 40
0.0
  9
$STEPSPERSEC
 40
2.0
  9
$STEPSIZE
 40
6.0
  9
$3DDWFPREC
 40
2.0
  9
$PSOLWIDTH
 40
0.25
  9
$PSOLHEIGHT
 40
4.0
  9
$LOFTANG1
 40
1.570796326794896
  9
$LOFTANG2
 40
1.570796326794896
  9
$LOFTMAG1
 40
0.0
  9
$LOFTMAG2
 40
0.0
  9
$LOFTPARAM
 70
     7
  9
$LOFTNORMALS
280
     1
  9
$LATITUDE
 40
37.795
  9
$LONGITUDE
 40
-122.394
  9
$NORTHDIRECTION
 40
0.0
  9
$TIMEZONE
 70
 -8000
  9
$LIGHTGLYPHDISPLAY
280
     1
  9
$TILEMODELIGHTSYNCH
280
     1
  9
$CMATERIAL
347
11
  9
$SOLIDHIST
280
     0
  9
$SHOWHIST
280
     1
  9
$DWFFRAME
280
     2
  9
$DGNFRAME
280
     0
  9
$REALWORLDSCALE
290
     1
  9
$INTERFERECOLOR
 62
     1
  9
$INTERFEREOBJVS
345
33
  9
$INTERFEREVPVS
346
30
  9
$CSHADOW
280
     0
  9
$SHADOWPLANELOCATION
 40
0.0
  0
ENDSEC
  0
SECTION
  2
CLASSES
  0
CLASS
  1
ACDBDICTIONARYWDFLT
  2
AcDbDictionaryWithDefault
  3
ObjectDBX Classes
 90
        0
 91
        1
280
     0
281
     0
  0
CLASS
  1
MATERIAL
  2
AcDbMaterial
  3
ObjectDBX Classes
 90
     1153
 91
        3
280
     0
281
     0
  0
CLASS
  1
VISUALSTYLE
  2
AcDbVisualStyle
  3
ObjectDBX Classes
 90
     4095
 91
       24
280
     0
281
     0
  0
CLASS
  1
SCALE
  2
AcDbScale
  3
ObjectDBX Classes
 90
     1153
 91
       17
280
     0
281
     0
  0
CLASS
  1
TABLESTYLE
  2
AcDbTableStyle
  3
ObjectDBX Classes
 90
     4095
 91
        1
280
     0
281
     0
  0
CLASS
  1
MLEADERSTYLE
  2
AcDbMLeaderStyle
  3
ACDB_MLEADERSTYLE_CLASS
 90
     4095
 91
        1
280
     0
281
     0
  0
CLASS
  1
ACDBSECTIONVIEWSTYLE
  2
AcDbSectionViewStyle
  3
ObjectDBX Classes
 90
     1025
 91
        1
280
     0
281
     0
  0
CLASS
  1
ACDBDETAILVIEWSTYLE
  2
AcDbDetailViewStyle
  3
ObjectDBX Classes
 90
     1025
 91
        1
280
     0
281
     0
  0
CLASS
  1
DICTIONARYVAR
  2
AcDbDictionaryVar
  3
ObjectDBX Classes
 90
        0
 91
        5
280
     0
281
     0
  0
CLASS
  1
CELLSTYLEMAP
  2
AcDbCellStyleMap
  3
ObjectDBX Classes
 90
     1152
 91
        1
280
     0
281
     0
  0
ENDSEC
  0
SECTION
  2
TABLES
  0
TABLE
  2
VPORT
  5
8
330
0
100
AcDbSymbolTable
 70
     1
  0
VPORT
  5
57
330
8
100
AcDbSymbolTableRecord
100
AcDbViewportTableRecord
  2
*Active
 70
     0
 10
0.0
 20
0.0
 11
1.0
 21
1.0
 12
0.0
 22
0.0
 13
0.0
 23
0.0
 14
1.0
 24
1.0
 15
0.0
 25
0.0
 16
0.0
 26
0.0
 36
1.0
 17
4.298865264077865
 27
-4.91618177625868
 37
0.0
 40
12.41098917643229
 41
0.7079344395329138
 42
50.0
 43
0.0
 44
0.0
 50
0.0
 51
0.0
 71
     0
 72
   100
 73
     1
 74
     1
 75
     0
 76
     0
 77
     0
 78
     0
281
     0
 65
     1
110
0.0
120
0.0
130
0.0
111
1.0
121
0.0
131
0.0
112
0.0
122
1.0
132
0.0
 79
     0
146
0.0
 60
     3
 61
     5
292
     1
282
     1
141
0.0
142
0.0
 63
   250
421
  3355443
  0
ENDTAB
  0
TABLE
  2
LTYPE
  5
5
330
0
100
AcDbSymbolTable
 70
     1
  0
LTYPE
  5
5B
330
5
100
AcDbSymbolTableRecord
100
AcDbLinetypeTableRecord
  2
ByBlock
 70
     0
  3

 72
    65
 73
     0
 40
0.0
  0
LTYPE
  5
5C
330
5
100
AcDbSymbolTableRecord
100
AcDbLinetypeTableRecord
  2
ByLayer
 70
     0
  3

 72
    65
 73
     0
 40
0.0
  0
LTYPE
  5
5D
330
5
100
AcDbSymbolTableRecord
100
AcDbLinetypeTableRecord
  2
Continuous
 70
     0
  3
Solid line
 72
    65
 73
     0
 40
0.0
  0
ENDTAB
  0
TABLE
  2
LAYER
  5
2
330
0
100
AcDbSymbolTable
 70
     3
  0
LAYER
  5
54
330
2
100
AcDbSymbolTableRecord
100
AcDbLayerTableRecord
  2
0
 70
     0
 62
     7
  6
Continuous
370
    -3
390
F
347
21
348
0
  0
LAYER
  5
78
330
2
100
AcDbSymbolTableRecord
100
AcDbLayerTableRecord
  2
Layer 2
 70
     0
 62
     7
  6
Continuous
370
     0
390
F
347
21
348
0
  0
LAYER
  5
7B
330
2
100
AcDbSymbolTableRecord
100
AcDbLayerTableRecord
  2
Layer 1
 70
     0
 62
     7
  6
Continuous
370
     0
390
F
347
21
348
0
  0
ENDTAB
  0
TABLE
  2
STYLE
  5
3
330
0
100
AcDbSymbolTable
 70
     2
  0
STYLE
  5
55
330
3
100
AcDbSymbolTableRecord
100
AcDbTextStyleTableRecord
  2
Standard
 70
     0
 40
0.0
 41
1.0
 50
0.0
 71
     0
 42
0.2
  3
txt
  4

  0
STYLE
  5
5A
330
3
100
AcDbSymbolTableRecord
100
AcDbTextStyleTableRecord
  2
Annotative
 70
     0
 40
0.0
 41
1.0
 50
0.0
 71
     0
 42
0.2
  3
txt
  4

1001
AcadAnnotative
1000
AnnotativeData
1002
{
1070
     1
1070
     1
1002
}
  0
ENDTAB
  0
TABLE
  2
VIEW
  5
6
330
0
100
AcDbSymbolTable
 70
     0
  0
ENDTAB
  0
TABLE
  2
UCS
  5
7
330
0
100
AcDbSymbolTable
 70
     0
  0
ENDTAB
  0
TABLE
  2
APPID
  5
9
330
0
100
AcDbSymbolTable
 70
     2
  0
APPID
  5
56
330
9
100
AcDbSymbolTableRecord
100
AcDbRegAppTableRecord
  2
ACAD
 70
     0
  0
APPID
  5
5E
330
9
100
AcDbSymbolTableRecord
100
AcDbRegAppTableRecord
  2
AcadAnnotative
 70
     0
  0
ENDTAB
  0
TABLE
  2
DIMSTYLE
  5
A
330
0
100
AcDbSymbolTable
 70
     2
100
AcDbDimStyleTable
 71
     0
  0
DIMSTYLE
105
58
330
A
100
AcDbSymbolTableRecord
100
AcDbDimStyleTableRecord
  2
Standard
 70
     0
340
55
  0
DIMSTYLE
105
59
330
A
100
AcDbSymbolTableRecord
100
AcDbDimStyleTableRecord
  2
Annotative
 70
     0
340
55
1001
AcadAnnotative
1000
AnnotativeData
1002
{
1070
     1
1070
     1
1002
}
  0
ENDTAB
  0
TABLE
  2
BLOCK_RECORD
  5
1
330
0
100
AcDbSymbolTable
 70
     2
  0
BLOCK_RECORD
  5
70
330
1
100
AcDbSymbolTableRecord
100
AcDbBlockTableRecord
  2
*Model_Space
340
73
 70
     0
280
     1
281
     0
  0
BLOCK_RECORD
  5
6C
330
1
100
AcDbSymbolTableRecord
100
AcDbBlockTableRecord
  2
*Paper_Space
340
6F
 70
     0
280
     1
281
     0
  0
BLOCK_RECORD
  5
74
330
1
100
AcDbSymbolTableRecord
100
AcDbBlockTableRecord
  2
*Paper_Space0
340
77
 70
     0
280
     1
281
     0
  0
BLOCK_RECORD
  5
7C
330
1
100
AcDbSymbolTableRecord
100
AcDbBlockTableRecord
  2
Block_0
340
0
102
{BLKREFS
331
7D
102
}
 70
     0
280
     1
281
     0
  0
ENDTAB
  0
ENDSEC
  0
SECTION
  2
BLOCKS
  0
BLOCK
  5
71
330
70
100
AcDbEntity
  8
0
100
AcDbBlockBegin
  2
*Model_Space
 70
     0
 10
0.0
 20
0.0
 30
0.0
  3
*Model_Space
  1

  0
ENDBLK
  5
72
330
70
100
AcDbEntity
  8
0
100
AcDbBlockEnd
  0
BLOCK
  5
6D
330
6C
100
AcDbEntity
 67
     1
  8
0
100
AcDbBlockBegin
  2
*Paper_Space
 70
     0
 10
0.0
 20
0.0
 30
0.0
  3
*Paper_Space
  1

  0
ENDBLK
  5
6E
330
6C
100
AcDbEntity
 67
     1
  8
0
100
AcDbBlockEnd
  0
BLOCK
  5
75
330
74
100
AcDbEntity
 67
     1
  8
0
100
AcDbBlockBegin
  2
*Paper_Space0
 70
     0
 10
0.0
 20
0.0
 30
0.0
  3
*Paper_Space0
  1

  0
ENDBLK
  5
76
330
74
100
AcDbEntity
 67
     1
  8
0
100
AcDbBlockEnd
  0
BLOCK
  5
7E
330
7C
100
AcDbEntity
  8
0
100
AcDbBlockBegin
  2
Block_0
 70
     0
 10
0.0
 20
0.0
 30
0.0
  3
Block_0
  1

  0
SPLINE
  5
80
330
7C
100
AcDbEntity
  8
Layer 1
100
AcDbSpline
210
0.0
220
0.0
230
1.0
 70
     9
 71
     3
 72
    98
 73
    94
 74
     0
 42
0.0000000001
 43
0.0000000001
 40
0.0
 40
0.0
 40
0.0
 40
0.0
 40
1.0
 40
1.0
 40
1.0
 40
2.0
 40
2.0
 40
2.0
 40
3.0
 40
3.0
 40
3.0
 40
4.0
 40
4.0
 40
4.0
 40
5.0
 40
5.0
 40
5.0
 40
6.0
 40
6.0
 40
6.0
 40
7.0
 40
7.0
 40
7.0
 40
8.0
 40
8.0
 40
8.0
 40
9.0
 40
9.0
 40
9.0
 40
10.0
 40
10.0
 40
10.0
 40
11.0
 40
11.0
 40
11.0
 40
12.0
 40
12.0
 40
12.0
 40
13.0
 40
13.0
 40
13.0
 40
14.0
 40
14.0
 40
14.0
 40
15.0
 40
15.0
 40
15.0
 40
16.0
 40
16.0
 40
16.0
 40
17.0
 40
17.0
 40
17.0
 40
18.0
 40
18.0
 40
18.0
 40
19.0
 40
19.0
 40
19.0
 40
20.0
 40
20.0
 40
20.0
 40
21.0
 40
21.0
 40
21.0
 40
22.0
 40
22.0
 40
22.0
 40
23.0
 40
23.0
 40
23.0
 40
24.0
 40
24.0
 40
24.0
 40
25.0
 40
25.0
 40
25.0
 40
26.0
 40
26.0
 40
26.0
 40
27.0
 40
27.0
 40
27.0
 40
28.0
 40
28.0
 40
28.0
 40
29.0
 40
29.0
 40
29.0
 40
30.0
 40
30.0
 40
30.0
 40
31.0
 40
31.0
 40
31.0
 40
31.0
 10
7.441891552819596
 20
-2.67519916244521
 30
0.0
 10
7.452195225503727
 20
-2.718247859440894
 30
0.0
 10
7.484895160696269
 20
-2.726936214218691
 30
0.0
 10
7.521692427744457
 20
-2.728102672505946
 30
0.0
 10
7.567820319584598
 20
-2.729564981107374
 30
0.0
 10
7.596129157859977
 20
-2.701250933064013
 30
0.0
 10
7.615530684972402
 20
-2.665135299202221
 30
0.0
 10
7.632436382037262
 20
-2.633665948909197
 30
0.0
 10
7.623973237391332
 20
-2.603068509894569
 30
0.0
 10
7.601997681900885
 20
-2.573970132692225
 30
0.0
 10
7.510336466193241
 20
-2.452599431086001
 30
0.0
 10
7.299378223466899
 20
-2.466559525669481
 30
0.0
 10
7.218988254452495
 20
-2.575371967925472
 30
0.0
 10
7.208241979217846
 20
-2.589917637602196
 30
0.0
 10
7.188197922490062
 20
-2.605600571526363
 30
0.0
 10
7.171678525177791
 20
-2.606505586760628
 30
0.0
 10
7.095415342723526
 20
-2.610683983709148
 30
0.0
 10
7.018517971809083
 20
-2.615012521433855
 30
0.0
 10
6.942503199384569
 20
-2.609777665169543
 30
0.0
 10
6.725842343408506
 20
-2.594856904213391
 30
0.0
 10
6.666190310974267
 20
-2.429345596390198
 30
0.0
 10
6.68991972468666
 20
-2.256864993544379
 30
0.0
 10
6.710198637066948
 20
-2.109464807840835
 30
0.0
 10
6.827996341429448
 20
-2.038823311981824
 30
0.0
 10
6.962795405481048
 20
-2.028261716426098
 30
0.0
 10
6.994381014464352
 20
-2.025787000229633
 30
0.0
 10
7.011281237646041
 20
-2.031897156366274
 30
0.0
 10
7.011022661833294
 20
-2.071956852874841
 30
0.0
 10
7.010427833199501
 20
-2.164000577520508
 30
0.0
 10
7.064834842947877
 20
-2.227618039532267
 30
0.0
 10
7.134639103966214
 20
-2.279353527339341
 30
0.0
 10
7.17502958429961
 20
-2.309289147897793
 30
0.0
 10
7.195902543330399
 20
-2.367288451542119
 30
0.0
 10
7.177050229159046
 20
-2.411743936331403
 30
0.0
 10
7.173218510965877
 20
-2.42077923099306
 30
0.0
 10
7.162262924866682
 20
-2.431130342734945
 30
0.0
 10
7.153082180208128
 20
-2.432859307610783
 30
0.0
 10
7.091860185959098
 20
-2.444387695074321
 30
0.0
 10
7.030500823309542
 20
-2.456809498354509
 30
0.0
 10
6.968596939618818
 20
-2.462302148416824
 30
0.0
 10
6.943525772886054
 20
-2.464526629986292
 30
0.0
 10
6.916132637060475
 20
-2.452284552513724
 30
0.0
 10
6.891305449118791
 20
-2.442711514065106
 30
0.0
 10
6.857478415323056
 20
-2.429668164464045
 30
0.0
 10
6.845801319294726
 20
-2.399470449199914
 30
0.0
 10
6.84843999162596
 20
-2.36638578225749
 30
0.0
 10
6.852532110259566
 20
-2.315078560588075
 30
0.0
 10
6.887830575973692
 20
-2.285835386161453
 30
0.0
 10
6.931504082881423
 20
-2.267079388555164
 30
0.0
 10
6.968569309542013
 20
-2.251161077685019
 30
0.0
 10
6.997258713025732
 20
-2.266322298478005
 30
0.0
 10
7.019886963914536
 20
-2.297664967491123
 30
0.0
 10
7.024822581872866
 20
-2.304501064707071
 30
0.0
 10
7.03467270424024
 20
-2.307788913110698
 30
0.0
 10
7.051636007408508
 20
-2.318794284137728
 30
0.0
 10
7.03851041763874
 20
-2.273831943898269
 30
0.0
 10
7.014336967739836
 20
-2.254070706876379
 30
0.0
 10
6.982633018616398
 20
-2.245183598032882
 30
0.0
 10
6.924742533906585
 20
-2.228956012803438
 30
0.0
 10
6.843083666649691
 20
-2.282361295423482
 30
0.0
 10
6.831641947596077
 20
-2.341617115754666
 30
0.0
 10
6.817289947343397
 20
-2.415945271454069
 30
0.0
 10
6.867033208662355
 20
-2.484371539211603
 30
0.0
 10
6.943314116071556
 20
-2.478915381699026
 30
0.0
 10
7.038988209437926
 20
-2.472072246634196
 30
0.0
 10
7.134732681301683
 20
-2.456700020705195
 30
0.0
 10
7.228597525962008
 20
-2.436440008726309
 30
0.0
 10
7.351393406947206
 20
-2.409935209168224
 30
0.0
 10
7.471760187126821
 20
-2.395761372507523
 30
0.0
 10
7.582666011963687
 20
-2.469572506975029
 30
0.0
 10
7.702065478795348
 20
-2.549036337401692
 30
0.0
 10
7.748515547757051
 20
-2.687381418202271
 30
0.0
 10
7.659924919825975
 20
-2.811505091696921
 30
0.0
 10
7.622358963189248
 20
-2.864138817550446
 30
0.0
 10
7.565286954338388
 20
-2.884979191401207
 30
0.0
 10
7.505959705636692
 20
-2.8937329721075
 30
0.0
 10
7.399001593183179
 20
-2.909514957238179
 30
0.0
 10
7.30491753253644
 20
-2.881904433422113
 30
0.0
 10
7.238990605403992
 20
-2.790112898361447
 30
0.0
 10
7.172238685885051
 20
-2.697173151288426
 30
0.0
 10
7.203556595917032
 20
-2.582789599988106
 30
0.0
 10
7.305587431567497
 20
-2.531364298854075
 30
0.0
 10
7.400077862871638
 20
-2.483739436117376
 30
0.0
 10
7.484606348195736
 20
-2.505643046471757
 30
0.0
 10
7.564292792896998
 20
-2.564306905513477
 30
0.0
 10
7.606029327158895
 20
-2.59503258977443
 30
0.0
 10
7.615692555516513
 20
-2.63438980469996
 30
0.0
 10
7.593253023265206
 20
-2.667317553678382
 30
0.0
 10
7.565334915981085
 20
-2.708284872031918
 30
0.0
 10
7.516389277632899
 20
-2.720042250245253
 30
0.0
 10
7.473658581929586
 20
-2.695676956747901
 30
0.0
 10
7.46273062590717
 20
-2.689445853874922
 30
0.0
 10
7.452462924455049
 20
-2.682056373207817
 30
0.0
 10
7.441891552819596
 20
-2.67519916244521
 30
0.0
  0
HATCH
  5
81
330
7C
100
AcDbEntity
  8
Layer 1
 62
    18
420
        0
440
 33554687
100
AcDbHatch
 10
0.0
 20
0.0
 30
0.0
210
0.0
220
0.0
230
1.0
  2
SOLID
 70
     1
 71
     1
 91
        1
 92
        1
 93
        1
 72
     4
 94
        3
 73
     0
 74
     0
 95
       98
 96
       94
 40
0.0
 40
0.0
 40
0.0
 40
0.0
 40
1.0
 40
1.0
 40
1.0
 40
2.0
 40
2.0
 40
2.0
 40
3.0
 40
3.0
 40
3.0
 40
4.0
 40
4.0
 40
4.0
 40
5.0
 40
5.0
 40
5.0
 40
6.0
 40
6.0
 40
6.0
 40
7.0
 40
7.0
 40
7.0
 40
8.0
 40
8.0
 40
8.0
 40
9.0
 40
9.0
 40
9.0
 40
10.0
 40
10.0
 40
10.0
 40
11.0
 40
11.0
 40
11.0
 40
12.0
 40
12.0
 40
12.0
 40
13.0
 40
13.0
 40
13.0
 40
14.0
 40
14.0
 40
14.0
 40
15.0
 40
15.0
 40
15.0
 40
16.0
 40
16.0
 40
16.0
 40
17.0
 40
17.0
 40
17.0
 40
18.0
 40
18.0
 40
18.0
 40
19.0
 40
19.0
 40
19.0
 40
20.0
 40
20.0
 40
20.0
 40
21.0
 40
21.0
 40
21.0
 40
22.0
 40
22.0
 40
22.0
 40
23.0
 40
23.0
 40
23.0
 40
24.0
 40
24.0
 40
24.0
 40
25.0
 40
25.0
 40
25.0
 40
26.0
 40
26.0
 40
26.0
 40
27.0
 40
27.0
 40
27.0
 40
28.0
 40
28.0
 40
28.0
 40
29.0
 40
29.0
 40
29.0
 40
30.0
 40
30.0
 40
30.0
 40
31.0
 40
31.0
 40
31.0
 40
31.0
 10
7.441891552819596
 20
-2.67519916244521
 10
7.452195225503727
 20
-2.718247859440894
 10
7.484895160696269
 20
-2.726936214218691
 10
7.521692427744457
 20
-2.728102672505946
 10
7.567820319584598
 20
-2.729564981107374
 10
7.596129157859977
 20
-2.701250933064013
 10
7.615530684972402
 20
-2.665135299202221
 10
7.632436382037262
 20
-2.633665948909197
 10
7.623973237391332
 20
-2.603068509894569
 10
7.601997681900885
 20
-2.573970132692225
 10
7.510336466193241
 20
-2.452599431086001
 10
7.299378223466899
 20
-2.466559525669481
 10
7.218988254452495
 20
-2.575371967925472
 10
7.208241979217846
 20
-2.589917637602196
 10
7.188197922490062
 20
-2.605600571526363
 10
7.171678525177791
 20
-2.606505586760628
 10
7.095415342723526
 20
-2.610683983709148
 10
7.018517971809083
 20
-2.615012521433855
 10
6.942503199384569
 20
-2.609777665169543
 10
6.725842343408506
 20
-2.594856904213391
 10
6.666190310974267
 20
-2.429345596390198
 10
6.68991972468666
 20
-2.256864993544379
 10
6.710198637066948
 20
-2.109464807840835
 10
6.827996341429448
 20
-2.038823311981824
 10
6.962795405481048
 20
-2.028261716426098
 10
6.994381014464352
 20
-2.025787000229633
 10
7.011281237646041
 20
-2.031897156366274
 10
7.011022661833294
 20
-2.071956852874841
 10
7.010427833199501
 20
-2.164000577520508
 10
7.064834842947877
 20
-2.227618039532267
 10
7.134639103966214
 20
-2.279353527339341
 10
7.17502958429961
 20
-2.309289147897793
 10
7.195902543330399
 20
-2.367288451542119
 10
7.177050229159046
 20
-2.411743936331403
 10
7.173218510965877
 20
-2.42077923099306
 10
7.162262924866682
 20
-2.431130342734945
 10
7.153082180208128
 20
-2.432859307610783
 10
7.091860185959098
 20
-2.444387695074321
 10
7.030500823309542
 20
-2.456809498354509
 10
6.968596939618818
 20
-2.462302148416824
 10
6.943525772886054
 20
-2.464526629986292
 10
6.916132637060475
 20
-2.452284552513724
 10
6.891305449118791
 20
-2.442711514065106
 10
6.857478415323056
 20
-2.429668164464045
 10
6.845801319294726
 20
-2.399470449199914
 10
6.84843999162596
 20
-2.36638578225749
 10
6.852532110259566
 20
-2.315078560588075
 10
6.887830575973692
 20
-2.285835386161453
 10
6.931504082881423
 20
-2.267079388555164
 10
6.968569309542013
 20
-2.251161077685019
 10
6.997258713025732
 20
-2.266322298478005
 10
7.019886963914536
 20
-2.297664967491123
 10
7.024822581872866
 20
-2.304501064707071
 10
7.03467270424024
 20
-2.307788913110698
 10
7.051636007408508
 20
-2.318794284137728
 10
7.03851041763874
 20
-2.273831943898269
 10
7.014336967739836
 20
-2.254070706876379
 10
6.982633018616398
 20
-2.245183598032882
 10
6.924742533906585
 20
-2.228956012803438
 10
6.843083666649691
 20
-2.282361295423482
 10
6.831641947596077
 20
-2.341617115754666
 10
6.817289947343397
 20
-2.415945271454069
 10
6.867033208662355
 20
-2.484371539211603
 10
6.943314116071556
 20
-2.478915381699026
 10
7.038988209437926
 20
-2.472072246634196
 10
7.134732681301683
 20
-2.456700020705195
 10
7.228597525962008
 20
-2.436440008726309
 10
7.351393406947206
 20
-2.409935209168224
 10
7.471760187126821
 20
-2.395761372507523
 10
7.582666011963687
 20
-2.469572506975029
 10
7.702065478795348
 20
-2.549036337401692
 10
7.748515547757051
 20
-2.687381418202271
 10
7.659924919825975
 20
-2.811505091696921
 10
7.622358963189248
 20
-2.864138817550446
 10
7.565286954338388
 20
-2.884979191401207
 10
7.505959705636692
 20
-2.8937329721075
 10
7.399001593183179
 20
-2.909514957238179
 10
7.30491753253644
 20
-2.881904433422113
 10
7.238990605403992
 20
-2.790112898361447
 10
7.172238685885051
 20
-2.697173151288426
 10
7.203556595917032
 20
-2.582789599988106
 10
7.305587431567497
 20
-2.531364298854075
 10
7.400077862871638
 20
-2.483739436117376
 10
7.484606348195736
 20
-2.505643046471757
 10
7.564292792896998
 20
-2.564306905513477
 10
7.606029327158895
 20
-2.59503258977443
 10
7.615692555516513
 20
-2.63438980469996
 10
7.593253023265206
 20
-2.667317553678382
 10
7.565334915981085
 20
-2.708284872031918
 10
7.516389277632899
 20
-2.720042250245253
 10
7.473658581929586
 20
-2.695676956747901
 10
7.46273062590717
 20
-2.689445853874922
 10
7.452462924455049
 20
-2.682056373207817
 10
7.441891552819596
 20
-2.67519916244521
 97
        0
 97
        1
330
80
 75
     2
 76
     1
 98
        1
 10
0.0
 20
0.0
450
        0
451
        0
460
0.0
461
0.0
452
        0
462
0.0
453
        0
470

  0
SPLINE
  5
82
330
7C
100
AcDbEntity
  8
Layer 1
100
AcDbSpline
210
0.0
220
0.0
230
1.0
 70
     9
 71
     3
 72
   101
 73
    97
 74
     0
 42
0.0000000001
 43
0.0000000001
 40
0.0
 40
0.0
 40
0.0
 40
0.0
 40
1.0
 40
1.0
 40
1.0
 40
2.0
 40
2.0
 40
2.0
 40
3.0
 40
3.0
 40
3.0
 40
4.0
 40
4.0
 40
4.0
 40
5.0
 40
5.0
 40
5.0
 40
6.0
 40
6.0
 40
6.0
 40
7.0
 40
7.0
 40
7.0
 40
8.0
 40
8.0
 40
8.0
 40
9.0
 40
9.0
 40
9.0
 40
10.0
 40
10.0
 40
10.0
 40
11.0
 40
11.0
 40
11.0
 40
12.0
 40
12.0
 40
12.0
 40
13.0
 40
13.0
 40
13.0
 40
14.0
 40
14.0
 40
14.0
 40
15.0
 40
15.0
 40
15.0
 40
16.0
 40
16.0
 40
16.0
 40
17.0
 40
17.0
 40
17.0
 40
18.0
 40
18.0
 40
18.0
 40
19.0
 40
19.0
 40
19.0
 40
20.0
 40
20.0
 40
20.0
 40
21.0
 40
21.0
 40
21.0
 40
22.0
 40
22.0
 40
22.0
 40
23.0
 40
23.0
 40
23.0
 40
24.0
 40
24.0
 40
24.0
 40
25.0
 40
25.0
 40
25.0
 40
26.0
 40
26.0
 40
26.0
 40
27.0
 40
27.0
 40
27.0
 40
28.0
 40
28.0
 40
28.0
 40
29.0
 40
29.0
 40
29.0
 40
30.0
 40
30.0
 40
30.0
 40
31.0
 40
31.0
 40
31.0
 40
32.0
 40
32.0
 40
32.0
 40
32.0
 10
6.7511776901677
 20
-2.867379095308845
 30
0.0
 10
6.765539725872788
 20
-2.863741830741168
 30
0.0
 10
6.775933456967575
 20
-2.861611708478953
 30
0.0
 10
6.786012570112663
 20
-2.858472567215648
 30
0.0
 10
6.837624641199428
 20
-2.842397599042543
 30
0.0
 10
6.876582528118559
 20
-2.868929246690792
 30
0.0
 10
6.880456994732386
 20
-2.923027366434325
 30
0.0
 10
6.884897877919911
 20
-2.985031857746296
 30
0.0
 10
6.842634286910575
 20
-3.046078158965769
 30
0.0
 10
6.786115531247812
 20
-3.05929419652557
 30
0.0
 10
6.726761825444327
 20
-3.073173355846873
 30
0.0
 10
6.657230346268735
 20
-3.034663810720252
 30
0.0
 10
6.63463337471214
 20
-2.975396781963088
 30
0.0
 10
6.609060174697737
 20
-2.908323736149302
 30
0.0
 10
6.630883113113213
 20
-2.818681090947873
 30
0.0
 10
6.685331828637875
 20
-2.76714162026528
 30
0.0
 10
6.78012280219208
 20
-2.67741530286043
 30
0.0
 10
6.919179504676776
 20
-2.666722203795011
 30
0.0
 10
7.015555037067492
 20
-2.752206783611363
 30
0.0
 10
7.107511321142055
 20
-2.833771281599372
 30
0.0
 10
7.159720175820868
 20
-2.962390055242306
 30
0.0
 10
7.087500889696406
 20
-3.081616949880134
 30
0.0
 10
7.076408195857766
 20
-3.099930214659416
 30
0.0
 10
7.054199348681398
 20
-3.116639371215291
 30
0.0
 10
7.033666813049269
 20
-3.123130092513797
 30
0.0
 10
6.975296972573661
 20
-3.14158255030433
 30
0.0
 10
6.927087441176379
 20
-3.174308026292616
 30
0.0
 10
6.879666409611318
 20
-3.211505403593971
 30
0.0
 10
6.859303564356271
 20
-3.227478192627724
 30
0.0
 10
6.828756689862757
 20
-3.241378465495674
 30
0.0
 10
6.804233563096026
 20
-3.23934791576212
 30
0.0
 10
6.655846496480484
 20
-3.227061916899288
 30
0.0
 10
6.544273118562487
 20
-3.15982048403445
 30
0.0
 10
6.50469042698291
 20
-3.010735906497997
 30
0.0
 10
6.482828910724391
 20
-2.928397245132777
 30
0.0
 10
6.498678018013934
 20
-2.847493783617728
 30
0.0
 10
6.527940224268351
 20
-2.768253861050008
 30
0.0
 10
6.55205737136935
 20
-2.70294653332289
 30
0.0
 10
6.573677645778363
 20
-2.636573362481486
 30
0.0
 10
6.592606203321969
 20
-2.569599367874224
 30
0.0
 10
6.59710586558789
 20
-2.553678189732257
 30
0.0
 10
6.592285459836475
 20
-2.525912051257553
 30
0.0
 10
6.581145846999586
 20
-2.517278174643352
 30
0.0
 10
6.569131585836354
 20
-2.507966579247737
 30
0.0
 10
6.54245487704846
 20
-2.509050147314799
 30
0.0
 10
6.526036746574138
 20
-2.515472575413026
 30
0.0
 10
6.466534854934378
 20
-2.538748044977624
 30
0.0
 10
6.429235815265656
 20
-2.601640608554323
 30
0.0
 10
6.433830227842033
 20
-2.655364940323781
 30
0.0
 10
6.45798034857234
 20
-2.622319372541836
 30
0.0
 10
6.483271513274833
 20
-2.583721463312561
 30
0.0
 10
6.513132458079578
 20
-2.549060057559055
 30
0.0
 10
6.523315965995884
 20
-2.53723986002789
 30
0.0
 10
6.544987199650222
 20
-2.535316441994015
 30
0.0
 10
6.561409500702211
 20
-2.528871075721654
 30
0.0
 10
6.563845378696416
 20
-2.547270619315036
 30
0.0
 10
6.5725862577461
 20
-2.567608699284328
 30
0.0
 10
6.567628092602464
 20
-2.583734757027109
 30
0.0
 10
6.545904205405602
 20
-2.654390849906033
 30
0.0
 10
6.522155633102228
 20
-2.724589743268577
 30
0.0
 10
6.495146451079259
 20
-2.793386280075714
 30
0.0
 10
6.481525996208144
 20
-2.828079486479724
 30
0.0
 10
6.454430535360566
 20
-2.850461409897143
 30
0.0
 10
6.412326729606547
 20
-2.84838055257713
 30
0.0
 10
6.372310167623354
 20
-2.84640343836285
 30
0.0
 10
6.352120922661974
 20
-2.821378933020051
 30
0.0
 10
6.345298900311566
 20
-2.787720029740903
 30
0.0
 10
6.338688013453444
 20
-2.755103249418728
 30
0.0
 10
6.330529842296325
 20
-2.717297489180509
 30
0.0
 10
6.340621727835468
 20
-2.687777623028346
 30
0.0
 10
6.378601092979275
 20
-2.576685960378211
 30
0.0
 10
6.445050124298202
 20
-2.485477263469558
 30
0.0
 10
6.555854421636013
 20
-2.436150805269372
 30
0.0
 10
6.581951680795125
 20
-2.424533011058921
 30
0.0
 10
6.613721316516097
 20
-2.424204187119407
 30
0.0
 10
6.643120891171039
 20
-2.422206741341697
 30
0.0
 10
6.654140078579025
 20
-2.421457992418772
 30
0.0
 10
6.67129053641823
 20
-2.427520838571227
 30
0.0
 10
6.676302788740409
 20
-2.436000534162657
 30
0.0
 10
6.699977333290917
 20
-2.476054105136086
 30
0.0
 10
6.734669761943879
 20
-2.516682824759994
 30
0.0
 10
6.738698279268696
 20
-2.559615527579631
 30
0.0
 10
6.744882854895244
 20
-2.62552550370007
 30
0.0
 10
6.740058017905084
 20
-2.696019986715731
 30
0.0
 10
6.679354869578749
 20
-2.746194636036989
 30
0.0
 10
6.59494263910594
 20
-2.815966305906158
 30
0.0
 10
6.577152518923462
 20
-2.923130588217948
 30
0.0
 10
6.631565002554957
 20
-3.014585349176437
 30
0.0
 10
6.664152332151616
 20
-3.069356756463207
 30
0.0
 10
6.766055574192805
 20
-3.098629776582305
 30
0.0
 10
6.821376070771697
 20
-3.069111213735494
 30
0.0
 10
6.885563867034407
 20
-3.034860609827938
 30
0.0
 10
6.918768702780702
 20
-2.933750702183841
 30
0.0
 10
6.886096137003808
 20
-2.872036587303594
 30
0.0
 10
6.859350483354571
 20
-2.821517604709166
 30
0.0
 10
6.78508305262446
 20
-2.816157109809232
 30
0.0
 10
6.7511776901677
 20
-2.867379095308845
 30
0.0
  0
HATCH
  5
83
330
7C
100
AcDbEntity
  8
Layer 1
 62
    18
420
        0
440
 33554687
100
AcDbHatch
 10
0.0
 20
0.0
 30
0.0
210
0.0
220
0.0
230
1.0
  2
SOLID
 70
     1
 71
     1
 91
        1
 92
        1
 93
        1
 72
     4
 94
        3
 73
     0
 74
     0
 95
      101
 96
       97
 40
0.0
 40
0.0
 40
0.0
 40
0.0
 40
1.0
 40
1.0
 40
1.0
 40
2.0
 40
2.0
 40
2.0
 40
3.0
 40
3.0
 40
3.0
 40
4.0
 40
4.0
 40
4.0
 40
5.0
 40
5.0
 40
5.0
 40
6.0
 40
6.0
 40
6.0
 40
7.0
 40
7.0
 40
7.0
 40
8.0
 40
8.0
 40
8.0
 40
9.0
 40
9.0
 40
9.0
 40
10.0
 40
10.0
 40
10.0
 40
11.0
 40
11.0
 40
11.0
 40
12.0
 40
12.0
 40
12.0
 40
13.0
 40
13.0
 40
13.0
 40
14.0
 40
14.0
 40
14.0
 40
15.0
 40
15.0
 40
15.0
 40
16.0
 40
16.0
 40
16.0
 40
17.0
 40
17.0
 40
17.0
 40
18.0
 40
18.0
 40
18.0
 40
19.0
 40
19.0
 40
19.0
 40
20.0
 40
20.0
 40
20.0
 40
21.0
 40
21.0
 40
21.0
 40
22.0
 40
22.0
 40
22.0
 40
23.0
 40
23.0
 40
23.0
 40
24.0
 40
24.0
 40
24.0
 40
25.0
 40
25.0
 40
25.0
 40
26.0
 40
26.0
 40
26.0
 40
27.0
 40
27.0
 40
27.0
 40
28.0
 40
28.0
 40
28.0
 40
29.0
 40
29.0
 40
29.0
 40
30.0
 40
30.0
 40
30.0
 40
31.0
 40
31.0
 40
31.0
 40
32.0
 40
32.0
 40
32.0
 40
32.0
 10
6.7511776901677
 20
-2.867379095308845
 10
6.765539725872788
 20
-2.863741830741168
 10
6.775933456967575
 20
-2.861611708478953
 10
6.786012570112663
 20
-2.858472567215648
 10
6.837624641199428
 20
-2.842397599042543
 10
6.876582528118559
 20
-2.868929246690792
 10
6.880456994732386
 20
-2.923027366434325
 10
6.884897877919911
 20
-2.985031857746296
 10
6.842634286910575
 20
-3.046078158965769
 10
6.786115531247812
 20
-3.05929419652557
 10
6.726761825444327
 20
-3.073173355846873
 10
6.657230346268735
 20
-3.034663810720252
 10
6.63463337471214
 20
-2.975396781963088
 10
6.609060174697737
 20
-2.908323736149302
 10
6.630883113113213
 20
-2.818681090947873
 10
6.685331828637875
 20
-2.76714162026528
 10
6.78012280219208
 20
-2.67741530286043
 10
6.919179504676776
 20
-2.666722203795011
 10
7.015555037067492
 20
-2.752206783611363
 10
7.107511321142055
 20
-2.833771281599372
 10
7.159720175820868
 20
-2.962390055242306
 10
7.087500889696406
 20
-3.081616949880134
 10
7.076408195857766
 20
-3.099930214659416
 10
7.054199348681398
 20
-3.116639371215291
 10
7.033666813049269
 20
-3.123130092513797
 10
6.975296972573661
 20
-3.14158255030433
 10
6.927087441176379
 20
-3.174308026292616
 10
6.879666409611318
 20
-3.211505403593971
 10
6.859303564356271
 20
-3.227478192627724
 10
6.828756689862757
 20
-3.241378465495674
 10
6.804233563096026
 20
-3.23934791576212
 10
6.655846496480484
 20
-3.227061916899288
 10
6.544273118562487
 20
-3.15982048403445
 10
6.50469042698291
 20
-3.010735906497997
 10
6.482828910724391
 20
-2.928397245132777
 10
6.498678018013934
 20
-2.847493783617728
 10
6.527940224268351
 20
-2.768253861050008
 10
6.55205737136935
 20
-2.70294653332289
 10
6.573677645778363
 20
-2.636573362481486
 10
6.592606203321969
 20
-2.569599367874224
 10
6.59710586558789
 20
-2.553678189732257
 10
6.592285459836475
 20
-2.525912051257553
 10
6.581145846999586
 20
-2.517278174643352
 10
6.569131585836354
 20
-2.507966579247737
 10
6.54245487704846
 20
-2.509050147314799
 10
6.526036746574138
 20
-2.515472575413026
 10
6.466534854934378
 20
-2.538748044977624
 10
6.429235815265656
 20
-2.601640608554323
 10
6.433830227842033
 20
-2.655364940323781
 10
6.45798034857234
 20
-2.622319372541836
 10
6.483271513274833
 20
-2.583721463312561
 10
6.513132458079578
 20
-2.549060057559055
 10
6.523315965995884
 20
-2.53723986002789
 10
6.544987199650222
 20
-2.535316441994015
 10
6.561409500702211
 20
-2.528871075721654
 10
6.563845378696416
 20
-2.547270619315036
 10
6.5725862577461
 20
-2.567608699284328
 10
6.567628092602464
 20
-2.583734757027109
 10
6.545904205405602
 20
-2.654390849906033
 10
6.522155633102228
 20
-2.724589743268577
 10
6.495146451079259
 20
-2.793386280075714
 10
6.481525996208144
 20
-2.828079486479724
 10
6.454430535360566
 20
-2.850461409897143
 10
6.412326729606547
 20
-2.84838055257713
 10
6.372310167623354
 20
-2.84640343836285
 10
6.352120922661974
 20
-2.821378933020051
 10
6.345298900311566
 20
-2.787720029740903
 10
6.338688013453444
 20
-2.755103249418728
 10
6.330529842296325
 20
-2.717297489180509
 10
6.340621727835468
 20
-2.687777623028346
 10
6.378601092979275
 20
-2.576685960378211
 10
6.445050124298202
 20
-2.485477263469558
 10
6.555854421636013
 20
-2.436150805269372
 10
6.581951680795125
 20
-2.424533011058921
 10
6.613721316516097
 20
-2.424204187119407
 10
6.643120891171039
 20
-2.422206741341697
 10
6.654140078579025
 20
-2.421457992418772
 10
6.67129053641823
 20
-2.427520838571227
 10
6.676302788740409
 20
-2.436000534162657
 10
6.699977333290917
 20
-2.476054105136086
 10
6.734669761943879
 20
-2.516682824759994
 10
6.738698279268696
 20
-2.559615527579631
 10
6.744882854895244
 20
-2.62552550370007
 10
6.740058017905084
 20
-2.696019986715731
 10
6.679354869578749
 20
-2.746194636036989
 10
6.59494263910594
 20
-2.815966305906158
 10
6.577152518923462
 20
-2.923130588217948
 10
6.631565002554957
 20
-3.014585349176437
 10
6.664152332151616
 20
-3.069356756463207
 10
6.766055574192805
 20
-3.098629776582305
 10
6.821376070771697
 20
-3.069111213735494
 10
6.885563867034407
 20
-3.034860609827938
 10
6.918768702780702
 20
-2.933750702183841
 10
6.886096137003808
 20
-2.872036587303594
 10
6.859350483354571
 20
-2.821517604709166
 10
6.78508305262446
 20
-2.816157109809232
 10
6.7511776901677
 20
-2.867379095308845
 97
        0
 97
        1
330
82
 75
     2
 76
     1
 98
        1
 10
0.0
 20
0.0
450
        0
451
        0
460
0.0
461
0.0
452
        0
462
0.0
453
        0
470

  0
SPLINE
  5
84
330
7C
100
AcDbEntity
  8
Layer 1
100
AcDbSpline
210
0.0
220
0.0
230
1.0
 70
     9
 71
     3
 72
   113
 73
   109
 74
     0
 42
0.0000000001
 43
0.0000000001
 40
0.0
 40
0.0
 40
0.0
 40
0.0
 40
1.0
 40
1.0
 40
1.0
 40
2.0
 40
2.0
 40
2.0
 40
3.0
 40
3.0
 40
3.0
 40
4.0
 40
4.0
 40
4.0
 40
5.0
 40
5.0
 40
5.0
 40
6.0
 40
6.0
 40
6.0
 40
7.0
 40
7.0
 40
7.0
 40
8.0
 40
8.0
 40
8.0
 40
9.0
 40
9.0
 40
9.0
 40
10.0
 40
10.0
 40
10.0
 40
11.0
 40
11.0
 40
11.0
 40
12.0
 40
12.0
 40
12.0
 40
13.0
 40
13.0
 40
13.0
 40
14.0
 40
14.0
 40
14.0
 40
15.0
 40
15.0
 40
15.0
 40
16.0
 40
16.0
 40
16.0
 40
17.0
 40
17.0
 40
17.0
 40
18.0
 40
18.0
 40
18.0
 40
19.0
 40
19.0
 40
19.0
 40
20.0
 40
20.0
 40
20.0
 40
21.0
 40
21.0
 40
21.0
 40
22.0
 40
22.0
 40
22.0
 40
23.0
 40
23.0
 40
23.0
 40
24.0
 40
24.0
 40
24.0
 40
25.0
 40
25.0
 40
25.0
 40
26.0
 40
26.0
 40
26.0
 40
27.0
 40
27.0
 40
27.0
 40
28.0
 40
28.0
 40
28.0
 40
29.0
 40
29.0
 40
29.0
 40
30.0
 40
30.0
 40
30.0
 40
31.0
 40
31.0
 40
31.0
 40
32.0
 40
32.0
 40
32.0
 40
33.0
 40
33.0
 40
33.0
 40
34.0
 40
34.0
 40
34.0
 40
35.0
 40
35.0
 40
35.0
 40
36.0
 40
36.0
 40
36.0
 40
36.0
 10
7.892204719338931
 20
-2.659986982413063
 30
0.0
 10
7.857524541757735
 20
-2.635612826439367
 30
0.0
 10
7.834522242188237
 20
-2.646265523038967
 30
0.0
 10
7.831839518130815
 20
-2.676862701392527
 30
0.0
 10
7.827306100252194
 20
-2.728562739294097
 30
0.0
 10
7.827109822442732
 20
-2.781599707822566
 30
0.0
 10
7.833410001267793
 20
-2.83305576696283
 30
0.0
 10
7.841675304137626
 20
-2.90055681825317
 30
0.0
 10
7.854999778327914
 20
-2.967821710614303
 30
0.0
 10
7.871481901102646
 20
-3.033856804048216
 30
0.0
 10
7.909585601591945
 20
-3.186519476089465
 30
0.0
 10
7.818606796648282
 20
-3.356427484507144
 30
0.0
 10
7.642237760778647
 20
-3.402893448127605
 30
0.0
 10
7.570064872330249
 20
-3.421908151845665
 30
0.0
 10
7.496200553993755
 20
-3.431057616055871
 30
0.0
 10
7.423162270688155
 20
-3.410522736978893
 30
0.0
 10
7.405403169176805
 20
-3.405529513526251
 30
0.0
 10
7.382513996525327
 20
-3.385074136075559
 30
0.0
 10
7.379138695921002
 20
-3.368280264672016
 30
0.0
 10
7.361553716025481
 20
-3.280790158584813
 30
0.0
 10
7.310780582694178
 20
-3.21612145047863
 30
0.0
 10
7.245207372676556
 20
-3.16153511255143
 30
0.0
 10
7.224007805285509
 20
-3.143887576144366
 30
0.0
 10
7.224018231729561
 20
-3.134440176331382
 30
0.0
 10
7.240375497836692
 20
-3.114079158187955
 30
0.0
 10
7.253867316454185
 20
-3.097284765462252
 30
0.0
 10
7.259527572274868
 20
-3.074314008688209
 30
0.0
 10
7.269309662094756
 20
-3.054400024279452
 30
0.0
 10
7.289147535891187
 20
-3.014014501433646
 30
0.0
 10
7.305262387173847
 20
-2.970807583168582
 30
0.0
 10
7.331414254833689
 20
-2.934967468057556
 30
0.0
 10
7.343136184571549
 20
-2.918902405005105
 30
0.0
 10
7.376545899943645
 20
-2.908641221332294
 30
0.0
 10
7.398010559675007
 20
-2.911506147150197
 30
0.0
 10
7.475361220245101
 20
-2.921831974768325
 30
0.0
 10
7.547756191952
 20
-2.914674743114396
 30
0.0
 10
7.617149651074264
 20
-2.876989408290417
 30
0.0
 10
7.628675042341531
 20
-2.870729893360804
 30
0.0
 10
7.648067967637567
 20
-2.870821646057366
 30
0.0
 10
7.660579179190941
 20
-2.875929299719624
 30
0.0
 10
7.713169641722439
 20
-2.897398648731761
 30
0.0
 10
7.752927236901212
 20
-2.933157698250094
 30
0.0
 10
7.763678464696744
 20
-2.991630232066616
 30
0.0
 10
7.770832569290556
 20
-3.030539370613193
 30
0.0
 10
7.777129620182399
 20
-3.070316771183204
 30
0.0
 10
7.777068364823535
 20
-3.1096948389943
 30
0.0
 10
7.776939337578242
 20
-3.192685153033973
 30
0.0
 10
7.722826353552489
 20
-3.252397912220481
 30
0.0
 10
7.641297816846341
 20
-3.265639494565107
 30
0.0
 10
7.579662414090231
 20
-3.275650182949877
 30
0.0
 10
7.536940059542151
 20
-3.251355267941372
 30
0.0
 10
7.517014603615582
 20
-3.194963591444889
 30
0.0
 10
7.495259306755971
 20
-3.133392058169824
 30
0.0
 10
7.516776098707648
 20
-3.056172780215004
 30
0.0
 10
7.562757759669819
 20
-3.030800813666183
 30
0.0
 10
7.608432101193228
 20
-3.005598537473777
 30
0.0
 10
7.632238279600035
 20
-3.017912166410016
 30
0.0
 10
7.665590128207592
 20
-3.083990790242599
 30
0.0
 10
7.669061352097287
 20
-3.083251555448706
 30
0.0
 10
7.672532836648062
 20
-3.082512320654814
 30
0.0
 10
7.676004060537707
 20
-3.081773085860934
 30
0.0
 10
7.669956722981194
 20
-3.062685918365496
 30
0.0
 10
7.669570683889737
 20
-3.03503003952331
 30
0.0
 10
7.656582201859413
 20
-3.026449337767315
 30
0.0
 10
7.635226237807399
 20
-3.01234079670462
 30
0.0
 10
7.605213457910975
 20
-3.003439742493886
 30
0.0
 10
7.579731228621059
 20
-3.005186692983544
 30
0.0
 10
7.532880002224019
 20
-3.008399080007456
 30
0.0
 10
7.493484986637566
 20
-3.062841793685227
 30
0.0
 10
7.48837628970778
 20
-3.119937255070099
 30
0.0
 10
7.481928837360353
 20
-3.192000135742596
 30
0.0
 10
7.510647174226328
 20
-3.265465112309445
 30
0.0
 10
7.557092551288178
 20
-3.277487061508597
 30
0.0
 10
7.679237040180547
 20
-3.309103163983889
 30
0.0
 10
7.789923649031
 20
-3.241089131708235
 30
0.0
 10
7.795000805967472
 20
-3.1225151930502
 30
0.0
 10
7.799428656099886
 20
-3.019106515431733
 30
0.0
 10
7.769021235295743
 20
-2.923890936558488
 30
0.0
 10
7.73413722073312
 20
-2.828392540424538
 30
0.0
 10
7.721775107329802
 20
-2.794549349769037
 30
0.0
 10
7.725482490177505
 20
-2.754662210888656
 30
0.0
 10
7.723069550360251
 20
-2.717455449788796
 30
0.0
 10
7.722253681112306
 20
-2.704875164578172
 30
0.0
 10
7.728254881653886
 20
-2.691440432380836
 30
0.0
 10
7.725866183319036
 20
-2.679446373916132
 30
0.0
 10
7.715687627963663
 20
-2.628335951354402
 30
0.0
 10
7.746383600607259
 20
-2.602028211565071
 30
0.0
 10
7.784998718177853
 20
-2.583168601183551
 30
0.0
 10
7.825466614858416
 20
-2.563403975567755
 30
0.0
 10
7.866535596039208
 20
-2.573919825105766
 30
0.0
 10
7.894775359122705
 20
-2.60479069758258
 30
0.0
 10
7.926929730629606
 20
-2.639940842841913
 30
0.0
 10
7.957748995974295
 20
-2.679576704451025
 30
0.0
 10
7.976855194058619
 20
-2.722708552327996
 30
0.0
 10
8.014740199883664
 20
-2.808233534610154
 30
0.0
 10
8.026433456900297
 20
-2.898642262695678
 30
0.0
 10
7.980959824425124
 20
-2.985956683221855
 30
0.0
 10
7.970869372522024
 20
-3.005331359877269
 30
0.0
 10
7.943924052468976
 20
-3.028682681813165
 30
0.0
 10
7.926087273949329
 20
-3.027618142004206
 30
0.0
 10
7.908863309679493
 20
-3.026590355406066
 30
0.0
 10
7.883148049364737
 20
-2.998572418337971
 30
0.0
 10
7.878920908280506
 20
-2.978644097570357
 30
0.0
 10
7.861572869326336
 20
-2.896855952384485
 30
0.0
 10
7.848719931068772
 20
-2.813894571723557
 30
0.0
 10
7.839101797081765
 20
-2.730798950611692
 30
0.0
 10
7.835458797526168
 20
-2.69932516908049
 30
0.0
 10
7.835070673145941
 20
-2.659799567103896
 30
0.0
 10
7.892204719338931
 20
-2.659986982413063
 30
0.0
  0
HATCH
  5
85
330
7C
100
AcDbEntity
  8
Layer 1
 62
    18
420
        0
440
 33554687
100
AcDbHatch
 10
0.0
 20
0.0
 30
0.0
210
0.0
220
0.0
230
1.0
  2
SOLID
 70
     1
 71
     1
 91
        1
 92
        1
 93
        1
 72
     4
 94
        3
 73
     0
 74
     0
 95
      113
 96
      109
 40
0.0
 40
0.0
 40
0.0
 40
0.0
 40
1.0
 40
1.0
 40
1.0
 40
2.0
 40
2.0
 40
2.0
 40
3.0
 40
3.0
 40
3.0
 40
4.0
 40
4.0
 40
4.0
 40
5.0
 40
5.0
 40
5.0
 40
6.0
 40
6.0
 40
6.0
 40
7.0
 40
7.0
 40
7.0
 40
8.0
 40
8.0
 40
8.0
 40
9.0
 40
9.0
 40
9.0
 40
10.0
 40
10.0
 40
10.0
 40
11.0
 40
11.0
 40
11.0
 40
12.0
 40
12.0
 40
12.0
 40
13.0
 40
13.0
 40
13.0
 40
14.0
 40
14.0
 40
14.0
 40
15.0
 40
15.0
 40
15.0
 40
16.0
 40
16.0
 40
16.0
 40
17.0
 40
17.0
 40
17.0
 40
18.0
 40
18.0
 40
18.0
 40
19.0
 40
19.0
 40
19.0
 40
20.0
 40
20.0
 40
20.0
 40
21.0
 40
21.0
 40
21.0
 40
22.0
 40
22.0
 40
22.0
 40
23.0
 40
23.0
 40
23.0
 40
24.0
 40
24.0
 40
24.0
 40
25.0
 40
25.0
 40
25.0
 40
26.0
 40
26.0
 40
26.0
 40
27.0
 40
27.0
 40
27.0
 40
28.0
 40
28.0
 40
28.0
 40
29.0
 40
29.0
 40
29.0
 40
30.0
 40
30.0
 40
30.0
 40
31.0
 40
31.0
 40
31.0
 40
32.0
 40
32.0
 40
32.0
 40
33.0
 40
33.0
 40
33.0
 40
34.0
 40
34.0
 40
34.0
 40
35.0
 40
35.0
 40
35.0
 40
36.0
 40
36.0
 40
36.0
 40
36.0
 10
7.892204719338931
 20
-2.659986982413063
 10
7.857524541757735
 20
-2.635612826439367
 10
7.834522242188237
 20
-2.646265523038967
 10
7.831839518130815
 20
-2.676862701392527
 10
7.827306100252194
 20
-2.728562739294097
 10
7.827109822442732
 20
-2.781599707822566
 10
7.833410001267793
 20
-2.83305576696283
 10
7.841675304137626
 20
-2.90055681825317
 10
7.854999778327914
 20
-2.967821710614303
 10
7.871481901102646
 20
-3.033856804048216
 10
7.909585601591945
 20
-3.186519476089465
 10
7.818606796648282
 20
-3.356427484507144
 10
7.642237760778647
 20
-3.402893448127605
 10
7.570064872330249
 20
-3.421908151845665
 10
7.496200553993755
 20
-3.431057616055871
 10
7.423162270688155
 20
-3.410522736978893
 10
7.405403169176805
 20
-3.405529513526251
 10
7.382513996525327
 20
-3.385074136075559
 10
7.379138695921002
 20
-3.368280264672016
 10
7.361553716025481
 20
-3.280790158584813
 10
7.310780582694178
 20
-3.21612145047863
 10
7.245207372676556
 20
-3.16153511255143
 10
7.224007805285509
 20
-3.143887576144366
 10
7.224018231729561
 20
-3.134440176331382
 10
7.240375497836692
 20
-3.114079158187955
 10
7.253867316454185
 20
-3.097284765462252
 10
7.259527572274868
 20
-3.074314008688209
 10
7.269309662094756
 20
-3.054400024279452
 10
7.289147535891187
 20
-3.014014501433646
 10
7.305262387173847
 20
-2.970807583168582
 10
7.331414254833689
 20
-2.934967468057556
 10
7.343136184571549
 20
-2.918902405005105
 10
7.376545899943645
 20
-2.908641221332294
 10
7.398010559675007
 20
-2.911506147150197
 10
7.475361220245101
 20
-2.921831974768325
 10
7.547756191952
 20
-2.914674743114396
 10
7.617149651074264
 20
-2.876989408290417
 10
7.628675042341531
 20
-2.870729893360804
 10
7.648067967637567
 20
-2.870821646057366
 10
7.660579179190941
 20
-2.875929299719624
 10
7.713169641722439
 20
-2.897398648731761
 10
7.752927236901212
 20
-2.933157698250094
 10
7.763678464696744
 20
-2.991630232066616
 10
7.770832569290556
 20
-3.030539370613193
 10
7.777129620182399
 20
-3.070316771183204
 10
7.777068364823535
 20
-3.1096948389943
 10
7.776939337578242
 20
-3.192685153033973
 10
7.722826353552489
 20
-3.252397912220481
 10
7.641297816846341
 20
-3.265639494565107
 10
7.579662414090231
 20
-3.275650182949877
 10
7.536940059542151
 20
-3.251355267941372
 10
7.517014603615582
 20
-3.194963591444889
 10
7.495259306755971
 20
-3.133392058169824
 10
7.516776098707648
 20
-3.056172780215004
 10
7.562757759669819
 20
-3.030800813666183
 10
7.608432101193228
 20
-3.005598537473777
 10
7.632238279600035
 20
-3.017912166410016
 10
7.665590128207592
 20
-3.083990790242599
 10
7.669061352097287
 20
-3.083251555448706
 10
7.672532836648062
 20
-3.082512320654814
 10
7.676004060537707
 20
-3.081773085860934
 10
7.669956722981194
 20
-3.062685918365496
 10
7.669570683889737
 20
-3.03503003952331
 10
7.656582201859413
 20
-3.026449337767315
 10
7.635226237807399
 20
-3.01234079670462
 10
7.605213457910975
 20
-3.003439742493886
 10
7.579731228621059
 20
-3.005186692983544
 10
7.532880002224019
 20
-3.008399080007456
 10
7.493484986637566
 20
-3.062841793685227
 10
7.48837628970778
 20
-3.119937255070099
 10
7.481928837360353
 20
-3.192000135742596
 10
7.510647174226328
 20
-3.265465112309445
 10
7.557092551288178
 20
-3.277487061508597
 10
7.679237040180547
 20
-3.309103163983889
 10
7.789923649031
 20
-3.241089131708235
 10
7.795000805967472
 20
-3.1225151930502
 10
7.799428656099886
 20
-3.019106515431733
 10
7.769021235295743
 20
-2.923890936558488
 10
7.73413722073312
 20
-2.828392540424538
 10
7.721775107329802
 20
-2.794549349769037
 10
7.725482490177505
 20
-2.754662210888656
 10
7.723069550360251
 20
-2.717455449788796
 10
7.722253681112306
 20
-2.704875164578172
 10
7.728254881653886
 20
-2.691440432380836
 10
7.725866183319036
 20
-2.679446373916132
 10
7.715687627963663
 20
-2.628335951354402
 10
7.746383600607259
 20
-2.602028211565071
 10
7.784998718177853
 20
-2.583168601183551
 10
7.825466614858416
 20
-2.563403975567755
 10
7.866535596039208
 20
-2.573919825105766
 10
7.894775359122705
 20
-2.60479069758258
 10
7.926929730629606
 20
-2.639940842841913
 10
7.957748995974295
 20
-2.679576704451025
 10
7.976855194058619
 20
-2.722708552327996
 10
8.014740199883664
 20
-2.808233534610154
 10
8.026433456900297
 20
-2.898642262695678
 10
7.980959824425124
 20
-2.985956683221855
 10
7.970869372522024
 20
-3.005331359877269
 10
7.943924052468976
 20
-3.028682681813165
 10
7.926087273949329
 20
-3.027618142004206
 10
7.908863309679493
 20
-3.026590355406066
 10
7.883148049364737
 20
-2.998572418337971
 10
7.878920908280506
 20
-2.978644097570357
 10
7.861572869326336
 20
-2.896855952384485
 10
7.848719931068772
 20
-2.813894571723557
 10
7.839101797081765
 20
-2.730798950611692
 10
7.835458797526168
 20
-2.69932516908049
 10
7.835070673145941
 20
-2.659799567103896
 10
7.892204719338931
 20
-2.659986982413063
 97
        0
 97
        1
330
84
 75
     2
 76
     1
 98
        1
 10
0.0
 20
0.0
450
        0
451
        0
460
0.0
461
0.0
452
        0
462
0.0
453
        0
470

  0
SPLINE
  5
86
330
7C
100
AcDbEntity
  8
Layer 1
100
AcDbSpline
210
0.0
220
0.0
230
1.0
 70
     9
 71
     3
 72
    74
 73
    70
 74
     0
 42
0.0000000001
 43
0.0000000001
 40
0.0
 40
0.0
 40
0.0
 40
0.0
 40
1.0
 40
1.0
 40
1.0
 40
2.0
 40
2.0
 40
2.0
 40
3.0
 40
3.0
 40
3.0
 40
4.0
 40
4.0
 40
4.0
 40
5.0
 40
5.0
 40
5.0
 40
6.0
 40
6.0
 40
6.0
 40
7.0
 40
7.0
 40
7.0
 40
8.0
 40
8.0
 40
8.0
 40
9.0
 40
9.0
 40
9.0
 40
10.0
 40
10.0
 40
10.0
 40
11.0
 40
11.0
 40
11.0
 40
12.0
 40
12.0
 40
12.0
 40
13.0
 40
13.0
 40
13.0
 40
14.0
 40
14.0
 40
14.0
 40
15.0
 40
15.0
 40
15.0
 40
16.0
 40
16.0
 40
16.0
 40
17.0
 40
17.0
 40
17.0
 40
18.0
 40
18.0
 40
18.0
 40
19.0
 40
19.0
 40
19.0
 40
20.0
 40
20.0
 40
20.0
 40
21.0
 40
21.0
 40
21.0
 40
22.0
 40
22.0
 40
22.0
 40
23.0
 40
23.0
 40
23.0
 40
23.0
 10
7.651557698465441
 20
-3.631522921683413
 30
0.0
 10
7.648844998381364
 20
-3.615227955567408
 30
0.0
 10
7.647777851831531
 20
-3.602539496012847
 30
0.0
 10
7.644518806078545
 20
-3.590441433781304
 30
0.0
 10
7.635436330655263
 20
-3.556726488372153
 30
0.0
 10
7.614411406202255
 20
-3.537700576228126
 30
0.0
 10
7.578424013196631
 20
-3.547258235673603
 30
0.0
 10
7.504532846766677
 20
-3.566882625633866
 30
0.0
 10
7.430564263989556
 20
-3.586601635562449
 30
0.0
 10
7.357760054353168
 20
-3.609832532084131
 30
0.0
 10
7.270815761939628
 20
-3.63757547172362
 30
0.0
 10
7.185042359194413
 20
-3.664404272991406
 30
0.0
 10
7.091347204911218
 20
-3.660883523921963
 30
0.0
 10
6.968636820767338
 20
-3.656272690258674
 30
0.0
 10
6.855954590523246
 20
-3.566799474752592
 30
0.0
 10
6.829914546475972
 20
-3.453411909399884
 30
0.0
 10
6.797774511329584
 20
-3.313463763020182
 30
0.0
 10
6.883053700626255
 20
-3.207440654871877
 30
0.0
 10
6.99364360420802
 20
-3.160421829122406
 30
0.0
 10
7.165551946646372
 20
-3.087332465157121
 30
0.0
 10
7.35688110511867
 20
-3.208764552445283
 30
0.0
 10
7.363744311923103
 20
-3.394493384493001
 30
0.0
 10
7.364447314914059
 20
-3.413517472009554
 30
0.0
 10
7.358064245858713
 20
-3.434294505220362
 30
0.0
 10
7.349887307102309
 20
-3.451897468584497
 30
0.0
 10
7.314791635725214
 20
-3.527449297675957
 30
0.0
 10
7.246629278985639
 20
-3.555414841869049
 30
0.0
 10
7.170866305185275
 20
-3.56473008651964
 30
0.0
 10
7.096055526388958
 20
-3.573928555010979
 30
0.0
 10
7.029011405775134
 20
-3.554769184399219
 30
0.0
 10
6.98624056826217
 20
-3.485683574465699
 30
0.0
 10
6.96031703972729
 20
-3.443810458894681
 30
0.0
 10
6.969223047584793
 20
-3.405745862214176
 30
0.0
 10
7.009707887236951
 20
-3.37509733362986
 30
0.0
 10
7.073240120829217
 20
-3.327000674356882
 30
0.0
 10
7.133590203693478
 20
-3.33383859620033
 30
0.0
 10
7.186963170851917
 20
-3.394936508311616
 30
0.0
 10
7.189458479577297
 20
-3.397792832314229
 30
0.0
 10
7.193819079145517
 20
-3.399019763969666
 30
0.0
 10
7.197761578306855
 20
-3.401261449169737
 30
0.0
 10
7.200603305636225
 20
-3.359761339589592
 30
0.0
 10
7.16003687905926
 20
-3.322293917419945
 30
0.0
 10
7.110740651529466
 20
-3.319931024822405
 30
0.0
 10
7.105101509257994
 20
-3.319660719293058
 30
0.0
 10
7.099370614278793
 20
-3.320251116616102
 30
0.0
 10
7.093743201756902
 20
-3.320939783162442
 30
0.0
 10
7.012441440209158
 20
-3.330887130907247
 30
0.0
 10
6.955495851992559
 20
-3.376275261004189
 30
0.0
 10
6.951900553418529
 20
-3.43388917725685
 30
0.0
 10
6.948110280340566
 20
-3.494631026346824
 30
0.0
 10
7.003881068972354
 20
-3.563317042860388
 30
0.0
 10
7.082151863230996
 20
-3.577259542821643
 30
0.0
 10
7.17969046545689
 20
-3.594634427749724
 30
0.0
 10
7.272897401496821
 20
-3.58132715881551
 30
0.0
 10
7.343583479021819
 20
-3.500054601225656
 30
0.0
 10
7.344517427748769
 20
-3.498980938279272
 30
0.0
 10
7.346064712047715
 20
-3.498108766339782
 30
0.0
 10
7.346394969663403
 20
-3.496890175838593
 30
0.0
 10
7.366113721336457
 20
-3.42415791753889
 30
0.0
 10
7.419942584761504
 20
-3.430788874492931
 30
0.0
 10
7.477538522426534
 20
-3.436631331710903
 30
0.0
 10
7.551957788248298
 20
-3.444180858274825
 30
0.0
 10
7.625449621870656
 20
-3.434356803216044
 30
0.0
 10
7.695221300251305
 20
-3.405564702770687
 30
0.0
 10
7.719629084480553
 20
-3.395492237712371
 30
0.0
 10
7.732534415619511
 20
-3.402970864465348
 30
0.0
 10
7.740438963524789
 20
-3.426716566599806
 30
0.0
 10
7.765356600868673
 20
-3.50157190931284
 30
0.0
 10
7.728000476418729
 20
-3.592027556390904
 30
0.0
 10
7.651557698465441
 20
-3.631522921683413
 30
0.0
  0
HATCH
  5
87
330
7C
100
AcDbEntity
  8
Layer 1
 62
    18
420
        0
440
 33554687
100
AcDbHatch
 10
0.0
 20
0.0
 30
0.0
210
0.0
220
0.0
230
1.0
  2
SOLID
 70
     1
 71
     1
 91
        1
 92
        1
 93
        1
 72
     4
 94
        3
 73
     0
 74
     0
 95
       74
 96
       70
 40
0.0
 40
0.0
 40
0.0
 40
0.0
 40
1.0
 40
1.0
 40
1.0
 40
2.0
 40
2.0
 40
2.0
 40
3.0
 40
3.0
 40
3.0
 40
4.0
 40
4.0
 40
4.0
 40
5.0
 40
5.0
 40
5.0
 40
6.0
 40
6.0
 40
6.0
 40
7.0
 40
7.0
 40
7.0
 40
8.0
 40
8.0
 40
8.0
 40
9.0
 40
9.0
 40
9.0
 40
10.0
 40
10.0
 40
10.0
 40
11.0
 40
11.0
 40
11.0
 40
12.0
 40
12.0
 40
12.0
 40
13.0
 40
13.0
 40
13.0
 40
14.0
 40
14.0
 40
14.0
 40
15.0
 40
15.0
 40
15.0
 40
16.0
 40
16.0
 40
16.0
 40
17.0
 40
17.0
 40
17.0
 40
18.0
 40
18.0
 40
18.0
 40
19.0
 40
19.0
 40
19.0
 40
20.0
 40
20.0
 40
20.0
 40
21.0
 40
21.0
 40
21.0
 40
22.0
 40
22.0
 40
22.0
 40
23.0
 40
23.0
 40
23.0
 40
23.0
 10
7.651557698465441
 20
-3.631522921683413
 10
7.648844998381364
 20
-3.615227955567408
 10
7.647777851831531
 20
-3.602539496012847
 10
7.644518806078545
 20
-3.590441433781304
 10
7.635436330655263
 20
-3.556726488372153
 10
7.614411406202255
 20
-3.537700576228126
 10
7.578424013196631
 20
-3.547258235673603
 10
7.504532846766677
 20
-3.566882625633866
 10
7.430564263989556
 20
-3.586601635562449
 10
7.357760054353168
 20
-3.609832532084131
 10
7.270815761939628
 20
-3.63757547172362
 10
7.185042359194413
 20
-3.664404272991406
 10
7.091347204911218
 20
-3.660883523921963
 10
6.968636820767338
 20
-3.656272690258674
 10
6.855954590523246
 20
-3.566799474752592
 10
6.829914546475972
 20
-3.453411909399884
 10
6.797774511329584
 20
-3.313463763020182
 10
6.883053700626255
 20
-3.207440654871877
 10
6.99364360420802
 20
-3.160421829122406
 10
7.165551946646372
 20
-3.087332465157121
 10
7.35688110511867
 20
-3.208764552445283
 10
7.363744311923103
 20
-3.394493384493001
 10
7.364447314914059
 20
-3.413517472009554
 10
7.358064245858713
 20
-3.434294505220362
 10
7.349887307102309
 20
-3.451897468584497
 10
7.314791635725214
 20
-3.527449297675957
 10
7.246629278985639
 20
-3.555414841869049
 10
7.170866305185275
 20
-3.56473008651964
 10
7.096055526388958
 20
-3.573928555010979
 10
7.029011405775134
 20
-3.554769184399219
 10
6.98624056826217
 20
-3.485683574465699
 10
6.96031703972729
 20
-3.443810458894681
 10
6.969223047584793
 20
-3.405745862214176
 10
7.009707887236951
 20
-3.37509733362986
 10
7.073240120829217
 20
-3.327000674356882
 10
7.133590203693478
 20
-3.33383859620033
 10
7.186963170851917
 20
-3.394936508311616
 10
7.189458479577297
 20
-3.397792832314229
 10
7.193819079145517
 20
-3.399019763969666
 10
7.197761578306855
 20
-3.401261449169737
 10
7.200603305636225
 20
-3.359761339589592
 10
7.16003687905926
 20
-3.322293917419945
 10
7.110740651529466
 20
-3.319931024822405
 10
7.105101509257994
 20
-3.319660719293058
 10
7.099370614278793
 20
-3.320251116616102
 10
7.093743201756902
 20
-3.320939783162442
 10
7.012441440209158
 20
-3.330887130907247
 10
6.955495851992559
 20
-3.376275261004189
 10
6.951900553418529
 20
-3.43388917725685
 10
6.948110280340566
 20
-3.494631026346824
 10
7.003881068972354
 20
-3.563317042860388
 10
7.082151863230996
 20
-3.577259542821643
 10
7.17969046545689
 20
-3.594634427749724
 10
7.272897401496821
 20
-3.58132715881551
 10
7.343583479021819
 20
-3.500054601225656
 10
7.344517427748769
 20
-3.498980938279272
 10
7.346064712047715
 20
-3.498108766339782
 10
7.346394969663403
 20
-3.496890175838593
 10
7.366113721336457
 20
-3.42415791753889
 10
7.419942584761504
 20
-3.430788874492931
 10
7.477538522426534
 20
-3.436631331710903
 10
7.551957788248298
 20
-3.444180858274825
 10
7.625449621870656
 20
-3.434356803216044
 10
7.695221300251305
 20
-3.405564702770687
 10
7.719629084480553
 20
-3.395492237712371
 10
7.732534415619511
 20
-3.402970864465348
 10
7.740438963524789
 20
-3.426716566599806
 10
7.765356600868673
 20
-3.50157190931284
 10
7.728000476418729
 20
-3.592027556390904
 10
7.651557698465441
 20
-3.631522921683413
 97
        0
 97
        1
330
86
 75
     2
 76
     1
 98
        1
 10
0.0
 20
0.0
450
        0
451
        0
460
0.0
461
0.0
452
        0
462
0.0
453
        0
470

  0
SPLINE
  5
88
330
7C
100
AcDbEntity
  8
Layer 1
100
AcDbSpline
210
0.0
220
0.0
230
1.0
 70
     9
 71
     3
 72
    68
 73
    64
 74
     0
 42
0.0000000001
 43
0.0000000001
 40
0.0
 40
0.0
 40
0.0
 40
0.0
 40
1.0
 40
1.0
 40
1.0
 40
2.0
 40
2.0
 40
2.0
 40
3.0
 40
3.0
 40
3.0
 40
4.0
 40
4.0
 40
4.0
 40
5.0
 40
5.0
 40
5.0
 40
6.0
 40
6.0
 40
6.0
 40
7.0
 40
7.0
 40
7.0
 40
8.0
 40
8.0
 40
8.0
 40
9.0
 40
9.0
 40
9.0
 40
10.0
 40
10.0
 40
10.0
 40
11.0
 40
11.0
 40
11.0
 40
12.0
 40
12.0
 40
12.0
 40
13.0
 40
13.0
 40
13.0
 40
14.0
 40
14.0
 40
14.0
 40
15.0
 40
15.0
 40
15.0
 40
16.0
 40
16.0
 40
16.0
 40
17.0
 40
17.0
 40
17.0
 40
18.0
 40
18.0
 40
18.0
 40
19.0
 40
19.0
 40
19.0
 40
20.0
 40
20.0
 40
20.0
 40
21.0
 40
21.0
 40
21.0
 40
21.0
 10
7.230876485973086
 20
-2.113461915015313
 30
0.0
 10
7.236181982034521
 20
-2.124212489846639
 30
0.0
 10
7.239230413617431
 20
-2.137181551042822
 30
0.0
 10
7.247211856547664
 20
-2.145302316341182
 30
0.0
 10
7.272234800976648
 20
-2.170761734678914
 30
0.0
 10
7.361232060226155
 20
-2.166108022269655
 30
0.0
 10
7.396665027068668
 20
-2.139014519685499
 30
0.0
 10
7.429646215589829
 20
-2.113795821845719
 30
0.0
 10
7.441870960592545
 20
-2.059563070659641
 30
0.0
 10
7.417192349478782
 20
-2.019282854886038
 30
0.0
 10
7.365897893944318
 20
-1.935560474231907
 30
0.0
 10
7.294568244159563
 20
-1.883876466986129
 30
0.0
 10
7.19072685649755
 20
-1.885529970482252
 30
0.0
 10
7.111204106968064
 20
-1.886796001298155
 30
0.0
 10
7.031403492704308
 20
-1.886325117075595
 30
0.0
 10
6.952121854693788
 20
-1.880875085098182
 30
0.0
 10
6.907688781336067
 20
-1.877820919343611
 30
0.0
 10
6.858703001178254
 20
-1.87140057653394
 30
0.0
 10
6.84198941134529
 20
-1.816782177295168
 30
0.0
 10
6.831731093692799
 20
-1.783259469424971
 30
0.0
 10
6.864570743235794
 20
-1.704138147643991
 30
0.0
 10
6.903985047743819
 20
-1.684753956859544
 30
0.0
 10
6.941880480012918
 20
-1.666116429709455
 30
0.0
 10
6.985139014446935
 20
-1.65838457072722
 30
0.0
 10
7.029213678789978
 20
-1.644889365161702
 30
0.0
 10
7.028741882196122
 20
-1.712172894789306
 30
0.0
 10
7.036796831556986
 20
-1.723540584703313
 30
0.0
 10
7.093489578505037
 20
-1.737204177319932
 30
0.0
 10
7.148731485761774
 20
-1.750517962780893
 30
0.0
 10
7.204549193391862
 20
-1.761438097638107
 30
0.0
 10
7.260093467526378
 20
-1.773503446905376
 30
0.0
 10
7.362663089673787
 20
-1.795783712505579
 30
0.0
 10
7.450374768370338
 20
-1.843438811926375
 30
0.0
 10
7.505084666318755
 20
-1.93515736188749
 30
0.0
 10
7.522848199068826
 20
-1.964937367787317
 30
0.0
 10
7.527603700205948
 20
-2.005352345333979
 30
0.0
 10
7.529300864638293
 20
-2.041327873870765
 30
0.0
 10
7.535618768418266
 20
-2.175258007802009
 30
0.0
 10
7.45561692378409
 20
-2.28054253280911
 30
0.0
 10
7.337040885372289
 20
-2.299917209464524
 30
0.0
 10
7.199511656942806
 20
-2.32238880028995
 30
0.0
 10
7.077736785492485
 20
-2.248071071033324
 30
0.0
 10
7.038580274813966
 20
-2.117770381837658
 30
0.0
 10
7.015386649995863
 20
-2.040588899737953
 30
0.0
 10
7.035590752640018
 20
-1.968132551180625
 30
0.0
 10
7.092212078446234
 20
-1.9254386139009
 30
0.0
 10
7.141970458109148
 20
-1.887919841500496
 30
0.0
 10
7.236366008772241
 20
-1.89001738112899
 30
0.0
 10
7.301792987911867
 20
-1.935155928251611
 30
0.0
 10
7.334791901387916
 20
-1.957922196416411
 30
0.0
 10
7.366669711466101
 20
-1.985396264162457
 30
0.0
 10
7.390890341024386
 20
-2.016998681931593
 30
0.0
 10
7.419086313042826
 20
-2.053787733667149
 30
0.0
 10
7.411489345237441
 20
-2.095059113158602
 30
0.0
 10
7.382018479771204
 20
-2.119569985863399
 30
0.0
 10
7.352952160334602
 20
-2.143744214796583
 30
0.0
 10
7.290252738961877
 20
-2.146816366164961
 30
0.0
 10
7.261666296613257
 20
-2.125125585574083
 30
0.0
 10
7.254116508467252
 20
-2.119396906913064
 30
0.0
 10
7.247419864106732
 20
-2.112543866727567
 30
0.0
 10
7.24033144611048
 20
-2.10620706579079
 30
0.0
 10
7.237179792731366
 20
-2.108625348865618
 30
0.0
 10
7.234028139352226
 20
-2.111043631940472
 30
0.0
 10
7.230876485973086
 20
-2.113461915015313
 30
0.0
  0
HATCH
  5
89
330
7C
100
AcDbEntity
  8
Layer 1
 62
    18
420
        0
440
 33554687
100
AcDbHatch
 10
0.0
 20
0.0
 30
0.0
210
0.0
220
0.0
230
1.0
  2
SOLID
 70
     1
 71
     1
 91
        1
 92
        1
 93
        1
 72
     4
 94
        3
 73
     0
 74
     0
 95
       68
 96
       64
 40
0.0
 40
0.0
 40
0.0
 40
0.0
 40
1.0
 40
1.0
 40
1.0
 40
2.0
 40
2.0
 40
2.0
 40
3.0
 40
3.0
 40
3.0
 40
4.0
 40
4.0
 40
4.0
 40
5.0
 40
5.0
 40
5.0
 40
6.0
 40
6.0
 40
6.0
 40
7.0
 40
7.0
 40
7.0
 40
8.0
 40
8.0
 40
8.0
 40
9.0
 40
9.0
 40
9.0
 40
10.0
 40
10.0
 40
10.0
 40
11.0
 40
11.0
 40
11.0
 40
12.0
 40
12.0
 40
12.0
 40
13.0
 40
13.0
 40
13.0
 40
14.0
 40
14.0
 40
14.0
 40
15.0
 40
15.0
 40
15.0
 40
16.0
 40
16.0
 40
16.0
 40
17.0
 40
17.0
 40
17.0
 40
18.0
 40
18.0
 40
18.0
 40
19.0
 40
19.0
 40
19.0
 40
20.0
 40
20.0
 40
20.0
 40
21.0
 40
21.0
 40
21.0
 40
21.0
 10
7.230876485973086
 20
-2.113461915015313
 10
7.236181982034521
 20
-2.124212489846639
 10
7.239230413617431
 20
-2.137181551042822
 10
7.247211856547664
 20
-2.145302316341182
 10
7.272234800976648
 20
-2.170761734678914
 10
7.361232060226155
 20
-2.166108022269655
 10
7.396665027068668
 20
-2.139014519685499
 10
7.429646215589829
 20
-2.113795821845719
 10
7.441870960592545
 20
-2.059563070659641
 10
7.417192349478782
 20
-2.019282854886038
 10
7.365897893944318
 20
-1.935560474231907
 10
7.294568244159563
 20
-1.883876466986129
 10
7.19072685649755
 20
-1.885529970482252
 10
7.111204106968064
 20
-1.886796001298155
 10
7.031403492704308
 20
-1.886325117075595
 10
6.952121854693788
 20
-1.880875085098182
 10
6.907688781336067
 20
-1.877820919343611
 10
6.858703001178254
 20
-1.87140057653394
 10
6.84198941134529
 20
-1.816782177295168
 10
6.831731093692799
 20
-1.783259469424971
 10
6.864570743235794
 20
-1.704138147643991
 10
6.903985047743819
 20
-1.684753956859544
 10
6.941880480012918
 20
-1.666116429709455
 10
6.985139014446935
 20
-1.65838457072722
 10
7.029213678789978
 20
-1.644889365161702
 10
7.028741882196122
 20
-1.712172894789306
 10
7.036796831556986
 20
-1.723540584703313
 10
7.093489578505037
 20
-1.737204177319932
 10
7.148731485761774
 20
-1.750517962780893
 10
7.204549193391862
 20
-1.761438097638107
 10
7.260093467526378
 20
-1.773503446905376
 10
7.362663089673787
 20
-1.795783712505579
 10
7.450374768370338
 20
-1.843438811926375
 10
7.505084666318755
 20
-1.93515736188749
 10
7.522848199068826
 20
-1.964937367787317
 10
7.527603700205948
 20
-2.005352345333979
 10
7.529300864638293
 20
-2.041327873870765
 10
7.535618768418266
 20
-2.175258007802009
 10
7.45561692378409
 20
-2.28054253280911
 10
7.337040885372289
 20
-2.299917209464524
 10
7.199511656942806
 20
-2.32238880028995
 10
7.077736785492485
 20
-2.248071071033324
 10
7.038580274813966
 20
-2.117770381837658
 10
7.015386649995863
 20
-2.040588899737953
 10
7.035590752640018
 20
-1.968132551180625
 10
7.092212078446234
 20
-1.9254386139009
 10
7.141970458109148
 20
-1.887919841500496
 10
7.236366008772241
 20
-1.89001738112899
 10
7.301792987911867
 20
-1.935155928251611
 10
7.334791901387916
 20
-1.957922196416411
 10
7.366669711466101
 20
-1.985396264162457
 10
7.390890341024386
 20
-2.016998681931593
 10
7.419086313042826
 20
-2.053787733667149
 10
7.411489345237441
 20
-2.095059113158602
 10
7.382018479771204
 20
-2.119569985863399
 10
7.352952160334602
 20
-2.143744214796583
 10
7.290252738961877
 20
-2.146816366164961
 10
7.261666296613257
 20
-2.125125585574083
 10
7.254116508467252
 20
-2.119396906913064
 10
7.247419864106732
 20
-2.112543866727567
 10
7.24033144611048
 20
-2.10620706579079
 10
7.237179792731366
 20
-2.108625348865618
 10
7.234028139352226
 20
-2.111043631940472
 10
7.230876485973086
 20
-2.113461915015313
 97
        0
 97
        1
330
88
 75
     2
 76
     1
 98
        1
 10
0.0
 20
0.0
450
        0
451
        0
460
0.0
461
0.0
452
        0
462
0.0
453
        0
470

  0
SPLINE
  5
8A
330
7C
100
AcDbEntity
  8
Layer 1
100
AcDbSpline
210
0.0
220
0.0
230
1.0
 70
     9
 71
     3
 72
    86
 73
    82
 74
     0
 42
0.0000000001
 43
0.0000000001
 40
0.0
 40
0.0
 40
0.0
 40
0.0
 40
1.0
 40
1.0
 40
1.0
 40
2.0
 40
2.0
 40
2.0
 40
3.0
 40
3.0
 40
3.0
 40
4.0
 40
4.0
 40
4.0
 40
5.0
 40
5.0
 40
5.0
 40
6.0
 40
6.0
 40
6.0
 40
7.0
 40
7.0
 40
7.0
 40
8.0
 40
8.0
 40
8.0
 40
9.0
 40
9.0
 40
9.0
 40
10.0
 40
10.0
 40
10.0
 40
11.0
 40
11.0
 40
11.0
 40
12.0
 40
12.0
 40
12.0
 40
13.0
 40
13.0
 40
13.0
 40
14.0
 40
14.0
 40
14.0
 40
15.0
 40
15.0
 40
15.0
 40
16.0
 40
16.0
 40
16.0
 40
17.0
 40
17.0
 40
17.0
 40
18.0
 40
18.0
 40
18.0
 40
19.0
 40
19.0
 40
19.0
 40
20.0
 40
20.0
 40
20.0
 40
21.0
 40
21.0
 40
21.0
 40
22.0
 40
22.0
 40
22.0
 40
23.0
 40
23.0
 40
23.0
 40
24.0
 40
24.0
 40
24.0
 40
25.0
 40
25.0
 40
25.0
 40
26.0
 40
26.0
 40
26.0
 40
27.0
 40
27.0
 40
27.0
 40
27.0
 10
6.835235942864578
 20
-3.265960368342019
 30
0.0
 10
6.785327422407211
 20
-3.363498958669095
 30
0.0
 10
6.799199154580264
 20
-3.454522064896069
 30
0.0
 10
6.846267902666542
 20
-3.543225026940957
 30
0.0
 10
6.860184077557404
 20
-3.569450919154355
 30
0.0
 10
6.848569540193415
 20
-3.582841078308787
 30
0.0
 10
6.825715556790681
 20
-3.59292761906483
 30
0.0
 10
6.707121141771241
 20
-3.645266276587373
 30
0.0
 10
6.533887989284115
 20
-3.552671384109657
 30
0.0
 10
6.516814687130969
 20
-3.425223239331077
 30
0.0
 10
6.513834157765004
 20
-3.402973210414959
 30
0.0
 10
6.521077408455539
 20
-3.37083213654513
 30
0.0
 10
6.536179591358606
 20
-3.357305390990152
 30
0.0
 10
6.548876002624663
 20
-3.345933009176885
 30
0.0
 10
6.581249590118027
 20
-3.350092117206233
 30
0.0
 10
6.60251145551231
 20
-3.35600651687946
 30
0.0
 10
6.652972968496745
 20
-3.370042854825833
 30
0.0
 10
6.680561209156849
 20
-3.410702071794907
 30
0.0
 10
6.701324169202784
 20
-3.455650727328197
 30
0.0
 10
6.70554753070102
 20
-3.464793675011681
 30
0.0
 10
6.707553839199842
 20
-3.482324174598412
 30
0.0
 10
6.702518257709066
 20
-3.48669259346679
 30
0.0
 10
6.694533035192888
 20
-3.493619661396097
 30
0.0
 10
6.678442164731576
 20
-3.49721339556509
 30
0.0
 10
6.668108385690224
 20
-3.494209537397005
 30
0.0
 10
6.644382360572105
 20
-3.487312966812863
 30
0.0
 10
6.622060386477691
 20
-3.475586085944693
 30
0.0
 10
6.594565723153031
 20
-3.471783040936669
 30
0.0
 10
6.609295942664124
 20
-3.483654328037484
 30
0.0
 10
6.622705131712437
 20
-3.502701093067116
 30
0.0
 10
6.639066568397159
 20
-3.505713553050504
 30
0.0
 10
6.663522574930184
 20
-3.510216473030911
 30
0.0
 10
6.690056180773328
 20
-3.503434593317466
 30
0.0
 10
6.715706015151605
 20
-3.501453308526101
 30
0.0
 10
6.71374584366774
 20
-3.476354514778386
 30
0.0
 10
6.720031946793343
 20
-3.44614911001271
 30
0.0
 10
6.708254235579765
 20
-3.427129714395416
 30
0.0
 10
6.675063345202412
 20
-3.373532063905852
 30
0.0
 10
6.634636763306464
 20
-3.324029398822504
 30
0.0
 10
6.561217132809233
 20
-3.327066882268606
 30
0.0
 10
6.517821229974717
 20
-3.328862315717224
 30
0.0
 10
6.500323441217637
 20
-3.346553903845094
 30
0.0
 10
6.497193944032156
 20
-3.39038041347299
 30
0.0
 10
6.489588635071489
 20
-3.496892782449271
 30
0.0
 10
6.557245178943452
 20
-3.583201572568277
 30
0.0
 10
6.675793847939606
 20
-3.611287802836664
 30
0.0
 10
6.737500541506985
 20
-3.625907239596156
 30
0.0
 10
6.80136277205386
 20
-3.641993155534186
 30
0.0
 10
6.859538420008826
 20
-3.594827316941379
 30
0.0
 10
6.865679856222994
 20
-3.589848169186514
 30
0.0
 10
6.887258946177957
 20
-3.595212574002491
 30
0.0
 10
6.895332141815919
 20
-3.602657054155315
 30
0.0
 10
6.977630932077166
 20
-3.678550349248161
 30
0.0
 10
7.075895996793203
 20
-3.692442020300846
 30
0.0
 10
7.181328981141379
 20
-3.678449212753106
 30
0.0
 10
7.217358079923238
 20
-3.673667385428049
 30
0.0
 10
7.249540602829155
 20
-3.662119318053744
 30
0.0
 10
7.254438164266629
 20
-3.720247518597097
 30
0.0
 10
7.256903496965302
 20
-3.749506463018418
 30
0.0
 10
7.249914130187688
 20
-3.756131946089984
 30
0.0
 10
7.227518389001513
 20
-3.76551600526299
 30
0.0
 10
7.167881214250023
 20
-3.790504018056038
 30
0.0
 10
7.111420977004576
 20
-3.770521219124854
 30
0.0
 10
7.057223278120773
 20
-3.751744498963514
 30
0.0
 10
6.940454663787299
 20
-3.711289900934224
 30
0.0
 10
6.818951661865942
 20
-3.70141501696681
 30
0.0
 10
6.698116213025691
 20
-3.683785205512498
 30
0.0
 10
6.535803457389015
 20
-3.66010414732332
 30
0.0
 10
6.376662556366883
 20
-3.511166843291309
 30
0.0
 10
6.393944908723445
 20
-3.315895730801205
 30
0.0
 10
6.401647574605552
 20
-3.228863084891448
 30
0.0
 10
6.446912026546745
 20
-3.168406138350721
 30
0.0
 10
6.522517430711205
 20
-3.159090372377995
 30
0.0
 10
6.539136400564302
 20
-3.157042879674893
 30
0.0
 10
6.56129480981748
 20
-3.160745048848929
 30
0.0
 10
6.573764315594618
 20
-3.170721329972492
 30
0.0
 10
6.644189601687507
 20
-3.227065044832126
 30
0.0
 10
6.723183339511352
 20
-3.257187298716543
 30
0.0
 10
6.813258823407547
 20
-3.258954320108563
 30
0.0
 10
6.818488988410636
 20
-3.25905675990897
 30
0.0
 10
6.823660504665869
 20
-3.262160190605729
 30
0.0
 10
6.835235942864578
 20
-3.265960368342019
 30
0.0
  0
HATCH
  5
8B
330
7C
100
AcDbEntity
  8
Layer 1
 62
    18
420
        0
440
 33554687
100
AcDbHatch
 10
0.0
 20
0.0
 30
0.0
210
0.0
220
0.0
230
1.0
  2
SOLID
 70
     1
 71
     1
 91
        1
 92
        1
 93
        1
 72
     4
 94
        3
 73
     0
 74
     0
 95
       86
 96
       82
 40
0.0
 40
0.0
 40
0.0
 40
0.0
 40
1.0
 40
1.0
 40
1.0
 40
2.0
 40
2.0
 40
2.0
 40
3.0
 40
3.0
 40
3.0
 40
4.0
 40
4.0
 40
4.0
 40
5.0
 40
5.0
 40
5.0
 40
6.0
 40
6.0
 40
6.0
 40
7.0
 40
7.0
 40
7.0
 40
8.0
 40
8.0
 40
8.0
 40
9.0
 40
9.0
 40
9.0
 40
10.0
 40
10.0
 40
10.0
 40
11.0
 40
11.0
 40
11.0
 40
12.0
 40
12.0
 40
12.0
 40
13.0
 40
13.0
 40
13.0
 40
14.0
 40
14.0
 40
14.0
 40
15.0
 40
15.0
 40
15.0
 40
16.0
 40
16.0
 40
16.0
 40
17.0
 40
17.0
 40
17.0
 40
18.0
 40
18.0
 40
18.0
 40
19.0
 40
19.0
 40
19.0
 40
20.0
 40
20.0
 40
20.0
 40
21.0
 40
21.0
 40
21.0
 40
22.0
 40
22.0
 40
22.0
 40
23.0
 40
23.0
 40
23.0
 40
24.0
 40
24.0
 40
24.0
 40
25.0
 40
25.0
 40
25.0
 40
26.0
 40
26.0
 40
26.0
 40
27.0
 40
27.0
 40
27.0
 40
27.0
 10
6.835235942864578
 20
-3.265960368342019
 10
6.785327422407211
 20
-3.363498958669095
 10
6.799199154580264
 20
-3.454522064896069
 10
6.846267902666542
 20
-3.543225026940957
 10
6.860184077557404
 20
-3.569450919154355
 10
6.848569540193415
 20
-3.582841078308787
 10
6.825715556790681
 20
-3.59292761906483
 10
6.707121141771241
 20
-3.645266276587373
 10
6.533887989284115
 20
-3.552671384109657
 10
6.516814687130969
 20
-3.425223239331077
 10
6.513834157765004
 20
-3.402973210414959
 10
6.521077408455539
 20
-3.37083213654513
 10
6.536179591358606
 20
-3.357305390990152
 10
6.548876002624663
 20
-3.345933009176885
 10
6.581249590118027
 20
-3.350092117206233
 10
6.60251145551231
 20
-3.35600651687946
 10
6.652972968496745
 20
-3.370042854825833
 10
6.680561209156849
 20
-3.410702071794907
 10
6.701324169202784
 20
-3.455650727328197
 10
6.70554753070102
 20
-3.464793675011681
 10
6.707553839199842
 20
-3.482324174598412
 10
6.702518257709066
 20
-3.48669259346679
 10
6.694533035192888
 20
-3.493619661396097
 10
6.678442164731576
 20
-3.49721339556509
 10
6.668108385690224
 20
-3.494209537397005
 10
6.644382360572105
 20
-3.487312966812863
 10
6.622060386477691
 20
-3.475586085944693
 10
6.594565723153031
 20
-3.471783040936669
 10
6.609295942664124
 20
-3.483654328037484
 10
6.622705131712437
 20
-3.502701093067116
 10
6.639066568397159
 20
-3.505713553050504
 10
6.663522574930184
 20
-3.510216473030911
 10
6.690056180773328
 20
-3.503434593317466
 10
6.715706015151605
 20
-3.501453308526101
 10
6.71374584366774
 20
-3.476354514778386
 10
6.720031946793343
 20
-3.44614911001271
 10
6.708254235579765
 20
-3.427129714395416
 10
6.675063345202412
 20
-3.373532063905852
 10
6.634636763306464
 20
-3.324029398822504
 10
6.561217132809233
 20
-3.327066882268606
 10
6.517821229974717
 20
-3.328862315717224
 10
6.500323441217637
 20
-3.346553903845094
 10
6.497193944032156
 20
-3.39038041347299
 10
6.489588635071489
 20
-3.496892782449271
 10
6.557245178943452
 20
-3.583201572568277
 10
6.675793847939606
 20
-3.611287802836664
 10
6.737500541506985
 20
-3.625907239596156
 10
6.80136277205386
 20
-3.641993155534186
 10
6.859538420008826
 20
-3.594827316941379
 10
6.865679856222994
 20
-3.589848169186514
 10
6.887258946177957
 20
-3.595212574002491
 10
6.895332141815919
 20
-3.602657054155315
 10
6.977630932077166
 20
-3.678550349248161
 10
7.075895996793203
 20
-3.692442020300846
 10
7.181328981141379
 20
-3.678449212753106
 10
7.217358079923238
 20
-3.673667385428049
 10
7.249540602829155
 20
-3.662119318053744
 10
7.254438164266629
 20
-3.720247518597097
 10
7.256903496965302
 20
-3.749506463018418
 10
7.249914130187688
 20
-3.756131946089984
 10
7.227518389001513
 20
-3.76551600526299
 10
7.167881214250023
 20
-3.790504018056038
 10
7.111420977004576
 20
-3.770521219124854
 10
7.057223278120773
 20
-3.751744498963514
 10
6.940454663787299
 20
-3.711289900934224
 10
6.818951661865942
 20
-3.70141501696681
 10
6.698116213025691
 20
-3.683785205512498
 10
6.535803457389015
 20
-3.66010414732332
 10
6.376662556366883
 20
-3.511166843291309
 10
6.393944908723445
 20
-3.315895730801205
 10
6.401647574605552
 20
-3.228863084891448
 10
6.446912026546745
 20
-3.168406138350721
 10
6.522517430711205
 20
-3.159090372377995
 10
6.539136400564302
 20
-3.157042879674893
 10
6.56129480981748
 20
-3.160745048848929
 10
6.573764315594618
 20
-3.170721329972492
 10
6.644189601687507
 20
-3.227065044832126
 10
6.723183339511352
 20
-3.257187298716543
 10
6.813258823407547
 20
-3.258954320108563
 10
6.818488988410636
 20
-3.25905675990897
 10
6.823660504665869
 20
-3.262160190605729
 10
6.835235942864578
 20
-3.265960368342019
 97
        0
 97
        1
330
8A
 75
     2
 76
     1
 98
        1
 10
0.0
 20
0.0
450
        0
451
        0
460
0.0
461
0.0
452
        0
462
0.0
453
        0
470

  0
SPLINE
  5
8C
330
7C
100
AcDbEntity
  8
Layer 1
100
AcDbSpline
210
0.0
220
0.0
230
1.0
 70
     9
 71
     3
 72
    41
 73
    37
 74
     0
 42
0.0000000001
 43
0.0000000001
 40
0.0
 40
0.0
 40
0.0
 40
0.0
 40
1.0
 40
1.0
 40
1.0
 40
2.0
 40
2.0
 40
2.0
 40
3.0
 40
3.0
 40
3.0
 40
4.0
 40
4.0
 40
4.0
 40
5.0
 40
5.0
 40
5.0
 40
6.0
 40
6.0
 40
6.0
 40
7.0
 40
7.0
 40
7.0
 40
8.0
 40
8.0
 40
8.0
 40
9.0
 40
9.0
 40
9.0
 40
10.0
 40
10.0
 40
10.0
 40
11.0
 40
11.0
 40
11.0
 40
12.0
 40
12.0
 40
12.0
 40
12.0
 10
6.747793136094337
 20
-2.693185818904061
 30
0.0
 10
6.754622717616686
 20
-2.651114600920019
 30
0.0
 10
6.759997288870029
 20
-2.61800673514238
 30
0.0
 10
6.765728314179821
 20
-2.582703060512926
 30
0.0
 10
6.774936167592916
 20
-2.583444380595374
 30
0.0
 10
6.782801616332941
 20
-2.581825675352067
 30
0.0
 10
6.787985122998861
 20
-2.584831358147665
 30
0.0
 10
6.871708426180222
 20
-2.633382870987411
 30
0.0
 10
6.9633975326257
 20
-2.636710209543113
 30
0.0
 10
7.056651387663931
 20
-2.635011220690305
 30
0.0
 10
7.143250304117877
 20
-2.633433439234952
 30
0.0
 10
7.16450799893457
 20
-2.653256192269307
 30
0.0
 10
7.189345613320305
 20
-2.73498985929157
 30
0.0
 10
7.198903013270637
 20
-2.766441484631855
 30
0.0
 10
7.21513750799891
 20
-2.799606956505916
 30
0.0
 10
7.237879407127997
 20
-2.822507856113247
 30
0.0
 10
7.281533885775287
 20
-2.866467563547833
 30
0.0
 10
7.291617039167501
 20
-2.915552649597404
 30
0.0
 10
7.274630537161201
 20
-2.970777346484497
 30
0.0
 10
7.260574387258808
 20
-3.016474881271278
 30
0.0
 10
7.242276238589359
 20
-3.061198064979218
 30
0.0
 10
7.221895407718319
 20
-3.104487352142339
 30
0.0
 10
7.210759444136884
 20
-3.128140258935963
 30
0.0
 10
7.124408155729396
 20
-3.133051374151629
 30
0.0
 10
7.109397986195264
 20
-3.112172683123592
 30
0.0
 10
7.104906534754036
 20
-3.105924637281077
 30
0.0
 10
7.108239868920994
 20
-3.091142548014039
 30
0.0
 10
7.112222249230803
 20
-3.082144267224293
 30
0.0
 10
7.179635465964438
 20
-2.929828535066917
 30
0.0
 10
7.108275579491873
 20
-2.747119722173616
 30
0.0
 10
6.951689678587373
 20
-2.692480470049228
 30
0.0
 10
6.903405337453906
 20
-2.675631859821047
 30
0.0
 10
6.845816437638581
 20
-2.684908787294375
 30
0.0
 10
6.79245415758535
 20
-2.683564818818606
 30
0.0
 10
6.780437941463863
 20
-2.683262451977661
 30
0.0
 10
6.768280577355881
 20
-2.688569250697254
 30
0.0
 10
6.747793136094337
 20
-2.693185818904061
 30
0.0
  0
HATCH
  5
8D
330
7C
100
AcDbEntity
  8
Layer 1
 62
    18
420
        0
440
 33554687
100
AcDbHatch
 10
0.0
 20
0.0
 30
0.0
210
0.0
220
0.0
230
1.0
  2
SOLID
 70
     1
 71
     1
 91
        1
 92
        1
 93
        1
 72
     4
 94
        3
 73
     0
 74
     0
 95
       41
 96
       37
 40
0.0
 40
0.0
 40
0.0
 40
0.0
 40
1.0
 40
1.0
 40
1.0
 40
2.0
 40
2.0
 40
2.0
 40
3.0
 40
3.0
 40
3.0
 40
4.0
 40
4.0
 40
4.0
 40
5.0
 40
5.0
 40
5.0
 40
6.0
 40
6.0
 40
6.0
 40
7.0
 40
7.0
 40
7.0
 40
8.0
 40
8.0
 40
8.0
 40
9.0
 40
9.0
 40
9.0
 40
10.0
 40
10.0
 40
10.0
 40
11.0
 40
11.0
 40
11.0
 40
12.0
 40
12.0
 40
12.0
 40
12.0
 10
6.747793136094337
 20
-2.693185818904061
 10
6.754622717616686
 20
-2.651114600920019
 10
6.759997288870029
 20
-2.61800673514238
 10
6.765728314179821
 20
-2.582703060512926
 10
6.774936167592916
 20
-2.583444380595374
 10
6.782801616332941
 20
-2.581825675352067
 10
6.787985122998861
 20
-2.584831358147665
 10
6.871708426180222
 20
-2.633382870987411
 10
6.9633975326257
 20
-2.636710209543113
 10
7.056651387663931
 20
-2.635011220690305
 10
7.143250304117877
 20
-2.633433439234952
 10
7.16450799893457
 20
-2.653256192269307
 10
7.189345613320305
 20
-2.73498985929157
 10
7.198903013270637
 20
-2.766441484631855
 10
7.21513750799891
 20
-2.799606956505916
 10
7.237879407127997
 20
-2.822507856113247
 10
7.281533885775287
 20
-2.866467563547833
 10
7.291617039167501
 20
-2.915552649597404
 10
7.274630537161201
 20
-2.970777346484497
 10
7.260574387258808
 20
-3.016474881271278
 10
7.242276238589359
 20
-3.061198064979218
 10
7.221895407718319
 20
-3.104487352142339
 10
7.210759444136884
 20
-3.128140258935963
 10
7.124408155729396
 20
-3.133051374151629
 10
7.109397986195264
 20
-3.112172683123592
 10
7.104906534754036
 20
-3.105924637281077
 10
7.108239868920994
 20
-3.091142548014039
 10
7.112222249230803
 20
-3.082144267224293
 10
7.179635465964438
 20
-2.929828535066917
 10
7.108275579491873
 20
-2.747119722173616
 10
6.951689678587373
 20
-2.692480470049228
 10
6.903405337453906
 20
-2.675631859821047
 10
6.845816437638581
 20
-2.684908787294375
 10
6.79245415758535
 20
-2.683564818818606
 10
6.780437941463863
 20
-2.683262451977661
 10
6.768280577355881
 20
-2.688569250697254
 10
6.747793136094337
 20
-2.693185818904061
 97
        0
 97
        1
330
8C
 75
     2
 76
     1
 98
        1
 10
0.0
 20
0.0
450
        0
451
        0
460
0.0
461
0.0
452
        0
462
0.0
453
        0
470

  0
SPLINE
  5
8E
330
7C
100
AcDbEntity
  8
Layer 1
100
AcDbSpline
210
0.0
220
0.0
230
1.0
 70
     9
 71
     3
 72
    38
 73
    34
 74
     0
 42
0.0000000001
 43
0.0000000001
 40
0.0
 40
0.0
 40
0.0
 40
0.0
 40
1.0
 40
1.0
 40
1.0
 40
2.0
 40
2.0
 40
2.0
 40
3.0
 40
3.0
 40
3.0
 40
4.0
 40
4.0
 40
4.0
 40
5.0
 40
5.0
 40
5.0
 40
6.0
 40
6.0
 40
6.0
 40
7.0
 40
7.0
 40
7.0
 40
8.0
 40
8.0
 40
8.0
 40
9.0
 40
9.0
 40
9.0
 40
10.0
 40
10.0
 40
10.0
 40
11.0
 40
11.0
 40
11.0
 40
11.0
 10
7.19941547299633
 20
-2.318651050879894
 30
0.0
 10
7.238863924108626
 20
-2.318651050879894
 30
0.0
 10
7.272692782532076
 20
-2.318884863859491
 30
0.0
 10
7.306517991700123
 20
-2.3186099967614
 30
0.0
 10
7.440758980333233
 20
-2.317518999853847
 30
0.0
 10
7.53862184496951
 20
-2.21567520096778
 30
0.0
 10
7.548740708932629
 20
-2.081739593154073
 30
0.0
 10
7.558088798018413
 20
-1.958003913661791
 30
0.0
 10
7.509895688270463
 20
-1.870263572947591
 30
0.0
 10
7.4089179234704
 20
-1.806133781603193
 30
0.0
 10
7.392604969750537
 20
-1.795773677054398
 30
0.0
 10
7.375018165227301
 20
-1.788055111786724
 30
0.0
 10
7.390372668076679
 20
-1.763942920188128
 30
0.0
 10
7.403668208884684
 20
-1.743064359490643
 30
0.0
 10
7.422693080705331
 20
-1.729686842398121
 30
0.0
 10
7.443010570928663
 20
-1.747380385483994
 30
0.0
 10
7.485404753149825
 20
-1.784300289076592
 30
0.0
 10
7.537551570486457
 20
-1.818433074180587
 30
0.0
 10
7.562077694855815
 20
-1.865909620768572
 30
0.0
 10
7.641303290729511
 20
-2.019271385798977
 30
0.0
 10
7.612613887245792
 20
-2.169813058715463
 30
0.0
 10
7.521060585234231
 20
-2.309420912068579
 30
0.0
 10
7.483626001792698
 20
-2.366504122383174
 30
0.0
 10
7.429105343804065
 20
-2.398959944494764
 30
0.0
 10
7.355488653514056
 20
-2.39702297208526
 30
0.0
 10
7.316480719663407
 20
-2.395996358461944
 30
0.0
 10
7.276877957178966
 20
-2.407067937400686
 30
0.0
 10
7.238009216356557
 20
-2.414967792442401
 30
0.0
 10
7.211979338092229
 20
-2.420258039184052
 30
0.0
 10
7.200362715439445
 20
-2.415282671014703
 30
0.0
 10
7.202798332772594
 20
-2.385961949919836
 30
0.0
 10
7.20451817472076
 20
-2.365256728833729
 30
0.0
 10
7.200909582430565
 20
-2.344109165912275
 30
0.0
 10
7.19941547299633
 20
-2.318651050879894
 30
0.0
  0
HATCH
  5
8F
330
7C
100
AcDbEntity
  8
Layer 1
 62
    18
420
        0
440
 33554687
100
AcDbHatch
 10
0.0
 20
0.0
 30
0.0
210
0.0
220
0.0
230
1.0
  2
SOLID
 70
     1
 71
     1
 91
        1
 92
        1
 93
        1
 72
     4
 94
        3
 73
     0
 74
     0
 95
       38
 96
       34
 40
0.0
 40
0.0
 40
0.0
 40
0.0
 40
1.0
 40
1.0
 40
1.0
 40
2.0
 40
2.0
 40
2.0
 40
3.0
 40
3.0
 40
3.0
 40
4.0
 40
4.0
 40
4.0
 40
5.0
 40
5.0
 40
5.0
 40
6.0
 40
6.0
 40
6.0
 40
7.0
 40
7.0
 40
7.0
 40
8.0
 40
8.0
 40
8.0
 40
9.0
 40
9.0
 40
9.0
 40
10.0
 40
10.0
 40
10.0
 40
11.0
 40
11.0
 40
11.0
 40
11.0
 10
7.19941547299633
 20
-2.318651050879894
 10
7.238863924108626
 20
-2.318651050879894
 10
7.272692782532076
 20
-2.318884863859491
 10
7.306517991700123
 20
-2.3186099967614
 10
7.440758980333233
 20
-2.317518999853847
 10
7.53862184496951
 20
-2.21567520096778
 10
7.548740708932629
 20
-2.081739593154073
 10
7.558088798018413
 20
-1.958003913661791
 10
7.509895688270463
 20
-1.870263572947591
 10
7.4089179234704
 20
-1.806133781603193
 10
7.392604969750537
 20
-1.795773677054398
 10
7.375018165227301
 20
-1.788055111786724
 10
7.390372668076679
 20
-1.763942920188128
 10
7.403668208884684
 20
-1.743064359490643
 10
7.422693080705331
 20
-1.729686842398121
 10
7.443010570928663
 20
-1.747380385483994
 10
7.485404753149825
 20
-1.784300289076592
 10
7.537551570486457
 20
-1.818433074180587
 10
7.562077694855815
 20
-1.865909620768572
 10
7.641303290729511
 20
-2.019271385798977
 10
7.612613887245792
 20
-2.169813058715463
 10
7.521060585234231
 20
-2.309420912068579
 10
7.483626001792698
 20
-2.366504122383174
 10
7.429105343804065
 20
-2.398959944494764
 10
7.355488653514056
 20
-2.39702297208526
 10
7.316480719663407
 20
-2.395996358461944
 10
7.276877957178966
 20
-2.407067937400686
 10
7.238009216356557
 20
-2.414967792442401
 10
7.211979338092229
 20
-2.420258039184052
 10
7.200362715439445
 20
-2.415282671014703
 10
7.202798332772594
 20
-2.385961949919836
 10
7.20451817472076
 20
-2.365256728833729
 10
7.200909582430565
 20
-2.344109165912275
 10
7.19941547299633
 20
-2.318651050879894
 97
        0
 97
        1
330
8E
 75
     2
 76
     1
 98
        1
 10
0.0
 20
0.0
450
        0
451
        0
460
0.0
461
0.0
452
        0
462
0.0
453
        0
470

  0
SPLINE
  5
90
330
7C
100
AcDbEntity
  8
Layer 1
100
AcDbSpline
210
0.0
220
0.0
230
1.0
 70
     9
 71
     3
 72
    32
 73
    28
 74
     0
 42
0.0000000001
 43
0.0000000001
 40
0.0
 40
0.0
 40
0.0
 40
0.0
 40
1.0
 40
1.0
 40
1.0
 40
2.0
 40
2.0
 40
2.0
 40
3.0
 40
3.0
 40
3.0
 40
4.0
 40
4.0
 40
4.0
 40
5.0
 40
5.0
 40
5.0
 40
6.0
 40
6.0
 40
6.0
 40
7.0
 40
7.0
 40
7.0
 40
8.0
 40
8.0
 40
8.0
 40
9.0
 40
9.0
 40
9.0
 40
9.0
 10
6.356686923178257
 20
-3.334495462096166
 30
0.0
 10
6.331603375043187
 20
-3.330340263982861
 30
0.0
 10
6.319734432444091
 20
-3.306649300673029
 30
0.0
 10
6.318465012879414
 20
-3.278423095410162
 30
0.0
 10
6.317006874677215
 20
-3.246001028907092
 30
0.0
 10
6.318861869406545
 20
-3.21321403690634
 30
0.0
 10
6.32197051370397
 20
-3.1808438419562
 30
0.0
 10
6.330466371318126
 20
-3.092378863467994
 30
0.0
 10
6.327667131748309
 20
-3.005439273560139
 30
0.0
 10
6.298962870581791
 20
-2.920061304121329
 30
0.0
 10
6.290066376854534
 20
-2.893599513639792
 30
0.0
 10
6.285000167684302
 20
-2.864765968084333
 30
0.0
 10
6.284615822890044
 20
-2.836929711781838
 30
0.0
 10
6.284382140212477
 20
-2.820008898437297
 30
0.0
 10
6.296461436320567
 20
-2.802917873414217
 30
0.0
 10
6.303561323405245
 20
-2.784469846861864
 30
0.0
 10
6.390560745641727
 20
-2.854039765063033
 30
0.0
 10
6.439344513445853
 20
-2.934279322833352
 30
0.0
 10
6.437299757434528
 20
-3.04067934688856
 30
0.0
 10
6.436867060005927
 20
-3.063190036874452
 30
0.0
 10
6.442597954985128
 20
-3.08576328551707
 30
0.0
 10
6.443202688740787
 20
-3.108368595471271
 30
0.0
 10
6.443687127398056
 20
-3.126477762632917
 30
0.0
 10
6.445306354161023
 20
-3.146681341490218
 30
0.0
 10
6.438432981573618
 20
-3.162479487607229
 30
0.0
 10
6.414084628075543
 20
-3.218444201271406
 30
0.0
 10
6.386309232744501
 20
-3.27291767295541
 30
0.0
 10
6.356686923178257
 20
-3.334495462096166
 30
0.0
  0
HATCH
  5
91
330
7C
100
AcDbEntity
  8
Layer 1
 62
    18
420
        0
440
 33554687
100
AcDbHatch
 10
0.0
 20
0.0
 30
0.0
210
0.0
220
0.0
230
1.0
  2
SOLID
 70
     1
 71
     1
 91
        1
 92
        1
 93
        1
 72
     4
 94
        3
 73
     0
 74
     0
 95
       32
 96
       28
 40
0.0
 40
0.0
 40
0.0
 40
0.0
 40
1.0
 40
1.0
 40
1.0
 40
2.0
 40
2.0
 40
2.0
 40
3.0
 40
3.0
 40
3.0
 40
4.0
 40
4.0
 40
4.0
 40
5.0
 40
5.0
 40
5.0
 40
6.0
 40
6.0
 40
6.0
 40
7.0
 40
7.0
 40
7.0
 40
8.0
 40
8.0
 40
8.0
 40
9.0
 40
9.0
 40
9.0
 40
9.0
 10
6.356686923178257
 20
-3.334495462096166
 10
6.331603375043187
 20
-3.330340263982861
 10
6.319734432444091
 20
-3.306649300673029
 10
6.318465012879414
 20
-3.278423095410162
 10
6.317006874677215
 20
-3.246001028907092
 10
6.318861869406545
 20
-3.21321403690634
 10
6.32197051370397
 20
-3.1808438419562
 10
6.330466371318126
 20
-3.092378863467994
 10
6.327667131748309
 20
-3.005439273560139
 10
6.298962870581791
 20
-2.920061304121329
 10
6.290066376854534
 20
-2.893599513639792
 10
6.285000167684302
 20
-2.864765968084333
 10
6.284615822890044
 20
-2.836929711781838
 10
6.284382140212477
 20
-2.820008898437297
 10
6.296461436320567
 20
-2.802917873414217
 10
6.303561323405245
 20
-2.784469846861864
 10
6.390560745641727
 20
-2.854039765063033
 10
6.439344513445853
 20
-2.934279322833352
 10
6.437299757434528
 20
-3.04067934688856
 10
6.436867060005927
 20
-3.063190036874452
 10
6.442597954985128
 20
-3.08576328551707
 10
6.443202688740787
 20
-3.108368595471271
 10
6.443687127398056
 20
-3.126477762632917
 10
6.445306354161023
 20
-3.146681341490218
 10
6.438432981573618
 20
-3.162479487607229
 10
6.414084628075543
 20
-3.218444201271406
 10
6.386309232744501
 20
-3.27291767295541
 10
6.356686923178257
 20
-3.334495462096166
 97
        0
 97
        1
330
90
 75
     2
 76
     1
 98
        1
 10
0.0
 20
0.0
450
        0
451
        0
460
0.0
461
0.0
452
        0
462
0.0
453
        0
470

  0
SPLINE
  5
92
330
7C
100
AcDbEntity
  8
Layer 1
100
AcDbSpline
210
0.0
220
0.0
230
1.0
 70
     9
 71
     3
 72
    29
 73
    25
 74
     0
 42
0.0000000001
 43
0.0000000001
 40
0.0
 40
0.0
 40
0.0
 40
0.0
 40
1.0
 40
1.0
 40
1.0
 40
2.0
 40
2.0
 40
2.0
 40
3.0
 40
3.0
 40
3.0
 40
4.0
 40
4.0
 40
4.0
 40
5.0
 40
5.0
 40
5.0
 40
6.0
 40
6.0
 40
6.0
 40
7.0
 40
7.0
 40
7.0
 40
8.0
 40
8.0
 40
8.0
 40
8.0
 10
7.769558457826077
 20
-3.552179777332058
 30
0.0
 10
7.762889704203366
 20
-3.50155548766544
 30
0.0
 10
7.75492025168387
 20
-3.454189982693176
 30
0.0
 10
7.751445899860956
 20
-3.40649682675621
 30
0.0
 10
7.750433231481338
 20
-3.392599160498939
 30
0.0
 10
7.758090672662294
 20
-3.371560423574073
 30
0.0
 10
7.768847895663181
 20
-3.364354448300105
 30
0.0
 10
7.848114154668741
 20
-3.311255442437059
 30
0.0
 10
7.883962354646048
 20
-3.235023809275617
 30
0.0
 10
7.896448021411489
 20
-3.143586512608761
 30
0.0
 10
7.89860968392683
 20
-3.127754219891623
 30
0.0
 10
7.913584403551238
 20
-3.100072535603519
 30
0.0
 10
7.919536599805647
 20
-3.100875371698432
 30
0.0
 10
7.938308369696667
 20
-3.103407693991306
 30
0.0
 10
7.966821044953499
 20
-3.11321689136912
 30
0.0
 10
7.971272093923996
 20
-3.126839560197772
 30
0.0
 10
7.982583221765708
 20
-3.161458999519052
 30
0.0
 10
7.995795872343452
 20
-3.203980118509523
 30
0.0
 10
7.985250827479224
 20
-3.235690319631026
 30
0.0
 10
7.946777248886822
 20
-3.351385517434449
 30
0.0
 10
7.877119740068589
 20
-3.449900022806799
 30
0.0
 10
7.792272466217278
 20
-3.537259537698067
 30
0.0
 10
7.783966760876713
 20
-3.545811306075279
 30
0.0
 10
7.771885379479802
 20
-3.550696094522891
 30
0.0
 10
7.769558457826077
 20
-3.552179777332058
 30
0.0
  0
HATCH
  5
93
330
7C
100
AcDbEntity
  8
Layer 1
 62
    18
420
        0
440
 33554687
100
AcDbHatch
 10
0.0
 20
0.0
 30
0.0
210
0.0
220
0.0
230
1.0
  2
SOLID
 70
     1
 71
     1
 91
        1
 92
        1
 93
        1
 72
     4
 94
        3
 73
     0
 74
     0
 95
       29
 96
       25
 40
0.0
 40
0.0
 40
0.0
 40
0.0
 40
1.0
 40
1.0
 40
1.0
 40
2.0
 40
2.0
 40
2.0
 40
3.0
 40
3.0
 40
3.0
 40
4.0
 40
4.0
 40
4.0
 40
5.0
 40
5.0
 40
5.0
 40
6.0
 40
6.0
 40
6.0
 40
7.0
 40
7.0
 40
7.0
 40
8.0
 40
8.0
 40
8.0
 40
8.0
 10
7.769558457826077
 20
-3.552179777332058
 10
7.762889704203366
 20
-3.50155548766544
 10
7.75492025168387
 20
-3.454189982693176
 10
7.751445899860956
 20
-3.40649682675621
 10
7.750433231481338
 20
-3.392599160498939
 10
7.758090672662294
 20
-3.371560423574073
 10
7.768847895663181
 20
-3.364354448300105
 10
7.848114154668741
 20
-3.311255442437059
 10
7.883962354646048
 20
-3.235023809275617
 10
7.896448021411489
 20
-3.143586512608761
 10
7.89860968392683
 20
-3.127754219891623
 10
7.913584403551238
 20
-3.100072535603519
 10
7.919536599805647
 20
-3.100875371698432
 10
7.938308369696667
 20
-3.103407693991306
 10
7.966821044953499
 20
-3.11321689136912
 10
7.971272093923996
 20
-3.126839560197772
 10
7.982583221765708
 20
-3.161458999519052
 10
7.995795872343452
 20
-3.203980118509523
 10
7.985250827479224
 20
-3.235690319631026
 10
7.946777248886822
 20
-3.351385517434449
 10
7.877119740068589
 20
-3.449900022806799
 10
7.792272466217278
 20
-3.537259537698067
 10
7.783966760876713
 20
-3.545811306075279
 10
7.771885379479802
 20
-3.550696094522891
 10
7.769558457826077
 20
-3.552179777332058
 97
        0
 97
        1
330
92
 75
     2
 76
     1
 98
        1
 10
0.0
 20
0.0
450
        0
451
        0
460
0.0
461
0.0
452
        0
462
0.0
453
        0
470

  0
SPLINE
  5
94
330
7C
100
AcDbEntity
  8
Layer 1
100
AcDbSpline
210
0.0
220
0.0
230
1.0
 70
     9
 71
     3
 72
    35
 73
    31
 74
     0
 42
0.0000000001
 43
0.0000000001
 40
0.0
 40
0.0
 40
0.0
 40
0.0
 40
1.0
 40
1.0
 40
1.0
 40
2.0
 40
2.0
 40
2.0
 40
3.0
 40
3.0
 40
3.0
 40
4.0
 40
4.0
 40
4.0
 40
5.0
 40
5.0
 40
5.0
 40
6.0
 40
6.0
 40
6.0
 40
7.0
 40
7.0
 40
7.0
 40
8.0
 40
8.0
 40
8.0
 40
9.0
 40
9.0
 40
9.0
 40
10.0
 40
10.0
 40
10.0
 40
10.0
 10
7.378290244035396
 20
-3.679797091144905
 30
0.0
 10
7.375543397346998
 20
-3.687454792052802
 30
0.0
 10
7.373261830724914
 20
-3.695321543138662
 30
0.0
 10
7.369941268951934
 20
-3.702722232231735
 30
0.0
 10
7.364899822586417
 20
-3.713959591610874
 30
0.0
 10
7.35867236820867
 20
-3.734541389680404
 30
0.0
 10
7.353758124460707
 20
-3.734305230751197
 30
0.0
 10
7.328157555030631
 20
-3.733074910501853
 30
0.0
 10
7.301083989715607
 20
-3.730211548650357
 30
0.0
 10
7.278405170573098
 20
-3.719611505586852
 30
0.0
 10
7.271358458353132
 20
-3.716318313631278
 30
0.0
 10
7.272945363139544
 20
-3.686052696158475
 30
0.0
 10
7.277354706333754
 20
-3.669995974260258
 30
0.0
 10
7.279924042811974
 20
-3.660640848465984
 30
0.0
 10
7.294889378636702
 20
-3.651930858819405
 30
0.0
 10
7.306047498411796
 20
-3.648133809015992
 30
0.0
 10
7.389152513460203
 20
-3.619856514183425
 30
0.0
 10
7.472562762658551
 20
-3.592448263357507
 30
0.0
 10
7.55620056899862
 20
-3.565782114597254
 30
0.0
 10
7.579085049750245
 20
-3.558485950593156
 30
0.0
 10
7.610586204536653
 20
-3.549335704399709
 30
0.0
 10
7.61739024127107
 20
-3.580505294462505
 30
0.0
 10
7.622933720918227
 20
-3.605900459846528
 30
0.0
 10
7.619287332768331
 20
-3.651083189020495
 30
0.0
 10
7.603801196062653
 20
-3.660071304028507
 30
0.0
 10
7.549709586247192
 20
-3.69146584459453
 30
0.0
 10
7.49004504208008
 20
-3.715433108638308
 30
0.0
 10
7.429857351082065
 20
-3.733351211235811
 30
0.0
 10
7.392523904147966
 20
-3.74446553859002
 30
0.0
 10
7.384444713304674
 20
-3.711211441952223
 30
0.0
 10
7.378290244035396
 20
-3.679797091144905
 30
0.0
  0
HATCH
  5
95
330
7C
100
AcDbEntity
  8
Layer 1
 62
    18
420
        0
440
 33554687
100
AcDbHatch
 10
0.0
 20
0.0
 30
0.0
210
0.0
220
0.0
230
1.0
  2
SOLID
 70
     1
 71
     1
 91
        1
 92
        1
 93
        1
 72
     4
 94
        3
 73
     0
 74
     0
 95
       35
 96
       31
 40
0.0
 40
0.0
 40
0.0
 40
0.0
 40
1.0
 40
1.0
 40
1.0
 40
2.0
 40
2.0
 40
2.0
 40
3.0
 40
3.0
 40
3.0
 40
4.0
 40
4.0
 40
4.0
 40
5.0
 40
5.0
 40
5.0
 40
6.0
 40
6.0
 40
6.0
 40
7.0
 40
7.0
 40
7.0
 40
8.0
 40
8.0
 40
8.0
 40
9.0
 40
9.0
 40
9.0
 40
10.0
 40
10.0
 40
10.0
 40
10.0
 10
7.378290244035396
 20
-3.679797091144905
 10
7.375543397346998
 20
-3.687454792052802
 10
7.373261830724914
 20
-3.695321543138662
 10
7.369941268951934
 20
-3.702722232231735
 10
7.364899822586417
 20
-3.713959591610874
 10
7.35867236820867
 20
-3.734541389680404
 10
7.353758124460707
 20
-3.734305230751197
 10
7.328157555030631
 20
-3.733074910501853
 10
7.301083989715607
 20
-3.730211548650357
 10
7.278405170573098
 20
-3.719611505586852
 10
7.271358458353132
 20
-3.716318313631278
 10
7.272945363139544
 20
-3.686052696158475
 10
7.277354706333754
 20
-3.669995974260258
 10
7.279924042811974
 20
-3.660640848465984
 10
7.294889378636702
 20
-3.651930858819405
 10
7.306047498411796
 20
-3.648133809015992
 10
7.389152513460203
 20
-3.619856514183425
 10
7.472562762658551
 20
-3.592448263357507
 10
7.55620056899862
 20
-3.565782114597254
 10
7.579085049750245
 20
-3.558485950593156
 10
7.610586204536653
 20
-3.549335704399709
 10
7.61739024127107
 20
-3.580505294462505
 10
7.622933720918227
 20
-3.605900459846528
 10
7.619287332768331
 20
-3.651083189020495
 10
7.603801196062653
 20
-3.660071304028507
 10
7.549709586247192
 20
-3.69146584459453
 10
7.49004504208008
 20
-3.715433108638308
 10
7.429857351082065
 20
-3.733351211235811
 10
7.392523904147966
 20
-3.74446553859002
 10
7.384444713304674
 20
-3.711211441952223
 10
7.378290244035396
 20
-3.679797091144905
 97
        0
 97
        1
330
94
 75
     2
 76
     1
 98
        1
 10
0.0
 20
0.0
450
        0
451
        0
460
0.0
461
0.0
452
        0
462
0.0
453
        0
470

  0
SPLINE
  5
96
330
7C
100
AcDbEntity
  8
Layer 1
100
AcDbSpline
210
0.0
220
0.0
230
1.0
 70
     9
 71
     3
 72
    38
 73
    34
 74
     0
 42
0.0000000001
 43
0.0000000001
 40
0.0
 40
0.0
 40
0.0
 40
0.0
 40
1.0
 40
1.0
 40
1.0
 40
2.0
 40
2.0
 40
2.0
 40
3.0
 40
3.0
 40
3.0
 40
4.0
 40
4.0
 40
4.0
 40
5.0
 40
5.0
 40
5.0
 40
6.0
 40
6.0
 40
6.0
 40
7.0
 40
7.0
 40
7.0
 40
8.0
 40
8.0
 40
8.0
 40
9.0
 40
9.0
 40
9.0
 40
10.0
 40
10.0
 40
10.0
 40
11.0
 40
11.0
 40
11.0
 40
11.0
 10
6.825491388243335
 20
-1.759826039252073
 30
0.0
 10
6.824155500097731
 20
-1.77647459210924
 30
0.0
 10
6.822754707337884
 20
-1.793118322736593
 30
0.0
 10
6.821497278183894
 20
-1.80977300112886
 30
0.0
 10
6.819053841017774
 20
-1.84212977203395
 30
0.0
 10
6.833216340649591
 20
-1.866007108008665
 30
0.0
 10
6.862887393841851
 20
-1.876793132745483
 30
0.0
 10
6.89479700457438
 20
-1.888392941342127
 30
0.0
 10
6.899196703307855
 20
-1.907134341928516
 30
0.0
 10
6.888254932247086
 20
-1.936282766056251
 30
0.0
 10
6.881339071900103
 20
-1.954705638815375
 30
0.0
 10
6.880599055032714
 20
-1.975497138715556
 30
0.0
 10
6.873306539393979
 20
-1.993711743279896
 30
0.0
 10
6.867839172788459
 20
-2.007366734081213
 30
0.0
 10
6.859009799294804
 20
-2.024807175268354
 30
0.0
 10
6.847103582158196
 20
-2.029928643967322
 30
0.0
 10
6.762676494002587
 20
-2.066245247513911
 30
0.0
 10
6.707514870365153
 20
-2.129374491341953
 30
0.0
 10
6.673171727588295
 20
-2.217246465896411
 30
0.0
 10
6.641370551874008
 20
-2.189210934206079
 30
0.0
 10
6.646375245024197
 20
-2.157325438515158
 30
0.0
 10
6.658020149406537
 20
-2.130410749424855
 30
0.0
 10
6.68213143163272
 20
-2.074682455350966
 30
0.0
 10
6.71409174094952
 20
-2.022343928158938
 30
0.0
 10
6.738081424771861
 20
-1.966571321703188
 30
0.0
 10
6.757931288978952
 20
-1.920422843265719
 30
0.0
 10
6.770764807984455
 20
-1.871274416576182
 30
0.0
 10
6.787114775580725
 20
-1.823594945345373
 30
0.0
 10
6.795002250183819
 20
-1.80059395188722
 30
0.0
 10
6.803828235083098
 20
-1.777914874850277
 30
0.0
 10
6.812229212056308
 20
-1.755089957944783
 30
0.0
 10
6.816650024339018
 20
-1.756668651713855
 30
0.0
 10
6.821070836621729
 20
-1.758247345482977
 30
0.0
 10
6.825491388243335
 20
-1.759826039252073
 30
0.0
  0
HATCH
  5
97
330
7C
100
AcDbEntity
  8
Layer 1
 62
    18
420
        0
440
 33554687
100
AcDbHatch
 10
0.0
 20
0.0
 30
0.0
210
0.0
220
0.0
230
1.0
  2
SOLID
 70
     1
 71
     1
 91
        1
 92
        1
 93
        1
 72
     4
 94
        3
 73
     0
 74
     0
 95
       38
 96
       34
 40
0.0
 40
0.0
 40
0.0
 40
0.0
 40
1.0
 40
1.0
 40
1.0
 40
2.0
 40
2.0
 40
2.0
 40
3.0
 40
3.0
 40
3.0
 40
4.0
 40
4.0
 40
4.0
 40
5.0
 40
5.0
 40
5.0
 40
6.0
 40
6.0
 40
6.0
 40
7.0
 40
7.0
 40
7.0
 40
8.0
 40
8.0
 40
8.0
 40
9.0
 40
9.0
 40
9.0
 40
10.0
 40
10.0
 40
10.0
 40
11.0
 40
11.0
 40
11.0
 40
11.0
 10
6.825491388243335
 20
-1.759826039252073
 10
6.824155500097731
 20
-1.77647459210924
 10
6.822754707337884
 20
-1.793118322736593
 10
6.821497278183894
 20
-1.80977300112886
 10
6.819053841017774
 20
-1.84212977203395
 10
6.833216340649591
 20
-1.866007108008665
 10
6.862887393841851
 20
-1.876793132745483
 10
6.89479700457438
 20
-1.888392941342127
 10
6.899196703307855
 20
-1.907134341928516
 10
6.888254932247086
 20
-1.936282766056251
 10
6.881339071900103
 20
-1.954705638815375
 10
6.880599055032714
 20
-1.975497138715556
 10
6.873306539393979
 20
-1.993711743279896
 10
6.867839172788459
 20
-2.007366734081213
 10
6.859009799294804
 20
-2.024807175268354
 10
6.847103582158196
 20
-2.029928643967322
 10
6.762676494002587
 20
-2.066245247513911
 10
6.707514870365153
 20
-2.129374491341953
 10
6.673171727588295
 20
-2.217246465896411
 10
6.641370551874008
 20
-2.189210934206079
 10
6.646375245024197
 20
-2.157325438515158
 10
6.658020149406537
 20
-2.130410749424855
 10
6.68213143163272
 20
-2.074682455350966
 10
6.71409174094952
 20
-2.022343928158938
 10
6.738081424771861
 20
-1.966571321703188
 10
6.757931288978952
 20
-1.920422843265719
 10
6.770764807984455
 20
-1.871274416576182
 10
6.787114775580725
 20
-1.823594945345373
 10
6.795002250183819
 20
-1.80059395188722
 10
6.803828235083098
 20
-1.777914874850277
 10
6.812229212056308
 20
-1.755089957944783
 10
6.816650024339018
 20
-1.756668651713855
 10
6.821070836621729
 20
-1.758247345482977
 10
6.825491388243335
 20
-1.759826039252073
 97
        0
 97
        1
330
96
 75
     2
 76
     1
 98
        1
 10
0.0
 20
0.0
450
        0
451
        0
460
0.0
461
0.0
452
        0
462
0.0
453
        0
470

  0
SPLINE
  5
98
330
7C
100
AcDbEntity
  8
Layer 1
100
AcDbSpline
210
0.0
220
0.0
230
1.0
 70
     9
 71
     3
 72
    26
 73
    22
 74
     0
 42
0.0000000001
 43
0.0000000001
 40
0.0
 40
0.0
 40
0.0
 40
0.0
 40
1.0
 40
1.0
 40
1.0
 40
2.0
 40
2.0
 40
2.0
 40
3.0
 40
3.0
 40
3.0
 40
4.0
 40
4.0
 40
4.0
 40
5.0
 40
5.0
 40
5.0
 40
6.0
 40
6.0
 40
6.0
 40
7.0
 40
7.0
 40
7.0
 40
7.0
 10
7.470033046667796
 20
-2.398579900655047
 30
0.0
 10
7.509316759963919
 20
-2.352186140150908
 30
0.0
 10
7.544604538572861
 20
-2.310511648315051
 30
0.0
 10
7.584884759260274
 20
-2.262941263741936
 30
0.0
 10
7.592692080574654
 20
-2.282298606436193
 30
0.0
 10
7.602981938220409
 20
-2.299032786454757
 30
0.0
 10
7.60610439755616
 20
-2.317011753412063
 30
0.0
 10
7.623213149619131
 20
-2.415523130851549
 30
0.0
 10
7.697657699567722
 20
-2.486184436951879
 30
0.0
 10
7.800504143805028
 20
-2.49795302359122
 30
0.0
 10
7.8489031758232
 20
-2.503491550001816
 30
0.0
 10
7.893038313541763
 20
-2.515369614290446
 30
0.0
 10
7.916506414499862
 20
-2.563887762513268
 30
0.0
 10
7.918797625582707
 20
-2.568624495473234
 30
0.0
 10
7.918529405309148
 20
-2.574598586531452
 30
0.0
 10
7.921599471763556
 20
-2.592624342150757
 30
0.0
 10
7.848772845272378
 20
-2.535189239391961
 30
0.0
 10
7.783131081385034
 20
-2.543413096143404
 30
0.0
 10
7.7190566727015
 20
-2.602495055541061
 30
0.0
 10
7.666438058771038
 20
-2.491168797928139
 30
0.0
 10
7.58215798347669
 20
-2.427587698135615
 30
0.0
 10
7.470033046667796
 20
-2.398579900655047
 30
0.0
  0
HATCH
  5
99
330
7C
100
AcDbEntity
  8
Layer 1
 62
    18
420
        0
440
 33554687
100
AcDbHatch
 10
0.0
 20
0.0
 30
0.0
210
0.0
220
0.0
230
1.0
  2
SOLID
 70
     1
 71
     1
 91
        1
 92
        1
 93
        1
 72
     4
 94
        3
 73
     0
 74
     0
 95
       26
 96
       22
 40
0.0
 40
0.0
 40
0.0
 40
0.0
 40
1.0
 40
1.0
 40
1.0
 40
2.0
 40
2.0
 40
2.0
 40
3.0
 40
3.0
 40
3.0
 40
4.0
 40
4.0
 40
4.0
 40
5.0
 40
5.0
 40
5.0
 40
6.0
 40
6.0
 40
6.0
 40
7.0
 40
7.0
 40
7.0
 40
7.0
 10
7.470033046667796
 20
-2.398579900655047
 10
7.509316759963919
 20
-2.352186140150908
 10
7.544604538572861
 20
-2.310511648315051
 10
7.584884759260274
 20
-2.262941263741936
 10
7.592692080574654
 20
-2.282298606436193
 10
7.602981938220409
 20
-2.299032786454757
 10
7.60610439755616
 20
-2.317011753412063
 10
7.623213149619131
 20
-2.415523130851549
 10
7.697657699567722
 20
-2.486184436951879
 10
7.800504143805028
 20
-2.49795302359122
 10
7.8489031758232
 20
-2.503491550001816
 10
7.893038313541763
 20
-2.515369614290446
 10
7.916506414499862
 20
-2.563887762513268
 10
7.918797625582707
 20
-2.568624495473234
 10
7.918529405309148
 20
-2.574598586531452
 10
7.921599471763556
 20
-2.592624342150757
 10
7.848772845272378
 20
-2.535189239391961
 10
7.783131081385034
 20
-2.543413096143404
 10
7.7190566727015
 20
-2.602495055541061
 10
7.666438058771038
 20
-2.491168797928139
 10
7.58215798347669
 20
-2.427587698135615
 10
7.470033046667796
 20
-2.398579900655047
 97
        0
 97
        1
330
98
 75
     2
 76
     1
 98
        1
 10
0.0
 20
0.0
450
        0
451
        0
460
0.0
461
0.0
452
        0
462
0.0
453
        0
470

  0
SPLINE
  5
9A
330
7C
100
AcDbEntity
  8
Layer 1
100
AcDbSpline
210
0.0
220
0.0
230
1.0
 70
     9
 71
     3
 72
    38
 73
    34
 74
     0
 42
0.0000000001
 43
0.0000000001
 40
0.0
 40
0.0
 40
0.0
 40
0.0
 40
1.0
 40
1.0
 40
1.0
 40
2.0
 40
2.0
 40
2.0
 40
3.0
 40
3.0
 40
3.0
 40
4.0
 40
4.0
 40
4.0
 40
5.0
 40
5.0
 40
5.0
 40
6.0
 40
6.0
 40
6.0
 40
7.0
 40
7.0
 40
7.0
 40
8.0
 40
8.0
 40
8.0
 40
9.0
 40
9.0
 40
9.0
 40
10.0
 40
10.0
 40
10.0
 40
11.0
 40
11.0
 40
11.0
 40
11.0
 10
7.264497076176363
 20
-1.675335751086372
 30
0.0
 10
7.250497750394136
 20
-1.660035988934787
 30
0.0
 10
7.236498424611832
 20
-1.644736226783202
 30
0.0
 10
7.221973606048802
 20
-1.628861967633813
 30
0.0
 10
7.27704686557278
 20
-1.605928615723289
 30
0.0
 10
7.353029837342874
 20
-1.627536115102391
 30
0.0
 10
7.373072590765154
 20
-1.67813355667882
 30
0.0
 10
7.382394092418557
 20
-1.701665256075026
 30
0.0
 10
7.373426307880006
 20
-1.734694141548516
 30
0.0
 10
7.36528612233893
 20
-1.761118787827639
 30
0.0
 10
7.363513626848215
 20
-1.766871577637592
 30
0.0
 10
7.329398041213051
 20
-1.765620143841589
 30
0.0
 10
7.310941671254946
 20
-1.762727066628157
 30
0.0
 10
7.252088565097032
 20
-1.753502010707696
 30
0.0
 10
7.193592303987164
 20
-1.741997082740441
 30
0.0
 10
7.134964409020969
 20
-1.731339563911041
 30
0.0
 10
7.126579462705548
 20
-1.729815217974975
 30
0.0
 10
7.116650881346559
 20
-1.730443802144754
 30
0.0
 10
7.110152600084297
 20
-1.726054530390797
 30
0.0
 10
7.089476700846311
 20
-1.712089222585922
 30
0.0
 10
7.070084036211356
 20
-1.696224216904511
 30
0.0
 10
7.050195333500141
 20
-1.681093363126137
 30
0.0
 10
7.070521946861996
 20
-1.663435530606799
 30
0.0
 10
7.088183300460286
 20
-1.639184145996978
 30
0.0
 10
7.111790073124439
 20
-1.629642647537795
 30
0.0
 10
7.148549804973981
 20
-1.614785096891081
 30
0.0
 10
7.186262253149783
 20
-1.617021308208702
 30
0.0
 10
7.214672227932598
 20
-1.654880112974599
 30
0.0
 10
7.224717585465062
 20
-1.668266231882436
 30
0.0
 10
7.244002336403986
 20
-1.674719287656355
 30
0.0
 10
7.259068808736072
 20
-1.684337550800579
 30
0.0
 10
7.260878318103221
 20
-1.681336950895835
 30
0.0
 10
7.26268756680924
 20
-1.678336350991116
 30
0.0
 10
7.264497076176363
 20
-1.675335751086372
 30
0.0
  0
HATCH
  5
9B
330
7C
100
AcDbEntity
  8
Layer 1
 62
    18
420
        0
440
 33554687
100
AcDbHatch
 10
0.0
 20
0.0
 30
0.0
210
0.0
220
0.0
230
1.0
  2
SOLID
 70
     1
 71
     1
 91
        1
 92
        1
 93
        1
 72
     4
 94
        3
 73
     0
 74
     0
 95
       38
 96
       34
 40
0.0
 40
0.0
 40
0.0
 40
0.0
 40
1.0
 40
1.0
 40
1.0
 40
2.0
 40
2.0
 40
2.0
 40
3.0
 40
3.0
 40
3.0
 40
4.0
 40
4.0
 40
4.0
 40
5.0
 40
5.0
 40
5.0
 40
6.0
 40
6.0
 40
6.0
 40
7.0
 40
7.0
 40
7.0
 40
8.0
 40
8.0
 40
8.0
 40
9.0
 40
9.0
 40
9.0
 40
10.0
 40
10.0
 40
10.0
 40
11.0
 40
11.0
 40
11.0
 40
11.0
 10
7.264497076176363
 20
-1.675335751086372
 10
7.250497750394136
 20
-1.660035988934787
 10
7.236498424611832
 20
-1.644736226783202
 10
7.221973606048802
 20
-1.628861967633813
 10
7.27704686557278
 20
-1.605928615723289
 10
7.353029837342874
 20
-1.627536115102391
 10
7.373072590765154
 20
-1.67813355667882
 10
7.382394092418557
 20
-1.701665256075026
 10
7.373426307880006
 20
-1.734694141548516
 10
7.36528612233893
 20
-1.761118787827639
 10
7.363513626848215
 20
-1.766871577637592
 10
7.329398041213051
 20
-1.765620143841589
 10
7.310941671254946
 20
-1.762727066628157
 10
7.252088565097032
 20
-1.753502010707696
 10
7.193592303987164
 20
-1.741997082740441
 10
7.134964409020969
 20
-1.731339563911041
 10
7.126579462705548
 20
-1.729815217974975
 10
7.116650881346559
 20
-1.730443802144754
 10
7.110152600084297
 20
-1.726054530390797
 10
7.089476700846311
 20
-1.712089222585922
 10
7.070084036211356
 20
-1.696224216904511
 10
7.050195333500141
 20
-1.681093363126137
 10
7.070521946861996
 20
-1.663435530606799
 10
7.088183300460286
 20
-1.639184145996978
 10
7.111790073124439
 20
-1.629642647537795
 10
7.148549804973981
 20
-1.614785096891081
 10
7.186262253149783
 20
-1.617021308208702
 10
7.214672227932598
 20
-1.654880112974599
 10
7.224717585465062
 20
-1.668266231882436
 10
7.244002336403986
 20
-1.674719287656355
 10
7.259068808736072
 20
-1.684337550800579
 10
7.260878318103221
 20
-1.681336950895835
 10
7.26268756680924
 20
-1.678336350991116
 10
7.264497076176363
 20
-1.675335751086372
 97
        0
 97
        1
330
9A
 75
     2
 76
     1
 98
        1
 10
0.0
 20
0.0
450
        0
451
        0
460
0.0
461
0.0
452
        0
462
0.0
453
        0
470

  0
SPLINE
  5
9C
330
7C
100
AcDbEntity
  8
Layer 1
100
AcDbSpline
210
0.0
220
0.0
230
1.0
 70
     9
 71
     3
 72
    14
 73
    10
 74
     0
 42
0.0000000001
 43
0.0000000001
 40
0.0
 40
0.0
 40
0.0
 40
0.0
 40
1.0
 40
1.0
 40
1.0
 40
2.0
 40
2.0
 40
2.0
 40
3.0
 40
3.0
 40
3.0
 40
3.0
 10
7.634179162162379
 20
-2.330120919933253
 30
0.0
 10
7.704816235400281
 20
-2.328172478436676
 30
0.0
 10
7.805030002511633
 20
-2.401144675251101
 30
0.0
 10
7.83308547819633
 20
-2.475647213206166
 30
0.0
 10
7.786972704700044
 20
-2.489315497722031
 30
0.0
 10
7.749517007709325
 20
-2.470205131391379
 30
0.0
 10
7.715412630501481
 20
-2.446988310567462
 30
0.0
 10
7.675309398702008
 20
-2.419687452102304
 30
0.0
 10
7.630933149464453
 20
-2.392884716941491
 30
0.0
 10
7.634179162162379
 20
-2.330120919933253
 30
0.0
  0
HATCH
  5
9D
330
7C
100
AcDbEntity
  8
Layer 1
 62
    18
420
        0
440
 33554687
100
AcDbHatch
 10
0.0
 20
0.0
 30
0.0
210
0.0
220
0.0
230
1.0
  2
SOLID
 70
     1
 71
     1
 91
        1
 92
        1
 93
        1
 72
     4
 94
        3
 73
     0
 74
     0
 95
       14
 96
       10
 40
0.0
 40
0.0
 40
0.0
 40
0.0
 40
1.0
 40
1.0
 40
1.0
 40
2.0
 40
2.0
 40
2.0
 40
3.0
 40
3.0
 40
3.0
 40
3.0
 10
7.634179162162379
 20
-2.330120919933253
 10
7.704816235400281
 20
-2.328172478436676
 10
7.805030002511633
 20
-2.401144675251101
 10
7.83308547819633
 20
-2.475647213206166
 10
7.786972704700044
 20
-2.489315497722031
 10
7.749517007709325
 20
-2.470205131391379
 10
7.715412630501481
 20
-2.446988310567462
 10
7.675309398702008
 20
-2.419687452102304
 10
7.630933149464453
 20
-2.392884716941491
 10
7.634179162162379
 20
-2.330120919933253
 97
        0
 97
        1
330
9C
 75
     2
 76
     1
 98
        1
 10
0.0
 20
0.0
450
        0
451
        0
460
0.0
461
0.0
452
        0
462
0.0
453
        0
470

  0
SPLINE
  5
9E
330
7C
100
AcDbEntity
  8
Layer 1
100
AcDbSpline
210
0.0
220
0.0
230
1.0
 70
     9
 71
     3
 72
    17
 73
    13
 74
     0
 42
0.0000000001
 43
0.0000000001
 40
0.0
 40
0.0
 40
0.0
 40
0.0
 40
1.0
 40
1.0
 40
1.0
 40
2.0
 40
2.0
 40
2.0
 40
3.0
 40
3.0
 40
3.0
 40
4.0
 40
4.0
 40
4.0
 40
4.0
 10
7.064644039021509
 20
-1.90700753031807
 30
0.0
 10
7.048653783745394
 20
-1.936080884057724
 30
0.0
 10
7.033401460047874
 20
-1.965602705167914
 30
0.0
 10
7.016167851317277
 20
-1.993919099160924
 30
0.0
 10
7.011827322653844
 20
-2.001051177021609
 30
0.0
 10
7.00136464669774
 20
-2.008224309000777
 30
0.0
 10
6.993337588074735
 20
-2.008676425626302
 30
0.0
 10
6.962828770102052
 20
-2.010395615712013
 30
0.0
 10
6.932165380096117
 20
-2.009369262749777
 30
0.0
 10
6.901444644647855
 20
-2.009369262749777
 30
0.0
 10
6.889480300085576
 20
-1.912191557673786
 30
0.0
 10
6.949138849047358
 20
-1.874448356092317
 30
0.0
 10
7.064644039021509
 20
-1.90700753031807
 30
0.0
  0
HATCH
  5
9F
330
7C
100
AcDbEntity
  8
Layer 1
 62
    18
420
        0
440
 33554687
100
AcDbHatch
 10
0.0
 20
0.0
 30
0.0
210
0.0
220
0.0
230
1.0
  2
SOLID
 70
     1
 71
     1
 91
        1
 92
        1
 93
        1
 72
     4
 94
        3
 73
     0
 74
     0
 95
       17
 96
       13
 40
0.0
 40
0.0
 40
0.0
 40
0.0
 40
1.0
 40
1.0
 40
1.0
 40
2.0
 40
2.0
 40
2.0
 40
3.0
 40
3.0
 40
3.0
 40
4.0
 40
4.0
 40
4.0
 40
4.0
 10
7.064644039021509
 20
-1.90700753031807
 10
7.048653783745394
 20
-1.936080884057724
 10
7.033401460047874
 20
-1.965602705167914
 10
7.016167851317277
 20
-1.993919099160924
 10
7.011827322653844
 20
-2.001051177021609
 10
7.00136464669774
 20
-2.008224309000777
 10
6.993337588074735
 20
-2.008676425626302
 10
6.962828770102052
 20
-2.010395615712013
 10
6.932165380096117
 20
-2.009369262749777
 10
6.901444644647855
 20
-2.009369262749777
 10
6.889480300085576
 20
-1.912191557673786
 10
6.949138849047358
 20
-1.874448356092317
 10
7.064644039021509
 20
-1.90700753031807
 97
        0
 97
        1
330
9E
 75
     2
 76
     1
 98
        1
 10
0.0
 20
0.0
450
        0
451
        0
460
0.0
461
0.0
452
        0
462
0.0
453
        0
470

  0
SPLINE
  5
A0
330
7C
100
AcDbEntity
  8
Layer 1
100
AcDbSpline
210
0.0
220
0.0
230
1.0
 70
     9
 71
     3
 72
    20
 73
    16
 74
     0
 42
0.0000000001
 43
0.0000000001
 40
0.0
 40
0.0
 40
0.0
 40
0.0
 40
1.0
 40
1.0
 40
1.0
 40
2.0
 40
2.0
 40
2.0
 40
3.0
 40
3.0
 40
3.0
 40
4.0
 40
4.0
 40
4.0
 40
5.0
 40
5.0
 40
5.0
 40
5.0
 10
6.473327943902504
 20
-2.86321321009167
 30
0.0
 10
6.486013016410626
 20
-2.952817798776916
 30
0.0
 10
6.464440573313797
 20
-3.049016851866427
 30
0.0
 10
6.546785630920592
 20
-3.130376470253584
 30
0.0
 10
6.514693557416901
 20
-3.136874750723109
 30
0.0
 10
6.495281343199343
 20
-3.146253075352584
 30
0.0
 10
6.479756758981213
 20
-3.14186771351467
 30
0.0
 10
6.470711427764904
 20
-3.139312713708717
 30
0.0
 10
6.465075022435004
 20
-3.115147086590821
 30
0.0
 10
6.462758396894766
 20
-3.09996383993742
 30
0.0
 10
6.452754354146867
 20
-3.034398197090152
 30
0.0
 10
6.445914997833217
 20
-2.968330260361438
 30
0.0
 10
6.435036567420133
 20
-2.902925706055308
 30
0.0
 10
6.430359264613444
 20
-2.874803765220336
 30
0.0
 10
6.43752197102362
 20
-2.862374663430197
 30
0.0
 10
6.473327943902504
 20
-2.86321321009167
 30
0.0
  0
HATCH
  5
A1
330
7C
100
AcDbEntity
  8
Layer 1
 62
    18
420
        0
440
 33554687
100
AcDbHatch
 10
0.0
 20
0.0
 30
0.0
210
0.0
220
0.0
230
1.0
  2
SOLID
 70
     1
 71
     1
 91
        1
 92
        1
 93
        1
 72
     4
 94
        3
 73
     0
 74
     0
 95
       20
 96
       16
 40
0.0
 40
0.0
 40
0.0
 40
0.0
 40
1.0
 40
1.0
 40
1.0
 40
2.0
 40
2.0
 40
2.0
 40
3.0
 40
3.0
 40
3.0
 40
4.0
 40
4.0
 40
4.0
 40
5.0
 40
5.0
 40
5.0
 40
5.0
 10
6.473327943902504
 20
-2.86321321009167
 10
6.486013016410626
 20
-2.952817798776916
 10
6.464440573313797
 20
-3.049016851866427
 10
6.546785630920592
 20
-3.130376470253584
 10
6.514693557416901
 20
-3.136874750723109
 10
6.495281343199343
 20
-3.146253075352584
 10
6.479756758981213
 20
-3.14186771351467
 10
6.470711427764904
 20
-3.139312713708717
 10
6.465075022435004
 20
-3.115147086590821
 10
6.462758396894766
 20
-3.09996383993742
 10
6.452754354146867
 20
-3.034398197090152
 10
6.445914997833217
 20
-2.968330260361438
 10
6.435036567420133
 20
-2.902925706055308
 10
6.430359264613444
 20
-2.874803765220336
 10
6.43752197102362
 20
-2.862374663430197
 10
6.473327943902504
 20
-2.86321321009167
 97
        0
 97
        1
330
A0
 75
     2
 76
     1
 98
        1
 10
0.0
 20
0.0
450
        0
451
        0
460
0.0
461
0.0
452
        0
462
0.0
453
        0
470

  0
SPLINE
  5
A2
330
7C
100
AcDbEntity
  8
Layer 1
100
AcDbSpline
210
0.0
220
0.0
230
1.0
 70
     9
 71
     3
 72
    11
 73
     7
 74
     0
 42
0.0000000001
 43
0.0000000001
 40
0.0
 40
0.0
 40
0.0
 40
0.0
 40
1.0
 40
1.0
 40
1.0
 40
2.0
 40
2.0
 40
2.0
 40
2.0
 10
6.755334061762899
 20
-1.823692171924385
 30
0.0
 10
6.763666875858032
 20
-1.877899378325625
 30
0.0
 10
6.705338480497553
 20
-2.014588870341513
 30
0.0
 10
6.659705975080946
 20
-2.052212558822487
 30
0.0
 10
6.63389088156431
 20
-1.982734132656825
 30
0.0
 10
6.68613635912786
 20
-1.854262893179376
 30
0.0
 10
6.755334061762899
 20
-1.823692171924385
 30
0.0
  0
HATCH
  5
A3
330
7C
100
AcDbEntity
  8
Layer 1
 62
    18
420
        0
440
 33554687
100
AcDbHatch
 10
0.0
 20
0.0
 30
0.0
210
0.0
220
0.0
230
1.0
  2
SOLID
 70
     1
 71
     1
 91
        1
 92
        1
 93
        1
 72
     4
 94
        3
 73
     0
 74
     0
 95
       11
 96
        7
 40
0.0
 40
0.0
 40
0.0
 40
0.0
 40
1.0
 40
1.0
 40
1.0
 40
2.0
 40
2.0
 40
2.0
 40
2.0
 10
6.755334061762899
 20
-1.823692171924385
 10
6.763666875858032
 20
-1.877899378325625
 10
6.705338480497553
 20
-2.014588870341513
 10
6.659705975080946
 20
-2.052212558822487
 10
6.63389088156431
 20
-1.982734132656825
 10
6.68613635912786
 20
-1.854262893179376
 10
6.755334061762899
 20
-1.823692171924385
 97
        0
 97
        1
330
A2
 75
     2
 76
     1
 98
        1
 10
0.0
 20
0.0
450
        0
451
        0
460
0.0
461
0.0
452
        0
462
0.0
453
        0
470

  0
SPLINE
  5
A4
330
7C
100
AcDbEntity
  8
Layer 1
100
AcDbSpline
210
0.0
220
0.0
230
1.0
 70
     9
 71
     3
 72
    11
 73
     7
 74
     0
 42
0.0000000001
 43
0.0000000001
 40
0.0
 40
0.0
 40
0.0
 40
0.0
 40
1.0
 40
1.0
 40
1.0
 40
2.0
 40
2.0
 40
2.0
 40
2.0
 10
7.048557599798944
 20
-3.779476230177023
 30
0.0
 10
6.946150630178888
 20
-3.794853148005257
 30
0.0
 10
6.85006729888308
 20
-3.779776251068331
 30
0.0
 10
6.762887759825414
 20
-3.721817480220352
 30
0.0
 10
6.863313053420723
 20
-3.715983885478761
 30
0.0
 10
6.957765167542876
 20
-3.738917367719838
 30
0.0
 10
7.048557599798944
 20
-3.779476230177023
 30
0.0
  0
HATCH
  5
A5
330
7C
100
AcDbEntity
  8
Layer 1
 62
    18
420
        0
440
 33554687
100
AcDbHatch
 10
0.0
 20
0.0
 30
0.0
210
0.0
220
0.0
230
1.0
  2
SOLID
 70
     1
 71
     1
 91
        1
 92
        1
 93
        1
 72
     4
 94
        3
 73
     0
 74
     0
 95
       11
 96
        7
 40
0.0
 40
0.0
 40
0.0
 40
0.0
 40
1.0
 40
1.0
 40
1.0
 40
2.0
 40
2.0
 40
2.0
 40
2.0
 10
7.048557599798944
 20
-3.779476230177023
 10
6.946150630178888
 20
-3.794853148005257
 10
6.85006729888308
 20
-3.779776251068331
 10
6.762887759825414
 20
-3.721817480220352
 10
6.863313053420723
 20
-3.715983885478761
 10
6.957765167542876
 20
-3.738917367719838
 10
7.048557599798944
 20
-3.779476230177023
 97
        0
 97
        1
330
A4
 75
     2
 76
     1
 98
        1
 10
0.0
 20
0.0
450
        0
451
        0
460
0.0
461
0.0
452
        0
462
0.0
453
        0
470

  0
SPLINE
  5
A6
330
7C
100
AcDbEntity
  8
Layer 1
100
AcDbSpline
210
0.0
220
0.0
230
1.0
 70
     9
 71
     3
 72
    11
 73
     7
 74
     0
 42
0.0000000001
 43
0.0000000001
 40
0.0
 40
0.0
 40
0.0
 40
0.0
 40
1.0
 40
1.0
 40
1.0
 40
2.0
 40
2.0
 40
2.0
 40
2.0
 10
6.278518699063093
 20
-2.945518246178885
 30
0.0
 10
6.305040184165035
 20
-3.018792158181579
 30
0.0
 10
6.321080486372617
 20
-3.092113771160041
 30
0.0
 10
6.293496546620694
 20
-3.167888726127241
 30
0.0
 10
6.269643970537824
 20
-3.094911185760868
 30
0.0
 10
6.256085162017168
 20
-3.021220216046546
 30
0.0
 10
6.278518699063093
 20
-2.945518246178885
 30
0.0
  0
HATCH
  5
A7
330
7C
100
AcDbEntity
  8
Layer 1
 62
    18
420
        0
440
 33554687
100
AcDbHatch
 10
0.0
 20
0.0
 30
0.0
210
0.0
220
0.0
230
1.0
  2
SOLID
 70
     1
 71
     1
 91
        1
 92
        1
 93
        1
 72
     4
 94
        3
 73
     0
 74
     0
 95
       11
 96
        7
 40
0.0
 40
0.0
 40
0.0
 40
0.0
 40
1.0
 40
1.0
 40
1.0
 40
2.0
 40
2.0
 40
2.0
 40
2.0
 10
6.278518699063093
 20
-2.945518246178885
 10
6.305040184165035
 20
-3.018792158181579
 10
6.321080486372617
 20
-3.092113771160041
 10
6.293496546620694
 20
-3.167888726127241
 10
6.269643970537824
 20
-3.094911185760868
 10
6.256085162017168
 20
-3.021220216046546
 10
6.278518699063093
 20
-2.945518246178885
 97
        0
 97
        1
330
A6
 75
     2
 76
     1
 98
        1
 10
0.0
 20
0.0
450
        0
451
        0
460
0.0
461
0.0
452
        0
462
0.0
453
        0
470

  0
SPLINE
  5
A8
330
7C
100
AcDbEntity
  8
Layer 1
100
AcDbSpline
210
0.0
220
0.0
230
1.0
 70
     9
 71
     3
 72
    20
 73
    16
 74
     0
 42
0.0000000001
 43
0.0000000001
 40
0.0
 40
0.0
 40
0.0
 40
0.0
 40
1.0
 40
1.0
 40
1.0
 40
2.0
 40
2.0
 40
2.0
 40
3.0
 40
3.0
 40
3.0
 40
4.0
 40
4.0
 40
4.0
 40
5.0
 40
5.0
 40
5.0
 40
5.0
 10
6.536267303819284
 20
-2.403701760345597
 30
0.0
 10
6.566639014052547
 20
-2.382109509639083
 30
0.0
 10
6.59603467879098
 20
-2.358856065934863
 30
0.0
 10
6.628043340742149
 20
-2.340049760742102
 30
0.0
 10
6.636434542924007
 20
-2.335119356607277
 30
0.0
 10
6.652932305364881
 20
-2.343985873226263
 30
0.0
 10
6.665707175622501
 20
-2.34651637089165
 30
0.0
 10
6.659966114860303
 20
-2.362172326395074
 30
0.0
 10
6.657736419797451
 20
-2.388261892869005
 30
0.0
 10
6.647846807273152
 20
-2.391590143738438
 30
0.0
 10
6.613846303514314
 20
-2.403032122057349
 30
0.0
 10
6.577165682309087
 20
-2.40651051370297
 30
0.0
 10
6.541506200969276
 20
-2.413023651853462
 30
0.0
 10
6.53975990191927
 20
-2.409916441571213
 30
0.0
 10
6.538013602869265
 20
-2.406809100958386
 30
0.0
 10
6.536267303819284
 20
-2.403701760345597
 30
0.0
  0
HATCH
  5
A9
330
7C
100
AcDbEntity
  8
Layer 1
 62
    18
420
        0
440
 33554687
100
AcDbHatch
 10
0.0
 20
0.0
 30
0.0
210
0.0
220
0.0
230
1.0
  2
SOLID
 70
     1
 71
     1
 91
        1
 92
        1
 93
        1
 72
     4
 94
        3
 73
     0
 74
     0
 95
       20
 96
       16
 40
0.0
 40
0.0
 40
0.0
 40
0.0
 40
1.0
 40
1.0
 40
1.0
 40
2.0
 40
2.0
 40
2.0
 40
3.0
 40
3.0
 40
3.0
 40
4.0
 40
4.0
 40
4.0
 40
5.0
 40
5.0
 40
5.0
 40
5.0
 10
6.536267303819284
 20
-2.403701760345597
 10
6.566639014052547
 20
-2.382109509639083
 10
6.59603467879098
 20
-2.358856065934863
 10
6.628043340742149
 20
-2.340049760742102
 10
6.636434542924007
 20
-2.335119356607277
 10
6.652932305364881
 20
-2.343985873226263
 10
6.665707175622501
 20
-2.34651637089165
 10
6.659966114860303
 20
-2.362172326395074
 10
6.657736419797451
 20
-2.388261892869005
 10
6.647846807273152
 20
-2.391590143738438
 10
6.613846303514314
 20
-2.403032122057349
 10
6.577165682309087
 20
-2.40651051370297
 10
6.541506200969276
 20
-2.413023651853462
 10
6.53975990191927
 20
-2.409916441571213
 10
6.538013602869265
 20
-2.406809100958386
 10
6.536267303819284
 20
-2.403701760345597
 97
        0
 97
        1
330
A8
 75
     2
 76
     1
 98
        1
 10
0.0
 20
0.0
450
        0
451
        0
460
0.0
461
0.0
452
        0
462
0.0
453
        0
470

  0
SPLINE
  5
AA
330
7C
100
AcDbEntity
  8
Layer 1
100
AcDbSpline
210
0.0
220
0.0
230
1.0
 70
     9
 71
     3
 72
    17
 73
    13
 74
     0
 42
0.0000000001
 43
0.0000000001
 40
0.0
 40
0.0
 40
0.0
 40
0.0
 40
1.0
 40
1.0
 40
1.0
 40
2.0
 40
2.0
 40
2.0
 40
3.0
 40
3.0
 40
3.0
 40
4.0
 40
4.0
 40
4.0
 40
4.0
 10
7.978805460420592
 20
-3.041511898345422
 30
0.0
 10
7.978805460420592
 20
-3.060266722976898
 30
0.0
 10
7.978805460420592
 20
-3.073278141596915
 30
0.0
 10
7.978805460420592
 20
-3.091005700952412
 30
0.0
 10
7.949207131675696
 20
-3.082632485407985
 30
0.0
 10
7.924442241737298
 20
-3.075626176513461
 30
0.0
 10
7.8996773517989
 20
-3.068620128280031
 30
0.0
 10
7.900296421915148
 20
-3.064756088581664
 30
0.0
 10
7.900915752692475
 20
-3.06089178822223
 30
0.0
 10
7.901534822808697
 20
-3.057027487862771
 30
0.0
 10
7.925470028460822
 20
-3.052221419058254
 30
0.0
 10
7.949405234112898
 20
-3.047415350253711
 30
0.0
 10
7.978805460420592
 20
-3.041511898345422
 30
0.0
  0
HATCH
  5
AB
330
7C
100
AcDbEntity
  8
Layer 1
 62
    18
420
        0
440
 33554687
100
AcDbHatch
 10
0.0
 20
0.0
 30
0.0
210
0.0
220
0.0
230
1.0
  2
SOLID
 70
     1
 71
     1
 91
        1
 92
        1
 93
        1
 72
     4
 94
        3
 73
     0
 74
     0
 95
       17
 96
       13
 40
0.0
 40
0.0
 40
0.0
 40
0.0
 40
1.0
 40
1.0
 40
1.0
 40
2.0
 40
2.0
 40
2.0
 40
3.0
 40
3.0
 40
3.0
 40
4.0
 40
4.0
 40
4.0
 40
4.0
 10
7.978805460420592
 20
-3.041511898345422
 10
7.978805460420592
 20
-3.060266722976898
 10
7.978805460420592
 20
-3.073278141596915
 10
7.978805460420592
 20
-3.091005700952412
 10
7.949207131675696
 20
-3.082632485407985
 10
7.924442241737298
 20
-3.075626176513461
 10
7.8996773517989
 20
-3.068620128280031
 10
7.900296421915148
 20
-3.064756088581664
 10
7.900915752692475
 20
-3.06089178822223
 10
7.901534822808697
 20
-3.057027487862771
 10
7.925470028460822
 20
-3.052221419058254
 10
7.949405234112898
 20
-3.047415350253711
 10
7.978805460420592
 20
-3.041511898345422
 97
        0
 97
        1
330
AA
 75
     2
 76
     1
 98
        1
 10
0.0
 20
0.0
450
        0
451
        0
460
0.0
461
0.0
452
        0
462
0.0
453
        0
470

  0
SPLINE
  5
AC
330
7C
100
AcDbEntity
  8
Layer 1
100
AcDbSpline
210
0.0
220
0.0
230
1.0
 70
     9
 71
     3
 72
    17
 73
    13
 74
     0
 42
0.0000000001
 43
0.0000000001
 40
0.0
 40
0.0
 40
0.0
 40
0.0
 40
1.0
 40
1.0
 40
1.0
 40
2.0
 40
2.0
 40
2.0
 40
3.0
 40
3.0
 40
3.0
 40
4.0
 40
4.0
 40
4.0
 40
4.0
 10
7.658600761429978
 20
-2.846188914302438
 30
0.0
 10
7.671965116768811
 20
-2.829638239676985
 30
0.0
 10
7.681316333787814
 20
-2.818057329007892
 30
0.0
 10
7.69653477154217
 20
-2.799210230357718
 30
0.0
 10
7.707987959684234
 20
-2.82689061134047
 30
0.0
 10
7.716875981925745
 20
-2.848372211422883
 30
0.0
 10
7.725764004167204
 20
-2.869853550844216
 30
0.0
 10
7.72263528896499
 20
-2.872838120093168
 30
0.0
 10
7.719506573762802
 20
-2.875822689342107
 30
0.0
 10
7.716377858560614
 20
-2.878807258591045
 30
0.0
 10
7.698500156248049
 20
-2.868714461969299
 30
0.0
 10
7.680622453935433
 20
-2.858621404686497
 30
0.0
 10
7.658600761429978
 20
-2.846188914302438
 30
0.0
  0
HATCH
  5
AD
330
7C
100
AcDbEntity
  8
Layer 1
 62
    18
420
        0
440
 33554687
100
AcDbHatch
 10
0.0
 20
0.0
 30
0.0
210
0.0
220
0.0
230
1.0
  2
SOLID
 70
     1
 71
     1
 91
        1
 92
        1
 93
        1
 72
     4
 94
        3
 73
     0
 74
     0
 95
       17
 96
       13
 40
0.0
 40
0.0
 40
0.0
 40
0.0
 40
1.0
 40
1.0
 40
1.0
 40
2.0
 40
2.0
 40
2.0
 40
3.0
 40
3.0
 40
3.0
 40
4.0
 40
4.0
 40
4.0
 40
4.0
 10
7.658600761429978
 20
-2.846188914302438
 10
7.671965116768811
 20
-2.829638239676985
 10
7.681316333787814
 20
-2.818057329007892
 10
7.69653477154217
 20
-2.799210230357718
 10
7.707987959684234
 20
-2.82689061134047
 10
7.716875981925745
 20
-2.848372211422883
 10
7.725764004167204
 20
-2.869853550844216
 10
7.72263528896499
 20
-2.872838120093168
 10
7.719506573762802
 20
-2.875822689342107
 10
7.716377858560614
 20
-2.878807258591045
 10
7.698500156248049
 20
-2.868714461969299
 10
7.680622453935433
 20
-2.858621404686497
 10
7.658600761429978
 20
-2.846188914302438
 97
        0
 97
        1
330
AC
 75
     2
 76
     1
 98
        1
 10
0.0
 20
0.0
450
        0
451
        0
460
0.0
461
0.0
452
        0
462
0.0
453
        0
470

  0
SPLINE
  5
AE
330
7C
100
AcDbEntity
  8
Layer 1
100
AcDbSpline
210
0.0
220
0.0
230
1.0
 70
     9
 71
     3
 72
    41
 73
    37
 74
     0
 42
0.0000000001
 43
0.0000000001
 40
0.0
 40
0.0
 40
0.0
 40
0.0
 40
1.0
 40
1.0
 40
1.0
 40
2.0
 40
2.0
 40
2.0
 40
3.0
 40
3.0
 40
3.0
 40
4.0
 40
4.0
 40
4.0
 40
5.0
 40
5.0
 40
5.0
 40
6.0
 40
6.0
 40
6.0
 40
7.0
 40
7.0
 40
7.0
 40
8.0
 40
8.0
 40
8.0
 40
9.0
 40
9.0
 40
9.0
 40
10.0
 40
10.0
 40
10.0
 40
11.0
 40
11.0
 40
11.0
 40
12.0
 40
12.0
 40
12.0
 40
12.0
 10
7.921270582411024
 20
-1.401226467556436
 30
0.0
 10
7.920796712239583
 20
-1.401366339789496
 30
0.0
 10
7.920345730251735
 20
-1.401240878634982
 30
0.0
 10
7.919875250922308
 20
-1.401322258843315
 30
0.0
 10
7.918741861979166
 20
-1.402570088704426
 30
0.0
 10
7.917167663574218
 20
-1.403440687391505
 30
0.0
 10
7.915521409776475
 20
-1.403688218858519
 30
0.0
 10
7.913747999403211
 20
-1.4039552476671
 30
0.0
 10
7.912140740288627
 20
-1.403524610731336
 30
0.0
 10
7.910829332139756
 20
-1.402627733018663
 30
0.0
 10
7.910829332139756
 20
-1.402627733018663
 30
0.0
 10
7.910829332139756
 20
-1.403533935546875
 30
0.0
 10
7.910829332139756
 20
-1.403533935546875
 30
0.0
 10
7.875528971354166
 20
-1.38753933376736
 30
0.0
 10
7.871676127115884
 20
-1.370051913791232
 30
0.0
 10
7.902253044976127
 20
-1.326177808973524
 30
0.0
 10
7.902901543511283
 20
-1.325836181640625
 30
0.0
 10
7.903627183702256
 20
-1.325647989908854
 30
0.0
 10
7.904241773817274
 20
-1.325243631998697
 30
0.0
 10
7.906628078884548
 20
-1.32367197672526
 30
0.0
 10
7.908803304036458
 20
-1.321844312879774
 30
0.0
 10
7.910941229926215
 20
-1.319976806640625
 30
0.0
 10
7.912288241916232
 20
-1.31997341579861
 30
0.0
 10
7.913634406195746
 20
-1.319975111219618
 30
0.0
 10
7.914981418185763
 20
-1.319961547851562
 30
0.0
 10
7.915963066948783
 20
-1.31995137532552
 30
0.0
 10
7.916943868001301
 20
-1.31996832953559
 30
0.0
 10
7.917925516764322
 20
-1.319955613878038
 30
0.0
 10
7.925398932562933
 20
-1.324971516927083
 30
0.0
 10
7.930164761013454
 20
-1.333292643229166
 30
0.0
 10
7.932871500651041
 20
-1.34187995062934
 30
0.0
 10
7.935931735568575
 20
-1.351590474446614
 30
0.0
 10
7.937271118164062
 20
-1.36224873860677
 30
0.0
 10
7.936815049913193
 20
-1.372418721516927
 30
0.0
 10
7.936333550347221
 20
-1.383145650227864
 30
0.0
 10
7.933074951171875
 20
-1.397748311360677
 30
0.0
 10
7.921270582411024
 20
-1.401226467556436
 30
0.0
  0
SPLINE
  5
AF
330
7C
100
AcDbEntity
  8
Layer 1
100
AcDbSpline
210
0.0
220
0.0
230
1.0
 70
     9
 71
     3
 72
    20
 73
    16
 74
     0
 42
0.0000000001
 43
0.0000000001
 40
0.0
 40
0.0
 40
0.0
 40
0.0
 40
1.0
 40
1.0
 40
1.0
 40
2.0
 40
2.0
 40
2.0
 40
3.0
 40
3.0
 40
3.0
 40
4.0
 40
4.0
 40
4.0
 40
5.0
 40
5.0
 40
5.0
 40
5.0
 10
7.620857238769531
 20
-1.444750467936197
 30
0.0
 10
7.6161134507921
 20
-1.453344557020399
 30
0.0
 10
7.59508090549045
 20
-1.459696451822916
 30
0.0
 10
7.584706624348958
 20
-1.456453959147135
 30
0.0
 10
7.575166490342881
 20
-1.453470865885416
 30
0.0
 10
7.565606011284721
 20
-1.436947292751735
 30
0.0
 10
7.563858879937065
 20
-1.425225151909722
 30
0.0
 10
7.55885993109809
 20
-1.391698201497408
 30
0.0
 10
7.594599405924478
 20
-1.334321763780381
 30
0.0
 10
7.621959262424044
 20
-1.319915771484375
 30
0.0
 10
7.625444200303818
 20
-1.342274136013454
 30
0.0
 10
7.631612989637586
 20
-1.366333855523003
 30
0.0
 10
7.632173326280381
 20
-1.390523274739583
 30
0.0
 10
7.632596333821614
 20
-1.408775329589843
 30
0.0
 10
7.629448784722221
 20
-1.42918395996095
 30
0.0
 10
7.620857238769531
 20
-1.444750467936197
 30
0.0
  0
SPLINE
  5
B0
330
7C
100
AcDbEntity
  8
Layer 1
100
AcDbSpline
210
0.0
220
0.0
230
1.0
 70
     9
 71
     3
 72
   182
 73
   178
 74
     0
 42
0.0000000001
 43
0.0000000001
 40
0.0
 40
0.0
 40
0.0
 40
0.0
 40
1.0
 40
1.0
 40
1.0
 40
2.0
 40
2.0
 40
2.0
 40
3.0
 40
3.0
 40
3.0
 40
4.0
 40
4.0
 40
4.0
 40
5.0
 40
5.0
 40
5.0
 40
6.0
 40
6.0
 40
6.0
 40
7.0
 40
7.0
 40
7.0
 40
8.0
 40
8.0
 40
8.0
 40
9.0
 40
9.0
 40
9.0
 40
10.0
 40
10.0
 40
10.0
 40
11.0
 40
11.0
 40
11.0
 40
12.0
 40
12.0
 40
12.0
 40
13.0
 40
13.0
 40
13.0
 40
14.0
 40
14.0
 40
14.0
 40
15.0
 40
15.0
 40
15.0
 40
16.0
 40
16.0
 40
16.0
 40
17.0
 40
17.0
 40
17.0
 40
18.0
 40
18.0
 40
18.0
 40
19.0
 40
19.0
 40
19.0
 40
20.0
 40
20.0
 40
20.0
 40
21.0
 40
21.0
 40
21.0
 40
22.0
 40
22.0
 40
22.0
 40
23.0
 40
23.0
 40
23.0
 40
24.0
 40
24.0
 40
24.0
 40
25.0
 40
25.0
 40
25.0
 40
26.0
 40
26.0
 40
26.0
 40
27.0
 40
27.0
 40
27.0
 40
28.0
 40
28.0
 40
28.0
 40
29.0
 40
29.0
 40
29.0
 40
30.0
 40
30.0
 40
30.0
 40
31.0
 40
31.0
 40
31.0
 40
32.0
 40
32.0
 40
32.0
 40
33.0
 40
33.0
 40
33.0
 40
34.0
 40
34.0
 40
34.0
 40
35.0
 40
35.0
 40
35.0
 40
36.0
 40
36.0
 40
36.0
 40
37.0
 40
37.0
 40
37.0
 40
38.0
 40
38.0
 40
38.0
 40
39.0
 40
39.0
 40
39.0
 40
40.0
 40
40.0
 40
40.0
 40
41.0
 40
41.0
 40
41.0
 40
42.0
 40
42.0
 40
42.0
 40
43.0
 40
43.0
 40
43.0
 40
44.0
 40
44.0
 40
44.0
 40
45.0
 40
45.0
 40
45.0
 40
46.0
 40
46.0
 40
46.0
 40
47.0
 40
47.0
 40
47.0
 40
48.0
 40
48.0
 40
48.0
 40
49.0
 40
49.0
 40
49.0
 40
50.0
 40
50.0
 40
50.0
 40
51.0
 40
51.0
 40
51.0
 40
52.0
 40
52.0
 40
52.0
 40
53.0
 40
53.0
 40
53.0
 40
54.0
 40
54.0
 40
54.0
 40
55.0
 40
55.0
 40
55.0
 40
56.0
 40
56.0
 40
56.0
 40
57.0
 40
57.0
 40
57.0
 40
58.0
 40
58.0
 40
58.0
 40
59.0
 40
59.0
 40
59.0
 40
59.0
 10
8.19418250189887
 20
-1.236901177300347
 30
0.0
 10
8.149386088053384
 20
-1.176990085177951
 30
0.0
 10
8.087560017903644
 20
-1.156502617730034
 30
0.0
 10
8.017690870496961
 20
-1.163524203830295
 30
0.0
 10
7.963567945692274
 20
-1.168962266710069
 30
0.0
 10
7.914833068847656
 20
-1.16634538438585
 30
0.0
 10
7.860884772406683
 20
-1.149648878309461
 30
0.0
 10
7.760289510091145
 20
-1.118514166937933
 30
0.0
 10
7.661493089463975
 20
-1.134302775065104
 30
0.0
 10
7.57009548611111
 20
-1.184929741753472
 30
0.0
 10
7.526397705078125
 20
-1.16955820719401
 30
0.0
 10
7.482799953884548
 20
-1.159890916612413
 30
0.0
 10
7.435228983561197
 20
-1.164439731174045
 30
0.0
 10
7.419570922851562
 20
-1.165936787923177
 30
0.0
 10
7.404168023003471
 20
-1.168726603190104
 30
0.0
 10
7.388956705729166
 20
-1.172328525119357
 30
0.0
 10
7.287013583713107
 20
-1.174795362684461
 30
0.0
 10
7.18500264485677
 20
-1.181245591905381
 30
0.0
 10
7.083351982964408
 20
-1.177313910590277
 30
0.0
 10
6.973397148980033
 20
-1.17306179470486
 30
0.0
 10
6.861937628851996
 20
-1.167443169487847
 30
0.0
 10
6.758527119954426
 20
-1.119212680392795
 30
0.0
 10
6.663363138834634
 20
-1.0748291015625
 30
0.0
 10
6.605747646755641
 20
-0.995359632703993
 30
0.0
 10
6.689446343315971
 20
-0.8940641615125867
 30
0.0
 10
6.695571051703558
 20
-0.8866509331597221
 30
0.0
 10
6.695933024088541
 20
-0.8744744194878471
 30
0.0
 10
6.698974609375
 20
-0.8645129733615451
 30
0.0
 10
6.685784233940971
 20
-0.8630684746636283
 30
0.0
 10
6.67055935329861
 20
-0.8566012912326389
 30
0.0
 10
6.659733242458766
 20
-0.860989040798611
 30
0.0
 10
6.586820814344617
 20
-0.8905419243706596
 30
0.0
 10
6.53341335720486
 20
-0.9422836303710937
 30
0.0
 10
6.501762390136718
 20
-1.014122009277343
 30
0.0
 10
6.468512641059027
 20
-1.089587741427951
 30
0.0
 10
6.502761840820312
 20
-1.181777106391058
 30
0.0
 10
6.572384304470485
 20
-1.223810831705729
 30
0.0
 10
6.645511203342013
 20
-1.267959594726562
 30
0.0
 10
6.726386176215277
 20
-1.287918938530815
 30
0.0
 10
6.807965596516926
 20
-1.30552249484592
 30
0.0
 10
6.875749376085068
 20
-1.320148891872829
 30
0.0
 10
6.945293850368923
 20
-1.326991611056857
 30
0.0
 10
7.012564765082465
 20
-1.343403286404079
 30
0.0
 10
7.035191853841145
 20
-1.34892357720269
 30
0.0
 10
7.066775004069009
 20
-1.370416429307725
 30
0.0
 10
7.070793999565971
 20
-1.389540778266058
 30
0.0
 10
7.082311842176649
 20
-1.444352891710069
 30
0.0
 10
7.085277133517794
 20
-1.501712375217013
 30
0.0
 10
7.084937201605902
 20
-1.55803002251519
 30
0.0
 10
7.084661695692274
 20
-1.603591071234808
 30
0.0
 10
7.088581509060329
 20
-1.616525438096788
 30
0.0
 10
7.132074144151475
 20
-1.607229444715711
 30
0.0
 10
7.150976392957899
 20
-1.603189256456163
 30
0.0
 10
7.171709696451822
 20
-1.607436286078558
 30
0.0
 10
7.191592746310763
 20
-1.608331468370225
 30
0.0
 10
7.220987108018662
 20
-1.609654744466158
 30
0.0
 10
7.23682149251302
 20
-1.597464667426227
 30
0.0
 10
7.238057454427083
 20
-1.566502041286892
 30
0.0
 10
7.240038553873697
 20
-1.516862657335069
 30
0.0
 10
7.245697021484375
 20
-1.467286851671019
 30
0.0
 10
7.245728386773002
 20
-1.417681376139322
 30
0.0
 10
7.245752970377603
 20
-1.377972920735677
 30
0.0
 10
7.263951619466145
 20
-1.348564147949218
 30
0.0
 10
7.297242058648002
 20
-1.336961534288194
 30
0.0
 10
7.344195895724825
 20
-1.320596483018663
 30
0.0
 10
7.394496493869357
 20
-1.313831753200954
 30
0.0
 10
7.446256001790364
 20
-1.302318996853298
 30
0.0
 10
7.418657090928818
 20
-1.474587334526922
 30
0.0
 10
7.441784328884548
 20
-1.560057746039496
 30
0.0
 10
7.527057223849825
 20
-1.584837171766505
 30
0.0
 10
7.564723544650607
 20
-1.595783657497829
 30
0.0
 10
7.611439175075954
 20
-1.598649766710069
 30
0.0
 10
7.64769321017795
 20
-1.586392720540364
 30
0.0
 10
7.711441887749565
 20
-1.564839680989583
 30
0.0
 10
7.75431654188368
 20
-1.515981886121961
 30
0.0
 10
7.769931369357638
 20
-1.455451965332031
 30
0.0
 10
7.771071539984808
 20
-1.443762885199652
 30
0.0
 10
7.772126939561631
 20
-1.432063632541232
 30
0.0
 10
7.772622850206162
 20
-1.420322842068142
 30
0.0
 10
7.773040771484375
 20
-1.410432603624144
 30
0.0
 10
7.772364298502603
 20
-1.400683932834214
 30
0.0
 10
7.771358066134982
 20
-1.39097679985894
 30
0.0
 10
7.773195902506509
 20
-1.369027879503038
 30
0.0
 10
7.76819356282552
 20
-1.347313774956597
 30
0.0
 10
7.757582770453558
 20
-1.328260633680555
 30
0.0
 10
7.75752936469184
 20
-1.327434963650173
 30
0.0
 10
7.757320827907985
 20
-1.326559278700086
 30
0.0
 10
7.756829155815971
 20
-1.325599670410156
 30
0.0
 10
7.745755513509114
 20
-1.303978814019097
 30
0.0
 10
7.731479220920138
 20
-1.285881890190972
 30
0.0
 10
7.71509297688802
 20
-1.270330641004774
 30
0.0
 10
7.71502685546875
 20
-1.270206027560763
 30
0.0
 10
7.714984469943575
 20
-1.270072089301215
 30
0.0
 10
7.714918348524305
 20
-1.269947475857204
 30
0.0
 10
7.713383144802516
 20
-1.267055087619357
 30
0.0
 10
7.711744520399305
 20
-1.264302571614583
 30
0.0
 10
7.71002197265625
 20
-1.261669582790798
 30
0.0
 10
7.733649359809027
 20
-1.256275600857204
 30
0.0
 10
7.759961446126301
 20
-1.256188286675347
 30
0.0
 10
7.7866456773546
 20
-1.258450826009114
 30
0.0
 10
7.787199232313367
 20
-1.258259243435329
 30
0.0
 10
7.787757873535156
 20
-1.258032904730902
 30
0.0
 10
7.788302951388888
 20
-1.257859971788194
 30
0.0
 10
7.78900655110677
 20
-1.257637023925781
 30
0.0
 10
7.789746602376301
 20
-1.257556491427951
 30
0.0
 10
7.790457831488715
 20
-1.257360670301649
 30
0.0
 10
7.79740990532769
 20
-1.259368896484375
 30
0.0
 10
7.804351806640625
 20
-1.26141357421875
 30
0.0
 10
7.811164855957031
 20
-1.263847351074218
 30
0.0
 10
7.811393737792968
 20
-1.263929578993055
 30
0.0
 10
7.811565823025173
 20
-1.263994852701822
 30
0.0
 10
7.81178961859809
 20
-1.264075385199652
 30
0.0
 10
7.810603671603732
 20
-1.267321268717447
 30
0.0
 10
7.809302435980902
 20
-1.270523918999565
 30
0.0
 10
7.807926601833766
 20
-1.273693508572048
 30
0.0
 10
7.807529873318141
 20
-1.274604797363281
 30
0.0
 10
7.807132297092013
 20
-1.275516086154513
 30
0.0
 10
7.806740654839408
 20
-1.276429918077256
 30
0.0
 10
7.806611802842881
 20
-1.276729159884982
 30
0.0
 10
7.80647956000434
 20
-1.277025858561197
 30
0.0
 10
7.806356641981336
 20
-1.277328491210937
 30
0.0
 10
7.80627950032552
 20
-1.277525160047743
 30
0.0
 10
7.806206597222221
 20
-1.277707417805989
 30
0.0
 10
7.80617947048611
 20
-1.27777353922526
 30
0.0
 10
7.805494520399305
 20
-1.279455396864149
 30
0.0
 10
7.804854498969183
 20
-1.281154208713107
 30
0.0
 10
7.804272969563801
 20
-1.282874213324652
 30
0.0
 10
7.803781297471787
 20
-1.28432888454861
 30
0.0
 10
7.802885267469617
 20
-1.285496181911892
 30
0.0
 10
7.801787482367621
 20
-1.286376105414496
 30
0.0
 10
7.79706319173177
 20
-1.30643802218967
 30
0.0
 10
7.791375054253471
 20
-1.326147291395399
 30
0.0
 10
7.785589430067274
 20
-1.34542253282335
 30
0.0
 10
7.786046346028645
 20
-1.35970730251736
 30
0.0
 10
7.787767198350693
 20
-1.374011569552951
 30
0.0
 10
7.790498521592881
 20
-1.388094584147135
 30
0.0
 10
7.794068230523002
 20
-1.406502617730047
 30
0.0
 10
7.799331665039062
 20
-1.424468994140625
 30
0.0
 10
7.80489264594184
 20
-1.442358228895399
 30
0.0
 10
7.808325025770399
 20
-1.453400505913628
 30
0.0
 10
7.812227884928384
 20
-1.464529249403211
 30
0.0
 10
7.817499796549478
 20
-1.474898444281683
 30
0.0
 10
7.837110731336805
 20
-1.487321641710069
 30
0.0
 10
7.856256273057725
 20
-1.498126559787339
 30
0.0
 10
7.876556396484375
 20
-1.501218159993489
 30
0.0
 10
7.983150058322482
 20
-1.517448425292968
 30
0.0
 10
8.060296800401475
 20
-1.407980177137586
 30
0.0
 10
8.022655063205295
 20
-1.300672743055555
 30
0.0
 10
8.016395568847656
 20
-1.282826741536458
 30
0.0
 10
8.009483337402343
 20
-1.265209621853298
 30
0.0
 10
8.000262790256076
 20
-1.240489535861545
 30
0.0
 10
8.004071553548175
 20
-1.241310967339409
 30
0.0
 10
8.007584465874565
 20
-1.242182413736979
 30
0.0
 10
8.010977003309461
 20
-1.243058946397569
 30
0.0
 10
8.011873881022134
 20
-1.242607964409722
 30
0.0
 10
8.01284450954861
 20
-1.242340935601128
 30
0.0
 10
8.013888888888889
 20
-1.242464701334635
 30
0.0
 10
8.015558878580728
 20
-1.242662217881944
 30
0.0
 10
8.017161051432291
 20
-1.243019951714409
 30
0.0
 10
8.018792046440971
 20
-1.243309020996093
 30
0.0
 10
8.029168023003471
 20
-1.24121348063151
 30
0.0
 10
8.039326985677082
 20
-1.241852654351128
 30
0.0
 10
8.049301147460937
 20
-1.244330512152777
 30
0.0
 10
8.062828063964843
 20
-1.242869906955295
 30
0.0
 10
8.07595486111111
 20
-1.246621025933159
 30
0.0
 10
8.088484870062933
 20
-1.252231174045138
 30
0.0
 10
8.130546569824218
 20
-1.258126152886284
 30
0.0
 10
8.164081997341579
 20
-1.281504313151041
 30
0.0
 10
8.193400065104166
 20
-1.315355088975694
 30
0.0
 10
8.198385450575086
 20
-1.321111891004774
 30
0.0
 10
8.210195753309461
 20
-1.329037136501735
 30
0.0
 10
8.212777031792533
 20
-1.327240837944878
 30
0.0
 10
8.219786749945745
 20
-1.322360568576388
 30
0.0
 10
8.224685668945312
 20
-1.313308715820312
 30
0.0
 10
8.228382534450954
 20
-1.305003696017795
 30
0.0
 10
8.244633992513019
 20
-1.26849619547526
 30
0.0
 10
8.210006713867187
 20
-1.258063422309027
 30
0.0
 10
8.19418250189887
 20
-1.236901177300347
 30
0.0
  0
HATCH
  5
B1
330
7C
100
AcDbEntity
  8
Layer 1
 62
    18
420
        0
440
 33554687
100
AcDbHatch
 10
0.0
 20
0.0
 30
0.0
210
0.0
220
0.0
230
1.0
  2
SOLID
 70
     1
 71
     1
 91
        3
 92
        1
 93
        1
 72
     4
 94
        3
 73
     0
 74
     0
 95
       41
 96
       37
 40
0.0
 40
0.0
 40
0.0
 40
0.0
 40
1.0
 40
1.0
 40
1.0
 40
2.0
 40
2.0
 40
2.0
 40
3.0
 40
3.0
 40
3.0
 40
4.0
 40
4.0
 40
4.0
 40
5.0
 40
5.0
 40
5.0
 40
6.0
 40
6.0
 40
6.0
 40
7.0
 40
7.0
 40
7.0
 40
8.0
 40
8.0
 40
8.0
 40
9.0
 40
9.0
 40
9.0
 40
10.0
 40
10.0
 40
10.0
 40
11.0
 40
11.0
 40
11.0
 40
12.0
 40
12.0
 40
12.0
 40
12.0
 10
7.921270582411024
 20
-1.401226467556436
 10
7.920796712239583
 20
-1.401366339789496
 10
7.920345730251735
 20
-1.401240878634982
 10
7.919875250922308
 20
-1.401322258843315
 10
7.918741861979166
 20
-1.402570088704426
 10
7.917167663574218
 20
-1.403440687391505
 10
7.915521409776475
 20
-1.403688218858519
 10
7.913747999403211
 20
-1.4039552476671
 10
7.912140740288627
 20
-1.403524610731336
 10
7.910829332139756
 20
-1.402627733018663
 10
7.910829332139756
 20
-1.402627733018663
 10
7.910829332139756
 20
-1.403533935546875
 10
7.910829332139756
 20
-1.403533935546875
 10
7.875528971354166
 20
-1.38753933376736
 10
7.871676127115884
 20
-1.370051913791232
 10
7.902253044976127
 20
-1.326177808973524
 10
7.902901543511283
 20
-1.325836181640625
 10
7.903627183702256
 20
-1.325647989908854
 10
7.904241773817274
 20
-1.325243631998697
 10
7.906628078884548
 20
-1.32367197672526
 10
7.908803304036458
 20
-1.321844312879774
 10
7.910941229926215
 20
-1.319976806640625
 10
7.912288241916232
 20
-1.31997341579861
 10
7.913634406195746
 20
-1.319975111219618
 10
7.914981418185763
 20
-1.319961547851562
 10
7.915963066948783
 20
-1.31995137532552
 10
7.916943868001301
 20
-1.31996832953559
 10
7.917925516764322
 20
-1.319955613878038
 10
7.925398932562933
 20
-1.324971516927083
 10
7.930164761013454
 20
-1.333292643229166
 10
7.932871500651041
 20
-1.34187995062934
 10
7.935931735568575
 20
-1.351590474446614
 10
7.937271118164062
 20
-1.36224873860677
 10
7.936815049913193
 20
-1.372418721516927
 10
7.936333550347221
 20
-1.383145650227864
 10
7.933074951171875
 20
-1.397748311360677
 10
7.921270582411024
 20
-1.401226467556436
 97
        0
 97
        1
330
AE
 92
        1
 93
        1
 72
     4
 94
        3
 73
     0
 74
     0
 95
       20
 96
       16
 40
0.0
 40
0.0
 40
0.0
 40
0.0
 40
1.0
 40
1.0
 40
1.0
 40
2.0
 40
2.0
 40
2.0
 40
3.0
 40
3.0
 40
3.0
 40
4.0
 40
4.0
 40
4.0
 40
5.0
 40
5.0
 40
5.0
 40
5.0
 10
7.620857238769531
 20
-1.444750467936197
 10
7.6161134507921
 20
-1.453344557020399
 10
7.59508090549045
 20
-1.459696451822916
 10
7.584706624348958
 20
-1.456453959147135
 10
7.575166490342881
 20
-1.453470865885416
 10
7.565606011284721
 20
-1.436947292751735
 10
7.563858879937065
 20
-1.425225151909722
 10
7.55885993109809
 20
-1.391698201497408
 10
7.594599405924478
 20
-1.334321763780381
 10
7.621959262424044
 20
-1.319915771484375
 10
7.625444200303818
 20
-1.342274136013454
 10
7.631612989637586
 20
-1.366333855523003
 10
7.632173326280381
 20
-1.390523274739583
 10
7.632596333821614
 20
-1.408775329589843
 10
7.629448784722221
 20
-1.42918395996095
 10
7.620857238769531
 20
-1.444750467936197
 97
        0
 97
        1
330
AF
 92
        1
 93
        1
 72
     4
 94
        3
 73
     0
 74
     0
 95
      182
 96
      178
 40
0.0
 40
0.0
 40
0.0
 40
0.0
 40
1.0
 40
1.0
 40
1.0
 40
2.0
 40
2.0
 40
2.0
 40
3.0
 40
3.0
 40
3.0
 40
4.0
 40
4.0
 40
4.0
 40
5.0
 40
5.0
 40
5.0
 40
6.0
 40
6.0
 40
6.0
 40
7.0
 40
7.0
 40
7.0
 40
8.0
 40
8.0
 40
8.0
 40
9.0
 40
9.0
 40
9.0
 40
10.0
 40
10.0
 40
10.0
 40
11.0
 40
11.0
 40
11.0
 40
12.0
 40
12.0
 40
12.0
 40
13.0
 40
13.0
 40
13.0
 40
14.0
 40
14.0
 40
14.0
 40
15.0
 40
15.0
 40
15.0
 40
16.0
 40
16.0
 40
16.0
 40
17.0
 40
17.0
 40
17.0
 40
18.0
 40
18.0
 40
18.0
 40
19.0
 40
19.0
 40
19.0
 40
20.0
 40
20.0
 40
20.0
 40
21.0
 40
21.0
 40
21.0
 40
22.0
 40
22.0
 40
22.0
 40
23.0
 40
23.0
 40
23.0
 40
24.0
 40
24.0
 40
24.0
 40
25.0
 40
25.0
 40
25.0
 40
26.0
 40
26.0
 40
26.0
 40
27.0
 40
27.0
 40
27.0
 40
28.0
 40
28.0
 40
28.0
 40
29.0
 40
29.0
 40
29.0
 40
30.0
 40
30.0
 40
30.0
 40
31.0
 40
31.0
 40
31.0
 40
32.0
 40
32.0
 40
32.0
 40
33.0
 40
33.0
 40
33.0
 40
34.0
 40
34.0
 40
34.0
 40
35.0
 40
35.0
 40
35.0
 40
36.0
 40
36.0
 40
36.0
 40
37.0
 40
37.0
 40
37.0
 40
38.0
 40
38.0
 40
38.0
 40
39.0
 40
39.0
 40
39.0
 40
40.0
 40
40.0
 40
40.0
 40
41.0
 40
41.0
 40
41.0
 40
42.0
 40
42.0
 40
42.0
 40
43.0
 40
43.0
 40
43.0
 40
44.0
 40
44.0
 40
44.0
 40
45.0
 40
45.0
 40
45.0
 40
46.0
 40
46.0
 40
46.0
 40
47.0
 40
47.0
 40
47.0
 40
48.0
 40
48.0
 40
48.0
 40
49.0
 40
49.0
 40
49.0
 40
50.0
 40
50.0
 40
50.0
 40
51.0
 40
51.0
 40
51.0
 40
52.0
 40
52.0
 40
52.0
 40
53.0
 40
53.0
 40
53.0
 40
54.0
 40
54.0
 40
54.0
 40
55.0
 40
55.0
 40
55.0
 40
56.0
 40
56.0
 40
56.0
 40
57.0
 40
57.0
 40
57.0
 40
58.0
 40
58.0
 40
58.0
 40
59.0
 40
59.0
 40
59.0
 40
59.0
 10
8.19418250189887
 20
-1.236901177300347
 10
8.149386088053384
 20
-1.176990085177951
 10
8.087560017903644
 20
-1.156502617730034
 10
8.017690870496961
 20
-1.163524203830295
 10
7.963567945692274
 20
-1.168962266710069
 10
7.914833068847656
 20
-1.16634538438585
 10
7.860884772406683
 20
-1.149648878309461
 10
7.760289510091145
 20
-1.118514166937933
 10
7.661493089463975
 20
-1.134302775065104
 10
7.57009548611111
 20
-1.184929741753472
 10
7.526397705078125
 20
-1.16955820719401
 10
7.482799953884548
 20
-1.159890916612413
 10
7.435228983561197
 20
-1.164439731174045
 10
7.419570922851562
 20
-1.165936787923177
 10
7.404168023003471
 20
-1.168726603190104
 10
7.388956705729166
 20
-1.172328525119357
 10
7.287013583713107
 20
-1.174795362684461
 10
7.18500264485677
 20
-1.181245591905381
 10
7.083351982964408
 20
-1.177313910590277
 10
6.973397148980033
 20
-1.17306179470486
 10
6.861937628851996
 20
-1.167443169487847
 10
6.758527119954426
 20
-1.119212680392795
 10
6.663363138834634
 20
-1.0748291015625
 10
6.605747646755641
 20
-0.995359632703993
 10
6.689446343315971
 20
-0.8940641615125867
 10
6.695571051703558
 20
-0.8866509331597221
 10
6.695933024088541
 20
-0.8744744194878471
 10
6.698974609375
 20
-0.8645129733615451
 10
6.685784233940971
 20
-0.8630684746636283
 10
6.67055935329861
 20
-0.8566012912326389
 10
6.659733242458766
 20
-0.860989040798611
 10
6.586820814344617
 20
-0.8905419243706596
 10
6.53341335720486
 20
-0.9422836303710937
 10
6.501762390136718
 20
-1.014122009277343
 10
6.468512641059027
 20
-1.089587741427951
 10
6.502761840820312
 20
-1.181777106391058
 10
6.572384304470485
 20
-1.223810831705729
 10
6.645511203342013
 20
-1.267959594726562
 10
6.726386176215277
 20
-1.287918938530815
 10
6.807965596516926
 20
-1.30552249484592
 10
6.875749376085068
 20
-1.320148891872829
 10
6.945293850368923
 20
-1.326991611056857
 10
7.012564765082465
 20
-1.343403286404079
 10
7.035191853841145
 20
-1.34892357720269
 10
7.066775004069009
 20
-1.370416429307725
 10
7.070793999565971
 20
-1.389540778266058
 10
7.082311842176649
 20
-1.444352891710069
 10
7.085277133517794
 20
-1.501712375217013
 10
7.084937201605902
 20
-1.55803002251519
 10
7.084661695692274
 20
-1.603591071234808
 10
7.088581509060329
 20
-1.616525438096788
 10
7.132074144151475
 20
-1.607229444715711
 10
7.150976392957899
 20
-1.603189256456163
 10
7.171709696451822
 20
-1.607436286078558
 10
7.191592746310763
 20
-1.608331468370225
 10
7.220987108018662
 20
-1.609654744466158
 10
7.23682149251302
 20
-1.597464667426227
 10
7.238057454427083
 20
-1.566502041286892
 10
7.240038553873697
 20
-1.516862657335069
 10
7.245697021484375
 20
-1.467286851671019
 10
7.245728386773002
 20
-1.417681376139322
 10
7.245752970377603
 20
-1.377972920735677
 10
7.263951619466145
 20
-1.348564147949218
 10
7.297242058648002
 20
-1.336961534288194
 10
7.344195895724825
 20
-1.320596483018663
 10
7.394496493869357
 20
-1.313831753200954
 10
7.446256001790364
 20
-1.302318996853298
 10
7.418657090928818
 20
-1.474587334526922
 10
7.441784328884548
 20
-1.560057746039496
 10
7.527057223849825
 20
-1.584837171766505
 10
7.564723544650607
 20
-1.595783657497829
 10
7.611439175075954
 20
-1.598649766710069
 10
7.64769321017795
 20
-1.586392720540364
 10
7.711441887749565
 20
-1.564839680989583
 10
7.75431654188368
 20
-1.515981886121961
 10
7.769931369357638
 20
-1.455451965332031
 10
7.771071539984808
 20
-1.443762885199652
 10
7.772126939561631
 20
-1.432063632541232
 10
7.772622850206162
 20
-1.420322842068142
 10
7.773040771484375
 20
-1.410432603624144
 10
7.772364298502603
 20
-1.400683932834214
 10
7.771358066134982
 20
-1.39097679985894
 10
7.773195902506509
 20
-1.369027879503038
 10
7.76819356282552
 20
-1.347313774956597
 10
7.757582770453558
 20
-1.328260633680555
 10
7.75752936469184
 20
-1.327434963650173
 10
7.757320827907985
 20
-1.326559278700086
 10
7.756829155815971
 20
-1.325599670410156
 10
7.745755513509114
 20
-1.303978814019097
 10
7.731479220920138
 20
-1.285881890190972
 10
7.71509297688802
 20
-1.270330641004774
 10
7.71502685546875
 20
-1.270206027560763
 10
7.714984469943575
 20
-1.270072089301215
 10
7.714918348524305
 20
-1.269947475857204
 10
7.713383144802516
 20
-1.267055087619357
 10
7.711744520399305
 20
-1.264302571614583
 10
7.71002197265625
 20
-1.261669582790798
 10
7.733649359809027
 20
-1.256275600857204
 10
7.759961446126301
 20
-1.256188286675347
 10
7.7866456773546
 20
-1.258450826009114
 10
7.787199232313367
 20
-1.258259243435329
 10
7.787757873535156
 20
-1.258032904730902
 10
7.788302951388888
 20
-1.257859971788194
 10
7.78900655110677
 20
-1.257637023925781
 10
7.789746602376301
 20
-1.257556491427951
 10
7.790457831488715
 20
-1.257360670301649
 10
7.79740990532769
 20
-1.259368896484375
 10
7.804351806640625
 20
-1.26141357421875
 10
7.811164855957031
 20
-1.263847351074218
 10
7.811393737792968
 20
-1.263929578993055
 10
7.811565823025173
 20
-1.263994852701822
 10
7.81178961859809
 20
-1.264075385199652
 10
7.810603671603732
 20
-1.267321268717447
 10
7.809302435980902
 20
-1.270523918999565
 10
7.807926601833766
 20
-1.273693508572048
 10
7.807529873318141
 20
-1.274604797363281
 10
7.807132297092013
 20
-1.275516086154513
 10
7.806740654839408
 20
-1.276429918077256
 10
7.806611802842881
 20
-1.276729159884982
 10
7.80647956000434
 20
-1.277025858561197
 10
7.806356641981336
 20
-1.277328491210937
 10
7.80627950032552
 20
-1.277525160047743
 10
7.806206597222221
 20
-1.277707417805989
 10
7.80617947048611
 20
-1.27777353922526
 10
7.805494520399305
 20
-1.279455396864149
 10
7.804854498969183
 20
-1.281154208713107
 10
7.804272969563801
 20
-1.282874213324652
 10
7.803781297471787
 20
-1.28432888454861
 10
7.802885267469617
 20
-1.285496181911892
 10
7.801787482367621
 20
-1.286376105414496
 10
7.79706319173177
 20
-1.30643802218967
 10
7.791375054253471
 20
-1.326147291395399
 10
7.785589430067274
 20
-1.34542253282335
 10
7.786046346028645
 20
-1.35970730251736
 10
7.787767198350693
 20
-1.374011569552951
 10
7.790498521592881
 20
-1.388094584147135
 10
7.794068230523002
 20
-1.406502617730047
 10
7.799331665039062
 20
-1.424468994140625
 10
7.80489264594184
 20
-1.442358228895399
 10
7.808325025770399
 20
-1.453400505913628
 10
7.812227884928384
 20
-1.464529249403211
 10
7.817499796549478
 20
-1.474898444281683
 10
7.837110731336805
 20
-1.487321641710069
 10
7.856256273057725
 20
-1.498126559787339
 10
7.876556396484375
 20
-1.501218159993489
 10
7.983150058322482
 20
-1.517448425292968
 10
8.060296800401475
 20
-1.407980177137586
 10
8.022655063205295
 20
-1.300672743055555
 10
8.016395568847656
 20
-1.282826741536458
 10
8.009483337402343
 20
-1.265209621853298
 10
8.000262790256076
 20
-1.240489535861545
 10
8.004071553548175
 20
-1.241310967339409
 10
8.007584465874565
 20
-1.242182413736979
 10
8.010977003309461
 20
-1.243058946397569
 10
8.011873881022134
 20
-1.242607964409722
 10
8.01284450954861
 20
-1.242340935601128
 10
8.013888888888889
 20
-1.242464701334635
 10
8.015558878580728
 20
-1.242662217881944
 10
8.017161051432291
 20
-1.243019951714409
 10
8.018792046440971
 20
-1.243309020996093
 10
8.029168023003471
 20
-1.24121348063151
 10
8.039326985677082
 20
-1.241852654351128
 10
8.049301147460937
 20
-1.244330512152777
 10
8.062828063964843
 20
-1.242869906955295
 10
8.07595486111111
 20
-1.246621025933159
 10
8.088484870062933
 20
-1.252231174045138
 10
8.130546569824218
 20
-1.258126152886284
 10
8.164081997341579
 20
-1.281504313151041
 10
8.193400065104166
 20
-1.315355088975694
 10
8.198385450575086
 20
-1.321111891004774
 10
8.210195753309461
 20
-1.329037136501735
 10
8.212777031792533
 20
-1.327240837944878
 10
8.219786749945745
 20
-1.322360568576388
 10
8.224685668945312
 20
-1.313308715820312
 10
8.228382534450954
 20
-1.305003696017795
 10
8.244633992513019
 20
-1.26849619547526
 10
8.210006713867187
 20
-1.258063422309027
 10
8.19418250189887
 20
-1.236901177300347
 97
        0
 97
        1
330
B0
 75
     2
 76
     1
 98
        1
 10
0.0
 20
0.0
450
        0
451
        0
460
0.0
461
0.0
452
        0
462
0.0
453
        0
470

  0
ENDBLK
  5
7F
330
7C
100
AcDbEntity
  8
0
100
AcDbBlockEnd
  0
ENDSEC
  0
SECTION
  2
ENTITIES
  0
LWPOLYLINE
  5
79
330
70
100
AcDbEntity
  8
Layer 2
 62
   250
420
  2301728
370
    35
100
AcDbPolyline
 90
        4
 70
     1
 43
0.0
 10
8.598865264077858
 20
-4.370032759720944
 10
5.798865264077877
 20
-4.370032759720944
 10
5.798865264077877
 20
-0.4700327597209556
 10
8.598865264077858
 20
-0.4700327597209556
  0
LWPOLYLINE
  5
7A
330
70
100
AcDbEntity
  8
Layer 2
 62
   250
420
  2301728
370
    35
100
AcDbPolyline
 90
        4
 70
     1
 43
0.0
 10
8.498865264077847
 20
-4.270032759720947
 10
5.898865264077863
 20
-4.270032759720947
 10
5.898865264077863
 20
-0.5700327597209531
 10
8.498865264077847
 20
-0.5700327597209531
  0
INSERT
  5
7D
330
70
100
AcDbEntity
  8
Layer 1
100
AcDbBlockReference
  2
Block_0
 10
0.0
 20
0.0
 30
0.0
  0
ENDSEC
  0
SECTION
  2
OBJECTS
  0
DICTIONARY
  5
C
330
0
100
AcDbDictionary
281
     1
  3
ACAD_COLOR
350
63
  3
ACAD_DETAILVIEWSTYLE
350
6A
  3
ACAD_GROUP
350
D
  3
ACAD_LAYOUT
350
62
  3
ACAD_MATERIAL
350
10
  3
ACAD_MLEADERSTYLE
350
66
  3
ACAD_MLINESTYLE
350
5F
  3
ACAD_PLOTSETTINGS
350
61
  3
ACAD_PLOTSTYLENAME
350
E
  3
ACAD_SCALELIST
350
42
  3
ACAD_SECTIONVIEWSTYLE
350
68
  3
ACAD_TABLESTYLE
350
64
  3
ACAD_VISUALSTYLE
350
29
  3
ACDB_RECOMPOSE_DATA
350
BA
  3
AcDbVariableDictionary
350
B2
  0
DICTIONARY
  5
63
102
{ACAD_REACTORS
330
C
102
}
330
C
100
AcDbDictionary
281
     1
  0
DICTIONARY
  5
6A
102
{ACAD_REACTORS
330
C
102
}
330
C
100
AcDbDictionary
281
     1
  3
Imperial24
350
6B
  0
DICTIONARY
  5
D
102
{ACAD_REACTORS
330
C
102
}
330
C
100
AcDbDictionary
281
     1
  0
DICTIONARY
  5
62
102
{ACAD_REACTORS
330
C
102
}
330
C
100
AcDbDictionary
281
     1
  3
Layout1
350
6F
  3
Layout2
350
77
  3
Model
350
73
  0
DICTIONARY
  5
10
102
{ACAD_REACTORS
330
C
102
}
330
C
100
AcDbDictionary
281
     1
  3
ByBlock
350
19
  3
ByLayer
350
11
  3
Global
350
21
  0
DICTIONARY
  5
66
102
{ACAD_REACTORS
330
C
102
}
330
C
100
AcDbDictionary
281
     1
  3
Standard
350
67
  0
DICTIONARY
  5
5F
102
{ACAD_REACTORS
330
C
102
}
330
C
100
AcDbDictionary
281
     1
  3
Standard
350
60
  0
DICTIONARY
  5
61
102
{ACAD_REACTORS
330
C
102
}
330
C
100
AcDbDictionary
281
     1
  0
ACDBDICTIONARYWDFLT
  5
E
102
{ACAD_REACTORS
330
C
102
}
330
C
100
AcDbDictionary
281
     1
  3
Normal
350
F
100
AcDbDictionaryWithDefault
340
F
  0
DICTIONARY
  5
42
102
{ACAD_REACTORS
330
C
102
}
330
C
100
AcDbDictionary
281
     1
  3
A0
350
43
  3
A1
350
44
  3
A2
350
45
  3
A3
350
46
  3
A4
350
47
  3
A5
350
48
  3
A6
350
49
  3
A7
350
4A
  3
A8
350
4B
  3
A9
350
4C
  3
B0
350
4D
  3
B1
350
4E
  3
B2
350
4F
  3
B3
350
50
  3
B4
350
51
  3
B5
350
52
  3
B6
350
53
  0
DICTIONARY
  5
68
102
{ACAD_REACTORS
330
C
102
}
330
C
100
AcDbDictionary
281
     1
  3
Imperial24
350
69
  0
DICTIONARY
  5
64
102
{ACAD_REACTORS
330
C
102
}
330
C
100
AcDbDictionary
281
     1
  3
Standard
350
65
  0
DICTIONARY
  5
29
102
{ACAD_REACTORS
330
C
102
}
330
C
100
AcDbDictionary
281
     1
  3
2dWireframe
350
2F
  3
Basic
350
2E
  3
Brighten
350
35
  3
ColorChange
350
39
  3
Conceptual
350
32
  3
Dim
350
34
  3
EdgeColorOff
350
41
  3
Facepattern
350
38
  3
Flat
350
2A
  3
FlatWithEdges
350
2B
  3
Gouraud
350
2C
  3
GouraudWithEdges
350
2D
  3
Hidden
350
31
  3
JitterOff
350
3F
  3
Linepattern
350
37
  3
OverhangOff
350
40
  3
Realistic
350
33
  3
Shaded
350
3E
  3
Shaded with edges
350
3D
  3
Shades of Gray
350
3A
  3
Sketchy
350
3B
  3
Thicken
350
36
  3
Wireframe
350
30
  3
X-Ray
350
3C
  0
XRECORD
  5
BA
102
{ACAD_REACTORS
330
C
102
}
330
C
100
AcDbXrecord
280
     1
 90
        1
330
65
  0
DICTIONARY
  5
B2
102
{ACAD_REACTORS
330
C
102
}
330
C
100
AcDbDictionary
281
     1
  3
CANNOSCALE
350
B7
  3
CMLEADERSTYLE
350
B4
  3
CTABLESTYLE
350
B3
  3
CVIEWDETAILSTYLE
350
B5
  3
CVIEWSECTIONSTYLE
350
B6
  0
ACDBDETAILVIEWSTYLE
  5
6B
102
{ACAD_REACTORS
330
6A
102
}
330
6A
100
AcDbModelDocViewStyle
 70
     0
  3
Imperial24
290
     1
300
Imperial24
 90
        0
100
AcDbDetailViewStyle
 70
     0
 71
     0
 90
        3
 71
     1
340
55
 62
   256
 40
0.24
340
0
 62
   256
 40
0.24
300

 40
0.36
280
     3
 71
     2
340
5D
 90
       25
 62
   256
 71
     3
340
55
 62
   256
 40
0.24
 90
        1
 40
0.75
 90
        1
300
%<\AcVar ViewType \f "%tc1">% %<\AcVar ViewDetailId>%\PSCALE %<\AcVar ViewScale \f "%sn">%
 71
     4
340
5D
 90
       25
 62
   256
340
5D
 90
       25
 62
   256
280
     0
  0
LAYOUT
  5
6F
102
{ACAD_REACTORS
330
62
102
}
330
62
100
AcDbPlotSettings
  1

  2

  4

  6

 40
0.0
 41
0.0
 42
0.0
 43
0.0
 44
0.0
 45
0.0
 46
0.0
 47
0.0
 48
0.0
 49
0.0
140
0.0
141
0.0
142
1.0
143
1.0
 70
   688
 72
     0
 73
     0
 74
     5
  7

 75
    16
147
1.0
 76
     0
 77
     2
 78
   300
148
0.0
149
0.0
100
AcDbLayout
  1
Layout1
 70
     1
 71
     1
 10
0.0
 20
0.0
 11
12.0
 21
9.0
 12
0.0
 22
0.0
 32
0.0
 14
0.0
 24
0.0
 34
0.0
 15
0.0
 25
0.0
 35
0.0
146
0.0
 13
0.0
 23
0.0
 33
0.0
 16
1.0
 26
0.0
 36
0.0
 17
0.0
 27
1.0
 37
0.0
 76
     0
330
6C
  0
LAYOUT
  5
77
102
{ACAD_REACTORS
330
62
102
}
330
62
100
AcDbPlotSettings
  1

  2

  4

  6

 40
0.0
 41
0.0
 42
0.0
 43
0.0
 44
0.0
 45
0.0
 46
0.0
 47
0.0
 48
0.0
 49
0.0
140
0.0
141
0.0
142
1.0
143
1.0
 70
   688
 72
     0
 73
     0
 74
     5
  7

 75
    16
147
1.0
 76
     0
 77
     2
 78
   300
148
0.0
149
0.0
100
AcDbLayout
  1
Layout2
 70
     1
 71
     2
 10
0.0
 20
0.0
 11
12.0
 21
9.0
 12
0.0
 22
0.0
 32
0.0
 14
0.0
 24
0.0
 34
0.0
 15
0.0
 25
0.0
 35
0.0
146
0.0
 13
0.0
 23
0.0
 33
0.0
 16
1.0
 26
0.0
 36
0.0
 17
0.0
 27
1.0
 37
0.0
 76
     0
330
74
  0
LAYOUT
  5
73
102
{ACAD_REACTORS
330
62
102
}
330
62
100
AcDbPlotSettings
  1

  2

  4

  6

 40
0.0
 41
0.0
 42
0.0
 43
0.0
 44
0.0
 45
0.0
 46
0.0
 47
0.0
 48
0.0
 49
0.0
140
0.0
141
0.0
142
1.0
143
1.0
 70
  1712
 72
     0
 73
     0
 74
     0
  7

 75
     0
147
1.0
 76
     0
 77
     2
 78
   300
148
0.0
149
0.0
100
AcDbLayout
  1
Model
 70
     1
 71
     0
 10
0.0
 20
0.0
 11
12.0
 21
9.0
 12
0.0
 22
0.0
 32
0.0
 14
0.0
 24
0.0
 34
0.0
 15
0.0
 25
0.0
 35
0.0
146
0.0
 13
0.0
 23
0.0
 33
0.0
 16
1.0
 26
0.0
 36
0.0
 17
0.0
 27
1.0
 37
0.0
 76
     0
330
70
  0
MATERIAL
  5
19
102
{ACAD_XDICTIONARY
360
1A
102
}
102
{ACAD_REACTORS
330
10
102
}
330
10
100
AcDbMaterial
  1
ByBlock
 72
     0
 43
0.0208333333333333
 43
0.0
 43
0.0
 43
0.0
 43
0.0
 43
0.0208333333333333
 43
0.0
 43
0.0
 43
0.0
 43
0.0
 43
1.0
 43
0.0
 43
0.0
 43
0.0
 43
0.0
 43
1.0
 77
     0
 47
0.0208333333333333
 47
0.0
 47
0.0
 47
0.0
 47
0.0
 47
0.0208333333333333
 47
0.0
 47
0.0
 47
0.0
 47
0.0
 47
1.0
 47
0.0
 47
0.0
 47
0.0
 47
0.0
 47
1.0
171
     0
 49
0.0208333333333333
 49
0.0
 49
0.0
 49
0.0
 49
0.0
 49
0.0208333333333333
 49
0.0
 49
0.0
 49
0.0
 49
0.0
 49
1.0
 49
0.0
 49
0.0
 49
0.0
 49
0.0
 49
1.0
175
     0
142
0.0208333333333333
142
0.0
142
0.0
142
0.0
142
0.0
142
0.0208333333333333
142
0.0
142
0.0
142
0.0
142
0.0
142
1.0
142
0.0
142
0.0
142
0.0
142
0.0
142
1.0
179
     0
144
0.0208333333333333
144
0.0
144
0.0
144
0.0
144
0.0
144
0.0208333333333333
144
0.0
144
0.0
144
0.0
144
0.0
144
1.0
144
0.0
144
0.0
144
0.0
144
0.0
144
1.0
147
0.0208333333333333
147
0.0
147
0.0
147
0.0
147
0.0
147
0.0208333333333333
147
0.0
147
0.0
147
0.0
147
0.0
147
1.0
147
0.0
147
0.0
147
0.0
147
0.0
147
1.0
  0
MATERIAL
  5
11
102
{ACAD_XDICTIONARY
360
12
102
}
102
{ACAD_REACTORS
330
10
102
}
330
10
100
AcDbMaterial
  1
ByLayer
 72
     0
 43
0.0208333333333333
 43
0.0
 43
0.0
 43
0.0
 43
0.0
 43
0.0208333333333333
 43
0.0
 43
0.0
 43
0.0
 43
0.0
 43
1.0
 43
0.0
 43
0.0
 43
0.0
 43
0.0
 43
1.0
 77
     0
 47
0.0208333333333333
 47
0.0
 47
0.0
 47
0.0
 47
0.0
 47
0.0208333333333333
 47
0.0
 47
0.0
 47
0.0
 47
0.0
 47
1.0
 47
0.0
 47
0.0
 47
0.0
 47
0.0
 47
1.0
171
     0
 49
0.0208333333333333
 49
0.0
 49
0.0
 49
0.0
 49
0.0
 49
0.0208333333333333
 49
0.0
 49
0.0
 49
0.0
 49
0.0
 49
1.0
 49
0.0
 49
0.0
 49
0.0
 49
0.0
 49
1.0
175
     0
142
0.0208333333333333
142
0.0
142
0.0
142
0.0
142
0.0
142
0.0208333333333333
142
0.0
142
0.0
142
0.0
142
0.0
142
1.0
142
0.0
142
0.0
142
0.0
142
0.0
142
1.0
179
     0
144
0.0208333333333333
144
0.0
144
0.0
144
0.0
144
0.0
144
0.0208333333333333
144
0.0
144
0.0
144
0.0
144
0.0
144
1.0
144
0.0
144
0.0
144
0.0
144
0.0
144
1.0
147
0.0208333333333333
147
0.0
147
0.0
147
0.0
147
0.0
147
0.0208333333333333
147
0.0
147
0.0
147
0.0
147
0.0
147
1.0
147
0.0
147
0.0
147
0.0
147
0.0
147
1.0
  0
MATERIAL
  5
21
102
{ACAD_XDICTIONARY
360
22
102
}
102
{ACAD_REACTORS
330
10
102
}
330
10
100
AcDbMaterial
  1
Global
 72
     0
 43
0.0208333333333333
 43
0.0
 43
0.0
 43
0.0
 43
0.0
 43
0.0208333333333333
 43
0.0
 43
0.0
 43
0.0
 43
0.0
 43
1.0
 43
0.0
 43
0.0
 43
0.0
 43
0.0
 43
1.0
 77
     0
 47
0.0208333333333333
 47
0.0
 47
0.0
 47
0.0
 47
0.0
 47
0.0208333333333333
 47
0.0
 47
0.0
 47
0.0
 47
0.0
 47
1.0
 47
0.0
 47
0.0
 47
0.0
 47
0.0
 47
1.0
171
     0
 49
0.0208333333333333
 49
0.0
 49
0.0
 49
0.0
 49
0.0
 49
0.0208333333333333
 49
0.0
 49
0.0
 49
0.0
 49
0.0
 49
1.0
 49
0.0
 49
0.0
 49
0.0
 49
0.0
 49
1.0
175
     0
142
0.0208333333333333
142
0.0
142
0.0
142
0.0
142
0.0
142
0.0208333333333333
142
0.0
142
0.0
142
0.0
142
0.0
142
1.0
142
0.0
142
0.0
142
0.0
142
0.0
142
1.0
179
     0
144
0.0208333333333333
144
0.0
144
0.0
144
0.0
144
0.0
144
0.0208333333333333
144
0.0
144
0.0
144
0.0
144
0.0
144
1.0
144
0.0
144
0.0
144
0.0
144
0.0
144
1.0
147
0.0208333333333333
147
0.0
147
0.0
147
0.0
147
0.0
147
0.0208333333333333
147
0.0
147
0.0
147
0.0
147
0.0
147
1.0
147
0.0
147
0.0
147
0.0
147
0.0
147
1.0
  0
MLEADERSTYLE
  5
67
102
{ACAD_REACTORS
330
66
102
}
330
66
100
AcDbMLeaderStyle
179
     2
170
     2
171
     1
172
     0
 90
        2
 40
0.0
 41
0.0
173
     1
 91
-1056964608
340
5B
 92
       -2
290
     1
 42
0.09
291
     1
 43
0.36
  3
Standard
 44
0.18
300

342
55
174
     1
178
     6
175
     1
176
     0
 93
-1056964608
 45
0.18
292
     0
297
     0
 46
0.18
 94
-1056964608
 47
1.0
 49
1.0
140
1.0
293
     1
141
0.0
294
     1
177
     0
142
1.0
295
     1
296
     0
143
0.125
271
     0
272
     9
273
     9
298
     1
  0
MLINESTYLE
  5
60
102
{ACAD_REACTORS
330
5F
102
}
330
5F
100
AcDbMlineStyle
  2
STANDARD
 70
     0
  3

 62
   256
 51
90.0
 52
90.0
 71
     2
 49
0.5
 62
   256
  6
BYLAYER
 49
-0.5
 62
   256
  6
BYLAYER
  0
ACDBPLACEHOLDER
  5
F
102
{ACAD_REACTORS
330
E
102
}
330
E
  0
SCALE
  5
43
102
{ACAD_REACTORS
330
42
102
}
330
42
100
AcDbScale
 70
     0
300
1:1
140
1.0
141
1.0
290
     1
  0
SCALE
  5
44
102
{ACAD_REACTORS
330
42
102
}
330
42
100
AcDbScale
 70
     0
300
1/128" = 1'-0"
140
0.0078125
141
12.0
290
     0
  0
SCALE
  5
45
102
{ACAD_REACTORS
330
42
102
}
330
42
100
AcDbScale
 70
     0
300
1/64" = 1'-0"
140
0.015625
141
12.0
290
     0
  0
SCALE
  5
46
102
{ACAD_REACTORS
330
42
102
}
330
42
100
AcDbScale
 70
     0
300
1/32" = 1'-0"
140
0.03125
141
12.0
290
     0
  0
SCALE
  5
47
102
{ACAD_REACTORS
330
42
102
}
330
42
100
AcDbScale
 70
     0
300
1/16" = 1'-0"
140
0.0625
141
12.0
290
     0
  0
SCALE
  5
48
102
{ACAD_REACTORS
330
42
102
}
330
42
100
AcDbScale
 70
     0
300
3/32" = 1'-0"
140
0.09375
141
12.0
290
     0
  0
SCALE
  5
49
102
{ACAD_REACTORS
330
42
102
}
330
42
100
AcDbScale
 70
     0
300
1/8" = 1'-0"
140
0.125
141
12.0
290
     0
  0
SCALE
  5
4A
102
{ACAD_REACTORS
330
42
102
}
330
42
100
AcDbScale
 70
     0
300
3/16" = 1'-0"
140
0.1875
141
12.0
290
     0
  0
SCALE
  5
4B
102
{ACAD_REACTORS
330
42
102
}
330
42
100
AcDbScale
 70
     0
300
1/4" = 1'-0"
140
0.25
141
12.0
290
     0
  0
SCALE
  5
4C
102
{ACAD_REACTORS
330
42
102
}
330
42
100
AcDbScale
 70
     0
300
3/8" = 1'-0"
140
0.375
141
12.0
290
     0
  0
SCALE
  5
4D
102
{ACAD_REACTORS
330
42
102
}
330
42
100
AcDbScale
 70
     0
300
1/2" = 1'-0"
140
0.5
141
12.0
290
     0
  0
SCALE
  5
4E
102
{ACAD_REACTORS
330
42
102
}
330
42
100
AcDbScale
 70
     0
300
3/4" = 1'-0"
140
0.75
141
12.0
290
     0
  0
SCALE
  5
4F
102
{ACAD_REACTORS
330
42
102
}
330
42
100
AcDbScale
 70
     0
300
1" = 1'-0"
140
1.0
141
12.0
290
     0
  0
SCALE
  5
50
102
{ACAD_REACTORS
330
42
102
}
330
42
100
AcDbScale
 70
     0
300
1-1/2" = 1'-0"
140
1.5
141
12.0
290
     0
  0
SCALE
  5
51
102
{ACAD_REACTORS
330
42
102
}
330
42
100
AcDbScale
 70
     0
300
3" = 1'-0"
140
3.0
141
12.0
290
     0
  0
SCALE
  5
52
102
{ACAD_REACTORS
330
42
102
}
330
42
100
AcDbScale
 70
     0
300
6" = 1'-0"
140
6.0
141
12.0
290
     0
  0
SCALE
  5
53
102
{ACAD_REACTORS
330
42
102
}
330
42
100
AcDbScale
 70
     0
300
1'-0" = 1'-0"
140
12.0
141
12.0
290
     0
  0
ACDBSECTIONVIEWSTYLE
  5
69
102
{ACAD_REACTORS
330
68
102
}
330
68
100
AcDbModelDocViewStyle
 70
     0
  3
Imperial24
290
     1
300
Imperial24
 90
        0
100
AcDbSectionViewStyle
 70
     0
 71
     0
 90
       78
 71
     1
340
55
 62
   256
 40
0.24
340
0
340
0
 62
   256
 40
0.24
300
I, O, Q, S, X, Z
 40
0.48
 90
        3
 40
0.18
 90
        1
 71
     2
340
5D
 90
       25
 62
   256
340
5D
 90
       50
 62
   256
 40
0.24
 40
0.0
 40
0.24
 71
     3
340
55
 62
   256
 40
0.24
 90
        1
 40
0.75
 90
        1
300
%<\AcVar ViewType \f "%tc1">% %<\AcVar ViewSectionStartId>%-%<\AcVar ViewSectionEndId>%\PSCALE %<\AcVar ViewScale \f "%sn">%
 71
     4
 62
   256
 62
   257
300
ANSI31
 40
1.0
 90
        0
290
     0
290
     0
 90
        6
 40
0.0
 40
1.570796326794896
 40
0.2617993877991494
 40
1.308996938995747
 40
-0.2617993877991494
 40
1.832595714594046
  0
TABLESTYLE
  5
65
102
{ACAD_XDICTIONARY
360
B8
102
}
102
{ACAD_REACTORS
330
64
102
}
330
64
100
AcDbTableStyle
280
     0
  3
Standard
 70
     0
 71
     0
 40
0.06
 41
0.06
280
     0
281
     0
  7
Standard
140
0.18
170
     2
 62
     0
 63
     7
283
     0
 90
      512
 91
        0
  1

274
    -2
284
     1
 64
     0
275
    -2
285
     1
 65
     0
276
    -2
286
     1
 66
     0
277
    -2
287
     1
 67
     0
278
    -2
288
     1
 68
     0
279
    -2
289
     1
 69
     0
  7
Standard
140
0.25
170
     5
 62
     0
 63
     7
283
     0
 90
      512
 91
        0
  1

274
    -2
284
     1
 64
     0
275
    -2
285
     1
 65
     0
276
    -2
286
     1
 66
     0
277
    -2
287
     1
 67
     0
278
    -2
288
     1
 68
     0
279
    -2
289
     1
 69
     0
  7
Standard
140
0.18
170
     5
 62
     0
 63
     7
283
     0
 90
      512
 91
        0
  1

274
    -2
284
     1
 64
     0
275
    -2
285
     1
 65
     0
276
    -2
286
     1
 66
     0
277
    -2
287
     1
 67
     0
278
    -2
288
     1
 68
     0
279
    -2
289
     1
 69
     0
  0
VISUALSTYLE
  5
2F
102
{ACAD_REACTORS
330
29
102
}
330
29
100
AcDbVisualStyle
  2
2dWireframe
 70
     4
177
     3
291
     0
 70
    58
 90
        0
176
     1
 90
        2
176
     1
 90
        0
176
     1
 90
        0
176
     1
 40
0.6
176
     1
 40
30.0
176
     1
 62
     7
420
 16777215
176
     1
 90
        1
176
     1
 90
        4
176
     1
 62
     7
176
     1
 62
   257
176
     1
 90
        1
176
     1
 90
        1
176
     1
 40
1.0
176
     1
 90
        0
176
     1
 62
   257
176
     1
 40
1.0
176
     1
 90
        1
176
     1
 90
        6
176
     1
 90
        2
176
     1
 62
     7
176
     1
 90
        5
176
     1
 90
        0
176
     1
 90
        0
176
     1
290
     0
176
     1
 90
        1
176
     1
 40
0.0
176
     1
 90
        0
176
     1
290
     1
176
     1
290
     1
176
     1
290
     0
176
     1
290
     0
176
     1
290
     0
176
     1
290
     0
176
     1
290
     0
176
     1
290
     0
176
     1
290
     0
176
     1
 90
       50
176
     1
 40
0.0
176
     1
 40
1.0
176
     1
 90
        0
176
     1
 62
    18
420
        0
176
     1
 90
       50
176
     1
 90
        3
176
     1
 62
     5
420
      255
176
     1
290
     0
176
     1
 90
       50
176
     1
 90
       50
176
     1
 90
       50
176
     1
290
     0
176
     1
 90
       50
176
     1
 62
   256
176
     0
 40
1.0
176
     0
 90
        2
176
     1
  1
strokes_ogs.tif
176
     1
290
     0
176
     1
 40
1.0
176
     1
 40
1.0
176
     1
  0
VISUALSTYLE
  5
2E
102
{ACAD_REACTORS
330
29
102
}
330
29
100
AcDbVisualStyle
  2
Basic
 70
     7
177
     3
291
     1
 70
    58
 90
        1
176
     1
 90
        0
176
     1
 90
        1
176
     1
 90
        0
176
     1
 40
0.6
176
     1
 40
30.0
176
     1
 62
     7
420
 16777215
176
     1
 90
        0
176
     1
 90
        4
176
     1
 62
     7
176
     1
 62
   257
176
     1
 90
        1
176
     1
 90
        1
176
     1
 40
1.0
176
     1
 90
        8
176
     1
 62
     7
176
     1
 40
1.0
176
     1
 90
        1
176
     1
 90
        6
176
     1
 90
        2
176
     1
 62
     7
176
     1
 90
        5
176
     1
 90
        0
176
     1
 90
        0
176
     1
290
     0
176
     1
 90
        1
176
     1
 40
0.0
176
     1
 90
        0
176
     1
290
     0
176
     1
290
     1
176
     1
290
     1
176
     1
290
     0
176
     1
290
     0
176
     1
290
     0
176
     1
290
     0
176
     1
290
     0
176
     1
290
     0
176
     1
 90
       50
176
     1
 40
0.0
176
     1
 40
1.0
176
     1
 90
        0
176
     1
 62
    18
420
        0
176
     1
 90
       50
176
     1
 90
        3
176
     1
 62
     5
420
      255
176
     1
290
     0
176
     1
 90
       50
176
     1
 90
       50
176
     1
 90
       50
176
     1
290
     0
176
     1
 90
       50
176
     1
 62
   256
176
     0
 40
1.0
176
     0
 90
        2
176
     1
  1
strokes_ogs.tif
176
     1
290
     0
176
     1
 40
1.0
176
     1
 40
1.0
176
     1
  0
VISUALSTYLE
  5
35
102
{ACAD_REACTORS
330
29
102
}
330
29
100
AcDbVisualStyle
  2
Brighten
 70
    12
177
     3
291
     1
 70
    58
 90
        2
176
     1
 90
        2
176
     1
 90
        0
176
     1
 90
        0
176
     1
 40
0.6
176
     1
 40
30.0
176
     1
 62
     7
420
 16777215
176
     1
 90
        1
176
     1
 90
        4
176
     1
 62
     7
176
     1
 62
   257
176
     1
 90
        1
176
     1
 90
        1
176
     1
 40
1.0
176
     1
 90
        8
176
     1
 62
     7
176
     1
 40
1.0
176
     1
 90
        1
176
     1
 90
        6
176
     1
 90
        2
176
     1
 62
     7
176
     1
 90
        5
176
     1
 90
        0
176
     1
 90
        0
176
     1
290
     0
176
     1
 90
        1
176
     1
 40
50.0
176
     1
 90
        0
176
     1
290
     0
176
     1
290
     1
176
     1
290
     1
176
     1
290
     0
176
     1
290
     0
176
     1
290
     0
176
     1
290
     0
176
     1
290
     0
176
     1
290
     0
176
     1
 90
       50
176
     1
 40
0.0
176
     1
 40
1.0
176
     1
 90
        0
176
     1
 62
    18
420
        0
176
     1
 90
       50
176
     1
 90
        3
176
     1
 62
     5
420
      255
176
     1
290
     0
176
     1
 90
       50
176
     1
 90
       50
176
     1
 90
       50
176
     1
290
     0
176
     1
 90
       50
176
     1
 62
   256
176
     0
 40
1.0
176
     0
 90
        2
176
     1
  1
strokes_ogs.tif
176
     1
290
     0
176
     1
 40
1.0
176
     1
 40
1.0
176
     1
  0
VISUALSTYLE
  5
39
102
{ACAD_REACTORS
330
29
102
}
330
29
100
AcDbVisualStyle
  2
ColorChange
 70
    16
177
     3
291
     1
 70
    58
 90
        2
176
     1
 90
        2
176
     1
 90
        3
176
     1
 90
        0
176
     1
 40
0.6
176
     1
 40
30.0
176
     1
 62
     8
420
  8421504
176
     1
 90
        1
176
     1
 90
        4
176
     1
 62
     7
176
     1
 62
   257
176
     1
 90
        1
176
     1
 90
        1
176
     1
 40
1.0
176
     1
 90
        8
176
     1
 62
     8
420
  8421504
176
     1
 40
1.0
176
     1
 90
        1
176
     1
 90
        6
176
     1
 90
        2
176
     1
 62
     7
176
     1
 90
        5
176
     1
 90
        0
176
     1
 90
        0
176
     1
290
     0
176
     1
 90
        1
176
     1
 40
0.0
176
     1
 90
        0
176
     1
290
     0
176
     1
290
     1
176
     1
290
     1
176
     1
290
     0
176
     1
290
     0
176
     1
290
     0
176
     1
290
     0
176
     1
290
     0
176
     1
290
     0
176
     1
 90
       50
176
     1
 40
0.0
176
     1
 40
1.0
176
     1
 90
        0
176
     1
 62
    18
420
        0
176
     1
 90
       50
176
     1
 90
        3
176
     1
 62
     5
420
      255
176
     1
290
     0
176
     1
 90
       50
176
     1
 90
       50
176
     1
 90
       50
176
     1
290
     0
176
     1
 90
       50
176
     1
 62
   256
176
     0
 40
1.0
176
     0
 90
        2
176
     1
  1
strokes_ogs.tif
176
     1
290
     0
176
     1
 40
1.0
176
     1
 40
1.0
176
     1
  0
VISUALSTYLE
  5
32
102
{ACAD_REACTORS
330
29
102
}
330
29
100
AcDbVisualStyle
  2
Conceptual
 70
     9
177
     3
291
     0
 70
    58
 90
        3
176
     1
 90
        2
176
     1
 90
        0
176
     1
 90
        0
176
     1
 40
0.6
176
     1
 40
30.0
176
     1
 62
     7
420
 16777215
176
     1
 90
        2
176
     1
 90
        2
176
     1
 62
     7
176
     1
 62
   257
176
     1
 90
        1
176
     1
 90
        1
176
     1
 40
179.0
176
     1
 90
        8
176
     1
 62
     7
176
     1
 40
1.0
176
     1
 90
        1
176
     1
 90
        6
176
     1
 90
        2
176
     1
 62
     7
176
     1
 90
        3
176
     1
 90
        0
176
     1
 90
        0
176
     1
290
     0
176
     1
 90
        1
176
     1
 40
0.0
176
     1
 90
        0
176
     1
290
     0
176
     1
290
     1
176
     1
290
     1
176
     1
290
     0
176
     1
290
     0
176
     1
290
     0
176
     1
290
     0
176
     1
290
     0
176
     1
290
     0
176
     1
 90
       50
176
     1
 40
0.0
176
     1
 40
1.0
176
     1
 90
        0
176
     1
 62
    18
420
        0
176
     1
 90
       50
176
     1
 90
        3
176
     1
 62
     5
420
      255
176
     1
290
     0
176
     1
 90
       50
176
     1
 90
       50
176
     1
 90
       50
176
     1
290
     0
176
     1
 90
       50
176
     1
 62
   256
176
     0
 40
1.0
176
     0
 90
        2
176
     1
  1
strokes_ogs.tif
176
     1
290
     0
176
     1
 40
1.0
176
     1
 40
1.0
176
     1
  0
VISUALSTYLE
  5
34
102
{ACAD_REACTORS
330
29
102
}
330
29
100
AcDbVisualStyle
  2
Dim
 70
    11
177
     3
291
     1
 70
    58
 90
        2
176
     1
 90
        2
176
     1
 90
        0
176
     1
 90
        0
176
     1
 40
0.6
176
     1
 40
30.0
176
     1
 62
     7
420
 16777215
176
     1
 90
        1
176
     1
 90
        4
176
     1
 62
     7
176
     1
 62
   257
176
     1
 90
        1
176
     1
 90
        1
176
     1
 40
1.0
176
     1
 90
        8
176
     1
 62
     7
176
     1
 40
1.0
176
     1
 90
        1
176
     1
 90
        6
176
     1
 90
        2
176
     1
 62
     7
176
     1
 90
        5
176
     1
 90
        0
176
     1
 90
        0
176
     1
290
     0
176
     1
 90
        1
176
     1
 40
-50.0
176
     1
 90
        0
176
     1
290
     0
176
     1
290
     1
176
     1
290
     1
176
     1
290
     0
176
     1
290
     0
176
     1
290
     0
176
     1
290
     0
176
     1
290
     0
176
     1
290
     0
176
     1
 90
       50
176
     1
 40
0.0
176
     1
 40
1.0
176
     1
 90
        0
176
     1
 62
    18
420
        0
176
     1
 90
       50
176
     1
 90
        3
176
     1
 62
     5
420
      255
176
     1
290
     0
176
     1
 90
       50
176
     1
 90
       50
176
     1
 90
       50
176
     1
290
     0
176
     1
 90
       50
176
     1
 62
   256
176
     0
 40
1.0
176
     0
 90
        2
176
     1
  1
strokes_ogs.tif
176
     1
290
     0
176
     1
 40
1.0
176
     1
 40
1.0
176
     1
  0
VISUALSTYLE
  5
41
102
{ACAD_REACTORS
330
29
102
}
330
29
100
AcDbVisualStyle
  2
EdgeColorOff
 70
    22
177
     3
291
     1
 70
    58
 90
        2
176
     0
 90
        2
176
     0
 90
        0
176
     0
 90
        0
176
     0
 40
0.6
176
     0
 40
30.0
176
     0
 62
     7
420
 16777215
176
     0
 90
        1
176
     0
 90
        4
176
     0
 62
     7
176
     0
 62
   257
176
     0
 90
        1
176
     0
 90
        1
176
     0
 40
1.0
176
     0
 90
        8
176
     2
 62
     7
176
     0
 40
1.0
176
     0
 90
        1
176
     0
 90
        6
176
     0
 90
        2
176
     0
 62
     7
176
     0
 90
        5
176
     0
 90
        0
176
     0
 90
        0
176
     0
290
     0
176
     0
 90
        1
176
     0
 40
0.0
176
     0
 90
        0
176
     0
290
     0
176
     0
290
     1
176
     0
290
     1
176
     0
290
     0
176
     0
290
     0
176
     0
290
     0
176
     0
290
     0
176
     0
290
     0
176
     0
290
     0
176
     0
 90
       50
176
     0
 40
0.0
176
     0
 40
1.0
176
     0
 90
        0
176
     0
 62
    18
420
        0
176
     0
 90
       50
176
     0
 90
        3
176
     0
 62
     5
420
      255
176
     0
290
     0
176
     0
 90
       50
176
     0
 90
       50
176
     0
 90
       50
176
     0
290
     0
176
     0
 90
       50
176
     0
 62
   256
176
     0
 40
1.0
176
     0
 90
        2
176
     0
  1
strokes_ogs.tif
176
     0
290
     0
176
     0
 40
1.0
176
     0
 40
1.0
176
     0
  0
VISUALSTYLE
  5
38
102
{ACAD_REACTORS
330
29
102
}
330
29
100
AcDbVisualStyle
  2
Facepattern
 70
    15
177
     3
291
     1
 70
    58
 90
        2
176
     1
 90
        2
176
     1
 90
        0
176
     1
 90
        0
176
     1
 40
0.6
176
     1
 40
30.0
176
     1
 62
     7
420
 16777215
176
     1
 90
        1
176
     1
 90
        4
176
     1
 62
     7
176
     1
 62
   257
176
     1
 90
        1
176
     1
 90
        1
176
     1
 40
1.0
176
     1
 90
        8
176
     1
 62
     7
176
     1
 40
1.0
176
     1
 90
        1
176
     1
 90
        6
176
     1
 90
        2
176
     1
 62
     7
176
     1
 90
        5
176
     1
 90
        0
176
     1
 90
        0
176
     1
290
     0
176
     1
 90
        1
176
     1
 40
0.0
176
     1
 90
        0
176
     1
290
     0
176
     1
290
     1
176
     1
290
     1
176
     1
290
     0
176
     1
290
     0
176
     1
290
     0
176
     1
290
     0
176
     1
290
     0
176
     1
290
     0
176
     1
 90
       50
176
     1
 40
0.0
176
     1
 40
1.0
176
     1
 90
        0
176
     1
 62
    18
420
        0
176
     1
 90
       50
176
     1
 90
        3
176
     1
 62
     5
420
      255
176
     1
290
     0
176
     1
 90
       50
176
     1
 90
       50
176
     1
 90
       50
176
     1
290
     0
176
     1
 90
       50
176
     1
 62
   256
176
     0
 40
1.0
176
     0
 90
        2
176
     1
  1
strokes_ogs.tif
176
     1
290
     0
176
     1
 40
1.0
176
     1
 40
1.0
176
     1
  0
VISUALSTYLE
  5
2A
102
{ACAD_REACTORS
330
29
102
}
330
29
100
AcDbVisualStyle
  2
Flat
 70
     0
177
     3
291
     1
 70
    58
 90
        2
176
     1
 90
        1
176
     1
 90
        1
176
     1
 90
        2
176
     1
 40
0.6
176
     1
 40
30.0
176
     1
 62
     7
420
 16777215
176
     1
 90
        0
176
     1
 90
        0
176
     1
 62
     7
176
     1
 62
   257
176
     1
 90
        1
176
     1
 90
        1
176
     1
 40
1.0
176
     1
 90
        8
176
     1
 62
     7
176
     1
 40
1.0
176
     1
 90
        1
176
     1
 90
        6
176
     1
 90
        2
176
     1
 62
     7
176
     1
 90
        5
176
     1
 90
        0
176
     1
 90
        0
176
     1
290
     0
176
     1
 90
       13
176
     1
 40
0.0
176
     1
 90
        0
176
     1
290
     0
176
     1
290
     1
176
     1
290
     1
176
     1
290
     0
176
     1
290
     0
176
     1
290
     0
176
     1
290
     0
176
     1
290
     0
176
     1
290
     0
176
     1
 90
       50
176
     1
 40
0.0
176
     1
 40
1.0
176
     1
 90
        0
176
     1
 62
    18
420
        0
176
     1
 90
       50
176
     1
 90
        3
176
     1
 62
     5
420
      255
176
     1
290
     0
176
     1
 90
       50
176
     1
 90
       50
176
     1
 90
       50
176
     1
290
     0
176
     1
 90
       50
176
     1
 62
   256
176
     0
 40
1.0
176
     0
 90
        2
176
     1
  1
strokes_ogs.tif
176
     1
290
     0
176
     1
 40
1.0
176
     1
 40
1.0
176
     1
  0
VISUALSTYLE
  5
2B
102
{ACAD_REACTORS
330
29
102
}
330
29
100
AcDbVisualStyle
  2
FlatWithEdges
 70
     1
177
     3
291
     1
 70
    58
 90
        2
176
     1
 90
        1
176
     1
 90
        1
176
     1
 90
        2
176
     1
 40
0.6
176
     1
 40
30.0
176
     1
 62
     7
420
 16777215
176
     1
 90
        1
176
     1
 90
        0
176
     1
 62
     7
176
     1
 62
   257
176
     1
 90
        1
176
     1
 90
        1
176
     1
 40
1.0
176
     1
 90
        0
176
     1
 62
   257
176
     1
 40
1.0
176
     1
 90
        1
176
     1
 90
        6
176
     1
 90
        2
176
     1
 62
     7
176
     1
 90
        5
176
     1
 90
        0
176
     1
 90
        0
176
     1
290
     0
176
     1
 90
       13
176
     1
 40
0.0
176
     1
 90
        0
176
     1
290
     0
176
     1
290
     1
176
     1
290
     1
176
     1
290
     0
176
     1
290
     0
176
     1
290
     0
176
     1
290
     0
176
     1
290
     0
176
     1
290
     0
176
     1
 90
       50
176
     1
 40
0.0
176
     1
 40
1.0
176
     1
 90
        0
176
     1
 62
    18
420
        0
176
     1
 90
       50
176
     1
 90
        3
176
     1
 62
     5
420
      255
176
     1
290
     0
176
     1
 90
       50
176
     1
 90
       50
176
     1
 90
       50
176
     1
290
     0
176
     1
 90
       50
176
     1
 62
   256
176
     0
 40
1.0
176
     0
 90
        2
176
     1
  1
strokes_ogs.tif
176
     1
290
     0
176
     1
 40
1.0
176
     1
 40
1.0
176
     1
  0
VISUALSTYLE
  5
2C
102
{ACAD_REACTORS
330
29
102
}
330
29
100
AcDbVisualStyle
  2
Gouraud
 70
     2
177
     3
291
     1
 70
    58
 90
        2
176
     1
 90
        2
176
     1
 90
        1
176
     1
 90
        2
176
     1
 40
0.6
176
     1
 40
30.0
176
     1
 62
     7
420
 16777215
176
     1
 90
        0
176
     1
 90
        0
176
     1
 62
     7
176
     1
 62
   257
176
     1
 90
        1
176
     1
 90
        1
176
     1
 40
1.0
176
     1
 90
        0
176
     1
 62
     7
176
     1
 40
1.0
176
     1
 90
        1
176
     1
 90
        6
176
     1
 90
        2
176
     1
 62
     7
176
     1
 90
        5
176
     1
 90
        0
176
     1
 90
        0
176
     1
290
     0
176
     1
 90
       13
176
     1
 40
0.0
176
     1
 90
        0
176
     1
290
     0
176
     1
290
     1
176
     1
290
     1
176
     1
290
     0
176
     1
290
     0
176
     1
290
     0
176
     1
290
     0
176
     1
290
     0
176
     1
290
     0
176
     1
 90
       50
176
     1
 40
0.0
176
     1
 40
1.0
176
     1
 90
        0
176
     1
 62
    18
420
        0
176
     1
 90
       50
176
     1
 90
        3
176
     1
 62
     5
420
      255
176
     1
290
     0
176
     1
 90
       50
176
     1
 90
       50
176
     1
 90
       50
176
     1
290
     0
176
     1
 90
       50
176
     1
 62
   256
176
     0
 40
1.0
176
     0
 90
        2
176
     1
  1
strokes_ogs.tif
176
     1
290
     0
176
     1
 40
1.0
176
     1
 40
1.0
176
     1
  0
VISUALSTYLE
  5
2D
102
{ACAD_REACTORS
330
29
102
}
330
29
100
AcDbVisualStyle
  2
GouraudWithEdges
 70
     3
177
     3
291
     1
 70
    58
 90
        2
176
     1
 90
        2
176
     1
 90
        1
176
     1
 90
        2
176
     1
 40
0.6
176
     1
 40
30.0
176
     1
 62
     7
420
 16777215
176
     1
 90
        1
176
     1
 90
        0
176
     1
 62
     7
176
     1
 62
   257
176
     1
 90
        1
176
     1
 90
        1
176
     1
 40
1.0
176
     1
 90
        0
176
     1
 62
   257
176
     1
 40
1.0
176
     1
 90
        1
176
     1
 90
        6
176
     1
 90
        2
176
     1
 62
     7
176
     1
 90
        5
176
     1
 90
        0
176
     1
 90
        0
176
     1
290
     0
176
     1
 90
       13
176
     1
 40
0.0
176
     1
 90
        0
176
     1
290
     0
176
     1
290
     1
176
     1
290
     1
176
     1
290
     0
176
     1
290
     0
176
     1
290
     0
176
     1
290
     0
176
     1
290
     0
176
     1
290
     0
176
     1
 90
       50
176
     1
 40
0.0
176
     1
 40
1.0
176
     1
 90
        0
176
     1
 62
    18
420
        0
176
     1
 90
       50
176
     1
 90
        3
176
     1
 62
     5
420
      255
176
     1
290
     0
176
     1
 90
       50
176
     1
 90
       50
176
     1
 90
       50
176
     1
290
     0
176
     1
 90
       50
176
     1
 62
   256
176
     0
 40
1.0
176
     0
 90
        2
176
     1
  1
strokes_ogs.tif
176
     1
290
     0
176
     1
 40
1.0
176
     1
 40
1.0
176
     1
  0
VISUALSTYLE
  5
31
102
{ACAD_REACTORS
330
29
102
}
330
29
100
AcDbVisualStyle
  2
Hidden
 70
     6
177
     3
291
     0
 70
    58
 90
        1
176
     1
 90
        2
176
     1
 90
        2
176
     1
 90
        0
176
     1
 40
0.6
176
     1
 40
30.0
176
     1
 62
     7
420
 16777215
176
     1
 90
        2
176
     1
 90
        2
176
     1
 62
     7
176
     1
 62
   257
176
     1
 90
        2
176
     1
 90
        1
176
     1
 40
40.0
176
     1
 90
        0
176
     1
 62
   257
176
     1
 40
1.0
176
     1
 90
        1
176
     1
 90
        6
176
     1
 90
        2
176
     1
 62
     7
176
     1
 90
        3
176
     1
 90
        0
176
     1
 90
        0
176
     1
290
     0
176
     1
 90
        1
176
     1
 40
0.0
176
     1
 90
        0
176
     1
290
     0
176
     1
290
     1
176
     1
290
     1
176
     1
290
     0
176
     1
290
     0
176
     1
290
     0
176
     1
290
     0
176
     1
290
     0
176
     1
290
     0
176
     1
 90
       50
176
     1
 40
0.0
176
     1
 40
1.0
176
     1
 90
        0
176
     1
 62
    18
420
        0
176
     1
 90
       50
176
     1
 90
        3
176
     1
 62
     5
420
      255
176
     1
290
     0
176
     1
 90
       50
176
     1
 90
       50
176
     1
 90
       50
176
     1
290
     0
176
     1
 90
       50
176
     1
 62
   256
176
     0
 40
1.0
176
     0
 90
        2
176
     1
  1
strokes_ogs.tif
176
     1
290
     0
176
     1
 40
1.0
176
     1
 40
1.0
176
     1
  0
VISUALSTYLE
  5
3F
102
{ACAD_REACTORS
330
29
102
}
330
29
100
AcDbVisualStyle
  2
JitterOff
 70
    20
177
     3
291
     1
 70
    58
 90
        2
176
     0
 90
        2
176
     0
 90
        0
176
     0
 90
        0
176
     0
 40
0.6
176
     0
 40
30.0
176
     0
 62
     7
420
 16777215
176
     0
 90
        1
176
     0
 90
        4
176
     0
 62
     7
176
     0
 62
   257
176
     0
 90
        1
176
     0
 90
        1
176
     0
 40
1.0
176
     0
 90
       10
176
     2
 62
     7
176
     0
 40
1.0
176
     0
 90
        1
176
     0
 90
        6
176
     0
 90
        2
176
     0
 62
     7
176
     0
 90
        5
176
     0
 90
        0
176
     0
 90
        0
176
     0
290
     0
176
     0
 90
        1
176
     0
 40
0.0
176
     0
 90
        0
176
     0
290
     0
176
     0
290
     1
176
     0
290
     1
176
     0
290
     0
176
     0
290
     0
176
     0
290
     0
176
     0
290
     0
176
     0
290
     0
176
     0
290
     0
176
     0
 90
       50
176
     0
 40
0.0
176
     0
 40
1.0
176
     0
 90
        0
176
     0
 62
    18
420
        0
176
     0
 90
       50
176
     0
 90
        3
176
     0
 62
     5
420
      255
176
     0
290
     0
176
     0
 90
       50
176
     0
 90
       50
176
     0
 90
       50
176
     0
290
     0
176
     0
 90
       50
176
     0
 62
   256
176
     0
 40
1.0
176
     0
 90
        2
176
     0
  1
strokes_ogs.tif
176
     0
290
     0
176
     0
 40
1.0
176
     0
 40
1.0
176
     0
  0
VISUALSTYLE
  5
37
102
{ACAD_REACTORS
330
29
102
}
330
29
100
AcDbVisualStyle
  2
Linepattern
 70
    14
177
     3
291
     1
 70
    58
 90
        2
176
     1
 90
        2
176
     1
 90
        0
176
     1
 90
        0
176
     1
 40
0.6
176
     1
 40
30.0
176
     1
 62
     7
420
 16777215
176
     1
 90
        1
176
     1
 90
        4
176
     1
 62
     7
176
     1
 62
   257
176
     1
 90
        7
176
     1
 90
        7
176
     1
 40
1.0
176
     1
 90
        8
176
     1
 62
     7
176
     1
 40
1.0
176
     1
 90
        1
176
     1
 90
        6
176
     1
 90
        2
176
     1
 62
     7
176
     1
 90
        5
176
     1
 90
        0
176
     1
 90
        0
176
     1
290
     0
176
     1
 90
        1
176
     1
 40
0.0
176
     1
 90
        0
176
     1
290
     0
176
     1
290
     1
176
     1
290
     1
176
     1
290
     0
176
     1
290
     0
176
     1
290
     0
176
     1
290
     0
176
     1
290
     0
176
     1
290
     0
176
     1
 90
       50
176
     1
 40
0.0
176
     1
 40
1.0
176
     1
 90
        0
176
     1
 62
    18
420
        0
176
     1
 90
       50
176
     1
 90
        3
176
     1
 62
     5
420
      255
176
     1
290
     0
176
     1
 90
       50
176
     1
 90
       50
176
     1
 90
       50
176
     1
290
     0
176
     1
 90
       50
176
     1
 62
   256
176
     0
 40
1.0
176
     0
 90
        2
176
     1
  1
strokes_ogs.tif
176
     1
290
     0
176
     1
 40
1.0
176
     1
 40
1.0
176
     1
  0
VISUALSTYLE
  5
40
102
{ACAD_REACTORS
330
29
102
}
330
29
100
AcDbVisualStyle
  2
OverhangOff
 70
    21
177
     3
291
     1
 70
    58
 90
        2
176
     0
 90
        2
176
     0
 90
        0
176
     0
 90
        0
176
     0
 40
0.6
176
     0
 40
30.0
176
     0
 62
     7
420
 16777215
176
     0
 90
        1
176
     0
 90
        4
176
     0
 62
     7
176
     0
 62
   257
176
     0
 90
        1
176
     0
 90
        1
176
     0
 40
1.0
176
     0
 90
        9
176
     2
 62
     7
176
     0
 40
1.0
176
     0
 90
        1
176
     0
 90
        6
176
     0
 90
        2
176
     0
 62
     7
176
     0
 90
        5
176
     0
 90
        0
176
     0
 90
        0
176
     0
290
     0
176
     0
 90
        1
176
     0
 40
0.0
176
     0
 90
        0
176
     0
290
     0
176
     0
290
     1
176
     0
290
     1
176
     0
290
     0
176
     0
290
     0
176
     0
290
     0
176
     0
290
     0
176
     0
290
     0
176
     0
290
     0
176
     0
 90
       50
176
     0
 40
0.0
176
     0
 40
1.0
176
     0
 90
        0
176
     0
 62
    18
420
        0
176
     0
 90
       50
176
     0
 90
        3
176
     0
 62
     5
420
      255
176
     0
290
     0
176
     0
 90
       50
176
     0
 90
       50
176
     0
 90
       50
176
     0
290
     0
176
     0
 90
       50
176
     0
 62
   256
176
     0
 40
1.0
176
     0
 90
        2
176
     0
  1
strokes_ogs.tif
176
     0
290
     0
176
     0
 40
1.0
176
     0
 40
1.0
176
     0
  0
VISUALSTYLE
  5
33
102
{ACAD_REACTORS
330
29
102
}
330
29
100
AcDbVisualStyle
  2
Realistic
 70
     8
177
     3
291
     0
 70
    58
 90
        2
176
     1
 90
        3
176
     1
 90
        0
176
     1
 90
        2
176
     1
 40
0.6
176
     1
 40
30.0
176
     1
 62
     7
420
 16777215
176
     1
 90
        0
176
     1
 90
        0
176
     1
 62
     7
176
     1
 62
   257
176
     1
 90
        1
176
     1
 90
        1
176
     1
 40
1.0
176
     1
 90
        8
176
     1
 62
   257
176
     1
 40
1.0
176
     1
 90
        1
176
     1
 90
        6
176
     1
 90
        2
176
     1
 62
     7
176
     1
 90
        3
176
     1
 90
        0
176
     1
 90
        0
176
     1
290
     0
176
     1
 90
       13
176
     1
 40
0.0
176
     1
 90
        0
176
     1
290
     0
176
     1
290
     1
176
     1
290
     1
176
     1
290
     0
176
     1
290
     0
176
     1
290
     0
176
     1
290
     0
176
     1
290
     0
176
     1
290
     0
176
     1
 90
       50
176
     1
 40
0.0
176
     1
 40
1.0
176
     1
 90
        0
176
     1
 62
    18
420
        0
176
     1
 90
       50
176
     1
 90
        3
176
     1
 62
     5
420
      255
176
     1
290
     0
176
     1
 90
       50
176
     1
 90
       50
176
     1
 90
       50
176
     1
290
     0
176
     1
 90
       50
176
     1
 62
   256
176
     0
 40
1.0
176
     0
 90
        2
176
     1
  1
strokes_ogs.tif
176
     1
290
     0
176
     1
 40
1.0
176
     1
 40
1.0
176
     1
  0
VISUALSTYLE
  5
3E
102
{ACAD_REACTORS
330
29
102
}
330
29
100
AcDbVisualStyle
  2
Shaded
 70
    27
177
     3
291
     0
 70
    58
 90
        2
176
     1
 90
        2
176
     1
 90
        1
176
     1
 90
        2
176
     1
 40
0.6
176
     1
 40
30.0
176
     1
 62
     7
420
 16777215
176
     1
 90
        0
176
     1
 90
        4
176
     1
 62
     7
176
     1
 62
   257
176
     1
 90
        1
176
     1
 90
        1
176
     1
 40
1.0
176
     1
 90
        8
176
     1
 62
   257
176
     1
 40
1.0
176
     1
 90
        1
176
     1
 90
        6
176
     1
 90
        2
176
     1
 62
     8
420
  7895160
176
     1
 90
        3
176
     1
 90
        0
176
     1
 90
        0
176
     1
290
     0
176
     1
 90
        5
176
     1
 40
0.0
176
     1
 90
        0
176
     1
290
     0
176
     1
290
     1
176
     1
290
     1
176
     1
290
     0
176
     1
290
     0
176
     1
290
     0
176
     1
290
     0
176
     1
290
     0
176
     1
290
     0
176
     1
 90
       50
176
     1
 40
0.0
176
     1
 40
1.0
176
     1
 90
        0
176
     1
 62
    18
420
        0
176
     1
 90
       50
176
     1
 90
        3
176
     1
 62
     5
420
      255
176
     1
290
     0
176
     1
 90
       50
176
     1
 90
       50
176
     1
 90
       50
176
     1
290
     0
176
     1
 90
       50
176
     1
 62
   256
176
     0
 40
1.0
176
     0
 90
        2
176
     1
  1
strokes_ogs.tif
176
     1
290
     0
176
     1
 40
1.0
176
     1
 40
1.0
176
     1
  0
VISUALSTYLE
  5
3D
102
{ACAD_REACTORS
330
29
102
}
330
29
100
AcDbVisualStyle
  2
Shaded with edges
 70
    26
177
     3
291
     0
 70
    58
 90
        2
176
     1
 90
        2
176
     1
 90
        1
176
     1
 90
        2
176
     1
 40
0.6
176
     1
 40
30.0
176
     1
 62
     7
420
 16777215
176
     1
 90
        1
176
     1
 90
        2
176
     1
 62
     7
176
     1
 62
   257
176
     1
 90
        2
176
     1
 90
        1
176
     1
 40
1.0
176
     1
 90
        8
176
     1
 62
   257
176
     1
 40
1.0
176
     1
 90
        1
176
     1
 90
        6
176
     1
 90
        2
176
     1
 62
     7
176
     1
 90
        3
176
     1
 90
        0
176
     1
 90
        0
176
     1
290
     0
176
     1
 90
        5
176
     1
 40
0.0
176
     1
 90
        0
176
     1
290
     0
176
     1
290
     1
176
     1
290
     1
176
     1
290
     0
176
     1
290
     0
176
     1
290
     0
176
     1
290
     0
176
     1
290
     0
176
     1
290
     0
176
     1
 90
       50
176
     1
 40
0.0
176
     1
 40
1.0
176
     1
 90
        0
176
     1
 62
    18
420
        0
176
     1
 90
       50
176
     1
 90
        3
176
     1
 62
     5
420
      255
176
     1
290
     0
176
     1
 90
       50
176
     1
 90
       50
176
     1
 90
       50
176
     1
290
     0
176
     1
 90
       50
176
     1
 62
   256
176
     0
 40
1.0
176
     0
 90
        2
176
     1
  1
strokes_ogs.tif
176
     1
290
     0
176
     1
 40
1.0
176
     1
 40
1.0
176
     1
  0
VISUALSTYLE
  5
3A
102
{ACAD_REACTORS
330
29
102
}
330
29
100
AcDbVisualStyle
  2
Shades of Gray
 70
    23
177
     3
291
     0
 70
    58
 90
        2
176
     1
 90
        2
176
     1
 90
        3
176
     1
 90
        0
176
     1
 40
0.6
176
     1
 40
30.0
176
     1
 62
     7
420
 16777215
176
     1
 90
        2
176
     1
 90
        2
176
     1
 62
     7
176
     1
 62
     7
176
     1
 90
        1
176
     1
 90
        1
176
     1
 40
40.0
176
     1
 90
        8
176
     1
 62
     7
176
     1
 40
1.0
176
     1
 90
        1
176
     1
 90
        6
176
     1
 90
        2
176
     1
 62
     7
176
     1
 90
        3
176
     1
 90
        0
176
     1
 90
        0
176
     1
290
     0
176
     1
 90
        1
176
     1
 40
0.0
176
     1
 90
        0
176
     1
290
     0
176
     1
290
     1
176
     1
290
     1
176
     1
290
     0
176
     1
290
     0
176
     1
290
     0
176
     1
290
     0
176
     1
290
     0
176
     1
290
     0
176
     1
 90
       50
176
     1
 40
0.0
176
     1
 40
1.0
176
     1
 90
        0
176
     1
 62
    18
420
        0
176
     1
 90
       50
176
     1
 90
        3
176
     1
 62
     5
420
      255
176
     1
290
     0
176
     1
 90
       50
176
     1
 90
       50
176
     1
 90
       50
176
     1
290
     0
176
     1
 90
       50
176
     1
 62
   256
176
     0
 40
1.0
176
     0
 90
        2
176
     1
  1
strokes_ogs.tif
176
     1
290
     0
176
     1
 40
1.0
176
     1
 40
1.0
176
     1
  0
VISUALSTYLE
  5
3B
102
{ACAD_REACTORS
330
29
102
}
330
29
100
AcDbVisualStyle
  2
Sketchy
 70
    24
177
     3
291
     0
 70
    58
 90
        1
176
     1
 90
        2
176
     1
 90
        2
176
     1
 90
        0
176
     1
 40
0.6
176
     1
 40
30.0
176
     1
 62
     7
420
 16777215
176
     1
 90
        2
176
     1
 90
        2
176
     1
 62
     7
176
     1
 62
     7
176
     1
 90
        1
176
     1
 90
        1
176
     1
 40
40.0
176
     1
 90
       11
176
     1
 62
     7
176
     1
 40
1.0
176
     1
 90
        1
176
     1
 90
        6
176
     1
 90
        2
176
     1
 62
     7
176
     1
 90
        6
176
     1
 90
        0
176
     1
 90
        0
176
     1
290
     0
176
     1
 90
        1
176
     1
 40
0.0
176
     1
 90
        0
176
     1
290
     0
176
     1
290
     1
176
     1
290
     1
176
     1
290
     0
176
     1
290
     0
176
     1
290
     0
176
     1
290
     0
176
     1
290
     0
176
     1
290
     0
176
     1
 90
       50
176
     1
 40
0.0
176
     1
 40
1.0
176
     1
 90
        0
176
     1
 62
    18
420
        0
176
     1
 90
       50
176
     1
 90
        3
176
     1
 62
     5
420
      255
176
     1
290
     0
176
     1
 90
       50
176
     1
 90
       50
176
     1
 90
       50
176
     1
290
     0
176
     1
 90
       50
176
     1
 62
   256
176
     0
 40
1.0
176
     0
 90
        2
176
     1
  1
strokes_ogs.tif
176
     1
290
     0
176
     1
 40
1.0
176
     1
 40
1.0
176
     1
  0
VISUALSTYLE
  5
36
102
{ACAD_REACTORS
330
29
102
}
330
29
100
AcDbVisualStyle
  2
Thicken
 70
    13
177
     3
291
     1
 70
    58
 90
        2
176
     1
 90
        2
176
     1
 90
        0
176
     1
 90
        0
176
     1
 40
0.6
176
     1
 40
30.0
176
     1
 62
     7
420
 16777215
176
     1
 90
        1
176
     1
 90
        4
176
     1
 62
     7
176
     1
 62
   257
176
     1
 90
        1
176
     1
 90
        1
176
     1
 40
1.0
176
     1
 90
       12
176
     1
 62
     7
176
     1
 40
1.0
176
     1
 90
        1
176
     1
 90
        6
176
     1
 90
        2
176
     1
 62
     7
176
     1
 90
        5
176
     1
 90
        0
176
     1
 90
        0
176
     1
290
     0
176
     1
 90
        1
176
     1
 40
0.0
176
     1
 90
        0
176
     1
290
     0
176
     1
290
     1
176
     1
290
     1
176
     1
290
     0
176
     1
290
     0
176
     1
290
     0
176
     1
290
     0
176
     1
290
     0
176
     1
290
     0
176
     1
 90
       50
176
     1
 40
0.0
176
     1
 40
1.0
176
     1
 90
        0
176
     1
 62
    18
420
        0
176
     1
 90
       50
176
     1
 90
        3
176
     1
 62
     5
420
      255
176
     1
290
     0
176
     1
 90
       50
176
     1
 90
       50
176
     1
 90
       50
176
     1
290
     0
176
     1
 90
       50
176
     1
 62
   256
176
     0
 40
1.0
176
     0
 90
        2
176
     1
  1
strokes_ogs.tif
176
     1
290
     0
176
     1
 40
1.0
176
     1
 40
1.0
176
     1
  0
VISUALSTYLE
  5
30
102
{ACAD_REACTORS
330
29
102
}
330
29
100
AcDbVisualStyle
  2
Wireframe
 70
     5
177
     3
291
     0
 70
    58
 90
        0
176
     1
 90
        2
176
     1
 90
        0
176
     1
 90
        0
176
     1
 40
0.6
176
     1
 40
30.0
176
     1
 62
     7
420
 16777215
176
     1
 90
        1
176
     1
 90
        4
176
     1
 62
     7
176
     1
 62
   257
176
     1
 90
        1
176
     1
 90
        1
176
     1
 40
1.0
176
     1
 90
        0
176
     1
 62
   257
176
     1
 40
1.0
176
     1
 90
        1
176
     1
 90
        6
176
     1
 90
        2
176
     1
 62
     7
176
     1
 90
        3
176
     1
 90
        0
176
     1
 90
        0
176
     1
290
     0
176
     1
 90
        1
176
     1
 40
0.0
176
     1
 90
        0
176
     1
290
     0
176
     1
290
     1
176
     1
290
     1
176
     1
290
     0
176
     1
290
     0
176
     1
290
     0
176
     1
290
     0
176
     1
290
     0
176
     1
290
     0
176
     1
 90
       50
176
     1
 40
0.0
176
     1
 40
1.0
176
     1
 90
        0
176
     1
 62
    18
420
        0
176
     1
 90
       50
176
     1
 90
        3
176
     1
 62
     5
420
      255
176
     1
290
     0
176
     1
 90
       50
176
     1
 90
       50
176
     1
 90
       50
176
     1
290
     0
176
     1
 90
       50
176
     1
 62
   256
176
     0
 40
1.0
176
     0
 90
        2
176
     1
  1
strokes_ogs.tif
176
     1
290
     0
176
     1
 40
1.0
176
     1
 40
1.0
176
     1
  0
VISUALSTYLE
  5
3C
102
{ACAD_REACTORS
330
29
102
}
330
29
100
AcDbVisualStyle
  2
X-Ray
 70
    25
177
     3
291
     0
 70
    58
 90
        2
176
     1
 90
        2
176
     1
 90
        1
176
     1
 90
        1
176
     1
 40
0.5
176
     1
 40
30.0
176
     1
 62
     7
420
 16777215
176
     1
 90
        1
176
     1
 90
        0
176
     1
 62
     7
176
     1
 62
   257
176
     1
 90
        1
176
     1
 90
        1
176
     1
 40
1.0
176
     1
 90
        8
176
     1
 62
     7
176
     1
 40
1.0
176
     1
 90
        1
176
     1
 90
        6
176
     1
 90
        2
176
     1
 62
     7
176
     1
 90
        3
176
     1
 90
        0
176
     1
 90
        0
176
     1
290
     0
176
     1
 90
       13
176
     1
 40
0.0
176
     1
 90
        0
176
     1
290
     0
176
     1
290
     1
176
     1
290
     1
176
     1
290
     0
176
     1
290
     0
176
     1
290
     0
176
     1
290
     0
176
     1
290
     0
176
     1
290
     0
176
     1
 90
       50
176
     1
 40
0.0
176
     1
 40
1.0
176
     1
 90
        0
176
     1
 62
    18
420
        0
176
     1
 90
       50
176
     1
 90
        3
176
     1
 62
     5
420
      255
176
     1
290
     0
176
     1
 90
       50
176
     1
 90
       50
176
     1
 90
       50
176
     1
290
     0
176
     1
 90
       50
176
     1
 62
   256
176
     0
 40
1.0
176
     0
 90
        2
176
     1
  1
strokes_ogs.tif
176
     1
290
     0
176
     1
 40
1.0
176
     1
 40
1.0
176
     1
  0
DICTIONARYVAR
  5
B7
102
{ACAD_REACTORS
330
B2
102
}
330
B2
100
DictionaryVariables
280
     0
  1
1:1
  0
DICTIONARYVAR
  5
B4
102
{ACAD_REACTORS
330
B2
102
}
330
B2
100
DictionaryVariables
280
     0
  1
STANDARD
  0
DICTIONARYVAR
  5
B3
102
{ACAD_REACTORS
330
B2
102
}
330
B2
100
DictionaryVariables
280
     0
  1
STANDARD
  0
DICTIONARYVAR
  5
B5
102
{ACAD_REACTORS
330
B2
102
}
330
B2
100
DictionaryVariables
280
     0
  1
Imperial24
  0
DICTIONARYVAR
  5
B6
102
{ACAD_REACTORS
330
B2
102
}
330
B2
100
DictionaryVariables
280
     0
  1
Imperial24
  0
DICTIONARY
  5
1A
330
19
100
AcDbDictionary
280
     1
281
     1
  3
BUMPTILE
360
1C
  3
DIFFUSETILE
360
1B
  3
OPACITYTILE
360
1F
  3
REFLECTIONTILE
360
1E
  3
REFRACTIONTILE
360
20
  3
SPECULARTILE
360
1D
  0
DICTIONARY
  5
12
330
11
100
AcDbDictionary
280
     1
281
     1
  3
BUMPTILE
360
14
  3
DIFFUSETILE
360
13
  3
OPACITYTILE
360
17
  3
REFLECTIONTILE
360
16
  3
REFRACTIONTILE
360
18
  3
SPECULARTILE
360
15
  0
DICTIONARY
  5
22
330
21
100
AcDbDictionary
280
     1
281
     1
  3
BUMPTILE
360
24
  3
DIFFUSETILE
360
23
  3
OPACITYTILE
360
27
  3
REFLECTIONTILE
360
26
  3
REFRACTIONTILE
360
28
  3
SPECULARTILE
360
25
  0
DICTIONARY
  5
B8
330
65
100
AcDbDictionary
280
     1
281
     1
  3
ACAD_ROUNDTRIP_2008_TABLESTYLE_CELLSTYLEMAP
360
B9
  0
XRECORD
  5
1C
102
{ACAD_REACTORS
330
1A
102
}
330
1A
100
AcDbXrecord
280
     1
270
     1
271
     1
  0
XRECORD
  5
1B
102
{ACAD_REACTORS
330
1A
102
}
330
1A
100
AcDbXrecord
280
     1
270
     1
271
     1
  0
XRECORD
  5
1F
102
{ACAD_REACTORS
330
1A
102
}
330
1A
100
AcDbXrecord
280
     1
270
     1
271
     1
  0
XRECORD
  5
1E
102
{ACAD_REACTORS
330
1A
102
}
330
1A
100
AcDbXrecord
280
     1
270
     1
271
     1
  0
XRECORD
  5
20
102
{ACAD_REACTORS
330
1A
102
}
330
1A
100
AcDbXrecord
280
     1
270
     1
271
     1
  0
XRECORD
  5
1D
102
{ACAD_REACTORS
330
1A
102
}
330
1A
100
AcDbXrecord
280
     1
270
     1
271
     1
  0
XRECORD
  5
14
102
{ACAD_REACTORS
330
12
102
}
330
12
100
AcDbXrecord
280
     1
270
     1
271
     1
  0
XRECORD
  5
13
102
{ACAD_REACTORS
330
12
102
}
330
12
100
AcDbXrecord
280
     1
270
     1
271
     1
  0
XRECORD
  5
17
102
{ACAD_REACTORS
330
12
102
}
330
12
100
AcDbXrecord
280
     1
270
     1
271
     1
  0
XRECORD
  5
16
102
{ACAD_REACTORS
330
12
102
}
330
12
100
AcDbXrecord
280
     1
270
     1
271
     1
  0
XRECORD
  5
18
102
{ACAD_REACTORS
330
12
102
}
330
12
100
AcDbXrecord
280
     1
270
     1
271
     1
  0
XRECORD
  5
15
102
{ACAD_REACTORS
330
12
102
}
330
12
100
AcDbXrecord
280
     1
270
     1
271
     1
  0
XRECORD
  5
24
102
{ACAD_REACTORS
330
22
102
}
330
22
100
AcDbXrecord
280
     1
270
     1
271
     1
  0
XRECORD
  5
23
102
{ACAD_REACTORS
330
22
102
}
330
22
100
AcDbXrecord
280
     1
270
     1
271
     1
  0
XRECORD
  5
27
102
{ACAD_REACTORS
330
22
102
}
330
22
100
AcDbXrecord
280
     1
270
     1
271
     1
  0
XRECORD
  5
26
102
{ACAD_REACTORS
330
22
102
}
330
22
100
AcDbXrecord
280
     1
270
     1
271
     1
  0
XRECORD
  5
28
102
{ACAD_REACTORS
330
22
102
}
330
22
100
AcDbXrecord
280
     1
270
     1
271
     1
  0
XRECORD
  5
25
102
{ACAD_REACTORS
330
22
102
}
330
22
100
AcDbXrecord
280
     1
270
     1
271
     1
  0
CELLSTYLEMAP
  5
B9
102
{ACAD_REACTORS
330
B8
102
}
330
B8
100
AcDbCellStyleMap
 90
        3
300
CELLSTYLE
  1
TABLEFORMAT_BEGIN
 90
        5
170
     1
 91
        0
 92
    32768
 62
   257
 93
        1
300
CONTENTFORMAT
  1
CONTENTFORMAT_BEGIN
 90
        0
 91
        0
 92
      512
 93
        0
300

 40
0.0
140
1.0
 94
        5
 62
     0
340
55
144
0.25
309
CONTENTFORMAT_END
171
     0
 94
        0
309
TABLEFORMAT_END
  1
CELLSTYLE_BEGIN
 90
        1
 91
        1
300
_TITLE
309
CELLSTYLE_END
300
CELLSTYLE
  1
TABLEFORMAT_BEGIN
 90
        5
170
     1
 91
        0
 92
        0
 62
   257
 93
        1
300
CONTENTFORMAT
  1
CONTENTFORMAT_BEGIN
 90
        0
 91
        0
 92
      512
 93
        0
300

 40
0.0
140
1.0
 94
        5
 62
     0
340
55
144
0.18
309
CONTENTFORMAT_END
171
     0
 94
        0
309
TABLEFORMAT_END
  1
CELLSTYLE_BEGIN
 90
        2
 91
        1
300
_HEADER
309
CELLSTYLE_END
300
CELLSTYLE
  1
TABLEFORMAT_BEGIN
 90
        5
170
     1
 91
        0
 92
        0
 62
   257
 93
        1
300
CONTENTFORMAT
  1
CONTENTFORMAT_BEGIN
 90
        0
 91
        0
 92
      512
 93
        0
300

 40
0.0
140
1.0
 94
        2
 62
     0
340
55
144
0.18
309
CONTENTFORMAT_END
171
     0
 94
        0
309
TABLEFORMAT_END
  1
CELLSTYLE_BEGIN
 90
        3
 91
        2
300
_DATA
309
CELLSTYLE_END
  0
ENDSEC
  0
EOF
