  0
SECTION
  2
HEADER
  9
$ACADVER
  1
AC1032
  9
$ACADMAINTVER
 90
      228
  9
$DWGCODEPAGE
  3
ANSI_1252
  9
$REQUIREDVERSIONS
160
                 0
  9
$INSBASE
 10
0.0
 20
0.0
 30
0.0
  9
$EXTMIN
 10
1.000000000000000E+20
 20
1.000000000000000E+20
 30
1.000000000000000E+20
  9
$EXTMAX
 10
-1.000000000000000E+20
 20
-1.000000000000000E+20
 30
-1.000000000000000E+20
  9
$LIMMIN
 10
0.0
 20
0.0
  9
$LIMMAX
 10
12.0
 20
9.0
  9
$ORTHOMODE
 70
     0
  9
$REGENMODE
 70
     1
  9
$FILLMODE
 70
     1
  9
$QTEXTMODE
 70
     0
  9
$MIRRTEXT
 70
     0
  9
$LTSCALE
 40
1.0
  9
$ATTMODE
 70
     1
  9
$TEXTSIZE
 40
0.2
  9
$TRACEWID
 40
0.05
  9
$TEXTSTYLE
  7
Standard
  9
$CLAYER
  8
0
  9
$CELTYPE
  6
ByLayer
  9
$CECOLOR
 62
   256
  9
$CELTSCALE
 40
1.0
  9
$DISPSILH
 70
     0
  9
$DIMSCALE
 40
1.0
  9
$DIMASZ
 40
0.18
  9
$DIMEXO
 40
0.0625
  9
$DIMDLI
 40
0.38
  9
$DIMRND
 40
0.0
  9
$DIMDLE
 40
0.0
  9
$DIMEXE
 40
0.18
  9
$DIMTP
 40
0.0
  9
$DIMTM
 40
0.0
  9
$DIMTXT
 40
0.18
  9
$DIMCEN
 40
0.09
  9
$DIMTSZ
 40
0.0
  9
$DIMTOL
 70
     0
  9
$DIMLIM
 70
     0
  9
$DIMTIH
 70
     1
  9
$DIMTOH
 70
     1
  9
$DIMSE1
 70
     0
  9
$DIMSE2
 70
     0
  9
$DIMTAD
 70
     0
  9
$DIMZIN
 70
     0
  9
$DIMBLK
  1

  9
$DIMASO
 70
     1
  9
$DIMSHO
 70
     1
  9
$DIMPOST
  1

  9
$DIMAPOST
  1

  9
$DIMALT
 70
     0
  9
$DIMALTD
 70
     2
  9
$DIMALTF
 40
25.4
  9
$DIMLFAC
 40
1.0
  9
$DIMTOFL
 70
     0
  9
$DIMTVP
 40
0.0
  9
$DIMTIX
 70
     0
  9
$DIMSOXD
 70
     0
  9
$DIMSAH
 70
     0
  9
$DIMBLK1
  1

  9
$DIMBLK2
  1

  9
$DIMSTYLE
  2
Standard
  9
$DIMCLRD
 70
     0
  9
$DIMCLRE
 70
     0
  9
$DIMCLRT
 70
     0
  9
$DIMTFAC
 40
1.0
  9
$DIMGAP
 40
0.09
  9
$DIMJUST
 70
     0
  9
$DIMSD1
 70
     0
  9
$DIMSD2
 70
     0
  9
$DIMTOLJ
 70
     1
  9
$DIMTZIN
 70
     0
  9
$DIMALTZ
 70
     0
  9
$DIMALTTZ
 70
     0
  9
$DIMUPT
 70
     0
  9
$DIMDEC
 70
     4
  9
$DIMTDEC
 70
     4
  9
$DIMALTU
 70
     2
  9
$DIMALTTD
 70
     2
  9
$DIMTXSTY
  7
Standard
  9
$DIMAUNIT
 70
     0
  9
$DIMADEC
 70
     0
  9
$DIMALTRND
 40
0.0
  9
$DIMAZIN
 70
     0
  9
$DIMDSEP
 70
    46
  9
$DIMATFIT
 70
     3
  9
$DIMFRAC
 70
     0
  9
$DIMLDRBLK
  1

  9
$DIMLUNIT
 70
     2
  9
$DIMLWD
 70
    -2
  9
$DIMLWE
 70
    -2
  9
$DIMTMOVE
 70
     0
  9
$DIMFXL
 40
1.0
  9
$DIMFXLON
 70
     0
  9
$DIMJOGANG
 40
0.7853981633974483
  9
$DIMTFILL
 70
     0
  9
$DIMTFILLCLR
 70
     0
  9
$DIMARCSYM
 70
     0
  9
$DIMLTYPE
  6

  9
$DIMLTEX1
  6

  9
$DIMLTEX2
  6

  9
$DIMTXTDIRECTION
 70
     0
  9
$LUNITS
 70
     2
  9
$LUPREC
 70
     4
  9
$SKETCHINC
 40
0.1
  9
$FILLETRAD
 40
0.0
  9
$AUNITS
 70
     0
  9
$AUPREC
 70
     0
  9
$MENU
  1
.
  9
$ELEVATION
 40
0.0
  9
$PELEVATION
 40
0.0
  9
$THICKNESS
 40
0.0
  9
$LIMCHECK
 70
     0
  9
$CHAMFERA
 40
0.0
  9
$CHAMFERB
 40
0.0
  9
$CHAMFERC
 40
0.0
  9
$CHAMFERD
 40
0.0
  9
$SKPOLY
 70
     0
  9
$TDCREATE
 40
2460331.675729167
  9
$TDUCREATE
 40
2460332.009062501
  9
$TDUPDATE
 40
2460331.675729167
  9
$TDUUPDATE
 40
2460332.009062501
  9
$TDINDWG
 40
0.0000000000
  9
$TDUSRTIMER
 40
0.0000000000
  9
$USRTIMER
 70
     1
  9
$ANGBASE
 50
0.0
  9
$ANGDIR
 70
     0
  9
$PDMODE
 70
     0
  9
$PDSIZE
 40
0.0
  9
$PLINEWID
 40
0.0
  9
$SPLFRAME
 70
     0
  9
$SPLINETYPE
 70
     6
  9
$SPLINESEGS
 70
     8
  9
$HANDSEED
  5
8E
  9
$SURFTAB1
 70
     6
  9
$SURFTAB2
 70
     6
  9
$SURFTYPE
 70
     6
  9
$SURFU
 70
     6
  9
$SURFV
 70
     6
  9
$UCSBASE
  2

  9
$UCSNAME
  2

  9
$UCSORG
 10
0.0
 20
0.0
 30
0.0
  9
$UCSXDIR
 10
1.0
 20
0.0
 30
0.0
  9
$UCSYDIR
 10
0.0
 20
1.0
 30
0.0
  9
$UCSORTHOREF
  2

  9
$UCSORTHOVIEW
 70
     0
  9
$UCSORGTOP
 10
0.0
 20
0.0
 30
0.0
  9
$UCSORGBOTTOM
 10
0.0
 20
0.0
 30
0.0
  9
$UCSORGLEFT
 10
0.0
 20
0.0
 30
0.0
  9
$UCSORGRIGHT
 10
0.0
 20
0.0
 30
0.0
  9
$UCSORGFRONT
 10
0.0
 20
0.0
 30
0.0
  9
$UCSORGBACK
 10
0.0
 20
0.0
 30
0.0
  9
$PUCSBASE
  2

  9
$PUCSNAME
  2

  9
$PUCSORG
 10
0.0
 20
0.0
 30
0.0
  9
$PUCSXDIR
 10
1.0
 20
0.0
 30
0.0
  9
$PUCSYDIR
 10
0.0
 20
1.0
 30
0.0
  9
$PUCSORTHOREF
  2

  9
$PUCSORTHOVIEW
 70
     0
  9
$PUCSORGTOP
 10
0.0
 20
0.0
 30
0.0
  9
$PUCSORGBOTTOM
 10
0.0
 20
0.0
 30
0.0
  9
$PUCSORGLEFT
 10
0.0
 20
0.0
 30
0.0
  9
$PUCSORGRIGHT
 10
0.0
 20
0.0
 30
0.0
  9
$PUCSORGFRONT
 10
0.0
 20
0.0
 30
0.0
  9
$PUCSORGBACK
 10
0.0
 20
0.0
 30
0.0
  9
$USERI1
 70
     0
  9
$USERI2
 70
     0
  9
$USERI3
 70
     0
  9
$USERI4
 70
     0
  9
$USERI5
 70
     0
  9
$USERR1
 40
0.0
  9
$USERR2
 40
0.0
  9
$USERR3
 40
0.0
  9
$USERR4
 40
0.0
  9
$USERR5
 40
0.0
  9
$WORLDVIEW
 70
     1
  9
$SHADEDGE
 70
     3
  9
$SHADEDIF
 70
    70
  9
$TILEMODE
 70
     1
  9
$MAXACTVP
 70
    64
  9
$PINSBASE
 10
0.0
 20
0.0
 30
0.0
  9
$PLIMCHECK
 70
     0
  9
$PEXTMIN
 10
1.000000000000000E+20
 20
1.000000000000000E+20
 30
1.000000000000000E+20
  9
$PEXTMAX
 10
-1.000000000000000E+20
 20
-1.000000000000000E+20
 30
-1.000000000000000E+20
  9
$PLIMMIN
 10
0.0
 20
0.0
  9
$PLIMMAX
 10
12.0
 20
9.0
  9
$UNITMODE
 70
     0
  9
$VISRETAIN
 70
     1
  9
$PLINEGEN
 70
     0
  9
$PSLTSCALE
 70
     1
  9
$TREEDEPTH
 70
  3020
  9
$CMLSTYLE
  2
Standard
  9
$CMLJUST
 70
     0
  9
$CMLSCALE
 40
1.0
  9
$PROXYGRAPHICS
 70
     1
  9
$MEASUREMENT
 70
     0
  9
$CELWEIGHT
370
    -1
  9
$ENDCAPS
280
     0
  9
$JOINSTYLE
280
     0
  9
$LWDISPLAY
290
     1
  9
$INSUNITS
 70
     1
  9
$HYPERLINKBASE
  1

  9
$STYLESHEET
  1

  9
$XEDIT
290
     1
  9
$CEPSNTYPE
380
     0
  9
$PSTYLEMODE
290
     1
  9
$FINGERPRINTGUID
  2
{6253C6A5-4377-9B4C-9B6D-54BEC4ED07AF}
  9
$VERSIONGUID
  2
{C0E0EF6B-4BCB-4746-A47B-65380A2F05C3}
  9
$EXTNAMES
290
     1
  9
$PSVPSCALE
 40
0.0
  9
$OLESTARTUP
290
     0
  9
$SORTENTS
280
   127
  9
$INDEXCTL
280
     0
  9
$HIDETEXT
280
     1
  9
$XCLIPFRAME
280
     2
  9
$HALOGAP
280
     0
  9
$OBSCOLOR
 70
   257
  9
$OBSLTYPE
280
     0
  9
$INTERSECTIONDISPLAY
280
     0
  9
$INTERSECTIONCOLOR
 70
   257
  9
$DIMASSOC
280
     2
  9
$PROJECTNAME
  1

  9
$CAMERADISPLAY
290
     0
  9
$LENSLENGTH
 40
50.0
  9
$CAMERAHEIGHT
 40
0.0
  9
$STEPSPERSEC
 40
2.0
  9
$STEPSIZE
 40
6.0
  9
$3DDWFPREC
 40
2.0
  9
$PSOLWIDTH
 40
0.25
  9
$PSOLHEIGHT
 40
4.0
  9
$LOFTANG1
 40
1.570796326794896
  9
$LOFTANG2
 40
1.570796326794896
  9
$LOFTMAG1
 40
0.0
  9
$LOFTMAG2
 40
0.0
  9
$LOFTPARAM
 70
     7
  9
$LOFTNORMALS
280
     1
  9
$LATITUDE
 40
37.795
  9
$LONGITUDE
 40
-122.394
  9
$NORTHDIRECTION
 40
0.0
  9
$TIMEZONE
 70
 -8000
  9
$LIGHTGLYPHDISPLAY
280
     1
  9
$TILEMODELIGHTSYNCH
280
     1
  9
$CMATERIAL
347
11
  9
$SOLIDHIST
280
     0
  9
$SHOWHIST
280
     1
  9
$DWFFRAME
280
     2
  9
$DGNFRAME
280
     0
  9
$REALWORLDSCALE
290
     1
  9
$INTERFERECOLOR
 62
     1
  9
$INTERFEREOBJVS
345
33
  9
$INTERFEREVPVS
346
30
  9
$CSHADOW
280
     0
  9
$SHADOWPLANELOCATION
 40
0.0
  0
ENDSEC
  0
SECTION
  2
CLASSES
  0
CLASS
  1
ACDBDICTIONARYWDFLT
  2
AcDbDictionaryWithDefault
  3
ObjectDBX Classes
 90
        0
 91
        1
280
     0
281
     0
  0
CLASS
  1
MATERIAL
  2
AcDbMaterial
  3
ObjectDBX Classes
 90
     1153
 91
        3
280
     0
281
     0
  0
CLASS
  1
VISUALSTYLE
  2
AcDbVisualStyle
  3
ObjectDBX Classes
 90
     4095
 91
       24
280
     0
281
     0
  0
CLASS
  1
SCALE
  2
AcDbScale
  3
ObjectDBX Classes
 90
     1153
 91
       17
280
     0
281
     0
  0
CLASS
  1
TABLESTYLE
  2
AcDbTableStyle
  3
ObjectDBX Classes
 90
     4095
 91
        1
280
     0
281
     0
  0
CLASS
  1
MLEADERSTYLE
  2
AcDbMLeaderStyle
  3
ACDB_MLEADERSTYLE_CLASS
 90
     4095
 91
        1
280
     0
281
     0
  0
CLASS
  1
ACDBSECTIONVIEWSTYLE
  2
AcDbSectionViewStyle
  3
ObjectDBX Classes
 90
     1025
 91
        1
280
     0
281
     0
  0
CLASS
  1
ACDBDETAILVIEWSTYLE
  2
AcDbDetailViewStyle
  3
ObjectDBX Classes
 90
     1025
 91
        1
280
     0
281
     0
  0
CLASS
  1
DICTIONARYVAR
  2
AcDbDictionaryVar
  3
ObjectDBX Classes
 90
        0
 91
        5
280
     0
281
     0
  0
CLASS
  1
CELLSTYLEMAP
  2
AcDbCellStyleMap
  3
ObjectDBX Classes
 90
     1152
 91
        1
280
     0
281
     0
  0
ENDSEC
  0
SECTION
  2
TABLES
  0
TABLE
  2
VPORT
  5
8
330
0
100
AcDbSymbolTable
 70
     1
  0
VPORT
  5
57
330
8
100
AcDbSymbolTableRecord
100
AcDbViewportTableRecord
  2
*Active
 70
     0
 10
0.0
 20
0.0
 11
1.0
 21
1.0
 12
0.0
 22
0.0
 13
0.0
 23
0.0
 14
1.0
 24
1.0
 15
0.0
 25
0.0
 16
0.0
 26
0.0
 36
1.0
 17
4.298866361422609
 27
-4.91618177625868
 37
0.0
 40
12.41098917643229
 41
0.7079342591618533
 42
50.0
 43
0.0
 44
0.0
 50
0.0
 51
0.0
 71
     0
 72
   100
 73
     1
 74
     1
 75
     0
 76
     0
 77
     0
 78
     0
281
     0
 65
     1
110
0.0
120
0.0
130
0.0
111
1.0
121
0.0
131
0.0
112
0.0
122
1.0
132
0.0
 79
     0
146
0.0
 60
     3
 61
     5
292
     1
282
     1
141
0.0
142
0.0
 63
   250
421
  3355443
  0
ENDTAB
  0
TABLE
  2
LTYPE
  5
5
330
0
100
AcDbSymbolTable
 70
     1
  0
LTYPE
  5
5B
330
5
100
AcDbSymbolTableRecord
100
AcDbLinetypeTableRecord
  2
ByBlock
 70
     0
  3

 72
    65
 73
     0
 40
0.0
  0
LTYPE
  5
5C
330
5
100
AcDbSymbolTableRecord
100
AcDbLinetypeTableRecord
  2
ByLayer
 70
     0
  3

 72
    65
 73
     0
 40
0.0
  0
LTYPE
  5
5D
330
5
100
AcDbSymbolTableRecord
100
AcDbLinetypeTableRecord
  2
Continuous
 70
     0
  3
Solid line
 72
    65
 73
     0
 40
0.0
  0
ENDTAB
  0
TABLE
  2
LAYER
  5
2
330
0
100
AcDbSymbolTable
 70
     3
  0
LAYER
  5
54
330
2
100
AcDbSymbolTableRecord
100
AcDbLayerTableRecord
  2
0
 70
     0
 62
     7
  6
Continuous
370
    -3
390
F
347
21
348
0
  0
LAYER
  5
78
330
2
100
AcDbSymbolTableRecord
100
AcDbLayerTableRecord
  2
Layer 2
 70
     0
 62
     7
  6
Continuous
370
     0
390
F
347
21
348
0
  0
LAYER
  5
79
330
2
100
AcDbSymbolTableRecord
100
AcDbLayerTableRecord
  2
Layer 1
 70
     0
 62
     7
  6
Continuous
370
     0
390
F
347
21
348
0
  0
ENDTAB
  0
TABLE
  2
STYLE
  5
3
330
0
100
AcDbSymbolTable
 70
     2
  0
STYLE
  5
55
330
3
100
AcDbSymbolTableRecord
100
AcDbTextStyleTableRecord
  2
Standard
 70
     0
 40
0.0
 41
1.0
 50
0.0
 71
     0
 42
0.2
  3
txt
  4

  0
STYLE
  5
5A
330
3
100
AcDbSymbolTableRecord
100
AcDbTextStyleTableRecord
  2
Annotative
 70
     0
 40
0.0
 41
1.0
 50
0.0
 71
     0
 42
0.2
  3
txt
  4

1001
AcadAnnotative
1000
AnnotativeData
1002
{
1070
     1
1070
     1
1002
}
  0
ENDTAB
  0
TABLE
  2
VIEW
  5
6
330
0
100
AcDbSymbolTable
 70
     0
  0
ENDTAB
  0
TABLE
  2
UCS
  5
7
330
0
100
AcDbSymbolTable
 70
     0
  0
ENDTAB
  0
TABLE
  2
APPID
  5
9
330
0
100
AcDbSymbolTable
 70
     2
  0
APPID
  5
56
330
9
100
AcDbSymbolTableRecord
100
AcDbRegAppTableRecord
  2
ACAD
 70
     0
  0
APPID
  5
5E
330
9
100
AcDbSymbolTableRecord
100
AcDbRegAppTableRecord
  2
AcadAnnotative
 70
     0
  0
ENDTAB
  0
TABLE
  2
DIMSTYLE
  5
A
330
0
100
AcDbSymbolTable
 70
     2
100
AcDbDimStyleTable
 71
     0
  0
DIMSTYLE
105
58
330
A
100
AcDbSymbolTableRecord
100
AcDbDimStyleTableRecord
  2
Standard
 70
     0
340
55
  0
DIMSTYLE
105
59
330
A
100
AcDbSymbolTableRecord
100
AcDbDimStyleTableRecord
  2
Annotative
 70
     0
340
55
1001
AcadAnnotative
1000
AnnotativeData
1002
{
1070
     1
1070
     1
1002
}
  0
ENDTAB
  0
TABLE
  2
BLOCK_RECORD
  5
1
330
0
100
AcDbSymbolTable
 70
     1
  0
BLOCK_RECORD
  5
70
330
1
100
AcDbSymbolTableRecord
100
AcDbBlockTableRecord
  2
*Model_Space
340
73
 70
     0
280
     1
281
     0
  0
BLOCK_RECORD
  5
6C
330
1
100
AcDbSymbolTableRecord
100
AcDbBlockTableRecord
  2
*Paper_Space
340
6F
 70
     0
280
     1
281
     0
  0
BLOCK_RECORD
  5
74
330
1
100
AcDbSymbolTableRecord
100
AcDbBlockTableRecord
  2
*Paper_Space0
340
77
 70
     0
280
     1
281
     0
  0
ENDTAB
  0
ENDSEC
  0
SECTION
  2
BLOCKS
  0
BLOCK
  5
71
330
70
100
AcDbEntity
  8
0
100
AcDbBlockBegin
  2
*Model_Space
 70
     0
 10
0.0
 20
0.0
 30
0.0
  3
*Model_Space
  1

  0
ENDBLK
  5
72
330
70
100
AcDbEntity
  8
0
100
AcDbBlockEnd
  0
BLOCK
  5
6D
330
6C
100
AcDbEntity
 67
     1
  8
0
100
AcDbBlockBegin
  2
*Paper_Space
 70
     0
 10
0.0
 20
0.0
 30
0.0
  3
*Paper_Space
  1

  0
ENDBLK
  5
6E
330
6C
100
AcDbEntity
 67
     1
  8
0
100
AcDbBlockEnd
  0
BLOCK
  5
75
330
74
100
AcDbEntity
 67
     1
  8
0
100
AcDbBlockBegin
  2
*Paper_Space0
 70
     0
 10
0.0
 20
0.0
 30
0.0
  3
*Paper_Space0
  1

  0
ENDBLK
  5
76
330
74
100
AcDbEntity
 67
     1
  8
0
100
AcDbBlockEnd
  0
ENDSEC
  0
SECTION
  2
ENTITIES
  0
SPLINE
  5
7A
330
70
100
AcDbEntity
  8
Layer 1
100
AcDbSpline
210
0.0
220
0.0
230
1.0
 70
    11
 71
     3
 72
    17
 73
    13
 74
     0
 42
0.0000000001
 43
0.0000000001
 40
0.0
 40
0.0
 40
0.0
 40
0.0
 40
1.0
 40
1.0
 40
1.0
 40
2.0
 40
2.0
 40
2.0
 40
3.0
 40
3.0
 40
3.0
 40
4.0
 40
4.0
 40
4.0
 40
4.0
 10
2.791917588975694
 20
-4.363091362847222
 30
0.0
 10
2.791917588975694
 20
-4.363091362847222
 30
0.0
 10
0.0058119032118056
 20
-4.363091362847222
 30
0.0
 10
0.0058119032118056
 20
-4.363091362847222
 30
0.0
 10
0.0058119032118056
 20
-4.363091362847222
 30
0.0
 10
0.0058119032118056
 20
-0.4769761827256945
 30
0.0
 10
0.0058119032118056
 20
-0.4769761827256945
 30
0.0
 10
0.0058119032118056
 20
-0.4769761827256945
 30
0.0
 10
2.791917588975694
 20
-0.4769761827256945
 30
0.0
 10
2.791917588975694
 20
-0.4769761827256945
 30
0.0
 10
2.791917588975694
 20
-0.4769761827256945
 30
0.0
 10
2.791917588975694
 20
-4.363091362847222
 30
0.0
 10
2.791917588975694
 20
-4.363091362847222
 30
0.0
  0
SPLINE
  5
7B
330
70
100
AcDbEntity
  8
Layer 1
100
AcDbSpline
210
0.0
220
0.0
230
1.0
 70
    11
 71
     3
 72
    17
 73
    13
 74
     0
 42
0.0000000001
 43
0.0000000001
 40
0.0
 40
0.0
 40
0.0
 40
0.0
 40
1.0
 40
1.0
 40
1.0
 40
2.0
 40
2.0
 40
2.0
 40
3.0
 40
3.0
 40
3.0
 40
4.0
 40
4.0
 40
4.0
 40
4.0
 10
-0.0080769856770833
 20
-0.4630872938368056
 30
0.0
 10
-0.0080769856770833
 20
-0.4630872938368056
 30
0.0
 10
-0.0080769856770833
 20
-4.37698025173611
 30
0.0
 10
-0.0080769856770833
 20
-4.37698025173611
 30
0.0
 10
-0.0080769856770833
 20
-4.37698025173611
 30
0.0
 10
2.805806477864583
 20
-4.37698025173611
 30
0.0
 10
2.805806477864583
 20
-4.37698025173611
 30
0.0
 10
2.805806477864583
 20
-4.37698025173611
 30
0.0
 10
2.805806477864583
 20
-0.4630872938368056
 30
0.0
 10
2.805806477864583
 20
-0.4630872938368056
 30
0.0
 10
2.805806477864583
 20
-0.4630872938368056
 30
0.0
 10
-0.0080769856770833
 20
-0.4630872938368056
 30
0.0
 10
-0.0080769856770833
 20
-0.4630872938368056
 30
0.0
  0
HATCH
  5
7C
330
70
100
AcDbEntity
  8
Layer 1
 62
   250
420
  2301728
440
 33554687
100
AcDbHatch
 10
0.0
 20
0.0
 30
0.0
210
0.0
220
0.0
230
1.0
  2
SOLID
 70
     1
 71
     1
 91
        2
 92
        1
 93
        1
 72
     4
 94
        3
 73
     0
 74
     0
 95
       17
 96
       13
 40
0.0
 40
0.0
 40
0.0
 40
0.0
 40
1.0
 40
1.0
 40
1.0
 40
2.0
 40
2.0
 40
2.0
 40
3.0
 40
3.0
 40
3.0
 40
4.0
 40
4.0
 40
4.0
 40
4.0
 10
2.791917588975694
 20
-4.363091362847222
 10
2.791917588975694
 20
-4.363091362847222
 10
0.0058119032118056
 20
-4.363091362847222
 10
0.0058119032118056
 20
-4.363091362847222
 10
0.0058119032118056
 20
-4.363091362847222
 10
0.0058119032118056
 20
-0.4769761827256945
 10
0.0058119032118056
 20
-0.4769761827256945
 10
0.0058119032118056
 20
-0.4769761827256945
 10
2.791917588975694
 20
-0.4769761827256945
 10
2.791917588975694
 20
-0.4769761827256945
 10
2.791917588975694
 20
-0.4769761827256945
 10
2.791917588975694
 20
-4.363091362847222
 10
2.791917588975694
 20
-4.363091362847222
 97
        0
 97
        1
330
7A
 92
        1
 93
        1
 72
     4
 94
        3
 73
     0
 74
     0
 95
       17
 96
       13
 40
0.0
 40
0.0
 40
0.0
 40
0.0
 40
1.0
 40
1.0
 40
1.0
 40
2.0
 40
2.0
 40
2.0
 40
3.0
 40
3.0
 40
3.0
 40
4.0
 40
4.0
 40
4.0
 40
4.0
 10
-0.0080769856770833
 20
-0.4630872938368056
 10
-0.0080769856770833
 20
-0.4630872938368056
 10
-0.0080769856770833
 20
-4.37698025173611
 10
-0.0080769856770833
 20
-4.37698025173611
 10
-0.0080769856770833
 20
-4.37698025173611
 10
2.805806477864583
 20
-4.37698025173611
 10
2.805806477864583
 20
-4.37698025173611
 10
2.805806477864583
 20
-4.37698025173611
 10
2.805806477864583
 20
-0.4630872938368056
 10
2.805806477864583
 20
-0.4630872938368056
 10
2.805806477864583
 20
-0.4630872938368056
 10
-0.0080769856770833
 20
-0.4630872938368056
 10
-0.0080769856770833
 20
-0.4630872938368056
 97
        0
 97
        1
330
7B
 75
     2
 76
     1
 98
        1
 10
0.0
 20
0.0
450
        0
451
        0
460
0.0
461
0.0
452
        0
462
0.0
453
        0
470

  0
SPLINE
  5
7D
330
70
100
AcDbEntity
  8
Layer 1
100
AcDbSpline
210
0.0
220
0.0
230
1.0
 70
     9
 71
     3
 72
   107
 73
   103
 74
     0
 42
0.0000000001
 43
0.0000000001
 40
0.0
 40
0.0
 40
0.0
 40
0.0
 40
1.0
 40
1.0
 40
1.0
 40
2.0
 40
2.0
 40
2.0
 40
3.0
 40
3.0
 40
3.0
 40
4.0
 40
4.0
 40
4.0
 40
5.0
 40
5.0
 40
5.0
 40
6.0
 40
6.0
 40
6.0
 40
7.0
 40
7.0
 40
7.0
 40
8.0
 40
8.0
 40
8.0
 40
9.0
 40
9.0
 40
9.0
 40
10.0
 40
10.0
 40
10.0
 40
11.0
 40
11.0
 40
11.0
 40
12.0
 40
12.0
 40
12.0
 40
13.0
 40
13.0
 40
13.0
 40
14.0
 40
14.0
 40
14.0
 40
15.0
 40
15.0
 40
15.0
 40
16.0
 40
16.0
 40
16.0
 40
17.0
 40
17.0
 40
17.0
 40
18.0
 40
18.0
 40
18.0
 40
19.0
 40
19.0
 40
19.0
 40
20.0
 40
20.0
 40
20.0
 40
21.0
 40
21.0
 40
21.0
 40
22.0
 40
22.0
 40
22.0
 40
23.0
 40
23.0
 40
23.0
 40
24.0
 40
24.0
 40
24.0
 40
25.0
 40
25.0
 40
25.0
 40
26.0
 40
26.0
 40
26.0
 40
27.0
 40
27.0
 40
27.0
 40
28.0
 40
28.0
 40
28.0
 40
29.0
 40
29.0
 40
29.0
 40
30.0
 40
30.0
 40
30.0
 40
31.0
 40
31.0
 40
31.0
 40
32.0
 40
32.0
 40
32.0
 40
33.0
 40
33.0
 40
33.0
 40
34.0
 40
34.0
 40
34.0
 40
34.0
 10
0.2709893120659722
 20
-4.149088541666666
 30
0.0
 10
0.2764146592881944
 20
-4.149088541666666
 30
0.0
 10
0.2818671332465277
 20
-4.148186577690972
 30
0.0
 10
0.2871636284722222
 20
-4.146341959635416
 30
0.0
 10
0.32244873046875
 20
-4.134982638888888
 30
0.0
 10
0.3164537217881944
 20
-4.091600206163194
 30
0.0
 10
0.3120795355902777
 20
-4.059922960069444
 30
0.0
 10
0.31097412109375
 20
-4.051913791232638
 30
0.0
 10
0.3099297417534722
 20
-4.044345431857638
 30
0.0
 10
0.3096381293402777
 20
-4.038275824652777
 30
0.0
 10
0.3088921440972222
 20
-4.018195258246527
 30
0.0
 10
0.2917005750868055
 20
-3.996968587239583
 30
0.0
 10
0.2735663519965278
 20
-3.993747287326388
 30
0.0
 10
0.2674085828993055
 20
-3.992655436197916
 30
0.0
 10
0.2520345052083333
 20
-3.992390950520833
 30
0.0
 10
0.2431301540798611
 20
-4.014173719618055
 30
0.0
 10
0.2357720269097222
 20
-4.037299262152777
 30
0.0
 10
0.2461073133680555
 20
-4.059855143229166
 30
0.0
 10
0.2681342230902778
 20
-4.067945692274305
 30
0.0
 10
0.2752278645833333
 20
-4.070041232638888
 30
0.0
 10
0.2803955078125
 20
-4.07564968532986
 30
0.0
 10
0.2823079427083333
 20
-4.083326551649305
 30
0.0
 10
0.2840915256076389
 20
-4.090474446614583
 30
0.0
 10
0.2825724283854166
 20
-4.097696940104166
 30
0.0
 10
0.2783474392361111
 20
-4.102525499131944
 30
0.0
 10
0.2747328016493055
 20
-4.103705512152777
 30
0.0
 10
0.2696194118923611
 20
-4.103441026475694
 30
0.0
 10
0.26519775390625
 20
-4.101738823784722
 30
0.0
 10
0.2612508138020833
 20
-4.100233289930555
 30
0.0
 10
0.2584025065104166
 20
-4.097846137152777
 30
0.0
 10
0.2567681206597222
 20
-4.094224717881944
 30
0.0
 10
0.2258775499131944
 20
-4.0426025390625
 30
0.0
 10
0.2190009223090278
 20
-3.978040907118055
 30
0.0
 10
0.2363552517361111
 20
-3.902174207899305
 30
0.0
 10
0.2442559136284722
 20
-3.863572862413194
 30
0.0
 10
0.25872802734375
 20
-3.826734754774305
 30
0.0
 10
0.2805921766493055
 20
-3.78955078125
 30
0.0
 10
0.2945895724826389
 20
-3.7657470703125
 30
0.0
 10
0.3084377712673611
 20
-3.739963107638888
 30
0.0
 10
0.31060791015625
 20
-3.70956081814236
 30
0.0
 10
0.3127644856770833
 20
-3.679429796006944
 30
0.0
 10
0.3144870334201389
 20
-3.649264865451388
 30
0.0
 10
0.3160739474826389
 20
-3.621507432725694
 30
0.0
 10
0.3160739474826389
 20
-3.621507432725694
 30
0.0
 10
0.3179931640625
 20
-3.58846706814236
 30
0.0
 10
0.3179931640625
 20
-3.58846706814236
 30
0.0
 10
0.3179931640625
 20
-3.58846706814236
 30
0.0
 10
0.3178643120659722
 20
-3.587687174479166
 30
0.0
 10
0.3178643120659722
 20
-3.587687174479166
 30
0.0
 10
0.3159044053819444
 20
-3.575968424479166
 30
0.0
 10
0.3146023220486111
 20
-3.565036349826388
 30
0.0
 10
0.3133680555555555
 20
-3.55465359157986
 30
0.0
 10
0.3095635308159722
 20
-3.522772894965277
 30
0.0
 10
0.3062811957465277
 20
-3.4952392578125
 30
0.0
 10
0.2869601779513889
 20
-3.466139051649305
 30
0.0
 10
0.2807685004340277
 20
-3.456319173177083
 30
0.0
 10
0.2702772352430555
 20
-3.449781629774305
 30
0.0
 10
0.2581854926215278
 20
-3.448201497395833
 30
0.0
 10
0.2472195095486111
 20
-3.446750217013888
 30
0.0
 10
0.2367418077256944
 20
-3.449781629774305
 30
0.0
 10
0.2295396592881944
 20
-3.456454806857638
 30
0.0
 10
0.2118055555555555
 20
-3.472920735677083
 30
0.0
 10
0.2096896701388889
 20
-3.513041178385416
 30
0.0
 10
0.2256266276041666
 20
-3.530470106336805
 30
0.0
 10
0.2304009331597222
 20
-3.535692003038194
 30
0.0
 10
0.2409532335069444
 20
-3.539998372395833
 30
0.0
 10
0.2494642469618055
 20
-3.537434895833333
 30
0.0
 10
0.2628377278645833
 20
-3.531107584635416
 30
0.0
 10
0.2661336263020833
 20
-3.5155029296875
 30
0.0
 10
0.2584635416666666
 20
-3.496222601996527
 30
0.0
 10
0.2576226128472222
 20
-3.493489583333333
 30
0.0
 10
0.2560492621527778
 20
-3.491224500868055
 30
0.0
 10
0.2547810872395833
 20
-3.48940700954861
 30
0.0
 10
0.2542046440972222
 20
-3.488579644097221
 30
0.0
 10
0.2533433702256944
 20
-3.487334357367621
 30
0.0
 10
0.2532280815972222
 20
-3.487332661946614
 30
0.0
 10
0.2533111572265625
 20
-3.478407118055555
 30
0.0
 10
0.2553439670138889
 20
-3.47540283203125
 30
0.0
 10
0.2563069661458333
 20
-3.47427029079861
 30
0.0
 10
0.2568223741319444
 20
-3.474277072482638
 30
0.0
 10
0.2587348090277778
 20
-3.475179036458333
 30
0.0
 10
0.2608913845486111
 20
-3.47768825954861
 30
0.0
 10
0.2762654622395833
 20
-3.49660915798611
 30
0.0
 10
0.2836235894097222
 20
-3.523213704427083
 30
0.0
 10
0.2840576171875
 20
-3.561177571614583
 30
0.0
 10
0.2836846245659722
 20
-3.577345106336805
 30
0.0
 10
0.2831759982638889
 20
-3.593505859375
 30
0.0
 10
0.2826605902777777
 20
-3.609666612413194
 30
0.0
 10
0.2820841471354166
 20
-3.628004286024305
 30
0.0
 10
0.2815077039930555
 20
-3.646341959635416
 30
0.0
 10
0.2811279296875
 20
-3.664543999565971
 30
0.0
 10
0.2789781358506944
 20
-3.717020670572916
 30
0.0
 10
0.2581244574652778
 20
-3.766025119357638
 30
0.0
 10
0.2379557291666666
 20
-3.813422309027777
 30
0.0
 10
0.2314181857638889
 20
-3.828782823350694
 30
0.0
 10
0.2246568467881944
 20
-3.844672309027777
 30
0.0
 10
0.2185465494791666
 20
-3.860663519965277
 30
0.0
 10
0.19915771484375
 20
-3.91604275173611
 30
0.0
 10
0.1616956922743056
 20
-4.05331081814236
 30
0.0
 10
0.2324964735243055
 20
-4.131781684027777
 30
0.0
 10
0.2430759006076389
 20
-4.143052842881944
 30
0.0
 10
0.2569512261284722
 20
-4.149088541666666
 30
0.0
 10
0.2709893120659722
 20
-4.149088541666666
 30
0.0
  0
HATCH
  5
7E
330
70
100
AcDbEntity
  8
Layer 1
 62
   250
420
  2301728
440
 33554687
100
AcDbHatch
 10
0.0
 20
0.0
 30
0.0
210
0.0
220
0.0
230
1.0
  2
SOLID
 70
     1
 71
     1
 91
        1
 92
        1
 93
        1
 72
     4
 94
        3
 73
     0
 74
     0
 95
      107
 96
      103
 40
0.0
 40
0.0
 40
0.0
 40
0.0
 40
1.0
 40
1.0
 40
1.0
 40
2.0
 40
2.0
 40
2.0
 40
3.0
 40
3.0
 40
3.0
 40
4.0
 40
4.0
 40
4.0
 40
5.0
 40
5.0
 40
5.0
 40
6.0
 40
6.0
 40
6.0
 40
7.0
 40
7.0
 40
7.0
 40
8.0
 40
8.0
 40
8.0
 40
9.0
 40
9.0
 40
9.0
 40
10.0
 40
10.0
 40
10.0
 40
11.0
 40
11.0
 40
11.0
 40
12.0
 40
12.0
 40
12.0
 40
13.0
 40
13.0
 40
13.0
 40
14.0
 40
14.0
 40
14.0
 40
15.0
 40
15.0
 40
15.0
 40
16.0
 40
16.0
 40
16.0
 40
17.0
 40
17.0
 40
17.0
 40
18.0
 40
18.0
 40
18.0
 40
19.0
 40
19.0
 40
19.0
 40
20.0
 40
20.0
 40
20.0
 40
21.0
 40
21.0
 40
21.0
 40
22.0
 40
22.0
 40
22.0
 40
23.0
 40
23.0
 40
23.0
 40
24.0
 40
24.0
 40
24.0
 40
25.0
 40
25.0
 40
25.0
 40
26.0
 40
26.0
 40
26.0
 40
27.0
 40
27.0
 40
27.0
 40
28.0
 40
28.0
 40
28.0
 40
29.0
 40
29.0
 40
29.0
 40
30.0
 40
30.0
 40
30.0
 40
31.0
 40
31.0
 40
31.0
 40
32.0
 40
32.0
 40
32.0
 40
33.0
 40
33.0
 40
33.0
 40
34.0
 40
34.0
 40
34.0
 40
34.0
 10
0.2709893120659722
 20
-4.149088541666666
 10
0.2764146592881944
 20
-4.149088541666666
 10
0.2818671332465277
 20
-4.148186577690972
 10
0.2871636284722222
 20
-4.146341959635416
 10
0.32244873046875
 20
-4.134982638888888
 10
0.3164537217881944
 20
-4.091600206163194
 10
0.3120795355902777
 20
-4.059922960069444
 10
0.31097412109375
 20
-4.051913791232638
 10
0.3099297417534722
 20
-4.044345431857638
 10
0.3096381293402777
 20
-4.038275824652777
 10
0.3088921440972222
 20
-4.018195258246527
 10
0.2917005750868055
 20
-3.996968587239583
 10
0.2735663519965278
 20
-3.993747287326388
 10
0.2674085828993055
 20
-3.992655436197916
 10
0.2520345052083333
 20
-3.992390950520833
 10
0.2431301540798611
 20
-4.014173719618055
 10
0.2357720269097222
 20
-4.037299262152777
 10
0.2461073133680555
 20
-4.059855143229166
 10
0.2681342230902778
 20
-4.067945692274305
 10
0.2752278645833333
 20
-4.070041232638888
 10
0.2803955078125
 20
-4.07564968532986
 10
0.2823079427083333
 20
-4.083326551649305
 10
0.2840915256076389
 20
-4.090474446614583
 10
0.2825724283854166
 20
-4.097696940104166
 10
0.2783474392361111
 20
-4.102525499131944
 10
0.2747328016493055
 20
-4.103705512152777
 10
0.2696194118923611
 20
-4.103441026475694
 10
0.26519775390625
 20
-4.101738823784722
 10
0.2612508138020833
 20
-4.100233289930555
 10
0.2584025065104166
 20
-4.097846137152777
 10
0.2567681206597222
 20
-4.094224717881944
 10
0.2258775499131944
 20
-4.0426025390625
 10
0.2190009223090278
 20
-3.978040907118055
 10
0.2363552517361111
 20
-3.902174207899305
 10
0.2442559136284722
 20
-3.863572862413194
 10
0.25872802734375
 20
-3.826734754774305
 10
0.2805921766493055
 20
-3.78955078125
 10
0.2945895724826389
 20
-3.7657470703125
 10
0.3084377712673611
 20
-3.739963107638888
 10
0.31060791015625
 20
-3.70956081814236
 10
0.3127644856770833
 20
-3.679429796006944
 10
0.3144870334201389
 20
-3.649264865451388
 10
0.3160739474826389
 20
-3.621507432725694
 10
0.3160739474826389
 20
-3.621507432725694
 10
0.3179931640625
 20
-3.58846706814236
 10
0.3179931640625
 20
-3.58846706814236
 10
0.3179931640625
 20
-3.58846706814236
 10
0.3178643120659722
 20
-3.587687174479166
 10
0.3178643120659722
 20
-3.587687174479166
 10
0.3159044053819444
 20
-3.575968424479166
 10
0.3146023220486111
 20
-3.565036349826388
 10
0.3133680555555555
 20
-3.55465359157986
 10
0.3095635308159722
 20
-3.522772894965277
 10
0.3062811957465277
 20
-3.4952392578125
 10
0.2869601779513889
 20
-3.466139051649305
 10
0.2807685004340277
 20
-3.456319173177083
 10
0.2702772352430555
 20
-3.449781629774305
 10
0.2581854926215278
 20
-3.448201497395833
 10
0.2472195095486111
 20
-3.446750217013888
 10
0.2367418077256944
 20
-3.449781629774305
 10
0.2295396592881944
 20
-3.456454806857638
 10
0.2118055555555555
 20
-3.472920735677083
 10
0.2096896701388889
 20
-3.513041178385416
 10
0.2256266276041666
 20
-3.530470106336805
 10
0.2304009331597222
 20
-3.535692003038194
 10
0.2409532335069444
 20
-3.539998372395833
 10
0.2494642469618055
 20
-3.537434895833333
 10
0.2628377278645833
 20
-3.531107584635416
 10
0.2661336263020833
 20
-3.5155029296875
 10
0.2584635416666666
 20
-3.496222601996527
 10
0.2576226128472222
 20
-3.493489583333333
 10
0.2560492621527778
 20
-3.491224500868055
 10
0.2547810872395833
 20
-3.48940700954861
 10
0.2542046440972222
 20
-3.488579644097221
 10
0.2533433702256944
 20
-3.487334357367621
 10
0.2532280815972222
 20
-3.487332661946614
 10
0.2533111572265625
 20
-3.478407118055555
 10
0.2553439670138889
 20
-3.47540283203125
 10
0.2563069661458333
 20
-3.47427029079861
 10
0.2568223741319444
 20
-3.474277072482638
 10
0.2587348090277778
 20
-3.475179036458333
 10
0.2608913845486111
 20
-3.47768825954861
 10
0.2762654622395833
 20
-3.49660915798611
 10
0.2836235894097222
 20
-3.523213704427083
 10
0.2840576171875
 20
-3.561177571614583
 10
0.2836846245659722
 20
-3.577345106336805
 10
0.2831759982638889
 20
-3.593505859375
 10
0.2826605902777777
 20
-3.609666612413194
 10
0.2820841471354166
 20
-3.628004286024305
 10
0.2815077039930555
 20
-3.646341959635416
 10
0.2811279296875
 20
-3.664543999565971
 10
0.2789781358506944
 20
-3.717020670572916
 10
0.2581244574652778
 20
-3.766025119357638
 10
0.2379557291666666
 20
-3.813422309027777
 10
0.2314181857638889
 20
-3.828782823350694
 10
0.2246568467881944
 20
-3.844672309027777
 10
0.2185465494791666
 20
-3.860663519965277
 10
0.19915771484375
 20
-3.91604275173611
 10
0.1616956922743056
 20
-4.05331081814236
 10
0.2324964735243055
 20
-4.131781684027777
 10
0.2430759006076389
 20
-4.143052842881944
 10
0.2569512261284722
 20
-4.149088541666666
 10
0.2709893120659722
 20
-4.149088541666666
 97
        0
 97
        1
330
7D
 75
     2
 76
     1
 98
        1
 10
0.0
 20
0.0
450
        0
451
        0
460
0.0
461
0.0
452
        0
462
0.0
453
        0
470

  0
SPLINE
  5
7F
330
70
100
AcDbEntity
  8
Layer 1
100
AcDbSpline
210
0.0
220
0.0
230
1.0
 70
     9
 71
     3
 72
    89
 73
    85
 74
     0
 42
0.0000000001
 43
0.0000000001
 40
0.0
 40
0.0
 40
0.0
 40
0.0
 40
1.0
 40
1.0
 40
1.0
 40
2.0
 40
2.0
 40
2.0
 40
3.0
 40
3.0
 40
3.0
 40
4.0
 40
4.0
 40
4.0
 40
5.0
 40
5.0
 40
5.0
 40
6.0
 40
6.0
 40
6.0
 40
7.0
 40
7.0
 40
7.0
 40
8.0
 40
8.0
 40
8.0
 40
9.0
 40
9.0
 40
9.0
 40
10.0
 40
10.0
 40
10.0
 40
11.0
 40
11.0
 40
11.0
 40
12.0
 40
12.0
 40
12.0
 40
13.0
 40
13.0
 40
13.0
 40
14.0
 40
14.0
 40
14.0
 40
15.0
 40
15.0
 40
15.0
 40
16.0
 40
16.0
 40
16.0
 40
17.0
 40
17.0
 40
17.0
 40
18.0
 40
18.0
 40
18.0
 40
19.0
 40
19.0
 40
19.0
 40
20.0
 40
20.0
 40
20.0
 40
21.0
 40
21.0
 40
21.0
 40
22.0
 40
22.0
 40
22.0
 40
23.0
 40
23.0
 40
23.0
 40
24.0
 40
24.0
 40
24.0
 40
25.0
 40
25.0
 40
25.0
 40
26.0
 40
26.0
 40
26.0
 40
27.0
 40
27.0
 40
27.0
 40
28.0
 40
28.0
 40
28.0
 40
28.0
 10
2.489305284288194
 20
-3.389472113715277
 30
0.0
 10
2.499091254340277
 20
-3.40753173828125
 30
0.0
 10
2.514295789930555
 20
-3.417860243055555
 30
0.0
 10
2.531073676215277
 20
-3.417853461371527
 30
0.0
 10
2.531195746527777
 20
-3.417853461371527
 30
0.0
 10
2.531324598524305
 20
-3.417853461371527
 30
0.0
 10
2.531453450520833
 20
-3.417853461371527
 30
0.0
 10
2.548787434895833
 20
-3.41769070095486
 30
0.0
 10
2.564921061197916
 20
-3.40643310546875
 30
0.0
 10
2.574876573350694
 20
-3.387152777777777
 30
0.0
 10
2.584791395399305
 20
-3.362813313802083
 30
0.0
 10
2.592976888020833
 20
-3.336825900607638
 30
0.0
 10
2.575337727864583
 20
-3.310682508680555
 30
0.0
 10
2.569085015190971
 20
-3.299825032552083
 30
0.0
 10
2.558430989583333
 20
-3.294331868489583
 30
0.0
 10
2.546793619791666
 20
-3.29604763454861
 30
0.0
 10
2.534457736545138
 20
-3.297831217447916
 30
0.0
 10
2.524502224392361
 20
-3.30727810329861
 30
0.0
 10
2.521579318576388
 20
-3.319580078125
 30
0.0
 10
2.515828450520833
 20
-3.337171766493055
 30
0.0
 10
2.526923285590277
 20
-3.347886827256944
 30
0.0
 10
2.538533528645833
 20
-3.356051974826388
 30
0.0
 10
2.541415744357638
 20
-3.358072916666666
 30
0.0
 10
2.544216579861111
 20
-3.362623426649305
 30
0.0
 10
2.544331868489583
 20
-3.363817003038194
 30
0.0
 10
2.543009440104166
 20
-3.37038845486111
 30
0.0
 10
2.538302951388888
 20
-3.376539442274305
 30
0.0
 10
2.533616807725694
 20
-3.37783474392361
 30
0.0
 10
2.532599555121527
 20
-3.378099229600694
 30
0.0
 10
2.529486762152777
 20
-3.37896728515625
 30
0.0
 10
2.525505913628471
 20
-3.37459988064236
 30
0.0
 10
2.474358452690971
 20
-3.311496310763888
 30
0.0
 10
2.513481987847221
 20
-3.212483723958333
 30
0.0
 10
2.541375054253471
 20
-3.1590576171875
 30
0.0
 10
2.545294867621527
 20
-3.151462131076388
 30
0.0
 10
2.549472384982638
 20
-3.143988715277777
 30
0.0
 10
2.55364990234375
 20
-3.136515299479166
 30
0.0
 10
2.565334743923611
 20
-3.1156005859375
 30
0.0
 10
2.577419704861111
 20
-3.093973795572916
 30
0.0
 10
2.583848741319444
 20
-3.069627549913194
 30
0.0
 10
2.593858506944444
 20
-3.031711154513888
 30
0.0
 10
2.58868408203125
 20
-3.001180013020833
 30
0.0
 10
2.568047417534721
 20
-2.976304796006944
 30
0.0
 10
2.555657280815971
 20
-2.961385091145833
 30
0.0
 10
2.535447862413194
 20
-2.958184136284721
 30
0.0
 10
2.51995849609375
 20
-2.968668619791666
 30
0.0
 10
2.490865071614583
 20
-2.988396538628471
 30
0.0
 10
2.477220323350694
 20
-3.037312825520833
 30
0.0
 10
2.491800944010416
 20
-3.069132486979166
 30
0.0
 10
2.496066623263888
 20
-3.079250759548611
 30
0.0
 10
2.504007975260416
 20
-3.084872775607638
 30
0.0
 10
2.513142903645833
 20
-3.084160698784721
 30
0.0
 10
2.523322211371527
 20
-3.083380805121527
 30
0.0
 10
2.532436794704861
 20
-3.074801974826388
 30
0.0
 10
2.535434299045138
 20
-3.062723795572916
 30
0.0
 10
2.536912706163194
 20
-3.053561740451388
 30
0.0
 10
2.533515082465277
 20
-3.043768988715277
 30
0.0
 10
2.5303955078125
 20
-3.036268446180555
 30
0.0
 10
2.525641547309027
 20
-3.02484130859375
 30
0.0
 10
2.523681640625
 20
-3.017015245225694
 30
0.0
 10
2.526909722222221
 20
-3.008449978298611
 30
0.0
 10
2.5284423828125
 20
-3.004387749565971
 30
0.0
 10
2.531548394097221
 20
-3.000881618923611
 30
0.0
 10
2.534634060329861
 20
-2.999728732638888
 30
0.0
 10
2.536458333333333
 20
-2.999043782552083
 30
0.0
 10
2.537543402777777
 20
-2.999443901909721
 30
0.0
 10
2.538201226128471
 20
-2.999803331163194
 30
0.0
 10
2.542527940538194
 20
-3.002143012152777
 30
0.0
 10
2.546983506944444
 20
-3.007642957899305
 30
0.0
 10
2.548129611545138
 20
-3.012051052517361
 30
0.0
 10
2.554233127170138
 20
-3.03564453125
 30
0.0
 10
2.553297254774305
 20
-3.059421115451388
 30
0.0
 10
2.545423719618055
 20
-3.080810546875
 30
0.0
 10
2.535508897569444
 20
-3.107740614149305
 30
0.0
 10
2.52313232421875
 20
-3.134446885850694
 30
0.0
 10
2.511162651909721
 20
-3.160264756944444
 30
0.0
 10
2.511162651909721
 20
-3.160264756944444
 30
0.0
 10
2.49761962890625
 20
-3.189629448784721
 30
0.0
 10
2.49761962890625
 20
-3.189629448784721
 30
0.0
 10
2.482062445746527
 20
-3.2232666015625
 30
0.0
 10
2.465976291232638
 20
-3.258043077256944
 30
0.0
 10
2.468465169270833
 20
-3.295186360677083
 30
0.0
 10
2.466512044270833
 20
-3.330674913194444
 30
0.0
 10
2.473151312934027
 20
-3.360677083333333
 30
0.0
 10
2.489305284288194
 20
-3.389472113715277
 30
0.0
  0
HATCH
  5
80
330
70
100
AcDbEntity
  8
Layer 1
 62
   250
420
  2301728
440
 33554687
100
AcDbHatch
 10
0.0
 20
0.0
 30
0.0
210
0.0
220
0.0
230
1.0
  2
SOLID
 70
     1
 71
     1
 91
        1
 92
        1
 93
        1
 72
     4
 94
        3
 73
     0
 74
     0
 95
       89
 96
       85
 40
0.0
 40
0.0
 40
0.0
 40
0.0
 40
1.0
 40
1.0
 40
1.0
 40
2.0
 40
2.0
 40
2.0
 40
3.0
 40
3.0
 40
3.0
 40
4.0
 40
4.0
 40
4.0
 40
5.0
 40
5.0
 40
5.0
 40
6.0
 40
6.0
 40
6.0
 40
7.0
 40
7.0
 40
7.0
 40
8.0
 40
8.0
 40
8.0
 40
9.0
 40
9.0
 40
9.0
 40
10.0
 40
10.0
 40
10.0
 40
11.0
 40
11.0
 40
11.0
 40
12.0
 40
12.0
 40
12.0
 40
13.0
 40
13.0
 40
13.0
 40
14.0
 40
14.0
 40
14.0
 40
15.0
 40
15.0
 40
15.0
 40
16.0
 40
16.0
 40
16.0
 40
17.0
 40
17.0
 40
17.0
 40
18.0
 40
18.0
 40
18.0
 40
19.0
 40
19.0
 40
19.0
 40
20.0
 40
20.0
 40
20.0
 40
21.0
 40
21.0
 40
21.0
 40
22.0
 40
22.0
 40
22.0
 40
23.0
 40
23.0
 40
23.0
 40
24.0
 40
24.0
 40
24.0
 40
25.0
 40
25.0
 40
25.0
 40
26.0
 40
26.0
 40
26.0
 40
27.0
 40
27.0
 40
27.0
 40
28.0
 40
28.0
 40
28.0
 40
28.0
 10
2.489305284288194
 20
-3.389472113715277
 10
2.499091254340277
 20
-3.40753173828125
 10
2.514295789930555
 20
-3.417860243055555
 10
2.531073676215277
 20
-3.417853461371527
 10
2.531195746527777
 20
-3.417853461371527
 10
2.531324598524305
 20
-3.417853461371527
 10
2.531453450520833
 20
-3.417853461371527
 10
2.548787434895833
 20
-3.41769070095486
 10
2.564921061197916
 20
-3.40643310546875
 10
2.574876573350694
 20
-3.387152777777777
 10
2.584791395399305
 20
-3.362813313802083
 10
2.592976888020833
 20
-3.336825900607638
 10
2.575337727864583
 20
-3.310682508680555
 10
2.569085015190971
 20
-3.299825032552083
 10
2.558430989583333
 20
-3.294331868489583
 10
2.546793619791666
 20
-3.29604763454861
 10
2.534457736545138
 20
-3.297831217447916
 10
2.524502224392361
 20
-3.30727810329861
 10
2.521579318576388
 20
-3.319580078125
 10
2.515828450520833
 20
-3.337171766493055
 10
2.526923285590277
 20
-3.347886827256944
 10
2.538533528645833
 20
-3.356051974826388
 10
2.541415744357638
 20
-3.358072916666666
 10
2.544216579861111
 20
-3.362623426649305
 10
2.544331868489583
 20
-3.363817003038194
 10
2.543009440104166
 20
-3.37038845486111
 10
2.538302951388888
 20
-3.376539442274305
 10
2.533616807725694
 20
-3.37783474392361
 10
2.532599555121527
 20
-3.378099229600694
 10
2.529486762152777
 20
-3.37896728515625
 10
2.525505913628471
 20
-3.37459988064236
 10
2.474358452690971
 20
-3.311496310763888
 10
2.513481987847221
 20
-3.212483723958333
 10
2.541375054253471
 20
-3.1590576171875
 10
2.545294867621527
 20
-3.151462131076388
 10
2.549472384982638
 20
-3.143988715277777
 10
2.55364990234375
 20
-3.136515299479166
 10
2.565334743923611
 20
-3.1156005859375
 10
2.577419704861111
 20
-3.093973795572916
 10
2.583848741319444
 20
-3.069627549913194
 10
2.593858506944444
 20
-3.031711154513888
 10
2.58868408203125
 20
-3.001180013020833
 10
2.568047417534721
 20
-2.976304796006944
 10
2.555657280815971
 20
-2.961385091145833
 10
2.535447862413194
 20
-2.958184136284721
 10
2.51995849609375
 20
-2.968668619791666
 10
2.490865071614583
 20
-2.988396538628471
 10
2.477220323350694
 20
-3.037312825520833
 10
2.491800944010416
 20
-3.069132486979166
 10
2.496066623263888
 20
-3.079250759548611
 10
2.504007975260416
 20
-3.084872775607638
 10
2.513142903645833
 20
-3.084160698784721
 10
2.523322211371527
 20
-3.083380805121527
 10
2.532436794704861
 20
-3.074801974826388
 10
2.535434299045138
 20
-3.062723795572916
 10
2.536912706163194
 20
-3.053561740451388
 10
2.533515082465277
 20
-3.043768988715277
 10
2.5303955078125
 20
-3.036268446180555
 10
2.525641547309027
 20
-3.02484130859375
 10
2.523681640625
 20
-3.017015245225694
 10
2.526909722222221
 20
-3.008449978298611
 10
2.5284423828125
 20
-3.004387749565971
 10
2.531548394097221
 20
-3.000881618923611
 10
2.534634060329861
 20
-2.999728732638888
 10
2.536458333333333
 20
-2.999043782552083
 10
2.537543402777777
 20
-2.999443901909721
 10
2.538201226128471
 20
-2.999803331163194
 10
2.542527940538194
 20
-3.002143012152777
 10
2.546983506944444
 20
-3.007642957899305
 10
2.548129611545138
 20
-3.012051052517361
 10
2.554233127170138
 20
-3.03564453125
 10
2.553297254774305
 20
-3.059421115451388
 10
2.545423719618055
 20
-3.080810546875
 10
2.535508897569444
 20
-3.107740614149305
 10
2.52313232421875
 20
-3.134446885850694
 10
2.511162651909721
 20
-3.160264756944444
 10
2.511162651909721
 20
-3.160264756944444
 10
2.49761962890625
 20
-3.189629448784721
 10
2.49761962890625
 20
-3.189629448784721
 10
2.482062445746527
 20
-3.2232666015625
 10
2.465976291232638
 20
-3.258043077256944
 10
2.468465169270833
 20
-3.295186360677083
 10
2.466512044270833
 20
-3.330674913194444
 10
2.473151312934027
 20
-3.360677083333333
 10
2.489305284288194
 20
-3.389472113715277
 97
        0
 97
        1
330
7F
 75
     2
 76
     1
 98
        1
 10
0.0
 20
0.0
450
        0
451
        0
460
0.0
461
0.0
452
        0
462
0.0
453
        0
470

  0
SPLINE
  5
81
330
70
100
AcDbEntity
  8
Layer 1
100
AcDbSpline
210
0.0
220
0.0
230
1.0
 70
     9
 71
     3
 72
   101
 73
    97
 74
     0
 42
0.0000000001
 43
0.0000000001
 40
0.0
 40
0.0
 40
0.0
 40
0.0
 40
1.0
 40
1.0
 40
1.0
 40
2.0
 40
2.0
 40
2.0
 40
3.0
 40
3.0
 40
3.0
 40
4.0
 40
4.0
 40
4.0
 40
5.0
 40
5.0
 40
5.0
 40
6.0
 40
6.0
 40
6.0
 40
7.0
 40
7.0
 40
7.0
 40
8.0
 40
8.0
 40
8.0
 40
9.0
 40
9.0
 40
9.0
 40
10.0
 40
10.0
 40
10.0
 40
11.0
 40
11.0
 40
11.0
 40
12.0
 40
12.0
 40
12.0
 40
13.0
 40
13.0
 40
13.0
 40
14.0
 40
14.0
 40
14.0
 40
15.0
 40
15.0
 40
15.0
 40
16.0
 40
16.0
 40
16.0
 40
17.0
 40
17.0
 40
17.0
 40
18.0
 40
18.0
 40
18.0
 40
19.0
 40
19.0
 40
19.0
 40
20.0
 40
20.0
 40
20.0
 40
21.0
 40
21.0
 40
21.0
 40
22.0
 40
22.0
 40
22.0
 40
23.0
 40
23.0
 40
23.0
 40
24.0
 40
24.0
 40
24.0
 40
25.0
 40
25.0
 40
25.0
 40
26.0
 40
26.0
 40
26.0
 40
27.0
 40
27.0
 40
27.0
 40
28.0
 40
28.0
 40
28.0
 40
29.0
 40
29.0
 40
29.0
 40
30.0
 40
30.0
 40
30.0
 40
31.0
 40
31.0
 40
31.0
 40
32.0
 40
32.0
 40
32.0
 40
32.0
 10
2.527757432725694
 20
-3.493503146701388
 30
0.0
 10
2.525783962673611
 20
-3.496880425347221
 30
0.0
 10
2.523830837673611
 20
-3.500278049045138
 30
0.0
 10
2.52239990234375
 20
-3.503865559895833
 30
0.0
 10
2.516350640190971
 20
-3.519083658854166
 30
0.0
 10
2.521308051215277
 20
-3.534037272135416
 30
0.0
 10
2.535603841145833
 20
-3.540642632378471
 30
0.0
 10
2.545891655815971
 20
-3.54345703125
 30
0.0
 10
2.555230034722221
 20
-3.54107666015625
 30
0.0
 10
2.562608506944444
 20
-3.533867730034721
 30
0.0
 10
2.577616373697916
 20
-3.519198947482638
 30
0.0
 10
2.580206976996527
 20
-3.487901475694444
 30
0.0
 10
2.576375325520833
 20
-3.472425672743055
 30
0.0
 10
2.574435763888888
 20
-3.460428873697916
 30
0.0
 10
2.569932725694444
 20
-3.443773057725694
 30
0.0
 10
2.553310818142361
 20
-3.43764919704861
 30
0.0
 10
2.535380045572916
 20
-3.431043836805555
 30
0.0
 10
2.517123752170138
 20
-3.435153537326388
 30
0.0
 10
2.505343967013888
 20
-3.448723687065971
 30
0.0
 10
2.445488823784721
 20
-3.528706868489583
 30
0.0
 10
2.479865180121527
 20
-3.632670084635416
 30
0.0
 10
2.510199652777777
 20
-3.72439236111111
 30
0.0
 10
2.518873426649305
 20
-3.750630696614583
 30
0.0
 10
2.527072482638888
 20
-3.775410970052083
 30
0.0
 10
2.53289794921875
 20
-3.79901123046875
 30
0.0
 10
2.542616102430555
 20
-3.830247667100694
 30
0.0
 10
2.541829427083333
 20
-3.853841145833333
 30
0.0
 10
2.530110677083333
 20
-3.873833550347221
 30
0.0
 10
2.529012044270833
 20
-3.876173231336805
 30
0.0
 10
2.527255588107638
 20
-3.877855088975694
 30
0.0
 10
2.525166829427083
 20
-3.87856716579861
 30
0.0
 10
2.523023817274305
 20
-3.879286024305555
 30
0.0
 10
2.520609537760416
 20
-3.879021538628471
 30
0.0
 10
2.518174913194444
 20
-3.877760145399305
 30
0.0
 10
2.516445583767361
 20
-3.876864963107638
 30
0.0
 10
2.513224283854166
 20
-3.875203450520833
 30
0.0
 10
2.516493055555555
 20
-3.864691840277777
 30
0.0
 10
2.516838921440971
 20
-3.863572862413194
 30
0.0
 10
2.519110785590277
 20
-3.861531575520833
 30
0.0
 10
2.520765516493055
 20
-3.86004638671875
 30
0.0
 10
2.522060818142361
 20
-3.85888671875
 30
0.0
 10
2.523349338107638
 20
-3.857720269097221
 30
0.0
 10
2.52447509765625
 20
-3.856513129340277
 30
0.0
 10
2.530754937065971
 20
-3.849833170572916
 30
0.0
 10
2.534152560763888
 20
-3.840474446614583
 30
0.0
 10
2.533793131510416
 20
-3.83083767361111
 30
0.0
 10
2.533454047309027
 20
-3.821709526909721
 30
0.0
 10
2.529703776041666
 20
-3.813218858506944
 30
0.0
 10
2.522942437065971
 20
-3.80706787109375
 30
0.0
 10
2.512539333767361
 20
-3.799391004774305
 30
0.0
 10
2.500115288628471
 20
-3.799350314670138
 30
0.0
 10
2.489698621961805
 20
-3.80694580078125
 30
0.0
 10
2.476420084635416
 20
-3.816643608940971
 30
0.0
 10
2.470269097222221
 20
-3.83535427517361
 30
0.0
 10
2.475199381510416
 20
-3.84979248046875
 30
0.0
 10
2.475199381510416
 20
-3.84979248046875
 30
0.0
 10
2.476019965277777
 20
-3.853325737847221
 30
0.0
 10
2.476019965277777
 20
-3.853325737847221
 30
0.0
 10
2.477620442708333
 20
-3.8602294921875
 30
0.0
 10
2.479139539930555
 20
-3.866753472222221
 30
0.0
 10
2.479973687065971
 20
-3.873372395833333
 30
0.0
 10
2.482503255208333
 20
-3.893466525607638
 30
0.0
 10
2.499355740017361
 20
-3.9122314453125
 30
0.0
 10
2.519036187065971
 20
-3.916212293836805
 30
0.0
 10
2.520473904079861
 20
-3.916354709201388
 30
0.0
 10
2.521891276041666
 20
-3.916429307725694
 30
0.0
 10
2.523301866319444
 20
-3.916429307725694
 30
0.0
 10
2.535000271267361
 20
-3.916429307725694
 30
0.0
 10
2.545633951822916
 20
-3.911519368489583
 30
0.0
 10
2.554280598958333
 20
-3.902079264322916
 30
0.0
 10
2.572265625
 20
-3.8824462890625
 30
0.0
 10
2.578443739149305
 20
-3.846591525607638
 30
0.0
 10
2.574083116319444
 20
-3.823533799913194
 30
0.0
 10
2.56805419921875
 20
-3.78341335720486
 30
0.0
 10
2.552456325954861
 20
-3.746148003472221
 30
0.0
 10
2.537373860677083
 20
-3.710116916232638
 30
0.0
 10
2.517489963107638
 20
-3.662618001302083
 30
0.0
 10
2.498711480034721
 20
-3.617743598090277
 30
0.0
 10
2.499457465277777
 20
-3.566257052951388
 30
0.0
 10
2.50048828125
 20
-3.55971950954861
 30
0.0
 10
2.501274956597221
 20
-3.553059895833333
 30
0.0
 10
2.502061631944444
 20
-3.546379937065971
 30
0.0
 10
2.505154079861111
 20
-3.520209418402777
 30
0.0
 10
2.508076985677083
 20
-3.4954833984375
 30
0.0
 10
2.525071885850694
 20
-3.476779513888888
 30
0.0
 10
2.526129828559027
 20
-3.47622341579861
 30
0.0
 10
2.529934353298611
 20
-3.476060655381944
 30
0.0
 10
2.532206217447916
 20
-3.475958930121527
 30
0.0
 10
2.532274034288194
 20
-3.475958930121527
 30
0.0
 10
2.532335069444444
 20
-3.475958930121527
 30
0.0
 10
2.532402886284721
 20
-3.4759521484375
 30
0.0
 10
2.532904730902777
 20
-3.478752983940971
 30
0.0
 10
2.5333251953125
 20
-3.481519911024305
 30
0.0
 10
2.532823350694444
 20
-3.483188205295138
 30
0.0
 10
2.531819661458333
 20
-3.48653835720486
 30
0.0
 10
2.52984619140625
 20
-3.489922417534721
 30
0.0
 10
2.527757432725694
 20
-3.493503146701388
 30
0.0
  0
HATCH
  5
82
330
70
100
AcDbEntity
  8
Layer 1
 62
   250
420
  2301728
440
 33554687
100
AcDbHatch
 10
0.0
 20
0.0
 30
0.0
210
0.0
220
0.0
230
1.0
  2
SOLID
 70
     1
 71
     1
 91
        1
 92
        1
 93
        1
 72
     4
 94
        3
 73
     0
 74
     0
 95
      101
 96
       97
 40
0.0
 40
0.0
 40
0.0
 40
0.0
 40
1.0
 40
1.0
 40
1.0
 40
2.0
 40
2.0
 40
2.0
 40
3.0
 40
3.0
 40
3.0
 40
4.0
 40
4.0
 40
4.0
 40
5.0
 40
5.0
 40
5.0
 40
6.0
 40
6.0
 40
6.0
 40
7.0
 40
7.0
 40
7.0
 40
8.0
 40
8.0
 40
8.0
 40
9.0
 40
9.0
 40
9.0
 40
10.0
 40
10.0
 40
10.0
 40
11.0
 40
11.0
 40
11.0
 40
12.0
 40
12.0
 40
12.0
 40
13.0
 40
13.0
 40
13.0
 40
14.0
 40
14.0
 40
14.0
 40
15.0
 40
15.0
 40
15.0
 40
16.0
 40
16.0
 40
16.0
 40
17.0
 40
17.0
 40
17.0
 40
18.0
 40
18.0
 40
18.0
 40
19.0
 40
19.0
 40
19.0
 40
20.0
 40
20.0
 40
20.0
 40
21.0
 40
21.0
 40
21.0
 40
22.0
 40
22.0
 40
22.0
 40
23.0
 40
23.0
 40
23.0
 40
24.0
 40
24.0
 40
24.0
 40
25.0
 40
25.0
 40
25.0
 40
26.0
 40
26.0
 40
26.0
 40
27.0
 40
27.0
 40
27.0
 40
28.0
 40
28.0
 40
28.0
 40
29.0
 40
29.0
 40
29.0
 40
30.0
 40
30.0
 40
30.0
 40
31.0
 40
31.0
 40
31.0
 40
32.0
 40
32.0
 40
32.0
 40
32.0
 10
2.527757432725694
 20
-3.493503146701388
 10
2.525783962673611
 20
-3.496880425347221
 10
2.523830837673611
 20
-3.500278049045138
 10
2.52239990234375
 20
-3.503865559895833
 10
2.516350640190971
 20
-3.519083658854166
 10
2.521308051215277
 20
-3.534037272135416
 10
2.535603841145833
 20
-3.540642632378471
 10
2.545891655815971
 20
-3.54345703125
 10
2.555230034722221
 20
-3.54107666015625
 10
2.562608506944444
 20
-3.533867730034721
 10
2.577616373697916
 20
-3.519198947482638
 10
2.580206976996527
 20
-3.487901475694444
 10
2.576375325520833
 20
-3.472425672743055
 10
2.574435763888888
 20
-3.460428873697916
 10
2.569932725694444
 20
-3.443773057725694
 10
2.553310818142361
 20
-3.43764919704861
 10
2.535380045572916
 20
-3.431043836805555
 10
2.517123752170138
 20
-3.435153537326388
 10
2.505343967013888
 20
-3.448723687065971
 10
2.445488823784721
 20
-3.528706868489583
 10
2.479865180121527
 20
-3.632670084635416
 10
2.510199652777777
 20
-3.72439236111111
 10
2.518873426649305
 20
-3.750630696614583
 10
2.527072482638888
 20
-3.775410970052083
 10
2.53289794921875
 20
-3.79901123046875
 10
2.542616102430555
 20
-3.830247667100694
 10
2.541829427083333
 20
-3.853841145833333
 10
2.530110677083333
 20
-3.873833550347221
 10
2.529012044270833
 20
-3.876173231336805
 10
2.527255588107638
 20
-3.877855088975694
 10
2.525166829427083
 20
-3.87856716579861
 10
2.523023817274305
 20
-3.879286024305555
 10
2.520609537760416
 20
-3.879021538628471
 10
2.518174913194444
 20
-3.877760145399305
 10
2.516445583767361
 20
-3.876864963107638
 10
2.513224283854166
 20
-3.875203450520833
 10
2.516493055555555
 20
-3.864691840277777
 10
2.516838921440971
 20
-3.863572862413194
 10
2.519110785590277
 20
-3.861531575520833
 10
2.520765516493055
 20
-3.86004638671875
 10
2.522060818142361
 20
-3.85888671875
 10
2.523349338107638
 20
-3.857720269097221
 10
2.52447509765625
 20
-3.856513129340277
 10
2.530754937065971
 20
-3.849833170572916
 10
2.534152560763888
 20
-3.840474446614583
 10
2.533793131510416
 20
-3.83083767361111
 10
2.533454047309027
 20
-3.821709526909721
 10
2.529703776041666
 20
-3.813218858506944
 10
2.522942437065971
 20
-3.80706787109375
 10
2.512539333767361
 20
-3.799391004774305
 10
2.500115288628471
 20
-3.799350314670138
 10
2.489698621961805
 20
-3.80694580078125
 10
2.476420084635416
 20
-3.816643608940971
 10
2.470269097222221
 20
-3.83535427517361
 10
2.475199381510416
 20
-3.84979248046875
 10
2.475199381510416
 20
-3.84979248046875
 10
2.476019965277777
 20
-3.853325737847221
 10
2.476019965277777
 20
-3.853325737847221
 10
2.477620442708333
 20
-3.8602294921875
 10
2.479139539930555
 20
-3.866753472222221
 10
2.479973687065971
 20
-3.873372395833333
 10
2.482503255208333
 20
-3.893466525607638
 10
2.499355740017361
 20
-3.9122314453125
 10
2.519036187065971
 20
-3.916212293836805
 10
2.520473904079861
 20
-3.916354709201388
 10
2.521891276041666
 20
-3.916429307725694
 10
2.523301866319444
 20
-3.916429307725694
 10
2.535000271267361
 20
-3.916429307725694
 10
2.545633951822916
 20
-3.911519368489583
 10
2.554280598958333
 20
-3.902079264322916
 10
2.572265625
 20
-3.8824462890625
 10
2.578443739149305
 20
-3.846591525607638
 10
2.574083116319444
 20
-3.823533799913194
 10
2.56805419921875
 20
-3.78341335720486
 10
2.552456325954861
 20
-3.746148003472221
 10
2.537373860677083
 20
-3.710116916232638
 10
2.517489963107638
 20
-3.662618001302083
 10
2.498711480034721
 20
-3.617743598090277
 10
2.499457465277777
 20
-3.566257052951388
 10
2.50048828125
 20
-3.55971950954861
 10
2.501274956597221
 20
-3.553059895833333
 10
2.502061631944444
 20
-3.546379937065971
 10
2.505154079861111
 20
-3.520209418402777
 10
2.508076985677083
 20
-3.4954833984375
 10
2.525071885850694
 20
-3.476779513888888
 10
2.526129828559027
 20
-3.47622341579861
 10
2.529934353298611
 20
-3.476060655381944
 10
2.532206217447916
 20
-3.475958930121527
 10
2.532274034288194
 20
-3.475958930121527
 10
2.532335069444444
 20
-3.475958930121527
 10
2.532402886284721
 20
-3.4759521484375
 10
2.532904730902777
 20
-3.478752983940971
 10
2.5333251953125
 20
-3.481519911024305
 10
2.532823350694444
 20
-3.483188205295138
 10
2.531819661458333
 20
-3.48653835720486
 10
2.52984619140625
 20
-3.489922417534721
 10
2.527757432725694
 20
-3.493503146701388
 97
        0
 97
        1
330
81
 75
     2
 76
     1
 98
        1
 10
0.0
 20
0.0
450
        0
451
        0
460
0.0
461
0.0
452
        0
462
0.0
453
        0
470

  0
SPLINE
  5
83
330
70
100
AcDbEntity
  8
Layer 1
100
AcDbSpline
210
0.0
220
0.0
230
1.0
 70
     9
 71
     3
 72
    95
 73
    91
 74
     0
 42
0.0000000001
 43
0.0000000001
 40
0.0
 40
0.0
 40
0.0
 40
0.0
 40
1.0
 40
1.0
 40
1.0
 40
2.0
 40
2.0
 40
2.0
 40
3.0
 40
3.0
 40
3.0
 40
4.0
 40
4.0
 40
4.0
 40
5.0
 40
5.0
 40
5.0
 40
6.0
 40
6.0
 40
6.0
 40
7.0
 40
7.0
 40
7.0
 40
8.0
 40
8.0
 40
8.0
 40
9.0
 40
9.0
 40
9.0
 40
10.0
 40
10.0
 40
10.0
 40
11.0
 40
11.0
 40
11.0
 40
12.0
 40
12.0
 40
12.0
 40
13.0
 40
13.0
 40
13.0
 40
14.0
 40
14.0
 40
14.0
 40
15.0
 40
15.0
 40
15.0
 40
16.0
 40
16.0
 40
16.0
 40
17.0
 40
17.0
 40
17.0
 40
18.0
 40
18.0
 40
18.0
 40
19.0
 40
19.0
 40
19.0
 40
20.0
 40
20.0
 40
20.0
 40
21.0
 40
21.0
 40
21.0
 40
22.0
 40
22.0
 40
22.0
 40
23.0
 40
23.0
 40
23.0
 40
24.0
 40
24.0
 40
24.0
 40
25.0
 40
25.0
 40
25.0
 40
26.0
 40
26.0
 40
26.0
 40
27.0
 40
27.0
 40
27.0
 40
28.0
 40
28.0
 40
28.0
 40
29.0
 40
29.0
 40
29.0
 40
30.0
 40
30.0
 40
30.0
 40
30.0
 10
0.2567884657118055
 20
-3.380472819010416
 30
0.0
 10
0.2589586046006944
 20
-3.37850613064236
 30
0.0
 10
0.2616509331597222
 20
-3.376057942708333
 30
0.0
 10
0.2629123263888889
 20
-3.372389051649305
 30
0.0
 10
0.2663913302951389
 20
-3.362284342447916
 30
0.0
 10
0.2666286892361111
 20
-3.354871961805555
 30
0.0
 10
0.2636311848958333
 20
-3.349724663628471
 30
0.0
 10
0.2597724066840278
 20
-3.343119303385416
 30
0.0
 10
0.2496066623263889
 20
-3.336554633246527
 30
0.0
 10
0.2414347330729166
 20
-3.337497287326388
 30
0.0
 10
0.2321234809027778
 20
-3.338677300347221
 30
0.0
 10
0.2222900390625
 20
-3.343919542100694
 30
0.0
 10
0.2169596354166666
 20
-3.350545247395833
 30
0.0
 10
0.2083875868055555
 20
-3.361212836371527
 30
0.0
 10
0.2051255967881944
 20
-3.372212727864583
 30
0.0
 10
0.2072618272569444
 20
-3.383226182725694
 30
0.0
 10
0.2106526692708333
 20
-3.400668674045138
 30
0.0
 10
0.2263590494791666
 20
-3.411777072482638
 30
0.0
 10
0.2362874348958333
 20
-3.417256673177083
 30
0.0
 10
0.2451443142361111
 20
-3.42071533203125
 30
0.0
 10
0.2529229058159722
 20
-3.422112358940971
 30
0.0
 10
0.2597113715277778
 20
-3.422112358940971
 30
0.0
 10
0.27337646484375
 20
-3.422105577256944
 30
0.0
 10
0.2830268012152777
 20
-3.416449652777777
 30
0.0
 10
0.2893608940972222
 20
-3.410569932725694
 30
0.0
 10
0.3307088216145833
 20
-3.372212727864583
 30
0.0
 10
0.3169487847222222
 20
-3.25277370876736
 30
0.0
 10
0.3070136176215277
 20
-3.220350477430555
 30
0.0
 10
0.2986721462673611
 20
-3.188551161024305
 30
0.0
 10
0.2839898003472222
 20
-3.158250596788194
 30
0.0
 10
0.26959228515625
 20
-3.128587510850694
 30
0.0
 10
0.259521484375
 20
-3.110595703125
 30
0.0
 10
0.2444864908854166
 20
-3.048807779947916
 30
0.0
 10
0.2563408745659722
 20
-3.022196451822916
 30
0.0
 10
0.2588297526041666
 20
-3.016615125868055
 30
0.0
 10
0.2622545030381944
 20
-3.013400607638888
 30
0.0
 10
0.2663370768229166
 20
-3.012457953559027
 30
0.0
 10
0.2695109049479166
 20
-3.012037489149305
 30
0.0
 10
0.2719930013020833
 20
-3.014655219184027
 30
0.0
 10
0.2738715277777778
 20
-3.020378960503471
 30
0.0
 10
0.2781439887152777
 20
-3.033420138888888
 30
0.0
 10
0.2748277452256944
 20
-3.043056911892361
 30
0.0
 10
0.2627902560763889
 20
-3.0526123046875
 30
0.0
 10
0.2627902560763889
 20
-3.0526123046875
 30
0.0
 10
0.2611083984375
 20
-3.054545084635416
 30
0.0
 10
0.2611083984375
 20
-3.054545084635416
 30
0.0
 10
0.2548963758680555
 20
-3.065171983506944
 30
0.0
 10
0.25537109375
 20
-3.074347601996527
 30
0.0
 10
0.2569512261284722
 20
-3.083062065972221
 30
0.0
 10
0.2605862087673611
 20
-3.093404134114583
 30
0.0
 10
0.2706366644965278
 20
-3.099758572048611
 30
0.0
 10
0.2816229926215277
 20
-3.099148220486111
 30
0.0
 10
0.2923244900173611
 20
-3.09844970703125
 30
0.0
 10
0.3006795247395833
 20
-3.0911865234375
 30
0.0
 10
0.3026936848958333
 20
-3.081427680121527
 30
0.0
 10
0.3111165364583333
 20
-3.056552463107638
 30
0.0
 10
0.3079969618055555
 20
-3.0306396484375
 30
0.0
 10
0.2934705946180555
 20
-3.0029296875
 30
0.0
 10
0.2878757052951389
 20
-2.988369411892361
 30
0.0
 10
0.2736680772569444
 20
-2.978997124565971
 30
0.0
 10
0.2577718098958333
 20
-2.979824490017361
 30
0.0
 10
0.2421671549479166
 20
-2.980326334635416
 30
0.0
 10
0.2291937934027778
 20
-2.989915635850694
 30
0.0
 10
0.2248602973090278
 20
-3.00384521484375
 30
0.0
 10
0.2064954969618055
 20
-3.051730685763888
 30
0.0
 10
0.2107137044270833
 20
-3.093051486545138
 30
0.0
 10
0.2377454969618055
 20
-3.13018798828125
 30
0.0
 10
0.2488742404513889
 20
-3.145480685763888
 30
0.0
 10
0.2582329644097222
 20
-3.163160536024305
 30
0.0
 10
0.2647976345486111
 20
-3.181321885850694
 30
0.0
 10
0.2758110894097222
 20
-3.211785210503471
 30
0.0
 10
0.2807549370659722
 20
-3.24557156032986
 30
0.0
 10
0.28082275390625
 20
-3.29085964626736
 30
0.0
 10
0.2804701063368055
 20
-3.315422905815971
 30
0.0
 10
0.2778998480902777
 20
-3.342698838975694
 30
0.0
 10
0.2727593315972222
 20
-3.376519097222221
 30
0.0
 10
0.2722032335069444
 20
-3.379618326822916
 30
0.0
 10
0.2692667643229166
 20
-3.38509792751736
 30
0.0
 10
0.2592366536458333
 20
-3.393100314670138
 30
0.0
 10
0.2589518229166666
 20
-3.393181694878471
 30
0.0
 10
0.2585788302951389
 20
-3.393208821614583
 30
0.0
 10
0.2581448025173611
 20
-3.393208821614583
 30
0.0
 10
0.2561577690972222
 20
-3.393208821614583
 30
0.0
 10
0.2529839409722222
 20
-3.392564561631944
 30
0.0
 10
0.2526380750868055
 20
-3.392598470052083
 30
0.0
 10
0.2523396809895833
 20
-3.391465928819444
 30
0.0
 10
0.2528008355034722
 20
-3.387437608506944
 30
0.0
 10
0.2544148763020833
 20
-3.38290066189236
 30
0.0
 10
0.2546725802951389
 20
-3.382392035590277
 30
0.0
 10
0.2559475368923611
 20
-3.381239149305555
 30
0.0
 10
0.2567884657118055
 20
-3.380472819010416
 30
0.0
  0
HATCH
  5
84
330
70
100
AcDbEntity
  8
Layer 1
 62
   250
420
  2301728
440
 33554687
100
AcDbHatch
 10
0.0
 20
0.0
 30
0.0
210
0.0
220
0.0
230
1.0
  2
SOLID
 70
     1
 71
     1
 91
        1
 92
        1
 93
        1
 72
     4
 94
        3
 73
     0
 74
     0
 95
       95
 96
       91
 40
0.0
 40
0.0
 40
0.0
 40
0.0
 40
1.0
 40
1.0
 40
1.0
 40
2.0
 40
2.0
 40
2.0
 40
3.0
 40
3.0
 40
3.0
 40
4.0
 40
4.0
 40
4.0
 40
5.0
 40
5.0
 40
5.0
 40
6.0
 40
6.0
 40
6.0
 40
7.0
 40
7.0
 40
7.0
 40
8.0
 40
8.0
 40
8.0
 40
9.0
 40
9.0
 40
9.0
 40
10.0
 40
10.0
 40
10.0
 40
11.0
 40
11.0
 40
11.0
 40
12.0
 40
12.0
 40
12.0
 40
13.0
 40
13.0
 40
13.0
 40
14.0
 40
14.0
 40
14.0
 40
15.0
 40
15.0
 40
15.0
 40
16.0
 40
16.0
 40
16.0
 40
17.0
 40
17.0
 40
17.0
 40
18.0
 40
18.0
 40
18.0
 40
19.0
 40
19.0
 40
19.0
 40
20.0
 40
20.0
 40
20.0
 40
21.0
 40
21.0
 40
21.0
 40
22.0
 40
22.0
 40
22.0
 40
23.0
 40
23.0
 40
23.0
 40
24.0
 40
24.0
 40
24.0
 40
25.0
 40
25.0
 40
25.0
 40
26.0
 40
26.0
 40
26.0
 40
27.0
 40
27.0
 40
27.0
 40
28.0
 40
28.0
 40
28.0
 40
29.0
 40
29.0
 40
29.0
 40
30.0
 40
30.0
 40
30.0
 40
30.0
 10
0.2567884657118055
 20
-3.380472819010416
 10
0.2589586046006944
 20
-3.37850613064236
 10
0.2616509331597222
 20
-3.376057942708333
 10
0.2629123263888889
 20
-3.372389051649305
 10
0.2663913302951389
 20
-3.362284342447916
 10
0.2666286892361111
 20
-3.354871961805555
 10
0.2636311848958333
 20
-3.349724663628471
 10
0.2597724066840278
 20
-3.343119303385416
 10
0.2496066623263889
 20
-3.336554633246527
 10
0.2414347330729166
 20
-3.337497287326388
 10
0.2321234809027778
 20
-3.338677300347221
 10
0.2222900390625
 20
-3.343919542100694
 10
0.2169596354166666
 20
-3.350545247395833
 10
0.2083875868055555
 20
-3.361212836371527
 10
0.2051255967881944
 20
-3.372212727864583
 10
0.2072618272569444
 20
-3.383226182725694
 10
0.2106526692708333
 20
-3.400668674045138
 10
0.2263590494791666
 20
-3.411777072482638
 10
0.2362874348958333
 20
-3.417256673177083
 10
0.2451443142361111
 20
-3.42071533203125
 10
0.2529229058159722
 20
-3.422112358940971
 10
0.2597113715277778
 20
-3.422112358940971
 10
0.27337646484375
 20
-3.422105577256944
 10
0.2830268012152777
 20
-3.416449652777777
 10
0.2893608940972222
 20
-3.410569932725694
 10
0.3307088216145833
 20
-3.372212727864583
 10
0.3169487847222222
 20
-3.25277370876736
 10
0.3070136176215277
 20
-3.220350477430555
 10
0.2986721462673611
 20
-3.188551161024305
 10
0.2839898003472222
 20
-3.158250596788194
 10
0.26959228515625
 20
-3.128587510850694
 10
0.259521484375
 20
-3.110595703125
 10
0.2444864908854166
 20
-3.048807779947916
 10
0.2563408745659722
 20
-3.022196451822916
 10
0.2588297526041666
 20
-3.016615125868055
 10
0.2622545030381944
 20
-3.013400607638888
 10
0.2663370768229166
 20
-3.012457953559027
 10
0.2695109049479166
 20
-3.012037489149305
 10
0.2719930013020833
 20
-3.014655219184027
 10
0.2738715277777778
 20
-3.020378960503471
 10
0.2781439887152777
 20
-3.033420138888888
 10
0.2748277452256944
 20
-3.043056911892361
 10
0.2627902560763889
 20
-3.0526123046875
 10
0.2627902560763889
 20
-3.0526123046875
 10
0.2611083984375
 20
-3.054545084635416
 10
0.2611083984375
 20
-3.054545084635416
 10
0.2548963758680555
 20
-3.065171983506944
 10
0.25537109375
 20
-3.074347601996527
 10
0.2569512261284722
 20
-3.083062065972221
 10
0.2605862087673611
 20
-3.093404134114583
 10
0.2706366644965278
 20
-3.099758572048611
 10
0.2816229926215277
 20
-3.099148220486111
 10
0.2923244900173611
 20
-3.09844970703125
 10
0.3006795247395833
 20
-3.0911865234375
 10
0.3026936848958333
 20
-3.081427680121527
 10
0.3111165364583333
 20
-3.056552463107638
 10
0.3079969618055555
 20
-3.0306396484375
 10
0.2934705946180555
 20
-3.0029296875
 10
0.2878757052951389
 20
-2.988369411892361
 10
0.2736680772569444
 20
-2.978997124565971
 10
0.2577718098958333
 20
-2.979824490017361
 10
0.2421671549479166
 20
-2.980326334635416
 10
0.2291937934027778
 20
-2.989915635850694
 10
0.2248602973090278
 20
-3.00384521484375
 10
0.2064954969618055
 20
-3.051730685763888
 10
0.2107137044270833
 20
-3.093051486545138
 10
0.2377454969618055
 20
-3.13018798828125
 10
0.2488742404513889
 20
-3.145480685763888
 10
0.2582329644097222
 20
-3.163160536024305
 10
0.2647976345486111
 20
-3.181321885850694
 10
0.2758110894097222
 20
-3.211785210503471
 10
0.2807549370659722
 20
-3.24557156032986
 10
0.28082275390625
 20
-3.29085964626736
 10
0.2804701063368055
 20
-3.315422905815971
 10
0.2778998480902777
 20
-3.342698838975694
 10
0.2727593315972222
 20
-3.376519097222221
 10
0.2722032335069444
 20
-3.379618326822916
 10
0.2692667643229166
 20
-3.38509792751736
 10
0.2592366536458333
 20
-3.393100314670138
 10
0.2589518229166666
 20
-3.393181694878471
 10
0.2585788302951389
 20
-3.393208821614583
 10
0.2581448025173611
 20
-3.393208821614583
 10
0.2561577690972222
 20
-3.393208821614583
 10
0.2529839409722222
 20
-3.392564561631944
 10
0.2526380750868055
 20
-3.392598470052083
 10
0.2523396809895833
 20
-3.391465928819444
 10
0.2528008355034722
 20
-3.387437608506944
 10
0.2544148763020833
 20
-3.38290066189236
 10
0.2546725802951389
 20
-3.382392035590277
 10
0.2559475368923611
 20
-3.381239149305555
 10
0.2567884657118055
 20
-3.380472819010416
 97
        0
 97
        1
330
83
 75
     2
 76
     1
 98
        1
 10
0.0
 20
0.0
450
        0
451
        0
460
0.0
461
0.0
452
        0
462
0.0
453
        0
470

  0
ENDSEC
  0
SECTION
  2
OBJECTS
  0
DICTIONARY
  5
C
330
0
100
AcDbDictionary
281
     1
  3
ACAD_COLOR
350
63
  3
ACAD_DETAILVIEWSTYLE
350
6A
  3
ACAD_GROUP
350
D
  3
ACAD_LAYOUT
350
62
  3
ACAD_MATERIAL
350
10
  3
ACAD_MLEADERSTYLE
350
66
  3
ACAD_MLINESTYLE
350
5F
  3
ACAD_PLOTSETTINGS
350
61
  3
ACAD_PLOTSTYLENAME
350
E
  3
ACAD_SCALELIST
350
42
  3
ACAD_SECTIONVIEWSTYLE
350
68
  3
ACAD_TABLESTYLE
350
64
  3
ACAD_VISUALSTYLE
350
29
  3
ACDB_RECOMPOSE_DATA
350
8D
  3
AcDbVariableDictionary
350
85
  0
DICTIONARY
  5
63
102
{ACAD_REACTORS
330
C
102
}
330
C
100
AcDbDictionary
281
     1
  0
DICTIONARY
  5
6A
102
{ACAD_REACTORS
330
C
102
}
330
C
100
AcDbDictionary
281
     1
  3
Imperial24
350
6B
  0
DICTIONARY
  5
D
102
{ACAD_REACTORS
330
C
102
}
330
C
100
AcDbDictionary
281
     1
  0
DICTIONARY
  5
62
102
{ACAD_REACTORS
330
C
102
}
330
C
100
AcDbDictionary
281
     1
  3
Layout1
350
6F
  3
Layout2
350
77
  3
Model
350
73
  0
DICTIONARY
  5
10
102
{ACAD_REACTORS
330
C
102
}
330
C
100
AcDbDictionary
281
     1
  3
ByBlock
350
19
  3
ByLayer
350
11
  3
Global
350
21
  0
DICTIONARY
  5
66
102
{ACAD_REACTORS
330
C
102
}
330
C
100
AcDbDictionary
281
     1
  3
Standard
350
67
  0
DICTIONARY
  5
5F
102
{ACAD_REACTORS
330
C
102
}
330
C
100
AcDbDictionary
281
     1
  3
Standard
350
60
  0
DICTIONARY
  5
61
102
{ACAD_REACTORS
330
C
102
}
330
C
100
AcDbDictionary
281
     1
  0
ACDBDICTIONARYWDFLT
  5
E
102
{ACAD_REACTORS
330
C
102
}
330
C
100
AcDbDictionary
281
     1
  3
Normal
350
F
100
AcDbDictionaryWithDefault
340
F
  0
DICTIONARY
  5
42
102
{ACAD_REACTORS
330
C
102
}
330
C
100
AcDbDictionary
281
     1
  3
A0
350
43
  3
A1
350
44
  3
A2
350
45
  3
A3
350
46
  3
A4
350
47
  3
A5
350
48
  3
A6
350
49
  3
A7
350
4A
  3
A8
350
4B
  3
A9
350
4C
  3
B0
350
4D
  3
B1
350
4E
  3
B2
350
4F
  3
B3
350
50
  3
B4
350
51
  3
B5
350
52
  3
B6
350
53
  0
DICTIONARY
  5
68
102
{ACAD_REACTORS
330
C
102
}
330
C
100
AcDbDictionary
281
     1
  3
Imperial24
350
69
  0
DICTIONARY
  5
64
102
{ACAD_REACTORS
330
C
102
}
330
C
100
AcDbDictionary
281
     1
  3
Standard
350
65
  0
DICTIONARY
  5
29
102
{ACAD_REACTORS
330
C
102
}
330
C
100
AcDbDictionary
281
     1
  3
2dWireframe
350
2F
  3
Basic
350
2E
  3
Brighten
350
35
  3
ColorChange
350
39
  3
Conceptual
350
32
  3
Dim
350
34
  3
EdgeColorOff
350
41
  3
Facepattern
350
38
  3
Flat
350
2A
  3
FlatWithEdges
350
2B
  3
Gouraud
350
2C
  3
GouraudWithEdges
350
2D
  3
Hidden
350
31
  3
JitterOff
350
3F
  3
Linepattern
350
37
  3
OverhangOff
350
40
  3
Realistic
350
33
  3
Shaded
350
3E
  3
Shaded with edges
350
3D
  3
Shades of Gray
350
3A
  3
Sketchy
350
3B
  3
Thicken
350
36
  3
Wireframe
350
30
  3
X-Ray
350
3C
  0
XRECORD
  5
8D
102
{ACAD_REACTORS
330
C
102
}
330
C
100
AcDbXrecord
280
     1
 90
        1
330
65
  0
DICTIONARY
  5
85
102
{ACAD_REACTORS
330
C
102
}
330
C
100
AcDbDictionary
281
     1
  3
CANNOSCALE
350
8A
  3
CMLEADERSTYLE
350
87
  3
CTABLESTYLE
350
86
  3
CVIEWDETAILSTYLE
350
88
  3
CVIEWSECTIONSTYLE
350
89
  0
ACDBDETAILVIEWSTYLE
  5
6B
102
{ACAD_REACTORS
330
6A
102
}
330
6A
100
AcDbModelDocViewStyle
 70
     0
  3
Imperial24
290
     1
300
Imperial24
 90
        0
100
AcDbDetailViewStyle
 70
     0
 71
     0
 90
        3
 71
     1
340
55
 62
   256
 40
0.24
340
0
 62
   256
 40
0.24
300

 40
0.36
280
     3
 71
     2
340
5D
 90
       25
 62
   256
 71
     3
340
55
 62
   256
 40
0.24
 90
        1
 40
0.75
 90
        1
300
%<\AcVar ViewType \f "%tc1">% %<\AcVar ViewDetailId>%\PSCALE %<\AcVar ViewScale \f "%sn">%
 71
     4
340
5D
 90
       25
 62
   256
340
5D
 90
       25
 62
   256
280
     0
  0
LAYOUT
  5
6F
102
{ACAD_REACTORS
330
62
102
}
330
62
100
AcDbPlotSettings
  1

  2

  4

  6

 40
0.0
 41
0.0
 42
0.0
 43
0.0
 44
0.0
 45
0.0
 46
0.0
 47
0.0
 48
0.0
 49
0.0
140
0.0
141
0.0
142
1.0
143
1.0
 70
   688
 72
     0
 73
     0
 74
     5
  7

 75
    16
147
1.0
 76
     0
 77
     2
 78
   300
148
0.0
149
0.0
100
AcDbLayout
  1
Layout1
 70
     1
 71
     1
 10
0.0
 20
0.0
 11
12.0
 21
9.0
 12
0.0
 22
0.0
 32
0.0
 14
0.0
 24
0.0
 34
0.0
 15
0.0
 25
0.0
 35
0.0
146
0.0
 13
0.0
 23
0.0
 33
0.0
 16
1.0
 26
0.0
 36
0.0
 17
0.0
 27
1.0
 37
0.0
 76
     0
330
6C
  0
LAYOUT
  5
77
102
{ACAD_REACTORS
330
62
102
}
330
62
100
AcDbPlotSettings
  1

  2

  4

  6

 40
0.0
 41
0.0
 42
0.0
 43
0.0
 44
0.0
 45
0.0
 46
0.0
 47
0.0
 48
0.0
 49
0.0
140
0.0
141
0.0
142
1.0
143
1.0
 70
   688
 72
     0
 73
     0
 74
     5
  7

 75
    16
147
1.0
 76
     0
 77
     2
 78
   300
148
0.0
149
0.0
100
AcDbLayout
  1
Layout2
 70
     1
 71
     2
 10
0.0
 20
0.0
 11
12.0
 21
9.0
 12
0.0
 22
0.0
 32
0.0
 14
0.0
 24
0.0
 34
0.0
 15
0.0
 25
0.0
 35
0.0
146
0.0
 13
0.0
 23
0.0
 33
0.0
 16
1.0
 26
0.0
 36
0.0
 17
0.0
 27
1.0
 37
0.0
 76
     0
330
74
  0
LAYOUT
  5
73
102
{ACAD_REACTORS
330
62
102
}
330
62
100
AcDbPlotSettings
  1

  2

  4

  6

 40
0.0
 41
0.0
 42
0.0
 43
0.0
 44
0.0
 45
0.0
 46
0.0
 47
0.0
 48
0.0
 49
0.0
140
0.0
141
0.0
142
1.0
143
1.0
 70
  1712
 72
     0
 73
     0
 74
     0
  7

 75
     0
147
1.0
 76
     0
 77
     2
 78
   300
148
0.0
149
0.0
100
AcDbLayout
  1
Model
 70
     1
 71
     0
 10
0.0
 20
0.0
 11
12.0
 21
9.0
 12
0.0
 22
0.0
 32
0.0
 14
0.0
 24
0.0
 34
0.0
 15
0.0
 25
0.0
 35
0.0
146
0.0
 13
0.0
 23
0.0
 33
0.0
 16
1.0
 26
0.0
 36
0.0
 17
0.0
 27
1.0
 37
0.0
 76
     0
330
70
  0
MATERIAL
  5
19
102
{ACAD_XDICTIONARY
360
1A
102
}
102
{ACAD_REACTORS
330
10
102
}
330
10
100
AcDbMaterial
  1
ByBlock
 72
     0
 43
0.0208333333333333
 43
0.0
 43
0.0
 43
0.0
 43
0.0
 43
0.0208333333333333
 43
0.0
 43
0.0
 43
0.0
 43
0.0
 43
1.0
 43
0.0
 43
0.0
 43
0.0
 43
0.0
 43
1.0
 77
     0
 47
0.0208333333333333
 47
0.0
 47
0.0
 47
0.0
 47
0.0
 47
0.0208333333333333
 47
0.0
 47
0.0
 47
0.0
 47
0.0
 47
1.0
 47
0.0
 47
0.0
 47
0.0
 47
0.0
 47
1.0
171
     0
 49
0.0208333333333333
 49
0.0
 49
0.0
 49
0.0
 49
0.0
 49
0.0208333333333333
 49
0.0
 49
0.0
 49
0.0
 49
0.0
 49
1.0
 49
0.0
 49
0.0
 49
0.0
 49
0.0
 49
1.0
175
     0
142
0.0208333333333333
142
0.0
142
0.0
142
0.0
142
0.0
142
0.0208333333333333
142
0.0
142
0.0
142
0.0
142
0.0
142
1.0
142
0.0
142
0.0
142
0.0
142
0.0
142
1.0
179
     0
144
0.0208333333333333
144
0.0
144
0.0
144
0.0
144
0.0
144
0.0208333333333333
144
0.0
144
0.0
144
0.0
144
0.0
144
1.0
144
0.0
144
0.0
144
0.0
144
0.0
144
1.0
147
0.0208333333333333
147
0.0
147
0.0
147
0.0
147
0.0
147
0.0208333333333333
147
0.0
147
0.0
147
0.0
147
0.0
147
1.0
147
0.0
147
0.0
147
0.0
147
0.0
147
1.0
  0
MATERIAL
  5
11
102
{ACAD_XDICTIONARY
360
12
102
}
102
{ACAD_REACTORS
330
10
102
}
330
10
100
AcDbMaterial
  1
ByLayer
 72
     0
 43
0.0208333333333333
 43
0.0
 43
0.0
 43
0.0
 43
0.0
 43
0.0208333333333333
 43
0.0
 43
0.0
 43
0.0
 43
0.0
 43
1.0
 43
0.0
 43
0.0
 43
0.0
 43
0.0
 43
1.0
 77
     0
 47
0.0208333333333333
 47
0.0
 47
0.0
 47
0.0
 47
0.0
 47
0.0208333333333333
 47
0.0
 47
0.0
 47
0.0
 47
0.0
 47
1.0
 47
0.0
 47
0.0
 47
0.0
 47
0.0
 47
1.0
171
     0
 49
0.0208333333333333
 49
0.0
 49
0.0
 49
0.0
 49
0.0
 49
0.0208333333333333
 49
0.0
 49
0.0
 49
0.0
 49
0.0
 49
1.0
 49
0.0
 49
0.0
 49
0.0
 49
0.0
 49
1.0
175
     0
142
0.0208333333333333
142
0.0
142
0.0
142
0.0
142
0.0
142
0.0208333333333333
142
0.0
142
0.0
142
0.0
142
0.0
142
1.0
142
0.0
142
0.0
142
0.0
142
0.0
142
1.0
179
     0
144
0.0208333333333333
144
0.0
144
0.0
144
0.0
144
0.0
144
0.0208333333333333
144
0.0
144
0.0
144
0.0
144
0.0
144
1.0
144
0.0
144
0.0
144
0.0
144
0.0
144
1.0
147
0.0208333333333333
147
0.0
147
0.0
147
0.0
147
0.0
147
0.0208333333333333
147
0.0
147
0.0
147
0.0
147
0.0
147
1.0
147
0.0
147
0.0
147
0.0
147
0.0
147
1.0
  0
MATERIAL
  5
21
102
{ACAD_XDICTIONARY
360
22
102
}
102
{ACAD_REACTORS
330
10
102
}
330
10
100
AcDbMaterial
  1
Global
 72
     0
 43
0.0208333333333333
 43
0.0
 43
0.0
 43
0.0
 43
0.0
 43
0.0208333333333333
 43
0.0
 43
0.0
 43
0.0
 43
0.0
 43
1.0
 43
0.0
 43
0.0
 43
0.0
 43
0.0
 43
1.0
 77
     0
 47
0.0208333333333333
 47
0.0
 47
0.0
 47
0.0
 47
0.0
 47
0.0208333333333333
 47
0.0
 47
0.0
 47
0.0
 47
0.0
 47
1.0
 47
0.0
 47
0.0
 47
0.0
 47
0.0
 47
1.0
171
     0
 49
0.0208333333333333
 49
0.0
 49
0.0
 49
0.0
 49
0.0
 49
0.0208333333333333
 49
0.0
 49
0.0
 49
0.0
 49
0.0
 49
1.0
 49
0.0
 49
0.0
 49
0.0
 49
0.0
 49
1.0
175
     0
142
0.0208333333333333
142
0.0
142
0.0
142
0.0
142
0.0
142
0.0208333333333333
142
0.0
142
0.0
142
0.0
142
0.0
142
1.0
142
0.0
142
0.0
142
0.0
142
0.0
142
1.0
179
     0
144
0.0208333333333333
144
0.0
144
0.0
144
0.0
144
0.0
144
0.0208333333333333
144
0.0
144
0.0
144
0.0
144
0.0
144
1.0
144
0.0
144
0.0
144
0.0
144
0.0
144
1.0
147
0.0208333333333333
147
0.0
147
0.0
147
0.0
147
0.0
147
0.0208333333333333
147
0.0
147
0.0
147
0.0
147
0.0
147
1.0
147
0.0
147
0.0
147
0.0
147
0.0
147
1.0
  0
MLEADERSTYLE
  5
67
102
{ACAD_REACTORS
330
66
102
}
330
66
100
AcDbMLeaderStyle
179
     2
170
     2
171
     1
172
     0
 90
        2
 40
0.0
 41
0.0
173
     1
 91
-1056964608
340
5B
 92
       -2
290
     1
 42
0.09
291
     1
 43
0.36
  3
Standard
 44
0.18
300

342
55
174
     1
178
     6
175
     1
176
     0
 93
-1056964608
 45
0.18
292
     0
297
     0
 46
0.18
 94
-1056964608
 47
1.0
 49
1.0
140
1.0
293
     1
141
0.0
294
     1
177
     0
142
1.0
295
     1
296
     0
143
0.125
271
     0
272
     9
273
     9
298
     1
  0
MLINESTYLE
  5
60
102
{ACAD_REACTORS
330
5F
102
}
330
5F
100
AcDbMlineStyle
  2
STANDARD
 70
     0
  3

 62
   256
 51
90.0
 52
90.0
 71
     2
 49
0.5
 62
   256
  6
BYLAYER
 49
-0.5
 62
   256
  6
BYLAYER
  0
ACDBPLACEHOLDER
  5
F
102
{ACAD_REACTORS
330
E
102
}
330
E
  0
SCALE
  5
43
102
{ACAD_REACTORS
330
42
102
}
330
42
100
AcDbScale
 70
     0
300
1:1
140
1.0
141
1.0
290
     1
  0
SCALE
  5
44
102
{ACAD_REACTORS
330
42
102
}
330
42
100
AcDbScale
 70
     0
300
1/128" = 1'-0"
140
0.0078125
141
12.0
290
     0
  0
SCALE
  5
45
102
{ACAD_REACTORS
330
42
102
}
330
42
100
AcDbScale
 70
     0
300
1/64" = 1'-0"
140
0.015625
141
12.0
290
     0
  0
SCALE
  5
46
102
{ACAD_REACTORS
330
42
102
}
330
42
100
AcDbScale
 70
     0
300
1/32" = 1'-0"
140
0.03125
141
12.0
290
     0
  0
SCALE
  5
47
102
{ACAD_REACTORS
330
42
102
}
330
42
100
AcDbScale
 70
     0
300
1/16" = 1'-0"
140
0.0625
141
12.0
290
     0
  0
SCALE
  5
48
102
{ACAD_REACTORS
330
42
102
}
330
42
100
AcDbScale
 70
     0
300
3/32" = 1'-0"
140
0.09375
141
12.0
290
     0
  0
SCALE
  5
49
102
{ACAD_REACTORS
330
42
102
}
330
42
100
AcDbScale
 70
     0
300
1/8" = 1'-0"
140
0.125
141
12.0
290
     0
  0
SCALE
  5
4A
102
{ACAD_REACTORS
330
42
102
}
330
42
100
AcDbScale
 70
     0
300
3/16" = 1'-0"
140
0.1875
141
12.0
290
     0
  0
SCALE
  5
4B
102
{ACAD_REACTORS
330
42
102
}
330
42
100
AcDbScale
 70
     0
300
1/4" = 1'-0"
140
0.25
141
12.0
290
     0
  0
SCALE
  5
4C
102
{ACAD_REACTORS
330
42
102
}
330
42
100
AcDbScale
 70
     0
300
3/8" = 1'-0"
140
0.375
141
12.0
290
     0
  0
SCALE
  5
4D
102
{ACAD_REACTORS
330
42
102
}
330
42
100
AcDbScale
 70
     0
300
1/2" = 1'-0"
140
0.5
141
12.0
290
     0
  0
SCALE
  5
4E
102
{ACAD_REACTORS
330
42
102
}
330
42
100
AcDbScale
 70
     0
300
3/4" = 1'-0"
140
0.75
141
12.0
290
     0
  0
SCALE
  5
4F
102
{ACAD_REACTORS
330
42
102
}
330
42
100
AcDbScale
 70
     0
300
1" = 1'-0"
140
1.0
141
12.0
290
     0
  0
SCALE
  5
50
102
{ACAD_REACTORS
330
42
102
}
330
42
100
AcDbScale
 70
     0
300
1-1/2" = 1'-0"
140
1.5
141
12.0
290
     0
  0
SCALE
  5
51
102
{ACAD_REACTORS
330
42
102
}
330
42
100
AcDbScale
 70
     0
300
3" = 1'-0"
140
3.0
141
12.0
290
     0
  0
SCALE
  5
52
102
{ACAD_REACTORS
330
42
102
}
330
42
100
AcDbScale
 70
     0
300
6" = 1'-0"
140
6.0
141
12.0
290
     0
  0
SCALE
  5
53
102
{ACAD_REACTORS
330
42
102
}
330
42
100
AcDbScale
 70
     0
300
1'-0" = 1'-0"
140
12.0
141
12.0
290
     0
  0
ACDBSECTIONVIEWSTYLE
  5
69
102
{ACAD_REACTORS
330
68
102
}
330
68
100
AcDbModelDocViewStyle
 70
     0
  3
Imperial24
290
     1
300
Imperial24
 90
        0
100
AcDbSectionViewStyle
 70
     0
 71
     0
 90
       78
 71
     1
340
55
 62
   256
 40
0.24
340
0
340
0
 62
   256
 40
0.24
300
I, O, Q, S, X, Z
 40
0.48
 90
        3
 40
0.18
 90
        1
 71
     2
340
5D
 90
       25
 62
   256
340
5D
 90
       50
 62
   256
 40
0.24
 40
0.0
 40
0.24
 71
     3
340
55
 62
   256
 40
0.24
 90
        1
 40
0.75
 90
        1
300
%<\AcVar ViewType \f "%tc1">% %<\AcVar ViewSectionStartId>%-%<\AcVar ViewSectionEndId>%\PSCALE %<\AcVar ViewScale \f "%sn">%
 71
     4
 62
   256
 62
   257
300
ANSI31
 40
1.0
 90
        0
290
     0
290
     0
 90
        6
 40
0.0
 40
1.570796326794896
 40
0.2617993877991494
 40
1.308996938995747
 40
-0.2617993877991494
 40
1.832595714594046
  0
TABLESTYLE
  5
65
102
{ACAD_XDICTIONARY
360
8B
102
}
102
{ACAD_REACTORS
330
64
102
}
330
64
100
AcDbTableStyle
280
     0
  3
Standard
 70
     0
 71
     0
 40
0.06
 41
0.06
280
     0
281
     0
  7
Standard
140
0.18
170
     2
 62
     0
 63
     7
283
     0
 90
      512
 91
        0
  1

274
    -2
284
     1
 64
     0
275
    -2
285
     1
 65
     0
276
    -2
286
     1
 66
     0
277
    -2
287
     1
 67
     0
278
    -2
288
     1
 68
     0
279
    -2
289
     1
 69
     0
  7
Standard
140
0.25
170
     5
 62
     0
 63
     7
283
     0
 90
      512
 91
        0
  1

274
    -2
284
     1
 64
     0
275
    -2
285
     1
 65
     0
276
    -2
286
     1
 66
     0
277
    -2
287
     1
 67
     0
278
    -2
288
     1
 68
     0
279
    -2
289
     1
 69
     0
  7
Standard
140
0.18
170
     5
 62
     0
 63
     7
283
     0
 90
      512
 91
        0
  1

274
    -2
284
     1
 64
     0
275
    -2
285
     1
 65
     0
276
    -2
286
     1
 66
     0
277
    -2
287
     1
 67
     0
278
    -2
288
     1
 68
     0
279
    -2
289
     1
 69
     0
  0
VISUALSTYLE
  5
2F
102
{ACAD_REACTORS
330
29
102
}
330
29
100
AcDbVisualStyle
  2
2dWireframe
 70
     4
177
     3
291
     0
 70
    58
 90
        0
176
     1
 90
        2
176
     1
 90
        0
176
     1
 90
        0
176
     1
 40
0.6
176
     1
 40
30.0
176
     1
 62
     7
420
 16777215
176
     1
 90
        1
176
     1
 90
        4
176
     1
 62
     7
176
     1
 62
   257
176
     1
 90
        1
176
     1
 90
        1
176
     1
 40
1.0
176
     1
 90
        0
176
     1
 62
   257
176
     1
 40
1.0
176
     1
 90
        1
176
     1
 90
        6
176
     1
 90
        2
176
     1
 62
     7
176
     1
 90
        5
176
     1
 90
        0
176
     1
 90
        0
176
     1
290
     0
176
     1
 90
        1
176
     1
 40
0.0
176
     1
 90
        0
176
     1
290
     1
176
     1
290
     1
176
     1
290
     0
176
     1
290
     0
176
     1
290
     0
176
     1
290
     0
176
     1
290
     0
176
     1
290
     0
176
     1
290
     0
176
     1
 90
       50
176
     1
 40
0.0
176
     1
 40
1.0
176
     1
 90
        0
176
     1
 62
    18
420
        0
176
     1
 90
       50
176
     1
 90
        3
176
     1
 62
     5
420
      255
176
     1
290
     0
176
     1
 90
       50
176
     1
 90
       50
176
     1
 90
       50
176
     1
290
     0
176
     1
 90
       50
176
     1
 62
   256
176
     0
 40
1.0
176
     0
 90
        2
176
     1
  1
strokes_ogs.tif
176
     1
290
     0
176
     1
 40
1.0
176
     1
 40
1.0
176
     1
  0
VISUALSTYLE
  5
2E
102
{ACAD_REACTORS
330
29
102
}
330
29
100
AcDbVisualStyle
  2
Basic
 70
     7
177
     3
291
     1
 70
    58
 90
        1
176
     1
 90
        0
176
     1
 90
        1
176
     1
 90
        0
176
     1
 40
0.6
176
     1
 40
30.0
176
     1
 62
     7
420
 16777215
176
     1
 90
        0
176
     1
 90
        4
176
     1
 62
     7
176
     1
 62
   257
176
     1
 90
        1
176
     1
 90
        1
176
     1
 40
1.0
176
     1
 90
        8
176
     1
 62
     7
176
     1
 40
1.0
176
     1
 90
        1
176
     1
 90
        6
176
     1
 90
        2
176
     1
 62
     7
176
     1
 90
        5
176
     1
 90
        0
176
     1
 90
        0
176
     1
290
     0
176
     1
 90
        1
176
     1
 40
0.0
176
     1
 90
        0
176
     1
290
     0
176
     1
290
     1
176
     1
290
     1
176
     1
290
     0
176
     1
290
     0
176
     1
290
     0
176
     1
290
     0
176
     1
290
     0
176
     1
290
     0
176
     1
 90
       50
176
     1
 40
0.0
176
     1
 40
1.0
176
     1
 90
        0
176
     1
 62
    18
420
        0
176
     1
 90
       50
176
     1
 90
        3
176
     1
 62
     5
420
      255
176
     1
290
     0
176
     1
 90
       50
176
     1
 90
       50
176
     1
 90
       50
176
     1
290
     0
176
     1
 90
       50
176
     1
 62
   256
176
     0
 40
1.0
176
     0
 90
        2
176
     1
  1
strokes_ogs.tif
176
     1
290
     0
176
     1
 40
1.0
176
     1
 40
1.0
176
     1
  0
VISUALSTYLE
  5
35
102
{ACAD_REACTORS
330
29
102
}
330
29
100
AcDbVisualStyle
  2
Brighten
 70
    12
177
     3
291
     1
 70
    58
 90
        2
176
     1
 90
        2
176
     1
 90
        0
176
     1
 90
        0
176
     1
 40
0.6
176
     1
 40
30.0
176
     1
 62
     7
420
 16777215
176
     1
 90
        1
176
     1
 90
        4
176
     1
 62
     7
176
     1
 62
   257
176
     1
 90
        1
176
     1
 90
        1
176
     1
 40
1.0
176
     1
 90
        8
176
     1
 62
     7
176
     1
 40
1.0
176
     1
 90
        1
176
     1
 90
        6
176
     1
 90
        2
176
     1
 62
     7
176
     1
 90
        5
176
     1
 90
        0
176
     1
 90
        0
176
     1
290
     0
176
     1
 90
        1
176
     1
 40
50.0
176
     1
 90
        0
176
     1
290
     0
176
     1
290
     1
176
     1
290
     1
176
     1
290
     0
176
     1
290
     0
176
     1
290
     0
176
     1
290
     0
176
     1
290
     0
176
     1
290
     0
176
     1
 90
       50
176
     1
 40
0.0
176
     1
 40
1.0
176
     1
 90
        0
176
     1
 62
    18
420
        0
176
     1
 90
       50
176
     1
 90
        3
176
     1
 62
     5
420
      255
176
     1
290
     0
176
     1
 90
       50
176
     1
 90
       50
176
     1
 90
       50
176
     1
290
     0
176
     1
 90
       50
176
     1
 62
   256
176
     0
 40
1.0
176
     0
 90
        2
176
     1
  1
strokes_ogs.tif
176
     1
290
     0
176
     1
 40
1.0
176
     1
 40
1.0
176
     1
  0
VISUALSTYLE
  5
39
102
{ACAD_REACTORS
330
29
102
}
330
29
100
AcDbVisualStyle
  2
ColorChange
 70
    16
177
     3
291
     1
 70
    58
 90
        2
176
     1
 90
        2
176
     1
 90
        3
176
     1
 90
        0
176
     1
 40
0.6
176
     1
 40
30.0
176
     1
 62
     8
420
  8421504
176
     1
 90
        1
176
     1
 90
        4
176
     1
 62
     7
176
     1
 62
   257
176
     1
 90
        1
176
     1
 90
        1
176
     1
 40
1.0
176
     1
 90
        8
176
     1
 62
     8
420
  8421504
176
     1
 40
1.0
176
     1
 90
        1
176
     1
 90
        6
176
     1
 90
        2
176
     1
 62
     7
176
     1
 90
        5
176
     1
 90
        0
176
     1
 90
        0
176
     1
290
     0
176
     1
 90
        1
176
     1
 40
0.0
176
     1
 90
        0
176
     1
290
     0
176
     1
290
     1
176
     1
290
     1
176
     1
290
     0
176
     1
290
     0
176
     1
290
     0
176
     1
290
     0
176
     1
290
     0
176
     1
290
     0
176
     1
 90
       50
176
     1
 40
0.0
176
     1
 40
1.0
176
     1
 90
        0
176
     1
 62
    18
420
        0
176
     1
 90
       50
176
     1
 90
        3
176
     1
 62
     5
420
      255
176
     1
290
     0
176
     1
 90
       50
176
     1
 90
       50
176
     1
 90
       50
176
     1
290
     0
176
     1
 90
       50
176
     1
 62
   256
176
     0
 40
1.0
176
     0
 90
        2
176
     1
  1
strokes_ogs.tif
176
     1
290
     0
176
     1
 40
1.0
176
     1
 40
1.0
176
     1
  0
VISUALSTYLE
  5
32
102
{ACAD_REACTORS
330
29
102
}
330
29
100
AcDbVisualStyle
  2
Conceptual
 70
     9
177
     3
291
     0
 70
    58
 90
        3
176
     1
 90
        2
176
     1
 90
        0
176
     1
 90
        0
176
     1
 40
0.6
176
     1
 40
30.0
176
     1
 62
     7
420
 16777215
176
     1
 90
        2
176
     1
 90
        2
176
     1
 62
     7
176
     1
 62
   257
176
     1
 90
        1
176
     1
 90
        1
176
     1
 40
179.0
176
     1
 90
        8
176
     1
 62
     7
176
     1
 40
1.0
176
     1
 90
        1
176
     1
 90
        6
176
     1
 90
        2
176
     1
 62
     7
176
     1
 90
        3
176
     1
 90
        0
176
     1
 90
        0
176
     1
290
     0
176
     1
 90
        1
176
     1
 40
0.0
176
     1
 90
        0
176
     1
290
     0
176
     1
290
     1
176
     1
290
     1
176
     1
290
     0
176
     1
290
     0
176
     1
290
     0
176
     1
290
     0
176
     1
290
     0
176
     1
290
     0
176
     1
 90
       50
176
     1
 40
0.0
176
     1
 40
1.0
176
     1
 90
        0
176
     1
 62
    18
420
        0
176
     1
 90
       50
176
     1
 90
        3
176
     1
 62
     5
420
      255
176
     1
290
     0
176
     1
 90
       50
176
     1
 90
       50
176
     1
 90
       50
176
     1
290
     0
176
     1
 90
       50
176
     1
 62
   256
176
     0
 40
1.0
176
     0
 90
        2
176
     1
  1
strokes_ogs.tif
176
     1
290
     0
176
     1
 40
1.0
176
     1
 40
1.0
176
     1
  0
VISUALSTYLE
  5
34
102
{ACAD_REACTORS
330
29
102
}
330
29
100
AcDbVisualStyle
  2
Dim
 70
    11
177
     3
291
     1
 70
    58
 90
        2
176
     1
 90
        2
176
     1
 90
        0
176
     1
 90
        0
176
     1
 40
0.6
176
     1
 40
30.0
176
     1
 62
     7
420
 16777215
176
     1
 90
        1
176
     1
 90
        4
176
     1
 62
     7
176
     1
 62
   257
176
     1
 90
        1
176
     1
 90
        1
176
     1
 40
1.0
176
     1
 90
        8
176
     1
 62
     7
176
     1
 40
1.0
176
     1
 90
        1
176
     1
 90
        6
176
     1
 90
        2
176
     1
 62
     7
176
     1
 90
        5
176
     1
 90
        0
176
     1
 90
        0
176
     1
290
     0
176
     1
 90
        1
176
     1
 40
-50.0
176
     1
 90
        0
176
     1
290
     0
176
     1
290
     1
176
     1
290
     1
176
     1
290
     0
176
     1
290
     0
176
     1
290
     0
176
     1
290
     0
176
     1
290
     0
176
     1
290
     0
176
     1
 90
       50
176
     1
 40
0.0
176
     1
 40
1.0
176
     1
 90
        0
176
     1
 62
    18
420
        0
176
     1
 90
       50
176
     1
 90
        3
176
     1
 62
     5
420
      255
176
     1
290
     0
176
     1
 90
       50
176
     1
 90
       50
176
     1
 90
       50
176
     1
290
     0
176
     1
 90
       50
176
     1
 62
   256
176
     0
 40
1.0
176
     0
 90
        2
176
     1
  1
strokes_ogs.tif
176
     1
290
     0
176
     1
 40
1.0
176
     1
 40
1.0
176
     1
  0
VISUALSTYLE
  5
41
102
{ACAD_REACTORS
330
29
102
}
330
29
100
AcDbVisualStyle
  2
EdgeColorOff
 70
    22
177
     3
291
     1
 70
    58
 90
        2
176
     0
 90
        2
176
     0
 90
        0
176
     0
 90
        0
176
     0
 40
0.6
176
     0
 40
30.0
176
     0
 62
     7
420
 16777215
176
     0
 90
        1
176
     0
 90
        4
176
     0
 62
     7
176
     0
 62
   257
176
     0
 90
        1
176
     0
 90
        1
176
     0
 40
1.0
176
     0
 90
        8
176
     2
 62
     7
176
     0
 40
1.0
176
     0
 90
        1
176
     0
 90
        6
176
     0
 90
        2
176
     0
 62
     7
176
     0
 90
        5
176
     0
 90
        0
176
     0
 90
        0
176
     0
290
     0
176
     0
 90
        1
176
     0
 40
0.0
176
     0
 90
        0
176
     0
290
     0
176
     0
290
     1
176
     0
290
     1
176
     0
290
     0
176
     0
290
     0
176
     0
290
     0
176
     0
290
     0
176
     0
290
     0
176
     0
290
     0
176
     0
 90
       50
176
     0
 40
0.0
176
     0
 40
1.0
176
     0
 90
        0
176
     0
 62
    18
420
        0
176
     0
 90
       50
176
     0
 90
        3
176
     0
 62
     5
420
      255
176
     0
290
     0
176
     0
 90
       50
176
     0
 90
       50
176
     0
 90
       50
176
     0
290
     0
176
     0
 90
       50
176
     0
 62
   256
176
     0
 40
1.0
176
     0
 90
        2
176
     0
  1
strokes_ogs.tif
176
     0
290
     0
176
     0
 40
1.0
176
     0
 40
1.0
176
     0
  0
VISUALSTYLE
  5
38
102
{ACAD_REACTORS
330
29
102
}
330
29
100
AcDbVisualStyle
  2
Facepattern
 70
    15
177
     3
291
     1
 70
    58
 90
        2
176
     1
 90
        2
176
     1
 90
        0
176
     1
 90
        0
176
     1
 40
0.6
176
     1
 40
30.0
176
     1
 62
     7
420
 16777215
176
     1
 90
        1
176
     1
 90
        4
176
     1
 62
     7
176
     1
 62
   257
176
     1
 90
        1
176
     1
 90
        1
176
     1
 40
1.0
176
     1
 90
        8
176
     1
 62
     7
176
     1
 40
1.0
176
     1
 90
        1
176
     1
 90
        6
176
     1
 90
        2
176
     1
 62
     7
176
     1
 90
        5
176
     1
 90
        0
176
     1
 90
        0
176
     1
290
     0
176
     1
 90
        1
176
     1
 40
0.0
176
     1
 90
        0
176
     1
290
     0
176
     1
290
     1
176
     1
290
     1
176
     1
290
     0
176
     1
290
     0
176
     1
290
     0
176
     1
290
     0
176
     1
290
     0
176
     1
290
     0
176
     1
 90
       50
176
     1
 40
0.0
176
     1
 40
1.0
176
     1
 90
        0
176
     1
 62
    18
420
        0
176
     1
 90
       50
176
     1
 90
        3
176
     1
 62
     5
420
      255
176
     1
290
     0
176
     1
 90
       50
176
     1
 90
       50
176
     1
 90
       50
176
     1
290
     0
176
     1
 90
       50
176
     1
 62
   256
176
     0
 40
1.0
176
     0
 90
        2
176
     1
  1
strokes_ogs.tif
176
     1
290
     0
176
     1
 40
1.0
176
     1
 40
1.0
176
     1
  0
VISUALSTYLE
  5
2A
102
{ACAD_REACTORS
330
29
102
}
330
29
100
AcDbVisualStyle
  2
Flat
 70
     0
177
     3
291
     1
 70
    58
 90
        2
176
     1
 90
        1
176
     1
 90
        1
176
     1
 90
        2
176
     1
 40
0.6
176
     1
 40
30.0
176
     1
 62
     7
420
 16777215
176
     1
 90
        0
176
     1
 90
        0
176
     1
 62
     7
176
     1
 62
   257
176
     1
 90
        1
176
     1
 90
        1
176
     1
 40
1.0
176
     1
 90
        8
176
     1
 62
     7
176
     1
 40
1.0
176
     1
 90
        1
176
     1
 90
        6
176
     1
 90
        2
176
     1
 62
     7
176
     1
 90
        5
176
     1
 90
        0
176
     1
 90
        0
176
     1
290
     0
176
     1
 90
       13
176
     1
 40
0.0
176
     1
 90
        0
176
     1
290
     0
176
     1
290
     1
176
     1
290
     1
176
     1
290
     0
176
     1
290
     0
176
     1
290
     0
176
     1
290
     0
176
     1
290
     0
176
     1
290
     0
176
     1
 90
       50
176
     1
 40
0.0
176
     1
 40
1.0
176
     1
 90
        0
176
     1
 62
    18
420
        0
176
     1
 90
       50
176
     1
 90
        3
176
     1
 62
     5
420
      255
176
     1
290
     0
176
     1
 90
       50
176
     1
 90
       50
176
     1
 90
       50
176
     1
290
     0
176
     1
 90
       50
176
     1
 62
   256
176
     0
 40
1.0
176
     0
 90
        2
176
     1
  1
strokes_ogs.tif
176
     1
290
     0
176
     1
 40
1.0
176
     1
 40
1.0
176
     1
  0
VISUALSTYLE
  5
2B
102
{ACAD_REACTORS
330
29
102
}
330
29
100
AcDbVisualStyle
  2
FlatWithEdges
 70
     1
177
     3
291
     1
 70
    58
 90
        2
176
     1
 90
        1
176
     1
 90
        1
176
     1
 90
        2
176
     1
 40
0.6
176
     1
 40
30.0
176
     1
 62
     7
420
 16777215
176
     1
 90
        1
176
     1
 90
        0
176
     1
 62
     7
176
     1
 62
   257
176
     1
 90
        1
176
     1
 90
        1
176
     1
 40
1.0
176
     1
 90
        0
176
     1
 62
   257
176
     1
 40
1.0
176
     1
 90
        1
176
     1
 90
        6
176
     1
 90
        2
176
     1
 62
     7
176
     1
 90
        5
176
     1
 90
        0
176
     1
 90
        0
176
     1
290
     0
176
     1
 90
       13
176
     1
 40
0.0
176
     1
 90
        0
176
     1
290
     0
176
     1
290
     1
176
     1
290
     1
176
     1
290
     0
176
     1
290
     0
176
     1
290
     0
176
     1
290
     0
176
     1
290
     0
176
     1
290
     0
176
     1
 90
       50
176
     1
 40
0.0
176
     1
 40
1.0
176
     1
 90
        0
176
     1
 62
    18
420
        0
176
     1
 90
       50
176
     1
 90
        3
176
     1
 62
     5
420
      255
176
     1
290
     0
176
     1
 90
       50
176
     1
 90
       50
176
     1
 90
       50
176
     1
290
     0
176
     1
 90
       50
176
     1
 62
   256
176
     0
 40
1.0
176
     0
 90
        2
176
     1
  1
strokes_ogs.tif
176
     1
290
     0
176
     1
 40
1.0
176
     1
 40
1.0
176
     1
  0
VISUALSTYLE
  5
2C
102
{ACAD_REACTORS
330
29
102
}
330
29
100
AcDbVisualStyle
  2
Gouraud
 70
     2
177
     3
291
     1
 70
    58
 90
        2
176
     1
 90
        2
176
     1
 90
        1
176
     1
 90
        2
176
     1
 40
0.6
176
     1
 40
30.0
176
     1
 62
     7
420
 16777215
176
     1
 90
        0
176
     1
 90
        0
176
     1
 62
     7
176
     1
 62
   257
176
     1
 90
        1
176
     1
 90
        1
176
     1
 40
1.0
176
     1
 90
        0
176
     1
 62
     7
176
     1
 40
1.0
176
     1
 90
        1
176
     1
 90
        6
176
     1
 90
        2
176
     1
 62
     7
176
     1
 90
        5
176
     1
 90
        0
176
     1
 90
        0
176
     1
290
     0
176
     1
 90
       13
176
     1
 40
0.0
176
     1
 90
        0
176
     1
290
     0
176
     1
290
     1
176
     1
290
     1
176
     1
290
     0
176
     1
290
     0
176
     1
290
     0
176
     1
290
     0
176
     1
290
     0
176
     1
290
     0
176
     1
 90
       50
176
     1
 40
0.0
176
     1
 40
1.0
176
     1
 90
        0
176
     1
 62
    18
420
        0
176
     1
 90
       50
176
     1
 90
        3
176
     1
 62
     5
420
      255
176
     1
290
     0
176
     1
 90
       50
176
     1
 90
       50
176
     1
 90
       50
176
     1
290
     0
176
     1
 90
       50
176
     1
 62
   256
176
     0
 40
1.0
176
     0
 90
        2
176
     1
  1
strokes_ogs.tif
176
     1
290
     0
176
     1
 40
1.0
176
     1
 40
1.0
176
     1
  0
VISUALSTYLE
  5
2D
102
{ACAD_REACTORS
330
29
102
}
330
29
100
AcDbVisualStyle
  2
GouraudWithEdges
 70
     3
177
     3
291
     1
 70
    58
 90
        2
176
     1
 90
        2
176
     1
 90
        1
176
     1
 90
        2
176
     1
 40
0.6
176
     1
 40
30.0
176
     1
 62
     7
420
 16777215
176
     1
 90
        1
176
     1
 90
        0
176
     1
 62
     7
176
     1
 62
   257
176
     1
 90
        1
176
     1
 90
        1
176
     1
 40
1.0
176
     1
 90
        0
176
     1
 62
   257
176
     1
 40
1.0
176
     1
 90
        1
176
     1
 90
        6
176
     1
 90
        2
176
     1
 62
     7
176
     1
 90
        5
176
     1
 90
        0
176
     1
 90
        0
176
     1
290
     0
176
     1
 90
       13
176
     1
 40
0.0
176
     1
 90
        0
176
     1
290
     0
176
     1
290
     1
176
     1
290
     1
176
     1
290
     0
176
     1
290
     0
176
     1
290
     0
176
     1
290
     0
176
     1
290
     0
176
     1
290
     0
176
     1
 90
       50
176
     1
 40
0.0
176
     1
 40
1.0
176
     1
 90
        0
176
     1
 62
    18
420
        0
176
     1
 90
       50
176
     1
 90
        3
176
     1
 62
     5
420
      255
176
     1
290
     0
176
     1
 90
       50
176
     1
 90
       50
176
     1
 90
       50
176
     1
290
     0
176
     1
 90
       50
176
     1
 62
   256
176
     0
 40
1.0
176
     0
 90
        2
176
     1
  1
strokes_ogs.tif
176
     1
290
     0
176
     1
 40
1.0
176
     1
 40
1.0
176
     1
  0
VISUALSTYLE
  5
31
102
{ACAD_REACTORS
330
29
102
}
330
29
100
AcDbVisualStyle
  2
Hidden
 70
     6
177
     3
291
     0
 70
    58
 90
        1
176
     1
 90
        2
176
     1
 90
        2
176
     1
 90
        0
176
     1
 40
0.6
176
     1
 40
30.0
176
     1
 62
     7
420
 16777215
176
     1
 90
        2
176
     1
 90
        2
176
     1
 62
     7
176
     1
 62
   257
176
     1
 90
        2
176
     1
 90
        1
176
     1
 40
40.0
176
     1
 90
        0
176
     1
 62
   257
176
     1
 40
1.0
176
     1
 90
        1
176
     1
 90
        6
176
     1
 90
        2
176
     1
 62
     7
176
     1
 90
        3
176
     1
 90
        0
176
     1
 90
        0
176
     1
290
     0
176
     1
 90
        1
176
     1
 40
0.0
176
     1
 90
        0
176
     1
290
     0
176
     1
290
     1
176
     1
290
     1
176
     1
290
     0
176
     1
290
     0
176
     1
290
     0
176
     1
290
     0
176
     1
290
     0
176
     1
290
     0
176
     1
 90
       50
176
     1
 40
0.0
176
     1
 40
1.0
176
     1
 90
        0
176
     1
 62
    18
420
        0
176
     1
 90
       50
176
     1
 90
        3
176
     1
 62
     5
420
      255
176
     1
290
     0
176
     1
 90
       50
176
     1
 90
       50
176
     1
 90
       50
176
     1
290
     0
176
     1
 90
       50
176
     1
 62
   256
176
     0
 40
1.0
176
     0
 90
        2
176
     1
  1
strokes_ogs.tif
176
     1
290
     0
176
     1
 40
1.0
176
     1
 40
1.0
176
     1
  0
VISUALSTYLE
  5
3F
102
{ACAD_REACTORS
330
29
102
}
330
29
100
AcDbVisualStyle
  2
JitterOff
 70
    20
177
     3
291
     1
 70
    58
 90
        2
176
     0
 90
        2
176
     0
 90
        0
176
     0
 90
        0
176
     0
 40
0.6
176
     0
 40
30.0
176
     0
 62
     7
420
 16777215
176
     0
 90
        1
176
     0
 90
        4
176
     0
 62
     7
176
     0
 62
   257
176
     0
 90
        1
176
     0
 90
        1
176
     0
 40
1.0
176
     0
 90
       10
176
     2
 62
     7
176
     0
 40
1.0
176
     0
 90
        1
176
     0
 90
        6
176
     0
 90
        2
176
     0
 62
     7
176
     0
 90
        5
176
     0
 90
        0
176
     0
 90
        0
176
     0
290
     0
176
     0
 90
        1
176
     0
 40
0.0
176
     0
 90
        0
176
     0
290
     0
176
     0
290
     1
176
     0
290
     1
176
     0
290
     0
176
     0
290
     0
176
     0
290
     0
176
     0
290
     0
176
     0
290
     0
176
     0
290
     0
176
     0
 90
       50
176
     0
 40
0.0
176
     0
 40
1.0
176
     0
 90
        0
176
     0
 62
    18
420
        0
176
     0
 90
       50
176
     0
 90
        3
176
     0
 62
     5
420
      255
176
     0
290
     0
176
     0
 90
       50
176
     0
 90
       50
176
     0
 90
       50
176
     0
290
     0
176
     0
 90
       50
176
     0
 62
   256
176
     0
 40
1.0
176
     0
 90
        2
176
     0
  1
strokes_ogs.tif
176
     0
290
     0
176
     0
 40
1.0
176
     0
 40
1.0
176
     0
  0
VISUALSTYLE
  5
37
102
{ACAD_REACTORS
330
29
102
}
330
29
100
AcDbVisualStyle
  2
Linepattern
 70
    14
177
     3
291
     1
 70
    58
 90
        2
176
     1
 90
        2
176
     1
 90
        0
176
     1
 90
        0
176
     1
 40
0.6
176
     1
 40
30.0
176
     1
 62
     7
420
 16777215
176
     1
 90
        1
176
     1
 90
        4
176
     1
 62
     7
176
     1
 62
   257
176
     1
 90
        7
176
     1
 90
        7
176
     1
 40
1.0
176
     1
 90
        8
176
     1
 62
     7
176
     1
 40
1.0
176
     1
 90
        1
176
     1
 90
        6
176
     1
 90
        2
176
     1
 62
     7
176
     1
 90
        5
176
     1
 90
        0
176
     1
 90
        0
176
     1
290
     0
176
     1
 90
        1
176
     1
 40
0.0
176
     1
 90
        0
176
     1
290
     0
176
     1
290
     1
176
     1
290
     1
176
     1
290
     0
176
     1
290
     0
176
     1
290
     0
176
     1
290
     0
176
     1
290
     0
176
     1
290
     0
176
     1
 90
       50
176
     1
 40
0.0
176
     1
 40
1.0
176
     1
 90
        0
176
     1
 62
    18
420
        0
176
     1
 90
       50
176
     1
 90
        3
176
     1
 62
     5
420
      255
176
     1
290
     0
176
     1
 90
       50
176
     1
 90
       50
176
     1
 90
       50
176
     1
290
     0
176
     1
 90
       50
176
     1
 62
   256
176
     0
 40
1.0
176
     0
 90
        2
176
     1
  1
strokes_ogs.tif
176
     1
290
     0
176
     1
 40
1.0
176
     1
 40
1.0
176
     1
  0
VISUALSTYLE
  5
40
102
{ACAD_REACTORS
330
29
102
}
330
29
100
AcDbVisualStyle
  2
OverhangOff
 70
    21
177
     3
291
     1
 70
    58
 90
        2
176
     0
 90
        2
176
     0
 90
        0
176
     0
 90
        0
176
     0
 40
0.6
176
     0
 40
30.0
176
     0
 62
     7
420
 16777215
176
     0
 90
        1
176
     0
 90
        4
176
     0
 62
     7
176
     0
 62
   257
176
     0
 90
        1
176
     0
 90
        1
176
     0
 40
1.0
176
     0
 90
        9
176
     2
 62
     7
176
     0
 40
1.0
176
     0
 90
        1
176
     0
 90
        6
176
     0
 90
        2
176
     0
 62
     7
176
     0
 90
        5
176
     0
 90
        0
176
     0
 90
        0
176
     0
290
     0
176
     0
 90
        1
176
     0
 40
0.0
176
     0
 90
        0
176
     0
290
     0
176
     0
290
     1
176
     0
290
     1
176
     0
290
     0
176
     0
290
     0
176
     0
290
     0
176
     0
290
     0
176
     0
290
     0
176
     0
290
     0
176
     0
 90
       50
176
     0
 40
0.0
176
     0
 40
1.0
176
     0
 90
        0
176
     0
 62
    18
420
        0
176
     0
 90
       50
176
     0
 90
        3
176
     0
 62
     5
420
      255
176
     0
290
     0
176
     0
 90
       50
176
     0
 90
       50
176
     0
 90
       50
176
     0
290
     0
176
     0
 90
       50
176
     0
 62
   256
176
     0
 40
1.0
176
     0
 90
        2
176
     0
  1
strokes_ogs.tif
176
     0
290
     0
176
     0
 40
1.0
176
     0
 40
1.0
176
     0
  0
VISUALSTYLE
  5
33
102
{ACAD_REACTORS
330
29
102
}
330
29
100
AcDbVisualStyle
  2
Realistic
 70
     8
177
     3
291
     0
 70
    58
 90
        2
176
     1
 90
        3
176
     1
 90
        0
176
     1
 90
        2
176
     1
 40
0.6
176
     1
 40
30.0
176
     1
 62
     7
420
 16777215
176
     1
 90
        0
176
     1
 90
        0
176
     1
 62
     7
176
     1
 62
   257
176
     1
 90
        1
176
     1
 90
        1
176
     1
 40
1.0
176
     1
 90
        8
176
     1
 62
   257
176
     1
 40
1.0
176
     1
 90
        1
176
     1
 90
        6
176
     1
 90
        2
176
     1
 62
     7
176
     1
 90
        3
176
     1
 90
        0
176
     1
 90
        0
176
     1
290
     0
176
     1
 90
       13
176
     1
 40
0.0
176
     1
 90
        0
176
     1
290
     0
176
     1
290
     1
176
     1
290
     1
176
     1
290
     0
176
     1
290
     0
176
     1
290
     0
176
     1
290
     0
176
     1
290
     0
176
     1
290
     0
176
     1
 90
       50
176
     1
 40
0.0
176
     1
 40
1.0
176
     1
 90
        0
176
     1
 62
    18
420
        0
176
     1
 90
       50
176
     1
 90
        3
176
     1
 62
     5
420
      255
176
     1
290
     0
176
     1
 90
       50
176
     1
 90
       50
176
     1
 90
       50
176
     1
290
     0
176
     1
 90
       50
176
     1
 62
   256
176
     0
 40
1.0
176
     0
 90
        2
176
     1
  1
strokes_ogs.tif
176
     1
290
     0
176
     1
 40
1.0
176
     1
 40
1.0
176
     1
  0
VISUALSTYLE
  5
3E
102
{ACAD_REACTORS
330
29
102
}
330
29
100
AcDbVisualStyle
  2
Shaded
 70
    27
177
     3
291
     0
 70
    58
 90
        2
176
     1
 90
        2
176
     1
 90
        1
176
     1
 90
        2
176
     1
 40
0.6
176
     1
 40
30.0
176
     1
 62
     7
420
 16777215
176
     1
 90
        0
176
     1
 90
        4
176
     1
 62
     7
176
     1
 62
   257
176
     1
 90
        1
176
     1
 90
        1
176
     1
 40
1.0
176
     1
 90
        8
176
     1
 62
   257
176
     1
 40
1.0
176
     1
 90
        1
176
     1
 90
        6
176
     1
 90
        2
176
     1
 62
     8
420
  7895160
176
     1
 90
        3
176
     1
 90
        0
176
     1
 90
        0
176
     1
290
     0
176
     1
 90
        5
176
     1
 40
0.0
176
     1
 90
        0
176
     1
290
     0
176
     1
290
     1
176
     1
290
     1
176
     1
290
     0
176
     1
290
     0
176
     1
290
     0
176
     1
290
     0
176
     1
290
     0
176
     1
290
     0
176
     1
 90
       50
176
     1
 40
0.0
176
     1
 40
1.0
176
     1
 90
        0
176
     1
 62
    18
420
        0
176
     1
 90
       50
176
     1
 90
        3
176
     1
 62
     5
420
      255
176
     1
290
     0
176
     1
 90
       50
176
     1
 90
       50
176
     1
 90
       50
176
     1
290
     0
176
     1
 90
       50
176
     1
 62
   256
176
     0
 40
1.0
176
     0
 90
        2
176
     1
  1
strokes_ogs.tif
176
     1
290
     0
176
     1
 40
1.0
176
     1
 40
1.0
176
     1
  0
VISUALSTYLE
  5
3D
102
{ACAD_REACTORS
330
29
102
}
330
29
100
AcDbVisualStyle
  2
Shaded with edges
 70
    26
177
     3
291
     0
 70
    58
 90
        2
176
     1
 90
        2
176
     1
 90
        1
176
     1
 90
        2
176
     1
 40
0.6
176
     1
 40
30.0
176
     1
 62
     7
420
 16777215
176
     1
 90
        1
176
     1
 90
        2
176
     1
 62
     7
176
     1
 62
   257
176
     1
 90
        2
176
     1
 90
        1
176
     1
 40
1.0
176
     1
 90
        8
176
     1
 62
   257
176
     1
 40
1.0
176
     1
 90
        1
176
     1
 90
        6
176
     1
 90
        2
176
     1
 62
     7
176
     1
 90
        3
176
     1
 90
        0
176
     1
 90
        0
176
     1
290
     0
176
     1
 90
        5
176
     1
 40
0.0
176
     1
 90
        0
176
     1
290
     0
176
     1
290
     1
176
     1
290
     1
176
     1
290
     0
176
     1
290
     0
176
     1
290
     0
176
     1
290
     0
176
     1
290
     0
176
     1
290
     0
176
     1
 90
       50
176
     1
 40
0.0
176
     1
 40
1.0
176
     1
 90
        0
176
     1
 62
    18
420
        0
176
     1
 90
       50
176
     1
 90
        3
176
     1
 62
     5
420
      255
176
     1
290
     0
176
     1
 90
       50
176
     1
 90
       50
176
     1
 90
       50
176
     1
290
     0
176
     1
 90
       50
176
     1
 62
   256
176
     0
 40
1.0
176
     0
 90
        2
176
     1
  1
strokes_ogs.tif
176
     1
290
     0
176
     1
 40
1.0
176
     1
 40
1.0
176
     1
  0
VISUALSTYLE
  5
3A
102
{ACAD_REACTORS
330
29
102
}
330
29
100
AcDbVisualStyle
  2
Shades of Gray
 70
    23
177
     3
291
     0
 70
    58
 90
        2
176
     1
 90
        2
176
     1
 90
        3
176
     1
 90
        0
176
     1
 40
0.6
176
     1
 40
30.0
176
     1
 62
     7
420
 16777215
176
     1
 90
        2
176
     1
 90
        2
176
     1
 62
     7
176
     1
 62
     7
176
     1
 90
        1
176
     1
 90
        1
176
     1
 40
40.0
176
     1
 90
        8
176
     1
 62
     7
176
     1
 40
1.0
176
     1
 90
        1
176
     1
 90
        6
176
     1
 90
        2
176
     1
 62
     7
176
     1
 90
        3
176
     1
 90
        0
176
     1
 90
        0
176
     1
290
     0
176
     1
 90
        1
176
     1
 40
0.0
176
     1
 90
        0
176
     1
290
     0
176
     1
290
     1
176
     1
290
     1
176
     1
290
     0
176
     1
290
     0
176
     1
290
     0
176
     1
290
     0
176
     1
290
     0
176
     1
290
     0
176
     1
 90
       50
176
     1
 40
0.0
176
     1
 40
1.0
176
     1
 90
        0
176
     1
 62
    18
420
        0
176
     1
 90
       50
176
     1
 90
        3
176
     1
 62
     5
420
      255
176
     1
290
     0
176
     1
 90
       50
176
     1
 90
       50
176
     1
 90
       50
176
     1
290
     0
176
     1
 90
       50
176
     1
 62
   256
176
     0
 40
1.0
176
     0
 90
        2
176
     1
  1
strokes_ogs.tif
176
     1
290
     0
176
     1
 40
1.0
176
     1
 40
1.0
176
     1
  0
VISUALSTYLE
  5
3B
102
{ACAD_REACTORS
330
29
102
}
330
29
100
AcDbVisualStyle
  2
Sketchy
 70
    24
177
     3
291
     0
 70
    58
 90
        1
176
     1
 90
        2
176
     1
 90
        2
176
     1
 90
        0
176
     1
 40
0.6
176
     1
 40
30.0
176
     1
 62
     7
420
 16777215
176
     1
 90
        2
176
     1
 90
        2
176
     1
 62
     7
176
     1
 62
     7
176
     1
 90
        1
176
     1
 90
        1
176
     1
 40
40.0
176
     1
 90
       11
176
     1
 62
     7
176
     1
 40
1.0
176
     1
 90
        1
176
     1
 90
        6
176
     1
 90
        2
176
     1
 62
     7
176
     1
 90
        6
176
     1
 90
        0
176
     1
 90
        0
176
     1
290
     0
176
     1
 90
        1
176
     1
 40
0.0
176
     1
 90
        0
176
     1
290
     0
176
     1
290
     1
176
     1
290
     1
176
     1
290
     0
176
     1
290
     0
176
     1
290
     0
176
     1
290
     0
176
     1
290
     0
176
     1
290
     0
176
     1
 90
       50
176
     1
 40
0.0
176
     1
 40
1.0
176
     1
 90
        0
176
     1
 62
    18
420
        0
176
     1
 90
       50
176
     1
 90
        3
176
     1
 62
     5
420
      255
176
     1
290
     0
176
     1
 90
       50
176
     1
 90
       50
176
     1
 90
       50
176
     1
290
     0
176
     1
 90
       50
176
     1
 62
   256
176
     0
 40
1.0
176
     0
 90
        2
176
     1
  1
strokes_ogs.tif
176
     1
290
     0
176
     1
 40
1.0
176
     1
 40
1.0
176
     1
  0
VISUALSTYLE
  5
36
102
{ACAD_REACTORS
330
29
102
}
330
29
100
AcDbVisualStyle
  2
Thicken
 70
    13
177
     3
291
     1
 70
    58
 90
        2
176
     1
 90
        2
176
     1
 90
        0
176
     1
 90
        0
176
     1
 40
0.6
176
     1
 40
30.0
176
     1
 62
     7
420
 16777215
176
     1
 90
        1
176
     1
 90
        4
176
     1
 62
     7
176
     1
 62
   257
176
     1
 90
        1
176
     1
 90
        1
176
     1
 40
1.0
176
     1
 90
       12
176
     1
 62
     7
176
     1
 40
1.0
176
     1
 90
        1
176
     1
 90
        6
176
     1
 90
        2
176
     1
 62
     7
176
     1
 90
        5
176
     1
 90
        0
176
     1
 90
        0
176
     1
290
     0
176
     1
 90
        1
176
     1
 40
0.0
176
     1
 90
        0
176
     1
290
     0
176
     1
290
     1
176
     1
290
     1
176
     1
290
     0
176
     1
290
     0
176
     1
290
     0
176
     1
290
     0
176
     1
290
     0
176
     1
290
     0
176
     1
 90
       50
176
     1
 40
0.0
176
     1
 40
1.0
176
     1
 90
        0
176
     1
 62
    18
420
        0
176
     1
 90
       50
176
     1
 90
        3
176
     1
 62
     5
420
      255
176
     1
290
     0
176
     1
 90
       50
176
     1
 90
       50
176
     1
 90
       50
176
     1
290
     0
176
     1
 90
       50
176
     1
 62
   256
176
     0
 40
1.0
176
     0
 90
        2
176
     1
  1
strokes_ogs.tif
176
     1
290
     0
176
     1
 40
1.0
176
     1
 40
1.0
176
     1
  0
VISUALSTYLE
  5
30
102
{ACAD_REACTORS
330
29
102
}
330
29
100
AcDbVisualStyle
  2
Wireframe
 70
     5
177
     3
291
     0
 70
    58
 90
        0
176
     1
 90
        2
176
     1
 90
        0
176
     1
 90
        0
176
     1
 40
0.6
176
     1
 40
30.0
176
     1
 62
     7
420
 16777215
176
     1
 90
        1
176
     1
 90
        4
176
     1
 62
     7
176
     1
 62
   257
176
     1
 90
        1
176
     1
 90
        1
176
     1
 40
1.0
176
     1
 90
        0
176
     1
 62
   257
176
     1
 40
1.0
176
     1
 90
        1
176
     1
 90
        6
176
     1
 90
        2
176
     1
 62
     7
176
     1
 90
        3
176
     1
 90
        0
176
     1
 90
        0
176
     1
290
     0
176
     1
 90
        1
176
     1
 40
0.0
176
     1
 90
        0
176
     1
290
     0
176
     1
290
     1
176
     1
290
     1
176
     1
290
     0
176
     1
290
     0
176
     1
290
     0
176
     1
290
     0
176
     1
290
     0
176
     1
290
     0
176
     1
 90
       50
176
     1
 40
0.0
176
     1
 40
1.0
176
     1
 90
        0
176
     1
 62
    18
420
        0
176
     1
 90
       50
176
     1
 90
        3
176
     1
 62
     5
420
      255
176
     1
290
     0
176
     1
 90
       50
176
     1
 90
       50
176
     1
 90
       50
176
     1
290
     0
176
     1
 90
       50
176
     1
 62
   256
176
     0
 40
1.0
176
     0
 90
        2
176
     1
  1
strokes_ogs.tif
176
     1
290
     0
176
     1
 40
1.0
176
     1
 40
1.0
176
     1
  0
VISUALSTYLE
  5
3C
102
{ACAD_REACTORS
330
29
102
}
330
29
100
AcDbVisualStyle
  2
X-Ray
 70
    25
177
     3
291
     0
 70
    58
 90
        2
176
     1
 90
        2
176
     1
 90
        1
176
     1
 90
        1
176
     1
 40
0.5
176
     1
 40
30.0
176
     1
 62
     7
420
 16777215
176
     1
 90
        1
176
     1
 90
        0
176
     1
 62
     7
176
     1
 62
   257
176
     1
 90
        1
176
     1
 90
        1
176
     1
 40
1.0
176
     1
 90
        8
176
     1
 62
     7
176
     1
 40
1.0
176
     1
 90
        1
176
     1
 90
        6
176
     1
 90
        2
176
     1
 62
     7
176
     1
 90
        3
176
     1
 90
        0
176
     1
 90
        0
176
     1
290
     0
176
     1
 90
       13
176
     1
 40
0.0
176
     1
 90
        0
176
     1
290
     0
176
     1
290
     1
176
     1
290
     1
176
     1
290
     0
176
     1
290
     0
176
     1
290
     0
176
     1
290
     0
176
     1
290
     0
176
     1
290
     0
176
     1
 90
       50
176
     1
 40
0.0
176
     1
 40
1.0
176
     1
 90
        0
176
     1
 62
    18
420
        0
176
     1
 90
       50
176
     1
 90
        3
176
     1
 62
     5
420
      255
176
     1
290
     0
176
     1
 90
       50
176
     1
 90
       50
176
     1
 90
       50
176
     1
290
     0
176
     1
 90
       50
176
     1
 62
   256
176
     0
 40
1.0
176
     0
 90
        2
176
     1
  1
strokes_ogs.tif
176
     1
290
     0
176
     1
 40
1.0
176
     1
 40
1.0
176
     1
  0
DICTIONARYVAR
  5
8A
102
{ACAD_REACTORS
330
85
102
}
330
85
100
DictionaryVariables
280
     0
  1
1:1
  0
DICTIONARYVAR
  5
87
102
{ACAD_REACTORS
330
85
102
}
330
85
100
DictionaryVariables
280
     0
  1
STANDARD
  0
DICTIONARYVAR
  5
86
102
{ACAD_REACTORS
330
85
102
}
330
85
100
DictionaryVariables
280
     0
  1
STANDARD
  0
DICTIONARYVAR
  5
88
102
{ACAD_REACTORS
330
85
102
}
330
85
100
DictionaryVariables
280
     0
  1
Imperial24
  0
DICTIONARYVAR
  5
89
102
{ACAD_REACTORS
330
85
102
}
330
85
100
DictionaryVariables
280
     0
  1
Imperial24
  0
DICTIONARY
  5
1A
330
19
100
AcDbDictionary
280
     1
281
     1
  3
BUMPTILE
360
1C
  3
DIFFUSETILE
360
1B
  3
OPACITYTILE
360
1F
  3
REFLECTIONTILE
360
1E
  3
REFRACTIONTILE
360
20
  3
SPECULARTILE
360
1D
  0
DICTIONARY
  5
12
330
11
100
AcDbDictionary
280
     1
281
     1
  3
BUMPTILE
360
14
  3
DIFFUSETILE
360
13
  3
OPACITYTILE
360
17
  3
REFLECTIONTILE
360
16
  3
REFRACTIONTILE
360
18
  3
SPECULARTILE
360
15
  0
DICTIONARY
  5
22
330
21
100
AcDbDictionary
280
     1
281
     1
  3
BUMPTILE
360
24
  3
DIFFUSETILE
360
23
  3
OPACITYTILE
360
27
  3
REFLECTIONTILE
360
26
  3
REFRACTIONTILE
360
28
  3
SPECULARTILE
360
25
  0
DICTIONARY
  5
8B
330
65
100
AcDbDictionary
280
     1
281
     1
  3
ACAD_ROUNDTRIP_2008_TABLESTYLE_CELLSTYLEMAP
360
8C
  0
XRECORD
  5
1C
102
{ACAD_REACTORS
330
1A
102
}
330
1A
100
AcDbXrecord
280
     1
270
     1
271
     1
  0
XRECORD
  5
1B
102
{ACAD_REACTORS
330
1A
102
}
330
1A
100
AcDbXrecord
280
     1
270
     1
271
     1
  0
XRECORD
  5
1F
102
{ACAD_REACTORS
330
1A
102
}
330
1A
100
AcDbXrecord
280
     1
270
     1
271
     1
  0
XRECORD
  5
1E
102
{ACAD_REACTORS
330
1A
102
}
330
1A
100
AcDbXrecord
280
     1
270
     1
271
     1
  0
XRECORD
  5
20
102
{ACAD_REACTORS
330
1A
102
}
330
1A
100
AcDbXrecord
280
     1
270
     1
271
     1
  0
XRECORD
  5
1D
102
{ACAD_REACTORS
330
1A
102
}
330
1A
100
AcDbXrecord
280
     1
270
     1
271
     1
  0
XRECORD
  5
14
102
{ACAD_REACTORS
330
12
102
}
330
12
100
AcDbXrecord
280
     1
270
     1
271
     1
  0
XRECORD
  5
13
102
{ACAD_REACTORS
330
12
102
}
330
12
100
AcDbXrecord
280
     1
270
     1
271
     1
  0
XRECORD
  5
17
102
{ACAD_REACTORS
330
12
102
}
330
12
100
AcDbXrecord
280
     1
270
     1
271
     1
  0
XRECORD
  5
16
102
{ACAD_REACTORS
330
12
102
}
330
12
100
AcDbXrecord
280
     1
270
     1
271
     1
  0
XRECORD
  5
18
102
{ACAD_REACTORS
330
12
102
}
330
12
100
AcDbXrecord
280
     1
270
     1
271
     1
  0
XRECORD
  5
15
102
{ACAD_REACTORS
330
12
102
}
330
12
100
AcDbXrecord
280
     1
270
     1
271
     1
  0
XRECORD
  5
24
102
{ACAD_REACTORS
330
22
102
}
330
22
100
AcDbXrecord
280
     1
270
     1
271
     1
  0
XRECORD
  5
23
102
{ACAD_REACTORS
330
22
102
}
330
22
100
AcDbXrecord
280
     1
270
     1
271
     1
  0
XRECORD
  5
27
102
{ACAD_REACTORS
330
22
102
}
330
22
100
AcDbXrecord
280
     1
270
     1
271
     1
  0
XRECORD
  5
26
102
{ACAD_REACTORS
330
22
102
}
330
22
100
AcDbXrecord
280
     1
270
     1
271
     1
  0
XRECORD
  5
28
102
{ACAD_REACTORS
330
22
102
}
330
22
100
AcDbXrecord
280
     1
270
     1
271
     1
  0
XRECORD
  5
25
102
{ACAD_REACTORS
330
22
102
}
330
22
100
AcDbXrecord
280
     1
270
     1
271
     1
  0
CELLSTYLEMAP
  5
8C
102
{ACAD_REACTORS
330
8B
102
}
330
8B
100
AcDbCellStyleMap
 90
        3
300
CELLSTYLE
  1
TABLEFORMAT_BEGIN
 90
        5
170
     1
 91
        0
 92
    32768
 62
   257
 93
        1
300
CONTENTFORMAT
  1
CONTENTFORMAT_BEGIN
 90
        0
 91
        0
 92
      512
 93
        0
300

 40
0.0
140
1.0
 94
        5
 62
     0
340
55
144
0.25
309
CONTENTFORMAT_END
171
     0
 94
        0
309
TABLEFORMAT_END
  1
CELLSTYLE_BEGIN
 90
        1
 91
        1
300
_TITLE
309
CELLSTYLE_END
300
CELLSTYLE
  1
TABLEFORMAT_BEGIN
 90
        5
170
     1
 91
        0
 92
        0
 62
   257
 93
        1
300
CONTENTFORMAT
  1
CONTENTFORMAT_BEGIN
 90
        0
 91
        0
 92
      512
 93
        0
300

 40
0.0
140
1.0
 94
        5
 62
     0
340
55
144
0.18
309
CONTENTFORMAT_END
171
     0
 94
        0
309
TABLEFORMAT_END
  1
CELLSTYLE_BEGIN
 90
        2
 91
        1
300
_HEADER
309
CELLSTYLE_END
300
CELLSTYLE
  1
TABLEFORMAT_BEGIN
 90
        5
170
     1
 91
        0
 92
        0
 62
   257
 93
        1
300
CONTENTFORMAT
  1
CONTENTFORMAT_BEGIN
 90
        0
 91
        0
 92
      512
 93
        0
300

 40
0.0
140
1.0
 94
        2
 62
     0
340
55
144
0.18
309
CONTENTFORMAT_END
171
     0
 94
        0
309
TABLEFORMAT_END
  1
CELLSTYLE_BEGIN
 90
        3
 91
        2
300
_DATA
309
CELLSTYLE_END
  0
ENDSEC
  0
EOF
