  0
SECTION
  2
HEADER
  9
$ACADVER
  1
AC1032
  9
$ACADMAINTVER
 90
      228
  9
$DWGCODEPAGE
  3
ANSI_1252
  9
$REQUIREDVERSIONS
160
                 0
  9
$INSBASE
 10
0.0
 20
0.0
 30
0.0
  9
$EXTMIN
 10
1.000000000000000E+20
 20
1.000000000000000E+20
 30
1.000000000000000E+20
  9
$EXTMAX
 10
-1.000000000000000E+20
 20
-1.000000000000000E+20
 30
-1.000000000000000E+20
  9
$LIMMIN
 10
0.0
 20
0.0
  9
$LIMMAX
 10
12.0
 20
9.0
  9
$ORTHOMODE
 70
     0
  9
$REGENMODE
 70
     1
  9
$FILLMODE
 70
     1
  9
$QTEXTMODE
 70
     0
  9
$MIRRTEXT
 70
     0
  9
$LTSCALE
 40
1.0
  9
$ATTMODE
 70
     1
  9
$TEXTSIZE
 40
0.2
  9
$TRACEWID
 40
0.05
  9
$TEXTSTYLE
  7
Standard
  9
$CLAYER
  8
0
  9
$CELTYPE
  6
ByLayer
  9
$CECOLOR
 62
   256
  9
$CELTSCALE
 40
1.0
  9
$DISPSILH
 70
     0
  9
$DIMSCALE
 40
1.0
  9
$DIMASZ
 40
0.18
  9
$DIMEXO
 40
0.0625
  9
$DIMDLI
 40
0.38
  9
$DIMRND
 40
0.0
  9
$DIMDLE
 40
0.0
  9
$DIMEXE
 40
0.18
  9
$DIMTP
 40
0.0
  9
$DIMTM
 40
0.0
  9
$DIMTXT
 40
0.18
  9
$DIMCEN
 40
0.09
  9
$DIMTSZ
 40
0.0
  9
$DIMTOL
 70
     0
  9
$DIMLIM
 70
     0
  9
$DIMTIH
 70
     1
  9
$DIMTOH
 70
     1
  9
$DIMSE1
 70
     0
  9
$DIMSE2
 70
     0
  9
$DIMTAD
 70
     0
  9
$DIMZIN
 70
     0
  9
$DIMBLK
  1

  9
$DIMASO
 70
     1
  9
$DIMSHO
 70
     1
  9
$DIMPOST
  1

  9
$DIMAPOST
  1

  9
$DIMALT
 70
     0
  9
$DIMALTD
 70
     2
  9
$DIMALTF
 40
25.4
  9
$DIMLFAC
 40
1.0
  9
$DIMTOFL
 70
     0
  9
$DIMTVP
 40
0.0
  9
$DIMTIX
 70
     0
  9
$DIMSOXD
 70
     0
  9
$DIMSAH
 70
     0
  9
$DIMBLK1
  1

  9
$DIMBLK2
  1

  9
$DIMSTYLE
  2
Standard
  9
$DIMCLRD
 70
     0
  9
$DIMCLRE
 70
     0
  9
$DIMCLRT
 70
     0
  9
$DIMTFAC
 40
1.0
  9
$DIMGAP
 40
0.09
  9
$DIMJUST
 70
     0
  9
$DIMSD1
 70
     0
  9
$DIMSD2
 70
     0
  9
$DIMTOLJ
 70
     1
  9
$DIMTZIN
 70
     0
  9
$DIMALTZ
 70
     0
  9
$DIMALTTZ
 70
     0
  9
$DIMUPT
 70
     0
  9
$DIMDEC
 70
     4
  9
$DIMTDEC
 70
     4
  9
$DIMALTU
 70
     2
  9
$DIMALTTD
 70
     2
  9
$DIMTXSTY
  7
Standard
  9
$DIMAUNIT
 70
     0
  9
$DIMADEC
 70
     0
  9
$DIMALTRND
 40
0.0
  9
$DIMAZIN
 70
     0
  9
$DIMDSEP
 70
    46
  9
$DIMATFIT
 70
     3
  9
$DIMFRAC
 70
     0
  9
$DIMLDRBLK
  1

  9
$DIMLUNIT
 70
     2
  9
$DIMLWD
 70
    -2
  9
$DIMLWE
 70
    -2
  9
$DIMTMOVE
 70
     0
  9
$DIMFXL
 40
1.0
  9
$DIMFXLON
 70
     0
  9
$DIMJOGANG
 40
0.7853981633974483
  9
$DIMTFILL
 70
     0
  9
$DIMTFILLCLR
 70
     0
  9
$DIMARCSYM
 70
     0
  9
$DIMLTYPE
  6

  9
$DIMLTEX1
  6

  9
$DIMLTEX2
  6

  9
$DIMTXTDIRECTION
 70
     0
  9
$LUNITS
 70
     2
  9
$LUPREC
 70
     4
  9
$SKETCHINC
 40
0.1
  9
$FILLETRAD
 40
0.0
  9
$AUNITS
 70
     0
  9
$AUPREC
 70
     0
  9
$MENU
  1
.
  9
$ELEVATION
 40
0.0
  9
$PELEVATION
 40
0.0
  9
$THICKNESS
 40
0.0
  9
$LIMCHECK
 70
     0
  9
$CHAMFERA
 40
0.0
  9
$CHAMFERB
 40
0.0
  9
$CHAMFERC
 40
0.0
  9
$CHAMFERD
 40
0.0
  9
$SKPOLY
 70
     0
  9
$TDCREATE
 40
2460496.778750000
  9
$TDUCREATE
 40
2460497.070416667
  9
$TDUPDATE
 40
2460496.778750000
  9
$TDUUPDATE
 40
2460497.070416667
  9
$TDINDWG
 40
0.0000000000
  9
$TDUSRTIMER
 40
0.0000000000
  9
$USRTIMER
 70
     1
  9
$ANGBASE
 50
0.0
  9
$ANGDIR
 70
     0
  9
$PDMODE
 70
     0
  9
$PDSIZE
 40
0.0
  9
$PLINEWID
 40
0.0
  9
$SPLFRAME
 70
     0
  9
$SPLINETYPE
 70
     6
  9
$SPLINESEGS
 70
     8
  9
$HANDSEED
  5
F0
  9
$SURFTAB1
 70
     6
  9
$SURFTAB2
 70
     6
  9
$SURFTYPE
 70
     6
  9
$SURFU
 70
     6
  9
$SURFV
 70
     6
  9
$UCSBASE
  2

  9
$UCSNAME
  2

  9
$UCSORG
 10
0.0
 20
0.0
 30
0.0
  9
$UCSXDIR
 10
1.0
 20
0.0
 30
0.0
  9
$UCSYDIR
 10
0.0
 20
1.0
 30
0.0
  9
$UCSORTHOREF
  2

  9
$UCSORTHOVIEW
 70
     0
  9
$UCSORGTOP
 10
0.0
 20
0.0
 30
0.0
  9
$UCSORGBOTTOM
 10
0.0
 20
0.0
 30
0.0
  9
$UCSORGLEFT
 10
0.0
 20
0.0
 30
0.0
  9
$UCSORGRIGHT
 10
0.0
 20
0.0
 30
0.0
  9
$UCSORGFRONT
 10
0.0
 20
0.0
 30
0.0
  9
$UCSORGBACK
 10
0.0
 20
0.0
 30
0.0
  9
$PUCSBASE
  2

  9
$PUCSNAME
  2

  9
$PUCSORG
 10
0.0
 20
0.0
 30
0.0
  9
$PUCSXDIR
 10
1.0
 20
0.0
 30
0.0
  9
$PUCSYDIR
 10
0.0
 20
1.0
 30
0.0
  9
$PUCSORTHOREF
  2

  9
$PUCSORTHOVIEW
 70
     0
  9
$PUCSORGTOP
 10
0.0
 20
0.0
 30
0.0
  9
$PUCSORGBOTTOM
 10
0.0
 20
0.0
 30
0.0
  9
$PUCSORGLEFT
 10
0.0
 20
0.0
 30
0.0
  9
$PUCSORGRIGHT
 10
0.0
 20
0.0
 30
0.0
  9
$PUCSORGFRONT
 10
0.0
 20
0.0
 30
0.0
  9
$PUCSORGBACK
 10
0.0
 20
0.0
 30
0.0
  9
$USERI1
 70
     0
  9
$USERI2
 70
     0
  9
$USERI3
 70
     0
  9
$USERI4
 70
     0
  9
$USERI5
 70
     0
  9
$USERR1
 40
0.0
  9
$USERR2
 40
0.0
  9
$USERR3
 40
0.0
  9
$USERR4
 40
0.0
  9
$USERR5
 40
0.0
  9
$WORLDVIEW
 70
     1
  9
$SHADEDGE
 70
     3
  9
$SHADEDIF
 70
    70
  9
$TILEMODE
 70
     1
  9
$MAXACTVP
 70
    64
  9
$PINSBASE
 10
0.0
 20
0.0
 30
0.0
  9
$PLIMCHECK
 70
     0
  9
$PEXTMIN
 10
1.000000000000000E+20
 20
1.000000000000000E+20
 30
1.000000000000000E+20
  9
$PEXTMAX
 10
-1.000000000000000E+20
 20
-1.000000000000000E+20
 30
-1.000000000000000E+20
  9
$PLIMMIN
 10
0.0
 20
0.0
  9
$PLIMMAX
 10
12.0
 20
9.0
  9
$UNITMODE
 70
     0
  9
$VISRETAIN
 70
     1
  9
$PLINEGEN
 70
     0
  9
$PSLTSCALE
 70
     1
  9
$TREEDEPTH
 70
  3020
  9
$CMLSTYLE
  2
Standard
  9
$CMLJUST
 70
     0
  9
$CMLSCALE
 40
1.0
  9
$PROXYGRAPHICS
 70
     1
  9
$MEASUREMENT
 70
     0
  9
$CELWEIGHT
370
    -1
  9
$ENDCAPS
280
     0
  9
$JOINSTYLE
280
     0
  9
$LWDISPLAY
290
     1
  9
$INSUNITS
 70
     1
  9
$HYPERLINKBASE
  1

  9
$STYLESHEET
  1

  9
$XEDIT
290
     1
  9
$CEPSNTYPE
380
     0
  9
$PSTYLEMODE
290
     1
  9
$FINGERPRINTGUID
  2
{B2BE6385-BB2F-C849-BC93-15B2A05842CB}
  9
$VERSIONGUID
  2
{EC4263DB-90CE-B646-9DA4-357A3492B6D8}
  9
$EXTNAMES
290
     1
  9
$PSVPSCALE
 40
0.0
  9
$OLESTARTUP
290
     0
  9
$SORTENTS
280
   127
  9
$INDEXCTL
280
     0
  9
$HIDETEXT
280
     1
  9
$XCLIPFRAME
280
     2
  9
$HALOGAP
280
     0
  9
$OBSCOLOR
 70
   257
  9
$OBSLTYPE
280
     0
  9
$INTERSECTIONDISPLAY
280
     0
  9
$INTERSECTIONCOLOR
 70
   257
  9
$DIMASSOC
280
     2
  9
$PROJECTNAME
  1

  9
$CAMERADISPLAY
290
     0
  9
$LENSLENGTH
 40
50.0
  9
$CAMERAHEIGHT
 40
0.0
  9
$STEPSPERSEC
 40
2.0
  9
$STEPSIZE
 40
6.0
  9
$3DDWFPREC
 40
2.0
  9
$PSOLWIDTH
 40
0.25
  9
$PSOLHEIGHT
 40
4.0
  9
$LOFTANG1
 40
1.570796326794896
  9
$LOFTANG2
 40
1.570796326794896
  9
$LOFTMAG1
 40
0.0
  9
$LOFTMAG2
 40
0.0
  9
$LOFTPARAM
 70
     7
  9
$LOFTNORMALS
280
     1
  9
$LATITUDE
 40
37.795
  9
$LONGITUDE
 40
-122.394
  9
$NORTHDIRECTION
 40
0.0
  9
$TIMEZONE
 70
 -8000
  9
$LIGHTGLYPHDISPLAY
280
     1
  9
$TILEMODELIGHTSYNCH
280
     1
  9
$CMATERIAL
347
11
  9
$SOLIDHIST
280
     0
  9
$SHOWHIST
280
     1
  9
$DWFFRAME
280
     2
  9
$DGNFRAME
280
     0
  9
$REALWORLDSCALE
290
     1
  9
$INTERFERECOLOR
 62
     1
  9
$INTERFEREOBJVS
345
33
  9
$INTERFEREVPVS
346
30
  9
$CSHADOW
280
     0
  9
$SHADOWPLANELOCATION
 40
0.0
  0
ENDSEC
  0
SECTION
  2
CLASSES
  0
CLASS
  1
ACDBDICTIONARYWDFLT
  2
AcDbDictionaryWithDefault
  3
ObjectDBX Classes
 90
        0
 91
        1
280
     0
281
     0
  0
CLASS
  1
MATERIAL
  2
AcDbMaterial
  3
ObjectDBX Classes
 90
     1153
 91
        3
280
     0
281
     0
  0
CLASS
  1
VISUALSTYLE
  2
AcDbVisualStyle
  3
ObjectDBX Classes
 90
     4095
 91
       24
280
     0
281
     0
  0
CLASS
  1
SCALE
  2
AcDbScale
  3
ObjectDBX Classes
 90
     1153
 91
       17
280
     0
281
     0
  0
CLASS
  1
TABLESTYLE
  2
AcDbTableStyle
  3
ObjectDBX Classes
 90
     4095
 91
        1
280
     0
281
     0
  0
CLASS
  1
MLEADERSTYLE
  2
AcDbMLeaderStyle
  3
ACDB_MLEADERSTYLE_CLASS
 90
     4095
 91
        1
280
     0
281
     0
  0
CLASS
  1
ACDBSECTIONVIEWSTYLE
  2
AcDbSectionViewStyle
  3
ObjectDBX Classes
 90
     1025
 91
        1
280
     0
281
     0
  0
CLASS
  1
ACDBDETAILVIEWSTYLE
  2
AcDbDetailViewStyle
  3
ObjectDBX Classes
 90
     1025
 91
        1
280
     0
281
     0
  0
CLASS
  1
DICTIONARYVAR
  2
AcDbDictionaryVar
  3
ObjectDBX Classes
 90
        0
 91
        5
280
     0
281
     0
  0
CLASS
  1
CELLSTYLEMAP
  2
AcDbCellStyleMap
  3
ObjectDBX Classes
 90
     1152
 91
        1
280
     0
281
     0
  0
ENDSEC
  0
SECTION
  2
TABLES
  0
TABLE
  2
VPORT
  5
8
330
0
100
AcDbSymbolTable
 70
     1
  0
VPORT
  5
57
330
8
100
AcDbSymbolTableRecord
100
AcDbViewportTableRecord
  2
*Active
 70
     0
 10
0.0
 20
0.0
 11
1.0
 21
1.0
 12
0.0
 22
0.0
 13
0.0
 23
0.0
 14
1.0
 24
1.0
 15
0.0
 25
0.0
 16
0.0
 26
0.0
 36
1.0
 17
0.9063715204259281
 27
-9.464948306989626
 37
0.0
 40
28.18769568220839
 41
1.322120462652983
 42
50.0
 43
0.0
 44
0.0
 50
0.0
 51
0.0
 71
     0
 72
   100
 73
     1
 74
     1
 75
     0
 76
     0
 77
     0
 78
     0
281
     0
 65
     1
110
0.0
120
0.0
130
0.0
111
1.0
121
0.0
131
0.0
112
0.0
122
1.0
132
0.0
 79
     0
146
0.0
 60
     3
 61
     5
292
     1
282
     1
141
0.0
142
0.0
 63
   250
421
  3355443
  0
ENDTAB
  0
TABLE
  2
LTYPE
  5
5
330
0
100
AcDbSymbolTable
 70
     1
  0
LTYPE
  5
5B
330
5
100
AcDbSymbolTableRecord
100
AcDbLinetypeTableRecord
  2
ByBlock
 70
     0
  3

 72
    65
 73
     0
 40
0.0
  0
LTYPE
  5
5C
330
5
100
AcDbSymbolTableRecord
100
AcDbLinetypeTableRecord
  2
ByLayer
 70
     0
  3

 72
    65
 73
     0
 40
0.0
  0
LTYPE
  5
5D
330
5
100
AcDbSymbolTableRecord
100
AcDbLinetypeTableRecord
  2
Continuous
 70
     0
  3
Solid line
 72
    65
 73
     0
 40
0.0
  0
ENDTAB
  0
TABLE
  2
LAYER
  5
2
330
0
100
AcDbSymbolTable
 70
     8
  0
LAYER
  5
54
330
2
100
AcDbSymbolTableRecord
100
AcDbLayerTableRecord
  2
0
 70
     0
 62
     7
  6
Continuous
370
    -3
390
F
347
21
348
0
  0
LAYER
  5
78
330
2
100
AcDbSymbolTableRecord
100
AcDbLayerTableRecord
  2
Luffy
 70
     1
 62
     7
  6
Continuous
370
     0
390
F
347
21
348
0
  0
LAYER
  5
79
330
2
100
AcDbSymbolTableRecord
100
AcDbLayerTableRecord
  2
Deck Box - DF
 70
     0
 62
     7
  6
Continuous
370
     0
390
F
347
21
348
0
  0
LAYER
  5
E2
330
2
100
AcDbSymbolTableRecord
100
AcDbLayerTableRecord
  2
Deck Box - G5
 70
     1
 62
     7
  6
Continuous
370
     0
390
F
347
21
348
0
  0
LAYER
  5
E3
330
2
100
AcDbSymbolTableRecord
100
AcDbLayerTableRecord
  2
Poneglyph
 70
     1
 62
     7
  6
Continuous
370
     0
390
F
347
21
348
0
  0
LAYER
  5
E4
330
2
100
AcDbSymbolTableRecord
100
AcDbLayerTableRecord
  2
Crocodile
 70
     1
 62
     7
  6
Continuous
370
     0
390
F
347
21
348
0
  0
LAYER
  5
E5
330
2
100
AcDbSymbolTableRecord
100
AcDbLayerTableRecord
  2
Layer 2
 70
     5
 62
     7
  6
Continuous
370
     0
390
F
347
21
348
0
  0
LAYER
  5
E6
330
2
100
AcDbSymbolTableRecord
100
AcDbLayerTableRecord
  2
Lid
 70
     1
 62
     7
  6
Continuous
370
     0
390
F
347
21
348
0
  0
ENDTAB
  0
TABLE
  2
STYLE
  5
3
330
0
100
AcDbSymbolTable
 70
     2
  0
STYLE
  5
55
330
3
100
AcDbSymbolTableRecord
100
AcDbTextStyleTableRecord
  2
Standard
 70
     0
 40
0.0
 41
1.0
 50
0.0
 71
     0
 42
0.2
  3
txt
  4

  0
STYLE
  5
5A
330
3
100
AcDbSymbolTableRecord
100
AcDbTextStyleTableRecord
  2
Annotative
 70
     0
 40
0.0
 41
1.0
 50
0.0
 71
     0
 42
0.2
  3
txt
  4

1001
AcadAnnotative
1000
AnnotativeData
1002
{
1070
     1
1070
     1
1002
}
  0
ENDTAB
  0
TABLE
  2
VIEW
  5
6
330
0
100
AcDbSymbolTable
 70
     0
  0
ENDTAB
  0
TABLE
  2
UCS
  5
7
330
0
100
AcDbSymbolTable
 70
     0
  0
ENDTAB
  0
TABLE
  2
APPID
  5
9
330
0
100
AcDbSymbolTable
 70
     2
  0
APPID
  5
56
330
9
100
AcDbSymbolTableRecord
100
AcDbRegAppTableRecord
  2
ACAD
 70
     0
  0
APPID
  5
5E
330
9
100
AcDbSymbolTableRecord
100
AcDbRegAppTableRecord
  2
AcadAnnotative
 70
     0
  0
ENDTAB
  0
TABLE
  2
DIMSTYLE
  5
A
330
0
100
AcDbSymbolTable
 70
     2
100
AcDbDimStyleTable
 71
     0
  0
DIMSTYLE
105
58
330
A
100
AcDbSymbolTableRecord
100
AcDbDimStyleTableRecord
  2
Standard
 70
     0
340
55
  0
DIMSTYLE
105
59
330
A
100
AcDbSymbolTableRecord
100
AcDbDimStyleTableRecord
  2
Annotative
 70
     0
340
55
1001
AcadAnnotative
1000
AnnotativeData
1002
{
1070
     1
1070
     1
1002
}
  0
ENDTAB
  0
TABLE
  2
BLOCK_RECORD
  5
1
330
0
100
AcDbSymbolTable
 70
     3
  0
BLOCK_RECORD
  5
70
330
1
100
AcDbSymbolTableRecord
100
AcDbBlockTableRecord
  2
*Model_Space
340
73
 70
     0
280
     1
281
     0
  0
BLOCK_RECORD
  5
6C
330
1
100
AcDbSymbolTableRecord
100
AcDbBlockTableRecord
  2
*Paper_Space
340
6F
 70
     0
280
     1
281
     0
  0
BLOCK_RECORD
  5
74
330
1
100
AcDbSymbolTableRecord
100
AcDbBlockTableRecord
  2
*Paper_Space0
340
77
 70
     0
280
     1
281
     0
  0
BLOCK_RECORD
  5
7A
330
1
100
AcDbSymbolTableRecord
100
AcDbBlockTableRecord
  2
Block_0
340
0
102
{BLKREFS
331
7B
102
}
 70
     0
280
     1
281
     0
  0
BLOCK_RECORD
  5
7E
330
1
100
AcDbSymbolTableRecord
100
AcDbBlockTableRecord
  2
Block_1
340
0
102
{BLKREFS
331
7F
102
}
 70
     0
280
     1
281
     0
  0
ENDTAB
  0
ENDSEC
  0
SECTION
  2
BLOCKS
  0
BLOCK
  5
71
330
70
100
AcDbEntity
  8
0
100
AcDbBlockBegin
  2
*Model_Space
 70
     0
 10
0.0
 20
0.0
 30
0.0
  3
*Model_Space
  1

  0
ENDBLK
  5
72
330
70
100
AcDbEntity
  8
0
100
AcDbBlockEnd
  0
BLOCK
  5
6D
330
6C
100
AcDbEntity
 67
     1
  8
0
100
AcDbBlockBegin
  2
*Paper_Space
 70
     0
 10
0.0
 20
0.0
 30
0.0
  3
*Paper_Space
  1

  0
ENDBLK
  5
6E
330
6C
100
AcDbEntity
 67
     1
  8
0
100
AcDbBlockEnd
  0
BLOCK
  5
75
330
74
100
AcDbEntity
 67
     1
  8
0
100
AcDbBlockBegin
  2
*Paper_Space0
 70
     0
 10
0.0
 20
0.0
 30
0.0
  3
*Paper_Space0
  1

  0
ENDBLK
  5
76
330
74
100
AcDbEntity
 67
     1
  8
0
100
AcDbBlockEnd
  0
BLOCK
  5
7C
330
7A
100
AcDbEntity
  8
0
100
AcDbBlockBegin
  2
Block_0
 70
     0
 10
0.0
 20
0.0
 30
0.0
  3
Block_0
  1

  0
INSERT
  5
7F
330
7A
100
AcDbEntity
  8
Deck Box - DF
100
AcDbBlockReference
  2
Block_1
 10
0.0
 20
0.0
 30
0.0
  0
LWPOLYLINE
  5
E0
330
7A
100
AcDbEntity
  8
Deck Box - DF
100
AcDbPolyline
 90
        3
 70
     0
 43
0.0
 10
10.69004893623805
 20
-0.6557105278893687
 10
10.69004893623805
 20
-0.5871526082676281
 10
10.76215295515059
 20
-0.5871526082676281
  0
HATCH
  5
E1
330
7A
100
AcDbEntity
  8
Deck Box - DF
 62
   240
420
 15539236
440
 33554687
100
AcDbHatch
 10
0.0
 20
0.0
 30
0.0
210
0.0
220
0.0
230
1.0
  2
SOLID
 70
     1
 71
     1
 91
        1
 92
        3
 72
     0
 73
     1
 93
        3
 10
10.69004893623805
 20
-0.6557105278893687
 10
10.69004893623805
 20
-0.5871526082676281
 10
10.76215295515059
 20
-0.5871526082676281
 97
        0
 75
     2
 76
     1
 98
        1
 10
0.0
 20
0.0
450
        0
451
        0
460
0.0
461
0.0
452
        0
462
0.0
453
        0
470

  0
ENDBLK
  5
7D
330
7A
100
AcDbEntity
  8
0
100
AcDbBlockEnd
  0
BLOCK
  5
80
330
7E
100
AcDbEntity
  8
0
100
AcDbBlockBegin
  2
Block_1
 70
     0
 10
0.0
 20
0.0
 30
0.0
  3
Block_1
  1

  0
SPLINE
  5
82
330
7E
100
AcDbEntity
  8
Deck Box - DF
100
AcDbSpline
210
0.0
220
0.0
230
1.0
 70
    11
 71
     3
 72
    14
 73
    10
 74
     0
 42
0.0000000001
 43
0.0000000001
 40
0.0
 40
0.0
 40
0.0
 40
0.0
 40
1.0
 40
1.0
 40
1.0
 40
2.0
 40
2.0
 40
2.0
 40
3.0
 40
3.0
 40
3.0
 40
3.0
 10
10.84072113037109
 20
-0.737152099609375
 30
0.0
 10
10.84072113037109
 20
-0.737152099609375
 30
0.0
 10
10.84072113037109
 20
-0.7788263956705729
 30
0.0
 10
10.84072113037109
 20
-0.7788263956705729
 30
0.0
 10
10.86612955729166
 20
-0.7717497083875867
 30
0.0
 10
10.8813968234592
 20
-0.7567248874240451
 30
0.0
 10
10.89054785834418
 20
-0.737152099609375
 30
0.0
 10
10.89054785834418
 20
-0.737152099609375
 30
0.0
 10
10.84072113037109
 20
-0.737152099609375
 30
0.0
 10
10.84072113037109
 20
-0.737152099609375
 30
0.0
  0
HATCH
  5
83
330
7E
100
AcDbEntity
  8
Deck Box - DF
 62
   250
420
  2301728
440
 33554687
100
AcDbHatch
 10
0.0
 20
0.0
 30
0.0
210
0.0
220
0.0
230
1.0
  2
SOLID
 70
     1
 71
     1
 91
        1
 92
        1
 93
        1
 72
     4
 94
        3
 73
     0
 74
     0
 95
       14
 96
       10
 40
0.0
 40
0.0
 40
0.0
 40
0.0
 40
1.0
 40
1.0
 40
1.0
 40
2.0
 40
2.0
 40
2.0
 40
3.0
 40
3.0
 40
3.0
 40
3.0
 10
10.84072113037109
 20
-0.737152099609375
 10
10.84072113037109
 20
-0.737152099609375
 10
10.84072113037109
 20
-0.7788263956705729
 10
10.84072113037109
 20
-0.7788263956705729
 10
10.86612955729166
 20
-0.7717497083875867
 10
10.8813968234592
 20
-0.7567248874240451
 10
10.89054785834418
 20
-0.737152099609375
 10
10.89054785834418
 20
-0.737152099609375
 10
10.84072113037109
 20
-0.737152099609375
 10
10.84072113037109
 20
-0.737152099609375
 97
        0
 97
        1
330
82
 75
     2
 76
     1
 98
        1
 10
0.0
 20
0.0
450
        0
451
        0
460
0.0
461
0.0
452
        0
462
0.0
453
        0
470

  0
SPLINE
  5
84
330
7E
100
AcDbEntity
  8
Deck Box - DF
100
AcDbSpline
210
0.0
220
0.0
230
1.0
 70
     9
 71
     3
 72
    11
 73
     7
 74
     0
 42
0.0000000001
 43
0.0000000001
 40
0.0
 40
0.0
 40
0.0
 40
0.0
 40
1.0
 40
1.0
 40
1.0
 40
2.0
 40
2.0
 40
2.0
 40
2.0
 10
11.20973283555771
 20
-0.8925591363166757
 30
0.0
 10
11.10463962131075
 20
-0.9272508409607729
 30
0.0
 10
11.2481824408637
 20
-0.9845815023105993
 30
0.0
 10
11.2728652275933
 20
-0.9256961398974048
 30
0.0
 10
11.23703165690103
 20
-1.048371717696884
 30
0.0
 10
11.0916637166341
 20
-0.8673227946283077
 30
0.0
 10
11.20973283555771
 20
-0.8925591363166757
 30
0.0
  0
SPLINE
  5
85
330
7E
100
AcDbEntity
  8
Deck Box - DF
100
AcDbSpline
210
0.0
220
0.0
230
1.0
 70
     9
 71
     3
 72
    29
 73
    25
 74
     0
 42
0.0000000001
 43
0.0000000001
 40
0.0
 40
0.0
 40
0.0
 40
0.0
 40
1.0
 40
1.0
 40
1.0
 40
2.0
 40
2.0
 40
2.0
 40
3.0
 40
3.0
 40
3.0
 40
4.0
 40
4.0
 40
4.0
 40
5.0
 40
5.0
 40
5.0
 40
6.0
 40
6.0
 40
6.0
 40
7.0
 40
7.0
 40
7.0
 40
8.0
 40
8.0
 40
8.0
 40
8.0
 10
11.30727803548176
 20
-0.7371526082676306
 30
0.0
 10
11.29207010904947
 20
-0.7508889092658945
 30
0.0
 10
11.28078708224825
 20
-0.7685687595263113
 30
0.0
 10
11.27610263400606
 20
-0.7902726915467105
 30
0.0
 10
11.28240536159938
 20
-0.8454213460605993
 30
0.0
 10
11.28148983425563
 20
-0.8849585639425438
 30
0.0
 10
11.27604922824434
 20
-0.9125905355137243
 30
0.0
 10
11.2769656032986
 20
-0.9035497029941931
 30
0.0
 10
11.27582458496092
 20
-0.8927049425232729
 30
0.0
 10
11.27189968532985
 20
-0.8797459920566931
 30
0.0
 10
11.02761579725476
 20
-0.6376542833435856
 30
0.0
 10
11.07725687662759
 20
-1.2213250054573
 30
0.0
 10
11.34862935384113
 20
-0.9633310954095577
 30
0.0
 10
11.36930246988931
 20
-0.5729765150601654
 30
0.0
 10
11.5547738986545
 20
-0.8910654704095577
 30
0.0
 10
11.43437950981986
 20
-0.841175164148707
 30
0.0
 10
11.50124776204426
 20
-0.8457519531569534
 30
0.0
 10
11.46200893825954
 20
-0.7620295207025265
 30
0.0
 10
11.41008158365884
 20
-0.7800230238492279
 30
0.0
 10
11.2375614759657
 20
-0.963579474587075
 30
0.0
 10
11.68744567871092
 20
-0.9467812432502695
 30
0.0
 10
11.49594109429252
 20
-0.7371526082676306
 30
0.0
 10
11.49594109429252
 20
-0.7371526082676306
 30
0.0
 10
11.30727803548176
 20
-0.7371526082676306
 30
0.0
 10
11.30727803548176
 20
-0.7371526082676306
 30
0.0
  0
HATCH
  5
86
330
7E
100
AcDbEntity
  8
Deck Box - DF
 62
   250
420
  2301728
440
 33554687
100
AcDbHatch
 10
0.0
 20
0.0
 30
0.0
210
0.0
220
0.0
230
1.0
  2
SOLID
 70
     1
 71
     1
 91
        2
 92
        1
 93
        1
 72
     4
 94
        3
 73
     0
 74
     0
 95
       11
 96
        7
 40
0.0
 40
0.0
 40
0.0
 40
0.0
 40
1.0
 40
1.0
 40
1.0
 40
2.0
 40
2.0
 40
2.0
 40
2.0
 10
11.20973283555771
 20
-0.8925591363166757
 10
11.10463962131075
 20
-0.9272508409607729
 10
11.2481824408637
 20
-0.9845815023105993
 10
11.2728652275933
 20
-0.9256961398974048
 10
11.23703165690103
 20
-1.048371717696884
 10
11.0916637166341
 20
-0.8673227946283077
 10
11.20973283555771
 20
-0.8925591363166757
 97
        0
 97
        1
330
84
 92
        1
 93
        1
 72
     4
 94
        3
 73
     0
 74
     0
 95
       29
 96
       25
 40
0.0
 40
0.0
 40
0.0
 40
0.0
 40
1.0
 40
1.0
 40
1.0
 40
2.0
 40
2.0
 40
2.0
 40
3.0
 40
3.0
 40
3.0
 40
4.0
 40
4.0
 40
4.0
 40
5.0
 40
5.0
 40
5.0
 40
6.0
 40
6.0
 40
6.0
 40
7.0
 40
7.0
 40
7.0
 40
8.0
 40
8.0
 40
8.0
 40
8.0
 10
11.30727803548176
 20
-0.7371526082676306
 10
11.29207010904947
 20
-0.7508889092658945
 10
11.28078708224825
 20
-0.7685687595263113
 10
11.27610263400606
 20
-0.7902726915467105
 10
11.28240536159938
 20
-0.8454213460605993
 10
11.28148983425563
 20
-0.8849585639425438
 10
11.27604922824434
 20
-0.9125905355137243
 10
11.2769656032986
 20
-0.9035497029941931
 10
11.27582458496092
 20
-0.8927049425232729
 10
11.27189968532985
 20
-0.8797459920566931
 10
11.02761579725476
 20
-0.6376542833435856
 10
11.07725687662759
 20
-1.2213250054573
 10
11.34862935384113
 20
-0.9633310954095577
 10
11.36930246988931
 20
-0.5729765150601654
 10
11.5547738986545
 20
-0.8910654704095577
 10
11.43437950981986
 20
-0.841175164148707
 10
11.50124776204426
 20
-0.8457519531569534
 10
11.46200893825954
 20
-0.7620295207025265
 10
11.41008158365884
 20
-0.7800230238492279
 10
11.2375614759657
 20
-0.963579474587075
 10
11.68744567871092
 20
-0.9467812432502695
 10
11.49594109429252
 20
-0.7371526082676306
 10
11.49594109429252
 20
-0.7371526082676306
 10
11.30727803548176
 20
-0.7371526082676306
 10
11.30727803548176
 20
-0.7371526082676306
 97
        0
 97
        1
330
85
 75
     2
 76
     1
 98
        1
 10
0.0
 20
0.0
450
        0
451
        0
460
0.0
461
0.0
452
        0
462
0.0
453
        0
470

  0
SPLINE
  5
87
330
7E
100
AcDbEntity
  8
Deck Box - DF
100
AcDbSpline
210
0.0
220
0.0
230
1.0
 70
     9
 71
     3
 72
    11
 73
     7
 74
     0
 42
0.0000000001
 43
0.0000000001
 40
0.0
 40
0.0
 40
0.0
 40
0.0
 40
1.0
 40
1.0
 40
1.0
 40
2.0
 40
2.0
 40
2.0
 40
2.0
 10
11.62378177218966
 20
-0.7371526082676306
 30
0.0
 10
11.65307440863714
 20
-0.7753250122389848
 30
0.0
 10
11.67419596354165
 20
-0.7618362427077348
 30
0.0
 10
11.68012654622395
 20
-0.7371526082676306
 30
0.0
 10
11.68012654622395
 20
-0.7371526082676306
 30
0.0
 10
11.62378177218966
 20
-0.7371526082676306
 30
0.0
 10
11.62378177218966
 20
-0.7371526082676306
 30
0.0
  0
HATCH
  5
88
330
7E
100
AcDbEntity
  8
Deck Box - DF
 62
   250
420
  2301728
440
 33554687
100
AcDbHatch
 10
0.0
 20
0.0
 30
0.0
210
0.0
220
0.0
230
1.0
  2
SOLID
 70
     1
 71
     1
 91
        1
 92
        1
 93
        1
 72
     4
 94
        3
 73
     0
 74
     0
 95
       11
 96
        7
 40
0.0
 40
0.0
 40
0.0
 40
0.0
 40
1.0
 40
1.0
 40
1.0
 40
2.0
 40
2.0
 40
2.0
 40
2.0
 10
11.62378177218966
 20
-0.7371526082676306
 10
11.65307440863714
 20
-0.7753250122389848
 10
11.67419596354165
 20
-0.7618362427077348
 10
11.68012654622395
 20
-0.7371526082676306
 10
11.68012654622395
 20
-0.7371526082676306
 10
11.62378177218966
 20
-0.7371526082676306
 10
11.62378177218966
 20
-0.7371526082676306
 97
        0
 97
        1
330
87
 75
     2
 76
     1
 98
        1
 10
0.0
 20
0.0
450
        0
451
        0
460
0.0
461
0.0
452
        0
462
0.0
453
        0
470

  0
SPLINE
  5
89
330
7E
100
AcDbEntity
  8
Deck Box - DF
100
AcDbSpline
210
0.0
220
0.0
230
1.0
 70
     9
 71
     3
 72
    23
 73
    19
 74
     0
 42
0.0000000001
 43
0.0000000001
 40
0.0
 40
0.0
 40
0.0
 40
0.0
 40
1.0
 40
1.0
 40
1.0
 40
2.0
 40
2.0
 40
2.0
 40
3.0
 40
3.0
 40
3.0
 40
4.0
 40
4.0
 40
4.0
 40
5.0
 40
5.0
 40
5.0
 40
6.0
 40
6.0
 40
6.0
 40
6.0
 10
11.69825144449868
 20
-0.7371526082676306
 30
0.0
 10
11.68155493842229
 20
-0.77124667700678
 30
0.0
 10
11.61945505777993
 20
-0.7876100328553042
 30
0.0
 10
11.60656731499565
 20
-0.7405875312277001
 30
0.0
 10
11.60730821397568
 20
-0.739585537412596
 30
0.0
 10
11.60836785210502
 20
-0.7383444892355126
 30
0.0
 10
11.60936136881509
 20
-0.7371526082676306
 30
0.0
 10
11.60936136881509
 20
-0.7371526082676306
 30
0.0
 10
11.54837961832681
 20
-0.7371526082676306
 30
0.0
 10
11.54837961832681
 20
-0.7371526082676306
 30
0.0
 10
11.54372823079426
 20
-0.7633460151144189
 30
0.0
 10
11.55469675699868
 20
-0.7922631158088632
 30
0.0
 10
11.58701826307507
 20
-0.8147427029399397
 30
0.0
 10
11.67368988037108
 20
-0.8498031616530472
 30
0.0
 10
11.73785987006292
 20
-0.7993203057502695
 30
0.0
 10
11.75459367540146
 20
-0.7371526082676306
 30
0.0
 10
11.75459367540146
 20
-0.7371526082676306
 30
0.0
 10
11.69825144449868
 20
-0.7371526082676306
 30
0.0
 10
11.69825144449868
 20
-0.7371526082676306
 30
0.0
  0
HATCH
  5
8A
330
7E
100
AcDbEntity
  8
Deck Box - DF
 62
   250
420
  2301728
440
 33554687
100
AcDbHatch
 10
0.0
 20
0.0
 30
0.0
210
0.0
220
0.0
230
1.0
  2
SOLID
 70
     1
 71
     1
 91
        1
 92
        1
 93
        1
 72
     4
 94
        3
 73
     0
 74
     0
 95
       23
 96
       19
 40
0.0
 40
0.0
 40
0.0
 40
0.0
 40
1.0
 40
1.0
 40
1.0
 40
2.0
 40
2.0
 40
2.0
 40
3.0
 40
3.0
 40
3.0
 40
4.0
 40
4.0
 40
4.0
 40
5.0
 40
5.0
 40
5.0
 40
6.0
 40
6.0
 40
6.0
 40
6.0
 10
11.69825144449868
 20
-0.7371526082676306
 10
11.68155493842229
 20
-0.77124667700678
 10
11.61945505777993
 20
-0.7876100328553042
 10
11.60656731499565
 20
-0.7405875312277001
 10
11.60730821397568
 20
-0.739585537412596
 10
11.60836785210502
 20
-0.7383444892355126
 10
11.60936136881509
 20
-0.7371526082676306
 10
11.60936136881509
 20
-0.7371526082676306
 10
11.54837961832681
 20
-0.7371526082676306
 10
11.54837961832681
 20
-0.7371526082676306
 10
11.54372823079426
 20
-0.7633460151144189
 10
11.55469675699868
 20
-0.7922631158088632
 10
11.58701826307507
 20
-0.8147427029399397
 10
11.67368988037108
 20
-0.8498031616530472
 10
11.73785987006292
 20
-0.7993203057502695
 10
11.75459367540146
 20
-0.7371526082676306
 10
11.75459367540146
 20
-0.7371526082676306
 10
11.69825144449868
 20
-0.7371526082676306
 10
11.69825144449868
 20
-0.7371526082676306
 97
        0
 97
        1
330
89
 75
     2
 76
     1
 98
        1
 10
0.0
 20
0.0
450
        0
451
        0
460
0.0
461
0.0
452
        0
462
0.0
453
        0
470

  0
SPLINE
  5
8B
330
7E
100
AcDbEntity
  8
Deck Box - DF
100
AcDbSpline
210
0.0
220
0.0
230
1.0
 70
     9
 71
     3
 72
    20
 73
    16
 74
     0
 42
0.0000000001
 43
0.0000000001
 40
0.0
 40
0.0
 40
0.0
 40
0.0
 40
1.0
 40
1.0
 40
1.0
 40
2.0
 40
2.0
 40
2.0
 40
3.0
 40
3.0
 40
3.0
 40
4.0
 40
4.0
 40
4.0
 40
5.0
 40
5.0
 40
5.0
 40
5.0
 10
10.84072113037109
 20
-0.7926550971137152
 30
0.0
 10
10.84072113037109
 20
-0.7926550971137152
 30
0.0
 10
10.84072113037109
 20
-0.8447587754991319
 30
0.0
 10
10.84072113037109
 20
-0.8447587754991319
 30
0.0
 10
10.88696712917752
 20
-0.837826199001736
 30
0.0
 10
10.9392581515842
 20
-0.8964877658420139
 30
0.0
 10
10.85716671413845
 20
-0.9047580295138889
 30
0.0
 10
10.92027028401692
 20
-0.8687820434570312
 30
0.0
 10
10.87938690185547
 20
-0.8505893283420139
 30
0.0
 10
10.84072113037109
 20
-0.8597496880425346
 30
0.0
 10
10.84072113037109
 20
-0.8597496880425346
 30
0.0
 10
10.84072113037109
 20
-0.9492390950520832
 30
0.0
 10
10.84072113037109
 20
-0.9492390950520832
 30
0.0
 10
10.99057430691189
 20
-1.006668090820312
 30
0.0
 10
10.96586185031467
 20
-0.7610863579644098
 30
0.0
 10
10.84072113037109
 20
-0.7926550971137152
 30
0.0
  0
HATCH
  5
8C
330
7E
100
AcDbEntity
  8
Deck Box - DF
 62
   250
420
  2301728
440
 33554687
100
AcDbHatch
 10
0.0
 20
0.0
 30
0.0
210
0.0
220
0.0
230
1.0
  2
SOLID
 70
     1
 71
     1
 91
        1
 92
        1
 93
        1
 72
     4
 94
        3
 73
     0
 74
     0
 95
       20
 96
       16
 40
0.0
 40
0.0
 40
0.0
 40
0.0
 40
1.0
 40
1.0
 40
1.0
 40
2.0
 40
2.0
 40
2.0
 40
3.0
 40
3.0
 40
3.0
 40
4.0
 40
4.0
 40
4.0
 40
5.0
 40
5.0
 40
5.0
 40
5.0
 10
10.84072113037109
 20
-0.7926550971137152
 10
10.84072113037109
 20
-0.7926550971137152
 10
10.84072113037109
 20
-0.8447587754991319
 10
10.84072113037109
 20
-0.8447587754991319
 10
10.88696712917752
 20
-0.837826199001736
 10
10.9392581515842
 20
-0.8964877658420139
 10
10.85716671413845
 20
-0.9047580295138889
 10
10.92027028401692
 20
-0.8687820434570312
 10
10.87938690185547
 20
-0.8505893283420139
 10
10.84072113037109
 20
-0.8597496880425346
 10
10.84072113037109
 20
-0.8597496880425346
 10
10.84072113037109
 20
-0.9492390950520832
 10
10.84072113037109
 20
-0.9492390950520832
 10
10.99057430691189
 20
-1.006668090820312
 10
10.96586185031467
 20
-0.7610863579644098
 10
10.84072113037109
 20
-0.7926550971137152
 97
        0
 97
        1
330
8B
 75
     2
 76
     1
 98
        1
 10
0.0
 20
0.0
450
        0
451
        0
460
0.0
461
0.0
452
        0
462
0.0
453
        0
470

  0
SPLINE
  5
8D
330
7E
100
AcDbEntity
  8
Deck Box - DF
100
AcDbSpline
210
0.0
220
0.0
230
1.0
 70
     9
 71
     3
 72
    20
 73
    16
 74
     0
 42
0.0000000001
 43
0.0000000001
 40
0.0
 40
0.0
 40
0.0
 40
0.0
 40
1.0
 40
1.0
 40
1.0
 40
2.0
 40
2.0
 40
2.0
 40
3.0
 40
3.0
 40
3.0
 40
4.0
 40
4.0
 40
4.0
 40
5.0
 40
5.0
 40
5.0
 40
5.0
 10
11.09599127875433
 20
-0.7371526082676306
 30
0.0
 10
11.07663296169703
 20
-0.8445193820849048
 30
0.0
 10
10.94494028727212
 20
-0.7915951199321273
 30
0.0
 10
10.99246632893879
 20
-0.7371526082676306
 30
0.0
 10
10.99246632893879
 20
-0.7371526082676306
 30
0.0
 10
10.92291761610242
 20
-0.7371526082676306
 30
0.0
 10
10.92291761610242
 20
-0.7371526082676306
 30
0.0
 10
10.89136159261066
 20
-0.8529803806200611
 30
0.0
 10
11.10403859456379
 20
-0.9053078545783945
 30
0.0
 10
11.17232930501301
 20
-0.7708702935432382
 30
0.0
 10
11.17809967041014
 20
-0.759849209287596
 30
0.0
 10
11.18070807562933
 20
-0.7485526191183251
 30
0.0
 10
11.18169904920788
 20
-0.7371526082676306
 30
0.0
 10
11.18169904920788
 20
-0.7371526082676306
 30
0.0
 10
11.09599127875433
 20
-0.7371526082676306
 30
0.0
 10
11.09599127875433
 20
-0.7371526082676306
 30
0.0
  0
HATCH
  5
8E
330
7E
100
AcDbEntity
  8
Deck Box - DF
 62
   250
420
  2301728
440
 33554687
100
AcDbHatch
 10
0.0
 20
0.0
 30
0.0
210
0.0
220
0.0
230
1.0
  2
SOLID
 70
     1
 71
     1
 91
        1
 92
        1
 93
        1
 72
     4
 94
        3
 73
     0
 74
     0
 95
       20
 96
       16
 40
0.0
 40
0.0
 40
0.0
 40
0.0
 40
1.0
 40
1.0
 40
1.0
 40
2.0
 40
2.0
 40
2.0
 40
3.0
 40
3.0
 40
3.0
 40
4.0
 40
4.0
 40
4.0
 40
5.0
 40
5.0
 40
5.0
 40
5.0
 10
11.09599127875433
 20
-0.7371526082676306
 10
11.07663296169703
 20
-0.8445193820849048
 10
10.94494028727212
 20
-0.7915951199321273
 10
10.99246632893879
 20
-0.7371526082676306
 10
10.99246632893879
 20
-0.7371526082676306
 10
10.92291761610242
 20
-0.7371526082676306
 10
10.92291761610242
 20
-0.7371526082676306
 10
10.89136159261066
 20
-0.8529803806200611
 10
11.10403859456379
 20
-0.9053078545783945
 10
11.17232930501301
 20
-0.7708702935432382
 10
11.17809967041014
 20
-0.759849209287596
 10
11.18070807562933
 20
-0.7485526191183251
 10
11.18169904920788
 20
-0.7371526082676306
 10
11.18169904920788
 20
-0.7371526082676306
 10
11.09599127875433
 20
-0.7371526082676306
 10
11.09599127875433
 20
-0.7371526082676306
 97
        0
 97
        1
330
8D
 75
     2
 76
     1
 98
        1
 10
0.0
 20
0.0
450
        0
451
        0
460
0.0
461
0.0
452
        0
462
0.0
453
        0
470

  0
SPLINE
  5
8F
330
7E
100
AcDbEntity
  8
Deck Box - DF
100
AcDbSpline
210
0.0
220
0.0
230
1.0
 70
     9
 71
     3
 72
    11
 73
     7
 74
     0
 42
0.0000000001
 43
0.0000000001
 40
0.0
 40
0.0
 40
0.0
 40
0.0
 40
1.0
 40
1.0
 40
1.0
 40
2.0
 40
2.0
 40
2.0
 40
2.0
 10
11.01162034776474
 20
-0.7371526082676306
 30
0.0
 10
10.93367845323349
 20
-0.7860977173171098
 30
0.0
 10
11.09148908827038
 20
-0.8081509060649397
 30
0.0
 10
11.09437978108723
 20
-0.7371526082676306
 30
0.0
 10
11.09437978108723
 20
-0.7371526082676306
 30
0.0
 10
11.01162034776474
 20
-0.7371526082676306
 30
0.0
 10
11.01162034776474
 20
-0.7371526082676306
 30
0.0
  0
HATCH
  5
90
330
7E
100
AcDbEntity
  8
Deck Box - DF
 62
   250
420
  2301728
440
 33554687
100
AcDbHatch
 10
0.0
 20
0.0
 30
0.0
210
0.0
220
0.0
230
1.0
  2
SOLID
 70
     1
 71
     1
 91
        1
 92
        1
 93
        1
 72
     4
 94
        3
 73
     0
 74
     0
 95
       11
 96
        7
 40
0.0
 40
0.0
 40
0.0
 40
0.0
 40
1.0
 40
1.0
 40
1.0
 40
2.0
 40
2.0
 40
2.0
 40
2.0
 10
11.01162034776474
 20
-0.7371526082676306
 10
10.93367845323349
 20
-0.7860977173171098
 10
11.09148908827038
 20
-0.8081509060649397
 10
11.09437978108723
 20
-0.7371526082676306
 10
11.09437978108723
 20
-0.7371526082676306
 10
11.01162034776474
 20
-0.7371526082676306
 10
11.01162034776474
 20
-0.7371526082676306
 97
        0
 97
        1
330
8F
 75
     2
 76
     1
 98
        1
 10
0.0
 20
0.0
450
        0
451
        0
460
0.0
461
0.0
452
        0
462
0.0
453
        0
470

  0
SPLINE
  5
91
330
7E
100
AcDbEntity
  8
Deck Box - DF
100
AcDbSpline
210
0.0
220
0.0
230
1.0
 70
     9
 71
     3
 72
    26
 73
    22
 74
     0
 42
0.0000000001
 43
0.0000000001
 40
0.0
 40
0.0
 40
0.0
 40
0.0
 40
1.0
 40
1.0
 40
1.0
 40
2.0
 40
2.0
 40
2.0
 40
3.0
 40
3.0
 40
3.0
 40
4.0
 40
4.0
 40
4.0
 40
5.0
 40
5.0
 40
5.0
 40
6.0
 40
6.0
 40
6.0
 40
7.0
 40
7.0
 40
7.0
 40
7.0
 10
11.02653562303228
 20
-1.069781437196259
 30
0.0
 10
11.07170337723447
 20
-1.045139868922875
 30
0.0
 10
11.03659199732207
 20
-0.9493885045549429
 30
0.0
 10
10.99820449682882
 20
-1.003114532950437
 30
0.0
 10
10.99466151081639
 20
-1.023439632075918
 30
0.0
 10
10.98367550328008
 20
-0.9897550919616833
 30
0.0
 10
10.9975147872329
 20
-0.9879582867042826
 30
0.0
 10
11.05917743421044
 20
-0.9406133730373589
 30
0.0
 10
11.07639181433988
 20
-1.067500916451573
 30
0.0
 10
11.0223724088593
 20
-1.086210700577301
 30
0.0
 10
10.95925405490965
 20
-1.099591082749599
 30
0.0
 10
10.91956484099314
 20
-1.002481126780556
 30
0.0
 10
10.86799118204036
 20
-0.9691174262813621
 30
0.0
 10
10.87609271741361
 20
-1.023278824468724
 30
0.0
 10
10.86333450787682
 20
-1.050219527872198
 30
0.0
 10
10.879726171091
 20
-1.096455592942132
 30
0.0
 10
10.93480141079271
 20
-1.222365622589677
 30
0.0
 10
11.09548587999648
 20
-1.197015415005428
 30
0.0
 10
11.11177516444245
 20
-1.053293486794586
 30
0.0
 10
11.08955046382299
 20
-0.7200525545586945
 30
0.0
 10
10.7849086847037
 20
-1.053306671984248
 30
0.0
 10
11.02653562303228
 20
-1.069781437196259
 30
0.0
  0
HATCH
  5
92
330
7E
100
AcDbEntity
  8
Deck Box - DF
 62
   250
420
  2301728
440
 33554687
100
AcDbHatch
 10
0.0
 20
0.0
 30
0.0
210
0.0
220
0.0
230
1.0
  2
SOLID
 70
     1
 71
     1
 91
        1
 92
        1
 93
        1
 72
     4
 94
        3
 73
     0
 74
     0
 95
       26
 96
       22
 40
0.0
 40
0.0
 40
0.0
 40
0.0
 40
1.0
 40
1.0
 40
1.0
 40
2.0
 40
2.0
 40
2.0
 40
3.0
 40
3.0
 40
3.0
 40
4.0
 40
4.0
 40
4.0
 40
5.0
 40
5.0
 40
5.0
 40
6.0
 40
6.0
 40
6.0
 40
7.0
 40
7.0
 40
7.0
 40
7.0
 10
11.02653562303228
 20
-1.069781437196259
 10
11.07170337723447
 20
-1.045139868922875
 10
11.03659199732207
 20
-0.9493885045549429
 10
10.99820449682882
 20
-1.003114532950437
 10
10.99466151081639
 20
-1.023439632075918
 10
10.98367550328008
 20
-0.9897550919616833
 10
10.9975147872329
 20
-0.9879582867042826
 10
11.05917743421044
 20
-0.9406133730373589
 10
11.07639181433988
 20
-1.067500916451573
 10
11.0223724088593
 20
-1.086210700577301
 10
10.95925405490965
 20
-1.099591082749599
 10
10.91956484099314
 20
-1.002481126780556
 10
10.86799118204036
 20
-0.9691174262813621
 10
10.87609271741361
 20
-1.023278824468724
 10
10.86333450787682
 20
-1.050219527872198
 10
10.879726171091
 20
-1.096455592942132
 10
10.93480141079271
 20
-1.222365622589677
 10
11.09548587999648
 20
-1.197015415005428
 10
11.11177516444245
 20
-1.053293486794586
 10
11.08955046382299
 20
-0.7200525545586945
 10
10.7849086847037
 20
-1.053306671984248
 10
11.02653562303228
 20
-1.069781437196259
 97
        0
 97
        1
330
91
 75
     2
 76
     1
 98
        1
 10
0.0
 20
0.0
450
        0
451
        0
460
0.0
461
0.0
452
        0
462
0.0
453
        0
470

  0
SPLINE
  5
93
330
7E
100
AcDbEntity
  8
Deck Box - DF
100
AcDbSpline
210
0.0
220
0.0
230
1.0
 70
     9
 71
     3
 72
    26
 73
    22
 74
     0
 42
0.0000000001
 43
0.0000000001
 40
0.0
 40
0.0
 40
0.0
 40
0.0
 40
1.0
 40
1.0
 40
1.0
 40
2.0
 40
2.0
 40
2.0
 40
3.0
 40
3.0
 40
3.0
 40
4.0
 40
4.0
 40
4.0
 40
5.0
 40
5.0
 40
5.0
 40
6.0
 40
6.0
 40
6.0
 40
7.0
 40
7.0
 40
7.0
 40
7.0
 10
11.47305565735991
 20
-0.9180798839105868
 30
0.0
 10
11.43324137685961
 20
-0.9293573575988855
 30
0.0
 10
11.42320655599471
 20
-0.9483900496047048
 30
0.0
 10
11.38673872830375
 20
-0.9721213227253807
 30
0.0
 10
11.4835808186407
 20
-0.9422511804194755
 30
0.0
 10
11.51469942659524
 20
-0.9431850020870594
 30
0.0
 10
11.54193416410711
 20
-0.9785856851219831
 30
0.0
 10
11.56106906783184
 20
-1.012239718326794
 30
0.0
 10
11.47857361772528
 20
-1.062946855356674
 30
0.0
 10
11.47167623816803
 20
-1.012514280511456
 30
0.0
 10
11.46505082880089
 20
-1.005277938186976
 30
0.0
 10
11.49050145320906
 20
-0.9947864052156015
 30
0.0
 10
11.4807737686486
 20
-1.00582499429125
 30
0.0
 10
11.47112095387981
 20
-1.048435907804446
 30
0.0
 10
11.54561526219736
 20
-1.020409882318858
 30
0.0
 10
11.5347903381522
 20
-0.9881097871187876
 30
0.0
 10
11.39160044360126
 20
-0.8838943065893165
 30
0.0
 10
11.36854395094027
 20
-1.178995397272034
 30
0.0
 10
11.57248444227945
 20
-1.035179104468561
 30
0.0
 10
11.64721186790287
 20
-0.96337566398467
 30
0.0
 10
11.55923475793598
 20
-0.898204115366007
 30
0.0
 10
11.47305565735991
 20
-0.9180798839105868
 30
0.0
  0
HATCH
  5
94
330
7E
100
AcDbEntity
  8
Deck Box - DF
 62
   250
420
  2301728
440
 33554687
100
AcDbHatch
 10
0.0
 20
0.0
 30
0.0
210
0.0
220
0.0
230
1.0
  2
SOLID
 70
     1
 71
     1
 91
        1
 92
        1
 93
        1
 72
     4
 94
        3
 73
     0
 74
     0
 95
       26
 96
       22
 40
0.0
 40
0.0
 40
0.0
 40
0.0
 40
1.0
 40
1.0
 40
1.0
 40
2.0
 40
2.0
 40
2.0
 40
3.0
 40
3.0
 40
3.0
 40
4.0
 40
4.0
 40
4.0
 40
5.0
 40
5.0
 40
5.0
 40
6.0
 40
6.0
 40
6.0
 40
7.0
 40
7.0
 40
7.0
 40
7.0
 10
11.47305565735991
 20
-0.9180798839105868
 10
11.43324137685961
 20
-0.9293573575988855
 10
11.42320655599471
 20
-0.9483900496047048
 10
11.38673872830375
 20
-0.9721213227253807
 10
11.4835808186407
 20
-0.9422511804194755
 10
11.51469942659524
 20
-0.9431850020870594
 10
11.54193416410711
 20
-0.9785856851219831
 10
11.56106906783184
 20
-1.012239718326794
 10
11.47857361772528
 20
-1.062946855356674
 10
11.47167623816803
 20
-1.012514280511456
 10
11.46505082880089
 20
-1.005277938186976
 10
11.49050145320906
 20
-0.9947864052156015
 10
11.4807737686486
 20
-1.00582499429125
 10
11.47112095387981
 20
-1.048435907804446
 10
11.54561526219736
 20
-1.020409882318858
 10
11.5347903381522
 20
-0.9881097871187876
 10
11.39160044360126
 20
-0.8838943065893165
 10
11.36854395094027
 20
-1.178995397272034
 10
11.57248444227945
 20
-1.035179104468561
 10
11.64721186790287
 20
-0.96337566398467
 10
11.55923475793598
 20
-0.898204115366007
 10
11.47305565735991
 20
-0.9180798839105868
 97
        0
 97
        1
330
93
 75
     2
 76
     1
 98
        1
 10
0.0
 20
0.0
450
        0
451
        0
460
0.0
461
0.0
452
        0
462
0.0
453
        0
470

  0
SPLINE
  5
95
330
7E
100
AcDbEntity
  8
Deck Box - DF
100
AcDbSpline
210
0.0
220
0.0
230
1.0
 70
     9
 71
     3
 72
    26
 73
    22
 74
     0
 42
0.0000000001
 43
0.0000000001
 40
0.0
 40
0.0
 40
0.0
 40
0.0
 40
1.0
 40
1.0
 40
1.0
 40
2.0
 40
2.0
 40
2.0
 40
3.0
 40
3.0
 40
3.0
 40
4.0
 40
4.0
 40
4.0
 40
5.0
 40
5.0
 40
5.0
 40
6.0
 40
6.0
 40
6.0
 40
7.0
 40
7.0
 40
7.0
 40
7.0
 10
11.80748456556895
 20
-0.8917421390566712
 30
0.0
 10
11.83843189038286
 20
-0.8929085966756373
 30
0.0
 10
11.85065429402508
 20
-0.880712221619774
 30
0.0
 10
11.88266114697217
 20
-0.8714416092068782
 30
0.0
 10
11.80672022229737
 20
-0.8704863320381894
 30
0.0
 10
11.78519472402488
 20
-0.8620541501237918
 30
0.0
 10
11.77580232446896
 20
-0.8279942450193654
 30
0.0
 10
11.77160206928586
 20
-0.7972891194392938
 30
0.0
 10
11.84319314501095
 20
-0.778613877073326
 30
0.0
 10
11.83424500369655
 20
-0.8192304933766711
 30
0.0
 10
11.83690564613845
 20
-0.8264550273048472
 30
0.0
 10
11.81622643017797
 20
-0.8282418171878841
 30
0.0
 10
11.82605025663502
 20
-0.8221365545319182
 30
0.0
 10
11.84444572673848
 20
-0.791655574028621
 30
0.0
 10
11.7846502129883
 20
-0.7948158047216668
 30
0.0
 10
11.78340396817364
 20
-0.8224170389221651
 30
0.0
 10
11.85515893493938
 20
-0.9383014576079883
 30
0.0
 10
11.95190414460012
 20
-0.7163530579583595
 30
0.0
 10
11.76987814804159
 20
-0.7767630855221973
 30
0.0
 10
11.69796157787348
 20
-0.8136385945969095
 30
0.0
 10
11.7417368776934
 20
-0.8857189679601635
 30
0.0
 10
11.80748456556895
 20
-0.8917421390566712
 30
0.0
  0
HATCH
  5
96
330
7E
100
AcDbEntity
  8
Deck Box - DF
 62
   250
420
  2301728
440
 33554687
100
AcDbHatch
 10
0.0
 20
0.0
 30
0.0
210
0.0
220
0.0
230
1.0
  2
SOLID
 70
     1
 71
     1
 91
        1
 92
        1
 93
        1
 72
     4
 94
        3
 73
     0
 74
     0
 95
       26
 96
       22
 40
0.0
 40
0.0
 40
0.0
 40
0.0
 40
1.0
 40
1.0
 40
1.0
 40
2.0
 40
2.0
 40
2.0
 40
3.0
 40
3.0
 40
3.0
 40
4.0
 40
4.0
 40
4.0
 40
5.0
 40
5.0
 40
5.0
 40
6.0
 40
6.0
 40
6.0
 40
7.0
 40
7.0
 40
7.0
 40
7.0
 10
11.80748456556895
 20
-0.8917421390566712
 10
11.83843189038286
 20
-0.8929085966756373
 10
11.85065429402508
 20
-0.880712221619774
 10
11.88266114697217
 20
-0.8714416092068782
 10
11.80672022229737
 20
-0.8704863320381894
 10
11.78519472402488
 20
-0.8620541501237918
 10
11.77580232446896
 20
-0.8279942450193654
 10
11.77160206928586
 20
-0.7972891194392938
 10
11.84319314501095
 20
-0.778613877073326
 10
11.83424500369655
 20
-0.8192304933766711
 10
11.83690564613845
 20
-0.8264550273048472
 10
11.81622643017797
 20
-0.8282418171878841
 10
11.82605025663502
 20
-0.8221365545319182
 10
11.84444572673848
 20
-0.791655574028621
 10
11.7846502129883
 20
-0.7948158047216668
 10
11.78340396817364
 20
-0.8224170389221651
 10
11.85515893493938
 20
-0.9383014576079883
 10
11.95190414460012
 20
-0.7163530579583595
 10
11.76987814804159
 20
-0.7767630855221973
 10
11.69796157787348
 20
-0.8136385945969095
 10
11.7417368776934
 20
-0.8857189679601635
 10
11.80748456556895
 20
-0.8917421390566712
 97
        0
 97
        1
330
95
 75
     2
 76
     1
 98
        1
 10
0.0
 20
0.0
450
        0
451
        0
460
0.0
461
0.0
452
        0
462
0.0
453
        0
470

  0
SPLINE
  5
97
330
7E
100
AcDbEntity
  8
Deck Box - DF
100
AcDbSpline
210
0.0
220
0.0
230
1.0
 70
     9
 71
     3
 72
    17
 73
    13
 74
     0
 42
0.0000000001
 43
0.0000000001
 40
0.0
 40
0.0
 40
0.0
 40
0.0
 40
1.0
 40
1.0
 40
1.0
 40
2.0
 40
2.0
 40
2.0
 40
3.0
 40
3.0
 40
3.0
 40
4.0
 40
4.0
 40
4.0
 40
4.0
 10
11.44971783578482
 20
-1.346629830328058
 30
0.0
 10
11.43673104650527
 20
-1.367384352983423
 30
0.0
 10
11.41625075531212
 20
-1.373504349250121
 30
0.0
 10
11.39165829753119
 20
-1.372276833946203
 30
0.0
 10
11.4610920885665
 20
-1.368982087730286
 30
0.0
 10
11.45352229887274
 20
-1.21821461464535
 30
0.0
 10
11.3802466098536
 20
-1.303375427852895
 30
0.0
 10
11.38276779336845
 20
-1.320573310231111
 30
0.0
 10
11.37094035146901
 20
-1.303246419820766
 30
0.0
 10
11.36661605380484
 20
-1.295132874584295
 30
0.0
 10
11.39272944602786
 20
-1.230034749374706
 30
0.0
 10
11.49038262577455
 20
-1.291463772395319
 30
0.0
 10
11.44971783578482
 20
-1.346629830328058
 30
0.0
  0
SPLINE
  5
98
330
7E
100
AcDbEntity
  8
Deck Box - DF
100
AcDbSpline
210
0.0
220
0.0
230
1.0
 70
     9
 71
     3
 72
    29
 73
    25
 74
     0
 42
0.0000000001
 43
0.0000000001
 40
0.0
 40
0.0
 40
0.0
 40
0.0
 40
1.0
 40
1.0
 40
1.0
 40
2.0
 40
2.0
 40
2.0
 40
3.0
 40
3.0
 40
3.0
 40
4.0
 40
4.0
 40
4.0
 40
5.0
 40
5.0
 40
5.0
 40
6.0
 40
6.0
 40
6.0
 40
7.0
 40
7.0
 40
7.0
 40
8.0
 40
8.0
 40
8.0
 40
8.0
 10
11.35772640043524
 20
-1.215259322429877
 30
0.0
 10
11.28083512439353
 20
-1.26180304192519
 30
0.0
 10
11.29716553050543
 20
-1.349417593074917
 30
0.0
 10
11.37601107826822
 20
-1.370659192148258
 30
0.0
 10
11.27125462703715
 20
-1.354816540440474
 30
0.0
 10
11.11129645153212
 20
-1.244443834873524
 30
0.0
 10
11.11139230755326
 20
-1.504266787225206
 30
0.0
 10
11.25960244851366
 20
-1.772398735860052
 30
0.0
 10
11.44696892332033
 20
-1.350846505687538
 30
0.0
 10
11.19271111082035
 20
-1.450474315815161
 30
0.0
 10
11.15561227825638
 20
-1.492270591433945
 30
0.0
 10
11.2276840950572
 20
-1.555834839579877
 30
0.0
 10
11.24687940509112
 20
-1.492906841468235
 30
0.0
 10
11.24286933367385
 20
-1.474253934631241
 30
0.0
 10
11.26682171145557
 20
-1.497256144323728
 30
0.0
 10
11.25328984740493
 20
-1.505253091118308
 30
0.0
 10
11.20779907542732
 20
-1.57376954138019
 30
0.0
 10
11.14238556532634
 20
-1.47577902156844
 30
0.0
 10
11.19080334912127
 20
-1.434786525452573
 30
0.0
 10
11.25838070964053
 20
-1.388644049375898
 30
0.0
 10
11.32794211963897
 20
-1.469156695429041
 30
0.0
 10
11.40329175860678
 20
-1.454222529142056
 30
0.0
 10
11.58086957534841
 20
-1.421173721995892
 30
0.0
 10
11.53155420484654
 20
-1.157499143065087
 30
0.0
 10
11.35772640043524
 20
-1.215259322429877
 30
0.0
  0
HATCH
  5
99
330
7E
100
AcDbEntity
  8
Deck Box - DF
 62
   250
420
  2301728
440
 33554687
100
AcDbHatch
 10
0.0
 20
0.0
 30
0.0
210
0.0
220
0.0
230
1.0
  2
SOLID
 70
     1
 71
     1
 91
        2
 92
        1
 93
        1
 72
     4
 94
        3
 73
     0
 74
     0
 95
       17
 96
       13
 40
0.0
 40
0.0
 40
0.0
 40
0.0
 40
1.0
 40
1.0
 40
1.0
 40
2.0
 40
2.0
 40
2.0
 40
3.0
 40
3.0
 40
3.0
 40
4.0
 40
4.0
 40
4.0
 40
4.0
 10
11.44971783578482
 20
-1.346629830328058
 10
11.43673104650527
 20
-1.367384352983423
 10
11.41625075531212
 20
-1.373504349250121
 10
11.39165829753119
 20
-1.372276833946203
 10
11.4610920885665
 20
-1.368982087730286
 10
11.45352229887274
 20
-1.21821461464535
 10
11.3802466098536
 20
-1.303375427852895
 10
11.38276779336845
 20
-1.320573310231111
 10
11.37094035146901
 20
-1.303246419820766
 10
11.36661605380484
 20
-1.295132874584295
 10
11.39272944602786
 20
-1.230034749374706
 10
11.49038262577455
 20
-1.291463772395319
 10
11.44971783578482
 20
-1.346629830328058
 97
        0
 97
        1
330
97
 92
        1
 93
        1
 72
     4
 94
        3
 73
     0
 74
     0
 95
       29
 96
       25
 40
0.0
 40
0.0
 40
0.0
 40
0.0
 40
1.0
 40
1.0
 40
1.0
 40
2.0
 40
2.0
 40
2.0
 40
3.0
 40
3.0
 40
3.0
 40
4.0
 40
4.0
 40
4.0
 40
5.0
 40
5.0
 40
5.0
 40
6.0
 40
6.0
 40
6.0
 40
7.0
 40
7.0
 40
7.0
 40
8.0
 40
8.0
 40
8.0
 40
8.0
 10
11.35772640043524
 20
-1.215259322429877
 10
11.28083512439353
 20
-1.26180304192519
 10
11.29716553050543
 20
-1.349417593074917
 10
11.37601107826822
 20
-1.370659192148258
 10
11.27125462703715
 20
-1.354816540440474
 10
11.11129645153212
 20
-1.244443834873524
 10
11.11139230755326
 20
-1.504266787225206
 10
11.25960244851366
 20
-1.772398735860052
 10
11.44696892332033
 20
-1.350846505687538
 10
11.19271111082035
 20
-1.450474315815161
 10
11.15561227825638
 20
-1.492270591433945
 10
11.2276840950572
 20
-1.555834839579877
 10
11.24687940509112
 20
-1.492906841468235
 10
11.24286933367385
 20
-1.474253934631241
 10
11.26682171145557
 20
-1.497256144323728
 10
11.25328984740493
 20
-1.505253091118308
 10
11.20779907542732
 20
-1.57376954138019
 10
11.14238556532634
 20
-1.47577902156844
 10
11.19080334912127
 20
-1.434786525452573
 10
11.25838070964053
 20
-1.388644049375898
 10
11.32794211963897
 20
-1.469156695429041
 10
11.40329175860678
 20
-1.454222529142056
 10
11.58086957534841
 20
-1.421173721995892
 10
11.53155420484654
 20
-1.157499143065087
 10
11.35772640043524
 20
-1.215259322429877
 97
        0
 97
        1
330
98
 75
     2
 76
     1
 98
        1
 10
0.0
 20
0.0
450
        0
451
        0
460
0.0
461
0.0
452
        0
462
0.0
453
        0
470

  0
SPLINE
  5
9A
330
7E
100
AcDbEntity
  8
Deck Box - DF
100
AcDbSpline
210
0.0
220
0.0
230
1.0
 70
     9
 71
     3
 72
    14
 73
    10
 74
     0
 42
0.0000000001
 43
0.0000000001
 40
0.0
 40
0.0
 40
0.0
 40
0.0
 40
1.0
 40
1.0
 40
1.0
 40
2.0
 40
2.0
 40
2.0
 40
3.0
 40
3.0
 40
3.0
 40
3.0
 10
10.93007659912109
 20
-1.46456315782335
 30
0.0
 10
10.92388916015625
 20
-1.460681491427951
 30
0.0
 10
10.91128794352213
 20
-1.450372483995225
 30
0.0
 10
10.92595926920573
 20
-1.453341166178385
 30
0.0
 10
11.01434241400824
 20
-1.402965121799045
 30
0.0
 10
10.89875369601779
 20
-1.387372334798177
 30
0.0
 10
10.87096744113498
 20
-1.433131747775607
 30
0.0
 10
10.89539676242404
 20
-1.345484415690104
 30
0.0
 10
11.03076171875
 20
-1.419972737630208
 30
0.0
 10
10.93007659912109
 20
-1.46456315782335
 30
0.0
  0
SPLINE
  5
9B
330
7E
100
AcDbEntity
  8
Deck Box - DF
100
AcDbSpline
210
0.0
220
0.0
230
1.0
 70
     9
 71
     3
 72
    14
 73
    10
 74
     0
 42
0.0000000001
 43
0.0000000001
 40
0.0
 40
0.0
 40
0.0
 40
0.0
 40
1.0
 40
1.0
 40
1.0
 40
2.0
 40
2.0
 40
2.0
 40
3.0
 40
3.0
 40
3.0
 40
3.0
 10
10.84072113037109
 20
-1.381277296278211
 30
0.0
 10
10.84072113037109
 20
-1.381277296278211
 30
0.0
 10
10.84072113037109
 20
-1.615037706163194
 30
0.0
 10
10.84072113037109
 20
-1.615037706163194
 30
0.0
 10
10.88010067409939
 20
-1.55788336859809
 30
0.0
 10
10.8521016438802
 20
-1.466554429796006
 30
0.0
 10
10.87065972222222
 20
-1.478256225585937
 30
0.0
 10
11.09163072374132
 20
-1.61369154188368
 30
0.0
 10
11.03431532118055
 20
-1.210890028211805
 30
0.0
 10
10.84072113037109
 20
-1.381277296278211
 30
0.0
  0
HATCH
  5
9C
330
7E
100
AcDbEntity
  8
Deck Box - DF
 62
   250
420
  2301728
440
 33554687
100
AcDbHatch
 10
0.0
 20
0.0
 30
0.0
210
0.0
220
0.0
230
1.0
  2
SOLID
 70
     1
 71
     1
 91
        2
 92
        1
 93
        1
 72
     4
 94
        3
 73
     0
 74
     0
 95
       14
 96
       10
 40
0.0
 40
0.0
 40
0.0
 40
0.0
 40
1.0
 40
1.0
 40
1.0
 40
2.0
 40
2.0
 40
2.0
 40
3.0
 40
3.0
 40
3.0
 40
3.0
 10
10.93007659912109
 20
-1.46456315782335
 10
10.92388916015625
 20
-1.460681491427951
 10
10.91128794352213
 20
-1.450372483995225
 10
10.92595926920573
 20
-1.453341166178385
 10
11.01434241400824
 20
-1.402965121799045
 10
10.89875369601779
 20
-1.387372334798177
 10
10.87096744113498
 20
-1.433131747775607
 10
10.89539676242404
 20
-1.345484415690104
 10
11.03076171875
 20
-1.419972737630208
 10
10.93007659912109
 20
-1.46456315782335
 97
        0
 97
        1
330
9A
 92
        1
 93
        1
 72
     4
 94
        3
 73
     0
 74
     0
 95
       14
 96
       10
 40
0.0
 40
0.0
 40
0.0
 40
0.0
 40
1.0
 40
1.0
 40
1.0
 40
2.0
 40
2.0
 40
2.0
 40
3.0
 40
3.0
 40
3.0
 40
3.0
 10
10.84072113037109
 20
-1.381277296278211
 10
10.84072113037109
 20
-1.381277296278211
 10
10.84072113037109
 20
-1.615037706163194
 10
10.84072113037109
 20
-1.615037706163194
 10
10.88010067409939
 20
-1.55788336859809
 10
10.8521016438802
 20
-1.466554429796006
 10
10.87065972222222
 20
-1.478256225585937
 10
11.09163072374132
 20
-1.61369154188368
 10
11.03431532118055
 20
-1.210890028211805
 10
10.84072113037109
 20
-1.381277296278211
 97
        0
 97
        1
330
9B
 75
     2
 76
     1
 98
        1
 10
0.0
 20
0.0
450
        0
451
        0
460
0.0
461
0.0
452
        0
462
0.0
453
        0
470

  0
SPLINE
  5
9D
330
7E
100
AcDbEntity
  8
Deck Box - DF
100
AcDbSpline
210
0.0
220
0.0
230
1.0
 70
     9
 71
     3
 72
    14
 73
    10
 74
     0
 42
0.0000000001
 43
0.0000000001
 40
0.0
 40
0.0
 40
0.0
 40
0.0
 40
1.0
 40
1.0
 40
1.0
 40
2.0
 40
2.0
 40
2.0
 40
3.0
 40
3.0
 40
3.0
 40
3.0
 10
12.18593904788776
 20
-0.9536332027520554
 30
0.0
 10
12.2291040644547
 20
-0.8632617491170119
 30
0.0
 10
12.25595274082835
 20
-0.9733108139471369
 30
0.0
 10
12.21178925457128
 20
-1.004712211936508
 30
0.0
 10
12.29909567977208
 20
-0.9723671756926881
 30
0.0
 10
12.21016620793951
 20
-0.8491070406844427
 30
0.0
 10
12.1740764845701
 20
-0.9507789864269271
 30
0.0
 10
12.17862890379034
 20
-0.9563658688395484
 30
0.0
 10
12.19035785013599
 20
-0.9675032566493655
 30
0.0
 10
12.18593904788776
 20
-0.9536332027520554
 30
0.0
  0
SPLINE
  5
9E
330
7E
100
AcDbEntity
  8
Deck Box - DF
100
AcDbSpline
210
0.0
220
0.0
230
1.0
 70
     9
 71
     3
 72
    35
 73
    31
 74
     0
 42
0.0000000001
 43
0.0000000001
 40
0.0
 40
0.0
 40
0.0
 40
0.0
 40
1.0
 40
1.0
 40
1.0
 40
2.0
 40
2.0
 40
2.0
 40
3.0
 40
3.0
 40
3.0
 40
4.0
 40
4.0
 40
4.0
 40
5.0
 40
5.0
 40
5.0
 40
6.0
 40
6.0
 40
6.0
 40
7.0
 40
7.0
 40
7.0
 40
8.0
 40
8.0
 40
8.0
 40
9.0
 40
9.0
 40
9.0
 40
10.0
 40
10.0
 40
10.0
 40
10.0
 10
12.00992382067549
 20
-1.213697618743935
 30
0.0
 10
12.00587262435707
 20
-1.209249105982684
 30
0.0
 10
12.00287276913786
 20
-1.203584373240283
 30
0.0
 10
12.00131332742462
 20
-1.197677804528135
 30
0.0
 10
11.94321262495436
 20
-0.9776145675080618
 30
0.0
 10
12.18699140064162
 20
-1.035540770481134
 30
0.0
 10
12.16568324214101
 20
-1.009517340381484
 30
0.0
 10
11.99582640341734
 20
-0.796470872410762
 30
0.0
 10
12.48141551426475
 20
-0.8276905222528638
 30
0.0
 10
12.22894841591872
 20
-1.07164814244873
 30
0.0
 10
12.22666084992344
 20
-1.073858605356172
 30
0.0
 10
12.22404482729252
 20
-1.075939339436584
 30
0.0
 10
12.22129101658485
 20
-1.077467817681824
 30
0.0
 10
12.16534822695111
 20
-1.108518367633008
 30
0.0
 10
12.10145182142443
 20
-1.064879207006836
 30
0.0
 10
12.05617389039192
 20
-1.123356413371703
 30
0.0
 10
12.02406064067746
 20
-1.173038920521094
 30
0.0
 10
12.08923499985354
 20
-1.236476772407614
 30
0.0
 10
12.11514463466649
 20
-1.164258203053501
 30
0.0
 10
12.1246109886743
 20
-1.15331756919185
 30
0.0
 10
12.102576057323
 20
-1.141052297360804
 30
0.0
 10
12.10836778859771
 20
-1.15570598496975
 30
0.0
 10
12.10328437663616
 20
-1.205231322913151
 30
0.0
 10
12.05695065460435
 20
-1.191195403219555
 30
0.0
 10
12.0550326078191
 20
-1.157993966406997
 30
0.0
 10
12.05435152093307
 20
-1.146204335735407
 30
0.0
 10
12.06060046789465
 20
-1.135231296209073
 30
0.0
 10
12.06948969711276
 20
-1.12802244017655
 30
0.0
 10
12.2395326175586
 20
-0.9901235399724884
 30
0.0
 10
12.15759451438533
 20
-1.375850946750662
 30
0.0
 10
12.00992382067549
 20
-1.213697618743935
 30
0.0
  0
HATCH
  5
9F
330
7E
100
AcDbEntity
  8
Deck Box - DF
 62
   250
420
  2301728
440
 33554687
100
AcDbHatch
 10
0.0
 20
0.0
 30
0.0
210
0.0
220
0.0
230
1.0
  2
SOLID
 70
     1
 71
     1
 91
        2
 92
        1
 93
        1
 72
     4
 94
        3
 73
     0
 74
     0
 95
       14
 96
       10
 40
0.0
 40
0.0
 40
0.0
 40
0.0
 40
1.0
 40
1.0
 40
1.0
 40
2.0
 40
2.0
 40
2.0
 40
3.0
 40
3.0
 40
3.0
 40
3.0
 10
12.18593904788776
 20
-0.9536332027520554
 10
12.2291040644547
 20
-0.8632617491170119
 10
12.25595274082835
 20
-0.9733108139471369
 10
12.21178925457128
 20
-1.004712211936508
 10
12.29909567977208
 20
-0.9723671756926881
 10
12.21016620793951
 20
-0.8491070406844427
 10
12.1740764845701
 20
-0.9507789864269271
 10
12.17862890379034
 20
-0.9563658688395484
 10
12.19035785013599
 20
-0.9675032566493655
 10
12.18593904788776
 20
-0.9536332027520554
 97
        0
 97
        1
330
9D
 92
        1
 93
        1
 72
     4
 94
        3
 73
     0
 74
     0
 95
       35
 96
       31
 40
0.0
 40
0.0
 40
0.0
 40
0.0
 40
1.0
 40
1.0
 40
1.0
 40
2.0
 40
2.0
 40
2.0
 40
3.0
 40
3.0
 40
3.0
 40
4.0
 40
4.0
 40
4.0
 40
5.0
 40
5.0
 40
5.0
 40
6.0
 40
6.0
 40
6.0
 40
7.0
 40
7.0
 40
7.0
 40
8.0
 40
8.0
 40
8.0
 40
9.0
 40
9.0
 40
9.0
 40
10.0
 40
10.0
 40
10.0
 40
10.0
 10
12.00992382067549
 20
-1.213697618743935
 10
12.00587262435707
 20
-1.209249105982684
 10
12.00287276913786
 20
-1.203584373240283
 10
12.00131332742462
 20
-1.197677804528135
 10
11.94321262495436
 20
-0.9776145675080618
 10
12.18699140064162
 20
-1.035540770481134
 10
12.16568324214101
 20
-1.009517340381484
 10
11.99582640341734
 20
-0.796470872410762
 10
12.48141551426475
 20
-0.8276905222528638
 10
12.22894841591872
 20
-1.07164814244873
 10
12.22666084992344
 20
-1.073858605356172
 10
12.22404482729252
 20
-1.075939339436584
 10
12.22129101658485
 20
-1.077467817681824
 10
12.16534822695111
 20
-1.108518367633008
 10
12.10145182142443
 20
-1.064879207006836
 10
12.05617389039192
 20
-1.123356413371703
 10
12.02406064067746
 20
-1.173038920521094
 10
12.08923499985354
 20
-1.236476772407614
 10
12.11514463466649
 20
-1.164258203053501
 10
12.1246109886743
 20
-1.15331756919185
 10
12.102576057323
 20
-1.141052297360804
 10
12.10836778859771
 20
-1.15570598496975
 10
12.10328437663616
 20
-1.205231322913151
 10
12.05695065460435
 20
-1.191195403219555
 10
12.0550326078191
 20
-1.157993966406997
 10
12.05435152093307
 20
-1.146204335735407
 10
12.06060046789465
 20
-1.135231296209073
 10
12.06948969711276
 20
-1.12802244017655
 10
12.2395326175586
 20
-0.9901235399724884
 10
12.15759451438533
 20
-1.375850946750662
 10
12.00992382067549
 20
-1.213697618743935
 97
        0
 97
        1
330
9E
 75
     2
 76
     1
 98
        1
 10
0.0
 20
0.0
450
        0
451
        0
460
0.0
461
0.0
452
        0
462
0.0
453
        0
470

  0
SPLINE
  5
A0
330
7E
100
AcDbEntity
  8
Deck Box - DF
100
AcDbSpline
210
0.0
220
0.0
230
1.0
 70
     9
 71
     3
 72
    14
 73
    10
 74
     0
 42
0.0000000001
 43
0.0000000001
 40
0.0
 40
0.0
 40
0.0
 40
0.0
 40
1.0
 40
1.0
 40
1.0
 40
2.0
 40
2.0
 40
2.0
 40
3.0
 40
3.0
 40
3.0
 40
3.0
 10
11.139797736353
 20
-1.26040644595389
 30
0.0
 10
11.11757814049204
 20
-1.365544631226334
 30
0.0
 10
10.95194971265904
 20
-1.264693700858022
 30
0.0
 10
11.06969493835347
 20
-1.224182851964403
 30
0.0
 10
11.07668505435726
 20
-1.229297929952609
 30
0.0
 10
11.09091967349786
 20
-1.242424691123826
 30
0.0
 10
11.07433488025294
 20
-1.237326159255998
 30
0.0
 10
10.9702905428358
 20
-1.285431160326766
 30
0.0
 10
11.11598602302835
 20
-1.317464190802954
 30
0.0
 10
11.139797736353
 20
-1.26040644595389
 30
0.0
  0
SPLINE
  5
A1
330
7E
100
AcDbEntity
  8
Deck Box - DF
100
AcDbSpline
210
0.0
220
0.0
230
1.0
 70
     9
 71
     3
 72
    26
 73
    22
 74
     0
 42
0.0000000001
 43
0.0000000001
 40
0.0
 40
0.0
 40
0.0
 40
0.0
 40
1.0
 40
1.0
 40
1.0
 40
2.0
 40
2.0
 40
2.0
 40
3.0
 40
3.0
 40
3.0
 40
4.0
 40
4.0
 40
4.0
 40
5.0
 40
5.0
 40
5.0
 40
6.0
 40
6.0
 40
6.0
 40
7.0
 40
7.0
 40
7.0
 40
7.0
 10
11.34751177863124
 20
-1.04025747075218
 30
0.0
 10
11.08774763327139
 20
-0.994996851183853
 30
0.0
 10
11.15533236733073
 20
-1.150589586617646
 30
0.0
 10
11.14302451093474
 20
-1.244102054074915
 30
0.0
 10
11.14125401052044
 20
-1.17240719750589
 30
0.0
 10
11.05857223672784
 20
-1.14550579113826
 30
0.0
 10
10.9919196882943
 20
-1.202945389421163
 30
0.0
 10
10.8876547118699
 20
-1.342648678650511
 30
0.0
 10
11.13908618973447
 20
-1.429987374949935
 30
0.0
 10
11.21955448351208
 20
-1.282846604620519
 30
0.0
 10
11.20684930674441
 20
-0.9551160475294357
 30
0.0
 10
11.41923023270318
 20
-1.126647608995565
 30
0.0
 10
11.31074135219897
 20
-1.162491676349393
 30
0.0
 10
11.29909059166392
 20
-1.172771212153722
 30
0.0
 10
11.28239122494991
 20
-1.148247017921612
 30
0.0
 10
11.30003922595602
 20
-1.154873997657331
 30
0.0
 10
11.36829410137034
 20
-1.14907923606889
 30
0.0
 10
11.32371509598447
 20
-1.076248384924168
 30
0.0
 10
11.27189357264559
 20
-1.101045073075915
 30
0.0
 10
11.10419232925465
 20
-1.302813376827063
 30
0.0
 10
11.57709006885771
 20
-1.213426581067324
 30
0.0
 10
11.34751177863124
 20
-1.04025747075218
 30
0.0
  0
HATCH
  5
A2
330
7E
100
AcDbEntity
  8
Deck Box - DF
 62
   250
420
  2301728
440
 33554687
100
AcDbHatch
 10
0.0
 20
0.0
 30
0.0
210
0.0
220
0.0
230
1.0
  2
SOLID
 70
     1
 71
     1
 91
        2
 92
        1
 93
        1
 72
     4
 94
        3
 73
     0
 74
     0
 95
       14
 96
       10
 40
0.0
 40
0.0
 40
0.0
 40
0.0
 40
1.0
 40
1.0
 40
1.0
 40
2.0
 40
2.0
 40
2.0
 40
3.0
 40
3.0
 40
3.0
 40
3.0
 10
11.139797736353
 20
-1.26040644595389
 10
11.11757814049204
 20
-1.365544631226334
 10
10.95194971265904
 20
-1.264693700858022
 10
11.06969493835347
 20
-1.224182851964403
 10
11.07668505435726
 20
-1.229297929952609
 10
11.09091967349786
 20
-1.242424691123826
 10
11.07433488025294
 20
-1.237326159255998
 10
10.9702905428358
 20
-1.285431160326766
 10
11.11598602302835
 20
-1.317464190802954
 10
11.139797736353
 20
-1.26040644595389
 97
        0
 97
        1
330
A0
 92
        1
 93
        1
 72
     4
 94
        3
 73
     0
 74
     0
 95
       26
 96
       22
 40
0.0
 40
0.0
 40
0.0
 40
0.0
 40
1.0
 40
1.0
 40
1.0
 40
2.0
 40
2.0
 40
2.0
 40
3.0
 40
3.0
 40
3.0
 40
4.0
 40
4.0
 40
4.0
 40
5.0
 40
5.0
 40
5.0
 40
6.0
 40
6.0
 40
6.0
 40
7.0
 40
7.0
 40
7.0
 40
7.0
 10
11.34751177863124
 20
-1.04025747075218
 10
11.08774763327139
 20
-0.994996851183853
 10
11.15533236733073
 20
-1.150589586617646
 10
11.14302451093474
 20
-1.244102054074915
 10
11.14125401052044
 20
-1.17240719750589
 10
11.05857223672784
 20
-1.14550579113826
 10
10.9919196882943
 20
-1.202945389421163
 10
10.8876547118699
 20
-1.342648678650511
 10
11.13908618973447
 20
-1.429987374949935
 10
11.21955448351208
 20
-1.282846604620519
 10
11.20684930674441
 20
-0.9551160475294357
 10
11.41923023270318
 20
-1.126647608995565
 10
11.31074135219897
 20
-1.162491676349393
 10
11.29909059166392
 20
-1.172771212153722
 10
11.28239122494991
 20
-1.148247017921612
 10
11.30003922595602
 20
-1.154873997657331
 10
11.36829410137034
 20
-1.14907923606889
 10
11.32371509598447
 20
-1.076248384924168
 10
11.27189357264559
 20
-1.101045073075915
 10
11.10419232925465
 20
-1.302813376827063
 10
11.57709006885771
 20
-1.213426581067324
 10
11.34751177863124
 20
-1.04025747075218
 97
        0
 97
        1
330
A1
 75
     2
 76
     1
 98
        1
 10
0.0
 20
0.0
450
        0
451
        0
460
0.0
461
0.0
452
        0
462
0.0
453
        0
470

  0
SPLINE
  5
A3
330
7E
100
AcDbEntity
  8
Deck Box - DF
100
AcDbSpline
210
0.0
220
0.0
230
1.0
 70
     9
 71
     3
 72
    14
 73
    10
 74
     0
 42
0.0000000001
 43
0.0000000001
 40
0.0
 40
0.0
 40
0.0
 40
0.0
 40
1.0
 40
1.0
 40
1.0
 40
2.0
 40
2.0
 40
2.0
 40
3.0
 40
3.0
 40
3.0
 40
3.0
 10
11.95704813639322
 20
-0.9039667765619014
 30
0.0
 10
11.96367723253037
 20
-0.9079722086908077
 30
0.0
 10
11.97750762939452
 20
-0.9186660766921097
 30
0.0
 10
11.9626345486111
 20
-0.9157482571391584
 30
0.0
 10
11.87906809488931
 20
-0.9723871867181514
 30
0.0
 10
12.00817779541014
 20
-0.9860878838752695
 30
0.0
 10
12.02170216878254
 20
-0.9300330268331688
 30
0.0
 10
12.0153952026367
 20
-1.030903795062335
 30
0.0
 10
11.86078382703992
 20
-0.9550303141595577
 30
0.0
 10
11.95704813639322
 20
-0.9039667765619014
 30
0.0
  0
SPLINE
  5
A4
330
7E
100
AcDbEntity
  8
Deck Box - DF
100
AcDbSpline
210
0.0
220
0.0
230
1.0
 70
     9
 71
     3
 72
    29
 73
    25
 74
     0
 42
0.0000000001
 43
0.0000000001
 40
0.0
 40
0.0
 40
0.0
 40
0.0
 40
1.0
 40
1.0
 40
1.0
 40
2.0
 40
2.0
 40
2.0
 40
3.0
 40
3.0
 40
3.0
 40
4.0
 40
4.0
 40
4.0
 40
5.0
 40
5.0
 40
5.0
 40
6.0
 40
6.0
 40
6.0
 40
7.0
 40
7.0
 40
7.0
 40
8.0
 40
8.0
 40
8.0
 40
8.0
 10
12.02679690890841
 20
-0.7371526082676306
 30
0.0
 10
11.99103030734591
 20
-0.781897311772405
 30
0.0
 10
12.0219861518012
 20
-0.8580005222216236
 30
0.0
 10
12.02249138726127
 20
-0.9144156562277
 30
0.0
 10
12.01224934895832
 20
-0.8475211249777
 30
0.0
 10
11.93791870117186
 20
-0.8315833198019188
 30
0.0
 10
11.88762318929035
 20
-0.8927812364685854
 30
0.0
 10
11.81501000298393
 20
-1.035162692631779
 30
0.0
 10
12.04171830919052
 20
-1.088805813291502
 30
0.0
 10
12.09297597249348
 20
-0.9421230740336897
 30
0.0
 10
12.04219133165146
 20
-0.6368531969178043
 30
0.0
 10
12.24558081732854
 20
-0.7736465454421098
 30
0.0
 10
12.1567034573025
 20
-0.8193084717116409
 30
0.0
 10
12.14794067382811
 20
-0.8302295261278736
 30
0.0
 10
12.13060584174261
 20
-0.8091452704855125
 30
0.0
 10
12.14657925075953
 20
-0.8133753458978389
 30
0.0
 10
12.20453382703992
 20
-0.8003282335388979
 30
0.0
 10
12.15736297607421
 20
-0.7371534559781341
 30
0.0
 10
12.11584296332464
 20
-0.766146850617891
 30
0.0
 10
12.00695793999565
 20
-0.9551294962884639
 30
0.0
 10
12.32475867377386
 20
-0.8588592529616409
 30
0.0
 10
12.21770300971136
 20
-0.7371526082676306
 30
0.0
 10
12.21770300971136
 20
-0.7371526082676306
 30
0.0
 10
12.02679690890841
 20
-0.7371526082676306
 30
0.0
 10
12.02679690890841
 20
-0.7371526082676306
 30
0.0
  0
HATCH
  5
A5
330
7E
100
AcDbEntity
  8
Deck Box - DF
 62
   250
420
  2301728
440
 33554687
100
AcDbHatch
 10
0.0
 20
0.0
 30
0.0
210
0.0
220
0.0
230
1.0
  2
SOLID
 70
     1
 71
     1
 91
        2
 92
        1
 93
        1
 72
     4
 94
        3
 73
     0
 74
     0
 95
       14
 96
       10
 40
0.0
 40
0.0
 40
0.0
 40
0.0
 40
1.0
 40
1.0
 40
1.0
 40
2.0
 40
2.0
 40
2.0
 40
3.0
 40
3.0
 40
3.0
 40
3.0
 10
11.95704813639322
 20
-0.9039667765619014
 10
11.96367723253037
 20
-0.9079722086908077
 10
11.97750762939452
 20
-0.9186660766921097
 10
11.9626345486111
 20
-0.9157482571391584
 10
11.87906809488931
 20
-0.9723871867181514
 10
12.00817779541014
 20
-0.9860878838752695
 10
12.02170216878254
 20
-0.9300330268331688
 10
12.0153952026367
 20
-1.030903795062335
 10
11.86078382703992
 20
-0.9550303141595577
 10
11.95704813639322
 20
-0.9039667765619014
 97
        0
 97
        1
330
A3
 92
        1
 93
        1
 72
     4
 94
        3
 73
     0
 74
     0
 95
       29
 96
       25
 40
0.0
 40
0.0
 40
0.0
 40
0.0
 40
1.0
 40
1.0
 40
1.0
 40
2.0
 40
2.0
 40
2.0
 40
3.0
 40
3.0
 40
3.0
 40
4.0
 40
4.0
 40
4.0
 40
5.0
 40
5.0
 40
5.0
 40
6.0
 40
6.0
 40
6.0
 40
7.0
 40
7.0
 40
7.0
 40
8.0
 40
8.0
 40
8.0
 40
8.0
 10
12.02679690890841
 20
-0.7371526082676306
 10
11.99103030734591
 20
-0.781897311772405
 10
12.0219861518012
 20
-0.8580005222216236
 10
12.02249138726127
 20
-0.9144156562277
 10
12.01224934895832
 20
-0.8475211249777
 10
11.93791870117186
 20
-0.8315833198019188
 10
11.88762318929035
 20
-0.8927812364685854
 10
11.81501000298393
 20
-1.035162692631779
 10
12.04171830919052
 20
-1.088805813291502
 10
12.09297597249348
 20
-0.9421230740336897
 10
12.04219133165146
 20
-0.6368531969178043
 10
12.24558081732854
 20
-0.7736465454421098
 10
12.1567034573025
 20
-0.8193084717116409
 10
12.14794067382811
 20
-0.8302295261278736
 10
12.13060584174261
 20
-0.8091452704855125
 10
12.14657925075953
 20
-0.8133753458978389
 10
12.20453382703992
 20
-0.8003282335388979
 10
12.15736297607421
 20
-0.7371534559781341
 10
12.11584296332464
 20
-0.766146850617891
 10
12.00695793999565
 20
-0.9551294962884639
 10
12.32475867377386
 20
-0.8588592529616409
 10
12.21770300971136
 20
-0.7371526082676306
 10
12.21770300971136
 20
-0.7371526082676306
 10
12.02679690890841
 20
-0.7371526082676306
 10
12.02679690890841
 20
-0.7371526082676306
 97
        0
 97
        1
330
A4
 75
     2
 76
     1
 98
        1
 10
0.0
 20
0.0
450
        0
451
        0
460
0.0
461
0.0
452
        0
462
0.0
453
        0
470

  0
SPLINE
  5
A6
330
7E
100
AcDbEntity
  8
Deck Box - DF
100
AcDbSpline
210
0.0
220
0.0
230
1.0
 70
     9
 71
     3
 72
    26
 73
    22
 74
     0
 42
0.0000000001
 43
0.0000000001
 40
0.0
 40
0.0
 40
0.0
 40
0.0
 40
1.0
 40
1.0
 40
1.0
 40
2.0
 40
2.0
 40
2.0
 40
3.0
 40
3.0
 40
3.0
 40
4.0
 40
4.0
 40
4.0
 40
5.0
 40
5.0
 40
5.0
 40
6.0
 40
6.0
 40
6.0
 40
7.0
 40
7.0
 40
7.0
 40
7.0
 10
11.42637882447588
 20
-1.66819410542415
 30
0.0
 10
11.42637882447588
 20
-1.66819410542415
 30
0.0
 10
11.55039717571286
 20
-1.66819410542415
 30
0.0
 10
11.55039717571286
 20
-1.66819410542415
 30
0.0
 10
11.55249356378795
 20
-1.66279673264853
 30
0.0
 10
11.5542152638205
 20
-1.65716454406346
 30
0.0
 10
11.55540290623586
 20
-1.651224636565631
 30
0.0
 10
11.49114899320418
 20
-1.341876424217553
 30
0.0
 10
11.77530324938907
 20
-1.498443467945839
 30
0.0
 10
11.62786180923065
 20
-1.558959825367714
 30
0.0
 10
11.62080885784177
 20
-1.552359551387692
 30
0.0
 10
11.6066080114876
 20
-1.535949571461464
 30
0.0
 10
11.62355628758352
 20
-1.543923136457136
 30
0.0
 10
11.7546063974468
 20
-1.499003804588634
 30
0.0
 10
11.51475518759437
 20
-1.427432454490978
 30
0.0
 10
11.55802741795461
 20
-1.558392707040891
 30
0.0
 10
11.8218417083192
 20
-1.80492557108169
 30
0.0
 10
11.75681722643985
 20
-1.200590210024845
 30
0.0
 10
11.47519084297631
 20
-1.47314270025922
 30
0.0
 10
11.47494755006182
 20
-1.590849846797835
 30
0.0
 10
11.45262139853187
 20
-1.646880120235335
 30
0.0
 10
11.42637882447588
 20
-1.66819410542415
 30
0.0
  0
HATCH
  5
A7
330
7E
100
AcDbEntity
  8
Deck Box - DF
 62
   250
420
  2301728
440
 33554687
100
AcDbHatch
 10
0.0
 20
0.0
 30
0.0
210
0.0
220
0.0
230
1.0
  2
SOLID
 70
     1
 71
     1
 91
        1
 92
        1
 93
        1
 72
     4
 94
        3
 73
     0
 74
     0
 95
       26
 96
       22
 40
0.0
 40
0.0
 40
0.0
 40
0.0
 40
1.0
 40
1.0
 40
1.0
 40
2.0
 40
2.0
 40
2.0
 40
3.0
 40
3.0
 40
3.0
 40
4.0
 40
4.0
 40
4.0
 40
5.0
 40
5.0
 40
5.0
 40
6.0
 40
6.0
 40
6.0
 40
7.0
 40
7.0
 40
7.0
 40
7.0
 10
11.42637882447588
 20
-1.66819410542415
 10
11.42637882447588
 20
-1.66819410542415
 10
11.55039717571286
 20
-1.66819410542415
 10
11.55039717571286
 20
-1.66819410542415
 10
11.55249356378795
 20
-1.66279673264853
 10
11.5542152638205
 20
-1.65716454406346
 10
11.55540290623586
 20
-1.651224636565631
 10
11.49114899320418
 20
-1.341876424217553
 10
11.77530324938907
 20
-1.498443467945839
 10
11.62786180923065
 20
-1.558959825367714
 10
11.62080885784177
 20
-1.552359551387692
 10
11.6066080114876
 20
-1.535949571461464
 10
11.62355628758352
 20
-1.543923136457136
 10
11.7546063974468
 20
-1.499003804588634
 10
11.51475518759437
 20
-1.427432454490978
 10
11.55802741795461
 20
-1.558392707040891
 10
11.8218417083192
 20
-1.80492557108169
 10
11.75681722643985
 20
-1.200590210024845
 10
11.47519084297631
 20
-1.47314270025922
 10
11.47494755006182
 20
-1.590849846797835
 10
11.45262139853187
 20
-1.646880120235335
 10
11.42637882447588
 20
-1.66819410542415
 97
        0
 97
        1
330
A6
 75
     2
 76
     1
 98
        1
 10
0.0
 20
0.0
450
        0
451
        0
460
0.0
461
0.0
452
        0
462
0.0
453
        0
470

  0
SPLINE
  5
A8
330
7E
100
AcDbEntity
  8
Deck Box - DF
100
AcDbSpline
210
0.0
220
0.0
230
1.0
 70
     9
 71
     3
 72
    20
 73
    16
 74
     0
 42
0.0000000001
 43
0.0000000001
 40
0.0
 40
0.0
 40
0.0
 40
0.0
 40
1.0
 40
1.0
 40
1.0
 40
2.0
 40
2.0
 40
2.0
 40
3.0
 40
3.0
 40
3.0
 40
4.0
 40
4.0
 40
4.0
 40
5.0
 40
5.0
 40
5.0
 40
5.0
 10
11.36751635024628
 20
-1.66819410542415
 30
0.0
 10
11.3388111771777
 20
-1.646825019052622
 30
0.0
 10
11.32756375421763
 20
-1.600409478145492
 30
0.0
 10
11.37613417522458
 20
-1.591521233516585
 30
0.0
 10
11.38858873794159
 20
-1.58196668843195
 30
0.0
 10
11.40488512466034
 20
-1.611194051170678
 30
0.0
 10
11.38689840319767
 20
-1.60139536546103
 30
0.0
 10
11.31608914484263
 20
-1.597851935556516
 30
0.0
 10
11.35930373088864
 20
-1.683923373816065
 30
0.0
 10
11.41387255141815
 20
-1.664314982160261
 30
0.0
 10
11.58013401246416
 20
-1.484394361771794
 30
0.0
 10
11.18035034818465
 20
-1.494003160328664
 30
0.0
 10
11.28994490520505
 20
-1.66819410542415
 30
0.0
 10
11.28994490520505
 20
-1.66819410542415
 30
0.0
 10
11.36751635024628
 20
-1.66819410542415
 30
0.0
 10
11.36751635024628
 20
-1.66819410542415
 30
0.0
  0
HATCH
  5
A9
330
7E
100
AcDbEntity
  8
Deck Box - DF
 62
   250
420
  2301728
440
 33554687
100
AcDbHatch
 10
0.0
 20
0.0
 30
0.0
210
0.0
220
0.0
230
1.0
  2
SOLID
 70
     1
 71
     1
 91
        1
 92
        1
 93
        1
 72
     4
 94
        3
 73
     0
 74
     0
 95
       20
 96
       16
 40
0.0
 40
0.0
 40
0.0
 40
0.0
 40
1.0
 40
1.0
 40
1.0
 40
2.0
 40
2.0
 40
2.0
 40
3.0
 40
3.0
 40
3.0
 40
4.0
 40
4.0
 40
4.0
 40
5.0
 40
5.0
 40
5.0
 40
5.0
 10
11.36751635024628
 20
-1.66819410542415
 10
11.3388111771777
 20
-1.646825019052622
 10
11.32756375421763
 20
-1.600409478145492
 10
11.37613417522458
 20
-1.591521233516585
 10
11.38858873794159
 20
-1.58196668843195
 10
11.40488512466034
 20
-1.611194051170678
 10
11.38689840319767
 20
-1.60139536546103
 10
11.31608914484263
 20
-1.597851935556516
 10
11.35930373088864
 20
-1.683923373816065
 10
11.41387255141815
 20
-1.664314982160261
 10
11.58013401246416
 20
-1.484394361771794
 10
11.18035034818465
 20
-1.494003160328664
 10
11.28994490520505
 20
-1.66819410542415
 10
11.28994490520505
 20
-1.66819410542415
 10
11.36751635024628
 20
-1.66819410542415
 10
11.36751635024628
 20
-1.66819410542415
 97
        0
 97
        1
330
A8
 75
     2
 76
     1
 98
        1
 10
0.0
 20
0.0
450
        0
451
        0
460
0.0
461
0.0
452
        0
462
0.0
453
        0
470

  0
SPLINE
  5
AA
330
7E
100
AcDbEntity
  8
Deck Box - DF
100
AcDbSpline
210
0.0
220
0.0
230
1.0
 70
     9
 71
     3
 72
    32
 73
    28
 74
     0
 42
0.0000000001
 43
0.0000000001
 40
0.0
 40
0.0
 40
0.0
 40
0.0
 40
1.0
 40
1.0
 40
1.0
 40
2.0
 40
2.0
 40
2.0
 40
3.0
 40
3.0
 40
3.0
 40
4.0
 40
4.0
 40
4.0
 40
5.0
 40
5.0
 40
5.0
 40
6.0
 40
6.0
 40
6.0
 40
7.0
 40
7.0
 40
7.0
 40
8.0
 40
8.0
 40
8.0
 40
9.0
 40
9.0
 40
9.0
 40
9.0
 10
10.91275611668508
 20
-1.657555338605561
 30
0.0
 10
10.92782586630531
 20
-1.657555338605561
 30
0.0
 10
10.940202439656
 20
-1.661645541784815
 30
0.0
 10
10.9501876216764
 20
-1.66819410542415
 30
0.0
 10
10.9501876216764
 20
-1.66819410542415
 30
0.0
 10
11.01704909221677
 20
-1.66819410542415
 30
0.0
 10
11.01704909221677
 20
-1.66819410542415
 30
0.0
 10
11.02754798680227
 20
-1.647240397199311
 30
0.0
 10
11.02459456340817
 20
-1.618608127234033
 30
0.0
 10
10.99737288372067
 20
-1.582408345604259
 30
0.0
 10
10.94803358928708
 20
-1.565687255923269
 30
0.0
 10
10.8880292490093
 20
-1.650543925031342
 30
0.0
 10
10.958024705281
 20
-1.644253065385075
 30
0.0
 10
10.82304800036564
 20
-1.680068834156789
 30
0.0
 10
11.05860131796546
 20
-1.440518561533078
 30
0.0
 10
11.02951552288083
 20
-1.66819410542415
 30
0.0
 10
11.02951552288083
 20
-1.66819410542415
 30
0.0
 10
11.10870355185218
 20
-1.66819410542415
 30
0.0
 10
11.10870355185218
 20
-1.66819410542415
 30
0.0
 10
11.16080129626407
 20
-1.568008287281789
 30
0.0
 10
11.10030104534176
 20
-1.449248284297835
 30
0.0
 10
10.92993497003795
 20
-1.532067057355561
 30
0.0
 10
10.86403734634003
 20
-1.586523132388113
 30
0.0
 10
10.84228339939993
 20
-1.628205905554358
 30
0.0
 10
10.84504015395721
 20
-1.657555338605561
 30
0.0
 10
10.84504015395721
 20
-1.657555338605561
 30
0.0
 10
10.91275611668508
 20
-1.657555338605561
 30
0.0
 10
10.91275611668508
 20
-1.657555338605561
 30
0.0
  0
HATCH
  5
AB
330
7E
100
AcDbEntity
  8
Deck Box - DF
 62
   250
420
  2301728
440
 33554687
100
AcDbHatch
 10
0.0
 20
0.0
 30
0.0
210
0.0
220
0.0
230
1.0
  2
SOLID
 70
     1
 71
     1
 91
        1
 92
        1
 93
        1
 72
     4
 94
        3
 73
     0
 74
     0
 95
       32
 96
       28
 40
0.0
 40
0.0
 40
0.0
 40
0.0
 40
1.0
 40
1.0
 40
1.0
 40
2.0
 40
2.0
 40
2.0
 40
3.0
 40
3.0
 40
3.0
 40
4.0
 40
4.0
 40
4.0
 40
5.0
 40
5.0
 40
5.0
 40
6.0
 40
6.0
 40
6.0
 40
7.0
 40
7.0
 40
7.0
 40
8.0
 40
8.0
 40
8.0
 40
9.0
 40
9.0
 40
9.0
 40
9.0
 10
10.91275611668508
 20
-1.657555338605561
 10
10.92782586630531
 20
-1.657555338605561
 10
10.940202439656
 20
-1.661645541784815
 10
10.9501876216764
 20
-1.66819410542415
 10
10.9501876216764
 20
-1.66819410542415
 10
11.01704909221677
 20
-1.66819410542415
 10
11.01704909221677
 20
-1.66819410542415
 10
11.02754798680227
 20
-1.647240397199311
 10
11.02459456340817
 20
-1.618608127234033
 10
10.99737288372067
 20
-1.582408345604259
 10
10.94803358928708
 20
-1.565687255923269
 10
10.8880292490093
 20
-1.650543925031342
 10
10.958024705281
 20
-1.644253065385075
 10
10.82304800036564
 20
-1.680068834156789
 10
11.05860131796546
 20
-1.440518561533078
 10
11.02951552288083
 20
-1.66819410542415
 10
11.02951552288083
 20
-1.66819410542415
 10
11.10870355185218
 20
-1.66819410542415
 10
11.10870355185218
 20
-1.66819410542415
 10
11.16080129626407
 20
-1.568008287281789
 10
11.10030104534176
 20
-1.449248284297835
 10
10.92993497003795
 20
-1.532067057355561
 10
10.86403734634003
 20
-1.586523132388113
 10
10.84228339939993
 20
-1.628205905554358
 10
10.84504015395721
 20
-1.657555338605561
 10
10.84504015395721
 20
-1.657555338605561
 10
10.91275611668508
 20
-1.657555338605561
 10
10.91275611668508
 20
-1.657555338605561
 97
        0
 97
        1
330
AA
 75
     2
 76
     1
 98
        1
 10
0.0
 20
0.0
450
        0
451
        0
460
0.0
461
0.0
452
        0
462
0.0
453
        0
470

  0
SPLINE
  5
AC
330
7E
100
AcDbEntity
  8
Deck Box - DF
100
AcDbSpline
210
0.0
220
0.0
230
1.0
 70
     9
 71
     3
 72
    11
 73
     7
 74
     0
 42
0.0000000001
 43
0.0000000001
 40
0.0
 40
0.0
 40
0.0
 40
0.0
 40
1.0
 40
1.0
 40
1.0
 40
2.0
 40
2.0
 40
2.0
 40
2.0
 10
10.84072113037109
 20
-1.191258748372395
 30
0.0
 10
10.84072113037109
 20
-1.191258748372395
 30
0.0
 10
10.84072113037109
 20
-1.255972968207465
 30
0.0
 10
10.84072113037109
 20
-1.255972968207465
 30
0.0
 10
10.89136759440104
 20
-1.280487908257378
 30
0.0
 10
10.87879435221354
 20
-1.216560363769531
 30
0.0
 10
10.84072113037109
 20
-1.191258748372395
 30
0.0
  0
HATCH
  5
AD
330
7E
100
AcDbEntity
  8
Deck Box - DF
 62
   250
420
  2301728
440
 33554687
100
AcDbHatch
 10
0.0
 20
0.0
 30
0.0
210
0.0
220
0.0
230
1.0
  2
SOLID
 70
     1
 71
     1
 91
        1
 92
        1
 93
        1
 72
     4
 94
        3
 73
     0
 74
     0
 95
       11
 96
        7
 40
0.0
 40
0.0
 40
0.0
 40
0.0
 40
1.0
 40
1.0
 40
1.0
 40
2.0
 40
2.0
 40
2.0
 40
2.0
 10
10.84072113037109
 20
-1.191258748372395
 10
10.84072113037109
 20
-1.191258748372395
 10
10.84072113037109
 20
-1.255972968207465
 10
10.84072113037109
 20
-1.255972968207465
 10
10.89136759440104
 20
-1.280487908257378
 10
10.87879435221354
 20
-1.216560363769531
 10
10.84072113037109
 20
-1.191258748372395
 97
        0
 97
        1
330
AC
 75
     2
 76
     1
 98
        1
 10
0.0
 20
0.0
450
        0
451
        0
460
0.0
461
0.0
452
        0
462
0.0
453
        0
470

  0
SPLINE
  5
AE
330
7E
100
AcDbEntity
  8
Deck Box - DF
100
AcDbSpline
210
0.0
220
0.0
230
1.0
 70
     9
 71
     3
 72
    23
 73
    19
 74
     0
 42
0.0000000001
 43
0.0000000001
 40
0.0
 40
0.0
 40
0.0
 40
0.0
 40
1.0
 40
1.0
 40
1.0
 40
2.0
 40
2.0
 40
2.0
 40
3.0
 40
3.0
 40
3.0
 40
4.0
 40
4.0
 40
4.0
 40
5.0
 40
5.0
 40
5.0
 40
6.0
 40
6.0
 40
6.0
 40
6.0
 10
10.9051267835829
 20
-1.17204369439019
 30
0.0
 10
10.88605753580729
 20
-1.147786458333333
 30
0.0
 10
10.86365169949002
 20
-1.128742641872829
 30
0.0
 10
10.84072113037109
 20
-1.115503946940104
 30
0.0
 10
10.84072113037109
 20
-1.115503946940104
 30
0.0
 10
10.84072113037109
 20
-1.182080586751302
 30
0.0
 10
10.84072113037109
 20
-1.182080586751302
 30
0.0
 10
10.88434516059027
 20
-1.213854471842447
 30
0.0
 10
10.91039276123047
 20
-1.287344190809461
 30
0.0
 10
10.84319559733073
 20
-1.2669677734375
 30
0.0
 10
10.8423589070638
 20
-1.267119513617621
 30
0.0
 10
10.84153238932291
 20
-1.267125447591145
 30
0.0
 10
10.84072113037109
 20
-1.267015245225694
 30
0.0
 10
10.84072113037109
 20
-1.267015245225694
 30
0.0
 10
10.84072113037109
 20
-1.322993808322482
 30
0.0
 10
10.84072113037109
 20
-1.322993808322482
 30
0.0
 10
10.91497972276475
 20
-1.357418484157985
 30
0.0
 10
11.00444793701172
 20
-1.340691460503472
 30
0.0
 10
10.9051267835829
 20
-1.17204369439019
 30
0.0
  0
HATCH
  5
AF
330
7E
100
AcDbEntity
  8
Deck Box - DF
 62
   250
420
  2301728
440
 33554687
100
AcDbHatch
 10
0.0
 20
0.0
 30
0.0
210
0.0
220
0.0
230
1.0
  2
SOLID
 70
     1
 71
     1
 91
        1
 92
        1
 93
        1
 72
     4
 94
        3
 73
     0
 74
     0
 95
       23
 96
       19
 40
0.0
 40
0.0
 40
0.0
 40
0.0
 40
1.0
 40
1.0
 40
1.0
 40
2.0
 40
2.0
 40
2.0
 40
3.0
 40
3.0
 40
3.0
 40
4.0
 40
4.0
 40
4.0
 40
5.0
 40
5.0
 40
5.0
 40
6.0
 40
6.0
 40
6.0
 40
6.0
 10
10.9051267835829
 20
-1.17204369439019
 10
10.88605753580729
 20
-1.147786458333333
 10
10.86365169949002
 20
-1.128742641872829
 10
10.84072113037109
 20
-1.115503946940104
 10
10.84072113037109
 20
-1.115503946940104
 10
10.84072113037109
 20
-1.182080586751302
 10
10.84072113037109
 20
-1.182080586751302
 10
10.88434516059027
 20
-1.213854471842447
 10
10.91039276123047
 20
-1.287344190809461
 10
10.84319559733073
 20
-1.2669677734375
 10
10.8423589070638
 20
-1.267119513617621
 10
10.84153238932291
 20
-1.267125447591145
 10
10.84072113037109
 20
-1.267015245225694
 10
10.84072113037109
 20
-1.267015245225694
 10
10.84072113037109
 20
-1.322993808322482
 10
10.84072113037109
 20
-1.322993808322482
 10
10.91497972276475
 20
-1.357418484157985
 10
11.00444793701172
 20
-1.340691460503472
 10
10.9051267835829
 20
-1.17204369439019
 97
        0
 97
        1
330
AE
 75
     2
 76
     1
 98
        1
 10
0.0
 20
0.0
450
        0
451
        0
460
0.0
461
0.0
452
        0
462
0.0
453
        0
470

  0
SPLINE
  5
B0
330
7E
100
AcDbEntity
  8
Deck Box - DF
100
AcDbSpline
210
0.0
220
0.0
230
1.0
 70
     9
 71
     3
 72
    14
 73
    10
 74
     0
 42
0.0000000001
 43
0.0000000001
 40
0.0
 40
0.0
 40
0.0
 40
0.0
 40
1.0
 40
1.0
 40
1.0
 40
2.0
 40
2.0
 40
2.0
 40
3.0
 40
3.0
 40
3.0
 40
3.0
 10
11.82078799777559
 20
-0.7371526082676306
 30
0.0
 10
11.82302341037325
 20
-0.7395295885193668
 30
0.0
 10
11.82510453965927
 20
-0.7418616401144189
 30
0.0
 10
11.82753323025172
 20
-0.7442945692593841
 30
0.0
 10
11.88249284532334
 20
-0.781714206303655
 30
0.0
 10
11.96618560791014
 20
-0.7774697198127695
 30
0.0
 10
12.01481197781032
 20
-0.7371526082676306
 30
0.0
 10
12.01481197781032
 20
-0.7371526082676306
 30
0.0
 10
11.82078799777559
 20
-0.7371526082676306
 30
0.0
 10
11.82078799777559
 20
-0.7371526082676306
 30
0.0
  0
HATCH
  5
B1
330
7E
100
AcDbEntity
  8
Deck Box - DF
 62
   250
420
  2301728
440
 33554687
100
AcDbHatch
 10
0.0
 20
0.0
 30
0.0
210
0.0
220
0.0
230
1.0
  2
SOLID
 70
     1
 71
     1
 91
        1
 92
        1
 93
        1
 72
     4
 94
        3
 73
     0
 74
     0
 95
       14
 96
       10
 40
0.0
 40
0.0
 40
0.0
 40
0.0
 40
1.0
 40
1.0
 40
1.0
 40
2.0
 40
2.0
 40
2.0
 40
3.0
 40
3.0
 40
3.0
 40
3.0
 10
11.82078799777559
 20
-0.7371526082676306
 10
11.82302341037325
 20
-0.7395295885193668
 10
11.82510453965927
 20
-0.7418616401144189
 10
11.82753323025172
 20
-0.7442945692593841
 10
11.88249284532334
 20
-0.781714206303655
 10
11.96618560791014
 20
-0.7774697198127695
 10
12.01481197781032
 20
-0.7371526082676306
 10
12.01481197781032
 20
-0.7371526082676306
 10
11.82078799777559
 20
-0.7371526082676306
 10
11.82078799777559
 20
-0.7371526082676306
 97
        0
 97
        1
330
B0
 75
     2
 76
     1
 98
        1
 10
0.0
 20
0.0
450
        0
451
        0
460
0.0
461
0.0
452
        0
462
0.0
453
        0
470

  0
SPLINE
  5
B2
330
7E
100
AcDbEntity
  8
Deck Box - DF
100
AcDbSpline
210
0.0
220
0.0
230
1.0
 70
     9
 71
     3
 72
    20
 73
    16
 74
     0
 42
0.0000000001
 43
0.0000000001
 40
0.0
 40
0.0
 40
0.0
 40
0.0
 40
1.0
 40
1.0
 40
1.0
 40
2.0
 40
2.0
 40
2.0
 40
3.0
 40
3.0
 40
3.0
 40
4.0
 40
4.0
 40
4.0
 40
5.0
 40
5.0
 40
5.0
 40
5.0
 10
13.08747772855574
 20
-1.66819410542415
 30
0.0
 10
13.09115848756182
 20
-1.663379109764428
 30
0.0
 10
13.09535889310652
 20
-1.658648037444537
 30
0.0
 10
13.10082662585392
 20
-1.654117872513981
 30
0.0
 10
13.11628293146373
 20
-1.643579983245331
 30
0.0
 10
13.13426287124237
 20
-1.642284681596025
 30
0.0
 10
13.15004893623803
 20
-1.646302829382483
 30
0.0
 10
13.15004893623803
 20
-1.646302829382483
 30
0.0
 10
13.15004893623803
 20
-1.590856628481863
 30
0.0
 10
13.15004893623803
 20
-1.590856628481863
 30
0.0
 10
13.03552494263994
 20
-1.581734415754011
 30
0.0
 10
13.00100871407006
 20
-1.618493686316065
 30
0.0
 10
12.99217387520288
 20
-1.66819410542415
 30
0.0
 10
12.99217387520288
 20
-1.66819410542415
 30
0.0
 10
13.08747772855574
 20
-1.66819410542415
 30
0.0
 10
13.08747772855574
 20
-1.66819410542415
 30
0.0
  0
HATCH
  5
B3
330
7E
100
AcDbEntity
  8
Deck Box - DF
 62
   250
420
  2301728
440
 33554687
100
AcDbHatch
 10
0.0
 20
0.0
 30
0.0
210
0.0
220
0.0
230
1.0
  2
SOLID
 70
     1
 71
     1
 91
        1
 92
        1
 93
        1
 72
     4
 94
        3
 73
     0
 74
     0
 95
       20
 96
       16
 40
0.0
 40
0.0
 40
0.0
 40
0.0
 40
1.0
 40
1.0
 40
1.0
 40
2.0
 40
2.0
 40
2.0
 40
3.0
 40
3.0
 40
3.0
 40
4.0
 40
4.0
 40
4.0
 40
5.0
 40
5.0
 40
5.0
 40
5.0
 10
13.08747772855574
 20
-1.66819410542415
 10
13.09115848756182
 20
-1.663379109764428
 10
13.09535889310652
 20
-1.658648037444537
 10
13.10082662585392
 20
-1.654117872513981
 10
13.11628293146373
 20
-1.643579983245331
 10
13.13426287124237
 20
-1.642284681596025
 10
13.15004893623803
 20
-1.646302829382483
 10
13.15004893623803
 20
-1.646302829382483
 10
13.15004893623803
 20
-1.590856628481863
 10
13.15004893623803
 20
-1.590856628481863
 10
13.03552494263994
 20
-1.581734415754011
 10
13.00100871407006
 20
-1.618493686316065
 10
12.99217387520288
 20
-1.66819410542415
 10
12.99217387520288
 20
-1.66819410542415
 10
13.08747772855574
 20
-1.66819410542415
 10
13.08747772855574
 20
-1.66819410542415
 97
        0
 97
        1
330
B2
 75
     2
 76
     1
 98
        1
 10
0.0
 20
0.0
450
        0
451
        0
460
0.0
461
0.0
452
        0
462
0.0
453
        0
470

  0
SPLINE
  5
B4
330
7E
100
AcDbEntity
  8
Deck Box - DF
100
AcDbSpline
210
0.0
220
0.0
230
1.0
 70
     9
 71
     3
 72
    11
 73
     7
 74
     0
 42
0.0000000001
 43
0.0000000001
 40
0.0
 40
0.0
 40
0.0
 40
0.0
 40
1.0
 40
1.0
 40
1.0
 40
2.0
 40
2.0
 40
2.0
 40
2.0
 10
12.45632165487952
 20
-1.66819410542415
 30
0.0
 10
12.41944370484697
 20
-1.58941043436294
 30
0.0
 10
12.34753157512692
 20
-1.619104885589081
 30
0.0
 10
12.31570343656355
 20
-1.66819410542415
 30
0.0
 10
12.31570343656355
 20
-1.66819410542415
 30
0.0
 10
12.45632165487952
 20
-1.66819410542415
 30
0.0
 10
12.45632165487952
 20
-1.66819410542415
 30
0.0
  0
HATCH
  5
B5
330
7E
100
AcDbEntity
  8
Deck Box - DF
 62
   250
420
  2301728
440
 33554687
100
AcDbHatch
 10
0.0
 20
0.0
 30
0.0
210
0.0
220
0.0
230
1.0
  2
SOLID
 70
     1
 71
     1
 91
        1
 92
        1
 93
        1
 72
     4
 94
        3
 73
     0
 74
     0
 95
       11
 96
        7
 40
0.0
 40
0.0
 40
0.0
 40
0.0
 40
1.0
 40
1.0
 40
1.0
 40
2.0
 40
2.0
 40
2.0
 40
2.0
 10
12.45632165487952
 20
-1.66819410542415
 10
12.41944370484697
 20
-1.58941043436294
 10
12.34753157512692
 20
-1.619104885589081
 10
12.31570343656355
 20
-1.66819410542415
 10
12.31570343656355
 20
-1.66819410542415
 10
12.45632165487952
 20
-1.66819410542415
 10
12.45632165487952
 20
-1.66819410542415
 97
        0
 97
        1
330
B4
 75
     2
 76
     1
 98
        1
 10
0.0
 20
0.0
450
        0
451
        0
460
0.0
461
0.0
452
        0
462
0.0
453
        0
470

  0
SPLINE
  5
B6
330
7E
100
AcDbEntity
  8
Deck Box - DF
100
AcDbSpline
210
0.0
220
0.0
230
1.0
 70
     9
 71
     3
 72
    17
 73
    13
 74
     0
 42
0.0000000001
 43
0.0000000001
 40
0.0
 40
0.0
 40
0.0
 40
0.0
 40
1.0
 40
1.0
 40
1.0
 40
2.0
 40
2.0
 40
2.0
 40
3.0
 40
3.0
 40
3.0
 40
4.0
 40
4.0
 40
4.0
 40
4.0
 10
12.14630906642999
 20
-1.227287112012567
 30
0.0
 10
12.0530295069333
 20
-1.388265004984204
 30
0.0
 10
12.41617197338188
 20
-1.432136678565181
 30
0.0
 10
12.22219982247379
 20
-1.273435445569804
 30
0.0
 10
12.17665482309917
 20
-1.25600145856678
 30
0.0
 10
12.17357059579386
 20
-1.320257751340313
 30
0.0
 10
12.22325987720137
 20
-1.320608467868775
 30
0.0
 10
12.12687424284801
 20
-1.33205409588758
 30
0.0
 10
12.21943985687966
 20
-1.132645868592817
 30
0.0
 10
12.31935281341473
 20
-1.417217251652333
 30
0.0
 10
12.41524698966555
 20
-1.366151665038261
 30
0.0
 10
12.26472772221811
 20
-1.154085896588324
 30
0.0
 10
12.14630906642999
 20
-1.227287112012567
 30
0.0
  0
HATCH
  5
B7
330
7E
100
AcDbEntity
  8
Deck Box - DF
 62
   250
420
  2301728
440
 33554687
100
AcDbHatch
 10
0.0
 20
0.0
 30
0.0
210
0.0
220
0.0
230
1.0
  2
SOLID
 70
     1
 71
     1
 91
        1
 92
        1
 93
        1
 72
     4
 94
        3
 73
     0
 74
     0
 95
       17
 96
       13
 40
0.0
 40
0.0
 40
0.0
 40
0.0
 40
1.0
 40
1.0
 40
1.0
 40
2.0
 40
2.0
 40
2.0
 40
3.0
 40
3.0
 40
3.0
 40
4.0
 40
4.0
 40
4.0
 40
4.0
 10
12.14630906642999
 20
-1.227287112012567
 10
12.0530295069333
 20
-1.388265004984204
 10
12.41617197338188
 20
-1.432136678565181
 10
12.22219982247379
 20
-1.273435445569804
 10
12.17665482309917
 20
-1.25600145856678
 10
12.17357059579386
 20
-1.320257751340313
 10
12.22325987720137
 20
-1.320608467868775
 10
12.12687424284801
 20
-1.33205409588758
 10
12.21943985687966
 20
-1.132645868592817
 10
12.31935281341473
 20
-1.417217251652333
 10
12.41524698966555
 20
-1.366151665038261
 10
12.26472772221811
 20
-1.154085896588324
 10
12.14630906642999
 20
-1.227287112012567
 97
        0
 97
        1
330
B6
 75
     2
 76
     1
 98
        1
 10
0.0
 20
0.0
450
        0
451
        0
460
0.0
461
0.0
452
        0
462
0.0
453
        0
470

  0
SPLINE
  5
B8
330
7E
100
AcDbEntity
  8
Deck Box - DF
100
AcDbSpline
210
0.0
220
0.0
230
1.0
 70
     9
 71
     3
 72
    20
 73
    16
 74
     0
 42
0.0000000001
 43
0.0000000001
 40
0.0
 40
0.0
 40
0.0
 40
0.0
 40
1.0
 40
1.0
 40
1.0
 40
2.0
 40
2.0
 40
2.0
 40
3.0
 40
3.0
 40
3.0
 40
4.0
 40
4.0
 40
4.0
 40
5.0
 40
5.0
 40
5.0
 40
5.0
 10
12.54393931709741
 20
-1.66819410542415
 30
0.0
 10
12.5481609154047
 20
-1.657974107594289
 30
0.0
 10
12.56065786364689
 20
-1.654189927906789
 30
0.0
 10
12.58493798788734
 20
-1.664960937563894
 30
0.0
 10
12.57473579197805
 20
-1.664281921450613
 30
0.0
 10
12.56710894057831
 20
-1.665658603308252
 30
0.0
 10
12.56127754002492
 20
-1.66819410542415
 30
0.0
 10
12.56127754002492
 20
-1.66819410542415
 30
0.0
 10
12.65031766046763
 20
-1.66819410542415
 30
0.0
 10
12.65031766046763
 20
-1.66819410542415
 30
0.0
 10
12.67922119779402
 20
-1.572619832420678
 30
0.0
 10
12.47693119263994
 20
-1.573507385317801
 30
0.0
 10
12.46867194920461
 20
-1.66819410542415
 30
0.0
 10
12.46867194920461
 20
-1.66819410542415
 30
0.0
 10
12.54393931709741
 20
-1.66819410542415
 30
0.0
 10
12.54393931709741
 20
-1.66819410542415
 30
0.0
  0
HATCH
  5
B9
330
7E
100
AcDbEntity
  8
Deck Box - DF
 62
   250
420
  2301728
440
 33554687
100
AcDbHatch
 10
0.0
 20
0.0
 30
0.0
210
0.0
220
0.0
230
1.0
  2
SOLID
 70
     1
 71
     1
 91
        1
 92
        1
 93
        1
 72
     4
 94
        3
 73
     0
 74
     0
 95
       20
 96
       16
 40
0.0
 40
0.0
 40
0.0
 40
0.0
 40
1.0
 40
1.0
 40
1.0
 40
2.0
 40
2.0
 40
2.0
 40
3.0
 40
3.0
 40
3.0
 40
4.0
 40
4.0
 40
4.0
 40
5.0
 40
5.0
 40
5.0
 40
5.0
 10
12.54393931709741
 20
-1.66819410542415
 10
12.5481609154047
 20
-1.657974107594289
 10
12.56065786364689
 20
-1.654189927906789
 10
12.58493798788734
 20
-1.664960937563894
 10
12.57473579197805
 20
-1.664281921450613
 10
12.56710894057831
 20
-1.665658603308252
 10
12.56127754002492
 20
-1.66819410542415
 10
12.56127754002492
 20
-1.66819410542415
 10
12.65031766046763
 20
-1.66819410542415
 10
12.65031766046763
 20
-1.66819410542415
 10
12.67922119779402
 20
-1.572619832420678
 10
12.47693119263994
 20
-1.573507385317801
 10
12.46867194920461
 20
-1.66819410542415
 10
12.46867194920461
 20
-1.66819410542415
 10
12.54393931709741
 20
-1.66819410542415
 10
12.54393931709741
 20
-1.66819410542415
 97
        0
 97
        1
330
B8
 75
     2
 76
     1
 98
        1
 10
0.0
 20
0.0
450
        0
451
        0
460
0.0
461
0.0
452
        0
462
0.0
453
        0
470

  0
SPLINE
  5
BA
330
7E
100
AcDbEntity
  8
Deck Box - DF
100
AcDbSpline
210
0.0
220
0.0
230
1.0
 70
     9
 71
     3
 72
   134
 73
   130
 74
     0
 42
0.0000000001
 43
0.0000000001
 40
0.0
 40
0.0
 40
0.0
 40
0.0
 40
1.0
 40
1.0
 40
1.0
 40
2.0
 40
2.0
 40
2.0
 40
3.0
 40
3.0
 40
3.0
 40
4.0
 40
4.0
 40
4.0
 40
5.0
 40
5.0
 40
5.0
 40
6.0
 40
6.0
 40
6.0
 40
7.0
 40
7.0
 40
7.0
 40
8.0
 40
8.0
 40
8.0
 40
9.0
 40
9.0
 40
9.0
 40
10.0
 40
10.0
 40
10.0
 40
11.0
 40
11.0
 40
11.0
 40
12.0
 40
12.0
 40
12.0
 40
13.0
 40
13.0
 40
13.0
 40
14.0
 40
14.0
 40
14.0
 40
15.0
 40
15.0
 40
15.0
 40
16.0
 40
16.0
 40
16.0
 40
17.0
 40
17.0
 40
17.0
 40
18.0
 40
18.0
 40
18.0
 40
19.0
 40
19.0
 40
19.0
 40
20.0
 40
20.0
 40
20.0
 40
21.0
 40
21.0
 40
21.0
 40
22.0
 40
22.0
 40
22.0
 40
23.0
 40
23.0
 40
23.0
 40
24.0
 40
24.0
 40
24.0
 40
25.0
 40
25.0
 40
25.0
 40
26.0
 40
26.0
 40
26.0
 40
27.0
 40
27.0
 40
27.0
 40
28.0
 40
28.0
 40
28.0
 40
29.0
 40
29.0
 40
29.0
 40
30.0
 40
30.0
 40
30.0
 40
31.0
 40
31.0
 40
31.0
 40
32.0
 40
32.0
 40
32.0
 40
33.0
 40
33.0
 40
33.0
 40
34.0
 40
34.0
 40
34.0
 40
35.0
 40
35.0
 40
35.0
 40
36.0
 40
36.0
 40
36.0
 40
37.0
 40
37.0
 40
37.0
 40
38.0
 40
38.0
 40
38.0
 40
39.0
 40
39.0
 40
39.0
 40
40.0
 40
40.0
 40
40.0
 40
41.0
 40
41.0
 40
41.0
 40
42.0
 40
42.0
 40
42.0
 40
43.0
 40
43.0
 40
43.0
 40
43.0
 10
12.74810276246416
 20
-1.66819410542415
 30
0.0
 10
12.7463793670106
 20
-1.632511427201481
 30
0.0
 10
12.74852237916338
 20
-1.605188022253565
 30
0.0
 10
12.75343147068899
 20
-1.584935370615122
 30
0.0
 10
12.75328481677189
 20
-1.585594889386811
 30
0.0
 10
12.75326277629879
 20
-1.58636291510297
 30
0.0
 10
12.7531407059863
 20
-1.587044474347761
 30
0.0
 10
12.75317970066946
 20
-1.586871541405053
 30
0.0
 10
12.75320343656355
 20
-1.586695217620331
 30
0.0
 10
12.75324243124671
 20
-1.586522284677622
 30
0.0
 10
12.75332126832354
 20
-1.586171332529172
 30
0.0
 10
12.75341621189993
 20
-1.585820380380747
 30
0.0
 10
12.75347555163517
 20
-1.585466037390283
 30
0.0
 10
12.75350437379229
 20
-1.585290561316065
 30
0.0
 10
12.7535315005284
 20
-1.585115932952349
 30
0.0
 10
12.7535569318435
 20
-1.584940456878131
 30
0.0
 10
12.75356795208004
 20
-1.584865010643321
 30
0.0
 10
12.75357812460609
 20
-1.584789564408525
 30
0.0
 10
12.75358829713213
 20
-1.584714118173703
 30
0.0
 10
12.75360016507918
 20
-1.58463273796537
 30
0.0
 10
12.75359168797414
 20
-1.58469377312162
 30
0.0
 10
12.75358914484263
 20
-1.584709879621186
 30
0.0
 10
12.75359592652666
 20
-1.584659864701481
 30
0.0
 10
12.75360186050018
 20
-1.584609849781789
 30
0.0
 10
12.75360864218421
 20
-1.584558987151581
 30
0.0
 10
12.75362729181529
 20
-1.584411485523964
 30
0.0
 10
12.75364085518335
 20
-1.584263136185856
 30
0.0
 10
12.75365780939341
 20
-1.584114786847761
 30
0.0
 10
12.75361542386824
 20
-1.584289415211464
 30
0.0
 10
12.75354336847545
 20
-1.584436916839081
 30
0.0
 10
12.75350267837128
 20
-1.584613240623803
 30
0.0
 10
12.75355099786998
 20
-1.584417419497488
 30
0.0
 10
12.75361457615774
 20
-1.584262288475353
 30
0.0
 10
12.75366289565643
 20
-1.584067315059567
 30
0.0
 10
12.75372223539168
 20
-1.583561231888981
 30
0.0
 10
12.7537773365744
 20
-1.583055148718408
 30
0.0
 10
12.75383074233612
 20
-1.582548217837345
 30
0.0
 10
12.75397993938473
 20
-1.581138475270058
 30
0.0
 10
12.7541435475119
 20
-1.579720255597761
 30
0.0
 10
12.75451060615991
 20
-1.578347812292627
 30
0.0
 10
12.7548496903613
 20
-1.577078789668942
 30
0.0
 10
12.75534560100583
 20
-1.575838589202349
 30
0.0
 10
12.7558516841764
 20
-1.574628058603391
 30
0.0
 10
12.75636878758352
 20
-1.573388705847315
 30
0.0
 10
12.75692827651581
 20
-1.572168850432831
 30
0.0
 10
12.75749963339515
 20
-1.570954081281342
 30
0.0
 10
12.75803962498586
 20
-1.569806281259641
 30
0.0
 10
12.7585872459711
 20
-1.56866102436945
 30
0.0
 10
12.75911028335175
 20
-1.567506442663733
 30
0.0
 10
12.75960365086477
 20
-1.566300998327783
 30
0.0
 10
12.7600741301942
 20
-1.565034518835608
 30
0.0
 10
12.76059292902232
 20
-1.56390197760297
 30
0.0
 10
12.76060479696937
 20
-1.563868069182831
 30
0.0
 10
12.76062005575843
 20
-1.563835008473183
 30
0.0
 10
12.76063192370548
 20
-1.563801100053044
 30
0.0
 10
12.76063277141598
 20
-1.563799404632037
 30
0.0
 10
12.76063446683699
 20
-1.563801100053044
 30
0.0
 10
12.76063531454749
 20
-1.563799404632037
 30
0.0
 10
12.80542155586694
 20
-1.4663050673382
 30
0.0
 10
12.94269046998369
 20
-1.633727891773964
 30
0.0
 10
12.82267500774411
 20
-1.611557718976655
 30
0.0
 10
12.93090559856442
 20
-1.576497260263547
 30
0.0
 10
12.79003561022892
 20
-1.519345465829953
 30
0.0
 10
12.75827528850583
 20
-1.572566426658946
 30
0.0
 10
12.75803030017032
 20
-1.573093702592106
 30
0.0
 10
12.75778785496633
 20
-1.573622673946273
 30
0.0
 10
12.75755388686737
 20
-1.57415418843195
 30
0.0
 10
12.75728177179576
 20
-1.574773017099497
 30
0.0
 10
12.75708934151147
 20
-1.575228237639849
 30
0.0
 10
12.75683333293942
 20
-1.575878431596025
 30
0.0
 10
12.75634844253143
 20
-1.577107611826047
 30
0.0
 10
12.75589406970157
 20
-1.578360527950192
 30
0.0
 10
12.75562958402449
 20
-1.579657525020492
 30
0.0
 10
12.75556007176321
 20
-1.579995761511377
 30
0.0
 10
12.75550073202796
 20
-1.580337388844289
 30
0.0
 10
12.75544902168725
 20
-1.580679016177176
 30
0.0
 10
12.7554354583192
 20
-1.580767178069537
 30
0.0
 10
12.75542189495114
 20
-1.580856187672414
 30
0.0
 10
12.75540917929359
 20
-1.580945197275266
 30
0.0
 10
12.75540239760956
 20
-1.580995212194983
 30
0.0
 10
12.75539476821503
 20
-1.581046074825192
 30
0.0
 10
12.755387986531
 20
-1.5810969374554
 30
0.0
 10
12.75539052966251
 20
-1.581079983245331
 30
0.0
 10
12.75539815905704
 20
-1.581020643510075
 30
0.0
 10
12.7553871388205
 20
-1.581102023718408
 30
0.0
 10
12.75536509834741
 20
-1.581266479556095
 30
0.0
 10
12.75534475329532
 20
-1.581431783104259
 30
0.0
 10
12.75532525595374
 20
-1.581596238941933
 30
0.0
 10
12.75524557116642
 20
-1.582267625660683
 30
0.0
 10
12.75518029745765
 20
-1.58294070780044
 30
0.0
 10
12.75510739435435
 20
-1.58361209451919
 30
0.0
 10
12.75502940498803
 20
-1.584330105315631
 30
0.0
 10
12.75494378622718
 20
-1.585047268401581
 30
0.0
 10
12.7548268021777
 20
-1.585760192934988
 30
0.0
 10
12.75471066583873
 20
-1.586469726626394
 30
0.0
 10
12.75451654013343
 20
-1.587172478633773
 30
0.0
 10
12.75436056140079
 20
-1.587874382930648
 30
0.0
 10
12.7537527529698
 20
-1.5906184218304
 30
0.0
 10
12.75320597969506
 20
-1.593388739755747
 30
0.0
 10
12.75281009888994
 20
-1.596170925628131
 30
0.0
 10
12.75276262710175
 20
-1.596502380434988
 30
0.0
 10
12.75273210952362
 20
-1.596729566849919
 30
0.0
 10
12.75268718086694
 20
-1.59710340718195
 30
0.0
 10
12.75264564305227
 20
-1.597450968488386
 30
0.0
 10
12.75260749607961
 20
-1.597798529794797
 30
0.0
 10
12.75257443536998
 20
-1.598146938811724
 30
0.0
 10
12.7525066185297
 20
-1.598843756845578
 30
0.0
 10
12.7524574513205
 20
-1.599543118010956
 30
0.0
 10
12.75243032458439
 20
-1.600243326886811
 30
0.0
 10
12.7523853959277
 20
-1.601408081118595
 30
0.0
 10
12.75244897421546
 20
-1.602573683060856
 30
0.0
 10
12.75254391779185
 20
-1.603735046450613
 30
0.0
 10
12.75312883803925
 20
-1.610109829436724
 30
0.0
 10
12.75448941339732
 20
-1.617105984221881
 30
0.0
 10
12.75688589099064
 20
-1.62487694640721
 30
0.0
 10
12.77670451485131
 20
-1.644095391231442
 30
0.0
 10
12.79467512981442
 20
-1.658243679534381
 30
0.0
 10
12.81087402982527
 20
-1.66819410542415
 30
0.0
 10
12.81087402982527
 20
-1.66819410542415
 30
0.0
 10
12.90616601523109
 20
-1.66819410542415
 30
0.0
 10
12.90616601523109
 20
-1.66819410542415
 30
0.0
 10
12.96443933066077
 20
-1.595583462249224
 30
0.0
 10
12.87860186050018
 20
-1.349099765417627
 30
0.0
 10
12.67579220880748
 20
-1.538244323794363
 30
0.0
 10
12.6723555904264
 20
-1.594909532398964
 30
0.0
 10
12.66569173815861
 20
-1.637179768944103
 30
0.0
 10
12.65711206015296
 20
-1.66819410542415
 30
0.0
 10
12.65711206015296
 20
-1.66819410542415
 30
0.0
 10
12.74810276246416
 20
-1.66819410542415
 30
0.0
 10
12.74810276246416
 20
-1.66819410542415
 30
0.0
  0
HATCH
  5
BB
330
7E
100
AcDbEntity
  8
Deck Box - DF
 62
   250
420
  2301728
440
 33554687
100
AcDbHatch
 10
0.0
 20
0.0
 30
0.0
210
0.0
220
0.0
230
1.0
  2
SOLID
 70
     1
 71
     1
 91
        1
 92
        1
 93
        1
 72
     4
 94
        3
 73
     0
 74
     0
 95
      134
 96
      130
 40
0.0
 40
0.0
 40
0.0
 40
0.0
 40
1.0
 40
1.0
 40
1.0
 40
2.0
 40
2.0
 40
2.0
 40
3.0
 40
3.0
 40
3.0
 40
4.0
 40
4.0
 40
4.0
 40
5.0
 40
5.0
 40
5.0
 40
6.0
 40
6.0
 40
6.0
 40
7.0
 40
7.0
 40
7.0
 40
8.0
 40
8.0
 40
8.0
 40
9.0
 40
9.0
 40
9.0
 40
10.0
 40
10.0
 40
10.0
 40
11.0
 40
11.0
 40
11.0
 40
12.0
 40
12.0
 40
12.0
 40
13.0
 40
13.0
 40
13.0
 40
14.0
 40
14.0
 40
14.0
 40
15.0
 40
15.0
 40
15.0
 40
16.0
 40
16.0
 40
16.0
 40
17.0
 40
17.0
 40
17.0
 40
18.0
 40
18.0
 40
18.0
 40
19.0
 40
19.0
 40
19.0
 40
20.0
 40
20.0
 40
20.0
 40
21.0
 40
21.0
 40
21.0
 40
22.0
 40
22.0
 40
22.0
 40
23.0
 40
23.0
 40
23.0
 40
24.0
 40
24.0
 40
24.0
 40
25.0
 40
25.0
 40
25.0
 40
26.0
 40
26.0
 40
26.0
 40
27.0
 40
27.0
 40
27.0
 40
28.0
 40
28.0
 40
28.0
 40
29.0
 40
29.0
 40
29.0
 40
30.0
 40
30.0
 40
30.0
 40
31.0
 40
31.0
 40
31.0
 40
32.0
 40
32.0
 40
32.0
 40
33.0
 40
33.0
 40
33.0
 40
34.0
 40
34.0
 40
34.0
 40
35.0
 40
35.0
 40
35.0
 40
36.0
 40
36.0
 40
36.0
 40
37.0
 40
37.0
 40
37.0
 40
38.0
 40
38.0
 40
38.0
 40
39.0
 40
39.0
 40
39.0
 40
40.0
 40
40.0
 40
40.0
 40
41.0
 40
41.0
 40
41.0
 40
42.0
 40
42.0
 40
42.0
 40
43.0
 40
43.0
 40
43.0
 40
43.0
 10
12.74810276246416
 20
-1.66819410542415
 10
12.7463793670106
 20
-1.632511427201481
 10
12.74852237916338
 20
-1.605188022253565
 10
12.75343147068899
 20
-1.584935370615122
 10
12.75328481677189
 20
-1.585594889386811
 10
12.75326277629879
 20
-1.58636291510297
 10
12.7531407059863
 20
-1.587044474347761
 10
12.75317970066946
 20
-1.586871541405053
 10
12.75320343656355
 20
-1.586695217620331
 10
12.75324243124671
 20
-1.586522284677622
 10
12.75332126832354
 20
-1.586171332529172
 10
12.75341621189993
 20
-1.585820380380747
 10
12.75347555163517
 20
-1.585466037390283
 10
12.75350437379229
 20
-1.585290561316065
 10
12.7535315005284
 20
-1.585115932952349
 10
12.7535569318435
 20
-1.584940456878131
 10
12.75356795208004
 20
-1.584865010643321
 10
12.75357812460609
 20
-1.584789564408525
 10
12.75358829713213
 20
-1.584714118173703
 10
12.75360016507918
 20
-1.58463273796537
 10
12.75359168797414
 20
-1.58469377312162
 10
12.75358914484263
 20
-1.584709879621186
 10
12.75359592652666
 20
-1.584659864701481
 10
12.75360186050018
 20
-1.584609849781789
 10
12.75360864218421
 20
-1.584558987151581
 10
12.75362729181529
 20
-1.584411485523964
 10
12.75364085518335
 20
-1.584263136185856
 10
12.75365780939341
 20
-1.584114786847761
 10
12.75361542386824
 20
-1.584289415211464
 10
12.75354336847545
 20
-1.584436916839081
 10
12.75350267837128
 20
-1.584613240623803
 10
12.75355099786998
 20
-1.584417419497488
 10
12.75361457615774
 20
-1.584262288475353
 10
12.75366289565643
 20
-1.584067315059567
 10
12.75372223539168
 20
-1.583561231888981
 10
12.7537773365744
 20
-1.583055148718408
 10
12.75383074233612
 20
-1.582548217837345
 10
12.75397993938473
 20
-1.581138475270058
 10
12.7541435475119
 20
-1.579720255597761
 10
12.75451060615991
 20
-1.578347812292627
 10
12.7548496903613
 20
-1.577078789668942
 10
12.75534560100583
 20
-1.575838589202349
 10
12.7558516841764
 20
-1.574628058603391
 10
12.75636878758352
 20
-1.573388705847315
 10
12.75692827651581
 20
-1.572168850432831
 10
12.75749963339515
 20
-1.570954081281342
 10
12.75803962498586
 20
-1.569806281259641
 10
12.7585872459711
 20
-1.56866102436945
 10
12.75911028335175
 20
-1.567506442663733
 10
12.75960365086477
 20
-1.566300998327783
 10
12.7600741301942
 20
-1.565034518835608
 10
12.76059292902232
 20
-1.56390197760297
 10
12.76060479696937
 20
-1.563868069182831
 10
12.76062005575843
 20
-1.563835008473183
 10
12.76063192370548
 20
-1.563801100053044
 10
12.76063277141598
 20
-1.563799404632037
 10
12.76063446683699
 20
-1.563801100053044
 10
12.76063531454749
 20
-1.563799404632037
 10
12.80542155586694
 20
-1.4663050673382
 10
12.94269046998369
 20
-1.633727891773964
 10
12.82267500774411
 20
-1.611557718976655
 10
12.93090559856442
 20
-1.576497260263547
 10
12.79003561022892
 20
-1.519345465829953
 10
12.75827528850583
 20
-1.572566426658946
 10
12.75803030017032
 20
-1.573093702592106
 10
12.75778785496633
 20
-1.573622673946273
 10
12.75755388686737
 20
-1.57415418843195
 10
12.75728177179576
 20
-1.574773017099497
 10
12.75708934151147
 20
-1.575228237639849
 10
12.75683333293942
 20
-1.575878431596025
 10
12.75634844253143
 20
-1.577107611826047
 10
12.75589406970157
 20
-1.578360527950192
 10
12.75562958402449
 20
-1.579657525020492
 10
12.75556007176321
 20
-1.579995761511377
 10
12.75550073202796
 20
-1.580337388844289
 10
12.75544902168725
 20
-1.580679016177176
 10
12.7554354583192
 20
-1.580767178069537
 10
12.75542189495114
 20
-1.580856187672414
 10
12.75540917929359
 20
-1.580945197275266
 10
12.75540239760956
 20
-1.580995212194983
 10
12.75539476821503
 20
-1.581046074825192
 10
12.755387986531
 20
-1.5810969374554
 10
12.75539052966251
 20
-1.581079983245331
 10
12.75539815905704
 20
-1.581020643510075
 10
12.7553871388205
 20
-1.581102023718408
 10
12.75536509834741
 20
-1.581266479556095
 10
12.75534475329532
 20
-1.581431783104259
 10
12.75532525595374
 20
-1.581596238941933
 10
12.75524557116642
 20
-1.582267625660683
 10
12.75518029745765
 20
-1.58294070780044
 10
12.75510739435435
 20
-1.58361209451919
 10
12.75502940498803
 20
-1.584330105315631
 10
12.75494378622718
 20
-1.585047268401581
 10
12.7548268021777
 20
-1.585760192934988
 10
12.75471066583873
 20
-1.586469726626394
 10
12.75451654013343
 20
-1.587172478633773
 10
12.75436056140079
 20
-1.587874382930648
 10
12.7537527529698
 20
-1.5906184218304
 10
12.75320597969506
 20
-1.593388739755747
 10
12.75281009888994
 20
-1.596170925628131
 10
12.75276262710175
 20
-1.596502380434988
 10
12.75273210952362
 20
-1.596729566849919
 10
12.75268718086694
 20
-1.59710340718195
 10
12.75264564305227
 20
-1.597450968488386
 10
12.75260749607961
 20
-1.597798529794797
 10
12.75257443536998
 20
-1.598146938811724
 10
12.7525066185297
 20
-1.598843756845578
 10
12.7524574513205
 20
-1.599543118010956
 10
12.75243032458439
 20
-1.600243326886811
 10
12.7523853959277
 20
-1.601408081118595
 10
12.75244897421546
 20
-1.602573683060856
 10
12.75254391779185
 20
-1.603735046450613
 10
12.75312883803925
 20
-1.610109829436724
 10
12.75448941339732
 20
-1.617105984221881
 10
12.75688589099064
 20
-1.62487694640721
 10
12.77670451485131
 20
-1.644095391231442
 10
12.79467512981442
 20
-1.658243679534381
 10
12.81087402982527
 20
-1.66819410542415
 10
12.81087402982527
 20
-1.66819410542415
 10
12.90616601523109
 20
-1.66819410542415
 10
12.90616601523109
 20
-1.66819410542415
 10
12.96443933066077
 20
-1.595583462249224
 10
12.87860186050018
 20
-1.349099765417627
 10
12.67579220880748
 20
-1.538244323794363
 10
12.6723555904264
 20
-1.594909532398964
 10
12.66569173815861
 20
-1.637179768944103
 10
12.65711206015296
 20
-1.66819410542415
 10
12.65711206015296
 20
-1.66819410542415
 10
12.74810276246416
 20
-1.66819410542415
 10
12.74810276246416
 20
-1.66819410542415
 97
        0
 97
        1
330
BA
 75
     2
 76
     1
 98
        1
 10
0.0
 20
0.0
450
        0
451
        0
460
0.0
461
0.0
452
        0
462
0.0
453
        0
470

  0
SPLINE
  5
BC
330
7E
100
AcDbEntity
  8
Deck Box - DF
100
AcDbSpline
210
0.0
220
0.0
230
1.0
 70
     9
 71
     3
 72
    35
 73
    31
 74
     0
 42
0.0000000001
 43
0.0000000001
 40
0.0
 40
0.0
 40
0.0
 40
0.0
 40
1.0
 40
1.0
 40
1.0
 40
2.0
 40
2.0
 40
2.0
 40
3.0
 40
3.0
 40
3.0
 40
4.0
 40
4.0
 40
4.0
 40
5.0
 40
5.0
 40
5.0
 40
6.0
 40
6.0
 40
6.0
 40
7.0
 40
7.0
 40
7.0
 40
8.0
 40
8.0
 40
8.0
 40
9.0
 40
9.0
 40
9.0
 40
10.0
 40
10.0
 40
10.0
 40
10.0
 10
12.84390707929409
 20
-1.118914624527292
 30
0.0
 10
12.89766756007849
 20
-1.09680461266838
 30
0.0
 10
12.86467522214843
 20
-1.010476522376355
 30
0.0
 10
12.816474106993
 20
-1.058801535141242
 30
0.0
 10
12.81084923029635
 20
-1.077104646652603
 30
0.0
 10
12.80081100625911
 20
-1.046737603669776
 30
0.0
 10
12.81684278399739
 20
-1.045146073718001
 30
0.0
 10
12.89128547753433
 20
-1.002615822541555
 30
0.0
 10
12.90133986664023
 20
-1.116957787262069
 30
0.0
 10
12.83786786636402
 20
-1.13370711465873
 30
0.0
 10
12.7547433965684
 20
-1.147197114878395
 30
0.0
 10
12.7323581796532
 20
-1.046762681383433
 30
0.0
 10
12.65769541430437
 20
-1.029193545429734
 30
0.0
 10
12.2503076080189
 20
-1.030080055534439
 30
0.0
 10
12.65789903744988
 20
-1.4780093868858
 30
0.0
 10
12.66167230479126
 20
-1.140652090145067
 30
0.0
 10
12.59529314453642
 20
-1.023891806521267
 30
0.0
 10
12.47633043393431
 20
-1.227930031158797
 30
0.0
 10
12.60382489761405
 20
-1.173361701823902
 30
0.0
 10
12.61006121094268
 20
-1.156968891614294
 30
0.0
 10
12.61207220220293
 20
-1.177294249272917
 30
0.0
 10
12.61192955256201
 20
-1.186313694598879
 30
0.0
 10
12.46520631432018
 20
-1.244503556026706
 30
0.0
 10
12.54319653143271
 20
-0.9482232957355007
 30
0.0
 10
12.7325476229139
 20
-1.201863686802868
 30
0.0
 10
12.8126001624696
 20
-1.251246100071789
 30
0.0
 10
12.92553670563565
 20
-1.187161424734009
 30
0.0
 10
12.94305964005798
 20
-1.104238732837719
 30
0.0
 10
12.94305623688564
 20
-0.8039793891340423
 30
0.0
 10
12.5676673258022
 20
-1.103599638938994
 30
0.0
 10
12.84390707929409
 20
-1.118914624527292
 30
0.0
  0
HATCH
  5
BD
330
7E
100
AcDbEntity
  8
Deck Box - DF
 62
   250
420
  2301728
440
 33554687
100
AcDbHatch
 10
0.0
 20
0.0
 30
0.0
210
0.0
220
0.0
230
1.0
  2
SOLID
 70
     1
 71
     1
 91
        1
 92
        1
 93
        1
 72
     4
 94
        3
 73
     0
 74
     0
 95
       35
 96
       31
 40
0.0
 40
0.0
 40
0.0
 40
0.0
 40
1.0
 40
1.0
 40
1.0
 40
2.0
 40
2.0
 40
2.0
 40
3.0
 40
3.0
 40
3.0
 40
4.0
 40
4.0
 40
4.0
 40
5.0
 40
5.0
 40
5.0
 40
6.0
 40
6.0
 40
6.0
 40
7.0
 40
7.0
 40
7.0
 40
8.0
 40
8.0
 40
8.0
 40
9.0
 40
9.0
 40
9.0
 40
10.0
 40
10.0
 40
10.0
 40
10.0
 10
12.84390707929409
 20
-1.118914624527292
 10
12.89766756007849
 20
-1.09680461266838
 10
12.86467522214843
 20
-1.010476522376355
 10
12.816474106993
 20
-1.058801535141242
 10
12.81084923029635
 20
-1.077104646652603
 10
12.80081100625911
 20
-1.046737603669776
 10
12.81684278399739
 20
-1.045146073718001
 10
12.89128547753433
 20
-1.002615822541555
 10
12.90133986664023
 20
-1.116957787262069
 10
12.83786786636402
 20
-1.13370711465873
 10
12.7547433965684
 20
-1.147197114878395
 10
12.7323581796532
 20
-1.046762681383433
 10
12.65769541430437
 20
-1.029193545429734
 10
12.2503076080189
 20
-1.030080055534439
 10
12.65789903744988
 20
-1.4780093868858
 10
12.66167230479126
 20
-1.140652090145067
 10
12.59529314453642
 20
-1.023891806521267
 10
12.47633043393431
 20
-1.227930031158797
 10
12.60382489761405
 20
-1.173361701823902
 10
12.61006121094268
 20
-1.156968891614294
 10
12.61207220220293
 20
-1.177294249272917
 10
12.61192955256201
 20
-1.186313694598879
 10
12.46520631432018
 20
-1.244503556026706
 10
12.54319653143271
 20
-0.9482232957355007
 10
12.7325476229139
 20
-1.201863686802868
 10
12.8126001624696
 20
-1.251246100071789
 10
12.92553670563565
 20
-1.187161424734009
 10
12.94305964005798
 20
-1.104238732837719
 10
12.94305623688564
 20
-0.8039793891340423
 10
12.5676673258022
 20
-1.103599638938994
 10
12.84390707929409
 20
-1.118914624527292
 97
        0
 97
        1
330
BC
 75
     2
 76
     1
 98
        1
 10
0.0
 20
0.0
450
        0
451
        0
460
0.0
461
0.0
452
        0
462
0.0
453
        0
470

  0
SPLINE
  5
BE
330
7E
100
AcDbEntity
  8
Deck Box - DF
100
AcDbSpline
210
0.0
220
0.0
230
1.0
 70
     9
 71
     3
 72
    29
 73
    25
 74
     0
 42
0.0000000001
 43
0.0000000001
 40
0.0
 40
0.0
 40
0.0
 40
0.0
 40
1.0
 40
1.0
 40
1.0
 40
2.0
 40
2.0
 40
2.0
 40
3.0
 40
3.0
 40
3.0
 40
4.0
 40
4.0
 40
4.0
 40
5.0
 40
5.0
 40
5.0
 40
6.0
 40
6.0
 40
6.0
 40
7.0
 40
7.0
 40
7.0
 40
8.0
 40
8.0
 40
8.0
 40
8.0
 10
12.59150456291948
 20
-1.31924755233759
 30
0.0
 10
12.60589175762038
 20
-1.695113617408853
 30
0.0
 10
12.3818634742989
 20
-1.419375624072826
 30
0.0
 10
12.51510135851213
 20
-1.449266449029171
 30
0.0
 10
12.44705294222025
 20
-1.456864996269549
 30
0.0
 10
12.49391434186122
 20
-1.528494961022791
 30
0.0
 10
12.54493101493964
 20
-1.502347954330161
 30
0.0
 10
12.70618806789101
 20
-1.296259820500406
 30
0.0
 10
12.23631036014954
 20
-1.398026475217168
 30
0.0
 10
12.47126481189356
 20
-1.565095754849784
 30
0.0
 10
12.5471416589777
 20
-1.598702735024845
 30
0.0
 10
12.66811592803545
 20
-1.553587669609024
 30
0.0
 10
12.67965012991756
 20
-1.468854470199428
 30
0.0
 10
12.60040442580614
 20
-1.192160938412838
 30
0.0
 10
12.88065510150843
 20
-1.301801736687164
 30
0.0
 10
12.7431779989398
 20
-1.373946182370243
 30
0.0
 10
12.73600666400843
 20
-1.369022935964936
 30
0.0
 10
12.72136309699059
 20
-1.356275184363122
 30
0.0
 10
12.73810188378431
 20
-1.360936278174032
 30
0.0
 10
12.86075930516613
 20
-1.300114808010246
 30
0.0
 10
12.62649030905264
 20
-1.271667890588105
 30
0.0
 10
12.6762619882469
 20
-1.384085593217807
 30
0.0
 10
12.95101483902029
 20
-1.566759674078083
 30
0.0
 10
12.83636026101365
 20
-1.028488784115817
 30
0.0
 10
12.59150456291948
 20
-1.31924755233759
 30
0.0
  0
HATCH
  5
BF
330
7E
100
AcDbEntity
  8
Deck Box - DF
 62
   250
420
  2301728
440
 33554687
100
AcDbHatch
 10
0.0
 20
0.0
 30
0.0
210
0.0
220
0.0
230
1.0
  2
SOLID
 70
     1
 71
     1
 91
        1
 92
        1
 93
        1
 72
     4
 94
        3
 73
     0
 74
     0
 95
       29
 96
       25
 40
0.0
 40
0.0
 40
0.0
 40
0.0
 40
1.0
 40
1.0
 40
1.0
 40
2.0
 40
2.0
 40
2.0
 40
3.0
 40
3.0
 40
3.0
 40
4.0
 40
4.0
 40
4.0
 40
5.0
 40
5.0
 40
5.0
 40
6.0
 40
6.0
 40
6.0
 40
7.0
 40
7.0
 40
7.0
 40
8.0
 40
8.0
 40
8.0
 40
8.0
 10
12.59150456291948
 20
-1.31924755233759
 10
12.60589175762038
 20
-1.695113617408853
 10
12.3818634742989
 20
-1.419375624072826
 10
12.51510135851213
 20
-1.449266449029171
 10
12.44705294222025
 20
-1.456864996269549
 10
12.49391434186122
 20
-1.528494961022791
 10
12.54493101493964
 20
-1.502347954330161
 10
12.70618806789101
 20
-1.296259820500406
 10
12.23631036014954
 20
-1.398026475217168
 10
12.47126481189356
 20
-1.565095754849784
 10
12.5471416589777
 20
-1.598702735024845
 10
12.66811592803545
 20
-1.553587669609024
 10
12.67965012991756
 20
-1.468854470199428
 10
12.60040442580614
 20
-1.192160938412838
 10
12.88065510150843
 20
-1.301801736687164
 10
12.7431779989398
 20
-1.373946182370243
 10
12.73600666400843
 20
-1.369022935964936
 10
12.72136309699059
 20
-1.356275184363122
 10
12.73810188378431
 20
-1.360936278174032
 10
12.86075930516613
 20
-1.300114808010246
 10
12.62649030905264
 20
-1.271667890588105
 10
12.6762619882469
 20
-1.384085593217807
 10
12.95101483902029
 20
-1.566759674078083
 10
12.83636026101365
 20
-1.028488784115817
 10
12.59150456291948
 20
-1.31924755233759
 97
        0
 97
        1
330
BE
 75
     2
 76
     1
 98
        1
 10
0.0
 20
0.0
450
        0
451
        0
460
0.0
461
0.0
452
        0
462
0.0
453
        0
470

  0
SPLINE
  5
C0
330
7E
100
AcDbEntity
  8
Deck Box - DF
100
AcDbSpline
210
0.0
220
0.0
230
1.0
 70
     9
 71
     3
 72
    29
 73
    25
 74
     0
 42
0.0000000001
 43
0.0000000001
 40
0.0
 40
0.0
 40
0.0
 40
0.0
 40
1.0
 40
1.0
 40
1.0
 40
2.0
 40
2.0
 40
2.0
 40
3.0
 40
3.0
 40
3.0
 40
4.0
 40
4.0
 40
4.0
 40
5.0
 40
5.0
 40
5.0
 40
6.0
 40
6.0
 40
6.0
 40
7.0
 40
7.0
 40
7.0
 40
8.0
 40
8.0
 40
8.0
 40
8.0
 10
12.54083019225974
 20
-0.8365044081576924
 30
0.0
 10
12.50310205640903
 20
-1.149467035764738
 30
0.0
 10
12.28154986456879
 20
-0.9240251117810329
 30
0.0
 10
12.44195499004225
 20
-0.9054355455610144
 30
0.0
 10
12.44658443882698
 20
-0.9136266507366473
 30
0.0
 10
12.45490349363285
 20
-0.9331040197270112
 30
0.0
 10
12.44125195135461
 20
-0.9209630453826395
 30
0.0
 10
12.301523083082
 20
-0.9290054940082148
 30
0.0
 10
12.50795639816647
 20
-1.061355842471218
 30
0.0
 10
12.50855847607446
 20
-0.9245840604093018
 30
0.0
 10
12.34202678958058
 20
-0.6185645985566705
 30
0.0
 10
12.19637640142165
 20
-1.210428372352175
 30
0.0
 10
12.56048493056068
 20
-1.028186558886204
 30
0.0
 10
12.71193517519451
 20
-0.6371722620958355
 30
0.0
 10
12.78812880090476
 20
-1.019273112143751
 30
0.0
 10
12.68597152255486
 20
-0.9290709028902281
 30
0.0
 10
12.75258408371332
 20
-0.9513081130493723
 30
0.0
 10
12.73885029810329
 20
-0.8574807522390603
 30
0.0
 10
12.68037784160469
 20
-0.8616940666678626
 30
0.0
 10
12.44396172733708
 20
-1.001096423333251
 30
0.0
 10
12.92438983655423
 20
-1.104328702367171
 30
0.0
 10
12.77525573430122
 20
-0.8300824451945093
 30
0.0
 10
12.71858951152661
 20
-0.7622997119571488
 30
0.0
 10
12.58699394156926
 20
-0.7550411357834844
 30
0.0
 10
12.54083019225974
 20
-0.8365044081576924
 30
0.0
  0
HATCH
  5
C1
330
7E
100
AcDbEntity
  8
Deck Box - DF
 62
   250
420
  2301728
440
 33554687
100
AcDbHatch
 10
0.0
 20
0.0
 30
0.0
210
0.0
220
0.0
230
1.0
  2
SOLID
 70
     1
 71
     1
 91
        1
 92
        1
 93
        1
 72
     4
 94
        3
 73
     0
 74
     0
 95
       29
 96
       25
 40
0.0
 40
0.0
 40
0.0
 40
0.0
 40
1.0
 40
1.0
 40
1.0
 40
2.0
 40
2.0
 40
2.0
 40
3.0
 40
3.0
 40
3.0
 40
4.0
 40
4.0
 40
4.0
 40
5.0
 40
5.0
 40
5.0
 40
6.0
 40
6.0
 40
6.0
 40
7.0
 40
7.0
 40
7.0
 40
8.0
 40
8.0
 40
8.0
 40
8.0
 10
12.54083019225974
 20
-0.8365044081576924
 10
12.50310205640903
 20
-1.149467035764738
 10
12.28154986456879
 20
-0.9240251117810329
 10
12.44195499004225
 20
-0.9054355455610144
 10
12.44658443882698
 20
-0.9136266507366473
 10
12.45490349363285
 20
-0.9331040197270112
 10
12.44125195135461
 20
-0.9209630453826395
 10
12.301523083082
 20
-0.9290054940082148
 10
12.50795639816647
 20
-1.061355842471218
 10
12.50855847607446
 20
-0.9245840604093018
 10
12.34202678958058
 20
-0.6185645985566705
 10
12.19637640142165
 20
-1.210428372352175
 10
12.56048493056068
 20
-1.028186558886204
 10
12.71193517519451
 20
-0.6371722620958355
 10
12.78812880090476
 20
-1.019273112143751
 10
12.68597152255486
 20
-0.9290709028902281
 10
12.75258408371332
 20
-0.9513081130493723
 10
12.73885029810329
 20
-0.8574807522390603
 10
12.68037784160469
 20
-0.8616940666678626
 10
12.44396172733708
 20
-1.001096423333251
 10
12.92438983655423
 20
-1.104328702367171
 10
12.77525573430122
 20
-0.8300824451945093
 10
12.71858951152661
 20
-0.7622997119571488
 10
12.58699394156926
 20
-0.7550411357834844
 10
12.54083019225974
 20
-0.8365044081576924
 97
        0
 97
        1
330
C0
 75
     2
 76
     1
 98
        1
 10
0.0
 20
0.0
450
        0
451
        0
460
0.0
461
0.0
452
        0
462
0.0
453
        0
470

  0
SPLINE
  5
C2
330
7E
100
AcDbEntity
  8
Deck Box - DF
100
AcDbSpline
210
0.0
220
0.0
230
1.0
 70
     9
 71
     3
 72
    41
 73
    37
 74
     0
 42
0.0000000001
 43
0.0000000001
 40
0.0
 40
0.0
 40
0.0
 40
0.0
 40
1.0
 40
1.0
 40
1.0
 40
2.0
 40
2.0
 40
2.0
 40
3.0
 40
3.0
 40
3.0
 40
4.0
 40
4.0
 40
4.0
 40
5.0
 40
5.0
 40
5.0
 40
6.0
 40
6.0
 40
6.0
 40
7.0
 40
7.0
 40
7.0
 40
8.0
 40
8.0
 40
8.0
 40
9.0
 40
9.0
 40
9.0
 40
10.0
 40
10.0
 40
10.0
 40
11.0
 40
11.0
 40
11.0
 40
12.0
 40
12.0
 40
12.0
 40
12.0
 10
11.77725499070357
 20
-1.014877267582947
 30
0.0
 10
11.796034083346
 20
-0.9678714748910881
 30
0.0
 10
11.69978080168696
 20
-0.9363829192298377
 30
0.0
 10
11.70711790531226
 20
-0.9957421242745693
 30
0.0
 10
11.7187146757975
 20
-1.010317809752185
 30
0.0
 10
11.68595067322626
 20
-0.9982604407953834
 30
0.0
 10
11.69579315748185
 20
-0.9872637085170859
 30
0.0
 10
11.71169088913666
 20
-0.9149782026301206
 30
0.0
 10
11.81569104103174
 20
-0.9777446890928002
 30
0.0
 10
11.78558546793056
 20
-1.027591830620192
 30
0.0
 10
11.73899537969823
 20
-1.087772389147365
 30
0.0
 10
11.63818297524181
 20
-1.041124130068295
 30
0.0
 10
11.57115740164055
 20
-1.077248936772005
 30
0.0
 10
11.41231060976345
 20
-1.160563450345105
 30
0.0
 10
11.56908431178984
 20
-1.368896756208199
 30
0.0
 10
11.71408509277949
 20
-1.265786288174758
 30
0.0
 10
11.7572890476243
 20
-1.21294671551483
 30
0.0
 10
11.73763295625273
 20
-1.155546850315305
 30
0.0
 10
11.66844968278181
 20
-1.142110264145672
 30
0.0
 10
11.52309573437504
 20
-1.113108027833618
 30
0.0
 10
11.61310231319945
 20
-1.310809090938025
 30
0.0
 10
11.65582690752717
 20
-1.19804438065095
 30
0.0
 10
11.64627694869558
 20
-1.184239687890074
 30
0.0
 10
11.66492003001056
 20
-1.195256731416407
 30
0.0
 10
11.67247024692602
 20
-1.200793633279557
 30
0.0
 10
11.67398369781156
 20
-1.264147754754061
 30
0.0
 10
11.5537632566125
 20
-1.242433639417122
 30
0.0
 10
11.57048543060242
 20
-1.182975660494851
 30
0.0
 10
11.59392471603077
 20
-1.09751260640985
 30
0.0
 10
11.70188969919071
 20
-1.155214914439802
 30
0.0
 10
11.76985637877093
 20
-1.134660209658793
 30
0.0
 10
11.86763783865677
 20
-1.114399600619978
 30
0.0
 10
11.89212767442324
 20
-1.00499987983705
 30
0.0
 10
11.83402889098134
 20
-0.9439478852980931
 30
0.0
 10
11.57935764296801
 20
-0.7625993245203896
 30
0.0
 10
11.57141469695423
 20
-1.178542800169048
 30
0.0
 10
11.77725499070357
 20
-1.014877267582947
 30
0.0
  0
HATCH
  5
C3
330
7E
100
AcDbEntity
  8
Deck Box - DF
 62
   250
420
  2301728
440
 33554687
100
AcDbHatch
 10
0.0
 20
0.0
 30
0.0
210
0.0
220
0.0
230
1.0
  2
SOLID
 70
     1
 71
     1
 91
        1
 92
        1
 93
        1
 72
     4
 94
        3
 73
     0
 74
     0
 95
       41
 96
       37
 40
0.0
 40
0.0
 40
0.0
 40
0.0
 40
1.0
 40
1.0
 40
1.0
 40
2.0
 40
2.0
 40
2.0
 40
3.0
 40
3.0
 40
3.0
 40
4.0
 40
4.0
 40
4.0
 40
5.0
 40
5.0
 40
5.0
 40
6.0
 40
6.0
 40
6.0
 40
7.0
 40
7.0
 40
7.0
 40
8.0
 40
8.0
 40
8.0
 40
9.0
 40
9.0
 40
9.0
 40
10.0
 40
10.0
 40
10.0
 40
11.0
 40
11.0
 40
11.0
 40
12.0
 40
12.0
 40
12.0
 40
12.0
 10
11.77725499070357
 20
-1.014877267582947
 10
11.796034083346
 20
-0.9678714748910881
 10
11.69978080168696
 20
-0.9363829192298377
 10
11.70711790531226
 20
-0.9957421242745693
 10
11.7187146757975
 20
-1.010317809752185
 10
11.68595067322626
 20
-0.9982604407953834
 10
11.69579315748185
 20
-0.9872637085170859
 10
11.71169088913666
 20
-0.9149782026301206
 10
11.81569104103174
 20
-0.9777446890928002
 10
11.78558546793056
 20
-1.027591830620192
 10
11.73899537969823
 20
-1.087772389147365
 10
11.63818297524181
 20
-1.041124130068295
 10
11.57115740164055
 20
-1.077248936772005
 10
11.41231060976345
 20
-1.160563450345105
 10
11.56908431178984
 20
-1.368896756208199
 10
11.71408509277949
 20
-1.265786288174758
 10
11.7572890476243
 20
-1.21294671551483
 10
11.73763295625273
 20
-1.155546850315305
 10
11.66844968278181
 20
-1.142110264145672
 10
11.52309573437504
 20
-1.113108027833618
 10
11.61310231319945
 20
-1.310809090938025
 10
11.65582690752717
 20
-1.19804438065095
 10
11.64627694869558
 20
-1.184239687890074
 10
11.66492003001056
 20
-1.195256731416407
 10
11.67247024692602
 20
-1.200793633279557
 10
11.67398369781156
 20
-1.264147754754061
 10
11.5537632566125
 20
-1.242433639417122
 10
11.57048543060242
 20
-1.182975660494851
 10
11.59392471603077
 20
-1.09751260640985
 10
11.70188969919071
 20
-1.155214914439802
 10
11.76985637877093
 20
-1.134660209658793
 10
11.86763783865677
 20
-1.114399600619978
 10
11.89212767442324
 20
-1.00499987983705
 10
11.83402889098134
 20
-0.9439478852980931
 10
11.57935764296801
 20
-0.7625993245203896
 10
11.57141469695423
 20
-1.178542800169048
 10
11.77725499070357
 20
-1.014877267582947
 97
        0
 97
        1
330
C2
 75
     2
 76
     1
 98
        1
 10
0.0
 20
0.0
450
        0
451
        0
460
0.0
461
0.0
452
        0
462
0.0
453
        0
470

  0
SPLINE
  5
C4
330
7E
100
AcDbEntity
  8
Deck Box - DF
100
AcDbSpline
210
0.0
220
0.0
230
1.0
 70
     9
 71
     3
 72
    26
 73
    22
 74
     0
 42
0.0000000001
 43
0.0000000001
 40
0.0
 40
0.0
 40
0.0
 40
0.0
 40
1.0
 40
1.0
 40
1.0
 40
2.0
 40
2.0
 40
2.0
 40
3.0
 40
3.0
 40
3.0
 40
4.0
 40
4.0
 40
4.0
 40
5.0
 40
5.0
 40
5.0
 40
6.0
 40
6.0
 40
6.0
 40
7.0
 40
7.0
 40
7.0
 40
7.0
 10
12.50837276882594
 20
-0.7371526082676306
 30
0.0
 10
12.52611534966362
 20
-0.7627695719720578
 30
0.0
 10
12.52320939805771
 20
-0.8017489963427173
 30
0.0
 10
12.47480767144096
 20
-0.787419297992023
 30
0.0
 10
12.47262905544703
 20
-0.7805926853075613
 30
0.0
 10
12.46926788330077
 20
-0.764974466991589
 30
0.0
 10
12.47713124593097
 20
-0.7766711765184988
 30
0.0
 10
12.52899502224391
 20
-0.7910729302619882
 30
0.0
 10
12.51649129231769
 20
-0.756777954133516
 30
0.0
 10
12.4913939751519
 20
-0.7371526082676306
 30
0.0
 10
12.4913939751519
 20
-0.7371526082676306
 30
0.0
 10
12.43940897623696
 20
-0.7371526082676306
 30
0.0
 10
12.43940897623696
 20
-0.7371526082676306
 30
0.0
 10
12.43604610866969
 20
-0.7423660278639848
 30
0.0
 10
12.4333147854275
 20
-0.7492104424690195
 30
0.0
 10
12.43170074462889
 20
-0.7585394965597314
 30
0.0
 10
12.5092654079861
 20
-0.9268659803921966
 30
0.0
 10
12.56181752522785
 20
-0.8207402547520056
 30
0.0
 10
12.54611368815103
 20
-0.7371526082676306
 30
0.0
 10
12.54611368815103
 20
-0.7371526082676306
 30
0.0
 10
12.50837276882594
 20
-0.7371526082676306
 30
0.0
 10
12.50837276882594
 20
-0.7371526082676306
 30
0.0
  0
HATCH
  5
C5
330
7E
100
AcDbEntity
  8
Deck Box - DF
 62
   250
420
  2301728
440
 33554687
100
AcDbHatch
 10
0.0
 20
0.0
 30
0.0
210
0.0
220
0.0
230
1.0
  2
SOLID
 70
     1
 71
     1
 91
        1
 92
        1
 93
        1
 72
     4
 94
        3
 73
     0
 74
     0
 95
       26
 96
       22
 40
0.0
 40
0.0
 40
0.0
 40
0.0
 40
1.0
 40
1.0
 40
1.0
 40
2.0
 40
2.0
 40
2.0
 40
3.0
 40
3.0
 40
3.0
 40
4.0
 40
4.0
 40
4.0
 40
5.0
 40
5.0
 40
5.0
 40
6.0
 40
6.0
 40
6.0
 40
7.0
 40
7.0
 40
7.0
 40
7.0
 10
12.50837276882594
 20
-0.7371526082676306
 10
12.52611534966362
 20
-0.7627695719720578
 10
12.52320939805771
 20
-0.8017489963427173
 10
12.47480767144096
 20
-0.787419297992023
 10
12.47262905544703
 20
-0.7805926853075613
 10
12.46926788330077
 20
-0.764974466991589
 10
12.47713124593097
 20
-0.7766711765184988
 10
12.52899502224391
 20
-0.7910729302619882
 10
12.51649129231769
 20
-0.756777954133516
 10
12.4913939751519
 20
-0.7371526082676306
 10
12.4913939751519
 20
-0.7371526082676306
 10
12.43940897623696
 20
-0.7371526082676306
 10
12.43940897623696
 20
-0.7371526082676306
 10
12.43604610866969
 20
-0.7423660278639848
 10
12.4333147854275
 20
-0.7492104424690195
 10
12.43170074462889
 20
-0.7585394965597314
 10
12.5092654079861
 20
-0.9268659803921966
 10
12.56181752522785
 20
-0.8207402547520056
 10
12.54611368815103
 20
-0.7371526082676306
 10
12.54611368815103
 20
-0.7371526082676306
 10
12.50837276882594
 20
-0.7371526082676306
 10
12.50837276882594
 20
-0.7371526082676306
 97
        0
 97
        1
330
C4
 75
     2
 76
     1
 98
        1
 10
0.0
 20
0.0
450
        0
451
        0
460
0.0
461
0.0
452
        0
462
0.0
453
        0
470

  0
SPLINE
  5
C6
330
7E
100
AcDbEntity
  8
Deck Box - DF
100
AcDbSpline
210
0.0
220
0.0
230
1.0
 70
     9
 71
     3
 72
    32
 73
    28
 74
     0
 42
0.0000000001
 43
0.0000000001
 40
0.0
 40
0.0
 40
0.0
 40
0.0
 40
1.0
 40
1.0
 40
1.0
 40
2.0
 40
2.0
 40
2.0
 40
3.0
 40
3.0
 40
3.0
 40
4.0
 40
4.0
 40
4.0
 40
5.0
 40
5.0
 40
5.0
 40
6.0
 40
6.0
 40
6.0
 40
7.0
 40
7.0
 40
7.0
 40
8.0
 40
8.0
 40
8.0
 40
9.0
 40
9.0
 40
9.0
 40
9.0
 10
12.28041324191622
 20
-0.7371526082676306
 30
0.0
 10
12.28424658881292
 20
-0.7483898587016585
 30
0.0
 10
12.29306532118054
 20
-0.7592592027771793
 30
0.0
 10
12.30718139648436
 20
-0.7629611545458425
 30
0.0
 10
12.31701822916665
 20
-0.76056552466303
 30
0.0
 10
12.32526221381292
 20
-0.7577189127923703
 30
0.0
 10
12.33222530788844
 20
-0.7545544094829085
 30
0.0
 10
12.32645748562282
 20
-0.7605290731113806
 30
0.0
 10
12.32057522243922
 20
-0.7668046739685856
 30
0.0
 10
12.31454206678601
 20
-0.7734820896044363
 30
0.0
 10
12.2953253173828
 20
-0.7711907281135507
 30
0.0
 10
12.28082862006292
 20
-0.75421786841303
 30
0.0
 10
12.27480055067273
 20
-0.7371526082676306
 30
0.0
 10
12.27480055067273
 20
-0.7371526082676306
 30
0.0
 10
12.23232092963323
 20
-0.7371526082676306
 30
0.0
 10
12.23232092963323
 20
-0.7371526082676306
 30
0.0
 10
12.23391377766926
 20
-0.7452194214186723
 30
0.0
 10
12.23591013590493
 20
-0.7537363688470578
 30
0.0
 10
12.23879235161674
 20
-0.7632120768548703
 30
0.0
 10
12.26937520345051
 20
-0.8239827474277868
 30
0.0
 10
12.35817966037325
 20
-0.8595577664165022
 30
0.0
 10
12.3992809041341
 20
-0.8129828559347313
 30
0.0
 10
12.41132432725693
 20
-0.7759523180115543
 30
0.0
 10
12.42451555040146
 20
-0.7520002577359466
 30
0.0
 10
12.43760080973306
 20
-0.7371526082676306
 30
0.0
 10
12.43760080973306
 20
-0.7371526082676306
 30
0.0
 10
12.28041324191622
 20
-0.7371526082676306
 30
0.0
 10
12.28041324191622
 20
-0.7371526082676306
 30
0.0
  0
HATCH
  5
C7
330
7E
100
AcDbEntity
  8
Deck Box - DF
 62
   250
420
  2301728
440
 33554687
100
AcDbHatch
 10
0.0
 20
0.0
 30
0.0
210
0.0
220
0.0
230
1.0
  2
SOLID
 70
     1
 71
     1
 91
        1
 92
        1
 93
        1
 72
     4
 94
        3
 73
     0
 74
     0
 95
       32
 96
       28
 40
0.0
 40
0.0
 40
0.0
 40
0.0
 40
1.0
 40
1.0
 40
1.0
 40
2.0
 40
2.0
 40
2.0
 40
3.0
 40
3.0
 40
3.0
 40
4.0
 40
4.0
 40
4.0
 40
5.0
 40
5.0
 40
5.0
 40
6.0
 40
6.0
 40
6.0
 40
7.0
 40
7.0
 40
7.0
 40
8.0
 40
8.0
 40
8.0
 40
9.0
 40
9.0
 40
9.0
 40
9.0
 10
12.28041324191622
 20
-0.7371526082676306
 10
12.28424658881292
 20
-0.7483898587016585
 10
12.29306532118054
 20
-0.7592592027771793
 10
12.30718139648436
 20
-0.7629611545458425
 10
12.31701822916665
 20
-0.76056552466303
 10
12.32526221381292
 20
-0.7577189127923703
 10
12.33222530788844
 20
-0.7545544094829085
 10
12.32645748562282
 20
-0.7605290731113806
 10
12.32057522243922
 20
-0.7668046739685856
 10
12.31454206678601
 20
-0.7734820896044363
 10
12.2953253173828
 20
-0.7711907281135507
 10
12.28082862006292
 20
-0.75421786841303
 10
12.27480055067273
 20
-0.7371526082676306
 10
12.27480055067273
 20
-0.7371526082676306
 10
12.23232092963323
 20
-0.7371526082676306
 10
12.23232092963323
 20
-0.7371526082676306
 10
12.23391377766926
 20
-0.7452194214186723
 10
12.23591013590493
 20
-0.7537363688470578
 10
12.23879235161674
 20
-0.7632120768548703
 10
12.26937520345051
 20
-0.8239827474277868
 10
12.35817966037325
 20
-0.8595577664165022
 10
12.3992809041341
 20
-0.8129828559347313
 10
12.41132432725693
 20
-0.7759523180115543
 10
12.42451555040146
 20
-0.7520002577359466
 10
12.43760080973306
 20
-0.7371526082676306
 10
12.43760080973306
 20
-0.7371526082676306
 10
12.28041324191622
 20
-0.7371526082676306
 10
12.28041324191622
 20
-0.7371526082676306
 97
        0
 97
        1
330
C6
 75
     2
 76
     1
 98
        1
 10
0.0
 20
0.0
450
        0
451
        0
460
0.0
461
0.0
452
        0
462
0.0
453
        0
470

  0
SPLINE
  5
C8
330
7E
100
AcDbEntity
  8
Deck Box - DF
100
AcDbSpline
210
0.0
220
0.0
230
1.0
 70
     9
 71
     3
 72
    14
 73
    10
 74
     0
 42
0.0000000001
 43
0.0000000001
 40
0.0
 40
0.0
 40
0.0
 40
0.0
 40
1.0
 40
1.0
 40
1.0
 40
2.0
 40
2.0
 40
2.0
 40
3.0
 40
3.0
 40
3.0
 40
3.0
 10
12.89992601182724
 20
-0.7371526082676306
 30
0.0
 10
12.89992601182724
 20
-0.7371526082676306
 30
0.0
 10
12.82962114122178
 20
-0.7371526082676306
 30
0.0
 10
12.82962114122178
 20
-0.7371526082676306
 30
0.0
 10
12.75178181966144
 20
-0.8420288086257034
 30
0.0
 10
12.81327897813584
 20
-0.9912801107090368
 30
0.0
 10
12.9965709431966
 20
-0.8951446533522659
 30
0.0
 10
13.02592461480033
 20
-0.736377800867457
 30
0.0
 10
12.85654273139104
 20
-0.9984831068570404
 30
0.0
 10
12.89992601182724
 20
-0.7371526082676306
 30
0.0
  0
HATCH
  5
C9
330
7E
100
AcDbEntity
  8
Deck Box - DF
 62
   250
420
  2301728
440
 33554687
100
AcDbHatch
 10
0.0
 20
0.0
 30
0.0
210
0.0
220
0.0
230
1.0
  2
SOLID
 70
     1
 71
     1
 91
        1
 92
        1
 93
        1
 72
     4
 94
        3
 73
     0
 74
     0
 95
       14
 96
       10
 40
0.0
 40
0.0
 40
0.0
 40
0.0
 40
1.0
 40
1.0
 40
1.0
 40
2.0
 40
2.0
 40
2.0
 40
3.0
 40
3.0
 40
3.0
 40
3.0
 10
12.89992601182724
 20
-0.7371526082676306
 10
12.89992601182724
 20
-0.7371526082676306
 10
12.82962114122178
 20
-0.7371526082676306
 10
12.82962114122178
 20
-0.7371526082676306
 10
12.75178181966144
 20
-0.8420288086257034
 10
12.81327897813584
 20
-0.9912801107090368
 10
12.9965709431966
 20
-0.8951446533522659
 10
13.02592461480033
 20
-0.736377800867457
 10
12.85654273139104
 20
-0.9984831068570404
 10
12.89992601182724
 20
-0.7371526082676306
 97
        0
 97
        1
330
C8
 75
     2
 76
     1
 98
        1
 10
0.0
 20
0.0
450
        0
451
        0
460
0.0
461
0.0
452
        0
462
0.0
453
        0
470

  0
SPLINE
  5
CA
330
7E
100
AcDbEntity
  8
Deck Box - DF
100
AcDbSpline
210
0.0
220
0.0
230
1.0
 70
     9
 71
     3
 72
    17
 73
    13
 74
     0
 42
0.0000000001
 43
0.0000000001
 40
0.0
 40
0.0
 40
0.0
 40
0.0
 40
1.0
 40
1.0
 40
1.0
 40
2.0
 40
2.0
 40
2.0
 40
3.0
 40
3.0
 40
3.0
 40
4.0
 40
4.0
 40
4.0
 40
4.0
 10
13.00246168348523
 20
-0.7371526082676306
 30
0.0
 10
13.00246168348523
 20
-0.7371526082676306
 30
0.0
 10
12.91480587429469
 20
-0.7371526082676306
 30
0.0
 10
12.91480587429469
 20
-0.7371526082676306
 30
0.0
 10
12.89614946153428
 20
-0.7556259155592973
 30
0.0
 10
12.89089026557073
 20
-0.7883856879659814
 30
0.0
 10
12.924891933865
 20
-0.8396636963210159
 30
0.0
 10
12.96777421739365
 20
-0.8579284668288284
 30
0.0
 10
13.03727884928384
 20
-0.7746663411777869
 30
0.0
 10
12.96424265543618
 20
-0.777822367382214
 30
0.0
 10
12.99326656765407
 20
-0.7613513522997488
 30
0.0
 10
13.00334245469834
 20
-0.7474412706482731
 30
0.0
 10
13.00246168348523
 20
-0.7371526082676306
 30
0.0
  0
HATCH
  5
CB
330
7E
100
AcDbEntity
  8
Deck Box - DF
 62
   250
420
  2301728
440
 33554687
100
AcDbHatch
 10
0.0
 20
0.0
 30
0.0
210
0.0
220
0.0
230
1.0
  2
SOLID
 70
     1
 71
     1
 91
        1
 92
        1
 93
        1
 72
     4
 94
        3
 73
     0
 74
     0
 95
       17
 96
       13
 40
0.0
 40
0.0
 40
0.0
 40
0.0
 40
1.0
 40
1.0
 40
1.0
 40
2.0
 40
2.0
 40
2.0
 40
3.0
 40
3.0
 40
3.0
 40
4.0
 40
4.0
 40
4.0
 40
4.0
 10
13.00246168348523
 20
-0.7371526082676306
 10
13.00246168348523
 20
-0.7371526082676306
 10
12.91480587429469
 20
-0.7371526082676306
 10
12.91480587429469
 20
-0.7371526082676306
 10
12.89614946153428
 20
-0.7556259155592973
 10
12.89089026557073
 20
-0.7883856879659814
 10
12.924891933865
 20
-0.8396636963210159
 10
12.96777421739365
 20
-0.8579284668288284
 10
13.03727884928384
 20
-0.7746663411777869
 10
12.96424265543618
 20
-0.777822367382214
 10
12.99326656765407
 20
-0.7613513522997488
 10
13.00334245469834
 20
-0.7474412706482731
 10
13.00246168348523
 20
-0.7371526082676306
 97
        0
 97
        1
330
CA
 75
     2
 76
     1
 98
        1
 10
0.0
 20
0.0
450
        0
451
        0
460
0.0
461
0.0
452
        0
462
0.0
453
        0
470

  0
SPLINE
  5
CC
330
7E
100
AcDbEntity
  8
Deck Box - DF
100
AcDbSpline
210
0.0
220
0.0
230
1.0
 70
     9
 71
     3
 72
    17
 73
    13
 74
     0
 42
0.0000000001
 43
0.0000000001
 40
0.0
 40
0.0
 40
0.0
 40
0.0
 40
1.0
 40
1.0
 40
1.0
 40
2.0
 40
2.0
 40
2.0
 40
3.0
 40
3.0
 40
3.0
 40
4.0
 40
4.0
 40
4.0
 40
4.0
 10
12.44302679206271
 20
-1.262177239085303
 30
0.0
 10
12.46255424425814
 20
-1.270222481008406
 30
0.0
 10
12.4770856499084
 20
-1.281652064546367
 30
0.0
 10
12.4824633810369
 20
-1.299769393140523
 30
0.0
 10
12.5011724494935
 20
-1.351990342204569
 30
0.0
 10
12.40453339305347
 20
-1.358685066522689
 30
0.0
 10
12.40043120609963
 20
-1.304952210725243
 30
0.0
 10
12.40614851473768
 20
-1.300982766132291
 30
0.0
 10
12.42049005413075
 20
-1.293438770654309
 30
0.0
 10
12.41383168875035
 20
-1.304244109683041
 30
0.0
 10
12.45101381606125
 20
-1.387867728530055
 30
0.0
 10
12.4969314117518
 20
-1.290420392836444
 30
0.0
 10
12.44302679206271
 20
-1.262177239085303
 30
0.0
  0
SPLINE
  5
CD
330
7E
100
AcDbEntity
  8
Deck Box - DF
100
AcDbSpline
210
0.0
220
0.0
230
1.0
 70
     9
 71
     3
 72
    26
 73
    22
 74
     0
 42
0.0000000001
 43
0.0000000001
 40
0.0
 40
0.0
 40
0.0
 40
0.0
 40
1.0
 40
1.0
 40
1.0
 40
2.0
 40
2.0
 40
2.0
 40
3.0
 40
3.0
 40
3.0
 40
4.0
 40
4.0
 40
4.0
 40
5.0
 40
5.0
 40
5.0
 40
6.0
 40
6.0
 40
6.0
 40
7.0
 40
7.0
 40
7.0
 40
7.0
 10
12.37182531135009
 20
-1.356151502425847
 30
0.0
 10
12.49928654570362
 20
-1.458043776981286
 30
0.0
 10
12.61013008925008
 20
-1.296214168913757
 30
0.0
 10
12.47299759767219
 20
-1.209802385409678
 30
0.0
 10
12.14861626114892
 20
-1.154023981071607
 30
0.0
 10
12.33871868309357
 20
-1.036698666601131
 30
0.0
 10
12.36332589831856
 20
-1.121051777149849
 30
0.0
 10
12.37231272781499
 20
-1.131383271808203
 30
0.0
 10
12.34649331798136
 20
-1.138429566999181
 30
0.0
 10
12.35476304722788
 20
-1.127168977887814
 30
0.0
 10
12.35576776580044
 20
-1.077404142617713
 30
0.0
 10
12.27958386513468
 20
-1.094758153507364
 30
0.0
 10
12.29892822508612
 20
-1.136574145221162
 30
0.0
 10
12.48132779194134
 20
-1.295924563852306
 30
0.0
 10
12.43975054704462
 20
-0.9413984979104775
 30
0.0
 10
12.24644567131718
 20
-1.07069116525017
 30
0.0
 10
12.17626280596336
 20
-1.246776928199349
 30
0.0
 10
12.33629838974186
 20
-1.22939844958306
 30
0.0
 10
12.42727194682394
 20
-1.256655283479643
 30
0.0
 10
12.35642017538569
 20
-1.243738500246422
 30
0.0
 10
12.32176354288233
 20
-1.29731856575942
 30
0.0
 10
12.37182531135009
 20
-1.356151502425847
 30
0.0
  0
HATCH
  5
CE
330
7E
100
AcDbEntity
  8
Deck Box - DF
 62
   250
420
  2301728
440
 33554687
100
AcDbHatch
 10
0.0
 20
0.0
 30
0.0
210
0.0
220
0.0
230
1.0
  2
SOLID
 70
     1
 71
     1
 91
        2
 92
        1
 93
        1
 72
     4
 94
        3
 73
     0
 74
     0
 95
       17
 96
       13
 40
0.0
 40
0.0
 40
0.0
 40
0.0
 40
1.0
 40
1.0
 40
1.0
 40
2.0
 40
2.0
 40
2.0
 40
3.0
 40
3.0
 40
3.0
 40
4.0
 40
4.0
 40
4.0
 40
4.0
 10
12.44302679206271
 20
-1.262177239085303
 10
12.46255424425814
 20
-1.270222481008406
 10
12.4770856499084
 20
-1.281652064546367
 10
12.4824633810369
 20
-1.299769393140523
 10
12.5011724494935
 20
-1.351990342204569
 10
12.40453339305347
 20
-1.358685066522689
 10
12.40043120609963
 20
-1.304952210725243
 10
12.40614851473768
 20
-1.300982766132291
 10
12.42049005413075
 20
-1.293438770654309
 10
12.41383168875035
 20
-1.304244109683041
 10
12.45101381606125
 20
-1.387867728530055
 10
12.4969314117518
 20
-1.290420392836444
 10
12.44302679206271
 20
-1.262177239085303
 97
        0
 97
        1
330
CC
 92
        1
 93
        1
 72
     4
 94
        3
 73
     0
 74
     0
 95
       26
 96
       22
 40
0.0
 40
0.0
 40
0.0
 40
0.0
 40
1.0
 40
1.0
 40
1.0
 40
2.0
 40
2.0
 40
2.0
 40
3.0
 40
3.0
 40
3.0
 40
4.0
 40
4.0
 40
4.0
 40
5.0
 40
5.0
 40
5.0
 40
6.0
 40
6.0
 40
6.0
 40
7.0
 40
7.0
 40
7.0
 40
7.0
 10
12.37182531135009
 20
-1.356151502425847
 10
12.49928654570362
 20
-1.458043776981286
 10
12.61013008925008
 20
-1.296214168913757
 10
12.47299759767219
 20
-1.209802385409678
 10
12.14861626114892
 20
-1.154023981071607
 10
12.33871868309357
 20
-1.036698666601131
 10
12.36332589831856
 20
-1.121051777149849
 10
12.37231272781499
 20
-1.131383271808203
 10
12.34649331798136
 20
-1.138429566999181
 10
12.35476304722788
 20
-1.127168977887814
 10
12.35576776580044
 20
-1.077404142617713
 10
12.27958386513468
 20
-1.094758153507364
 10
12.29892822508612
 20
-1.136574145221162
 10
12.48132779194134
 20
-1.295924563852306
 10
12.43975054704462
 20
-0.9413984979104775
 10
12.24644567131718
 20
-1.07069116525017
 10
12.17626280596336
 20
-1.246776928199349
 10
12.33629838974186
 20
-1.22939844958306
 10
12.42727194682394
 20
-1.256655283479643
 10
12.35642017538569
 20
-1.243738500246422
 10
12.32176354288233
 20
-1.29731856575942
 10
12.37182531135009
 20
-1.356151502425847
 97
        0
 97
        1
330
CD
 75
     2
 76
     1
 98
        1
 10
0.0
 20
0.0
450
        0
451
        0
460
0.0
461
0.0
452
        0
462
0.0
453
        0
470

  0
SPLINE
  5
CF
330
7E
100
AcDbEntity
  8
Deck Box - DF
100
AcDbSpline
210
0.0
220
0.0
230
1.0
 70
     9
 71
     3
 72
    17
 73
    13
 74
     0
 42
0.0000000001
 43
0.0000000001
 40
0.0
 40
0.0
 40
0.0
 40
0.0
 40
1.0
 40
1.0
 40
1.0
 40
2.0
 40
2.0
 40
2.0
 40
3.0
 40
3.0
 40
3.0
 40
4.0
 40
4.0
 40
4.0
 40
4.0
 10
11.73289737916338
 20
-1.66819410542415
 30
0.0
 10
11.73247606704315
 20
-1.667148878373356
 30
0.0
 10
11.73219971341902
 20
-1.666178249846881
 30
0.0
 10
11.73172838637909
 20
-1.665107591480995
 30
0.0
 10
11.7085604583192
 20
-1.611516181161997
 30
0.0
 10
11.64160319649194
 20
-1.608561910057384
 30
0.0
 10
11.58707845690861
 20
-1.656051500172414
 30
0.0
 10
11.58421404311737
 20
-1.660156114430214
 30
0.0
 10
11.58171414484263
 20
-1.664195454979259
 30
0.0
 10
11.57942278335175
 20
-1.66819410542415
 30
0.0
 10
11.57942278335175
 20
-1.66819410542415
 30
0.0
 10
11.73289737916338
 20
-1.66819410542415
 30
0.0
 10
11.73289737916338
 20
-1.66819410542415
 30
0.0
  0
HATCH
  5
D0
330
7E
100
AcDbEntity
  8
Deck Box - DF
 62
   250
420
  2301728
440
 33554687
100
AcDbHatch
 10
0.0
 20
0.0
 30
0.0
210
0.0
220
0.0
230
1.0
  2
SOLID
 70
     1
 71
     1
 91
        1
 92
        1
 93
        1
 72
     4
 94
        3
 73
     0
 74
     0
 95
       17
 96
       13
 40
0.0
 40
0.0
 40
0.0
 40
0.0
 40
1.0
 40
1.0
 40
1.0
 40
2.0
 40
2.0
 40
2.0
 40
3.0
 40
3.0
 40
3.0
 40
4.0
 40
4.0
 40
4.0
 40
4.0
 10
11.73289737916338
 20
-1.66819410542415
 10
11.73247606704315
 20
-1.667148878373356
 10
11.73219971341902
 20
-1.666178249846881
 10
11.73172838637909
 20
-1.665107591480995
 10
11.7085604583192
 20
-1.611516181161997
 10
11.64160319649194
 20
-1.608561910057384
 10
11.58707845690861
 20
-1.656051500172414
 10
11.58421404311737
 20
-1.660156114430214
 10
11.58171414484263
 20
-1.664195454979259
 10
11.57942278335175
 20
-1.66819410542415
 10
11.57942278335175
 20
-1.66819410542415
 10
11.73289737916338
 20
-1.66819410542415
 10
11.73289737916338
 20
-1.66819410542415
 97
        0
 97
        1
330
CF
 75
     2
 76
     1
 98
        1
 10
0.0
 20
0.0
450
        0
451
        0
460
0.0
461
0.0
452
        0
462
0.0
453
        0
470

  0
SPLINE
  5
D1
330
7E
100
AcDbEntity
  8
Deck Box - DF
100
AcDbSpline
210
0.0
220
0.0
230
1.0
 70
     9
 71
     3
 72
    20
 73
    16
 74
     0
 42
0.0000000001
 43
0.0000000001
 40
0.0
 40
0.0
 40
0.0
 40
0.0
 40
1.0
 40
1.0
 40
1.0
 40
2.0
 40
2.0
 40
2.0
 40
3.0
 40
3.0
 40
3.0
 40
4.0
 40
4.0
 40
4.0
 40
5.0
 40
5.0
 40
5.0
 40
5.0
 10
12.18552816393986
 20
-1.571484748056516
 30
0.0
 10
12.19747325264428
 20
-1.63433485249445
 30
0.0
 10
12.27115116334307
 20
-1.561662326452783
 30
0.0
 10
12.24038944459307
 20
-1.522363315222315
 30
0.0
 10
12.22796370403317
 20
-1.518180711598183
 30
0.0
 10
12.21661370810218
 20
-1.515452779198009
 30
0.0
 10
12.20628181248586
 20
-1.513981153763981
 30
0.0
 10
12.21828963176755
 20
-1.511588914723183
 30
0.0
 10
12.23071791545895
 20
-1.508960164451928
 30
0.0
 10
12.24370060181963
 20
-1.506016913583872
 30
0.0
 10
12.28513584351885
 20
-1.543357713551308
 30
0.0
 10
12.21439101116208
 20
-1.650799933603391
 30
0.0
 10
12.17833110176538
 20
-1.58483788390721
 30
0.0
 10
12.16641398750756
 20
-1.577964647145058
 30
0.0
 10
12.1910806677376
 20
-1.551879747242714
 30
0.0
 10
12.18552816393986
 20
-1.571484748056516
 30
0.0
  0
SPLINE
  5
D2
330
7E
100
AcDbEntity
  8
Deck Box - DF
100
AcDbSpline
210
0.0
220
0.0
230
1.0
 70
     9
 71
     3
 72
    59
 73
    55
 74
     0
 42
0.0000000001
 43
0.0000000001
 40
0.0
 40
0.0
 40
0.0
 40
0.0
 40
1.0
 40
1.0
 40
1.0
 40
2.0
 40
2.0
 40
2.0
 40
3.0
 40
3.0
 40
3.0
 40
4.0
 40
4.0
 40
4.0
 40
5.0
 40
5.0
 40
5.0
 40
6.0
 40
6.0
 40
6.0
 40
7.0
 40
7.0
 40
7.0
 40
8.0
 40
8.0
 40
8.0
 40
9.0
 40
9.0
 40
9.0
 40
10.0
 40
10.0
 40
10.0
 40
11.0
 40
11.0
 40
11.0
 40
12.0
 40
12.0
 40
12.0
 40
13.0
 40
13.0
 40
13.0
 40
14.0
 40
14.0
 40
14.0
 40
15.0
 40
15.0
 40
15.0
 40
16.0
 40
16.0
 40
16.0
 40
17.0
 40
17.0
 40
17.0
 40
18.0
 40
18.0
 40
18.0
 40
18.0
 10
11.74262400948022
 20
-1.66819410542415
 30
0.0
 10
11.74262400948022
 20
-1.66819410542415
 30
0.0
 10
11.82523424575409
 20
-1.66819410542415
 30
0.0
 10
11.82523424575409
 20
-1.66819410542415
 30
0.0
 10
11.82100925660479
 20
-1.62322391092544
 30
0.0
 10
11.80453654610131
 20
-1.578423258527436
 30
0.0
 10
11.84717045045244
 20
-1.542933858299571
 30
0.0
 10
11.89984379029619
 20
-1.506857842403317
 30
0.0
 10
11.98263543661781
 20
-1.577669643889849
 30
0.0
 10
11.90303118178925
 20
-1.607247111066511
 30
0.0
 10
11.89178291111868
 20
-1.617827385860335
 30
0.0
 10
11.87439467327145
 20
-1.593751559851233
 30
0.0
 10
11.89216353313473
 20
-1.59991271979047
 30
0.0
 10
11.95989899320418
 20
-1.592328253915891
 30
0.0
 10
11.9132494841981
 20
-1.520697564082992
 30
0.0
 10
11.86246399564558
 20
-1.546845194562592
 30
0.0
 10
11.71259640802623
 20
-1.739249199825192
 30
0.0
 10
12.11025825291555
 20
-1.663312140634641
 30
0.0
 10
11.97341149862952
 20
-1.516430189408525
 30
0.0
 10
12.00521335816729
 20
-1.531541476843408
 30
0.0
 10
12.05979913290687
 20
-1.536550598208426
 30
0.0
 10
12.14586972345591
 20
-1.524378323089081
 30
0.0
 10
12.09934567560435
 20
-1.556381937726655
 30
0.0
 10
12.11744599027449
 20
-1.644292060068247
 30
0.0
 10
12.16649960626841
 20
-1.66819410542415
 30
0.0
 10
12.16649960626841
 20
-1.66819410542415
 30
0.0
 10
12.22037584731659
 20
-1.66819410542415
 30
0.0
 10
12.22037584731659
 20
-1.66819410542415
 30
0.0
 10
12.24791033217987
 20
-1.656449924109033
 30
0.0
 10
12.27909166762909
 20
-1.626692742305648
 30
0.0
 10
12.3114428435731
 20
-1.569553663529606
 30
0.0
 10
12.34295139527666
 20
-1.483383043141164
 30
0.0
 10
12.2880053435731
 20
-1.383736368879011
 30
0.0
 10
12.19704939739255
 20
-1.404991014332558
 30
0.0
 10
11.90610921862735
 20
-1.588605109384641
 30
0.0
 10
12.00723006145505
 20
-1.274632636240122
 30
0.0
 10
12.09229187650496
 20
-1.379896240298269
 30
0.0
 10
12.08745738350366
 20
-1.388707343271372
 30
0.0
 10
12.07470357897892
 20
-1.407731662390283
 30
0.0
 10
12.07872003134437
 20
-1.389774610795231
 30
0.0
 10
12.00694014446286
 20
-1.294507208994016
 30
0.0
 10
11.98991981297414
 20
-1.531759338442801
 30
0.0
 10
12.1069013193218
 20
-1.440678778818247
 30
0.0
 10
12.23013638605357
 20
-1.13018446186945
 30
0.0
 10
11.88533098647675
 20
-1.382594502830821
 30
0.0
 10
11.94280575861216
 20
-1.489314473533946
 30
0.0
 10
11.94050846314775
 20
-1.487579210133339
 30
0.0
 10
11.93824677152449
 20
-1.485847337574745
 30
0.0
 10
11.93579688816946
 20
-1.484096815385075
 30
0.0
 10
11.86026333917857
 20
-1.450490180185422
 30
0.0
 10
11.73983758505531
 20
-1.495605333180214
 30
0.0
 10
11.72835534628577
 20
-1.58033823655478
 30
0.0
 10
11.738421060804
 20
-1.615645379024398
 30
0.0
 10
11.74260451213864
 20
-1.644587911033946
 30
0.0
 10
11.74262400948022
 20
-1.66819410542415
 30
0.0
  0
HATCH
  5
D3
330
7E
100
AcDbEntity
  8
Deck Box - DF
 62
   250
420
  2301728
440
 33554687
100
AcDbHatch
 10
0.0
 20
0.0
 30
0.0
210
0.0
220
0.0
230
1.0
  2
SOLID
 70
     1
 71
     1
 91
        2
 92
        1
 93
        1
 72
     4
 94
        3
 73
     0
 74
     0
 95
       20
 96
       16
 40
0.0
 40
0.0
 40
0.0
 40
0.0
 40
1.0
 40
1.0
 40
1.0
 40
2.0
 40
2.0
 40
2.0
 40
3.0
 40
3.0
 40
3.0
 40
4.0
 40
4.0
 40
4.0
 40
5.0
 40
5.0
 40
5.0
 40
5.0
 10
12.18552816393986
 20
-1.571484748056516
 10
12.19747325264428
 20
-1.63433485249445
 10
12.27115116334307
 20
-1.561662326452783
 10
12.24038944459307
 20
-1.522363315222315
 10
12.22796370403317
 20
-1.518180711598183
 10
12.21661370810218
 20
-1.515452779198009
 10
12.20628181248586
 20
-1.513981153763981
 10
12.21828963176755
 20
-1.511588914723183
 10
12.23071791545895
 20
-1.508960164451928
 10
12.24370060181963
 20
-1.506016913583872
 10
12.28513584351885
 20
-1.543357713551308
 10
12.21439101116208
 20
-1.650799933603391
 10
12.17833110176538
 20
-1.58483788390721
 10
12.16641398750756
 20
-1.577964647145058
 10
12.1910806677376
 20
-1.551879747242714
 10
12.18552816393986
 20
-1.571484748056516
 97
        0
 97
        1
330
D1
 92
        1
 93
        1
 72
     4
 94
        3
 73
     0
 74
     0
 95
       59
 96
       55
 40
0.0
 40
0.0
 40
0.0
 40
0.0
 40
1.0
 40
1.0
 40
1.0
 40
2.0
 40
2.0
 40
2.0
 40
3.0
 40
3.0
 40
3.0
 40
4.0
 40
4.0
 40
4.0
 40
5.0
 40
5.0
 40
5.0
 40
6.0
 40
6.0
 40
6.0
 40
7.0
 40
7.0
 40
7.0
 40
8.0
 40
8.0
 40
8.0
 40
9.0
 40
9.0
 40
9.0
 40
10.0
 40
10.0
 40
10.0
 40
11.0
 40
11.0
 40
11.0
 40
12.0
 40
12.0
 40
12.0
 40
13.0
 40
13.0
 40
13.0
 40
14.0
 40
14.0
 40
14.0
 40
15.0
 40
15.0
 40
15.0
 40
16.0
 40
16.0
 40
16.0
 40
17.0
 40
17.0
 40
17.0
 40
18.0
 40
18.0
 40
18.0
 40
18.0
 10
11.74262400948022
 20
-1.66819410542415
 10
11.74262400948022
 20
-1.66819410542415
 10
11.82523424575409
 20
-1.66819410542415
 10
11.82523424575409
 20
-1.66819410542415
 10
11.82100925660479
 20
-1.62322391092544
 10
11.80453654610131
 20
-1.578423258527436
 10
11.84717045045244
 20
-1.542933858299571
 10
11.89984379029619
 20
-1.506857842403317
 10
11.98263543661781
 20
-1.577669643889849
 10
11.90303118178925
 20
-1.607247111066511
 10
11.89178291111868
 20
-1.617827385860335
 10
11.87439467327145
 20
-1.593751559851233
 10
11.89216353313473
 20
-1.59991271979047
 10
11.95989899320418
 20
-1.592328253915891
 10
11.9132494841981
 20
-1.520697564082992
 10
11.86246399564558
 20
-1.546845194562592
 10
11.71259640802623
 20
-1.739249199825192
 10
12.11025825291555
 20
-1.663312140634641
 10
11.97341149862952
 20
-1.516430189408525
 10
12.00521335816729
 20
-1.531541476843408
 10
12.05979913290687
 20
-1.536550598208426
 10
12.14586972345591
 20
-1.524378323089081
 10
12.09934567560435
 20
-1.556381937726655
 10
12.11744599027449
 20
-1.644292060068247
 10
12.16649960626841
 20
-1.66819410542415
 10
12.16649960626841
 20
-1.66819410542415
 10
12.22037584731659
 20
-1.66819410542415
 10
12.22037584731659
 20
-1.66819410542415
 10
12.24791033217987
 20
-1.656449924109033
 10
12.27909166762909
 20
-1.626692742305648
 10
12.3114428435731
 20
-1.569553663529606
 10
12.34295139527666
 20
-1.483383043141164
 10
12.2880053435731
 20
-1.383736368879011
 10
12.19704939739255
 20
-1.404991014332558
 10
11.90610921862735
 20
-1.588605109384641
 10
12.00723006145505
 20
-1.274632636240122
 10
12.09229187650496
 20
-1.379896240298269
 10
12.08745738350366
 20
-1.388707343271372
 10
12.07470357897892
 20
-1.407731662390283
 10
12.07872003134437
 20
-1.389774610795231
 10
12.00694014446286
 20
-1.294507208994016
 10
11.98991981297414
 20
-1.531759338442801
 10
12.1069013193218
 20
-1.440678778818247
 10
12.23013638605357
 20
-1.13018446186945
 10
11.88533098647675
 20
-1.382594502830821
 10
11.94280575861216
 20
-1.489314473533946
 10
11.94050846314775
 20
-1.487579210133339
 10
11.93824677152449
 20
-1.485847337574745
 10
11.93579688816946
 20
-1.484096815385075
 10
11.86026333917857
 20
-1.450490180185422
 10
11.73983758505531
 20
-1.495605333180214
 10
11.72835534628577
 20
-1.58033823655478
 10
11.738421060804
 20
-1.615645379024398
 10
11.74260451213864
 20
-1.644587911033946
 10
11.74262400948022
 20
-1.66819410542415
 97
        0
 97
        1
330
D2
 75
     2
 76
     1
 98
        1
 10
0.0
 20
0.0
450
        0
451
        0
460
0.0
461
0.0
452
        0
462
0.0
453
        0
470

  0
SPLINE
  5
D4
330
7E
100
AcDbEntity
  8
Deck Box - DF
100
AcDbSpline
210
0.0
220
0.0
230
1.0
 70
     9
 71
     3
 72
    41
 73
    37
 74
     0
 42
0.0000000001
 43
0.0000000001
 40
0.0
 40
0.0
 40
0.0
 40
0.0
 40
1.0
 40
1.0
 40
1.0
 40
2.0
 40
2.0
 40
2.0
 40
3.0
 40
3.0
 40
3.0
 40
4.0
 40
4.0
 40
4.0
 40
5.0
 40
5.0
 40
5.0
 40
6.0
 40
6.0
 40
6.0
 40
7.0
 40
7.0
 40
7.0
 40
8.0
 40
8.0
 40
8.0
 40
9.0
 40
9.0
 40
9.0
 40
10.0
 40
10.0
 40
10.0
 40
11.0
 40
11.0
 40
11.0
 40
12.0
 40
12.0
 40
12.0
 40
12.0
 10
11.76987467764087
 20
-1.379624345516794
 30
0.0
 10
11.87196105656686
 20
-1.191198419567753
 30
0.0
 10
11.50668297053072
 20
-1.326685033437608
 30
0.0
 10
11.71896974205452
 20
-1.439666596825089
 30
0.0
 10
11.78475958629774
 20
-1.459281246907797
 30
0.0
 10
11.8762320378642
 20
-1.408715268967183
 30
0.0
 10
11.87401713986072
 20
-1.337200092923884
 30
0.0
 10
11.87818659318302
 20
-1.285465028166868
 30
0.0
 10
11.80510743736704
 20
-1.23156474844139
 30
0.0
 10
11.87568044034606
 20
-1.189191685408331
 30
0.0
 10
11.92469406289971
 20
-1.159435297679869
 30
0.0
 10
11.96854507300072
 20
-1.232768478697279
 30
0.0
 10
11.91234848801019
 20
-1.251589949135437
 30
0.0
 10
11.90591337269689
 20
-1.248290549323188
 30
0.0
 10
11.89236534357759
 20
-1.239312727831222
 30
0.0
 10
11.90650467389246
 20
-1.241357207827718
 30
0.0
 10
11.99719921697957
 20
-1.177584323445418
 30
0.0
 10
11.80431421461213
 20
-1.179474200629834
 30
0.0
 10
11.85975728052517
 20
-1.267278256564256
 30
0.0
 10
11.88582217754224
 20
-1.309184925829817
 30
0.0
 10
11.94049329052753
 20
-1.304319590845718
 30
0.0
 10
11.97822851632064
 20
-1.258984255202676
 30
0.0
 10
12.03939685251458
 20
-1.130063348716589
 30
0.0
 10
11.82341678819956
 20
-1.090779498060618
 30
0.0
 10
11.78255546500673
 20
-1.222732222568828
 30
0.0
 10
11.76445824525055
 20
-1.278713952528467
 30
0.0
 10
11.82631685823586
 20
-1.331306830212712
 30
0.0
 10
11.78280191140427
 20
-1.381196744016897
 30
0.0
 10
11.74501563802596
 20
-1.416865525908191
 30
0.0
 10
11.6682834602916
 20
-1.367193038466818
 30
0.0
 10
11.72878193872828
 20
-1.333971014123158
 30
0.0
 10
11.73646006274187
 20
-1.323968884367925
 30
0.0
 10
11.75382701843162
 20
-1.34203259420038
 30
0.0
 10
11.73858732905738
 20
-1.338865304817861
 30
0.0
 10
11.6847185139532
 20
-1.352554634081166
 30
0.0
 10
11.73226763800625
 20
-1.406853830427116
 30
0.0
 10
11.76987467764087
 20
-1.379624345516794
 30
0.0
  0
HATCH
  5
D5
330
7E
100
AcDbEntity
  8
Deck Box - DF
 62
   250
420
  2301728
440
 33554687
100
AcDbHatch
 10
0.0
 20
0.0
 30
0.0
210
0.0
220
0.0
230
1.0
  2
SOLID
 70
     1
 71
     1
 91
        1
 92
        1
 93
        1
 72
     4
 94
        3
 73
     0
 74
     0
 95
       41
 96
       37
 40
0.0
 40
0.0
 40
0.0
 40
0.0
 40
1.0
 40
1.0
 40
1.0
 40
2.0
 40
2.0
 40
2.0
 40
3.0
 40
3.0
 40
3.0
 40
4.0
 40
4.0
 40
4.0
 40
5.0
 40
5.0
 40
5.0
 40
6.0
 40
6.0
 40
6.0
 40
7.0
 40
7.0
 40
7.0
 40
8.0
 40
8.0
 40
8.0
 40
9.0
 40
9.0
 40
9.0
 40
10.0
 40
10.0
 40
10.0
 40
11.0
 40
11.0
 40
11.0
 40
12.0
 40
12.0
 40
12.0
 40
12.0
 10
11.76987467764087
 20
-1.379624345516794
 10
11.87196105656686
 20
-1.191198419567753
 10
11.50668297053072
 20
-1.326685033437608
 10
11.71896974205452
 20
-1.439666596825089
 10
11.78475958629774
 20
-1.459281246907797
 10
11.8762320378642
 20
-1.408715268967183
 10
11.87401713986072
 20
-1.337200092923884
 10
11.87818659318302
 20
-1.285465028166868
 10
11.80510743736704
 20
-1.23156474844139
 10
11.87568044034606
 20
-1.189191685408331
 10
11.92469406289971
 20
-1.159435297679869
 10
11.96854507300072
 20
-1.232768478697279
 10
11.91234848801019
 20
-1.251589949135437
 10
11.90591337269689
 20
-1.248290549323188
 10
11.89236534357759
 20
-1.239312727831222
 10
11.90650467389246
 20
-1.241357207827718
 10
11.99719921697957
 20
-1.177584323445418
 10
11.80431421461213
 20
-1.179474200629834
 10
11.85975728052517
 20
-1.267278256564256
 10
11.88582217754224
 20
-1.309184925829817
 10
11.94049329052753
 20
-1.304319590845718
 10
11.97822851632064
 20
-1.258984255202676
 10
12.03939685251458
 20
-1.130063348716589
 10
11.82341678819956
 20
-1.090779498060618
 10
11.78255546500673
 20
-1.222732222568828
 10
11.76445824525055
 20
-1.278713952528467
 10
11.82631685823586
 20
-1.331306830212712
 10
11.78280191140427
 20
-1.381196744016897
 10
11.74501563802596
 20
-1.416865525908191
 10
11.6682834602916
 20
-1.367193038466818
 10
11.72878193872828
 20
-1.333971014123158
 10
11.73646006274187
 20
-1.323968884367925
 10
11.75382701843162
 20
-1.34203259420038
 10
11.73858732905738
 20
-1.338865304817861
 10
11.6847185139532
 20
-1.352554634081166
 10
11.73226763800625
 20
-1.406853830427116
 10
11.76987467764087
 20
-1.379624345516794
 97
        0
 97
        1
330
D4
 75
     2
 76
     1
 98
        1
 10
0.0
 20
0.0
450
        0
451
        0
460
0.0
461
0.0
452
        0
462
0.0
453
        0
470

  0
SPLINE
  5
D6
330
7E
100
AcDbEntity
  8
Deck Box - DF
100
AcDbSpline
210
0.0
220
0.0
230
1.0
 70
     9
 71
     3
 72
    26
 73
    22
 74
     0
 42
0.0000000001
 43
0.0000000001
 40
0.0
 40
0.0
 40
0.0
 40
0.0
 40
1.0
 40
1.0
 40
1.0
 40
2.0
 40
2.0
 40
2.0
 40
3.0
 40
3.0
 40
3.0
 40
4.0
 40
4.0
 40
4.0
 40
5.0
 40
5.0
 40
5.0
 40
6.0
 40
6.0
 40
6.0
 40
7.0
 40
7.0
 40
7.0
 40
7.0
 10
13.15004893623803
 20
-0.8388526408516554
 30
0.0
 10
13.10211005955618
 20
-0.8896288045886345
 30
0.0
 10
13.02996989571069
 20
-0.7869642809341207
 30
0.0
 10
13.11331679241208
 20
-0.7933416070517422
 30
0.0
 10
13.05295641372284
 20
-0.8048916626615511
 30
0.0
 10
13.09245039836911
 20
-0.8653122287965338
 30
0.0
 10
13.13825643542423
 20
-0.8384618463095673
 30
0.0
 10
13.14269504762041
 20
-0.8326279026246588
 30
0.0
 10
13.14659519850013
 20
-0.8270974393000061
 30
0.0
 10
13.15004893623803
 20
-0.8218263753894284
 30
0.0
 10
13.15004893623803
 20
-0.8218263753894284
 30
0.0
 10
13.15004893623803
 20
-0.7406224908408174
 30
0.0
 10
13.15004893623803
 20
-0.7406224908408174
 30
0.0
 10
13.09019718385088
 20
-0.7193907335708395
 30
0.0
 10
12.92972134699107
 20
-0.8073474799901228
 30
0.0
 10
13.07144074125105
 20
-0.8994656372709261
 30
0.0
 10
13.09450355320852
 20
-0.9080232748034783
 30
0.0
 10
13.12263058771373
 20
-0.9075994195517422
 30
0.0
 10
13.15004893623803
 20
-0.9002633328547062
 30
0.0
 10
13.15004893623803
 20
-0.9002633328547062
 30
0.0
 10
13.15004893623803
 20
-0.8388526408516554
 30
0.0
 10
13.15004893623803
 20
-0.8388526408516554
 30
0.0
  0
HATCH
  5
D7
330
7E
100
AcDbEntity
  8
Deck Box - DF
 62
   250
420
  2301728
440
 33554687
100
AcDbHatch
 10
0.0
 20
0.0
 30
0.0
210
0.0
220
0.0
230
1.0
  2
SOLID
 70
     1
 71
     1
 91
        1
 92
        1
 93
        1
 72
     4
 94
        3
 73
     0
 74
     0
 95
       26
 96
       22
 40
0.0
 40
0.0
 40
0.0
 40
0.0
 40
1.0
 40
1.0
 40
1.0
 40
2.0
 40
2.0
 40
2.0
 40
3.0
 40
3.0
 40
3.0
 40
4.0
 40
4.0
 40
4.0
 40
5.0
 40
5.0
 40
5.0
 40
6.0
 40
6.0
 40
6.0
 40
7.0
 40
7.0
 40
7.0
 40
7.0
 10
13.15004893623803
 20
-0.8388526408516554
 10
13.10211005955618
 20
-0.8896288045886345
 10
13.02996989571069
 20
-0.7869642809341207
 10
13.11331679241208
 20
-0.7933416070517422
 10
13.05295641372284
 20
-0.8048916626615511
 10
13.09245039836911
 20
-0.8653122287965338
 10
13.13825643542423
 20
-0.8384618463095673
 10
13.14269504762041
 20
-0.8326279026246588
 10
13.14659519850013
 20
-0.8270974393000061
 10
13.15004893623803
 20
-0.8218263753894284
 10
13.15004893623803
 20
-0.8218263753894284
 10
13.15004893623803
 20
-0.7406224908408174
 10
13.15004893623803
 20
-0.7406224908408174
 10
13.09019718385088
 20
-0.7193907335708395
 10
12.92972134699107
 20
-0.8073474799901228
 10
13.07144074125105
 20
-0.8994656372709261
 10
13.09450355320852
 20
-0.9080232748034783
 10
13.12263058771373
 20
-0.9075994195517422
 10
13.15004893623803
 20
-0.9002633328547062
 10
13.15004893623803
 20
-0.9002633328547062
 10
13.15004893623803
 20
-0.8388526408516554
 10
13.15004893623803
 20
-0.8388526408516554
 97
        0
 97
        1
330
D6
 75
     2
 76
     1
 98
        1
 10
0.0
 20
0.0
450
        0
451
        0
460
0.0
461
0.0
452
        0
462
0.0
453
        0
470

  0
SPLINE
  5
D8
330
7E
100
AcDbEntity
  8
Deck Box - DF
100
AcDbSpline
210
0.0
220
0.0
230
1.0
 70
     9
 71
     3
 72
    14
 73
    10
 74
     0
 42
0.0000000001
 43
0.0000000001
 40
0.0
 40
0.0
 40
0.0
 40
0.0
 40
1.0
 40
1.0
 40
1.0
 40
2.0
 40
2.0
 40
2.0
 40
3.0
 40
3.0
 40
3.0
 40
3.0
 10
13.01306689972221
 20
-1.498774095818538
 30
0.0
 10
13.04587618213504
 20
-1.595069243872229
 30
0.0
 10
13.08298187097681
 20
-1.484493738218942
 30
0.0
 10
13.04328107266241
 20
-1.44857814201978
 30
0.0
 10
13.12475138375829
 20
-1.4890942132749
 30
0.0
 10
13.02607797423838
 20
-1.607987758417531
 30
0.0
 10
13.00126925174224
 20
-1.500701692159559
 30
0.0
 10
13.00624786501394
 20
-1.495356652490954
 30
0.0
 10
13.01874777374966
 20
-1.484924839718928
 30
0.0
 10
13.01306689972221
 20
-1.498774095818538
 30
0.0
  0
SPLINE
  5
D9
330
7E
100
AcDbEntity
  8
Deck Box - DF
100
AcDbSpline
210
0.0
220
0.0
230
1.0
 70
     9
 71
     3
 72
    26
 73
    22
 74
     0
 42
0.0000000001
 43
0.0000000001
 40
0.0
 40
0.0
 40
0.0
 40
0.0
 40
1.0
 40
1.0
 40
1.0
 40
2.0
 40
2.0
 40
2.0
 40
3.0
 40
3.0
 40
3.0
 40
4.0
 40
4.0
 40
4.0
 40
5.0
 40
5.0
 40
5.0
 40
6.0
 40
6.0
 40
6.0
 40
7.0
 40
7.0
 40
7.0
 40
7.0
 10
12.8617767026909
 20
-1.223924531549591
 30
0.0
 10
12.77335457248722
 20
-1.454806394145773
 30
0.0
 10
13.02262864523082
 20
-1.41454483458526
 30
0.0
 10
12.99902413222819
 20
-1.439768862737019
 30
0.0
 10
12.81194617240948
 20
-1.644848747641427
 30
0.0
 10
13.29152217303628
 20
-1.652865473570942
 30
0.0
 10
13.06356234240941
 20
-1.377622550805325
 30
0.0
 10
13.01193094247623
 20
-1.336229636296681
 30
0.0
 10
12.94319451925462
 20
-1.379167432819713
 30
0.0
 10
12.90419376269928
 20
-1.31382505895077
 30
0.0
 10
12.87802211839395
 20
-1.260180049663618
 30
0.0
 10
12.94763622760572
 20
-1.200623600589172
 30
0.0
 10
12.96552471501546
 20
-1.276853070428867
 30
0.0
 10
12.97361169021345
 20
-1.288867938187018
 30
0.0
 10
12.95099796222651
 20
-1.299588365775232
 30
0.0
 10
12.95808977898913
 20
-1.285051238553491
 30
0.0
 10
12.95813935017435
 20
-1.223601928573316
 30
0.0
 10
12.89135635392677
 20
-1.250997093982505
 30
0.0
 10
12.90908926851868
 20
-1.301043090081129
 30
0.0
 10
13.07235254674121
 20
-1.483204276279189
 30
0.0
 10
13.02979761052135
 20
-1.049271299434432
 30
0.0
 10
12.8617767026909
 20
-1.223924531549591
 30
0.0
  0
HATCH
  5
DA
330
7E
100
AcDbEntity
  8
Deck Box - DF
 62
   250
420
  2301728
440
 33554687
100
AcDbHatch
 10
0.0
 20
0.0
 30
0.0
210
0.0
220
0.0
230
1.0
  2
SOLID
 70
     1
 71
     1
 91
        2
 92
        1
 93
        1
 72
     4
 94
        3
 73
     0
 74
     0
 95
       14
 96
       10
 40
0.0
 40
0.0
 40
0.0
 40
0.0
 40
1.0
 40
1.0
 40
1.0
 40
2.0
 40
2.0
 40
2.0
 40
3.0
 40
3.0
 40
3.0
 40
3.0
 10
13.01306689972221
 20
-1.498774095818538
 10
13.04587618213504
 20
-1.595069243872229
 10
13.08298187097681
 20
-1.484493738218942
 10
13.04328107266241
 20
-1.44857814201978
 10
13.12475138375829
 20
-1.4890942132749
 10
13.02607797423838
 20
-1.607987758417531
 10
13.00126925174224
 20
-1.500701692159559
 10
13.00624786501394
 20
-1.495356652490954
 10
13.01874777374966
 20
-1.484924839718928
 10
13.01306689972221
 20
-1.498774095818538
 97
        0
 97
        1
330
D8
 92
        1
 93
        1
 72
     4
 94
        3
 73
     0
 74
     0
 95
       26
 96
       22
 40
0.0
 40
0.0
 40
0.0
 40
0.0
 40
1.0
 40
1.0
 40
1.0
 40
2.0
 40
2.0
 40
2.0
 40
3.0
 40
3.0
 40
3.0
 40
4.0
 40
4.0
 40
4.0
 40
5.0
 40
5.0
 40
5.0
 40
6.0
 40
6.0
 40
6.0
 40
7.0
 40
7.0
 40
7.0
 40
7.0
 10
12.8617767026909
 20
-1.223924531549591
 10
12.77335457248722
 20
-1.454806394145773
 10
13.02262864523082
 20
-1.41454483458526
 10
12.99902413222819
 20
-1.439768862737019
 10
12.81194617240948
 20
-1.644848747641427
 10
13.29152217303628
 20
-1.652865473570942
 10
13.06356234240941
 20
-1.377622550805325
 10
13.01193094247623
 20
-1.336229636296681
 10
12.94319451925462
 20
-1.379167432819713
 10
12.90419376269928
 20
-1.31382505895077
 10
12.87802211839395
 20
-1.260180049663618
 10
12.94763622760572
 20
-1.200623600589172
 10
12.96552471501546
 20
-1.276853070428867
 10
12.97361169021345
 20
-1.288867938187018
 10
12.95099796222651
 20
-1.299588365775232
 10
12.95808977898913
 20
-1.285051238553491
 10
12.95813935017435
 20
-1.223601928573316
 10
12.89135635392677
 20
-1.250997093982505
 10
12.90908926851868
 20
-1.301043090081129
 10
13.07235254674121
 20
-1.483204276279189
 10
13.02979761052135
 20
-1.049271299434432
 10
12.8617767026909
 20
-1.223924531549591
 97
        0
 97
        1
330
D9
 75
     2
 76
     1
 98
        1
 10
0.0
 20
0.0
450
        0
451
        0
460
0.0
461
0.0
452
        0
462
0.0
453
        0
470

  0
SPLINE
  5
DB
330
7E
100
AcDbEntity
  8
Deck Box - DF
100
AcDbSpline
210
0.0
220
0.0
230
1.0
 70
     9
 71
     3
 72
    14
 73
    10
 74
     0
 42
0.0000000001
 43
0.0000000001
 40
0.0
 40
0.0
 40
0.0
 40
0.0
 40
1.0
 40
1.0
 40
1.0
 40
2.0
 40
2.0
 40
2.0
 40
3.0
 40
3.0
 40
3.0
 40
3.0
 10
13.06162594904185
 20
-1.118637797101655
 30
0.0
 10
13.07039805733178
 20
-1.124376797210162
 30
0.0
 10
13.08903921130314
 20
-1.13885314947797
 30
0.0
 10
13.07019969307397
 20
-1.132447001203217
 30
0.0
 10
12.971087076429
 20
-1.175981174109033
 30
0.0
 10
13.14889944079532
 20
-1.220825907453217
 30
0.0
 10
13.14572561267032
 20
-1.154018690385075
 30
0.0
 10
13.15452908624888
 20
-1.274619920582558
 30
0.0
 10
12.94773349976885
 20
-1.147894829707992
 30
0.0
 10
13.06162594904185
 20
-1.118637797101655
 30
0.0
  0
SPLINE
  5
DC
330
7E
100
AcDbEntity
  8
Deck Box - DF
100
AcDbSpline
210
0.0
220
0.0
230
1.0
 70
     9
 71
     3
 72
    17
 73
    13
 74
     0
 42
0.0000000001
 43
0.0000000001
 40
0.0
 40
0.0
 40
0.0
 40
0.0
 40
1.0
 40
1.0
 40
1.0
 40
2.0
 40
2.0
 40
2.0
 40
3.0
 40
3.0
 40
3.0
 40
4.0
 40
4.0
 40
4.0
 40
4.0
 10
13.15004893623803
 20
-0.9424114990873452
 30
0.0
 10
13.06619002239254
 20
-0.9697281223512339
 30
0.0
 10
13.13783088475149
 20
-1.081923455196273
 30
0.0
 10
13.14543654338864
 20
-1.150743984710162
 30
0.0
 10
13.13252760784176
 20
-1.078084174326047
 30
0.0
 10
13.02931885404402
 20
-1.033112284406342
 30
0.0
 10
12.97402693645504
 20
-1.091327955521794
 30
0.0
 10
12.92451640449975
 20
-1.18757700608603
 30
0.0
 10
13.05462386028317
 20
-1.269455668195405
 30
0.0
 10
13.15004893623803
 20
-1.25754533562162
 30
0.0
 10
13.15004893623803
 20
-1.25754533562162
 30
0.0
 10
13.15004893623803
 20
-0.9424114990873452
 30
0.0
 10
13.15004893623803
 20
-0.9424114990873452
 30
0.0
  0
HATCH
  5
DD
330
7E
100
AcDbEntity
  8
Deck Box - DF
 62
   250
420
  2301728
440
 33554687
100
AcDbHatch
 10
0.0
 20
0.0
 30
0.0
210
0.0
220
0.0
230
1.0
  2
SOLID
 70
     1
 71
     1
 91
        2
 92
        1
 93
        1
 72
     4
 94
        3
 73
     0
 74
     0
 95
       14
 96
       10
 40
0.0
 40
0.0
 40
0.0
 40
0.0
 40
1.0
 40
1.0
 40
1.0
 40
2.0
 40
2.0
 40
2.0
 40
3.0
 40
3.0
 40
3.0
 40
3.0
 10
13.06162594904185
 20
-1.118637797101655
 10
13.07039805733178
 20
-1.124376797210162
 10
13.08903921130314
 20
-1.13885314947797
 10
13.07019969307397
 20
-1.132447001203217
 10
12.971087076429
 20
-1.175981174109033
 10
13.14889944079532
 20
-1.220825907453217
 10
13.14572561267032
 20
-1.154018690385075
 10
13.15452908624888
 20
-1.274619920582558
 10
12.94773349976885
 20
-1.147894829707992
 10
13.06162594904185
 20
-1.118637797101655
 97
        0
 97
        1
330
DB
 92
        1
 93
        1
 72
     4
 94
        3
 73
     0
 74
     0
 95
       17
 96
       13
 40
0.0
 40
0.0
 40
0.0
 40
0.0
 40
1.0
 40
1.0
 40
1.0
 40
2.0
 40
2.0
 40
2.0
 40
3.0
 40
3.0
 40
3.0
 40
4.0
 40
4.0
 40
4.0
 40
4.0
 10
13.15004893623803
 20
-0.9424114990873452
 10
13.06619002239254
 20
-0.9697281223512339
 10
13.13783088475149
 20
-1.081923455196273
 10
13.14543654338864
 20
-1.150743984710162
 10
13.13252760784176
 20
-1.078084174326047
 10
13.02931885404402
 20
-1.033112284406342
 10
12.97402693645504
 20
-1.091327955521794
 10
12.92451640449975
 20
-1.18757700608603
 10
13.05462386028317
 20
-1.269455668195405
 10
13.15004893623803
 20
-1.25754533562162
 10
13.15004893623803
 20
-1.25754533562162
 10
13.15004893623803
 20
-0.9424114990873452
 10
13.15004893623803
 20
-0.9424114990873452
 97
        0
 97
        1
330
DC
 75
     2
 76
     1
 98
        1
 10
0.0
 20
0.0
450
        0
451
        0
460
0.0
461
0.0
452
        0
462
0.0
453
        0
470

  0
SPLINE
  5
DE
330
7E
100
AcDbEntity
  8
Deck Box - DF
100
AcDbSpline
210
0.0
220
0.0
230
1.0
 70
     9
 71
     3
 72
    14
 73
    10
 74
     0
 42
0.0000000001
 43
0.0000000001
 40
0.0
 40
0.0
 40
0.0
 40
0.0
 40
1.0
 40
1.0
 40
1.0
 40
2.0
 40
2.0
 40
2.0
 40
3.0
 40
3.0
 40
3.0
 40
3.0
 10
13.15004893623803
 20
-1.272099677255747
 30
0.0
 10
13.13609477364038
 20
-1.278998345332992
 30
0.0
 10
13.12466509292206
 20
-1.29070437967544
 30
0.0
 10
13.117204392781
 20
-1.307748447058252
 30
0.0
 10
13.08002804865123
 20
-1.366223517587766
 30
0.0
 10
13.11523855212345
 20
-1.417855868933252
 30
0.0
 10
13.15004893623803
 20
-1.471989813974497
 30
0.0
 10
13.15004893623803
 20
-1.471989813974497
 30
0.0
 10
13.15004893623803
 20
-1.272099677255747
 30
0.0
 10
13.15004893623803
 20
-1.272099677255747
 30
0.0
  0
HATCH
  5
DF
330
7E
100
AcDbEntity
  8
Deck Box - DF
 62
   250
420
  2301728
440
 33554687
100
AcDbHatch
 10
0.0
 20
0.0
 30
0.0
210
0.0
220
0.0
230
1.0
  2
SOLID
 70
     1
 71
     1
 91
        1
 92
        1
 93
        1
 72
     4
 94
        3
 73
     0
 74
     0
 95
       14
 96
       10
 40
0.0
 40
0.0
 40
0.0
 40
0.0
 40
1.0
 40
1.0
 40
1.0
 40
2.0
 40
2.0
 40
2.0
 40
3.0
 40
3.0
 40
3.0
 40
3.0
 10
13.15004893623803
 20
-1.272099677255747
 10
13.13609477364038
 20
-1.278998345332992
 10
13.12466509292206
 20
-1.29070437967544
 10
13.117204392781
 20
-1.307748447058252
 10
13.08002804865123
 20
-1.366223517587766
 10
13.11523855212345
 20
-1.417855868933252
 10
13.15004893623803
 20
-1.471989813974497
 10
13.15004893623803
 20
-1.471989813974497
 10
13.15004893623803
 20
-1.272099677255747
 10
13.15004893623803
 20
-1.272099677255747
 97
        0
 97
        1
330
DE
 75
     2
 76
     1
 98
        1
 10
0.0
 20
0.0
450
        0
451
        0
460
0.0
461
0.0
452
        0
462
0.0
453
        0
470

  0
ENDBLK
  5
81
330
7E
100
AcDbEntity
  8
0
100
AcDbBlockEnd
  0
ENDSEC
  0
SECTION
  2
ENTITIES
  0
INSERT
  5
7B
330
70
100
AcDbEntity
  8
Deck Box - DF
100
AcDbBlockReference
  2
Block_0
 10
0.0
 20
0.0
 30
0.0
  0
ENDSEC
  0
SECTION
  2
OBJECTS
  0
DICTIONARY
  5
C
330
0
100
AcDbDictionary
281
     1
  3
ACAD_COLOR
350
63
  3
ACAD_DETAILVIEWSTYLE
350
6A
  3
ACAD_GROUP
350
D
  3
ACAD_LAYOUT
350
62
  3
ACAD_MATERIAL
350
10
  3
ACAD_MLEADERSTYLE
350
66
  3
ACAD_MLINESTYLE
350
5F
  3
ACAD_PLOTSETTINGS
350
61
  3
ACAD_PLOTSTYLENAME
350
E
  3
ACAD_SCALELIST
350
42
  3
ACAD_SECTIONVIEWSTYLE
350
68
  3
ACAD_TABLESTYLE
350
64
  3
ACAD_VISUALSTYLE
350
29
  3
ACDB_RECOMPOSE_DATA
350
EF
  3
AcDbVariableDictionary
350
E7
  0
DICTIONARY
  5
63
102
{ACAD_REACTORS
330
C
102
}
330
C
100
AcDbDictionary
281
     1
  0
DICTIONARY
  5
6A
102
{ACAD_REACTORS
330
C
102
}
330
C
100
AcDbDictionary
281
     1
  3
Imperial24
350
6B
  0
DICTIONARY
  5
D
102
{ACAD_REACTORS
330
C
102
}
330
C
100
AcDbDictionary
281
     1
  0
DICTIONARY
  5
62
102
{ACAD_REACTORS
330
C
102
}
330
C
100
AcDbDictionary
281
     1
  3
Layout1
350
6F
  3
Layout2
350
77
  3
Model
350
73
  0
DICTIONARY
  5
10
102
{ACAD_REACTORS
330
C
102
}
330
C
100
AcDbDictionary
281
     1
  3
ByBlock
350
19
  3
ByLayer
350
11
  3
Global
350
21
  0
DICTIONARY
  5
66
102
{ACAD_REACTORS
330
C
102
}
330
C
100
AcDbDictionary
281
     1
  3
Standard
350
67
  0
DICTIONARY
  5
5F
102
{ACAD_REACTORS
330
C
102
}
330
C
100
AcDbDictionary
281
     1
  3
Standard
350
60
  0
DICTIONARY
  5
61
102
{ACAD_REACTORS
330
C
102
}
330
C
100
AcDbDictionary
281
     1
  0
ACDBDICTIONARYWDFLT
  5
E
102
{ACAD_REACTORS
330
C
102
}
330
C
100
AcDbDictionary
281
     1
  3
Normal
350
F
100
AcDbDictionaryWithDefault
340
F
  0
DICTIONARY
  5
42
102
{ACAD_REACTORS
330
C
102
}
330
C
100
AcDbDictionary
281
     1
  3
A0
350
43
  3
A1
350
44
  3
A2
350
45
  3
A3
350
46
  3
A4
350
47
  3
A5
350
48
  3
A6
350
49
  3
A7
350
4A
  3
A8
350
4B
  3
A9
350
4C
  3
B0
350
4D
  3
B1
350
4E
  3
B2
350
4F
  3
B3
350
50
  3
B4
350
51
  3
B5
350
52
  3
B6
350
53
  0
DICTIONARY
  5
68
102
{ACAD_REACTORS
330
C
102
}
330
C
100
AcDbDictionary
281
     1
  3
Imperial24
350
69
  0
DICTIONARY
  5
64
102
{ACAD_REACTORS
330
C
102
}
330
C
100
AcDbDictionary
281
     1
  3
Standard
350
65
  0
DICTIONARY
  5
29
102
{ACAD_REACTORS
330
C
102
}
330
C
100
AcDbDictionary
281
     1
  3
2dWireframe
350
2F
  3
Basic
350
2E
  3
Brighten
350
35
  3
ColorChange
350
39
  3
Conceptual
350
32
  3
Dim
350
34
  3
EdgeColorOff
350
41
  3
Facepattern
350
38
  3
Flat
350
2A
  3
FlatWithEdges
350
2B
  3
Gouraud
350
2C
  3
GouraudWithEdges
350
2D
  3
Hidden
350
31
  3
JitterOff
350
3F
  3
Linepattern
350
37
  3
OverhangOff
350
40
  3
Realistic
350
33
  3
Shaded
350
3E
  3
Shaded with edges
350
3D
  3
Shades of Gray
350
3A
  3
Sketchy
350
3B
  3
Thicken
350
36
  3
Wireframe
350
30
  3
X-Ray
350
3C
  0
XRECORD
  5
EF
102
{ACAD_REACTORS
330
C
102
}
330
C
100
AcDbXrecord
280
     1
 90
        1
330
65
  0
DICTIONARY
  5
E7
102
{ACAD_REACTORS
330
C
102
}
330
C
100
AcDbDictionary
281
     1
  3
CANNOSCALE
350
EC
  3
CMLEADERSTYLE
350
E9
  3
CTABLESTYLE
350
E8
  3
CVIEWDETAILSTYLE
350
EA
  3
CVIEWSECTIONSTYLE
350
EB
  0
ACDBDETAILVIEWSTYLE
  5
6B
102
{ACAD_REACTORS
330
6A
102
}
330
6A
100
AcDbModelDocViewStyle
 70
     0
  3
Imperial24
290
     1
300
Imperial24
 90
        0
100
AcDbDetailViewStyle
 70
     0
 71
     0
 90
        3
 71
     1
340
55
 62
   256
 40
0.24
340
0
 62
   256
 40
0.24
300

 40
0.36
280
     3
 71
     2
340
5D
 90
       25
 62
   256
 71
     3
340
55
 62
   256
 40
0.24
 90
        1
 40
0.75
 90
        1
300
%<\AcVar ViewType \f "%tc1">% %<\AcVar ViewDetailId>%\PSCALE %<\AcVar ViewScale \f "%sn">%
 71
     4
340
5D
 90
       25
 62
   256
340
5D
 90
       25
 62
   256
280
     0
  0
LAYOUT
  5
6F
102
{ACAD_REACTORS
330
62
102
}
330
62
100
AcDbPlotSettings
  1

  2

  4

  6

 40
0.0
 41
0.0
 42
0.0
 43
0.0
 44
0.0
 45
0.0
 46
0.0
 47
0.0
 48
0.0
 49
0.0
140
0.0
141
0.0
142
1.0
143
1.0
 70
   688
 72
     0
 73
     0
 74
     5
  7

 75
    16
147
1.0
 76
     0
 77
     2
 78
   300
148
0.0
149
0.0
100
AcDbLayout
  1
Layout1
 70
     1
 71
     1
 10
0.0
 20
0.0
 11
12.0
 21
9.0
 12
0.0
 22
0.0
 32
0.0
 14
0.0
 24
0.0
 34
0.0
 15
0.0
 25
0.0
 35
0.0
146
0.0
 13
0.0
 23
0.0
 33
0.0
 16
1.0
 26
0.0
 36
0.0
 17
0.0
 27
1.0
 37
0.0
 76
     0
330
6C
  0
LAYOUT
  5
77
102
{ACAD_REACTORS
330
62
102
}
330
62
100
AcDbPlotSettings
  1

  2

  4

  6

 40
0.0
 41
0.0
 42
0.0
 43
0.0
 44
0.0
 45
0.0
 46
0.0
 47
0.0
 48
0.0
 49
0.0
140
0.0
141
0.0
142
1.0
143
1.0
 70
   688
 72
     0
 73
     0
 74
     5
  7

 75
    16
147
1.0
 76
     0
 77
     2
 78
   300
148
0.0
149
0.0
100
AcDbLayout
  1
Layout2
 70
     1
 71
     2
 10
0.0
 20
0.0
 11
12.0
 21
9.0
 12
0.0
 22
0.0
 32
0.0
 14
0.0
 24
0.0
 34
0.0
 15
0.0
 25
0.0
 35
0.0
146
0.0
 13
0.0
 23
0.0
 33
0.0
 16
1.0
 26
0.0
 36
0.0
 17
0.0
 27
1.0
 37
0.0
 76
     0
330
74
  0
LAYOUT
  5
73
102
{ACAD_REACTORS
330
62
102
}
330
62
100
AcDbPlotSettings
  1

  2

  4

  6

 40
0.0
 41
0.0
 42
0.0
 43
0.0
 44
0.0
 45
0.0
 46
0.0
 47
0.0
 48
0.0
 49
0.0
140
0.0
141
0.0
142
1.0
143
1.0
 70
  1712
 72
     0
 73
     0
 74
     0
  7

 75
     0
147
1.0
 76
     0
 77
     2
 78
   300
148
0.0
149
0.0
100
AcDbLayout
  1
Model
 70
     1
 71
     0
 10
0.0
 20
0.0
 11
12.0
 21
9.0
 12
0.0
 22
0.0
 32
0.0
 14
0.0
 24
0.0
 34
0.0
 15
0.0
 25
0.0
 35
0.0
146
0.0
 13
0.0
 23
0.0
 33
0.0
 16
1.0
 26
0.0
 36
0.0
 17
0.0
 27
1.0
 37
0.0
 76
     0
330
70
  0
MATERIAL
  5
19
102
{ACAD_XDICTIONARY
360
1A
102
}
102
{ACAD_REACTORS
330
10
102
}
330
10
100
AcDbMaterial
  1
ByBlock
 72
     0
 43
0.0208333333333333
 43
0.0
 43
0.0
 43
0.0
 43
0.0
 43
0.0208333333333333
 43
0.0
 43
0.0
 43
0.0
 43
0.0
 43
1.0
 43
0.0
 43
0.0
 43
0.0
 43
0.0
 43
1.0
 77
     0
 47
0.0208333333333333
 47
0.0
 47
0.0
 47
0.0
 47
0.0
 47
0.0208333333333333
 47
0.0
 47
0.0
 47
0.0
 47
0.0
 47
1.0
 47
0.0
 47
0.0
 47
0.0
 47
0.0
 47
1.0
171
     0
 49
0.0208333333333333
 49
0.0
 49
0.0
 49
0.0
 49
0.0
 49
0.0208333333333333
 49
0.0
 49
0.0
 49
0.0
 49
0.0
 49
1.0
 49
0.0
 49
0.0
 49
0.0
 49
0.0
 49
1.0
175
     0
142
0.0208333333333333
142
0.0
142
0.0
142
0.0
142
0.0
142
0.0208333333333333
142
0.0
142
0.0
142
0.0
142
0.0
142
1.0
142
0.0
142
0.0
142
0.0
142
0.0
142
1.0
179
     0
144
0.0208333333333333
144
0.0
144
0.0
144
0.0
144
0.0
144
0.0208333333333333
144
0.0
144
0.0
144
0.0
144
0.0
144
1.0
144
0.0
144
0.0
144
0.0
144
0.0
144
1.0
147
0.0208333333333333
147
0.0
147
0.0
147
0.0
147
0.0
147
0.0208333333333333
147
0.0
147
0.0
147
0.0
147
0.0
147
1.0
147
0.0
147
0.0
147
0.0
147
0.0
147
1.0
  0
MATERIAL
  5
11
102
{ACAD_XDICTIONARY
360
12
102
}
102
{ACAD_REACTORS
330
10
102
}
330
10
100
AcDbMaterial
  1
ByLayer
 72
     0
 43
0.0208333333333333
 43
0.0
 43
0.0
 43
0.0
 43
0.0
 43
0.0208333333333333
 43
0.0
 43
0.0
 43
0.0
 43
0.0
 43
1.0
 43
0.0
 43
0.0
 43
0.0
 43
0.0
 43
1.0
 77
     0
 47
0.0208333333333333
 47
0.0
 47
0.0
 47
0.0
 47
0.0
 47
0.0208333333333333
 47
0.0
 47
0.0
 47
0.0
 47
0.0
 47
1.0
 47
0.0
 47
0.0
 47
0.0
 47
0.0
 47
1.0
171
     0
 49
0.0208333333333333
 49
0.0
 49
0.0
 49
0.0
 49
0.0
 49
0.0208333333333333
 49
0.0
 49
0.0
 49
0.0
 49
0.0
 49
1.0
 49
0.0
 49
0.0
 49
0.0
 49
0.0
 49
1.0
175
     0
142
0.0208333333333333
142
0.0
142
0.0
142
0.0
142
0.0
142
0.0208333333333333
142
0.0
142
0.0
142
0.0
142
0.0
142
1.0
142
0.0
142
0.0
142
0.0
142
0.0
142
1.0
179
     0
144
0.0208333333333333
144
0.0
144
0.0
144
0.0
144
0.0
144
0.0208333333333333
144
0.0
144
0.0
144
0.0
144
0.0
144
1.0
144
0.0
144
0.0
144
0.0
144
0.0
144
1.0
147
0.0208333333333333
147
0.0
147
0.0
147
0.0
147
0.0
147
0.0208333333333333
147
0.0
147
0.0
147
0.0
147
0.0
147
1.0
147
0.0
147
0.0
147
0.0
147
0.0
147
1.0
  0
MATERIAL
  5
21
102
{ACAD_XDICTIONARY
360
22
102
}
102
{ACAD_REACTORS
330
10
102
}
330
10
100
AcDbMaterial
  1
Global
 72
     0
 43
0.0208333333333333
 43
0.0
 43
0.0
 43
0.0
 43
0.0
 43
0.0208333333333333
 43
0.0
 43
0.0
 43
0.0
 43
0.0
 43
1.0
 43
0.0
 43
0.0
 43
0.0
 43
0.0
 43
1.0
 77
     0
 47
0.0208333333333333
 47
0.0
 47
0.0
 47
0.0
 47
0.0
 47
0.0208333333333333
 47
0.0
 47
0.0
 47
0.0
 47
0.0
 47
1.0
 47
0.0
 47
0.0
 47
0.0
 47
0.0
 47
1.0
171
     0
 49
0.0208333333333333
 49
0.0
 49
0.0
 49
0.0
 49
0.0
 49
0.0208333333333333
 49
0.0
 49
0.0
 49
0.0
 49
0.0
 49
1.0
 49
0.0
 49
0.0
 49
0.0
 49
0.0
 49
1.0
175
     0
142
0.0208333333333333
142
0.0
142
0.0
142
0.0
142
0.0
142
0.0208333333333333
142
0.0
142
0.0
142
0.0
142
0.0
142
1.0
142
0.0
142
0.0
142
0.0
142
0.0
142
1.0
179
     0
144
0.0208333333333333
144
0.0
144
0.0
144
0.0
144
0.0
144
0.0208333333333333
144
0.0
144
0.0
144
0.0
144
0.0
144
1.0
144
0.0
144
0.0
144
0.0
144
0.0
144
1.0
147
0.0208333333333333
147
0.0
147
0.0
147
0.0
147
0.0
147
0.0208333333333333
147
0.0
147
0.0
147
0.0
147
0.0
147
1.0
147
0.0
147
0.0
147
0.0
147
0.0
147
1.0
  0
MLEADERSTYLE
  5
67
102
{ACAD_REACTORS
330
66
102
}
330
66
100
AcDbMLeaderStyle
179
     2
170
     2
171
     1
172
     0
 90
        2
 40
0.0
 41
0.0
173
     1
 91
-1056964608
340
5B
 92
       -2
290
     1
 42
0.09
291
     1
 43
0.36
  3
Standard
 44
0.18
300

342
55
174
     1
178
     6
175
     1
176
     0
 93
-1056964608
 45
0.18
292
     0
297
     0
 46
0.18
 94
-1056964608
 47
1.0
 49
1.0
140
1.0
293
     1
141
0.0
294
     1
177
     0
142
1.0
295
     1
296
     0
143
0.125
271
     0
272
     9
273
     9
298
     1
  0
MLINESTYLE
  5
60
102
{ACAD_REACTORS
330
5F
102
}
330
5F
100
AcDbMlineStyle
  2
STANDARD
 70
     0
  3

 62
   256
 51
90.0
 52
90.0
 71
     2
 49
0.5
 62
   256
  6
BYLAYER
 49
-0.5
 62
   256
  6
BYLAYER
  0
ACDBPLACEHOLDER
  5
F
102
{ACAD_REACTORS
330
E
102
}
330
E
  0
SCALE
  5
43
102
{ACAD_REACTORS
330
42
102
}
330
42
100
AcDbScale
 70
     0
300
1:1
140
1.0
141
1.0
290
     1
  0
SCALE
  5
44
102
{ACAD_REACTORS
330
42
102
}
330
42
100
AcDbScale
 70
     0
300
1/128" = 1'-0"
140
0.0078125
141
12.0
290
     0
  0
SCALE
  5
45
102
{ACAD_REACTORS
330
42
102
}
330
42
100
AcDbScale
 70
     0
300
1/64" = 1'-0"
140
0.015625
141
12.0
290
     0
  0
SCALE
  5
46
102
{ACAD_REACTORS
330
42
102
}
330
42
100
AcDbScale
 70
     0
300
1/32" = 1'-0"
140
0.03125
141
12.0
290
     0
  0
SCALE
  5
47
102
{ACAD_REACTORS
330
42
102
}
330
42
100
AcDbScale
 70
     0
300
1/16" = 1'-0"
140
0.0625
141
12.0
290
     0
  0
SCALE
  5
48
102
{ACAD_REACTORS
330
42
102
}
330
42
100
AcDbScale
 70
     0
300
3/32" = 1'-0"
140
0.09375
141
12.0
290
     0
  0
SCALE
  5
49
102
{ACAD_REACTORS
330
42
102
}
330
42
100
AcDbScale
 70
     0
300
1/8" = 1'-0"
140
0.125
141
12.0
290
     0
  0
SCALE
  5
4A
102
{ACAD_REACTORS
330
42
102
}
330
42
100
AcDbScale
 70
     0
300
3/16" = 1'-0"
140
0.1875
141
12.0
290
     0
  0
SCALE
  5
4B
102
{ACAD_REACTORS
330
42
102
}
330
42
100
AcDbScale
 70
     0
300
1/4" = 1'-0"
140
0.25
141
12.0
290
     0
  0
SCALE
  5
4C
102
{ACAD_REACTORS
330
42
102
}
330
42
100
AcDbScale
 70
     0
300
3/8" = 1'-0"
140
0.375
141
12.0
290
     0
  0
SCALE
  5
4D
102
{ACAD_REACTORS
330
42
102
}
330
42
100
AcDbScale
 70
     0
300
1/2" = 1'-0"
140
0.5
141
12.0
290
     0
  0
SCALE
  5
4E
102
{ACAD_REACTORS
330
42
102
}
330
42
100
AcDbScale
 70
     0
300
3/4" = 1'-0"
140
0.75
141
12.0
290
     0
  0
SCALE
  5
4F
102
{ACAD_REACTORS
330
42
102
}
330
42
100
AcDbScale
 70
     0
300
1" = 1'-0"
140
1.0
141
12.0
290
     0
  0
SCALE
  5
50
102
{ACAD_REACTORS
330
42
102
}
330
42
100
AcDbScale
 70
     0
300
1-1/2" = 1'-0"
140
1.5
141
12.0
290
     0
  0
SCALE
  5
51
102
{ACAD_REACTORS
330
42
102
}
330
42
100
AcDbScale
 70
     0
300
3" = 1'-0"
140
3.0
141
12.0
290
     0
  0
SCALE
  5
52
102
{ACAD_REACTORS
330
42
102
}
330
42
100
AcDbScale
 70
     0
300
6" = 1'-0"
140
6.0
141
12.0
290
     0
  0
SCALE
  5
53
102
{ACAD_REACTORS
330
42
102
}
330
42
100
AcDbScale
 70
     0
300
1'-0" = 1'-0"
140
12.0
141
12.0
290
     0
  0
ACDBSECTIONVIEWSTYLE
  5
69
102
{ACAD_REACTORS
330
68
102
}
330
68
100
AcDbModelDocViewStyle
 70
     0
  3
Imperial24
290
     1
300
Imperial24
 90
        0
100
AcDbSectionViewStyle
 70
     0
 71
     0
 90
       78
 71
     1
340
55
 62
   256
 40
0.24
340
0
340
0
 62
   256
 40
0.24
300
I, O, Q, S, X, Z
 40
0.48
 90
        3
 40
0.18
 90
        1
 71
     2
340
5D
 90
       25
 62
   256
340
5D
 90
       50
 62
   256
 40
0.24
 40
0.0
 40
0.24
 71
     3
340
55
 62
   256
 40
0.24
 90
        1
 40
0.75
 90
        1
300
%<\AcVar ViewType \f "%tc1">% %<\AcVar ViewSectionStartId>%-%<\AcVar ViewSectionEndId>%\PSCALE %<\AcVar ViewScale \f "%sn">%
 71
     4
 62
   256
 62
   257
300
ANSI31
 40
1.0
 90
        0
290
     0
290
     0
 90
        6
 40
0.0
 40
1.570796326794896
 40
0.2617993877991494
 40
1.308996938995747
 40
-0.2617993877991494
 40
1.832595714594046
  0
TABLESTYLE
  5
65
102
{ACAD_XDICTIONARY
360
ED
102
}
102
{ACAD_REACTORS
330
64
102
}
330
64
100
AcDbTableStyle
280
     0
  3
Standard
 70
     0
 71
     0
 40
0.06
 41
0.06
280
     0
281
     0
  7
Standard
140
0.18
170
     2
 62
     0
 63
     7
283
     0
 90
      512
 91
        0
  1

274
    -2
284
     1
 64
     0
275
    -2
285
     1
 65
     0
276
    -2
286
     1
 66
     0
277
    -2
287
     1
 67
     0
278
    -2
288
     1
 68
     0
279
    -2
289
     1
 69
     0
  7
Standard
140
0.25
170
     5
 62
     0
 63
     7
283
     0
 90
      512
 91
        0
  1

274
    -2
284
     1
 64
     0
275
    -2
285
     1
 65
     0
276
    -2
286
     1
 66
     0
277
    -2
287
     1
 67
     0
278
    -2
288
     1
 68
     0
279
    -2
289
     1
 69
     0
  7
Standard
140
0.18
170
     5
 62
     0
 63
     7
283
     0
 90
      512
 91
        0
  1

274
    -2
284
     1
 64
     0
275
    -2
285
     1
 65
     0
276
    -2
286
     1
 66
     0
277
    -2
287
     1
 67
     0
278
    -2
288
     1
 68
     0
279
    -2
289
     1
 69
     0
  0
VISUALSTYLE
  5
2F
102
{ACAD_REACTORS
330
29
102
}
330
29
100
AcDbVisualStyle
  2
2dWireframe
 70
     4
177
     3
291
     0
 70
    58
 90
        0
176
     1
 90
        2
176
     1
 90
        0
176
     1
 90
        0
176
     1
 40
0.6
176
     1
 40
30.0
176
     1
 62
     7
420
 16777215
176
     1
 90
        1
176
     1
 90
        4
176
     1
 62
     7
176
     1
 62
   257
176
     1
 90
        1
176
     1
 90
        1
176
     1
 40
1.0
176
     1
 90
        0
176
     1
 62
   257
176
     1
 40
1.0
176
     1
 90
        1
176
     1
 90
        6
176
     1
 90
        2
176
     1
 62
     7
176
     1
 90
        5
176
     1
 90
        0
176
     1
 90
        0
176
     1
290
     0
176
     1
 90
        1
176
     1
 40
0.0
176
     1
 90
        0
176
     1
290
     1
176
     1
290
     1
176
     1
290
     0
176
     1
290
     0
176
     1
290
     0
176
     1
290
     0
176
     1
290
     0
176
     1
290
     0
176
     1
290
     0
176
     1
 90
       50
176
     1
 40
0.0
176
     1
 40
1.0
176
     1
 90
        0
176
     1
 62
    18
420
        0
176
     1
 90
       50
176
     1
 90
        3
176
     1
 62
     5
420
      255
176
     1
290
     0
176
     1
 90
       50
176
     1
 90
       50
176
     1
 90
       50
176
     1
290
     0
176
     1
 90
       50
176
     1
 62
   256
176
     0
 40
1.0
176
     0
 90
        2
176
     1
  1
strokes_ogs.tif
176
     1
290
     0
176
     1
 40
1.0
176
     1
 40
1.0
176
     1
  0
VISUALSTYLE
  5
2E
102
{ACAD_REACTORS
330
29
102
}
330
29
100
AcDbVisualStyle
  2
Basic
 70
     7
177
     3
291
     1
 70
    58
 90
        1
176
     1
 90
        0
176
     1
 90
        1
176
     1
 90
        0
176
     1
 40
0.6
176
     1
 40
30.0
176
     1
 62
     7
420
 16777215
176
     1
 90
        0
176
     1
 90
        4
176
     1
 62
     7
176
     1
 62
   257
176
     1
 90
        1
176
     1
 90
        1
176
     1
 40
1.0
176
     1
 90
        8
176
     1
 62
     7
176
     1
 40
1.0
176
     1
 90
        1
176
     1
 90
        6
176
     1
 90
        2
176
     1
 62
     7
176
     1
 90
        5
176
     1
 90
        0
176
     1
 90
        0
176
     1
290
     0
176
     1
 90
        1
176
     1
 40
0.0
176
     1
 90
        0
176
     1
290
     0
176
     1
290
     1
176
     1
290
     1
176
     1
290
     0
176
     1
290
     0
176
     1
290
     0
176
     1
290
     0
176
     1
290
     0
176
     1
290
     0
176
     1
 90
       50
176
     1
 40
0.0
176
     1
 40
1.0
176
     1
 90
        0
176
     1
 62
    18
420
        0
176
     1
 90
       50
176
     1
 90
        3
176
     1
 62
     5
420
      255
176
     1
290
     0
176
     1
 90
       50
176
     1
 90
       50
176
     1
 90
       50
176
     1
290
     0
176
     1
 90
       50
176
     1
 62
   256
176
     0
 40
1.0
176
     0
 90
        2
176
     1
  1
strokes_ogs.tif
176
     1
290
     0
176
     1
 40
1.0
176
     1
 40
1.0
176
     1
  0
VISUALSTYLE
  5
35
102
{ACAD_REACTORS
330
29
102
}
330
29
100
AcDbVisualStyle
  2
Brighten
 70
    12
177
     3
291
     1
 70
    58
 90
        2
176
     1
 90
        2
176
     1
 90
        0
176
     1
 90
        0
176
     1
 40
0.6
176
     1
 40
30.0
176
     1
 62
     7
420
 16777215
176
     1
 90
        1
176
     1
 90
        4
176
     1
 62
     7
176
     1
 62
   257
176
     1
 90
        1
176
     1
 90
        1
176
     1
 40
1.0
176
     1
 90
        8
176
     1
 62
     7
176
     1
 40
1.0
176
     1
 90
        1
176
     1
 90
        6
176
     1
 90
        2
176
     1
 62
     7
176
     1
 90
        5
176
     1
 90
        0
176
     1
 90
        0
176
     1
290
     0
176
     1
 90
        1
176
     1
 40
50.0
176
     1
 90
        0
176
     1
290
     0
176
     1
290
     1
176
     1
290
     1
176
     1
290
     0
176
     1
290
     0
176
     1
290
     0
176
     1
290
     0
176
     1
290
     0
176
     1
290
     0
176
     1
 90
       50
176
     1
 40
0.0
176
     1
 40
1.0
176
     1
 90
        0
176
     1
 62
    18
420
        0
176
     1
 90
       50
176
     1
 90
        3
176
     1
 62
     5
420
      255
176
     1
290
     0
176
     1
 90
       50
176
     1
 90
       50
176
     1
 90
       50
176
     1
290
     0
176
     1
 90
       50
176
     1
 62
   256
176
     0
 40
1.0
176
     0
 90
        2
176
     1
  1
strokes_ogs.tif
176
     1
290
     0
176
     1
 40
1.0
176
     1
 40
1.0
176
     1
  0
VISUALSTYLE
  5
39
102
{ACAD_REACTORS
330
29
102
}
330
29
100
AcDbVisualStyle
  2
ColorChange
 70
    16
177
     3
291
     1
 70
    58
 90
        2
176
     1
 90
        2
176
     1
 90
        3
176
     1
 90
        0
176
     1
 40
0.6
176
     1
 40
30.0
176
     1
 62
     8
420
  8421504
176
     1
 90
        1
176
     1
 90
        4
176
     1
 62
     7
176
     1
 62
   257
176
     1
 90
        1
176
     1
 90
        1
176
     1
 40
1.0
176
     1
 90
        8
176
     1
 62
     8
420
  8421504
176
     1
 40
1.0
176
     1
 90
        1
176
     1
 90
        6
176
     1
 90
        2
176
     1
 62
     7
176
     1
 90
        5
176
     1
 90
        0
176
     1
 90
        0
176
     1
290
     0
176
     1
 90
        1
176
     1
 40
0.0
176
     1
 90
        0
176
     1
290
     0
176
     1
290
     1
176
     1
290
     1
176
     1
290
     0
176
     1
290
     0
176
     1
290
     0
176
     1
290
     0
176
     1
290
     0
176
     1
290
     0
176
     1
 90
       50
176
     1
 40
0.0
176
     1
 40
1.0
176
     1
 90
        0
176
     1
 62
    18
420
        0
176
     1
 90
       50
176
     1
 90
        3
176
     1
 62
     5
420
      255
176
     1
290
     0
176
     1
 90
       50
176
     1
 90
       50
176
     1
 90
       50
176
     1
290
     0
176
     1
 90
       50
176
     1
 62
   256
176
     0
 40
1.0
176
     0
 90
        2
176
     1
  1
strokes_ogs.tif
176
     1
290
     0
176
     1
 40
1.0
176
     1
 40
1.0
176
     1
  0
VISUALSTYLE
  5
32
102
{ACAD_REACTORS
330
29
102
}
330
29
100
AcDbVisualStyle
  2
Conceptual
 70
     9
177
     3
291
     0
 70
    58
 90
        3
176
     1
 90
        2
176
     1
 90
        0
176
     1
 90
        0
176
     1
 40
0.6
176
     1
 40
30.0
176
     1
 62
     7
420
 16777215
176
     1
 90
        2
176
     1
 90
        2
176
     1
 62
     7
176
     1
 62
   257
176
     1
 90
        1
176
     1
 90
        1
176
     1
 40
179.0
176
     1
 90
        8
176
     1
 62
     7
176
     1
 40
1.0
176
     1
 90
        1
176
     1
 90
        6
176
     1
 90
        2
176
     1
 62
     7
176
     1
 90
        3
176
     1
 90
        0
176
     1
 90
        0
176
     1
290
     0
176
     1
 90
        1
176
     1
 40
0.0
176
     1
 90
        0
176
     1
290
     0
176
     1
290
     1
176
     1
290
     1
176
     1
290
     0
176
     1
290
     0
176
     1
290
     0
176
     1
290
     0
176
     1
290
     0
176
     1
290
     0
176
     1
 90
       50
176
     1
 40
0.0
176
     1
 40
1.0
176
     1
 90
        0
176
     1
 62
    18
420
        0
176
     1
 90
       50
176
     1
 90
        3
176
     1
 62
     5
420
      255
176
     1
290
     0
176
     1
 90
       50
176
     1
 90
       50
176
     1
 90
       50
176
     1
290
     0
176
     1
 90
       50
176
     1
 62
   256
176
     0
 40
1.0
176
     0
 90
        2
176
     1
  1
strokes_ogs.tif
176
     1
290
     0
176
     1
 40
1.0
176
     1
 40
1.0
176
     1
  0
VISUALSTYLE
  5
34
102
{ACAD_REACTORS
330
29
102
}
330
29
100
AcDbVisualStyle
  2
Dim
 70
    11
177
     3
291
     1
 70
    58
 90
        2
176
     1
 90
        2
176
     1
 90
        0
176
     1
 90
        0
176
     1
 40
0.6
176
     1
 40
30.0
176
     1
 62
     7
420
 16777215
176
     1
 90
        1
176
     1
 90
        4
176
     1
 62
     7
176
     1
 62
   257
176
     1
 90
        1
176
     1
 90
        1
176
     1
 40
1.0
176
     1
 90
        8
176
     1
 62
     7
176
     1
 40
1.0
176
     1
 90
        1
176
     1
 90
        6
176
     1
 90
        2
176
     1
 62
     7
176
     1
 90
        5
176
     1
 90
        0
176
     1
 90
        0
176
     1
290
     0
176
     1
 90
        1
176
     1
 40
-50.0
176
     1
 90
        0
176
     1
290
     0
176
     1
290
     1
176
     1
290
     1
176
     1
290
     0
176
     1
290
     0
176
     1
290
     0
176
     1
290
     0
176
     1
290
     0
176
     1
290
     0
176
     1
 90
       50
176
     1
 40
0.0
176
     1
 40
1.0
176
     1
 90
        0
176
     1
 62
    18
420
        0
176
     1
 90
       50
176
     1
 90
        3
176
     1
 62
     5
420
      255
176
     1
290
     0
176
     1
 90
       50
176
     1
 90
       50
176
     1
 90
       50
176
     1
290
     0
176
     1
 90
       50
176
     1
 62
   256
176
     0
 40
1.0
176
     0
 90
        2
176
     1
  1
strokes_ogs.tif
176
     1
290
     0
176
     1
 40
1.0
176
     1
 40
1.0
176
     1
  0
VISUALSTYLE
  5
41
102
{ACAD_REACTORS
330
29
102
}
330
29
100
AcDbVisualStyle
  2
EdgeColorOff
 70
    22
177
     3
291
     1
 70
    58
 90
        2
176
     0
 90
        2
176
     0
 90
        0
176
     0
 90
        0
176
     0
 40
0.6
176
     0
 40
30.0
176
     0
 62
     7
420
 16777215
176
     0
 90
        1
176
     0
 90
        4
176
     0
 62
     7
176
     0
 62
   257
176
     0
 90
        1
176
     0
 90
        1
176
     0
 40
1.0
176
     0
 90
        8
176
     2
 62
     7
176
     0
 40
1.0
176
     0
 90
        1
176
     0
 90
        6
176
     0
 90
        2
176
     0
 62
     7
176
     0
 90
        5
176
     0
 90
        0
176
     0
 90
        0
176
     0
290
     0
176
     0
 90
        1
176
     0
 40
0.0
176
     0
 90
        0
176
     0
290
     0
176
     0
290
     1
176
     0
290
     1
176
     0
290
     0
176
     0
290
     0
176
     0
290
     0
176
     0
290
     0
176
     0
290
     0
176
     0
290
     0
176
     0
 90
       50
176
     0
 40
0.0
176
     0
 40
1.0
176
     0
 90
        0
176
     0
 62
    18
420
        0
176
     0
 90
       50
176
     0
 90
        3
176
     0
 62
     5
420
      255
176
     0
290
     0
176
     0
 90
       50
176
     0
 90
       50
176
     0
 90
       50
176
     0
290
     0
176
     0
 90
       50
176
     0
 62
   256
176
     0
 40
1.0
176
     0
 90
        2
176
     0
  1
strokes_ogs.tif
176
     0
290
     0
176
     0
 40
1.0
176
     0
 40
1.0
176
     0
  0
VISUALSTYLE
  5
38
102
{ACAD_REACTORS
330
29
102
}
330
29
100
AcDbVisualStyle
  2
Facepattern
 70
    15
177
     3
291
     1
 70
    58
 90
        2
176
     1
 90
        2
176
     1
 90
        0
176
     1
 90
        0
176
     1
 40
0.6
176
     1
 40
30.0
176
     1
 62
     7
420
 16777215
176
     1
 90
        1
176
     1
 90
        4
176
     1
 62
     7
176
     1
 62
   257
176
     1
 90
        1
176
     1
 90
        1
176
     1
 40
1.0
176
     1
 90
        8
176
     1
 62
     7
176
     1
 40
1.0
176
     1
 90
        1
176
     1
 90
        6
176
     1
 90
        2
176
     1
 62
     7
176
     1
 90
        5
176
     1
 90
        0
176
     1
 90
        0
176
     1
290
     0
176
     1
 90
        1
176
     1
 40
0.0
176
     1
 90
        0
176
     1
290
     0
176
     1
290
     1
176
     1
290
     1
176
     1
290
     0
176
     1
290
     0
176
     1
290
     0
176
     1
290
     0
176
     1
290
     0
176
     1
290
     0
176
     1
 90
       50
176
     1
 40
0.0
176
     1
 40
1.0
176
     1
 90
        0
176
     1
 62
    18
420
        0
176
     1
 90
       50
176
     1
 90
        3
176
     1
 62
     5
420
      255
176
     1
290
     0
176
     1
 90
       50
176
     1
 90
       50
176
     1
 90
       50
176
     1
290
     0
176
     1
 90
       50
176
     1
 62
   256
176
     0
 40
1.0
176
     0
 90
        2
176
     1
  1
strokes_ogs.tif
176
     1
290
     0
176
     1
 40
1.0
176
     1
 40
1.0
176
     1
  0
VISUALSTYLE
  5
2A
102
{ACAD_REACTORS
330
29
102
}
330
29
100
AcDbVisualStyle
  2
Flat
 70
     0
177
     3
291
     1
 70
    58
 90
        2
176
     1
 90
        1
176
     1
 90
        1
176
     1
 90
        2
176
     1
 40
0.6
176
     1
 40
30.0
176
     1
 62
     7
420
 16777215
176
     1
 90
        0
176
     1
 90
        0
176
     1
 62
     7
176
     1
 62
   257
176
     1
 90
        1
176
     1
 90
        1
176
     1
 40
1.0
176
     1
 90
        8
176
     1
 62
     7
176
     1
 40
1.0
176
     1
 90
        1
176
     1
 90
        6
176
     1
 90
        2
176
     1
 62
     7
176
     1
 90
        5
176
     1
 90
        0
176
     1
 90
        0
176
     1
290
     0
176
     1
 90
       13
176
     1
 40
0.0
176
     1
 90
        0
176
     1
290
     0
176
     1
290
     1
176
     1
290
     1
176
     1
290
     0
176
     1
290
     0
176
     1
290
     0
176
     1
290
     0
176
     1
290
     0
176
     1
290
     0
176
     1
 90
       50
176
     1
 40
0.0
176
     1
 40
1.0
176
     1
 90
        0
176
     1
 62
    18
420
        0
176
     1
 90
       50
176
     1
 90
        3
176
     1
 62
     5
420
      255
176
     1
290
     0
176
     1
 90
       50
176
     1
 90
       50
176
     1
 90
       50
176
     1
290
     0
176
     1
 90
       50
176
     1
 62
   256
176
     0
 40
1.0
176
     0
 90
        2
176
     1
  1
strokes_ogs.tif
176
     1
290
     0
176
     1
 40
1.0
176
     1
 40
1.0
176
     1
  0
VISUALSTYLE
  5
2B
102
{ACAD_REACTORS
330
29
102
}
330
29
100
AcDbVisualStyle
  2
FlatWithEdges
 70
     1
177
     3
291
     1
 70
    58
 90
        2
176
     1
 90
        1
176
     1
 90
        1
176
     1
 90
        2
176
     1
 40
0.6
176
     1
 40
30.0
176
     1
 62
     7
420
 16777215
176
     1
 90
        1
176
     1
 90
        0
176
     1
 62
     7
176
     1
 62
   257
176
     1
 90
        1
176
     1
 90
        1
176
     1
 40
1.0
176
     1
 90
        0
176
     1
 62
   257
176
     1
 40
1.0
176
     1
 90
        1
176
     1
 90
        6
176
     1
 90
        2
176
     1
 62
     7
176
     1
 90
        5
176
     1
 90
        0
176
     1
 90
        0
176
     1
290
     0
176
     1
 90
       13
176
     1
 40
0.0
176
     1
 90
        0
176
     1
290
     0
176
     1
290
     1
176
     1
290
     1
176
     1
290
     0
176
     1
290
     0
176
     1
290
     0
176
     1
290
     0
176
     1
290
     0
176
     1
290
     0
176
     1
 90
       50
176
     1
 40
0.0
176
     1
 40
1.0
176
     1
 90
        0
176
     1
 62
    18
420
        0
176
     1
 90
       50
176
     1
 90
        3
176
     1
 62
     5
420
      255
176
     1
290
     0
176
     1
 90
       50
176
     1
 90
       50
176
     1
 90
       50
176
     1
290
     0
176
     1
 90
       50
176
     1
 62
   256
176
     0
 40
1.0
176
     0
 90
        2
176
     1
  1
strokes_ogs.tif
176
     1
290
     0
176
     1
 40
1.0
176
     1
 40
1.0
176
     1
  0
VISUALSTYLE
  5
2C
102
{ACAD_REACTORS
330
29
102
}
330
29
100
AcDbVisualStyle
  2
Gouraud
 70
     2
177
     3
291
     1
 70
    58
 90
        2
176
     1
 90
        2
176
     1
 90
        1
176
     1
 90
        2
176
     1
 40
0.6
176
     1
 40
30.0
176
     1
 62
     7
420
 16777215
176
     1
 90
        0
176
     1
 90
        0
176
     1
 62
     7
176
     1
 62
   257
176
     1
 90
        1
176
     1
 90
        1
176
     1
 40
1.0
176
     1
 90
        0
176
     1
 62
     7
176
     1
 40
1.0
176
     1
 90
        1
176
     1
 90
        6
176
     1
 90
        2
176
     1
 62
     7
176
     1
 90
        5
176
     1
 90
        0
176
     1
 90
        0
176
     1
290
     0
176
     1
 90
       13
176
     1
 40
0.0
176
     1
 90
        0
176
     1
290
     0
176
     1
290
     1
176
     1
290
     1
176
     1
290
     0
176
     1
290
     0
176
     1
290
     0
176
     1
290
     0
176
     1
290
     0
176
     1
290
     0
176
     1
 90
       50
176
     1
 40
0.0
176
     1
 40
1.0
176
     1
 90
        0
176
     1
 62
    18
420
        0
176
     1
 90
       50
176
     1
 90
        3
176
     1
 62
     5
420
      255
176
     1
290
     0
176
     1
 90
       50
176
     1
 90
       50
176
     1
 90
       50
176
     1
290
     0
176
     1
 90
       50
176
     1
 62
   256
176
     0
 40
1.0
176
     0
 90
        2
176
     1
  1
strokes_ogs.tif
176
     1
290
     0
176
     1
 40
1.0
176
     1
 40
1.0
176
     1
  0
VISUALSTYLE
  5
2D
102
{ACAD_REACTORS
330
29
102
}
330
29
100
AcDbVisualStyle
  2
GouraudWithEdges
 70
     3
177
     3
291
     1
 70
    58
 90
        2
176
     1
 90
        2
176
     1
 90
        1
176
     1
 90
        2
176
     1
 40
0.6
176
     1
 40
30.0
176
     1
 62
     7
420
 16777215
176
     1
 90
        1
176
     1
 90
        0
176
     1
 62
     7
176
     1
 62
   257
176
     1
 90
        1
176
     1
 90
        1
176
     1
 40
1.0
176
     1
 90
        0
176
     1
 62
   257
176
     1
 40
1.0
176
     1
 90
        1
176
     1
 90
        6
176
     1
 90
        2
176
     1
 62
     7
176
     1
 90
        5
176
     1
 90
        0
176
     1
 90
        0
176
     1
290
     0
176
     1
 90
       13
176
     1
 40
0.0
176
     1
 90
        0
176
     1
290
     0
176
     1
290
     1
176
     1
290
     1
176
     1
290
     0
176
     1
290
     0
176
     1
290
     0
176
     1
290
     0
176
     1
290
     0
176
     1
290
     0
176
     1
 90
       50
176
     1
 40
0.0
176
     1
 40
1.0
176
     1
 90
        0
176
     1
 62
    18
420
        0
176
     1
 90
       50
176
     1
 90
        3
176
     1
 62
     5
420
      255
176
     1
290
     0
176
     1
 90
       50
176
     1
 90
       50
176
     1
 90
       50
176
     1
290
     0
176
     1
 90
       50
176
     1
 62
   256
176
     0
 40
1.0
176
     0
 90
        2
176
     1
  1
strokes_ogs.tif
176
     1
290
     0
176
     1
 40
1.0
176
     1
 40
1.0
176
     1
  0
VISUALSTYLE
  5
31
102
{ACAD_REACTORS
330
29
102
}
330
29
100
AcDbVisualStyle
  2
Hidden
 70
     6
177
     3
291
     0
 70
    58
 90
        1
176
     1
 90
        2
176
     1
 90
        2
176
     1
 90
        0
176
     1
 40
0.6
176
     1
 40
30.0
176
     1
 62
     7
420
 16777215
176
     1
 90
        2
176
     1
 90
        2
176
     1
 62
     7
176
     1
 62
   257
176
     1
 90
        2
176
     1
 90
        1
176
     1
 40
40.0
176
     1
 90
        0
176
     1
 62
   257
176
     1
 40
1.0
176
     1
 90
        1
176
     1
 90
        6
176
     1
 90
        2
176
     1
 62
     7
176
     1
 90
        3
176
     1
 90
        0
176
     1
 90
        0
176
     1
290
     0
176
     1
 90
        1
176
     1
 40
0.0
176
     1
 90
        0
176
     1
290
     0
176
     1
290
     1
176
     1
290
     1
176
     1
290
     0
176
     1
290
     0
176
     1
290
     0
176
     1
290
     0
176
     1
290
     0
176
     1
290
     0
176
     1
 90
       50
176
     1
 40
0.0
176
     1
 40
1.0
176
     1
 90
        0
176
     1
 62
    18
420
        0
176
     1
 90
       50
176
     1
 90
        3
176
     1
 62
     5
420
      255
176
     1
290
     0
176
     1
 90
       50
176
     1
 90
       50
176
     1
 90
       50
176
     1
290
     0
176
     1
 90
       50
176
     1
 62
   256
176
     0
 40
1.0
176
     0
 90
        2
176
     1
  1
strokes_ogs.tif
176
     1
290
     0
176
     1
 40
1.0
176
     1
 40
1.0
176
     1
  0
VISUALSTYLE
  5
3F
102
{ACAD_REACTORS
330
29
102
}
330
29
100
AcDbVisualStyle
  2
JitterOff
 70
    20
177
     3
291
     1
 70
    58
 90
        2
176
     0
 90
        2
176
     0
 90
        0
176
     0
 90
        0
176
     0
 40
0.6
176
     0
 40
30.0
176
     0
 62
     7
420
 16777215
176
     0
 90
        1
176
     0
 90
        4
176
     0
 62
     7
176
     0
 62
   257
176
     0
 90
        1
176
     0
 90
        1
176
     0
 40
1.0
176
     0
 90
       10
176
     2
 62
     7
176
     0
 40
1.0
176
     0
 90
        1
176
     0
 90
        6
176
     0
 90
        2
176
     0
 62
     7
176
     0
 90
        5
176
     0
 90
        0
176
     0
 90
        0
176
     0
290
     0
176
     0
 90
        1
176
     0
 40
0.0
176
     0
 90
        0
176
     0
290
     0
176
     0
290
     1
176
     0
290
     1
176
     0
290
     0
176
     0
290
     0
176
     0
290
     0
176
     0
290
     0
176
     0
290
     0
176
     0
290
     0
176
     0
 90
       50
176
     0
 40
0.0
176
     0
 40
1.0
176
     0
 90
        0
176
     0
 62
    18
420
        0
176
     0
 90
       50
176
     0
 90
        3
176
     0
 62
     5
420
      255
176
     0
290
     0
176
     0
 90
       50
176
     0
 90
       50
176
     0
 90
       50
176
     0
290
     0
176
     0
 90
       50
176
     0
 62
   256
176
     0
 40
1.0
176
     0
 90
        2
176
     0
  1
strokes_ogs.tif
176
     0
290
     0
176
     0
 40
1.0
176
     0
 40
1.0
176
     0
  0
VISUALSTYLE
  5
37
102
{ACAD_REACTORS
330
29
102
}
330
29
100
AcDbVisualStyle
  2
Linepattern
 70
    14
177
     3
291
     1
 70
    58
 90
        2
176
     1
 90
        2
176
     1
 90
        0
176
     1
 90
        0
176
     1
 40
0.6
176
     1
 40
30.0
176
     1
 62
     7
420
 16777215
176
     1
 90
        1
176
     1
 90
        4
176
     1
 62
     7
176
     1
 62
   257
176
     1
 90
        7
176
     1
 90
        7
176
     1
 40
1.0
176
     1
 90
        8
176
     1
 62
     7
176
     1
 40
1.0
176
     1
 90
        1
176
     1
 90
        6
176
     1
 90
        2
176
     1
 62
     7
176
     1
 90
        5
176
     1
 90
        0
176
     1
 90
        0
176
     1
290
     0
176
     1
 90
        1
176
     1
 40
0.0
176
     1
 90
        0
176
     1
290
     0
176
     1
290
     1
176
     1
290
     1
176
     1
290
     0
176
     1
290
     0
176
     1
290
     0
176
     1
290
     0
176
     1
290
     0
176
     1
290
     0
176
     1
 90
       50
176
     1
 40
0.0
176
     1
 40
1.0
176
     1
 90
        0
176
     1
 62
    18
420
        0
176
     1
 90
       50
176
     1
 90
        3
176
     1
 62
     5
420
      255
176
     1
290
     0
176
     1
 90
       50
176
     1
 90
       50
176
     1
 90
       50
176
     1
290
     0
176
     1
 90
       50
176
     1
 62
   256
176
     0
 40
1.0
176
     0
 90
        2
176
     1
  1
strokes_ogs.tif
176
     1
290
     0
176
     1
 40
1.0
176
     1
 40
1.0
176
     1
  0
VISUALSTYLE
  5
40
102
{ACAD_REACTORS
330
29
102
}
330
29
100
AcDbVisualStyle
  2
OverhangOff
 70
    21
177
     3
291
     1
 70
    58
 90
        2
176
     0
 90
        2
176
     0
 90
        0
176
     0
 90
        0
176
     0
 40
0.6
176
     0
 40
30.0
176
     0
 62
     7
420
 16777215
176
     0
 90
        1
176
     0
 90
        4
176
     0
 62
     7
176
     0
 62
   257
176
     0
 90
        1
176
     0
 90
        1
176
     0
 40
1.0
176
     0
 90
        9
176
     2
 62
     7
176
     0
 40
1.0
176
     0
 90
        1
176
     0
 90
        6
176
     0
 90
        2
176
     0
 62
     7
176
     0
 90
        5
176
     0
 90
        0
176
     0
 90
        0
176
     0
290
     0
176
     0
 90
        1
176
     0
 40
0.0
176
     0
 90
        0
176
     0
290
     0
176
     0
290
     1
176
     0
290
     1
176
     0
290
     0
176
     0
290
     0
176
     0
290
     0
176
     0
290
     0
176
     0
290
     0
176
     0
290
     0
176
     0
 90
       50
176
     0
 40
0.0
176
     0
 40
1.0
176
     0
 90
        0
176
     0
 62
    18
420
        0
176
     0
 90
       50
176
     0
 90
        3
176
     0
 62
     5
420
      255
176
     0
290
     0
176
     0
 90
       50
176
     0
 90
       50
176
     0
 90
       50
176
     0
290
     0
176
     0
 90
       50
176
     0
 62
   256
176
     0
 40
1.0
176
     0
 90
        2
176
     0
  1
strokes_ogs.tif
176
     0
290
     0
176
     0
 40
1.0
176
     0
 40
1.0
176
     0
  0
VISUALSTYLE
  5
33
102
{ACAD_REACTORS
330
29
102
}
330
29
100
AcDbVisualStyle
  2
Realistic
 70
     8
177
     3
291
     0
 70
    58
 90
        2
176
     1
 90
        3
176
     1
 90
        0
176
     1
 90
        2
176
     1
 40
0.6
176
     1
 40
30.0
176
     1
 62
     7
420
 16777215
176
     1
 90
        0
176
     1
 90
        0
176
     1
 62
     7
176
     1
 62
   257
176
     1
 90
        1
176
     1
 90
        1
176
     1
 40
1.0
176
     1
 90
        8
176
     1
 62
   257
176
     1
 40
1.0
176
     1
 90
        1
176
     1
 90
        6
176
     1
 90
        2
176
     1
 62
     7
176
     1
 90
        3
176
     1
 90
        0
176
     1
 90
        0
176
     1
290
     0
176
     1
 90
       13
176
     1
 40
0.0
176
     1
 90
        0
176
     1
290
     0
176
     1
290
     1
176
     1
290
     1
176
     1
290
     0
176
     1
290
     0
176
     1
290
     0
176
     1
290
     0
176
     1
290
     0
176
     1
290
     0
176
     1
 90
       50
176
     1
 40
0.0
176
     1
 40
1.0
176
     1
 90
        0
176
     1
 62
    18
420
        0
176
     1
 90
       50
176
     1
 90
        3
176
     1
 62
     5
420
      255
176
     1
290
     0
176
     1
 90
       50
176
     1
 90
       50
176
     1
 90
       50
176
     1
290
     0
176
     1
 90
       50
176
     1
 62
   256
176
     0
 40
1.0
176
     0
 90
        2
176
     1
  1
strokes_ogs.tif
176
     1
290
     0
176
     1
 40
1.0
176
     1
 40
1.0
176
     1
  0
VISUALSTYLE
  5
3E
102
{ACAD_REACTORS
330
29
102
}
330
29
100
AcDbVisualStyle
  2
Shaded
 70
    27
177
     3
291
     0
 70
    58
 90
        2
176
     1
 90
        2
176
     1
 90
        1
176
     1
 90
        2
176
     1
 40
0.6
176
     1
 40
30.0
176
     1
 62
     7
420
 16777215
176
     1
 90
        0
176
     1
 90
        4
176
     1
 62
     7
176
     1
 62
   257
176
     1
 90
        1
176
     1
 90
        1
176
     1
 40
1.0
176
     1
 90
        8
176
     1
 62
   257
176
     1
 40
1.0
176
     1
 90
        1
176
     1
 90
        6
176
     1
 90
        2
176
     1
 62
     8
420
  7895160
176
     1
 90
        3
176
     1
 90
        0
176
     1
 90
        0
176
     1
290
     0
176
     1
 90
        5
176
     1
 40
0.0
176
     1
 90
        0
176
     1
290
     0
176
     1
290
     1
176
     1
290
     1
176
     1
290
     0
176
     1
290
     0
176
     1
290
     0
176
     1
290
     0
176
     1
290
     0
176
     1
290
     0
176
     1
 90
       50
176
     1
 40
0.0
176
     1
 40
1.0
176
     1
 90
        0
176
     1
 62
    18
420
        0
176
     1
 90
       50
176
     1
 90
        3
176
     1
 62
     5
420
      255
176
     1
290
     0
176
     1
 90
       50
176
     1
 90
       50
176
     1
 90
       50
176
     1
290
     0
176
     1
 90
       50
176
     1
 62
   256
176
     0
 40
1.0
176
     0
 90
        2
176
     1
  1
strokes_ogs.tif
176
     1
290
     0
176
     1
 40
1.0
176
     1
 40
1.0
176
     1
  0
VISUALSTYLE
  5
3D
102
{ACAD_REACTORS
330
29
102
}
330
29
100
AcDbVisualStyle
  2
Shaded with edges
 70
    26
177
     3
291
     0
 70
    58
 90
        2
176
     1
 90
        2
176
     1
 90
        1
176
     1
 90
        2
176
     1
 40
0.6
176
     1
 40
30.0
176
     1
 62
     7
420
 16777215
176
     1
 90
        1
176
     1
 90
        2
176
     1
 62
     7
176
     1
 62
   257
176
     1
 90
        2
176
     1
 90
        1
176
     1
 40
1.0
176
     1
 90
        8
176
     1
 62
   257
176
     1
 40
1.0
176
     1
 90
        1
176
     1
 90
        6
176
     1
 90
        2
176
     1
 62
     7
176
     1
 90
        3
176
     1
 90
        0
176
     1
 90
        0
176
     1
290
     0
176
     1
 90
        5
176
     1
 40
0.0
176
     1
 90
        0
176
     1
290
     0
176
     1
290
     1
176
     1
290
     1
176
     1
290
     0
176
     1
290
     0
176
     1
290
     0
176
     1
290
     0
176
     1
290
     0
176
     1
290
     0
176
     1
 90
       50
176
     1
 40
0.0
176
     1
 40
1.0
176
     1
 90
        0
176
     1
 62
    18
420
        0
176
     1
 90
       50
176
     1
 90
        3
176
     1
 62
     5
420
      255
176
     1
290
     0
176
     1
 90
       50
176
     1
 90
       50
176
     1
 90
       50
176
     1
290
     0
176
     1
 90
       50
176
     1
 62
   256
176
     0
 40
1.0
176
     0
 90
        2
176
     1
  1
strokes_ogs.tif
176
     1
290
     0
176
     1
 40
1.0
176
     1
 40
1.0
176
     1
  0
VISUALSTYLE
  5
3A
102
{ACAD_REACTORS
330
29
102
}
330
29
100
AcDbVisualStyle
  2
Shades of Gray
 70
    23
177
     3
291
     0
 70
    58
 90
        2
176
     1
 90
        2
176
     1
 90
        3
176
     1
 90
        0
176
     1
 40
0.6
176
     1
 40
30.0
176
     1
 62
     7
420
 16777215
176
     1
 90
        2
176
     1
 90
        2
176
     1
 62
     7
176
     1
 62
     7
176
     1
 90
        1
176
     1
 90
        1
176
     1
 40
40.0
176
     1
 90
        8
176
     1
 62
     7
176
     1
 40
1.0
176
     1
 90
        1
176
     1
 90
        6
176
     1
 90
        2
176
     1
 62
     7
176
     1
 90
        3
176
     1
 90
        0
176
     1
 90
        0
176
     1
290
     0
176
     1
 90
        1
176
     1
 40
0.0
176
     1
 90
        0
176
     1
290
     0
176
     1
290
     1
176
     1
290
     1
176
     1
290
     0
176
     1
290
     0
176
     1
290
     0
176
     1
290
     0
176
     1
290
     0
176
     1
290
     0
176
     1
 90
       50
176
     1
 40
0.0
176
     1
 40
1.0
176
     1
 90
        0
176
     1
 62
    18
420
        0
176
     1
 90
       50
176
     1
 90
        3
176
     1
 62
     5
420
      255
176
     1
290
     0
176
     1
 90
       50
176
     1
 90
       50
176
     1
 90
       50
176
     1
290
     0
176
     1
 90
       50
176
     1
 62
   256
176
     0
 40
1.0
176
     0
 90
        2
176
     1
  1
strokes_ogs.tif
176
     1
290
     0
176
     1
 40
1.0
176
     1
 40
1.0
176
     1
  0
VISUALSTYLE
  5
3B
102
{ACAD_REACTORS
330
29
102
}
330
29
100
AcDbVisualStyle
  2
Sketchy
 70
    24
177
     3
291
     0
 70
    58
 90
        1
176
     1
 90
        2
176
     1
 90
        2
176
     1
 90
        0
176
     1
 40
0.6
176
     1
 40
30.0
176
     1
 62
     7
420
 16777215
176
     1
 90
        2
176
     1
 90
        2
176
     1
 62
     7
176
     1
 62
     7
176
     1
 90
        1
176
     1
 90
        1
176
     1
 40
40.0
176
     1
 90
       11
176
     1
 62
     7
176
     1
 40
1.0
176
     1
 90
        1
176
     1
 90
        6
176
     1
 90
        2
176
     1
 62
     7
176
     1
 90
        6
176
     1
 90
        0
176
     1
 90
        0
176
     1
290
     0
176
     1
 90
        1
176
     1
 40
0.0
176
     1
 90
        0
176
     1
290
     0
176
     1
290
     1
176
     1
290
     1
176
     1
290
     0
176
     1
290
     0
176
     1
290
     0
176
     1
290
     0
176
     1
290
     0
176
     1
290
     0
176
     1
 90
       50
176
     1
 40
0.0
176
     1
 40
1.0
176
     1
 90
        0
176
     1
 62
    18
420
        0
176
     1
 90
       50
176
     1
 90
        3
176
     1
 62
     5
420
      255
176
     1
290
     0
176
     1
 90
       50
176
     1
 90
       50
176
     1
 90
       50
176
     1
290
     0
176
     1
 90
       50
176
     1
 62
   256
176
     0
 40
1.0
176
     0
 90
        2
176
     1
  1
strokes_ogs.tif
176
     1
290
     0
176
     1
 40
1.0
176
     1
 40
1.0
176
     1
  0
VISUALSTYLE
  5
36
102
{ACAD_REACTORS
330
29
102
}
330
29
100
AcDbVisualStyle
  2
Thicken
 70
    13
177
     3
291
     1
 70
    58
 90
        2
176
     1
 90
        2
176
     1
 90
        0
176
     1
 90
        0
176
     1
 40
0.6
176
     1
 40
30.0
176
     1
 62
     7
420
 16777215
176
     1
 90
        1
176
     1
 90
        4
176
     1
 62
     7
176
     1
 62
   257
176
     1
 90
        1
176
     1
 90
        1
176
     1
 40
1.0
176
     1
 90
       12
176
     1
 62
     7
176
     1
 40
1.0
176
     1
 90
        1
176
     1
 90
        6
176
     1
 90
        2
176
     1
 62
     7
176
     1
 90
        5
176
     1
 90
        0
176
     1
 90
        0
176
     1
290
     0
176
     1
 90
        1
176
     1
 40
0.0
176
     1
 90
        0
176
     1
290
     0
176
     1
290
     1
176
     1
290
     1
176
     1
290
     0
176
     1
290
     0
176
     1
290
     0
176
     1
290
     0
176
     1
290
     0
176
     1
290
     0
176
     1
 90
       50
176
     1
 40
0.0
176
     1
 40
1.0
176
     1
 90
        0
176
     1
 62
    18
420
        0
176
     1
 90
       50
176
     1
 90
        3
176
     1
 62
     5
420
      255
176
     1
290
     0
176
     1
 90
       50
176
     1
 90
       50
176
     1
 90
       50
176
     1
290
     0
176
     1
 90
       50
176
     1
 62
   256
176
     0
 40
1.0
176
     0
 90
        2
176
     1
  1
strokes_ogs.tif
176
     1
290
     0
176
     1
 40
1.0
176
     1
 40
1.0
176
     1
  0
VISUALSTYLE
  5
30
102
{ACAD_REACTORS
330
29
102
}
330
29
100
AcDbVisualStyle
  2
Wireframe
 70
     5
177
     3
291
     0
 70
    58
 90
        0
176
     1
 90
        2
176
     1
 90
        0
176
     1
 90
        0
176
     1
 40
0.6
176
     1
 40
30.0
176
     1
 62
     7
420
 16777215
176
     1
 90
        1
176
     1
 90
        4
176
     1
 62
     7
176
     1
 62
   257
176
     1
 90
        1
176
     1
 90
        1
176
     1
 40
1.0
176
     1
 90
        0
176
     1
 62
   257
176
     1
 40
1.0
176
     1
 90
        1
176
     1
 90
        6
176
     1
 90
        2
176
     1
 62
     7
176
     1
 90
        3
176
     1
 90
        0
176
     1
 90
        0
176
     1
290
     0
176
     1
 90
        1
176
     1
 40
0.0
176
     1
 90
        0
176
     1
290
     0
176
     1
290
     1
176
     1
290
     1
176
     1
290
     0
176
     1
290
     0
176
     1
290
     0
176
     1
290
     0
176
     1
290
     0
176
     1
290
     0
176
     1
 90
       50
176
     1
 40
0.0
176
     1
 40
1.0
176
     1
 90
        0
176
     1
 62
    18
420
        0
176
     1
 90
       50
176
     1
 90
        3
176
     1
 62
     5
420
      255
176
     1
290
     0
176
     1
 90
       50
176
     1
 90
       50
176
     1
 90
       50
176
     1
290
     0
176
     1
 90
       50
176
     1
 62
   256
176
     0
 40
1.0
176
     0
 90
        2
176
     1
  1
strokes_ogs.tif
176
     1
290
     0
176
     1
 40
1.0
176
     1
 40
1.0
176
     1
  0
VISUALSTYLE
  5
3C
102
{ACAD_REACTORS
330
29
102
}
330
29
100
AcDbVisualStyle
  2
X-Ray
 70
    25
177
     3
291
     0
 70
    58
 90
        2
176
     1
 90
        2
176
     1
 90
        1
176
     1
 90
        1
176
     1
 40
0.5
176
     1
 40
30.0
176
     1
 62
     7
420
 16777215
176
     1
 90
        1
176
     1
 90
        0
176
     1
 62
     7
176
     1
 62
   257
176
     1
 90
        1
176
     1
 90
        1
176
     1
 40
1.0
176
     1
 90
        8
176
     1
 62
     7
176
     1
 40
1.0
176
     1
 90
        1
176
     1
 90
        6
176
     1
 90
        2
176
     1
 62
     7
176
     1
 90
        3
176
     1
 90
        0
176
     1
 90
        0
176
     1
290
     0
176
     1
 90
       13
176
     1
 40
0.0
176
     1
 90
        0
176
     1
290
     0
176
     1
290
     1
176
     1
290
     1
176
     1
290
     0
176
     1
290
     0
176
     1
290
     0
176
     1
290
     0
176
     1
290
     0
176
     1
290
     0
176
     1
 90
       50
176
     1
 40
0.0
176
     1
 40
1.0
176
     1
 90
        0
176
     1
 62
    18
420
        0
176
     1
 90
       50
176
     1
 90
        3
176
     1
 62
     5
420
      255
176
     1
290
     0
176
     1
 90
       50
176
     1
 90
       50
176
     1
 90
       50
176
     1
290
     0
176
     1
 90
       50
176
     1
 62
   256
176
     0
 40
1.0
176
     0
 90
        2
176
     1
  1
strokes_ogs.tif
176
     1
290
     0
176
     1
 40
1.0
176
     1
 40
1.0
176
     1
  0
DICTIONARYVAR
  5
EC
102
{ACAD_REACTORS
330
E7
102
}
330
E7
100
DictionaryVariables
280
     0
  1
1:1
  0
DICTIONARYVAR
  5
E9
102
{ACAD_REACTORS
330
E7
102
}
330
E7
100
DictionaryVariables
280
     0
  1
STANDARD
  0
DICTIONARYVAR
  5
E8
102
{ACAD_REACTORS
330
E7
102
}
330
E7
100
DictionaryVariables
280
     0
  1
STANDARD
  0
DICTIONARYVAR
  5
EA
102
{ACAD_REACTORS
330
E7
102
}
330
E7
100
DictionaryVariables
280
     0
  1
Imperial24
  0
DICTIONARYVAR
  5
EB
102
{ACAD_REACTORS
330
E7
102
}
330
E7
100
DictionaryVariables
280
     0
  1
Imperial24
  0
DICTIONARY
  5
1A
330
19
100
AcDbDictionary
280
     1
281
     1
  3
BUMPTILE
360
1C
  3
DIFFUSETILE
360
1B
  3
OPACITYTILE
360
1F
  3
REFLECTIONTILE
360
1E
  3
REFRACTIONTILE
360
20
  3
SPECULARTILE
360
1D
  0
DICTIONARY
  5
12
330
11
100
AcDbDictionary
280
     1
281
     1
  3
BUMPTILE
360
14
  3
DIFFUSETILE
360
13
  3
OPACITYTILE
360
17
  3
REFLECTIONTILE
360
16
  3
REFRACTIONTILE
360
18
  3
SPECULARTILE
360
15
  0
DICTIONARY
  5
22
330
21
100
AcDbDictionary
280
     1
281
     1
  3
BUMPTILE
360
24
  3
DIFFUSETILE
360
23
  3
OPACITYTILE
360
27
  3
REFLECTIONTILE
360
26
  3
REFRACTIONTILE
360
28
  3
SPECULARTILE
360
25
  0
DICTIONARY
  5
ED
330
65
100
AcDbDictionary
280
     1
281
     1
  3
ACAD_ROUNDTRIP_2008_TABLESTYLE_CELLSTYLEMAP
360
EE
  0
XRECORD
  5
1C
102
{ACAD_REACTORS
330
1A
102
}
330
1A
100
AcDbXrecord
280
     1
270
     1
271
     1
  0
XRECORD
  5
1B
102
{ACAD_REACTORS
330
1A
102
}
330
1A
100
AcDbXrecord
280
     1
270
     1
271
     1
  0
XRECORD
  5
1F
102
{ACAD_REACTORS
330
1A
102
}
330
1A
100
AcDbXrecord
280
     1
270
     1
271
     1
  0
XRECORD
  5
1E
102
{ACAD_REACTORS
330
1A
102
}
330
1A
100
AcDbXrecord
280
     1
270
     1
271
     1
  0
XRECORD
  5
20
102
{ACAD_REACTORS
330
1A
102
}
330
1A
100
AcDbXrecord
280
     1
270
     1
271
     1
  0
XRECORD
  5
1D
102
{ACAD_REACTORS
330
1A
102
}
330
1A
100
AcDbXrecord
280
     1
270
     1
271
     1
  0
XRECORD
  5
14
102
{ACAD_REACTORS
330
12
102
}
330
12
100
AcDbXrecord
280
     1
270
     1
271
     1
  0
XRECORD
  5
13
102
{ACAD_REACTORS
330
12
102
}
330
12
100
AcDbXrecord
280
     1
270
     1
271
     1
  0
XRECORD
  5
17
102
{ACAD_REACTORS
330
12
102
}
330
12
100
AcDbXrecord
280
     1
270
     1
271
     1
  0
XRECORD
  5
16
102
{ACAD_REACTORS
330
12
102
}
330
12
100
AcDbXrecord
280
     1
270
     1
271
     1
  0
XRECORD
  5
18
102
{ACAD_REACTORS
330
12
102
}
330
12
100
AcDbXrecord
280
     1
270
     1
271
     1
  0
XRECORD
  5
15
102
{ACAD_REACTORS
330
12
102
}
330
12
100
AcDbXrecord
280
     1
270
     1
271
     1
  0
XRECORD
  5
24
102
{ACAD_REACTORS
330
22
102
}
330
22
100
AcDbXrecord
280
     1
270
     1
271
     1
  0
XRECORD
  5
23
102
{ACAD_REACTORS
330
22
102
}
330
22
100
AcDbXrecord
280
     1
270
     1
271
     1
  0
XRECORD
  5
27
102
{ACAD_REACTORS
330
22
102
}
330
22
100
AcDbXrecord
280
     1
270
     1
271
     1
  0
XRECORD
  5
26
102
{ACAD_REACTORS
330
22
102
}
330
22
100
AcDbXrecord
280
     1
270
     1
271
     1
  0
XRECORD
  5
28
102
{ACAD_REACTORS
330
22
102
}
330
22
100
AcDbXrecord
280
     1
270
     1
271
     1
  0
XRECORD
  5
25
102
{ACAD_REACTORS
330
22
102
}
330
22
100
AcDbXrecord
280
     1
270
     1
271
     1
  0
CELLSTYLEMAP
  5
EE
102
{ACAD_REACTORS
330
ED
102
}
330
ED
100
AcDbCellStyleMap
 90
        3
300
CELLSTYLE
  1
TABLEFORMAT_BEGIN
 90
        5
170
     1
 91
        0
 92
    32768
 62
   257
 93
        1
300
CONTENTFORMAT
  1
CONTENTFORMAT_BEGIN
 90
        0
 91
        0
 92
      512
 93
        0
300

 40
0.0
140
1.0
 94
        5
 62
     0
340
55
144
0.25
309
CONTENTFORMAT_END
171
     0
 94
        0
309
TABLEFORMAT_END
  1
CELLSTYLE_BEGIN
 90
        1
 91
        1
300
_TITLE
309
CELLSTYLE_END
300
CELLSTYLE
  1
TABLEFORMAT_BEGIN
 90
        5
170
     1
 91
        0
 92
        0
 62
   257
 93
        1
300
CONTENTFORMAT
  1
CONTENTFORMAT_BEGIN
 90
        0
 91
        0
 92
      512
 93
        0
300

 40
0.0
140
1.0
 94
        5
 62
     0
340
55
144
0.18
309
CONTENTFORMAT_END
171
     0
 94
        0
309
TABLEFORMAT_END
  1
CELLSTYLE_BEGIN
 90
        2
 91
        1
300
_HEADER
309
CELLSTYLE_END
300
CELLSTYLE
  1
TABLEFORMAT_BEGIN
 90
        5
170
     1
 91
        0
 92
        0
 62
   257
 93
        1
300
CONTENTFORMAT
  1
CONTENTFORMAT_BEGIN
 90
        0
 91
        0
 92
      512
 93
        0
300

 40
0.0
140
1.0
 94
        2
 62
     0
340
55
144
0.18
309
CONTENTFORMAT_END
171
     0
 94
        0
309
TABLEFORMAT_END
  1
CELLSTYLE_BEGIN
 90
        3
 91
        2
300
_DATA
309
CELLSTYLE_END
  0
ENDSEC
  0
EOF
