  0
SECTION
  2
HEADER
  9
$ACADVER
  1
AC1032
  9
$ACADMAINTVER
 90
      228
  9
$DWGCODEPAGE
  3
ANSI_1252
  9
$REQUIREDVERSIONS
160
                 0
  9
$INSBASE
 10
0.0
 20
0.0
 30
0.0
  9
$EXTMIN
 10
1.000000000000000E+20
 20
1.000000000000000E+20
 30
1.000000000000000E+20
  9
$EXTMAX
 10
-1.000000000000000E+20
 20
-1.000000000000000E+20
 30
-1.000000000000000E+20
  9
$LIMMIN
 10
0.0
 20
0.0
  9
$LIMMAX
 10
12.0
 20
9.0
  9
$ORTHOMODE
 70
     0
  9
$REGENMODE
 70
     1
  9
$FILLMODE
 70
     1
  9
$QTEXTMODE
 70
     0
  9
$MIRRTEXT
 70
     0
  9
$LTSCALE
 40
1.0
  9
$ATTMODE
 70
     1
  9
$TEXTSIZE
 40
0.2
  9
$TRACEWID
 40
0.05
  9
$TEXTSTYLE
  7
Standard
  9
$CLAYER
  8
0
  9
$CELTYPE
  6
ByLayer
  9
$CECOLOR
 62
   256
  9
$CELTSCALE
 40
1.0
  9
$DISPSILH
 70
     0
  9
$DIMSCALE
 40
1.0
  9
$DIMASZ
 40
0.18
  9
$DIMEXO
 40
0.0625
  9
$DIMDLI
 40
0.38
  9
$DIMRND
 40
0.0
  9
$DIMDLE
 40
0.0
  9
$DIMEXE
 40
0.18
  9
$DIMTP
 40
0.0
  9
$DIMTM
 40
0.0
  9
$DIMTXT
 40
0.18
  9
$DIMCEN
 40
0.09
  9
$DIMTSZ
 40
0.0
  9
$DIMTOL
 70
     0
  9
$DIMLIM
 70
     0
  9
$DIMTIH
 70
     1
  9
$DIMTOH
 70
     1
  9
$DIMSE1
 70
     0
  9
$DIMSE2
 70
     0
  9
$DIMTAD
 70
     0
  9
$DIMZIN
 70
     0
  9
$DIMBLK
  1

  9
$DIMASO
 70
     1
  9
$DIMSHO
 70
     1
  9
$DIMPOST
  1

  9
$DIMAPOST
  1

  9
$DIMALT
 70
     0
  9
$DIMALTD
 70
     2
  9
$DIMALTF
 40
25.4
  9
$DIMLFAC
 40
1.0
  9
$DIMTOFL
 70
     0
  9
$DIMTVP
 40
0.0
  9
$DIMTIX
 70
     0
  9
$DIMSOXD
 70
     0
  9
$DIMSAH
 70
     0
  9
$DIMBLK1
  1

  9
$DIMBLK2
  1

  9
$DIMSTYLE
  2
Standard
  9
$DIMCLRD
 70
     0
  9
$DIMCLRE
 70
     0
  9
$DIMCLRT
 70
     0
  9
$DIMTFAC
 40
1.0
  9
$DIMGAP
 40
0.09
  9
$DIMJUST
 70
     0
  9
$DIMSD1
 70
     0
  9
$DIMSD2
 70
     0
  9
$DIMTOLJ
 70
     1
  9
$DIMTZIN
 70
     0
  9
$DIMALTZ
 70
     0
  9
$DIMALTTZ
 70
     0
  9
$DIMUPT
 70
     0
  9
$DIMDEC
 70
     4
  9
$DIMTDEC
 70
     4
  9
$DIMALTU
 70
     2
  9
$DIMALTTD
 70
     2
  9
$DIMTXSTY
  7
Standard
  9
$DIMAUNIT
 70
     0
  9
$DIMADEC
 70
     0
  9
$DIMALTRND
 40
0.0
  9
$DIMAZIN
 70
     0
  9
$DIMDSEP
 70
    46
  9
$DIMATFIT
 70
     3
  9
$DIMFRAC
 70
     0
  9
$DIMLDRBLK
  1

  9
$DIMLUNIT
 70
     2
  9
$DIMLWD
 70
    -2
  9
$DIMLWE
 70
    -2
  9
$DIMTMOVE
 70
     0
  9
$DIMFXL
 40
1.0
  9
$DIMFXLON
 70
     0
  9
$DIMJOGANG
 40
0.7853981633974483
  9
$DIMTFILL
 70
     0
  9
$DIMTFILLCLR
 70
     0
  9
$DIMARCSYM
 70
     0
  9
$DIMLTYPE
  6

  9
$DIMLTEX1
  6

  9
$DIMLTEX2
  6

  9
$DIMTXTDIRECTION
 70
     0
  9
$LUNITS
 70
     2
  9
$LUPREC
 70
     4
  9
$SKETCHINC
 40
0.1
  9
$FILLETRAD
 40
0.0
  9
$AUNITS
 70
     0
  9
$AUPREC
 70
     0
  9
$MENU
  1
.
  9
$ELEVATION
 40
0.0
  9
$PELEVATION
 40
0.0
  9
$THICKNESS
 40
0.0
  9
$LIMCHECK
 70
     0
  9
$CHAMFERA
 40
0.0
  9
$CHAMFERB
 40
0.0
  9
$CHAMFERC
 40
0.0
  9
$CHAMFERD
 40
0.0
  9
$SKPOLY
 70
     0
  9
$TDCREATE
 40
2460496.779826389
  9
$TDUCREATE
 40
2460497.071493056
  9
$TDUPDATE
 40
2460496.779826389
  9
$TDUUPDATE
 40
2460497.071493056
  9
$TDINDWG
 40
0.0000000000
  9
$TDUSRTIMER
 40
0.0000000000
  9
$USRTIMER
 70
     1
  9
$ANGBASE
 50
0.0
  9
$ANGDIR
 70
     0
  9
$PDMODE
 70
     0
  9
$PDSIZE
 40
0.0
  9
$PLINEWID
 40
0.0
  9
$SPLFRAME
 70
     0
  9
$SPLINETYPE
 70
     6
  9
$SPLINESEGS
 70
     8
  9
$HANDSEED
  5
112
  9
$SURFTAB1
 70
     6
  9
$SURFTAB2
 70
     6
  9
$SURFTYPE
 70
     6
  9
$SURFU
 70
     6
  9
$SURFV
 70
     6
  9
$UCSBASE
  2

  9
$UCSNAME
  2

  9
$UCSORG
 10
0.0
 20
0.0
 30
0.0
  9
$UCSXDIR
 10
1.0
 20
0.0
 30
0.0
  9
$UCSYDIR
 10
0.0
 20
1.0
 30
0.0
  9
$UCSORTHOREF
  2

  9
$UCSORTHOVIEW
 70
     0
  9
$UCSORGTOP
 10
0.0
 20
0.0
 30
0.0
  9
$UCSORGBOTTOM
 10
0.0
 20
0.0
 30
0.0
  9
$UCSORGLEFT
 10
0.0
 20
0.0
 30
0.0
  9
$UCSORGRIGHT
 10
0.0
 20
0.0
 30
0.0
  9
$UCSORGFRONT
 10
0.0
 20
0.0
 30
0.0
  9
$UCSORGBACK
 10
0.0
 20
0.0
 30
0.0
  9
$PUCSBASE
  2

  9
$PUCSNAME
  2

  9
$PUCSORG
 10
0.0
 20
0.0
 30
0.0
  9
$PUCSXDIR
 10
1.0
 20
0.0
 30
0.0
  9
$PUCSYDIR
 10
0.0
 20
1.0
 30
0.0
  9
$PUCSORTHOREF
  2

  9
$PUCSORTHOVIEW
 70
     0
  9
$PUCSORGTOP
 10
0.0
 20
0.0
 30
0.0
  9
$PUCSORGBOTTOM
 10
0.0
 20
0.0
 30
0.0
  9
$PUCSORGLEFT
 10
0.0
 20
0.0
 30
0.0
  9
$PUCSORGRIGHT
 10
0.0
 20
0.0
 30
0.0
  9
$PUCSORGFRONT
 10
0.0
 20
0.0
 30
0.0
  9
$PUCSORGBACK
 10
0.0
 20
0.0
 30
0.0
  9
$USERI1
 70
     0
  9
$USERI2
 70
     0
  9
$USERI3
 70
     0
  9
$USERI4
 70
     0
  9
$USERI5
 70
     0
  9
$USERR1
 40
0.0
  9
$USERR2
 40
0.0
  9
$USERR3
 40
0.0
  9
$USERR4
 40
0.0
  9
$USERR5
 40
0.0
  9
$WORLDVIEW
 70
     1
  9
$SHADEDGE
 70
     3
  9
$SHADEDIF
 70
    70
  9
$TILEMODE
 70
     1
  9
$MAXACTVP
 70
    64
  9
$PINSBASE
 10
0.0
 20
0.0
 30
0.0
  9
$PLIMCHECK
 70
     0
  9
$PEXTMIN
 10
1.000000000000000E+20
 20
1.000000000000000E+20
 30
1.000000000000000E+20
  9
$PEXTMAX
 10
-1.000000000000000E+20
 20
-1.000000000000000E+20
 30
-1.000000000000000E+20
  9
$PLIMMIN
 10
0.0
 20
0.0
  9
$PLIMMAX
 10
12.0
 20
9.0
  9
$UNITMODE
 70
     0
  9
$VISRETAIN
 70
     1
  9
$PLINEGEN
 70
     0
  9
$PSLTSCALE
 70
     1
  9
$TREEDEPTH
 70
  3020
  9
$CMLSTYLE
  2
Standard
  9
$CMLJUST
 70
     0
  9
$CMLSCALE
 40
1.0
  9
$PROXYGRAPHICS
 70
     1
  9
$MEASUREMENT
 70
     0
  9
$CELWEIGHT
370
    -1
  9
$ENDCAPS
280
     0
  9
$JOINSTYLE
280
     0
  9
$LWDISPLAY
290
     1
  9
$INSUNITS
 70
     1
  9
$HYPERLINKBASE
  1

  9
$STYLESHEET
  1

  9
$XEDIT
290
     1
  9
$CEPSNTYPE
380
     0
  9
$PSTYLEMODE
290
     1
  9
$FINGERPRINTGUID
  2
{8236B0B8-9479-5348-BDBA-C4E0949322F6}
  9
$VERSIONGUID
  2
{18BAD996-56B7-B340-B1E2-FD76203DC4F1}
  9
$EXTNAMES
290
     1
  9
$PSVPSCALE
 40
0.0
  9
$OLESTARTUP
290
     0
  9
$SORTENTS
280
   127
  9
$INDEXCTL
280
     0
  9
$HIDETEXT
280
     1
  9
$XCLIPFRAME
280
     2
  9
$HALOGAP
280
     0
  9
$OBSCOLOR
 70
   257
  9
$OBSLTYPE
280
     0
  9
$INTERSECTIONDISPLAY
280
     0
  9
$INTERSECTIONCOLOR
 70
   257
  9
$DIMASSOC
280
     2
  9
$PROJECTNAME
  1

  9
$CAMERADISPLAY
290
     0
  9
$LENSLENGTH
 40
50.0
  9
$CAMERAHEIGHT
 40
0.0
  9
$STEPSPERSEC
 40
2.0
  9
$STEPSIZE
 40
6.0
  9
$3DDWFPREC
 40
2.0
  9
$PSOLWIDTH
 40
0.25
  9
$PSOLHEIGHT
 40
4.0
  9
$LOFTANG1
 40
1.570796326794896
  9
$LOFTANG2
 40
1.570796326794896
  9
$LOFTMAG1
 40
0.0
  9
$LOFTMAG2
 40
0.0
  9
$LOFTPARAM
 70
     7
  9
$LOFTNORMALS
280
     1
  9
$LATITUDE
 40
37.795
  9
$LONGITUDE
 40
-122.394
  9
$NORTHDIRECTION
 40
0.0
  9
$TIMEZONE
 70
 -8000
  9
$LIGHTGLYPHDISPLAY
280
     1
  9
$TILEMODELIGHTSYNCH
280
     1
  9
$CMATERIAL
347
11
  9
$SOLIDHIST
280
     0
  9
$SHOWHIST
280
     1
  9
$DWFFRAME
280
     2
  9
$DGNFRAME
280
     0
  9
$REALWORLDSCALE
290
     1
  9
$INTERFERECOLOR
 62
     1
  9
$INTERFEREOBJVS
345
33
  9
$INTERFEREVPVS
346
30
  9
$CSHADOW
280
     0
  9
$SHADOWPLANELOCATION
 40
0.0
  0
ENDSEC
  0
SECTION
  2
CLASSES
  0
CLASS
  1
ACDBDICTIONARYWDFLT
  2
AcDbDictionaryWithDefault
  3
ObjectDBX Classes
 90
        0
 91
        1
280
     0
281
     0
  0
CLASS
  1
MATERIAL
  2
AcDbMaterial
  3
ObjectDBX Classes
 90
     1153
 91
        3
280
     0
281
     0
  0
CLASS
  1
VISUALSTYLE
  2
AcDbVisualStyle
  3
ObjectDBX Classes
 90
     4095
 91
       24
280
     0
281
     0
  0
CLASS
  1
SCALE
  2
AcDbScale
  3
ObjectDBX Classes
 90
     1153
 91
       17
280
     0
281
     0
  0
CLASS
  1
TABLESTYLE
  2
AcDbTableStyle
  3
ObjectDBX Classes
 90
     4095
 91
        1
280
     0
281
     0
  0
CLASS
  1
MLEADERSTYLE
  2
AcDbMLeaderStyle
  3
ACDB_MLEADERSTYLE_CLASS
 90
     4095
 91
        1
280
     0
281
     0
  0
CLASS
  1
ACDBSECTIONVIEWSTYLE
  2
AcDbSectionViewStyle
  3
ObjectDBX Classes
 90
     1025
 91
        1
280
     0
281
     0
  0
CLASS
  1
ACDBDETAILVIEWSTYLE
  2
AcDbDetailViewStyle
  3
ObjectDBX Classes
 90
     1025
 91
        1
280
     0
281
     0
  0
CLASS
  1
DICTIONARYVAR
  2
AcDbDictionaryVar
  3
ObjectDBX Classes
 90
        0
 91
        5
280
     0
281
     0
  0
CLASS
  1
CELLSTYLEMAP
  2
AcDbCellStyleMap
  3
ObjectDBX Classes
 90
     1152
 91
        1
280
     0
281
     0
  0
ENDSEC
  0
SECTION
  2
TABLES
  0
TABLE
  2
VPORT
  5
8
330
0
100
AcDbSymbolTable
 70
     1
  0
VPORT
  5
57
330
8
100
AcDbSymbolTableRecord
100
AcDbViewportTableRecord
  2
*Active
 70
     0
 10
0.0
 20
0.0
 11
1.0
 21
1.0
 12
0.0
 22
0.0
 13
0.0
 23
0.0
 14
1.0
 24
1.0
 15
0.0
 25
0.0
 16
0.0
 26
0.0
 36
1.0
 17
0.9063715204259281
 27
-9.464948306989626
 37
0.0
 40
28.18769568220839
 41
1.322120462652983
 42
50.0
 43
0.0
 44
0.0
 50
0.0
 51
0.0
 71
     0
 72
   100
 73
     1
 74
     1
 75
     0
 76
     0
 77
     0
 78
     0
281
     0
 65
     1
110
0.0
120
0.0
130
0.0
111
1.0
121
0.0
131
0.0
112
0.0
122
1.0
132
0.0
 79
     0
146
0.0
 60
     3
 61
     5
292
     1
282
     1
141
0.0
142
0.0
 63
   250
421
  3355443
  0
ENDTAB
  0
TABLE
  2
LTYPE
  5
5
330
0
100
AcDbSymbolTable
 70
     1
  0
LTYPE
  5
5B
330
5
100
AcDbSymbolTableRecord
100
AcDbLinetypeTableRecord
  2
ByBlock
 70
     0
  3

 72
    65
 73
     0
 40
0.0
  0
LTYPE
  5
5C
330
5
100
AcDbSymbolTableRecord
100
AcDbLinetypeTableRecord
  2
ByLayer
 70
     0
  3

 72
    65
 73
     0
 40
0.0
  0
LTYPE
  5
5D
330
5
100
AcDbSymbolTableRecord
100
AcDbLinetypeTableRecord
  2
Continuous
 70
     0
  3
Solid line
 72
    65
 73
     0
 40
0.0
  0
ENDTAB
  0
TABLE
  2
LAYER
  5
2
330
0
100
AcDbSymbolTable
 70
     8
  0
LAYER
  5
54
330
2
100
AcDbSymbolTableRecord
100
AcDbLayerTableRecord
  2
0
 70
     0
 62
     7
  6
Continuous
370
    -3
390
F
347
21
348
0
  0
LAYER
  5
78
330
2
100
AcDbSymbolTableRecord
100
AcDbLayerTableRecord
  2
Luffy
 70
     1
 62
     7
  6
Continuous
370
     0
390
F
347
21
348
0
  0
LAYER
  5
79
330
2
100
AcDbSymbolTableRecord
100
AcDbLayerTableRecord
  2
Deck Box - DF
 70
     0
 62
     7
  6
Continuous
370
     0
390
F
347
21
348
0
  0
LAYER
  5
104
330
2
100
AcDbSymbolTableRecord
100
AcDbLayerTableRecord
  2
Deck Box - G5
 70
     1
 62
     7
  6
Continuous
370
     0
390
F
347
21
348
0
  0
LAYER
  5
105
330
2
100
AcDbSymbolTableRecord
100
AcDbLayerTableRecord
  2
Poneglyph
 70
     1
 62
     7
  6
Continuous
370
     0
390
F
347
21
348
0
  0
LAYER
  5
106
330
2
100
AcDbSymbolTableRecord
100
AcDbLayerTableRecord
  2
Crocodile
 70
     1
 62
     7
  6
Continuous
370
     0
390
F
347
21
348
0
  0
LAYER
  5
107
330
2
100
AcDbSymbolTableRecord
100
AcDbLayerTableRecord
  2
Layer 2
 70
     5
 62
     7
  6
Continuous
370
     0
390
F
347
21
348
0
  0
LAYER
  5
108
330
2
100
AcDbSymbolTableRecord
100
AcDbLayerTableRecord
  2
Lid
 70
     1
 62
     7
  6
Continuous
370
     0
390
F
347
21
348
0
  0
ENDTAB
  0
TABLE
  2
STYLE
  5
3
330
0
100
AcDbSymbolTable
 70
     2
  0
STYLE
  5
55
330
3
100
AcDbSymbolTableRecord
100
AcDbTextStyleTableRecord
  2
Standard
 70
     0
 40
0.0
 41
1.0
 50
0.0
 71
     0
 42
0.2
  3
txt
  4

  0
STYLE
  5
5A
330
3
100
AcDbSymbolTableRecord
100
AcDbTextStyleTableRecord
  2
Annotative
 70
     0
 40
0.0
 41
1.0
 50
0.0
 71
     0
 42
0.2
  3
txt
  4

1001
AcadAnnotative
1000
AnnotativeData
1002
{
1070
     1
1070
     1
1002
}
  0
ENDTAB
  0
TABLE
  2
VIEW
  5
6
330
0
100
AcDbSymbolTable
 70
     0
  0
ENDTAB
  0
TABLE
  2
UCS
  5
7
330
0
100
AcDbSymbolTable
 70
     0
  0
ENDTAB
  0
TABLE
  2
APPID
  5
9
330
0
100
AcDbSymbolTable
 70
     2
  0
APPID
  5
56
330
9
100
AcDbSymbolTableRecord
100
AcDbRegAppTableRecord
  2
ACAD
 70
     0
  0
APPID
  5
5E
330
9
100
AcDbSymbolTableRecord
100
AcDbRegAppTableRecord
  2
AcadAnnotative
 70
     0
  0
ENDTAB
  0
TABLE
  2
DIMSTYLE
  5
A
330
0
100
AcDbSymbolTable
 70
     2
100
AcDbDimStyleTable
 71
     0
  0
DIMSTYLE
105
58
330
A
100
AcDbSymbolTableRecord
100
AcDbDimStyleTableRecord
  2
Standard
 70
     0
340
55
  0
DIMSTYLE
105
59
330
A
100
AcDbSymbolTableRecord
100
AcDbDimStyleTableRecord
  2
Annotative
 70
     0
340
55
1001
AcadAnnotative
1000
AnnotativeData
1002
{
1070
     1
1070
     1
1002
}
  0
ENDTAB
  0
TABLE
  2
BLOCK_RECORD
  5
1
330
0
100
AcDbSymbolTable
 70
     3
  0
BLOCK_RECORD
  5
70
330
1
100
AcDbSymbolTableRecord
100
AcDbBlockTableRecord
  2
*Model_Space
340
73
 70
     0
280
     1
281
     0
  0
BLOCK_RECORD
  5
6C
330
1
100
AcDbSymbolTableRecord
100
AcDbBlockTableRecord
  2
*Paper_Space
340
6F
 70
     0
280
     1
281
     0
  0
BLOCK_RECORD
  5
74
330
1
100
AcDbSymbolTableRecord
100
AcDbBlockTableRecord
  2
*Paper_Space0
340
77
 70
     0
280
     1
281
     0
  0
BLOCK_RECORD
  5
7A
330
1
100
AcDbSymbolTableRecord
100
AcDbBlockTableRecord
  2
Block_0
340
0
102
{BLKREFS
331
7B
102
}
 70
     0
280
     1
281
     0
  0
BLOCK_RECORD
  5
7E
330
1
100
AcDbSymbolTableRecord
100
AcDbBlockTableRecord
  2
Block_1
340
0
102
{BLKREFS
331
7F
102
}
 70
     0
280
     1
281
     0
  0
ENDTAB
  0
ENDSEC
  0
SECTION
  2
BLOCKS
  0
BLOCK
  5
71
330
70
100
AcDbEntity
  8
0
100
AcDbBlockBegin
  2
*Model_Space
 70
     0
 10
0.0
 20
0.0
 30
0.0
  3
*Model_Space
  1

  0
ENDBLK
  5
72
330
70
100
AcDbEntity
  8
0
100
AcDbBlockEnd
  0
BLOCK
  5
6D
330
6C
100
AcDbEntity
 67
     1
  8
0
100
AcDbBlockBegin
  2
*Paper_Space
 70
     0
 10
0.0
 20
0.0
 30
0.0
  3
*Paper_Space
  1

  0
ENDBLK
  5
6E
330
6C
100
AcDbEntity
 67
     1
  8
0
100
AcDbBlockEnd
  0
BLOCK
  5
75
330
74
100
AcDbEntity
 67
     1
  8
0
100
AcDbBlockBegin
  2
*Paper_Space0
 70
     0
 10
0.0
 20
0.0
 30
0.0
  3
*Paper_Space0
  1

  0
ENDBLK
  5
76
330
74
100
AcDbEntity
 67
     1
  8
0
100
AcDbBlockEnd
  0
BLOCK
  5
7C
330
7A
100
AcDbEntity
  8
0
100
AcDbBlockBegin
  2
Block_0
 70
     0
 10
0.0
 20
0.0
 30
0.0
  3
Block_0
  1

  0
INSERT
  5
7F
330
7A
100
AcDbEntity
  8
Deck Box - DF
100
AcDbBlockReference
  2
Block_1
 10
0.0
 20
0.0
 30
0.0
  0
LWPOLYLINE
  5
102
330
7A
100
AcDbEntity
  8
Deck Box - DF
100
AcDbPolyline
 90
        3
 70
     0
 43
0.0
 10
5.20979487325154
 20
-0.6557105278893687
 10
5.20979487325154
 20
-0.5871526082676281
 10
5.281898892164059
 20
-0.5871526082676281
  0
HATCH
  5
103
330
7A
100
AcDbEntity
  8
Deck Box - DF
 62
   240
420
 15539236
440
 33554687
100
AcDbHatch
 10
0.0
 20
0.0
 30
0.0
210
0.0
220
0.0
230
1.0
  2
SOLID
 70
     1
 71
     1
 91
        1
 92
        3
 72
     0
 73
     1
 93
        3
 10
5.20979487325154
 20
-0.6557105278893687
 10
5.20979487325154
 20
-0.5871526082676281
 10
5.281898892164059
 20
-0.5871526082676281
 97
        0
 75
     2
 76
     1
 98
        1
 10
0.0
 20
0.0
450
        0
451
        0
460
0.0
461
0.0
452
        0
462
0.0
453
        0
470

  0
ENDBLK
  5
7D
330
7A
100
AcDbEntity
  8
0
100
AcDbBlockEnd
  0
BLOCK
  5
80
330
7E
100
AcDbEntity
  8
0
100
AcDbBlockBegin
  2
Block_1
 70
     0
 10
0.0
 20
0.0
 30
0.0
  3
Block_1
  1

  0
SPLINE
  5
82
330
7E
100
AcDbEntity
  8
Deck Box - DF
100
AcDbSpline
210
0.0
220
0.0
230
1.0
 70
     9
 71
     3
 72
    89
 73
    85
 74
     0
 42
0.0000000001
 43
0.0000000001
 40
0.0
 40
0.0
 40
0.0
 40
0.0
 40
1.0
 40
1.0
 40
1.0
 40
2.0
 40
2.0
 40
2.0
 40
3.0
 40
3.0
 40
3.0
 40
4.0
 40
4.0
 40
4.0
 40
5.0
 40
5.0
 40
5.0
 40
6.0
 40
6.0
 40
6.0
 40
7.0
 40
7.0
 40
7.0
 40
8.0
 40
8.0
 40
8.0
 40
9.0
 40
9.0
 40
9.0
 40
10.0
 40
10.0
 40
10.0
 40
11.0
 40
11.0
 40
11.0
 40
12.0
 40
12.0
 40
12.0
 40
13.0
 40
13.0
 40
13.0
 40
14.0
 40
14.0
 40
14.0
 40
15.0
 40
15.0
 40
15.0
 40
16.0
 40
16.0
 40
16.0
 40
17.0
 40
17.0
 40
17.0
 40
18.0
 40
18.0
 40
18.0
 40
19.0
 40
19.0
 40
19.0
 40
20.0
 40
20.0
 40
20.0
 40
21.0
 40
21.0
 40
21.0
 40
22.0
 40
22.0
 40
22.0
 40
23.0
 40
23.0
 40
23.0
 40
24.0
 40
24.0
 40
24.0
 40
25.0
 40
25.0
 40
25.0
 40
26.0
 40
26.0
 40
26.0
 40
27.0
 40
27.0
 40
27.0
 40
28.0
 40
28.0
 40
28.0
 40
28.0
 10
5.907547408735581
 20
-1.477674548314098
 30
0.0
 10
5.952715119781613
 20
-1.453033299399167
 30
0.0
 10
5.917603798438272
 20
-1.357281854900457
 30
0.0
 10
5.879216923709539
 20
-1.411008051189519
 30
0.0
 10
5.875673493805025
 20
-1.431332758220769
 30
0.0
 10
5.864687165680025
 20
-1.397648133654797
 30
0.0
 10
5.878526887359738
 20
-1.395850987387436
 30
0.0
 10
5.992882186567612
 20
-1.355138842747679
 30
0.0
 10
5.939310273590181
 20
-1.641849793811047
 30
0.0
 10
5.752616446278984
 20
-1.379459657092297
 30
0.0
 10
5.821314905480372
 20
-1.366825379748547
 30
0.0
 10
5.879515317806761
 20
-1.30544435761313
 30
0.0
 10
5.770552305111474
 20
-1.196292305475556
 30
0.0
 10
5.695651148156153
 20
-1.145295737007662
 30
0.0
 10
5.566925460493418
 20
-1.171250089492471
 30
0.0
 10
5.547067841949556
 20
-1.261137072728148
 30
0.0
 10
5.60502750449296
 20
-1.571639019071464
 30
0.0
 10
5.324088614247734
 20
-1.410060310846637
 30
0.0
 10
5.47274990982065
 20
-1.352165074301499
 30
0.0
 10
5.479668075239487
 20
-1.358882332331012
 30
0.0
 10
5.493533228234278
 20
-1.3755296711982
 30
0.0
 10
5.476750255686535
 20
-1.367271275473374
 30
0.0
 10
5.344812592926118
 20
-1.409974692085787
 30
0.0
 10
5.583170136871431
 20
-1.485576905627453
 30
0.0
 10
5.542560565202594
 20
-1.353908814807154
 30
0.0
 10
5.495534672733001
 20
-1.308296903457314
 30
0.0
 10
5.458806767459539
 20
-1.290994284370943
 30
0.0
 10
5.431893654395303
 20
-1.291575813776325
 30
0.0
 10
5.473491656511188
 20
-1.236144023954276
 30
0.0
 10
5.448256162533349
 20
-1.130962647814953
 30
0.0
 10
5.490255979427855
 20
-1.0629076008857
 30
0.0
 10
5.543206520606266
 20
-1.026843452936481
 30
0.0
 10
5.6263753981019
 20
-1.097655254423026
 30
0.0
 10
5.546408323177855
 20
-1.127231873889172
 30
0.0
 10
5.535109189877099
 20
-1.137812148683009
 30
0.0
 10
5.517641267242525
 20
-1.113737170384398
 30
0.0
 10
5.53549150731414
 20
-1.11989748261313
 30
0.0
 10
5.603535534006848
 20
-1.112313016738564
 30
0.0
 10
5.556674097374903
 20
-1.040683174616181
 30
0.0
 10
5.505657183854938
 20
-1.066829957385279
 30
0.0
 10
5.344399757910928
 20
-1.272918553305417
 30
0.0
 10
5.81427806059105
 20
-1.171151755074068
 30
0.0
 10
5.579323226606675
 20
-1.004082425918265
 30
0.0
 10
5.319221060536821
 20
-0.9657845607923844
 30
0.0
 10
5.390256657596258
 20
-1.118313959392644
 30
0.0
 10
5.381451488596692
 20
-1.21222163354629
 30
0.0
 10
5.381001354319348
 20
-1.204282824681273
 30
0.0
 10
5.378790525326293
 20
-1.195274205160874
 30
0.0
 10
5.374323938683497
 20
-1.185088963461667
 30
0.0
 10
5.369272431793306
 20
-1.177728293160005
 30
0.0
 10
5.364367578820216
 20
-1.171445910618773
 30
0.0
 10
5.359617856869261
 20
-1.166082446263304
 30
0.0
 10
5.359617856869261
 20
-1.166082446263304
 30
0.0
 10
5.359617856869261
 20
-1.252149645970348
 30
0.0
 10
5.359617856869261
 20
-1.252149645970348
 30
0.0
 10
5.367298961741223
 20
-1.247769525798894
 30
0.0
 10
5.373677983279876
 20
-1.241699918594033
 30
0.0
 10
5.377539304623168
 20
-1.23371024709882
 30
0.0
 10
5.374137442372734
 20
-1.245256911866603
 30
0.0
 10
5.368530685102793
 20
-1.255267525202106
 30
0.0
 10
5.359617856869261
 20
-1.263074938939098
 30
0.0
 10
5.359617856869261
 20
-1.263074938939098
 30
0.0
 10
5.359617856869261
 20
-1.339932611736394
 30
0.0
 10
5.359617856869261
 20
-1.339932611736394
 30
0.0
 10
5.42039615683671
 20
-1.409610176569306
 30
0.0
 10
5.376030379926987
 20
-1.622073555475556
 30
0.0
 10
5.62369239435841
 20
-1.440530417183443
 30
0.0
 10
5.631771075456501
 20
-1.076873631430417
 30
0.0
 10
5.838674321170501
 20
-1.305144268094901
 30
0.0
 10
5.72509467707328
 20
-1.323850695775023
 30
0.0
 10
5.71244937949296
 20
-1.333194160944306
 30
0.0
 10
5.696748085547647
 20
-1.303697226265487
 30
0.0
 10
5.714533051910493
 20
-1.313797696914346
 30
0.0
 10
5.785259234636188
 20
-1.318533855497245
 30
0.0
 10
5.743796866200859
 20
-1.231748644993773
 30
0.0
 10
5.68883979426078
 20
-1.25043387991132
 30
0.0
 10
5.594205632205633
 20
-1.349082798910874
 30
0.0
 10
5.676411510569348
 20
-1.391864204889606
 30
0.0
 10
5.749476526574122
 20
-1.380014059761568
 30
0.0
 10
5.704415627051553
 20
-1.556795608155665
 30
0.0
 10
5.946539548763793
 20
-1.693377029054103
 30
0.0
 10
5.992810131174817
 20
-1.461178101916529
 30
0.0
 10
5.970562816721692
 20
-1.127945646133096
 30
0.0
 10
5.665921093088905
 20
-1.461200142389606
 30
0.0
 10
5.907547408735581
 20
-1.477674548314098
 30
0.0
  0
HATCH
  5
83
330
7E
100
AcDbEntity
  8
Deck Box - DF
 62
   250
420
  2301728
440
 33554687
100
AcDbHatch
 10
0.0
 20
0.0
 30
0.0
210
0.0
220
0.0
230
1.0
  2
SOLID
 70
     1
 71
     1
 91
        1
 92
        1
 93
        1
 72
     4
 94
        3
 73
     0
 74
     0
 95
       89
 96
       85
 40
0.0
 40
0.0
 40
0.0
 40
0.0
 40
1.0
 40
1.0
 40
1.0
 40
2.0
 40
2.0
 40
2.0
 40
3.0
 40
3.0
 40
3.0
 40
4.0
 40
4.0
 40
4.0
 40
5.0
 40
5.0
 40
5.0
 40
6.0
 40
6.0
 40
6.0
 40
7.0
 40
7.0
 40
7.0
 40
8.0
 40
8.0
 40
8.0
 40
9.0
 40
9.0
 40
9.0
 40
10.0
 40
10.0
 40
10.0
 40
11.0
 40
11.0
 40
11.0
 40
12.0
 40
12.0
 40
12.0
 40
13.0
 40
13.0
 40
13.0
 40
14.0
 40
14.0
 40
14.0
 40
15.0
 40
15.0
 40
15.0
 40
16.0
 40
16.0
 40
16.0
 40
17.0
 40
17.0
 40
17.0
 40
18.0
 40
18.0
 40
18.0
 40
19.0
 40
19.0
 40
19.0
 40
20.0
 40
20.0
 40
20.0
 40
21.0
 40
21.0
 40
21.0
 40
22.0
 40
22.0
 40
22.0
 40
23.0
 40
23.0
 40
23.0
 40
24.0
 40
24.0
 40
24.0
 40
25.0
 40
25.0
 40
25.0
 40
26.0
 40
26.0
 40
26.0
 40
27.0
 40
27.0
 40
27.0
 40
28.0
 40
28.0
 40
28.0
 40
28.0
 10
5.907547408735581
 20
-1.477674548314098
 10
5.952715119781613
 20
-1.453033299399167
 10
5.917603798438272
 20
-1.357281854900457
 10
5.879216923709539
 20
-1.411008051189519
 10
5.875673493805025
 20
-1.431332758220769
 10
5.864687165680025
 20
-1.397648133654797
 10
5.878526887359738
 20
-1.395850987387436
 10
5.992882186567612
 20
-1.355138842747679
 10
5.939310273590181
 20
-1.641849793811047
 10
5.752616446278984
 20
-1.379459657092297
 10
5.821314905480372
 20
-1.366825379748547
 10
5.879515317806761
 20
-1.30544435761313
 10
5.770552305111474
 20
-1.196292305475556
 10
5.695651148156153
 20
-1.145295737007662
 10
5.566925460493418
 20
-1.171250089492471
 10
5.547067841949556
 20
-1.261137072728148
 10
5.60502750449296
 20
-1.571639019071464
 10
5.324088614247734
 20
-1.410060310846637
 10
5.47274990982065
 20
-1.352165074301499
 10
5.479668075239487
 20
-1.358882332331012
 10
5.493533228234278
 20
-1.3755296711982
 10
5.476750255686535
 20
-1.367271275473374
 10
5.344812592926118
 20
-1.409974692085787
 10
5.583170136871431
 20
-1.485576905627453
 10
5.542560565202594
 20
-1.353908814807154
 10
5.495534672733001
 20
-1.308296903457314
 10
5.458806767459539
 20
-1.290994284370943
 10
5.431893654395303
 20
-1.291575813776325
 10
5.473491656511188
 20
-1.236144023954276
 10
5.448256162533349
 20
-1.130962647814953
 10
5.490255979427855
 20
-1.0629076008857
 10
5.543206520606266
 20
-1.026843452936481
 10
5.6263753981019
 20
-1.097655254423026
 10
5.546408323177855
 20
-1.127231873889172
 10
5.535109189877099
 20
-1.137812148683009
 10
5.517641267242525
 20
-1.113737170384398
 10
5.53549150731414
 20
-1.11989748261313
 10
5.603535534006848
 20
-1.112313016738564
 10
5.556674097374903
 20
-1.040683174616181
 10
5.505657183854938
 20
-1.066829957385279
 10
5.344399757910928
 20
-1.272918553305417
 10
5.81427806059105
 20
-1.171151755074068
 10
5.579323226606675
 20
-1.004082425918265
 10
5.319221060536821
 20
-0.9657845607923844
 10
5.390256657596258
 20
-1.118313959392644
 10
5.381451488596692
 20
-1.21222163354629
 10
5.381001354319348
 20
-1.204282824681273
 10
5.378790525326293
 20
-1.195274205160874
 10
5.374323938683497
 20
-1.185088963461667
 10
5.369272431793306
 20
-1.177728293160005
 10
5.364367578820216
 20
-1.171445910618773
 10
5.359617856869261
 20
-1.166082446263304
 10
5.359617856869261
 20
-1.166082446263304
 10
5.359617856869261
 20
-1.252149645970348
 10
5.359617856869261
 20
-1.252149645970348
 10
5.367298961741223
 20
-1.247769525798894
 10
5.373677983279876
 20
-1.241699918594033
 10
5.377539304623168
 20
-1.23371024709882
 10
5.374137442372734
 20
-1.245256911866603
 10
5.368530685102793
 20
-1.255267525202106
 10
5.359617856869261
 20
-1.263074938939098
 10
5.359617856869261
 20
-1.263074938939098
 10
5.359617856869261
 20
-1.339932611736394
 10
5.359617856869261
 20
-1.339932611736394
 10
5.42039615683671
 20
-1.409610176569306
 10
5.376030379926987
 20
-1.622073555475556
 10
5.62369239435841
 20
-1.440530417183443
 10
5.631771075456501
 20
-1.076873631430417
 10
5.838674321170501
 20
-1.305144268094901
 10
5.72509467707328
 20
-1.323850695775023
 10
5.71244937949296
 20
-1.333194160944306
 10
5.696748085547647
 20
-1.303697226265487
 10
5.714533051910493
 20
-1.313797696914346
 10
5.785259234636188
 20
-1.318533855497245
 10
5.743796866200859
 20
-1.231748644993773
 10
5.68883979426078
 20
-1.25043387991132
 10
5.594205632205633
 20
-1.349082798910874
 10
5.676411510569348
 20
-1.391864204889606
 10
5.749476526574122
 20
-1.380014059761568
 10
5.704415627051553
 20
-1.556795608155665
 10
5.946539548763793
 20
-1.693377029054103
 10
5.992810131174817
 20
-1.461178101916529
 10
5.970562816721692
 20
-1.127945646133096
 10
5.665921093088905
 20
-1.461200142389606
 10
5.907547408735581
 20
-1.477674548314098
 97
        0
 97
        1
330
82
 75
     2
 76
     1
 98
        1
 10
0.0
 20
0.0
450
        0
451
        0
460
0.0
461
0.0
452
        0
462
0.0
453
        0
470

  0
SPLINE
  5
84
330
7E
100
AcDbEntity
  8
Deck Box - DF
100
AcDbSpline
210
0.0
220
0.0
230
1.0
 70
     9
 71
     3
 72
    11
 73
     7
 74
     0
 42
0.0000000001
 43
0.0000000001
 40
0.0
 40
0.0
 40
0.0
 40
0.0
 40
1.0
 40
1.0
 40
1.0
 40
2.0
 40
2.0
 40
2.0
 40
2.0
 10
5.658762177887056
 20
-1.576474359783269
 30
0.0
 10
5.754950193295043
 20
-1.5323900227607
 30
0.0
 10
5.632963804134886
 20
-1.523101658774167
 30
0.0
 10
5.594247170020303
 20
-1.555175633383542
 30
0.0
 10
5.637558395063706
 20
-1.480258369928681
 30
0.0
 10
5.77216888904157
 20
-1.565419367107501
 30
0.0
 10
5.658762177887056
 20
-1.576474359783269
 30
0.0
  0
SPLINE
  5
85
330
7E
100
AcDbEntity
  8
Deck Box - DF
100
AcDbSpline
210
0.0
220
0.0
230
1.0
 70
     9
 71
     3
 72
    23
 73
    19
 74
     0
 42
0.0000000001
 43
0.0000000001
 40
0.0
 40
0.0
 40
0.0
 40
0.0
 40
1.0
 40
1.0
 40
1.0
 40
2.0
 40
2.0
 40
2.0
 40
3.0
 40
3.0
 40
3.0
 40
4.0
 40
4.0
 40
4.0
 40
5.0
 40
5.0
 40
5.0
 40
6.0
 40
6.0
 40
6.0
 40
6.0
 10
5.504538205990355
 20
-1.663097657580578
 30
0.0
 10
5.504538205990355
 20
-1.663097657580578
 30
0.0
 10
5.58727729426078
 20
-1.663097657580578
 30
0.0
 10
5.58727729426078
 20
-1.663097657580578
 30
0.0
 10
5.580761791331067
 20
-1.629507128880492
 30
0.0
 10
5.580373539920501
 20
-1.603321351428235
 30
0.0
 10
5.584230622711275
 20
-1.583313688125283
 30
0.0
 10
5.585688684777247
 20
-1.588527955432153
 30
0.0
 10
5.588708229590641
 20
-1.59418387991132
 30
0.0
 10
5.593639361589313
 20
-1.600297568062362
 30
0.0
 10
5.623737323015094
 20
-1.638271607775903
 30
0.0
 10
5.697063433854938
 20
-1.633538840035005
 30
0.0
 10
5.752287534603636
 20
-1.592086644125717
 30
0.0
 10
5.847898259158758
 20
-1.474469354900457
 30
0.0
 10
5.564651900923081
 20
-1.439947192357054
 30
0.0
 10
5.495745752648341
 20
-1.560209338353148
 30
0.0
 10
5.4744953457473
 20
-1.596056472413478
 30
0.0
 10
5.505922517242525
 20
-1.630159018257662
 30
0.0
 10
5.504538205990355
 20
-1.663097657580578
 30
0.0
  0
HATCH
  5
86
330
7E
100
AcDbEntity
  8
Deck Box - DF
 62
   250
420
  2301728
440
 33554687
100
AcDbHatch
 10
0.0
 20
0.0
 30
0.0
210
0.0
220
0.0
230
1.0
  2
SOLID
 70
     1
 71
     1
 91
        2
 92
        1
 93
        1
 72
     4
 94
        3
 73
     0
 74
     0
 95
       11
 96
        7
 40
0.0
 40
0.0
 40
0.0
 40
0.0
 40
1.0
 40
1.0
 40
1.0
 40
2.0
 40
2.0
 40
2.0
 40
2.0
 10
5.658762177887056
 20
-1.576474359783269
 10
5.754950193295043
 20
-1.5323900227607
 10
5.632963804134886
 20
-1.523101658774167
 10
5.594247170020303
 20
-1.555175633383542
 10
5.637558395063706
 20
-1.480258369928681
 10
5.77216888904157
 20
-1.565419367107501
 10
5.658762177887056
 20
-1.576474359783269
 97
        0
 97
        1
330
84
 92
        1
 93
        1
 72
     4
 94
        3
 73
     0
 74
     0
 95
       23
 96
       19
 40
0.0
 40
0.0
 40
0.0
 40
0.0
 40
1.0
 40
1.0
 40
1.0
 40
2.0
 40
2.0
 40
2.0
 40
3.0
 40
3.0
 40
3.0
 40
4.0
 40
4.0
 40
4.0
 40
5.0
 40
5.0
 40
5.0
 40
6.0
 40
6.0
 40
6.0
 40
6.0
 10
5.504538205990355
 20
-1.663097657580578
 10
5.504538205990355
 20
-1.663097657580578
 10
5.58727729426078
 20
-1.663097657580578
 10
5.58727729426078
 20
-1.663097657580578
 10
5.580761791331067
 20
-1.629507128880492
 10
5.580373539920501
 20
-1.603321351428235
 10
5.584230622711275
 20
-1.583313688125283
 10
5.585688684777247
 20
-1.588527955432153
 10
5.588708229590641
 20
-1.59418387991132
 10
5.593639361589313
 20
-1.600297568062362
 10
5.623737323015094
 20
-1.638271607775903
 10
5.697063433854938
 20
-1.633538840035005
 10
5.752287534603636
 20
-1.592086644125717
 10
5.847898259158758
 20
-1.474469354900457
 10
5.564651900923081
 20
-1.439947192357054
 10
5.495745752648341
 20
-1.560209338353148
 10
5.4744953457473
 20
-1.596056472413478
 10
5.505922517242525
 20
-1.630159018257662
 10
5.504538205990355
 20
-1.663097657580578
 97
        0
 97
        1
330
85
 75
     2
 76
     1
 98
        1
 10
0.0
 20
0.0
450
        0
451
        0
460
0.0
461
0.0
452
        0
462
0.0
453
        0
470

  0
SPLINE
  5
87
330
7E
100
AcDbEntity
  8
Deck Box - DF
100
AcDbSpline
210
0.0
220
0.0
230
1.0
 70
     9
 71
     3
 72
    35
 73
    31
 74
     0
 42
0.0000000001
 43
0.0000000001
 40
0.0
 40
0.0
 40
0.0
 40
0.0
 40
1.0
 40
1.0
 40
1.0
 40
2.0
 40
2.0
 40
2.0
 40
3.0
 40
3.0
 40
3.0
 40
4.0
 40
4.0
 40
4.0
 40
5.0
 40
5.0
 40
5.0
 40
6.0
 40
6.0
 40
6.0
 40
7.0
 40
7.0
 40
7.0
 40
8.0
 40
8.0
 40
8.0
 40
9.0
 40
9.0
 40
9.0
 40
10.0
 40
10.0
 40
10.0
 40
10.0
 10
5.984456791873626
 20
-1.663097657580578
 30
0.0
 10
5.984456791873626
 20
-1.663097657580578
 30
0.0
 10
6.0528890699769
 20
-1.663097657580578
 30
0.0
 10
6.0528890699769
 20
-1.663097657580578
 30
0.0
 10
6.054865083160493
 20
-1.625104120525457
 30
0.0
 10
6.059018864627508
 20
-1.589319717042384
 30
0.0
 10
6.090771556956067
 20
-1.567935371881806
 30
0.0
 10
6.141211179623168
 20
-1.54158852943389
 30
0.0
 10
6.198561338314599
 20
-1.64003654104412
 30
0.0
 10
6.126621234147933
 20
-1.652496190024167
 30
0.0
 10
6.115355161556761
 20
-1.661277623129624
 30
0.0
 10
6.10489356623341
 20
-1.630506579564098
 30
0.0
 10
6.118757023807195
 20
-1.641724332656533
 30
0.0
 10
6.176946415897039
 20
-1.650406583633096
 30
0.0
 10
6.150089251726058
 20
-1.560133044407848
 30
0.0
 10
6.102942136654418
 20
-1.576064067899589
 30
0.0
 10
6.070023842383585
 20
-1.611976475668686
 30
0.0
 10
6.058869667578897
 20
-1.641129239883096
 30
0.0
 10
6.060983857574556
 20
-1.663097657580578
 30
0.0
 10
6.060983857574556
 20
-1.663097657580578
 30
0.0
 10
6.210192774132716
 20
-1.663097657580578
 30
0.0
 10
6.210192774132716
 20
-1.663097657580578
 30
0.0
 10
6.223170374230372
 20
-1.632497851536742
 30
0.0
 10
6.217890833214747
 20
-1.587072436497679
 30
0.0
 10
6.175320507151405
 20
-1.525648181126598
 30
0.0
 10
6.11766686809973
 20
-1.46982898760445
 30
0.0
 10
6.008772519955224
 20
-1.489083883980318
 30
0.0
 10
5.98455512629203
 20
-1.579138713895695
 30
0.0
 10
5.987175399458237
 20
-1.612445259577106
 30
0.0
 10
5.98680749309973
 20
-1.639995850939953
 30
0.0
 10
5.984456791873626
 20
-1.663097657580578
 30
0.0
  0
HATCH
  5
88
330
7E
100
AcDbEntity
  8
Deck Box - DF
 62
   250
420
  2301728
440
 33554687
100
AcDbHatch
 10
0.0
 20
0.0
 30
0.0
210
0.0
220
0.0
230
1.0
  2
SOLID
 70
     1
 71
     1
 91
        1
 92
        1
 93
        1
 72
     4
 94
        3
 73
     0
 74
     0
 95
       35
 96
       31
 40
0.0
 40
0.0
 40
0.0
 40
0.0
 40
1.0
 40
1.0
 40
1.0
 40
2.0
 40
2.0
 40
2.0
 40
3.0
 40
3.0
 40
3.0
 40
4.0
 40
4.0
 40
4.0
 40
5.0
 40
5.0
 40
5.0
 40
6.0
 40
6.0
 40
6.0
 40
7.0
 40
7.0
 40
7.0
 40
8.0
 40
8.0
 40
8.0
 40
9.0
 40
9.0
 40
9.0
 40
10.0
 40
10.0
 40
10.0
 40
10.0
 10
5.984456791873626
 20
-1.663097657580578
 10
5.984456791873626
 20
-1.663097657580578
 10
6.0528890699769
 20
-1.663097657580578
 10
6.0528890699769
 20
-1.663097657580578
 10
6.054865083160493
 20
-1.625104120525457
 10
6.059018864627508
 20
-1.589319717042384
 10
6.090771556956067
 20
-1.567935371881806
 10
6.141211179623168
 20
-1.54158852943389
 10
6.198561338314599
 20
-1.64003654104412
 10
6.126621234147933
 20
-1.652496190024167
 10
6.115355161556761
 20
-1.661277623129624
 10
6.10489356623341
 20
-1.630506579564098
 10
6.118757023807195
 20
-1.641724332656533
 10
6.176946415897039
 20
-1.650406583633096
 10
6.150089251726058
 20
-1.560133044407848
 10
6.102942136654418
 20
-1.576064067899589
 10
6.070023842383585
 20
-1.611976475668686
 10
6.058869667578897
 20
-1.641129239883096
 10
6.060983857574556
 20
-1.663097657580578
 10
6.060983857574556
 20
-1.663097657580578
 10
6.210192774132716
 20
-1.663097657580578
 10
6.210192774132716
 20
-1.663097657580578
 10
6.223170374230372
 20
-1.632497851536742
 10
6.217890833214747
 20
-1.587072436497679
 10
6.175320507151405
 20
-1.525648181126598
 10
6.11766686809973
 20
-1.46982898760445
 10
6.008772519955224
 20
-1.489083883980318
 10
5.98455512629203
 20
-1.579138713895695
 10
5.987175399458237
 20
-1.612445259577106
 10
5.98680749309973
 20
-1.639995850939953
 10
5.984456791873626
 20
-1.663097657580578
 97
        0
 97
        1
330
87
 75
     2
 76
     1
 98
        1
 10
0.0
 20
0.0
450
        0
451
        0
460
0.0
461
0.0
452
        0
462
0.0
453
        0
470

  0
SPLINE
  5
89
330
7E
100
AcDbEntity
  8
Deck Box - DF
100
AcDbSpline
210
0.0
220
0.0
230
1.0
 70
     9
 71
     3
 72
    11
 73
     7
 74
     0
 42
0.0000000001
 43
0.0000000001
 40
0.0
 40
0.0
 40
0.0
 40
0.0
 40
1.0
 40
1.0
 40
1.0
 40
2.0
 40
2.0
 40
2.0
 40
2.0
 10
5.970543319380112
 20
-1.663097657580578
 30
0.0
 10
5.947589014367091
 20
-1.57480945635445
 30
0.0
 10
5.861606585710433
 20
-1.606332419136568
 30
0.0
 10
5.830343870052855
 20
-1.663097657580578
 30
0.0
 10
5.830343870052855
 20
-1.663097657580578
 30
0.0
 10
5.970543319380112
 20
-1.663097657580578
 30
0.0
 10
5.970543319380112
 20
-1.663097657580578
 30
0.0
  0
HATCH
  5
8A
330
7E
100
AcDbEntity
  8
Deck Box - DF
 62
   250
420
  2301728
440
 33554687
100
AcDbHatch
 10
0.0
 20
0.0
 30
0.0
210
0.0
220
0.0
230
1.0
  2
SOLID
 70
     1
 71
     1
 91
        1
 92
        1
 93
        1
 72
     4
 94
        3
 73
     0
 74
     0
 95
       11
 96
        7
 40
0.0
 40
0.0
 40
0.0
 40
0.0
 40
1.0
 40
1.0
 40
1.0
 40
2.0
 40
2.0
 40
2.0
 40
2.0
 10
5.970543319380112
 20
-1.663097657580578
 10
5.947589014367091
 20
-1.57480945635445
 10
5.861606585710433
 20
-1.606332419136568
 10
5.830343870052855
 20
-1.663097657580578
 10
5.830343870052855
 20
-1.663097657580578
 10
5.970543319380112
 20
-1.663097657580578
 10
5.970543319380112
 20
-1.663097657580578
 97
        0
 97
        1
330
89
 75
     2
 76
     1
 98
        1
 10
0.0
 20
0.0
450
        0
451
        0
460
0.0
461
0.0
452
        0
462
0.0
453
        0
470

  0
SPLINE
  5
8B
330
7E
100
AcDbEntity
  8
Deck Box - DF
100
AcDbSpline
210
0.0
220
0.0
230
1.0
 70
     9
 71
     3
 72
    23
 73
    19
 74
     0
 42
0.0000000001
 43
0.0000000001
 40
0.0
 40
0.0
 40
0.0
 40
0.0
 40
1.0
 40
1.0
 40
1.0
 40
2.0
 40
2.0
 40
2.0
 40
3.0
 40
3.0
 40
3.0
 40
4.0
 40
4.0
 40
4.0
 40
5.0
 40
5.0
 40
5.0
 40
6.0
 40
6.0
 40
6.0
 40
6.0
 10
5.359617856869261
 20
-1.636189630779376
 30
0.0
 10
5.359617856869261
 20
-1.636189630779376
 30
0.0
 10
5.359617856869261
 20
-1.663097657580578
 30
0.0
 10
5.359617856869261
 20
-1.663097657580578
 30
0.0
 10
5.359617856869261
 20
-1.663097657580578
 30
0.0
 10
5.408378165028984
 20
-1.663097657580578
 30
0.0
 10
5.408378165028984
 20
-1.663097657580578
 30
0.0
 10
5.409563264312863
 20
-1.662632264514172
 30
0.0
 10
5.410658506283349
 20
-1.662160089763751
 30
0.0
 10
5.411924138065008
 20
-1.661700630670856
 30
0.0
 10
5.418699888119261
 20
-1.656229507081459
 30
0.0
 10
5.428933449317178
 20
-1.659880596219901
 30
0.0
 10
5.431830076107543
 20
-1.663097657580578
 30
0.0
 10
5.431830076107543
 20
-1.663097657580578
 30
0.0
 10
5.48910987482716
 20
-1.663097657580578
 30
0.0
 10
5.48910987482716
 20
-1.663097657580578
 30
0.0
 10
5.511456371409192
 20
-1.607512432157401
 30
0.0
 10
5.421393912099321
 20
-1.609084935141342
 30
0.0
 10
5.359617856869261
 20
-1.636189630779376
 30
0.0
  0
HATCH
  5
8C
330
7E
100
AcDbEntity
  8
Deck Box - DF
 62
   250
420
  2301728
440
 33554687
100
AcDbHatch
 10
0.0
 20
0.0
 30
0.0
210
0.0
220
0.0
230
1.0
  2
SOLID
 70
     1
 71
     1
 91
        1
 92
        1
 93
        1
 72
     4
 94
        3
 73
     0
 74
     0
 95
       23
 96
       19
 40
0.0
 40
0.0
 40
0.0
 40
0.0
 40
1.0
 40
1.0
 40
1.0
 40
2.0
 40
2.0
 40
2.0
 40
3.0
 40
3.0
 40
3.0
 40
4.0
 40
4.0
 40
4.0
 40
5.0
 40
5.0
 40
5.0
 40
6.0
 40
6.0
 40
6.0
 40
6.0
 10
5.359617856869261
 20
-1.636189630779376
 10
5.359617856869261
 20
-1.636189630779376
 10
5.359617856869261
 20
-1.663097657580578
 10
5.359617856869261
 20
-1.663097657580578
 10
5.359617856869261
 20
-1.663097657580578
 10
5.408378165028984
 20
-1.663097657580578
 10
5.408378165028984
 20
-1.663097657580578
 10
5.409563264312863
 20
-1.662632264514172
 10
5.410658506283349
 20
-1.662160089763751
 10
5.411924138065008
 20
-1.661700630670856
 10
5.418699888119261
 20
-1.656229507081459
 10
5.428933449317178
 20
-1.659880596219901
 10
5.431830076107543
 20
-1.663097657580578
 10
5.431830076107543
 20
-1.663097657580578
 10
5.48910987482716
 20
-1.663097657580578
 10
5.48910987482716
 20
-1.663097657580578
 10
5.511456371409192
 20
-1.607512432157401
 10
5.421393912099321
 20
-1.609084935141342
 10
5.359617856869261
 20
-1.636189630779376
 97
        0
 97
        1
330
8B
 75
     2
 76
     1
 98
        1
 10
0.0
 20
0.0
450
        0
451
        0
460
0.0
461
0.0
452
        0
462
0.0
453
        0
470

  0
SPLINE
  5
8D
330
7E
100
AcDbEntity
  8
Deck Box - DF
100
AcDbSpline
210
0.0
220
0.0
230
1.0
 70
     9
 71
     3
 72
    29
 73
    25
 74
     0
 42
0.0000000001
 43
0.0000000001
 40
0.0
 40
0.0
 40
0.0
 40
0.0
 40
1.0
 40
1.0
 40
1.0
 40
2.0
 40
2.0
 40
2.0
 40
3.0
 40
3.0
 40
3.0
 40
4.0
 40
4.0
 40
4.0
 40
5.0
 40
5.0
 40
5.0
 40
6.0
 40
6.0
 40
6.0
 40
7.0
 40
7.0
 40
7.0
 40
8.0
 40
8.0
 40
8.0
 40
8.0
 10
5.630337596995155
 20
-0.7357930718058393
 30
0.0
 10
5.630337596995155
 20
-0.7357930718058393
 30
0.0
 10
5.540933808746431
 20
-0.7357930718058393
 30
0.0
 10
5.540933808746431
 20
-0.7357930718058393
 30
0.0
 10
5.510824827084105
 20
-1.111428854683443
 30
0.0
 10
5.327371797027681
 20
-0.7860504367146934
 30
0.0
 10
5.45163174575815
 20
-0.8411762030450011
 30
0.0
 10
5.380881827138359
 20
-0.8364663234877095
 30
0.0
 10
5.42234334786321
 20
-0.9232515339911817
 30
0.0
 10
5.477300419803289
 20
-0.9045662990736344
 30
0.0
 10
5.599590289323688
 20
-0.7770901366929922
 30
0.0
 10
5.426602245432655
 20
-0.7428731499308393
 30
0.0
 10
5.359617856869261
 20
-0.7993459282511518
 30
0.0
 10
5.359617856869261
 20
-0.7993459282511518
 30
0.0
 10
5.359617856869261
 20
-0.9161511108140985
 30
0.0
 10
5.359617856869261
 20
-0.9161511108140985
 30
0.0
 10
5.368711247440008
 20
-0.9294296481404874
 30
0.0
 10
5.380502052832803
 20
-0.9435965860745151
 30
0.0
 10
5.395587908952594
 20
-0.9587087212199017
 30
0.0
 10
5.470489913618418
 20
-1.009705289687783
 30
0.0
 10
5.59921475357065
 20
-0.9837500894924712
 30
0.0
 10
5.619073219825016
 20
-0.8938639539672976
 30
0.0
 10
5.603666929134886
 20
-0.8113766357164296
 30
0.0
 10
5.61229577434973
 20
-0.7624400037719852
 30
0.0
 10
5.630337596995155
 20
-0.7357930718058393
 30
0.0
  0
HATCH
  5
8E
330
7E
100
AcDbEntity
  8
Deck Box - DF
 62
   250
420
  2301728
440
 33554687
100
AcDbHatch
 10
0.0
 20
0.0
 30
0.0
210
0.0
220
0.0
230
1.0
  2
SOLID
 70
     1
 71
     1
 91
        1
 92
        1
 93
        1
 72
     4
 94
        3
 73
     0
 74
     0
 95
       29
 96
       25
 40
0.0
 40
0.0
 40
0.0
 40
0.0
 40
1.0
 40
1.0
 40
1.0
 40
2.0
 40
2.0
 40
2.0
 40
3.0
 40
3.0
 40
3.0
 40
4.0
 40
4.0
 40
4.0
 40
5.0
 40
5.0
 40
5.0
 40
6.0
 40
6.0
 40
6.0
 40
7.0
 40
7.0
 40
7.0
 40
8.0
 40
8.0
 40
8.0
 40
8.0
 10
5.630337596995155
 20
-0.7357930718058393
 10
5.630337596995155
 20
-0.7357930718058393
 10
5.540933808746431
 20
-0.7357930718058393
 10
5.540933808746431
 20
-0.7357930718058393
 10
5.510824827084105
 20
-1.111428854683443
 10
5.327371797027681
 20
-0.7860504367146934
 10
5.45163174575815
 20
-0.8411762030450011
 10
5.380881827138359
 20
-0.8364663234877095
 10
5.42234334786321
 20
-0.9232515339911817
 10
5.477300419803289
 20
-0.9045662990736344
 10
5.599590289323688
 20
-0.7770901366929922
 10
5.426602245432655
 20
-0.7428731499308393
 10
5.359617856869261
 20
-0.7993459282511518
 10
5.359617856869261
 20
-0.7993459282511518
 10
5.359617856869261
 20
-0.9161511108140985
 10
5.359617856869261
 20
-0.9161511108140985
 10
5.368711247440008
 20
-0.9294296481404874
 10
5.380502052832803
 20
-0.9435965860745151
 10
5.395587908952594
 20
-0.9587087212199017
 10
5.470489913618418
 20
-1.009705289687783
 10
5.59921475357065
 20
-0.9837500894924712
 10
5.619073219825016
 20
-0.8938639539672976
 10
5.603666929134886
 20
-0.8113766357164296
 10
5.61229577434973
 20
-0.7624400037719852
 10
5.630337596995155
 20
-0.7357930718058393
 97
        0
 97
        1
330
8D
 75
     2
 76
     1
 98
        1
 10
0.0
 20
0.0
450
        0
451
        0
460
0.0
461
0.0
452
        0
462
0.0
453
        0
470

  0
SPLINE
  5
8F
330
7E
100
AcDbEntity
  8
Deck Box - DF
100
AcDbSpline
210
0.0
220
0.0
230
1.0
 70
     9
 71
     3
 72
    26
 73
    22
 74
     0
 42
0.0000000001
 43
0.0000000001
 40
0.0
 40
0.0
 40
0.0
 40
0.0
 40
1.0
 40
1.0
 40
1.0
 40
2.0
 40
2.0
 40
2.0
 40
3.0
 40
3.0
 40
3.0
 40
4.0
 40
4.0
 40
4.0
 40
5.0
 40
5.0
 40
5.0
 40
6.0
 40
6.0
 40
6.0
 40
7.0
 40
7.0
 40
7.0
 40
7.0
 10
5.730383542904418
 20
-0.7357930718058393
 30
0.0
 10
5.744325837555025
 20
-0.7565475680623624
 30
0.0
 10
5.739790586361474
 20
-0.7847237697767594
 30
0.0
 10
5.693390304243418
 20
-0.8028359523939595
 30
0.0
 10
5.686472138824556
 20
-0.7961178466539297
 30
0.0
 10
5.672606985829765
 20
-0.7794705077867422
 30
0.0
 10
5.689390806088011
 20
-0.7877289035115684
 30
0.0
 10
5.742582944759886
 20
-0.7705127508965512
 30
0.0
 10
5.735557967817612
 20
-0.7479653469252096
 30
0.0
 10
5.710920957455224
 20
-0.7357930718058393
 30
0.0
 10
5.710920957455224
 20
-0.7357930718058393
 30
0.0
 10
5.637941560211275
 20
-0.7357930718058393
 30
0.0
 10
5.637941560211275
 20
-0.7357930718058393
 30
0.0
 10
5.621681625044175
 20
-0.7460673231079227
 30
0.0
 10
5.612844243045501
 20
-0.7662852186157352
 30
0.0
 10
5.623579648861474
 20
-0.801091364177801
 30
0.0
 10
5.760817197689599
 20
-0.9341751315389121
 30
0.0
 10
5.810420977800251
 20
-0.826420954021551
 30
0.0
 10
5.783920699751206
 20
-0.7357930718058393
 30
0.0
 10
5.783920699751206
 20
-0.7357930718058393
 30
0.0
 10
5.730383542904418
 20
-0.7357930718058393
 30
0.0
 10
5.730383542904418
 20
-0.7357930718058393
 30
0.0
  0
HATCH
  5
90
330
7E
100
AcDbEntity
  8
Deck Box - DF
 62
   250
420
  2301728
440
 33554687
100
AcDbHatch
 10
0.0
 20
0.0
 30
0.0
210
0.0
220
0.0
230
1.0
  2
SOLID
 70
     1
 71
     1
 91
        1
 92
        1
 93
        1
 72
     4
 94
        3
 73
     0
 74
     0
 95
       26
 96
       22
 40
0.0
 40
0.0
 40
0.0
 40
0.0
 40
1.0
 40
1.0
 40
1.0
 40
2.0
 40
2.0
 40
2.0
 40
3.0
 40
3.0
 40
3.0
 40
4.0
 40
4.0
 40
4.0
 40
5.0
 40
5.0
 40
5.0
 40
6.0
 40
6.0
 40
6.0
 40
7.0
 40
7.0
 40
7.0
 40
7.0
 10
5.730383542904418
 20
-0.7357930718058393
 10
5.744325837555025
 20
-0.7565475680623624
 10
5.739790586361474
 20
-0.7847237697767594
 10
5.693390304243418
 20
-0.8028359523939595
 10
5.686472138824556
 20
-0.7961178466539297
 10
5.672606985829765
 20
-0.7794705077867422
 10
5.689390806088011
 20
-0.7877289035115684
 10
5.742582944759886
 20
-0.7705127508965512
 10
5.735557967817612
 20
-0.7479653469252096
 10
5.710920957455224
 20
-0.7357930718058393
 10
5.710920957455224
 20
-0.7357930718058393
 10
5.637941560211275
 20
-0.7357930718058393
 10
5.637941560211275
 20
-0.7357930718058393
 10
5.621681625044175
 20
-0.7460673231079227
 10
5.612844243045501
 20
-0.7662852186157352
 10
5.623579648861474
 20
-0.801091364177801
 10
5.760817197689599
 20
-0.9341751315389121
 10
5.810420977800251
 20
-0.826420954021551
 10
5.783920699751206
 20
-0.7357930718058393
 10
5.783920699751206
 20
-0.7357930718058393
 10
5.730383542904418
 20
-0.7357930718058393
 10
5.730383542904418
 20
-0.7357930718058393
 97
        0
 97
        1
330
8F
 75
     2
 76
     1
 98
        1
 10
0.0
 20
0.0
450
        0
451
        0
460
0.0
461
0.0
452
        0
462
0.0
453
        0
470

  0
SPLINE
  5
91
330
7E
100
AcDbEntity
  8
Deck Box - DF
100
AcDbSpline
210
0.0
220
0.0
230
1.0
 70
     9
 71
     3
 72
    35
 73
    31
 74
     0
 42
0.0000000001
 43
0.0000000001
 40
0.0
 40
0.0
 40
0.0
 40
0.0
 40
1.0
 40
1.0
 40
1.0
 40
2.0
 40
2.0
 40
2.0
 40
3.0
 40
3.0
 40
3.0
 40
4.0
 40
4.0
 40
4.0
 40
5.0
 40
5.0
 40
5.0
 40
6.0
 40
6.0
 40
6.0
 40
7.0
 40
7.0
 40
7.0
 40
8.0
 40
8.0
 40
8.0
 40
9.0
 40
9.0
 40
9.0
 40
10.0
 40
10.0
 40
10.0
 40
10.0
 10
6.050211152496431
 20
-0.7357930718058393
 30
0.0
 10
6.050211152496431
 20
-0.7357930718058393
 30
0.0
 10
5.888499353722585
 20
-0.7357930718058393
 30
0.0
 10
5.888499353722585
 20
-0.7357930718058393
 30
0.0
 10
5.855600556793306
 20
-0.7544791544338901
 30
0.0
 10
5.830562579362751
 20
-0.7833937119968116
 30
0.0
 10
5.825627208811535
 20
-0.8196468993883046
 30
0.0
 10
5.904874577518133
 20
-1.096340455432154
 30
0.0
 10
5.624622332780719
 20
-0.9867001220445546
 30
0.0
 10
5.762100631391831
 20
-0.914555719646551
 30
0.0
 10
5.769271414540702
 20
-0.9194783745402142
 30
0.0
 10
5.783914765777681
 20
-0.9322262450914296
 30
0.0
 10
5.767175874176118
 20
-0.9275655327433392
 30
0.0
 10
5.644518946007716
 20
-0.9883870659464642
 30
0.0
 10
5.878787134484278
 20
-1.016833687311481
 30
0.0
 10
5.829016355404418
 20
-0.9044162543145198
 30
0.0
 10
5.554263208703028
 20
-0.7217422702107872
 30
0.0
 10
5.668917749718653
 20
-1.260013008600556
 30
0.0
 10
5.913806055382716
 20
-0.969234742541529
 30
0.0
 10
5.89071865982065
 20
-0.6419930568861344
 30
0.0
 10
6.108431909874903
 20
-0.8078772867580962
 30
0.0
 10
6.001120237240355
 20
-0.8465549261895198
 30
0.0
 10
5.989799063466484
 20
-0.8571360486938601
 30
0.0
 10
5.972331988542438
 20
-0.8330602226847455
 30
0.0
 10
5.99018138090355
 20
-0.8392213826239816
 30
0.0
 10
6.058225407596258
 20
-0.8316369167494157
 30
0.0
 10
6.011363123253835
 20
-0.7600070746270199
 30
0.0
 10
5.960347057444348
 20
-0.7861538573961172
 30
0.0
 10
5.803120494944348
 20
-0.9870909165866679
 30
0.0
 10
6.245755925174383
 20
-0.8953559244534087
 30
0.0
 10
6.050211152496431
 20
-0.7357930718058393
 30
0.0
  0
HATCH
  5
92
330
7E
100
AcDbEntity
  8
Deck Box - DF
 62
   250
420
  2301728
440
 33554687
100
AcDbHatch
 10
0.0
 20
0.0
 30
0.0
210
0.0
220
0.0
230
1.0
  2
SOLID
 70
     1
 71
     1
 91
        1
 92
        1
 93
        1
 72
     4
 94
        3
 73
     0
 74
     0
 95
       35
 96
       31
 40
0.0
 40
0.0
 40
0.0
 40
0.0
 40
1.0
 40
1.0
 40
1.0
 40
2.0
 40
2.0
 40
2.0
 40
3.0
 40
3.0
 40
3.0
 40
4.0
 40
4.0
 40
4.0
 40
5.0
 40
5.0
 40
5.0
 40
6.0
 40
6.0
 40
6.0
 40
7.0
 40
7.0
 40
7.0
 40
8.0
 40
8.0
 40
8.0
 40
9.0
 40
9.0
 40
9.0
 40
10.0
 40
10.0
 40
10.0
 40
10.0
 10
6.050211152496431
 20
-0.7357930718058393
 10
6.050211152496431
 20
-0.7357930718058393
 10
5.888499353722585
 20
-0.7357930718058393
 10
5.888499353722585
 20
-0.7357930718058393
 10
5.855600556793306
 20
-0.7544791544338901
 10
5.830562579362751
 20
-0.7833937119968116
 10
5.825627208811535
 20
-0.8196468993883046
 10
5.904874577518133
 20
-1.096340455432154
 10
5.624622332780719
 20
-0.9867001220445546
 10
5.762100631391831
 20
-0.914555719646551
 10
5.769271414540702
 20
-0.9194783745402142
 10
5.783914765777681
 20
-0.9322262450914296
 10
5.767175874176118
 20
-0.9275655327433392
 10
5.644518946007716
 20
-0.9883870659464642
 10
5.878787134484278
 20
-1.016833687311481
 10
5.829016355404418
 20
-0.9044162543145198
 10
5.554263208703028
 20
-0.7217422702107872
 10
5.668917749718653
 20
-1.260013008600556
 10
5.913806055382716
 20
-0.969234742541529
 10
5.89071865982065
 20
-0.6419930568861344
 10
6.108431909874903
 20
-0.8078772867580962
 10
6.001120237240355
 20
-0.8465549261895198
 10
5.989799063466484
 20
-0.8571360486938601
 10
5.972331988542438
 20
-0.8330602226847455
 10
5.99018138090355
 20
-0.8392213826239816
 10
6.058225407596258
 20
-0.8316369167494157
 10
6.011363123253835
 20
-0.7600070746270199
 10
5.960347057444348
 20
-0.7861538573961172
 10
5.803120494944348
 20
-0.9870909165866679
 10
6.245755925174383
 20
-0.8953559244534087
 10
6.050211152496431
 20
-0.7357930718058393
 97
        0
 97
        1
330
91
 75
     2
 76
     1
 98
        1
 10
0.0
 20
0.0
450
        0
451
        0
460
0.0
461
0.0
452
        0
462
0.0
453
        0
470

  0
SPLINE
  5
93
330
7E
100
AcDbEntity
  8
Deck Box - DF
100
AcDbSpline
210
0.0
220
0.0
230
1.0
 70
     9
 71
     3
 72
    17
 73
    13
 74
     0
 42
0.0000000001
 43
0.0000000001
 40
0.0
 40
0.0
 40
0.0
 40
0.0
 40
1.0
 40
1.0
 40
1.0
 40
2.0
 40
2.0
 40
2.0
 40
3.0
 40
3.0
 40
3.0
 40
4.0
 40
4.0
 40
4.0
 40
4.0
 10
6.23673509847923
 20
-1.155956361597014
 30
0.0
 10
6.243540875980821
 20
-1.133433472328609
 30
0.0
 10
6.256527098064957
 20
-1.117155967895213
 30
0.0
 10
6.28206790654033
 20
-1.112711524847706
 30
0.0
 10
6.351906675085147
 20
-1.095490374487755
 30
0.0
 10
6.382798404883133
 20
-1.204466225550264
 30
0.0
 10
6.307582340430017
 20
-1.205175640460525
 30
0.0
 10
6.300692050815111
 20
-1.198469291053697
 30
0.0
 10
6.286827243069687
 20
-1.181822084243612
 30
0.0
 10
6.303610554701637
 20
-1.190080408033193
 30
0.0
 10
6.414913291542688
 20
-1.154056143087397
 30
0.0
 10
6.26269307916502
 20
-1.094620151970275
 30
0.0
 10
6.23673509847923
 20
-1.155956361597014
 30
0.0
  0
SPLINE
  5
94
330
7E
100
AcDbEntity
  8
Deck Box - DF
100
AcDbSpline
210
0.0
220
0.0
230
1.0
 70
     9
 71
     3
 72
    29
 73
    25
 74
     0
 42
0.0000000001
 43
0.0000000001
 40
0.0
 40
0.0
 40
0.0
 40
0.0
 40
1.0
 40
1.0
 40
1.0
 40
2.0
 40
2.0
 40
2.0
 40
3.0
 40
3.0
 40
3.0
 40
4.0
 40
4.0
 40
4.0
 40
5.0
 40
5.0
 40
5.0
 40
6.0
 40
6.0
 40
6.0
 40
7.0
 40
7.0
 40
7.0
 40
8.0
 40
8.0
 40
8.0
 40
8.0
 10
6.009808163109937
 20
-1.36105948419932
 30
0.0
 10
6.276042306299636
 20
-1.451757559997278
 30
0.0
 10
6.214950825081207
 20
-1.269361402252343
 30
0.0
 10
6.233366808647335
 20
-1.170028319893592
 30
0.0
 10
6.232511761594802
 20
-1.179274498775031
 30
0.0
 10
6.233750232731936
 20
-1.19031231225132
 30
0.0
 10
6.237800007826636
 20
-1.203442951419484
 30
0.0
 10
6.496569859665314
 20
-1.454379861540587
 30
0.0
 10
6.443810478746778
 20
-0.8490519408384594
 30
0.0
 10
6.156668662636446
 20
-1.116821426024241
 30
0.0
 10
6.116716837253711
 20
-1.179158934465691
 30
0.0
 10
6.176356298270143
 20
-1.269603647795671
 30
0.0
 10
6.106959374935209
 20
-1.314099009297554
 30
0.0
 10
6.049115654528021
 20
-1.34321294219655
 30
0.0
 10
5.970219909973113
 20
-1.25039127526414
 30
0.0
 10
6.055287307581996
 20
-1.233500530245035
 30
0.0
 10
6.067911091811007
 20
-1.224157659972749
 30
0.0
 10
6.083613045429223
 20
-1.253654480438096
 30
0.0
 10
6.06582778313835
 20
-1.24355410809326
 30
0.0
 10
5.99510220459903
 20
-1.238817522608201
 30
0.0
 10
6.03656390411374
 20
-1.325602699475072
 30
0.0
 10
6.091520883576322
 20
-1.306917734529886
 30
0.0
 10
6.276872680352678
 20
-1.113704033535933
 30
0.0
 10
5.783815682147986
 20
-1.134674172822188
 30
0.0
 10
6.009808163109937
 20
-1.36105948419932
 30
0.0
  0
HATCH
  5
95
330
7E
100
AcDbEntity
  8
Deck Box - DF
 62
   250
420
  2301728
440
 33554687
100
AcDbHatch
 10
0.0
 20
0.0
 30
0.0
210
0.0
220
0.0
230
1.0
  2
SOLID
 70
     1
 71
     1
 91
        2
 92
        1
 93
        1
 72
     4
 94
        3
 73
     0
 74
     0
 95
       17
 96
       13
 40
0.0
 40
0.0
 40
0.0
 40
0.0
 40
1.0
 40
1.0
 40
1.0
 40
2.0
 40
2.0
 40
2.0
 40
3.0
 40
3.0
 40
3.0
 40
4.0
 40
4.0
 40
4.0
 40
4.0
 10
6.23673509847923
 20
-1.155956361597014
 10
6.243540875980821
 20
-1.133433472328609
 10
6.256527098064957
 20
-1.117155967895213
 10
6.28206790654033
 20
-1.112711524847706
 10
6.351906675085147
 20
-1.095490374487755
 10
6.382798404883133
 20
-1.204466225550264
 10
6.307582340430017
 20
-1.205175640460525
 10
6.300692050815111
 20
-1.198469291053697
 10
6.286827243069687
 20
-1.181822084243612
 10
6.303610554701637
 20
-1.190080408033193
 10
6.414913291542688
 20
-1.154056143087397
 10
6.26269307916502
 20
-1.094620151970275
 10
6.23673509847923
 20
-1.155956361597014
 97
        0
 97
        1
330
93
 92
        1
 93
        1
 72
     4
 94
        3
 73
     0
 74
     0
 95
       29
 96
       25
 40
0.0
 40
0.0
 40
0.0
 40
0.0
 40
1.0
 40
1.0
 40
1.0
 40
2.0
 40
2.0
 40
2.0
 40
3.0
 40
3.0
 40
3.0
 40
4.0
 40
4.0
 40
4.0
 40
5.0
 40
5.0
 40
5.0
 40
6.0
 40
6.0
 40
6.0
 40
7.0
 40
7.0
 40
7.0
 40
8.0
 40
8.0
 40
8.0
 40
8.0
 10
6.009808163109937
 20
-1.36105948419932
 10
6.276042306299636
 20
-1.451757559997278
 10
6.214950825081207
 20
-1.269361402252343
 10
6.233366808647335
 20
-1.170028319893592
 10
6.232511761594802
 20
-1.179274498775031
 10
6.233750232731936
 20
-1.19031231225132
 10
6.237800007826636
 20
-1.203442951419484
 10
6.496569859665314
 20
-1.454379861540587
 10
6.443810478746778
 20
-0.8490519408384594
 10
6.156668662636446
 20
-1.116821426024241
 10
6.116716837253711
 20
-1.179158934465691
 10
6.176356298270143
 20
-1.269603647795671
 10
6.106959374935209
 20
-1.314099009297554
 10
6.049115654528021
 20
-1.34321294219655
 10
5.970219909973113
 20
-1.25039127526414
 10
6.055287307581996
 20
-1.233500530245035
 10
6.067911091811007
 20
-1.224157659972749
 10
6.083613045429223
 20
-1.253654480438096
 10
6.06582778313835
 20
-1.24355410809326
 10
5.99510220459903
 20
-1.238817522608201
 10
6.03656390411374
 20
-1.325602699475072
 10
6.091520883576322
 20
-1.306917734529886
 10
6.276872680352678
 20
-1.113704033535933
 10
5.783815682147986
 20
-1.134674172822188
 10
6.009808163109937
 20
-1.36105948419932
 97
        0
 97
        1
330
94
 75
     2
 76
     1
 98
        1
 10
0.0
 20
0.0
450
        0
451
        0
460
0.0
461
0.0
452
        0
462
0.0
453
        0
470

  0
SPLINE
  5
96
330
7E
100
AcDbEntity
  8
Deck Box - DF
100
AcDbSpline
210
0.0
220
0.0
230
1.0
 70
     9
 71
     3
 72
    14
 73
    10
 74
     0
 42
0.0000000001
 43
0.0000000001
 40
0.0
 40
0.0
 40
0.0
 40
0.0
 40
1.0
 40
1.0
 40
1.0
 40
2.0
 40
2.0
 40
2.0
 40
3.0
 40
3.0
 40
3.0
 40
3.0
 10
6.498001510298081
 20
-0.7357930718058393
 30
0.0
 10
6.505857243533758
 20
-0.7455205498331958
 30
0.0
 10
6.515182059071952
 20
-0.7556837510593116
 30
0.0
 10
6.526172625749469
 20
-0.766292848010279
 30
0.0
 10
6.662770153147473
 20
-0.8102212063002095
 30
0.0
 10
6.712851194271605
 20
-0.7846084811482872
 30
0.0
 10
6.731366039377942
 20
-0.7357930718058393
 30
0.0
 10
6.731366039377942
 20
-0.7357930718058393
 30
0.0
 10
6.498001510298081
 20
-0.7357930718058393
 30
0.0
 10
6.498001510298081
 20
-0.7357930718058393
 30
0.0
  0
HATCH
  5
97
330
7E
100
AcDbEntity
  8
Deck Box - DF
 62
   250
420
  2301728
440
 33554687
100
AcDbHatch
 10
0.0
 20
0.0
 30
0.0
210
0.0
220
0.0
230
1.0
  2
SOLID
 70
     1
 71
     1
 91
        1
 92
        1
 93
        1
 72
     4
 94
        3
 73
     0
 74
     0
 95
       14
 96
       10
 40
0.0
 40
0.0
 40
0.0
 40
0.0
 40
1.0
 40
1.0
 40
1.0
 40
2.0
 40
2.0
 40
2.0
 40
3.0
 40
3.0
 40
3.0
 40
3.0
 10
6.498001510298081
 20
-0.7357930718058393
 10
6.505857243533758
 20
-0.7455205498331958
 10
6.515182059071952
 20
-0.7556837510593116
 10
6.526172625749469
 20
-0.766292848010279
 10
6.662770153147473
 20
-0.8102212063002095
 10
6.712851194271605
 20
-0.7846084811482872
 10
6.731366039377942
 20
-0.7357930718058393
 10
6.731366039377942
 20
-0.7357930718058393
 10
6.498001510298081
 20
-0.7357930718058393
 10
6.498001510298081
 20
-0.7357930718058393
 97
        0
 97
        1
330
96
 75
     2
 76
     1
 98
        1
 10
0.0
 20
0.0
450
        0
451
        0
460
0.0
461
0.0
452
        0
462
0.0
453
        0
470

  0
SPLINE
  5
98
330
7E
100
AcDbEntity
  8
Deck Box - DF
100
AcDbSpline
210
0.0
220
0.0
230
1.0
 70
     9
 71
     3
 72
    11
 73
     7
 74
     0
 42
0.0000000001
 43
0.0000000001
 40
0.0
 40
0.0
 40
0.0
 40
0.0
 40
1.0
 40
1.0
 40
1.0
 40
2.0
 40
2.0
 40
2.0
 40
2.0
 10
7.047551884647039
 20
-0.8981016587741679
 30
0.0
 10
6.942458670400077
 20
-0.9327933634182651
 30
0.0
 10
7.086001489953028
 20
-0.9901240247680789
 30
0.0
 10
7.110684276682629
 20
-0.9312386623548844
 30
0.0
 10
7.074850705990355
 20
-1.053914240154376
 30
0.0
 10
6.929482765723427
 20
-0.8728653170857871
 30
0.0
 10
7.047551884647039
 20
-0.8981016587741679
 30
0.0
  0
SPLINE
  5
99
330
7E
100
AcDbEntity
  8
Deck Box - DF
100
AcDbSpline
210
0.0
220
0.0
230
1.0
 70
     9
 71
     3
 72
    29
 73
    25
 74
     0
 42
0.0000000001
 43
0.0000000001
 40
0.0
 40
0.0
 40
0.0
 40
0.0
 40
1.0
 40
1.0
 40
1.0
 40
2.0
 40
2.0
 40
2.0
 40
3.0
 40
3.0
 40
3.0
 40
4.0
 40
4.0
 40
4.0
 40
5.0
 40
5.0
 40
5.0
 40
6.0
 40
6.0
 40
6.0
 40
7.0
 40
7.0
 40
7.0
 40
8.0
 40
8.0
 40
8.0
 40
8.0
 10
7.153413124610146
 20
-0.7357930718058393
 30
0.0
 10
7.133993772396605
 20
-0.7502948553887513
 30
0.0
 10
7.119428410525945
 20
-0.7703033664021934
 30
0.0
 10
7.11392168309539
 20
-0.79581521400419
 30
0.0
 10
7.120224410688706
 20
-0.8509638685180789
 30
0.0
 10
7.119308883344956
 20
-0.8905010864000233
 30
0.0
 10
7.113868277333671
 20
-0.9181330579712039
 30
0.0
 10
7.114784652387925
 20
-0.9090922254516726
 30
0.0
 10
7.113643634050251
 20
-0.8982474649807651
 30
0.0
 10
7.109718734419175
 20
-0.8852885145141726
 30
0.0
 10
6.865434846344087
 20
-0.643196805801065
 30
0.0
 10
6.915075925716918
 20
-1.226867527914792
 30
0.0
 10
7.186448402930459
 20
-0.9688736178670371
 30
0.0
 10
7.207121518978636
 20
-0.5785190375176449
 30
0.0
 10
7.392592947743827
 20
-0.8966079928670371
 30
0.0
 10
7.272198558909192
 20
-0.8467176866061866
 30
0.0
 10
7.339066811133584
 20
-0.8512944756144456
 30
0.0
 10
7.299827987348862
 20
-0.7675720431600059
 30
0.0
 10
7.247900632748168
 20
-0.7855655463067074
 30
0.0
 10
7.073497760026813
 20
-0.9711251369642594
 30
0.0
 10
7.535265168609712
 20
-0.9519643364542767
 30
0.0
 10
7.32736162450164
 20
-0.7357930718058393
 30
0.0
 10
7.32736162450164
 20
-0.7357930718058393
 30
0.0
 10
7.153413124610146
 20
-0.7357930718058393
 30
0.0
 10
7.153413124610146
 20
-0.7357930718058393
 30
0.0
  0
HATCH
  5
9A
330
7E
100
AcDbEntity
  8
Deck Box - DF
 62
   250
420
  2301728
440
 33554687
100
AcDbHatch
 10
0.0
 20
0.0
 30
0.0
210
0.0
220
0.0
230
1.0
  2
SOLID
 70
     1
 71
     1
 91
        2
 92
        1
 93
        1
 72
     4
 94
        3
 73
     0
 74
     0
 95
       11
 96
        7
 40
0.0
 40
0.0
 40
0.0
 40
0.0
 40
1.0
 40
1.0
 40
1.0
 40
2.0
 40
2.0
 40
2.0
 40
2.0
 10
7.047551884647039
 20
-0.8981016587741679
 10
6.942458670400077
 20
-0.9327933634182651
 10
7.086001489953028
 20
-0.9901240247680789
 10
7.110684276682629
 20
-0.9312386623548844
 10
7.074850705990355
 20
-1.053914240154376
 10
6.929482765723427
 20
-0.8728653170857871
 10
7.047551884647039
 20
-0.8981016587741679
 97
        0
 97
        1
330
98
 92
        1
 93
        1
 72
     4
 94
        3
 73
     0
 74
     0
 95
       29
 96
       25
 40
0.0
 40
0.0
 40
0.0
 40
0.0
 40
1.0
 40
1.0
 40
1.0
 40
2.0
 40
2.0
 40
2.0
 40
3.0
 40
3.0
 40
3.0
 40
4.0
 40
4.0
 40
4.0
 40
5.0
 40
5.0
 40
5.0
 40
6.0
 40
6.0
 40
6.0
 40
7.0
 40
7.0
 40
7.0
 40
8.0
 40
8.0
 40
8.0
 40
8.0
 10
7.153413124610146
 20
-0.7357930718058393
 10
7.133993772396605
 20
-0.7502948553887513
 10
7.119428410525945
 20
-0.7703033664021934
 10
7.11392168309539
 20
-0.79581521400419
 10
7.120224410688706
 20
-0.8509638685180789
 10
7.119308883344956
 20
-0.8905010864000233
 10
7.113868277333671
 20
-0.9181330579712039
 10
7.114784652387925
 20
-0.9090922254516726
 10
7.113643634050251
 20
-0.8982474649807651
 10
7.109718734419175
 20
-0.8852885145141726
 10
6.865434846344087
 20
-0.643196805801065
 10
6.915075925716918
 20
-1.226867527914792
 10
7.186448402930459
 20
-0.9688736178670371
 10
7.207121518978636
 20
-0.5785190375176449
 10
7.392592947743827
 20
-0.8966079928670371
 10
7.272198558909192
 20
-0.8467176866061866
 10
7.339066811133584
 20
-0.8512944756144456
 10
7.299827987348862
 20
-0.7675720431600059
 10
7.247900632748168
 20
-0.7855655463067074
 10
7.073497760026813
 20
-0.9711251369642594
 10
7.535265168609712
 20
-0.9519643364542767
 10
7.32736162450164
 20
-0.7357930718058393
 10
7.32736162450164
 20
-0.7357930718058393
 10
7.153413124610146
 20
-0.7357930718058393
 10
7.153413124610146
 20
-0.7357930718058393
 97
        0
 97
        1
330
99
 75
     2
 76
     1
 98
        1
 10
0.0
 20
0.0
450
        0
451
        0
460
0.0
461
0.0
452
        0
462
0.0
453
        0
470

  0
SPLINE
  5
9B
330
7E
100
AcDbEntity
  8
Deck Box - DF
100
AcDbSpline
210
0.0
220
0.0
230
1.0
 70
     9
 71
     3
 72
    14
 73
    10
 74
     0
 42
0.0000000001
 43
0.0000000001
 40
0.0
 40
0.0
 40
0.0
 40
0.0
 40
1.0
 40
1.0
 40
1.0
 40
2.0
 40
2.0
 40
2.0
 40
3.0
 40
3.0
 40
3.0
 40
3.0
 10
7.519222247331501
 20
-0.7357930718058393
 30
0.0
 10
7.519222247331501
 20
-0.7357930718058393
 30
0.0
 10
7.459812152116657
 20
-0.7357930718058393
 30
0.0
 10
7.459812152116657
 20
-0.7357930718058393
 30
0.0
 10
7.459678213857109
 20
-0.7367925224894458
 30
0.0
 10
7.459518844282456
 20
-0.737835206408704
 30
0.0
 10
7.459044974111015
 20
-0.7394043185506309
 30
0.0
 10
7.492367626292004
 20
-0.7855663940172235
 30
0.0
 10
7.515725441504677
 20
-0.7652925496161818
 30
0.0
 10
7.519222247331501
 20
-0.7357930718058393
 30
0.0
  0
HATCH
  5
9C
330
7E
100
AcDbEntity
  8
Deck Box - DF
 62
   250
420
  2301728
440
 33554687
100
AcDbHatch
 10
0.0
 20
0.0
 30
0.0
210
0.0
220
0.0
230
1.0
  2
SOLID
 70
     1
 71
     1
 91
        1
 92
        1
 93
        1
 72
     4
 94
        3
 73
     0
 74
     0
 95
       14
 96
       10
 40
0.0
 40
0.0
 40
0.0
 40
0.0
 40
1.0
 40
1.0
 40
1.0
 40
2.0
 40
2.0
 40
2.0
 40
3.0
 40
3.0
 40
3.0
 40
3.0
 10
7.519222247331501
 20
-0.7357930718058393
 10
7.519222247331501
 20
-0.7357930718058393
 10
7.459812152116657
 20
-0.7357930718058393
 10
7.459812152116657
 20
-0.7357930718058393
 10
7.459678213857109
 20
-0.7367925224894458
 10
7.459518844282456
 20
-0.737835206408704
 10
7.459044974111015
 20
-0.7394043185506309
 10
7.492367626292004
 20
-0.7855663940172235
 10
7.515725441504677
 20
-0.7652925496161818
 10
7.519222247331501
 20
-0.7357930718058393
 97
        0
 97
        1
330
9B
 75
     2
 76
     1
 98
        1
 10
0.0
 20
0.0
450
        0
451
        0
460
0.0
461
0.0
452
        0
462
0.0
453
        0
470

  0
SPLINE
  5
9D
330
7E
100
AcDbEntity
  8
Deck Box - DF
100
AcDbSpline
210
0.0
220
0.0
230
1.0
 70
     9
 71
     3
 72
    23
 73
    19
 74
     0
 42
0.0000000001
 43
0.0000000001
 40
0.0
 40
0.0
 40
0.0
 40
0.0
 40
1.0
 40
1.0
 40
1.0
 40
2.0
 40
2.0
 40
2.0
 40
3.0
 40
3.0
 40
3.0
 40
4.0
 40
4.0
 40
4.0
 40
5.0
 40
5.0
 40
5.0
 40
6.0
 40
6.0
 40
6.0
 40
6.0
 10
7.53874841106848
 20
-0.7357930718058393
 30
0.0
 10
7.527721392839313
 20
-0.7743825493449018
 30
0.0
 10
7.458116731109712
 20
-0.7962288967298844
 30
0.0
 10
7.444386364084973
 20
-0.7461300536851797
 30
0.0
 10
7.446621776682629
 20
-0.7431079657403012
 30
0.0
 10
7.450322033030285
 20
-0.7387854898830963
 30
0.0
 10
7.453580632205633
 20
-0.7357930718058393
 30
0.0
 10
7.453580632205633
 20
-0.7357930718058393
 30
0.0
 10
7.387597389746865
 20
-0.7357930718058393
 30
0.0
 10
7.387597389746865
 20
-0.7357930718058393
 30
0.0
 10
7.379541596832368
 20
-0.7636895290541032
 30
0.0
 10
7.389662412533324
 20
-0.7958211479777143
 30
0.0
 10
7.4248373121644
 20
-0.8202852253974317
 30
0.0
 10
7.514712427453028
 20
-0.8566418334703485
 30
0.0
 10
7.580549015994695
 20
-0.801052369494654
 30
0.0
 10
7.594219195573688
 20
-0.7357930718058393
 30
0.0
 10
7.594219195573688
 20
-0.7357930718058393
 30
0.0
 10
7.53874841106848
 20
-0.7357930718058393
 30
0.0
 10
7.53874841106848
 20
-0.7357930718058393
 30
0.0
  0
HATCH
  5
9E
330
7E
100
AcDbEntity
  8
Deck Box - DF
 62
   250
420
  2301728
440
 33554687
100
AcDbHatch
 10
0.0
 20
0.0
 30
0.0
210
0.0
220
0.0
230
1.0
  2
SOLID
 70
     1
 71
     1
 91
        1
 92
        1
 93
        1
 72
     4
 94
        3
 73
     0
 74
     0
 95
       23
 96
       19
 40
0.0
 40
0.0
 40
0.0
 40
0.0
 40
1.0
 40
1.0
 40
1.0
 40
2.0
 40
2.0
 40
2.0
 40
3.0
 40
3.0
 40
3.0
 40
4.0
 40
4.0
 40
4.0
 40
5.0
 40
5.0
 40
5.0
 40
6.0
 40
6.0
 40
6.0
 40
6.0
 10
7.53874841106848
 20
-0.7357930718058393
 10
7.527721392839313
 20
-0.7743825493449018
 10
7.458116731109712
 20
-0.7962288967298844
 10
7.444386364084973
 20
-0.7461300536851797
 10
7.446621776682629
 20
-0.7431079657403012
 10
7.450322033030285
 20
-0.7387854898830963
 10
7.453580632205633
 20
-0.7357930718058393
 10
7.453580632205633
 20
-0.7357930718058393
 10
7.387597389746865
 20
-0.7357930718058393
 10
7.387597389746865
 20
-0.7357930718058393
 10
7.379541596832368
 20
-0.7636895290541032
 10
7.389662412533324
 20
-0.7958211479777143
 10
7.4248373121644
 20
-0.8202852253974317
 10
7.514712427453028
 20
-0.8566418334703485
 10
7.580549015994695
 20
-0.801052369494654
 10
7.594219195573688
 20
-0.7357930718058393
 10
7.594219195573688
 20
-0.7357930718058393
 10
7.53874841106848
 20
-0.7357930718058393
 10
7.53874841106848
 20
-0.7357930718058393
 97
        0
 97
        1
330
9D
 75
     2
 76
     1
 98
        1
 10
0.0
 20
0.0
450
        0
451
        0
460
0.0
461
0.0
452
        0
462
0.0
453
        0
470

  0
SPLINE
  5
9F
330
7E
100
AcDbEntity
  8
Deck Box - DF
100
AcDbSpline
210
0.0
220
0.0
230
1.0
 70
     9
 71
     3
 72
    14
 73
    10
 74
     0
 42
0.0000000001
 43
0.0000000001
 40
0.0
 40
0.0
 40
0.0
 40
0.0
 40
1.0
 40
1.0
 40
1.0
 40
2.0
 40
2.0
 40
2.0
 40
3.0
 40
3.0
 40
3.0
 40
3.0
 10
6.024451446530065
 20
-1.067663936578936
 30
0.0
 10
6.073995963970092
 20
-1.060001531655289
 30
0.0
 10
6.072922546691844
 20
-0.9487198236012975
 30
0.0
 10
6.01459982977662
 20
-1.013699799170227
 30
0.0
 10
6.015827240603635
 20
-1.027268393461554
 30
0.0
 10
6.007452600649407
 20
-1.013540542761777
 30
0.0
 10
6.004464331729725
 20
-1.007119872464247
 30
0.0
 10
6.055686896735247
 20
-0.9307497027620886
 30
0.0
 10
6.116409417351556
 20
-1.06998995915463
 30
0.0
 10
6.024451446530065
 20
-1.067663936578936
 30
0.0
  0
SPLINE
  5
A0
330
7E
100
AcDbEntity
  8
Deck Box - DF
100
AcDbSpline
210
0.0
220
0.0
230
1.0
 70
     9
 71
     3
 72
    26
 73
    22
 74
     0
 42
0.0000000001
 43
0.0000000001
 40
0.0
 40
0.0
 40
0.0
 40
0.0
 40
1.0
 40
1.0
 40
1.0
 40
2.0
 40
2.0
 40
2.0
 40
3.0
 40
3.0
 40
3.0
 40
4.0
 40
4.0
 40
4.0
 40
5.0
 40
5.0
 40
5.0
 40
6.0
 40
6.0
 40
6.0
 40
7.0
 40
7.0
 40
7.0
 40
7.0
 10
5.864396564210791
 20
-1.128468343556114
 30
0.0
 10
5.83415881069911
 20
-1.16117821376814
 30
0.0
 10
5.886925281560049
 20
-1.211715753064393
 30
0.0
 10
5.904275788583415
 20
-1.162242077600404
 30
0.0
 10
5.901963900168033
 20
-1.147517581682298
 30
0.0
 10
5.919422741511147
 20
-1.165792771615567
 30
0.0
 10
5.908692822694066
 20
-1.172011527538125
 30
0.0
 10
5.855704578435052
 20
-1.243270755782153
 30
0.0
 10
5.75732056742653
 20
-1.044886392176926
 30
0.0
 10
6.026076744924163
 20
-1.132743964469379
 30
0.0
 10
6.163924793278813
 20
-1.107770439656355
 30
0.0
 10
6.136909560383476
 20
-0.8996711766039627
 30
0.0
 10
6.000929570050427
 20
-0.9441187094766721
 30
0.0
 10
5.941502807305798
 20
-0.9798366126627797
 30
0.0
 10
5.94720227019641
 20
-1.046821512659208
 30
0.0
 10
6.006833506879678
 20
-1.066225716773639
 30
0.0
 10
5.925644591357265
 20
-1.053601026941957
 30
0.0
 10
5.80956947249284
 20
-0.9663696218917468
 30
0.0
 10
5.799688928774407
 20
-1.170346057111032
 30
0.0
 10
5.902515214088477
 20
-1.382581074653052
 30
0.0
 10
6.063919170646234
 20
-1.051521903505987
 30
0.0
 10
5.864396564210791
 20
-1.128468343556114
 30
0.0
  0
HATCH
  5
A1
330
7E
100
AcDbEntity
  8
Deck Box - DF
 62
   250
420
  2301728
440
 33554687
100
AcDbHatch
 10
0.0
 20
0.0
 30
0.0
210
0.0
220
0.0
230
1.0
  2
SOLID
 70
     1
 71
     1
 91
        2
 92
        1
 93
        1
 72
     4
 94
        3
 73
     0
 74
     0
 95
       14
 96
       10
 40
0.0
 40
0.0
 40
0.0
 40
0.0
 40
1.0
 40
1.0
 40
1.0
 40
2.0
 40
2.0
 40
2.0
 40
3.0
 40
3.0
 40
3.0
 40
3.0
 10
6.024451446530065
 20
-1.067663936578936
 10
6.073995963970092
 20
-1.060001531655289
 10
6.072922546691844
 20
-0.9487198236012975
 10
6.01459982977662
 20
-1.013699799170227
 10
6.015827240603635
 20
-1.027268393461554
 10
6.007452600649407
 20
-1.013540542761777
 10
6.004464331729725
 20
-1.007119872464247
 10
6.055686896735247
 20
-0.9307497027620886
 10
6.116409417351556
 20
-1.06998995915463
 10
6.024451446530065
 20
-1.067663936578936
 97
        0
 97
        1
330
9F
 92
        1
 93
        1
 72
     4
 94
        3
 73
     0
 74
     0
 95
       26
 96
       22
 40
0.0
 40
0.0
 40
0.0
 40
0.0
 40
1.0
 40
1.0
 40
1.0
 40
2.0
 40
2.0
 40
2.0
 40
3.0
 40
3.0
 40
3.0
 40
4.0
 40
4.0
 40
4.0
 40
5.0
 40
5.0
 40
5.0
 40
6.0
 40
6.0
 40
6.0
 40
7.0
 40
7.0
 40
7.0
 40
7.0
 10
5.864396564210791
 20
-1.128468343556114
 10
5.83415881069911
 20
-1.16117821376814
 10
5.886925281560049
 20
-1.211715753064393
 10
5.904275788583415
 20
-1.162242077600404
 10
5.901963900168033
 20
-1.147517581682298
 10
5.919422741511147
 20
-1.165792771615567
 10
5.908692822694066
 20
-1.172011527538125
 10
5.855704578435052
 20
-1.243270755782153
 10
5.75732056742653
 20
-1.044886392176926
 10
6.026076744924163
 20
-1.132743964469379
 10
6.163924793278813
 20
-1.107770439656355
 10
6.136909560383476
 20
-0.8996711766039627
 10
6.000929570050427
 20
-0.9441187094766721
 10
5.941502807305798
 20
-0.9798366126627797
 10
5.94720227019641
 20
-1.046821512659208
 10
6.006833506879678
 20
-1.066225716773639
 10
5.925644591357265
 20
-1.053601026941957
 10
5.80956947249284
 20
-0.9663696218917468
 10
5.799688928774407
 20
-1.170346057111032
 10
5.902515214088477
 20
-1.382581074653052
 10
6.063919170646234
 20
-1.051521903505987
 10
5.864396564210791
 20
-1.128468343556114
 97
        0
 97
        1
330
A0
 75
     2
 76
     1
 98
        1
 10
0.0
 20
0.0
450
        0
451
        0
460
0.0
461
0.0
452
        0
462
0.0
453
        0
470

  0
SPLINE
  5
A2
330
7E
100
AcDbEntity
  8
Deck Box - DF
100
AcDbSpline
210
0.0
220
0.0
230
1.0
 70
     9
 71
     3
 72
    26
 73
    22
 74
     0
 42
0.0000000001
 43
0.0000000001
 40
0.0
 40
0.0
 40
0.0
 40
0.0
 40
1.0
 40
1.0
 40
1.0
 40
2.0
 40
2.0
 40
2.0
 40
3.0
 40
3.0
 40
3.0
 40
4.0
 40
4.0
 40
4.0
 40
5.0
 40
5.0
 40
5.0
 40
6.0
 40
6.0
 40
6.0
 40
7.0
 40
7.0
 40
7.0
 40
7.0
 10
6.566512708564484
 20
-0.8835211290039397
 30
0.0
 10
6.573272826837055
 20
-1.207643597724882
 30
0.0
 10
6.376844271261764
 20
-0.9954812279925388
 30
0.0
 10
6.495462127065896
 20
-1.004557809140351
 30
0.0
 10
6.435102044304685
 20
-1.016107776748286
 30
0.0
 10
6.474596426604269
 20
-1.076528520559728
 30
0.0
 10
6.520401708426359
 20
-1.049678303751913
 30
0.0
 10
6.668515709767916
 20
-0.8549994955070461
 30
0.0
 10
6.250387775148283
 20
-0.9786018584311982
 30
0.0
 10
6.453586374915503
 20
-1.110681781239665
 30
0.0
 10
6.519757374461732
 20
-1.135235965314879
 30
0.0
 10
6.627918132432063
 20
-1.086587786136786
 30
0.0
 10
6.640400117813189
 20
-1.010400657891093
 30
0.0
 10
6.580010257293956
 20
-0.7325139957069698
 30
0.0
 10
6.836123082321566
 20
-0.8960806684866737
 30
0.0
 10
6.694985867892127
 20
-0.9103005077339377
 30
0.0
 10
6.805056372745335
 20
-0.8475480536179828
 30
0.0
 10
6.59872458563599
 20
-0.8387333665314145
 30
0.0
 10
6.63969140717164
 20
-0.9352321501797986
 30
0.0
 10
6.876378924434093
 20
-1.080248812308506
 30
0.0
 10
6.79379215586957
 20
-0.6077779650053495
 30
0.0
 10
6.566512708564484
 20
-0.8835211290039397
 30
0.0
  0
HATCH
  5
A3
330
7E
100
AcDbEntity
  8
Deck Box - DF
 62
   250
420
  2301728
440
 33554687
100
AcDbHatch
 10
0.0
 20
0.0
 30
0.0
210
0.0
220
0.0
230
1.0
  2
SOLID
 70
     1
 71
     1
 91
        1
 92
        1
 93
        1
 72
     4
 94
        3
 73
     0
 74
     0
 95
       26
 96
       22
 40
0.0
 40
0.0
 40
0.0
 40
0.0
 40
1.0
 40
1.0
 40
1.0
 40
2.0
 40
2.0
 40
2.0
 40
3.0
 40
3.0
 40
3.0
 40
4.0
 40
4.0
 40
4.0
 40
5.0
 40
5.0
 40
5.0
 40
6.0
 40
6.0
 40
6.0
 40
7.0
 40
7.0
 40
7.0
 40
7.0
 10
6.566512708564484
 20
-0.8835211290039397
 10
6.573272826837055
 20
-1.207643597724882
 10
6.376844271261764
 20
-0.9954812279925388
 10
6.495462127065896
 20
-1.004557809140351
 10
6.435102044304685
 20
-1.016107776748286
 10
6.474596426604269
 20
-1.076528520559728
 10
6.520401708426359
 20
-1.049678303751913
 10
6.668515709767916
 20
-0.8549994955070461
 10
6.250387775148283
 20
-0.9786018584311982
 10
6.453586374915503
 20
-1.110681781239665
 10
6.519757374461732
 20
-1.135235965314879
 10
6.627918132432063
 20
-1.086587786136786
 10
6.640400117813189
 20
-1.010400657891093
 10
6.580010257293956
 20
-0.7325139957069698
 10
6.836123082321566
 20
-0.8960806684866737
 10
6.694985867892127
 20
-0.9103005077339377
 10
6.805056372745335
 20
-0.8475480536179828
 10
6.59872458563599
 20
-0.8387333665314145
 10
6.63969140717164
 20
-0.9352321501797986
 10
6.876378924434093
 20
-1.080248812308506
 10
6.79379215586957
 20
-0.6077779650053495
 10
6.566512708564484
 20
-0.8835211290039397
 97
        0
 97
        1
330
A2
 75
     2
 76
     1
 98
        1
 10
0.0
 20
0.0
450
        0
451
        0
460
0.0
461
0.0
452
        0
462
0.0
453
        0
470

  0
SPLINE
  5
A4
330
7E
100
AcDbEntity
  8
Deck Box - DF
100
AcDbSpline
210
0.0
220
0.0
230
1.0
 70
     9
 71
     3
 72
    20
 73
    16
 74
     0
 42
0.0000000001
 43
0.0000000001
 40
0.0
 40
0.0
 40
0.0
 40
0.0
 40
1.0
 40
1.0
 40
1.0
 40
2.0
 40
2.0
 40
2.0
 40
3.0
 40
3.0
 40
3.0
 40
4.0
 40
4.0
 40
4.0
 40
5.0
 40
5.0
 40
5.0
 40
5.0
 10
6.93497169123341
 20
-0.7357930718058393
 30
0.0
 10
6.919584050174383
 20
-0.8572581190063601
 30
0.0
 10
6.769947039811969
 20
-0.7935119845662559
 30
0.0
 10
6.837184046105372
 20
-0.7357930718058393
 30
0.0
 10
6.837184046105372
 20
-0.7357930718058393
 30
0.0
 10
6.762722850901379
 20
-0.7357930718058393
 30
0.0
 10
6.762722850901379
 20
-0.7357930718058393
 30
0.0
 10
6.720526365170043
 20
-0.8564265150024539
 30
0.0
 10
6.940506393110581
 20
-0.913509644885279
 30
0.0
 10
7.010148354102334
 20
-0.7764128160007178
 30
0.0
 10
7.017081778310234
 20
-0.7631698825154874
 30
0.0
 10
7.019594392242525
 20
-0.749537849909138
 30
0.0
 10
7.020019095204765
 20
-0.7357930718058393
 30
0.0
 10
7.020019095204765
 20
-0.7357930718058393
 30
0.0
 10
6.93497169123341
 20
-0.7357930718058393
 30
0.0
 10
6.93497169123341
 20
-0.7357930718058393
 30
0.0
  0
HATCH
  5
A5
330
7E
100
AcDbEntity
  8
Deck Box - DF
 62
   250
420
  2301728
440
 33554687
100
AcDbHatch
 10
0.0
 20
0.0
 30
0.0
210
0.0
220
0.0
230
1.0
  2
SOLID
 70
     1
 71
     1
 91
        1
 92
        1
 93
        1
 72
     4
 94
        3
 73
     0
 74
     0
 95
       20
 96
       16
 40
0.0
 40
0.0
 40
0.0
 40
0.0
 40
1.0
 40
1.0
 40
1.0
 40
2.0
 40
2.0
 40
2.0
 40
3.0
 40
3.0
 40
3.0
 40
4.0
 40
4.0
 40
4.0
 40
5.0
 40
5.0
 40
5.0
 40
5.0
 10
6.93497169123341
 20
-0.7357930718058393
 10
6.919584050174383
 20
-0.8572581190063601
 10
6.769947039811969
 20
-0.7935119845662559
 10
6.837184046105372
 20
-0.7357930718058393
 10
6.837184046105372
 20
-0.7357930718058393
 10
6.762722850901379
 20
-0.7357930718058393
 10
6.762722850901379
 20
-0.7357930718058393
 10
6.720526365170043
 20
-0.8564265150024539
 10
6.940506393110581
 20
-0.913509644885279
 10
7.010148354102334
 20
-0.7764128160007178
 10
7.017081778310234
 20
-0.7631698825154874
 10
7.019594392242525
 20
-0.749537849909138
 10
7.020019095204765
 20
-0.7357930718058393
 10
7.020019095204765
 20
-0.7357930718058393
 10
6.93497169123341
 20
-0.7357930718058393
 10
6.93497169123341
 20
-0.7357930718058393
 97
        0
 97
        1
330
A4
 75
     2
 76
     1
 98
        1
 10
0.0
 20
0.0
450
        0
451
        0
460
0.0
461
0.0
452
        0
462
0.0
453
        0
470

  0
SPLINE
  5
A6
330
7E
100
AcDbEntity
  8
Deck Box - DF
100
AcDbSpline
210
0.0
220
0.0
230
1.0
 70
     9
 71
     3
 72
    11
 73
     7
 74
     0
 42
0.0000000001
 43
0.0000000001
 40
0.0
 40
0.0
 40
0.0
 40
0.0
 40
1.0
 40
1.0
 40
1.0
 40
2.0
 40
2.0
 40
2.0
 40
2.0
 10
6.932040308312403
 20
-0.7357930718058393
 30
0.0
 10
6.932040308312403
 20
-0.7357930718058393
 30
0.0
 10
6.861554875369695
 20
-0.7357930718058393
 30
0.0
 10
6.861554875369695
 20
-0.7357930718058393
 30
0.0
 10
6.753298005523775
 20
-0.7910349744751102
 30
0.0
 10
6.939772275814574
 20
-0.8186042154690337
 30
0.0
 10
6.932040308312403
 20
-0.7357930718058393
 30
0.0
  0
HATCH
  5
A7
330
7E
100
AcDbEntity
  8
Deck Box - DF
 62
   250
420
  2301728
440
 33554687
100
AcDbHatch
 10
0.0
 20
0.0
 30
0.0
210
0.0
220
0.0
230
1.0
  2
SOLID
 70
     1
 71
     1
 91
        1
 92
        1
 93
        1
 72
     4
 94
        3
 73
     0
 74
     0
 95
       11
 96
        7
 40
0.0
 40
0.0
 40
0.0
 40
0.0
 40
1.0
 40
1.0
 40
1.0
 40
2.0
 40
2.0
 40
2.0
 40
2.0
 10
6.932040308312403
 20
-0.7357930718058393
 10
6.932040308312403
 20
-0.7357930718058393
 10
6.861554875369695
 20
-0.7357930718058393
 10
6.861554875369695
 20
-0.7357930718058393
 10
6.753298005523775
 20
-0.7910349744751102
 10
6.939772275814574
 20
-0.8186042154690337
 10
6.932040308312403
 20
-0.7357930718058393
 97
        0
 97
        1
330
A6
 75
     2
 76
     1
 98
        1
 10
0.0
 20
0.0
450
        0
451
        0
460
0.0
461
0.0
452
        0
462
0.0
453
        0
470

  0
SPLINE
  5
A8
330
7E
100
AcDbEntity
  8
Deck Box - DF
100
AcDbSpline
210
0.0
220
0.0
230
1.0
 70
     9
 71
     3
 72
    26
 73
    22
 74
     0
 42
0.0000000001
 43
0.0000000001
 40
0.0
 40
0.0
 40
0.0
 40
0.0
 40
1.0
 40
1.0
 40
1.0
 40
2.0
 40
2.0
 40
2.0
 40
3.0
 40
3.0
 40
3.0
 40
4.0
 40
4.0
 40
4.0
 40
5.0
 40
5.0
 40
5.0
 40
6.0
 40
6.0
 40
6.0
 40
7.0
 40
7.0
 40
7.0
 40
7.0
 10
6.864354665733824
 20
-1.075323756171276
 30
0.0
 10
6.909522419936011
 20
-1.050682187897892
 30
0.0
 10
6.874411040023611
 20
-0.9549308235299601
 30
0.0
 10
6.836023539530363
 20
-1.008656851925454
 30
0.0
 10
6.832480553517926
 20
-1.028981951050935
 30
0.0
 10
6.821494545981622
 20
-0.9952974109367005
 30
0.0
 10
6.835333829934445
 20
-0.9935006056792998
 30
0.0
 10
6.896996476911984
 20
-0.9461556920123761
 30
0.0
 10
6.914210857041426
 20
-1.07304323542659
 30
0.0
 10
6.860191451560845
 20
-1.091753019552318
 30
0.0
 10
6.797073097611195
 20
-1.105133401724616
 30
0.0
 10
6.757383883694678
 20
-1.008023445755573
 30
0.0
 10
6.705810224741879
 20
-0.9746597452563793
 30
0.0
 10
6.71391176011515
 20
-1.028821143443741
 30
0.0
 10
6.701153550578358
 20
-1.055761846847215
 30
0.0
 10
6.717545213792542
 20
-1.101997911917149
 30
0.0
 10
6.772620453494255
 20
-1.227907941564694
 30
0.0
 10
6.93330492269802
 20
-1.202557733980446
 30
0.0
 10
6.949594207143995
 20
-1.058835805769604
 30
0.0
 10
6.927369506524528
 20
-0.7255948735337117
 30
0.0
 10
6.622727727405212
 20
-1.058848990959265
 30
0.0
 10
6.864354665733824
 20
-1.075323756171276
 30
0.0
  0
HATCH
  5
A9
330
7E
100
AcDbEntity
  8
Deck Box - DF
 62
   250
420
  2301728
440
 33554687
100
AcDbHatch
 10
0.0
 20
0.0
 30
0.0
210
0.0
220
0.0
230
1.0
  2
SOLID
 70
     1
 71
     1
 91
        1
 92
        1
 93
        1
 72
     4
 94
        3
 73
     0
 74
     0
 95
       26
 96
       22
 40
0.0
 40
0.0
 40
0.0
 40
0.0
 40
1.0
 40
1.0
 40
1.0
 40
2.0
 40
2.0
 40
2.0
 40
3.0
 40
3.0
 40
3.0
 40
4.0
 40
4.0
 40
4.0
 40
5.0
 40
5.0
 40
5.0
 40
6.0
 40
6.0
 40
6.0
 40
7.0
 40
7.0
 40
7.0
 40
7.0
 10
6.864354665733824
 20
-1.075323756171276
 10
6.909522419936011
 20
-1.050682187897892
 10
6.874411040023611
 20
-0.9549308235299601
 10
6.836023539530363
 20
-1.008656851925454
 10
6.832480553517926
 20
-1.028981951050935
 10
6.821494545981622
 20
-0.9952974109367005
 10
6.835333829934445
 20
-0.9935006056792998
 10
6.896996476911984
 20
-0.9461556920123761
 10
6.914210857041426
 20
-1.07304323542659
 10
6.860191451560845
 20
-1.091753019552318
 10
6.797073097611195
 20
-1.105133401724616
 10
6.757383883694678
 20
-1.008023445755573
 10
6.705810224741879
 20
-0.9746597452563793
 10
6.71391176011515
 20
-1.028821143443741
 10
6.701153550578358
 20
-1.055761846847215
 10
6.717545213792542
 20
-1.101997911917149
 10
6.772620453494255
 20
-1.227907941564694
 10
6.93330492269802
 20
-1.202557733980446
 10
6.949594207143995
 20
-1.058835805769604
 10
6.927369506524528
 20
-0.7255948735337117
 10
6.622727727405212
 20
-1.058848990959265
 10
6.864354665733824
 20
-1.075323756171276
 97
        0
 97
        1
330
A8
 75
     2
 76
     1
 98
        1
 10
0.0
 20
0.0
450
        0
451
        0
460
0.0
461
0.0
452
        0
462
0.0
453
        0
470

  0
SPLINE
  5
AA
330
7E
100
AcDbEntity
  8
Deck Box - DF
100
AcDbSpline
210
0.0
220
0.0
230
1.0
 70
     9
 71
     3
 72
    14
 73
    10
 74
     0
 42
0.0000000001
 43
0.0000000001
 40
0.0
 40
0.0
 40
0.0
 40
0.0
 40
1.0
 40
1.0
 40
1.0
 40
2.0
 40
2.0
 40
2.0
 40
3.0
 40
3.0
 40
3.0
 40
3.0
 10
6.214944191504678
 20
-0.7357930718058393
 30
0.0
 10
6.208347308366683
 20
-0.7601842461222456
 30
0.0
 10
6.201955571170501
 20
-0.7843482340237213
 30
0.0
 10
6.203255959082803
 20
-0.8046110581882178
 30
0.0
 10
6.236980426042438
 20
-0.772242928034138
 30
0.0
 10
6.263827417687403
 20
-0.7608836072876102
 30
0.0
 10
6.288524615495563
 20
-0.7357930718058393
 30
0.0
 10
6.288524615495563
 20
-0.7357930718058393
 30
0.0
 10
6.214944191504678
 20
-0.7357930718058393
 30
0.0
 10
6.214944191504678
 20
-0.7357930718058393
 30
0.0
  0
HATCH
  5
AB
330
7E
100
AcDbEntity
  8
Deck Box - DF
 62
   250
420
  2301728
440
 33554687
100
AcDbHatch
 10
0.0
 20
0.0
 30
0.0
210
0.0
220
0.0
230
1.0
  2
SOLID
 70
     1
 71
     1
 91
        1
 92
        1
 93
        1
 72
     4
 94
        3
 73
     0
 74
     0
 95
       14
 96
       10
 40
0.0
 40
0.0
 40
0.0
 40
0.0
 40
1.0
 40
1.0
 40
1.0
 40
2.0
 40
2.0
 40
2.0
 40
3.0
 40
3.0
 40
3.0
 40
3.0
 10
6.214944191504678
 20
-0.7357930718058393
 10
6.208347308366683
 20
-0.7601842461222456
 10
6.201955571170501
 20
-0.7843482340237213
 10
6.203255959082803
 20
-0.8046110581882178
 10
6.236980426042438
 20
-0.772242928034138
 10
6.263827417687403
 20
-0.7608836072876102
 10
6.288524615495563
 20
-0.7357930718058393
 10
6.288524615495563
 20
-0.7357930718058393
 10
6.214944191504678
 20
-0.7357930718058393
 10
6.214944191504678
 20
-0.7357930718058393
 97
        0
 97
        1
330
AA
 75
     2
 76
     1
 98
        1
 10
0.0
 20
0.0
450
        0
451
        0
460
0.0
461
0.0
452
        0
462
0.0
453
        0
470

  0
SPLINE
  5
AC
330
7E
100
AcDbEntity
  8
Deck Box - DF
100
AcDbSpline
210
0.0
220
0.0
230
1.0
 70
     9
 71
     3
 72
    11
 73
     7
 74
     0
 42
0.0000000001
 43
0.0000000001
 40
0.0
 40
0.0
 40
0.0
 40
0.0
 40
1.0
 40
1.0
 40
1.0
 40
2.0
 40
2.0
 40
2.0
 40
2.0
 10
6.054377649620997
 20
-0.7357930718058393
 30
0.0
 10
6.086183747711275
 20
-0.7641150797268463
 30
0.0
 10
6.155488319922647
 20
-0.7636818996595846
 30
0.0
 10
6.192019556359278
 20
-0.7357930718058393
 30
0.0
 10
6.192019556359278
 20
-0.7357930718058393
 30
0.0
 10
6.054377649620997
 20
-0.7357930718058393
 30
0.0
 10
6.054377649620997
 20
-0.7357930718058393
 30
0.0
  0
HATCH
  5
AD
330
7E
100
AcDbEntity
  8
Deck Box - DF
 62
   250
420
  2301728
440
 33554687
100
AcDbHatch
 10
0.0
 20
0.0
 30
0.0
210
0.0
220
0.0
230
1.0
  2
SOLID
 70
     1
 71
     1
 91
        1
 92
        1
 93
        1
 72
     4
 94
        3
 73
     0
 74
     0
 95
       11
 96
        7
 40
0.0
 40
0.0
 40
0.0
 40
0.0
 40
1.0
 40
1.0
 40
1.0
 40
2.0
 40
2.0
 40
2.0
 40
2.0
 10
6.054377649620997
 20
-0.7357930718058393
 10
6.086183747711275
 20
-0.7641150797268463
 10
6.155488319922647
 20
-0.7636818996595846
 10
6.192019556359278
 20
-0.7357930718058393
 10
6.192019556359278
 20
-0.7357930718058393
 10
6.054377649620997
 20
-0.7357930718058393
 10
6.054377649620997
 20
-0.7357930718058393
 97
        0
 97
        1
330
AC
 75
     2
 76
     1
 98
        1
 10
0.0
 20
0.0
450
        0
451
        0
460
0.0
461
0.0
452
        0
462
0.0
453
        0
470

  0
SPLINE
  5
AE
330
7E
100
AcDbEntity
  8
Deck Box - DF
100
AcDbSpline
210
0.0
220
0.0
230
1.0
 70
     9
 71
     3
 72
    26
 73
    22
 74
     0
 42
0.0000000001
 43
0.0000000001
 40
0.0
 40
0.0
 40
0.0
 40
0.0
 40
1.0
 40
1.0
 40
1.0
 40
2.0
 40
2.0
 40
2.0
 40
3.0
 40
3.0
 40
3.0
 40
4.0
 40
4.0
 40
4.0
 40
5.0
 40
5.0
 40
5.0
 40
6.0
 40
6.0
 40
6.0
 40
7.0
 40
7.0
 40
7.0
 40
7.0
 10
7.310874700061453
 20
-0.923622202885604
 30
0.0
 10
7.271060419561156
 20
-0.9348996765739027
 30
0.0
 10
7.261025598696252
 20
-0.9539323685797221
 30
0.0
 10
7.22455777100529
 20
-0.9776636417003979
 30
0.0
 10
7.321399861342241
 20
-0.9477934993944927
 30
0.0
 10
7.352518469296783
 20
-0.9487273210620767
 30
0.0
 10
7.379753206808648
 20
-0.9841280040970003
 30
0.0
 10
7.398888110533384
 20
-1.017782037301812
 30
0.0
 10
7.316392660426824
 20
-1.068489174331691
 30
0.0
 10
7.309495280869567
 20
-1.018056599486473
 30
0.0
 10
7.302869871502429
 20
-1.010820257161993
 30
0.0
 10
7.328320495910601
 20
-1.000328724190618
 30
0.0
 10
7.318592811350147
 20
-1.011367313266267
 30
0.0
 10
7.308939996581354
 20
-1.053978226779463
 30
0.0
 10
7.383434304898905
 20
-1.025952201293875
 30
0.0
 10
7.372609380853746
 20
-0.9936521060938048
 30
0.0
 10
7.229419486302806
 20
-0.8894366255643337
 30
0.0
 10
7.206362993641808
 20
-1.184537716247051
 30
0.0
 10
7.410303484980986
 20
-1.040721423443579
 30
0.0
 10
7.485030910604412
 20
-0.9689179829596872
 30
0.0
 10
7.397053800637523
 20
-0.9037464343410242
 30
0.0
 10
7.310874700061453
 20
-0.923622202885604
 30
0.0
  0
HATCH
  5
AF
330
7E
100
AcDbEntity
  8
Deck Box - DF
 62
   250
420
  2301728
440
 33554687
100
AcDbHatch
 10
0.0
 20
0.0
 30
0.0
210
0.0
220
0.0
230
1.0
  2
SOLID
 70
     1
 71
     1
 91
        1
 92
        1
 93
        1
 72
     4
 94
        3
 73
     0
 74
     0
 95
       26
 96
       22
 40
0.0
 40
0.0
 40
0.0
 40
0.0
 40
1.0
 40
1.0
 40
1.0
 40
2.0
 40
2.0
 40
2.0
 40
3.0
 40
3.0
 40
3.0
 40
4.0
 40
4.0
 40
4.0
 40
5.0
 40
5.0
 40
5.0
 40
6.0
 40
6.0
 40
6.0
 40
7.0
 40
7.0
 40
7.0
 40
7.0
 10
7.310874700061453
 20
-0.923622202885604
 10
7.271060419561156
 20
-0.9348996765739027
 10
7.261025598696252
 20
-0.9539323685797221
 10
7.22455777100529
 20
-0.9776636417003979
 10
7.321399861342241
 20
-0.9477934993944927
 10
7.352518469296783
 20
-0.9487273210620767
 10
7.379753206808648
 20
-0.9841280040970003
 10
7.398888110533384
 20
-1.017782037301812
 10
7.316392660426824
 20
-1.068489174331691
 10
7.309495280869567
 20
-1.018056599486473
 10
7.302869871502429
 20
-1.010820257161993
 10
7.328320495910601
 20
-1.000328724190618
 10
7.318592811350147
 20
-1.011367313266267
 10
7.308939996581354
 20
-1.053978226779463
 10
7.383434304898905
 20
-1.025952201293875
 10
7.372609380853746
 20
-0.9936521060938048
 10
7.229419486302806
 20
-0.8894366255643337
 10
7.206362993641808
 20
-1.184537716247051
 10
7.410303484980986
 20
-1.040721423443579
 10
7.485030910604412
 20
-0.9689179829596872
 10
7.397053800637523
 20
-0.9037464343410242
 10
7.310874700061453
 20
-0.923622202885604
 97
        0
 97
        1
330
AE
 75
     2
 76
     1
 98
        1
 10
0.0
 20
0.0
450
        0
451
        0
460
0.0
461
0.0
452
        0
462
0.0
453
        0
470

  0
SPLINE
  5
B0
330
7E
100
AcDbEntity
  8
Deck Box - DF
100
AcDbSpline
210
0.0
220
0.0
230
1.0
 70
     9
 71
     3
 72
    26
 73
    22
 74
     0
 42
0.0000000001
 43
0.0000000001
 40
0.0
 40
0.0
 40
0.0
 40
0.0
 40
1.0
 40
1.0
 40
1.0
 40
2.0
 40
2.0
 40
2.0
 40
3.0
 40
3.0
 40
3.0
 40
4.0
 40
4.0
 40
4.0
 40
5.0
 40
5.0
 40
5.0
 40
6.0
 40
6.0
 40
6.0
 40
7.0
 40
7.0
 40
7.0
 40
7.0
 10
7.645303608270498
 20
-0.8972844580316884
 30
0.0
 10
7.676250933084398
 20
-0.8984509156506545
 30
0.0
 10
7.688473336726625
 20
-0.8862545405947912
 30
0.0
 10
7.720480189673708
 20
-0.8769839281818955
 30
0.0
 10
7.644539264998911
 20
-0.8760286510132067
 30
0.0
 10
7.623013766726418
 20
-0.867596469098809
 30
0.0
 10
7.613621367170505
 20
-0.8335365639943827
 30
0.0
 10
7.609421111987406
 20
-0.802831438414311
 30
0.0
 10
7.681012187712489
 20
-0.7841561960483432
 30
0.0
 10
7.672064046398089
 20
-0.8247728123516884
 30
0.0
 10
7.674724688839988
 20
-0.8319973462798644
 30
0.0
 10
7.654045472879513
 20
-0.8337841361629013
 30
0.0
 10
7.66386929933656
 20
-0.8276788735069354
 30
0.0
 10
7.682264769440027
 20
-0.7971978930036383
 30
0.0
 10
7.622469255689843
 20
-0.8003581236966839
 30
0.0
 10
7.62122301087518
 20
-0.8279593578971823
 30
0.0
 10
7.69297797764092
 20
-0.9438437765830055
 30
0.0
 10
7.78972318730166
 20
-0.7218953769333768
 30
0.0
 10
7.607697190743136
 20
-0.7823054044972145
 30
0.0
 10
7.535780620575021
 20
-0.8191809135719267
 30
0.0
 10
7.579555920394946
 20
-0.8912612869351807
 30
0.0
 10
7.645303608270498
 20
-0.8972844580316884
 30
0.0
  0
HATCH
  5
B1
330
7E
100
AcDbEntity
  8
Deck Box - DF
 62
   250
420
  2301728
440
 33554687
100
AcDbHatch
 10
0.0
 20
0.0
 30
0.0
210
0.0
220
0.0
230
1.0
  2
SOLID
 70
     1
 71
     1
 91
        1
 92
        1
 93
        1
 72
     4
 94
        3
 73
     0
 74
     0
 95
       26
 96
       22
 40
0.0
 40
0.0
 40
0.0
 40
0.0
 40
1.0
 40
1.0
 40
1.0
 40
2.0
 40
2.0
 40
2.0
 40
3.0
 40
3.0
 40
3.0
 40
4.0
 40
4.0
 40
4.0
 40
5.0
 40
5.0
 40
5.0
 40
6.0
 40
6.0
 40
6.0
 40
7.0
 40
7.0
 40
7.0
 40
7.0
 10
7.645303608270498
 20
-0.8972844580316884
 10
7.676250933084398
 20
-0.8984509156506545
 10
7.688473336726625
 20
-0.8862545405947912
 10
7.720480189673708
 20
-0.8769839281818955
 10
7.644539264998911
 20
-0.8760286510132067
 10
7.623013766726418
 20
-0.867596469098809
 10
7.613621367170505
 20
-0.8335365639943827
 10
7.609421111987406
 20
-0.802831438414311
 10
7.681012187712489
 20
-0.7841561960483432
 10
7.672064046398089
 20
-0.8247728123516884
 10
7.674724688839988
 20
-0.8319973462798644
 10
7.654045472879513
 20
-0.8337841361629013
 10
7.66386929933656
 20
-0.8276788735069354
 10
7.682264769440027
 20
-0.7971978930036383
 10
7.622469255689843
 20
-0.8003581236966839
 10
7.62122301087518
 20
-0.8279593578971823
 10
7.69297797764092
 20
-0.9438437765830055
 10
7.78972318730166
 20
-0.7218953769333768
 10
7.607697190743136
 20
-0.7823054044972145
 10
7.535780620575021
 20
-0.8191809135719267
 10
7.579555920394946
 20
-0.8912612869351807
 10
7.645303608270498
 20
-0.8972844580316884
 97
        0
 97
        1
330
B0
 75
     2
 76
     1
 98
        1
 10
0.0
 20
0.0
450
        0
451
        0
460
0.0
461
0.0
452
        0
462
0.0
453
        0
470

  0
SPLINE
  5
B2
330
7E
100
AcDbEntity
  8
Deck Box - DF
100
AcDbSpline
210
0.0
220
0.0
230
1.0
 70
     9
 71
     3
 72
    38
 73
    34
 74
     0
 42
0.0000000001
 43
0.0000000001
 40
0.0
 40
0.0
 40
0.0
 40
0.0
 40
1.0
 40
1.0
 40
1.0
 40
2.0
 40
2.0
 40
2.0
 40
3.0
 40
3.0
 40
3.0
 40
4.0
 40
4.0
 40
4.0
 40
5.0
 40
5.0
 40
5.0
 40
6.0
 40
6.0
 40
6.0
 40
7.0
 40
7.0
 40
7.0
 40
8.0
 40
8.0
 40
8.0
 40
9.0
 40
9.0
 40
9.0
 40
10.0
 40
10.0
 40
10.0
 40
11.0
 40
11.0
 40
11.0
 40
11.0
 10
6.459727381066335
 20
-0.7357930718058393
 30
0.0
 10
6.459727381066335
 20
-0.7357930718058393
 30
0.0
 10
6.362606036394001
 20
-0.7357930718058393
 30
0.0
 10
6.362606036394001
 20
-0.7357930718058393
 30
0.0
 10
6.344626096615355
 20
-0.7454586669664297
 30
0.0
 10
6.325917973514251
 20
-0.7607157606079227
 30
0.0
 10
6.306755477583237
 20
-0.7829783338501102
 30
0.0
 10
6.34809153715355
 20
-1.136818631972939
 30
0.0
 10
6.127958073611883
 20
-0.8985602701565337
 30
0.0
 10
6.229196748199556
 20
-0.8888870456014121
 30
0.0
 10
6.239560856815008
 20
-0.8807227457424712
 30
0.0
 10
6.257885814768567
 20
-0.9104307603366679
 30
0.0
 10
6.240224614139251
 20
-0.8993783107923844
 30
0.0
 10
6.174694896799817
 20
-0.8897703599460429
 30
0.0
 10
6.224263920779876
 20
-0.9768404011786817
 30
0.0
 10
6.272213817698279
 20
-0.9626242960354399
 30
0.0
 10
6.416648428700859
 20
-0.7884689547811124
 30
0.0
 10
5.966985478397039
 20
-0.773830689807154
 30
0.0
 10
6.204419017893567
 20
-1.009314495145695
 30
0.0
 10
6.279922049306327
 20
-1.064062182591429
 30
0.0
 10
6.394598630795043
 20
-1.048031129260279
 30
0.0
 10
6.400887795020302
 20
-0.9623038614651401
 30
0.0
 10
6.306983511708696
 20
-0.6512780300306657
 30
0.0
 10
6.586694917144868
 20
-0.8391501749416899
 30
0.0
 10
6.456996057824122
 20
-0.8793265665432651
 30
0.0
 10
6.44975915325598
 20
-0.8723287163370892
 30
0.0
 10
6.434825885026813
 20
-0.8552083550089642
 30
0.0
 10
6.451323179134886
 20
-0.8644043185506308
 30
0.0
 10
6.566725400814599
 20
-0.8323642523613948
 30
0.0
 10
6.337962244347585
 20
-0.7421729410549713
 30
0.0
 10
6.392707388661821
 20
-0.8726906887220845
 30
0.0
 10
6.596496145986015
 20
-1.058851306126598
 30
0.0
 10
6.569942462175251
 20
-0.7990848334160824
 30
0.0
 10
6.459727381066335
 20
-0.7357930718058393
 30
0.0
  0
HATCH
  5
B3
330
7E
100
AcDbEntity
  8
Deck Box - DF
 62
   250
420
  2301728
440
 33554687
100
AcDbHatch
 10
0.0
 20
0.0
 30
0.0
210
0.0
220
0.0
230
1.0
  2
SOLID
 70
     1
 71
     1
 91
        1
 92
        1
 93
        1
 72
     4
 94
        3
 73
     0
 74
     0
 95
       38
 96
       34
 40
0.0
 40
0.0
 40
0.0
 40
0.0
 40
1.0
 40
1.0
 40
1.0
 40
2.0
 40
2.0
 40
2.0
 40
3.0
 40
3.0
 40
3.0
 40
4.0
 40
4.0
 40
4.0
 40
5.0
 40
5.0
 40
5.0
 40
6.0
 40
6.0
 40
6.0
 40
7.0
 40
7.0
 40
7.0
 40
8.0
 40
8.0
 40
8.0
 40
9.0
 40
9.0
 40
9.0
 40
10.0
 40
10.0
 40
10.0
 40
11.0
 40
11.0
 40
11.0
 40
11.0
 10
6.459727381066335
 20
-0.7357930718058393
 10
6.459727381066335
 20
-0.7357930718058393
 10
6.362606036394001
 20
-0.7357930718058393
 10
6.362606036394001
 20
-0.7357930718058393
 10
6.344626096615355
 20
-0.7454586669664297
 10
6.325917973514251
 20
-0.7607157606079227
 10
6.306755477583237
 20
-0.7829783338501102
 10
6.34809153715355
 20
-1.136818631972939
 10
6.127958073611883
 20
-0.8985602701565337
 10
6.229196748199556
 20
-0.8888870456014121
 10
6.239560856815008
 20
-0.8807227457424712
 10
6.257885814768567
 20
-0.9104307603366679
 10
6.240224614139251
 20
-0.8993783107923844
 10
6.174694896799817
 20
-0.8897703599460429
 10
6.224263920779876
 20
-0.9768404011786817
 10
6.272213817698279
 20
-0.9626242960354399
 10
6.416648428700859
 20
-0.7884689547811124
 10
5.966985478397039
 20
-0.773830689807154
 10
6.204419017893567
 20
-1.009314495145695
 10
6.279922049306327
 20
-1.064062182591429
 10
6.394598630795043
 20
-1.048031129260279
 10
6.400887795020302
 20
-0.9623038614651401
 10
6.306983511708696
 20
-0.6512780300306657
 10
6.586694917144868
 20
-0.8391501749416899
 10
6.456996057824122
 20
-0.8793265665432651
 10
6.44975915325598
 20
-0.8723287163370892
 10
6.434825885026813
 20
-0.8552083550089642
 10
6.451323179134886
 20
-0.8644043185506308
 10
6.566725400814599
 20
-0.8323642523613948
 10
6.337962244347585
 20
-0.7421729410549713
 10
6.392707388661821
 20
-0.8726906887220845
 10
6.596496145986015
 20
-1.058851306126598
 10
6.569942462175251
 20
-0.7990848334160824
 10
6.459727381066335
 20
-0.7357930718058393
 97
        0
 97
        1
330
B2
 75
     2
 76
     1
 98
        1
 10
0.0
 20
0.0
450
        0
451
        0
460
0.0
461
0.0
452
        0
462
0.0
453
        0
470

  0
SPLINE
  5
B4
330
7E
100
AcDbEntity
  8
Deck Box - DF
100
AcDbSpline
210
0.0
220
0.0
230
1.0
 70
     9
 71
     3
 72
    11
 73
     7
 74
     0
 42
0.0000000001
 43
0.0000000001
 40
0.0
 40
0.0
 40
0.0
 40
0.0
 40
1.0
 40
1.0
 40
1.0
 40
2.0
 40
2.0
 40
2.0
 40
2.0
 10
6.444812762468219
 20
-1.663097657580578
 30
0.0
 10
6.417847091352793
 20
-1.60687919241132
 30
0.0
 10
6.352228364410493
 20
-1.57301993948162
 30
0.0
 10
6.247950647667872
 20
-1.663097657580578
 30
0.0
 10
6.247950647667872
 20
-1.663097657580578
 30
0.0
 10
6.444812762468219
 20
-1.663097657580578
 30
0.0
 10
6.444812762468219
 20
-1.663097657580578
 30
0.0
  0
HATCH
  5
B5
330
7E
100
AcDbEntity
  8
Deck Box - DF
 62
   250
420
  2301728
440
 33554687
100
AcDbHatch
 10
0.0
 20
0.0
 30
0.0
210
0.0
220
0.0
230
1.0
  2
SOLID
 70
     1
 71
     1
 91
        1
 92
        1
 93
        1
 72
     4
 94
        3
 73
     0
 74
     0
 95
       11
 96
        7
 40
0.0
 40
0.0
 40
0.0
 40
0.0
 40
1.0
 40
1.0
 40
1.0
 40
2.0
 40
2.0
 40
2.0
 40
2.0
 10
6.444812762468219
 20
-1.663097657580578
 10
6.417847091352793
 20
-1.60687919241132
 10
6.352228364410493
 20
-1.57301993948162
 10
6.247950647667872
 20
-1.663097657580578
 10
6.247950647667872
 20
-1.663097657580578
 10
6.444812762468219
 20
-1.663097657580578
 10
6.444812762468219
 20
-1.663097657580578
 97
        0
 97
        1
330
B4
 75
     2
 76
     1
 98
        1
 10
0.0
 20
0.0
450
        0
451
        0
460
0.0
461
0.0
452
        0
462
0.0
453
        0
470

  0
SPLINE
  5
B6
330
7E
100
AcDbEntity
  8
Deck Box - DF
100
AcDbSpline
210
0.0
220
0.0
230
1.0
 70
     9
 71
     3
 72
    17
 73
    13
 74
     0
 42
0.0000000001
 43
0.0000000001
 40
0.0
 40
0.0
 40
0.0
 40
0.0
 40
1.0
 40
1.0
 40
1.0
 40
2.0
 40
2.0
 40
2.0
 40
3.0
 40
3.0
 40
3.0
 40
4.0
 40
4.0
 40
4.0
 40
4.0
 10
7.287536878486358
 20
-1.352172149303075
 30
0.0
 10
7.274550089206816
 20
-1.37292667195844
 30
0.0
 10
7.254069798013662
 20
-1.379046668225138
 30
0.0
 10
7.229477340232733
 20
-1.37781915292122
 30
0.0
 10
7.29891113126804
 20
-1.374524406705303
 30
0.0
 10
7.291341341574277
 20
-1.223756933620367
 30
0.0
 10
7.218065652555146
 20
-1.308917746827912
 30
0.0
 10
7.220586836069994
 20
-1.326115629206128
 30
0.0
 10
7.208759394170556
 20
-1.308788738795783
 30
0.0
 10
7.204435096506383
 20
-1.300675193559312
 30
0.0
 10
7.230548488729406
 20
-1.235577068349723
 30
0.0
 10
7.328201668476089
 20
-1.297006091370336
 30
0.0
 10
7.287536878486358
 20
-1.352172149303075
 30
0.0
  0
SPLINE
  5
B7
330
7E
100
AcDbEntity
  8
Deck Box - DF
100
AcDbSpline
210
0.0
220
0.0
230
1.0
 70
     9
 71
     3
 72
    29
 73
    25
 74
     0
 42
0.0000000001
 43
0.0000000001
 40
0.0
 40
0.0
 40
0.0
 40
0.0
 40
1.0
 40
1.0
 40
1.0
 40
2.0
 40
2.0
 40
2.0
 40
3.0
 40
3.0
 40
3.0
 40
4.0
 40
4.0
 40
4.0
 40
5.0
 40
5.0
 40
5.0
 40
6.0
 40
6.0
 40
6.0
 40
7.0
 40
7.0
 40
7.0
 40
8.0
 40
8.0
 40
8.0
 40
8.0
 10
7.195545443136779
 20
-1.220801641404894
 30
0.0
 10
7.118654167095074
 20
-1.267345360900208
 30
0.0
 10
7.13498457320697
 20
-1.354959912049935
 30
0.0
 10
7.21383012096976
 20
-1.376201511123276
 30
0.0
 10
7.109073669738689
 20
-1.360358859415492
 30
0.0
 10
6.949115494233662
 20
-1.249986153848542
 30
0.0
 10
6.9492113502548
 20
-1.509809106200224
 30
0.0
 10
7.097421491215198
 20
-1.777941054835069
 30
0.0
 10
7.284787966021869
 20
-1.356388824662556
 30
0.0
 10
7.030530153521895
 20
-1.456016634790178
 30
0.0
 10
6.993431320957925
 20
-1.497812910408962
 30
0.0
 10
7.065503137758746
 20
-1.561377158554894
 30
0.0
 10
7.084698447792662
 20
-1.498449160443252
 30
0.0
 10
7.080688376375392
 20
-1.479796253606258
 30
0.0
 10
7.104640754157117
 20
-1.502798463298745
 30
0.0
 10
7.091108890106473
 20
-1.510795410093325
 30
0.0
 10
7.045618118128863
 20
-1.579311860355207
 30
0.0
 10
6.980204608027886
 20
-1.481321340543457
 30
0.0
 10
7.028622391822813
 20
-1.44032884442759
 30
0.0
 10
7.096199752342069
 20
-1.394186368350915
 30
0.0
 10
7.165761162340508
 20
-1.474699014404058
 30
0.0
 10
7.241110801308321
 20
-1.459764848117073
 30
0.0
 10
7.418688618049953
 20
-1.426716040970909
 30
0.0
 10
7.369373247548082
 20
-1.163041462040104
 30
0.0
 10
7.195545443136779
 20
-1.220801641404894
 30
0.0
  0
HATCH
  5
B8
330
7E
100
AcDbEntity
  8
Deck Box - DF
 62
   250
420
  2301728
440
 33554687
100
AcDbHatch
 10
0.0
 20
0.0
 30
0.0
210
0.0
220
0.0
230
1.0
  2
SOLID
 70
     1
 71
     1
 91
        2
 92
        1
 93
        1
 72
     4
 94
        3
 73
     0
 74
     0
 95
       17
 96
       13
 40
0.0
 40
0.0
 40
0.0
 40
0.0
 40
1.0
 40
1.0
 40
1.0
 40
2.0
 40
2.0
 40
2.0
 40
3.0
 40
3.0
 40
3.0
 40
4.0
 40
4.0
 40
4.0
 40
4.0
 10
7.287536878486358
 20
-1.352172149303075
 10
7.274550089206816
 20
-1.37292667195844
 10
7.254069798013662
 20
-1.379046668225138
 10
7.229477340232733
 20
-1.37781915292122
 10
7.29891113126804
 20
-1.374524406705303
 10
7.291341341574277
 20
-1.223756933620367
 10
7.218065652555146
 20
-1.308917746827912
 10
7.220586836069994
 20
-1.326115629206128
 10
7.208759394170556
 20
-1.308788738795783
 10
7.204435096506383
 20
-1.300675193559312
 10
7.230548488729406
 20
-1.235577068349723
 10
7.328201668476089
 20
-1.297006091370336
 10
7.287536878486358
 20
-1.352172149303075
 97
        0
 97
        1
330
B6
 92
        1
 93
        1
 72
     4
 94
        3
 73
     0
 74
     0
 95
       29
 96
       25
 40
0.0
 40
0.0
 40
0.0
 40
0.0
 40
1.0
 40
1.0
 40
1.0
 40
2.0
 40
2.0
 40
2.0
 40
3.0
 40
3.0
 40
3.0
 40
4.0
 40
4.0
 40
4.0
 40
5.0
 40
5.0
 40
5.0
 40
6.0
 40
6.0
 40
6.0
 40
7.0
 40
7.0
 40
7.0
 40
8.0
 40
8.0
 40
8.0
 40
8.0
 10
7.195545443136779
 20
-1.220801641404894
 10
7.118654167095074
 20
-1.267345360900208
 10
7.13498457320697
 20
-1.354959912049935
 10
7.21383012096976
 20
-1.376201511123276
 10
7.109073669738689
 20
-1.360358859415492
 10
6.949115494233662
 20
-1.249986153848542
 10
6.9492113502548
 20
-1.509809106200224
 10
7.097421491215198
 20
-1.777941054835069
 10
7.284787966021869
 20
-1.356388824662556
 10
7.030530153521895
 20
-1.456016634790178
 10
6.993431320957925
 20
-1.497812910408962
 10
7.065503137758746
 20
-1.561377158554894
 10
7.084698447792662
 20
-1.498449160443252
 10
7.080688376375392
 20
-1.479796253606258
 10
7.104640754157117
 20
-1.502798463298745
 10
7.091108890106473
 20
-1.510795410093325
 10
7.045618118128863
 20
-1.579311860355207
 10
6.980204608027886
 20
-1.481321340543457
 10
7.028622391822813
 20
-1.44032884442759
 10
7.096199752342069
 20
-1.394186368350915
 10
7.165761162340508
 20
-1.474699014404058
 10
7.241110801308321
 20
-1.459764848117073
 10
7.418688618049953
 20
-1.426716040970909
 10
7.369373247548082
 20
-1.163041462040104
 10
7.195545443136779
 20
-1.220801641404894
 97
        0
 97
        1
330
B7
 75
     2
 76
     1
 98
        1
 10
0.0
 20
0.0
450
        0
451
        0
460
0.0
461
0.0
452
        0
462
0.0
453
        0
470

  0
SPLINE
  5
B9
330
7E
100
AcDbEntity
  8
Deck Box - DF
100
AcDbSpline
210
0.0
220
0.0
230
1.0
 70
     9
 71
     3
 72
    14
 73
    10
 74
     0
 42
0.0000000001
 43
0.0000000001
 40
0.0
 40
0.0
 40
0.0
 40
0.0
 40
1.0
 40
1.0
 40
1.0
 40
2.0
 40
2.0
 40
2.0
 40
3.0
 40
3.0
 40
3.0
 40
3.0
 10
6.767895580393567
 20
-1.470105341228582
 30
0.0
 10
6.761708141428723
 20
-1.466223674833195
 30
0.0
 10
6.749106924794609
 20
-1.455914667400457
 30
0.0
 10
6.763778250478202
 20
-1.458883349583617
 30
0.0
 10
6.852161395280719
 20
-1.408507305204276
 30
0.0
 10
6.736572677290268
 20
-1.392914518203408
 30
0.0
 10
6.708786422407456
 20
-1.438673931180839
 30
0.0
 10
6.733215743696518
 20
-1.351026599095348
 30
0.0
 10
6.868580700022473
 20
-1.425514921035439
 30
0.0
 10
6.767895580393567
 20
-1.470105341228582
 30
0.0
  0
SPLINE
  5
BA
330
7E
100
AcDbEntity
  8
Deck Box - DF
100
AcDbSpline
210
0.0
220
0.0
230
1.0
 70
     9
 71
     3
 72
    32
 73
    28
 74
     0
 42
0.0000000001
 43
0.0000000001
 40
0.0
 40
0.0
 40
0.0
 40
0.0
 40
1.0
 40
1.0
 40
1.0
 40
2.0
 40
2.0
 40
2.0
 40
3.0
 40
3.0
 40
3.0
 40
4.0
 40
4.0
 40
4.0
 40
5.0
 40
5.0
 40
5.0
 40
6.0
 40
6.0
 40
6.0
 40
7.0
 40
7.0
 40
7.0
 40
8.0
 40
8.0
 40
8.0
 40
9.0
 40
9.0
 40
9.0
 40
9.0
 10
6.635279749230372
 20
-1.432133844646551
 30
0.0
 10
6.604362899458237
 20
-1.490643671306707
 30
0.0
 10
6.659489513499035
 20
-1.550052071100556
 30
0.0
 10
6.602672564714313
 20
-1.600673103815387
 30
0.0
 10
6.554923575185234
 20
-1.636488872587089
 30
0.0
 10
6.483310687272933
 20
-1.579351489232054
 30
0.0
 10
6.55480065716223
 20
-1.547412300592731
 30
0.0
 10
6.565074908464313
 20
-1.537205018420422
 30
0.0
 10
6.5798666090394
 20
-1.557391548639606
 30
0.0
 10
6.564253476986474
 20
-1.55316825491132
 30
0.0
 10
6.503896489139251
 20
-1.564704747153061
 30
0.0
 10
6.543391321495997
 20
-1.625125313288056
 30
0.0
 10
6.589196510840641
 20
-1.598274930801064
 30
0.0
 10
6.737310185428289
 20
-1.403595670547158
 30
0.0
 10
6.319182065853636
 20
-1.527198643637436
 30
0.0
 10
6.522380816667438
 20
-1.659277874051945
 30
0.0
 10
6.532504175499903
 20
-1.661079258871811
 30
0.0
 10
6.541856117774209
 20
-1.662228754314519
 30
0.0
 10
6.550869823557654
 20
-1.663097657580578
 30
0.0
 10
6.550869823557654
 20
-1.663097657580578
 30
0.0
 10
6.601101757151404
 20
-1.663097657580578
 30
0.0
 10
6.601101757151404
 20
-1.663097657580578
 30
0.0
 10
6.745264253082368
 20
-1.645461040555839
 30
0.0
 10
6.683034672733001
 20
-1.467754640002453
 30
0.0
 10
6.708478703494695
 20
-1.483798408991181
 30
0.0
 10
6.945150998959105
 20
-1.628856934924328
 30
0.0
 10
6.862608579525511
 20
-1.156370227025023
 30
0.0
 10
6.635279749230372
 20
-1.432133844646551
 30
0.0
  0
HATCH
  5
BB
330
7E
100
AcDbEntity
  8
Deck Box - DF
 62
   250
420
  2301728
440
 33554687
100
AcDbHatch
 10
0.0
 20
0.0
 30
0.0
210
0.0
220
0.0
230
1.0
  2
SOLID
 70
     1
 71
     1
 91
        2
 92
        1
 93
        1
 72
     4
 94
        3
 73
     0
 74
     0
 95
       14
 96
       10
 40
0.0
 40
0.0
 40
0.0
 40
0.0
 40
1.0
 40
1.0
 40
1.0
 40
2.0
 40
2.0
 40
2.0
 40
3.0
 40
3.0
 40
3.0
 40
3.0
 10
6.767895580393567
 20
-1.470105341228582
 10
6.761708141428723
 20
-1.466223674833195
 10
6.749106924794609
 20
-1.455914667400457
 10
6.763778250478202
 20
-1.458883349583617
 10
6.852161395280719
 20
-1.408507305204276
 10
6.736572677290268
 20
-1.392914518203408
 10
6.708786422407456
 20
-1.438673931180839
 10
6.733215743696518
 20
-1.351026599095348
 10
6.868580700022473
 20
-1.425514921035439
 10
6.767895580393567
 20
-1.470105341228582
 97
        0
 97
        1
330
B9
 92
        1
 93
        1
 72
     4
 94
        3
 73
     0
 74
     0
 95
       32
 96
       28
 40
0.0
 40
0.0
 40
0.0
 40
0.0
 40
1.0
 40
1.0
 40
1.0
 40
2.0
 40
2.0
 40
2.0
 40
3.0
 40
3.0
 40
3.0
 40
4.0
 40
4.0
 40
4.0
 40
5.0
 40
5.0
 40
5.0
 40
6.0
 40
6.0
 40
6.0
 40
7.0
 40
7.0
 40
7.0
 40
8.0
 40
8.0
 40
8.0
 40
9.0
 40
9.0
 40
9.0
 40
9.0
 10
6.635279749230372
 20
-1.432133844646551
 10
6.604362899458237
 20
-1.490643671306707
 10
6.659489513499035
 20
-1.550052071100556
 10
6.602672564714313
 20
-1.600673103815387
 10
6.554923575185234
 20
-1.636488872587089
 10
6.483310687272933
 20
-1.579351489232054
 10
6.55480065716223
 20
-1.547412300592731
 10
6.565074908464313
 20
-1.537205018420422
 10
6.5798666090394
 20
-1.557391548639606
 10
6.564253476986474
 20
-1.55316825491132
 10
6.503896489139251
 20
-1.564704747153061
 10
6.543391321495997
 20
-1.625125313288056
 10
6.589196510840641
 20
-1.598274930801064
 10
6.737310185428289
 20
-1.403595670547158
 10
6.319182065853636
 20
-1.527198643637436
 10
6.522380816667438
 20
-1.659277874051945
 10
6.532504175499903
 20
-1.661079258871811
 10
6.541856117774209
 20
-1.662228754314519
 10
6.550869823557654
 20
-1.663097657580578
 10
6.550869823557654
 20
-1.663097657580578
 10
6.601101757151404
 20
-1.663097657580578
 10
6.601101757151404
 20
-1.663097657580578
 10
6.745264253082368
 20
-1.645461040555839
 10
6.683034672733001
 20
-1.467754640002453
 10
6.708478703494695
 20
-1.483798408991181
 10
6.945150998959105
 20
-1.628856934924328
 10
6.862608579525511
 20
-1.156370227025023
 10
6.635279749230372
 20
-1.432133844646551
 97
        0
 97
        1
330
BA
 75
     2
 76
     1
 98
        1
 10
0.0
 20
0.0
450
        0
451
        0
460
0.0
461
0.0
452
        0
462
0.0
453
        0
470

  0
SPLINE
  5
BC
330
7E
100
AcDbEntity
  8
Deck Box - DF
100
AcDbSpline
210
0.0
220
0.0
230
1.0
 70
     9
 71
     3
 72
    14
 73
    10
 74
     0
 42
0.0000000001
 43
0.0000000001
 40
0.0
 40
0.0
 40
0.0
 40
0.0
 40
1.0
 40
1.0
 40
1.0
 40
2.0
 40
2.0
 40
2.0
 40
3.0
 40
3.0
 40
3.0
 40
3.0
 10
8.023758090589302
 20
-0.9591755217270726
 30
0.0
 10
8.066923107156247
 20
-0.8688040680920291
 30
0.0
 10
8.093771783529897
 20
-0.9788531329221541
 30
0.0
 10
8.049608297272824
 20
-1.010254530911525
 30
0.0
 10
8.136914722473623
 20
-0.9779094946677053
 30
0.0
 10
8.047985250641051
 20
-0.8546493596594599
 30
0.0
 10
8.011895527271638
 20
-0.9563213054019444
 30
0.0
 10
8.016447946491881
 20
-0.9619081878145657
 30
0.0
 10
8.028176892837539
 20
-0.9730455756243827
 30
0.0
 10
8.023758090589302
 20
-0.9591755217270726
 30
0.0
  0
SPLINE
  5
BD
330
7E
100
AcDbEntity
  8
Deck Box - DF
100
AcDbSpline
210
0.0
220
0.0
230
1.0
 70
     9
 71
     3
 72
    35
 73
    31
 74
     0
 42
0.0000000001
 43
0.0000000001
 40
0.0
 40
0.0
 40
0.0
 40
0.0
 40
1.0
 40
1.0
 40
1.0
 40
2.0
 40
2.0
 40
2.0
 40
3.0
 40
3.0
 40
3.0
 40
4.0
 40
4.0
 40
4.0
 40
5.0
 40
5.0
 40
5.0
 40
6.0
 40
6.0
 40
6.0
 40
7.0
 40
7.0
 40
7.0
 40
8.0
 40
8.0
 40
8.0
 40
9.0
 40
9.0
 40
9.0
 40
10.0
 40
10.0
 40
10.0
 40
10.0
 10
7.84774286337703
 20
-1.219239937718953
 30
0.0
 10
7.843691667058616
 20
-1.214791424957701
 30
0.0
 10
7.840691811839406
 20
-1.2091266922153
 30
0.0
 10
7.839132370126157
 20
-1.203220123503152
 30
0.0
 10
7.781031667655901
 20
-0.983156886483079
 30
0.0
 10
8.024810443343159
 20
-1.041083089456151
 30
0.0
 10
8.003502284842548
 20
-1.015059659356501
 30
0.0
 10
7.833645446118882
 20
-0.8020131913857792
 30
0.0
 10
8.319234556966295
 20
-0.833232841227881
 30
0.0
 10
8.066767458620258
 20
-1.077190461423747
 30
0.0
 10
8.064479892624982
 20
-1.079400924331189
 30
0.0
 10
8.061863869994061
 20
-1.081481658411601
 30
0.0
 10
8.059110059286391
 20
-1.083010136656841
 30
0.0
 10
8.003167269652648
 20
-1.114060686608026
 30
0.0
 10
7.939270864125975
 20
-1.070421525981853
 30
0.0
 10
7.893992933093461
 20
-1.12889873234672
 30
0.0
 10
7.861879683379002
 20
-1.178581239496111
 30
0.0
 10
7.927054042555077
 20
-1.242019091382631
 30
0.0
 10
7.952963677368036
 20
-1.169800522028519
 30
0.0
 10
7.962430031375838
 20
-1.158859888166868
 30
0.0
 10
7.940395100024538
 20
-1.146594616335821
 30
0.0
 10
7.94618683129925
 20
-1.161248303944767
 30
0.0
 10
7.9411034193377
 20
-1.210773641888168
 30
0.0
 10
7.894769697305895
 20
-1.196737722194572
 30
0.0
 10
7.892851650520646
 20
-1.163536285382014
 30
0.0
 10
7.89217056363461
 20
-1.151746654710425
 30
0.0
 10
7.898419510596188
 20
-1.140773615184091
 30
0.0
 10
7.907308739814298
 20
-1.133564759151568
 30
0.0
 10
8.077351660260141
 20
-0.9956658589475056
 30
0.0
 10
7.995413557086875
 20
-1.38139326572568
 30
0.0
 10
7.84774286337703
 20
-1.219239937718953
 30
0.0
  0
HATCH
  5
BE
330
7E
100
AcDbEntity
  8
Deck Box - DF
 62
   250
420
  2301728
440
 33554687
100
AcDbHatch
 10
0.0
 20
0.0
 30
0.0
210
0.0
220
0.0
230
1.0
  2
SOLID
 70
     1
 71
     1
 91
        2
 92
        1
 93
        1
 72
     4
 94
        3
 73
     0
 74
     0
 95
       14
 96
       10
 40
0.0
 40
0.0
 40
0.0
 40
0.0
 40
1.0
 40
1.0
 40
1.0
 40
2.0
 40
2.0
 40
2.0
 40
3.0
 40
3.0
 40
3.0
 40
3.0
 10
8.023758090589302
 20
-0.9591755217270726
 10
8.066923107156247
 20
-0.8688040680920291
 10
8.093771783529897
 20
-0.9788531329221541
 10
8.049608297272824
 20
-1.010254530911525
 10
8.136914722473623
 20
-0.9779094946677053
 10
8.047985250641051
 20
-0.8546493596594599
 10
8.011895527271638
 20
-0.9563213054019444
 10
8.016447946491881
 20
-0.9619081878145657
 10
8.028176892837539
 20
-0.9730455756243827
 10
8.023758090589302
 20
-0.9591755217270726
 97
        0
 97
        1
330
BC
 92
        1
 93
        1
 72
     4
 94
        3
 73
     0
 74
     0
 95
       35
 96
       31
 40
0.0
 40
0.0
 40
0.0
 40
0.0
 40
1.0
 40
1.0
 40
1.0
 40
2.0
 40
2.0
 40
2.0
 40
3.0
 40
3.0
 40
3.0
 40
4.0
 40
4.0
 40
4.0
 40
5.0
 40
5.0
 40
5.0
 40
6.0
 40
6.0
 40
6.0
 40
7.0
 40
7.0
 40
7.0
 40
8.0
 40
8.0
 40
8.0
 40
9.0
 40
9.0
 40
9.0
 40
10.0
 40
10.0
 40
10.0
 40
10.0
 10
7.84774286337703
 20
-1.219239937718953
 10
7.843691667058616
 20
-1.214791424957701
 10
7.840691811839406
 20
-1.2091266922153
 10
7.839132370126157
 20
-1.203220123503152
 10
7.781031667655901
 20
-0.983156886483079
 10
8.024810443343159
 20
-1.041083089456151
 10
8.003502284842548
 20
-1.015059659356501
 10
7.833645446118882
 20
-0.8020131913857792
 10
8.319234556966295
 20
-0.833232841227881
 10
8.066767458620258
 20
-1.077190461423747
 10
8.064479892624982
 20
-1.079400924331189
 10
8.061863869994061
 20
-1.081481658411601
 10
8.059110059286391
 20
-1.083010136656841
 10
8.003167269652648
 20
-1.114060686608026
 10
7.939270864125975
 20
-1.070421525981853
 10
7.893992933093461
 20
-1.12889873234672
 10
7.861879683379002
 20
-1.178581239496111
 10
7.927054042555077
 20
-1.242019091382631
 10
7.952963677368036
 20
-1.169800522028519
 10
7.962430031375838
 20
-1.158859888166868
 10
7.940395100024538
 20
-1.146594616335821
 10
7.94618683129925
 20
-1.161248303944767
 10
7.9411034193377
 20
-1.210773641888168
 10
7.894769697305895
 20
-1.196737722194572
 10
7.892851650520646
 20
-1.163536285382014
 10
7.89217056363461
 20
-1.151746654710425
 10
7.898419510596188
 20
-1.140773615184091
 10
7.907308739814298
 20
-1.133564759151568
 10
8.077351660260141
 20
-0.9956658589475056
 10
7.995413557086875
 20
-1.38139326572568
 10
7.84774286337703
 20
-1.219239937718953
 97
        0
 97
        1
330
BD
 75
     2
 76
     1
 98
        1
 10
0.0
 20
0.0
450
        0
451
        0
460
0.0
461
0.0
452
        0
462
0.0
453
        0
470

  0
SPLINE
  5
BF
330
7E
100
AcDbEntity
  8
Deck Box - DF
100
AcDbSpline
210
0.0
220
0.0
230
1.0
 70
     9
 71
     3
 72
    14
 73
    10
 74
     0
 42
0.0000000001
 43
0.0000000001
 40
0.0
 40
0.0
 40
0.0
 40
0.0
 40
1.0
 40
1.0
 40
1.0
 40
2.0
 40
2.0
 40
2.0
 40
3.0
 40
3.0
 40
3.0
 40
3.0
 10
6.977616779054541
 20
-1.265948764928907
 30
0.0
 10
6.955397183193579
 20
-1.371086950201351
 30
0.0
 10
6.789768755360581
 20
-1.27023601983304
 30
0.0
 10
6.907513981055014
 20
-1.22972517093942
 30
0.0
 10
6.914504097058801
 20
-1.234840248927626
 30
0.0
 10
6.928738716199404
 20
-1.247967010098843
 30
0.0
 10
6.912153922954479
 20
-1.242868478231015
 30
0.0
 10
6.808109585537344
 20
-1.290973479301783
 30
0.0
 10
6.953805065729889
 20
-1.323006509777971
 30
0.0
 10
6.977616779054541
 20
-1.265948764928907
 30
0.0
  0
SPLINE
  5
C0
330
7E
100
AcDbEntity
  8
Deck Box - DF
100
AcDbSpline
210
0.0
220
0.0
230
1.0
 70
     9
 71
     3
 72
    26
 73
    22
 74
     0
 42
0.0000000001
 43
0.0000000001
 40
0.0
 40
0.0
 40
0.0
 40
0.0
 40
1.0
 40
1.0
 40
1.0
 40
2.0
 40
2.0
 40
2.0
 40
3.0
 40
3.0
 40
3.0
 40
4.0
 40
4.0
 40
4.0
 40
5.0
 40
5.0
 40
5.0
 40
6.0
 40
6.0
 40
6.0
 40
7.0
 40
7.0
 40
7.0
 40
7.0
 10
7.185330821332778
 20
-1.045799789727198
 30
0.0
 10
6.925566675972933
 20
-1.00053917015887
 30
0.0
 10
6.993151410032269
 20
-1.156131905592663
 30
0.0
 10
6.980843553636279
 20
-1.249644373049932
 30
0.0
 10
6.979073053221983
 20
-1.177949516480907
 30
0.0
 10
6.896391279429381
 20
-1.151048110113278
 30
0.0
 10
6.829738730995838
 20
-1.20848770839618
 30
0.0
 10
6.72547375457144
 20
-1.348190997625528
 30
0.0
 10
6.976905232436011
 20
-1.435529693924953
 30
0.0
 10
7.057373526213622
 20
-1.288388923595536
 30
0.0
 10
7.044668349445954
 20
-0.960658366504453
 30
0.0
 10
7.257049275404723
 20
-1.132189927970582
 30
0.0
 10
7.148560394900514
 20
-1.16803399532441
 30
0.0
 10
7.136909634365464
 20
-1.178313531128739
 30
0.0
 10
7.120210267651448
 20
-1.15378933689663
 30
0.0
 10
7.137858268657559
 20
-1.160416316632348
 30
0.0
 10
7.206113144071878
 20
-1.154621555043907
 30
0.0
 10
7.161534138686015
 20
-1.081790703899186
 30
0.0
 10
7.109712615347133
 20
-1.106587392050932
 30
0.0
 10
6.942011371956191
 20
-1.30835569580208
 30
0.0
 10
7.414909111559254
 20
-1.218968900042341
 30
0.0
 10
7.185330821332778
 20
-1.045799789727198
 30
0.0
  0
HATCH
  5
C1
330
7E
100
AcDbEntity
  8
Deck Box - DF
 62
   250
420
  2301728
440
 33554687
100
AcDbHatch
 10
0.0
 20
0.0
 30
0.0
210
0.0
220
0.0
230
1.0
  2
SOLID
 70
     1
 71
     1
 91
        2
 92
        1
 93
        1
 72
     4
 94
        3
 73
     0
 74
     0
 95
       14
 96
       10
 40
0.0
 40
0.0
 40
0.0
 40
0.0
 40
1.0
 40
1.0
 40
1.0
 40
2.0
 40
2.0
 40
2.0
 40
3.0
 40
3.0
 40
3.0
 40
3.0
 10
6.977616779054541
 20
-1.265948764928907
 10
6.955397183193579
 20
-1.371086950201351
 10
6.789768755360581
 20
-1.27023601983304
 10
6.907513981055014
 20
-1.22972517093942
 10
6.914504097058801
 20
-1.234840248927626
 10
6.928738716199404
 20
-1.247967010098843
 10
6.912153922954479
 20
-1.242868478231015
 10
6.808109585537344
 20
-1.290973479301783
 10
6.953805065729889
 20
-1.323006509777971
 10
6.977616779054541
 20
-1.265948764928907
 97
        0
 97
        1
330
BF
 92
        1
 93
        1
 72
     4
 94
        3
 73
     0
 74
     0
 95
       26
 96
       22
 40
0.0
 40
0.0
 40
0.0
 40
0.0
 40
1.0
 40
1.0
 40
1.0
 40
2.0
 40
2.0
 40
2.0
 40
3.0
 40
3.0
 40
3.0
 40
4.0
 40
4.0
 40
4.0
 40
5.0
 40
5.0
 40
5.0
 40
6.0
 40
6.0
 40
6.0
 40
7.0
 40
7.0
 40
7.0
 40
7.0
 10
7.185330821332778
 20
-1.045799789727198
 10
6.925566675972933
 20
-1.00053917015887
 10
6.993151410032269
 20
-1.156131905592663
 10
6.980843553636279
 20
-1.249644373049932
 10
6.979073053221983
 20
-1.177949516480907
 10
6.896391279429381
 20
-1.151048110113278
 10
6.829738730995838
 20
-1.20848770839618
 10
6.72547375457144
 20
-1.348190997625528
 10
6.976905232436011
 20
-1.435529693924953
 10
7.057373526213622
 20
-1.288388923595536
 10
7.044668349445954
 20
-0.960658366504453
 10
7.257049275404723
 20
-1.132189927970582
 10
7.148560394900514
 20
-1.16803399532441
 10
7.136909634365464
 20
-1.178313531128739
 10
7.120210267651448
 20
-1.15378933689663
 10
7.137858268657559
 20
-1.160416316632348
 10
7.206113144071878
 20
-1.154621555043907
 10
7.161534138686015
 20
-1.081790703899186
 10
7.109712615347133
 20
-1.106587392050932
 10
6.942011371956191
 20
-1.30835569580208
 10
7.414909111559254
 20
-1.218968900042341
 10
7.185330821332778
 20
-1.045799789727198
 97
        0
 97
        1
330
C0
 75
     2
 76
     1
 98
        1
 10
0.0
 20
0.0
450
        0
451
        0
460
0.0
461
0.0
452
        0
462
0.0
453
        0
470

  0
SPLINE
  5
C2
330
7E
100
AcDbEntity
  8
Deck Box - DF
100
AcDbSpline
210
0.0
220
0.0
230
1.0
 70
     9
 71
     3
 72
    14
 73
    10
 74
     0
 42
0.0000000001
 43
0.0000000001
 40
0.0
 40
0.0
 40
0.0
 40
0.0
 40
1.0
 40
1.0
 40
1.0
 40
2.0
 40
2.0
 40
2.0
 40
3.0
 40
3.0
 40
3.0
 40
3.0
 10
7.794867185482543
 20
-0.9095092990193808
 30
0.0
 10
7.801496281619695
 20
-0.9135147311482871
 30
0.0
 10
7.815326678483844
 20
-0.9242085991495892
 30
0.0
 10
7.800453597700425
 20
-0.9212907795966378
 30
0.0
 10
7.716887143978636
 20
-0.9779297091756308
 30
0.0
 10
7.845996844499469
 20
-0.9916304063327491
 30
0.0
 10
7.859521217871865
 20
-0.9355755492906483
 30
0.0
 10
7.853214251726032
 20
-1.036446317519815
 30
0.0
 10
7.698602876129243
 20
-0.9605728366170371
 30
0.0
 10
7.794867185482543
 20
-0.9095092990193808
 30
0.0
  0
SPLINE
  5
C3
330
7E
100
AcDbEntity
  8
Deck Box - DF
100
AcDbSpline
210
0.0
220
0.0
230
1.0
 70
     9
 71
     3
 72
    29
 73
    25
 74
     0
 42
0.0000000001
 43
0.0000000001
 40
0.0
 40
0.0
 40
0.0
 40
0.0
 40
1.0
 40
1.0
 40
1.0
 40
2.0
 40
2.0
 40
2.0
 40
3.0
 40
3.0
 40
3.0
 40
4.0
 40
4.0
 40
4.0
 40
5.0
 40
5.0
 40
5.0
 40
6.0
 40
6.0
 40
6.0
 40
7.0
 40
7.0
 40
7.0
 40
8.0
 40
8.0
 40
8.0
 40
8.0
 10
8.04931003623124
 20
-0.7357930718058393
 30
0.0
 10
8.04931003623124
 20
-0.7357930718058393
 30
0.0
 10
7.870736427832802
 20
-0.7357930718058393
 30
0.0
 10
7.870736427832802
 20
-0.7357930718058393
 30
0.0
 10
7.82533051013532
 20
-0.7792509507663428
 30
0.0
 10
7.859778074154418
 20
-0.8605557128648671
 30
0.0
 10
7.860310436350598
 20
-0.9199581786851796
 30
0.0
 10
7.850068398047646
 20
-0.8530636474351796
 30
0.0
 10
7.775737750261188
 20
-0.8371258422593983
 30
0.0
 10
7.725442238379677
 20
-0.8983237589260649
 30
0.0
 10
7.652829052073254
 20
-1.040705215089259
 30
0.0
 10
7.879537358279852
 20
-1.094348335748981
 30
0.0
 10
7.930795021582802
 20
-0.9476655964911817
 30
0.0
 10
7.880010380740789
 20
-0.6423957193752838
 30
0.0
 10
8.083399866417872
 20
-0.7791890678995893
 30
0.0
 10
7.994522506391831
 20
-0.8248509941691205
 30
0.0
 10
7.985759722917438
 20
-0.8357720485853532
 30
0.0
 10
7.968424890831935
 20
-0.8146877929429921
 30
0.0
 10
7.984398299848862
 20
-0.8189178683553183
 30
0.0
 10
8.042352876129244
 20
-0.8058707559963901
 30
0.0
 10
7.995182025163532
 20
-0.7426959784356263
 30
0.0
 10
7.953662012413966
 20
-0.7716893730753706
 30
0.0
 10
7.84272044340355
 20
-0.9642408799655616
 30
0.0
 10
8.175058564605807
 20
-0.860683717150904
 30
0.0
 10
8.04931003623124
 20
-0.7357930718058393
 30
0.0
  0
HATCH
  5
C4
330
7E
100
AcDbEntity
  8
Deck Box - DF
 62
   250
420
  2301728
440
 33554687
100
AcDbHatch
 10
0.0
 20
0.0
 30
0.0
210
0.0
220
0.0
230
1.0
  2
SOLID
 70
     1
 71
     1
 91
        2
 92
        1
 93
        1
 72
     4
 94
        3
 73
     0
 74
     0
 95
       14
 96
       10
 40
0.0
 40
0.0
 40
0.0
 40
0.0
 40
1.0
 40
1.0
 40
1.0
 40
2.0
 40
2.0
 40
2.0
 40
3.0
 40
3.0
 40
3.0
 40
3.0
 10
7.794867185482543
 20
-0.9095092990193808
 10
7.801496281619695
 20
-0.9135147311482871
 10
7.815326678483844
 20
-0.9242085991495892
 10
7.800453597700425
 20
-0.9212907795966378
 10
7.716887143978636
 20
-0.9779297091756308
 10
7.845996844499469
 20
-0.9916304063327491
 10
7.859521217871865
 20
-0.9355755492906483
 10
7.853214251726032
 20
-1.036446317519815
 10
7.698602876129243
 20
-0.9605728366170371
 10
7.794867185482543
 20
-0.9095092990193808
 97
        0
 97
        1
330
C2
 92
        1
 93
        1
 72
     4
 94
        3
 73
     0
 74
     0
 95
       29
 96
       25
 40
0.0
 40
0.0
 40
0.0
 40
0.0
 40
1.0
 40
1.0
 40
1.0
 40
2.0
 40
2.0
 40
2.0
 40
3.0
 40
3.0
 40
3.0
 40
4.0
 40
4.0
 40
4.0
 40
5.0
 40
5.0
 40
5.0
 40
6.0
 40
6.0
 40
6.0
 40
7.0
 40
7.0
 40
7.0
 40
8.0
 40
8.0
 40
8.0
 40
8.0
 10
8.04931003623124
 20
-0.7357930718058393
 10
8.04931003623124
 20
-0.7357930718058393
 10
7.870736427832802
 20
-0.7357930718058393
 10
7.870736427832802
 20
-0.7357930718058393
 10
7.82533051013532
 20
-0.7792509507663428
 10
7.859778074154418
 20
-0.8605557128648671
 10
7.860310436350598
 20
-0.9199581786851796
 10
7.850068398047646
 20
-0.8530636474351796
 10
7.775737750261188
 20
-0.8371258422593983
 10
7.725442238379677
 20
-0.8983237589260649
 10
7.652829052073254
 20
-1.040705215089259
 10
7.879537358279852
 20
-1.094348335748981
 10
7.930795021582802
 20
-0.9476655964911817
 10
7.880010380740789
 20
-0.6423957193752838
 10
8.083399866417872
 20
-0.7791890678995893
 10
7.994522506391831
 20
-0.8248509941691205
 10
7.985759722917438
 20
-0.8357720485853532
 10
7.968424890831935
 20
-0.8146877929429921
 10
7.984398299848862
 20
-0.8189178683553183
 10
8.042352876129244
 20
-0.8058707559963901
 10
7.995182025163532
 20
-0.7426959784356263
 10
7.953662012413966
 20
-0.7716893730753706
 10
7.84272044340355
 20
-0.9642408799655616
 10
8.175058564605807
 20
-0.860683717150904
 10
8.04931003623124
 20
-0.7357930718058393
 97
        0
 97
        1
330
C3
 75
     2
 76
     1
 98
        1
 10
0.0
 20
0.0
450
        0
451
        0
460
0.0
461
0.0
452
        0
462
0.0
453
        0
470

  0
SPLINE
  5
C5
330
7E
100
AcDbEntity
  8
Deck Box - DF
100
AcDbSpline
210
0.0
220
0.0
230
1.0
 70
     9
 71
     3
 72
    14
 73
    10
 74
     0
 42
0.0000000001
 43
0.0000000001
 40
0.0
 40
0.0
 40
0.0
 40
0.0
 40
1.0
 40
1.0
 40
1.0
 40
2.0
 40
2.0
 40
2.0
 40
3.0
 40
3.0
 40
3.0
 40
3.0
 10
6.295726255163268
 20
-1.480779196568656
 30
0.0
 10
6.196613114479077
 20
-1.524313331891082
 30
0.0
 10
6.374425466515074
 20
-1.569157971652341
 30
0.0
 10
6.371251724702434
 20
-1.502350683916612
 30
0.0
 10
6.380055731567962
 20
-1.622951994261168
 30
0.0
 10
6.173259695030714
 20
-1.496227068186069
 30
0.0
 10
6.287151962431279
 20
-1.466969390866501
 30
0.0
 10
6.295923922757183
 20
-1.47270908489813
 30
0.0
 10
6.314565366491402
 20
-1.487185389010884
 30
0.0
 10
6.295726255163268
 20
-1.480779196568656
 30
0.0
  0
SPLINE
  5
C6
330
7E
100
AcDbEntity
  8
Deck Box - DF
100
AcDbSpline
210
0.0
220
0.0
230
1.0
 70
     9
 71
     3
 72
    29
 73
    25
 74
     0
 42
0.0000000001
 43
0.0000000001
 40
0.0
 40
0.0
 40
0.0
 40
0.0
 40
1.0
 40
1.0
 40
1.0
 40
2.0
 40
2.0
 40
2.0
 40
3.0
 40
3.0
 40
3.0
 40
4.0
 40
4.0
 40
4.0
 40
5.0
 40
5.0
 40
5.0
 40
6.0
 40
6.0
 40
6.0
 40
7.0
 40
7.0
 40
7.0
 40
8.0
 40
8.0
 40
8.0
 40
8.0
 10
6.199553171790486
 20
-1.439660277751954
 30
0.0
 10
6.129626204362314
 20
-1.575598807534043
 30
0.0
 10
6.418070301091296
 20
-1.683029406075194
 30
0.0
 10
6.460932406027394
 20
-1.537775927598911
 30
0.0
 10
6.480122327705126
 20
-1.476365777496804
 30
0.0
 10
6.394036814368619
 20
-1.396486279080401
 30
0.0
 10
6.44729617802472
 20
-1.3494637562273
 30
0.0
 10
6.494186788228287
 20
-1.317723126721767
 30
0.0
 10
6.599663577606456
 20
-1.398317727777326
 30
0.0
 10
6.522582007510966
 20
-1.420762281507172
 30
0.0
 10
6.513285107850302
 20
-1.430483644282604
 30
0.0
 10
6.488839553675764
 20
-1.404139118278218
 30
0.0
 10
6.509225690433948
 20
-1.412189322897701
 30
0.0
 10
6.57919548111421
 20
-1.411083318165146
 30
0.0
 10
6.511857760647822
 20
-1.333202539381115
 30
0.0
 10
6.464495243878546
 20
-1.354968443643239
 30
0.0
 10
6.345545011575065
 20
-1.550082104613731
 30
0.0
 10
6.816417012837695
 20
-1.491903360110541
 30
0.0
 10
6.526658157191377
 20
-1.297964732218487
 30
0.0
 10
6.234482198384537
 20
-1.235426860600872
 30
0.0
 10
6.360735071352514
 20
-1.406531842401578
 30
0.0
 10
6.370963022248209
 20
-1.499075586218623
 30
0.0
 10
6.358054222334986
 20
-1.426416142539462
 30
0.0
 10
6.254845363729398
 20
-1.381444304477971
 30
0.0
 10
6.199553171790486
 20
-1.439660277751954
 30
0.0
  0
HATCH
  5
C7
330
7E
100
AcDbEntity
  8
Deck Box - DF
 62
   250
420
  2301728
440
 33554687
100
AcDbHatch
 10
0.0
 20
0.0
 30
0.0
210
0.0
220
0.0
230
1.0
  2
SOLID
 70
     1
 71
     1
 91
        2
 92
        1
 93
        1
 72
     4
 94
        3
 73
     0
 74
     0
 95
       14
 96
       10
 40
0.0
 40
0.0
 40
0.0
 40
0.0
 40
1.0
 40
1.0
 40
1.0
 40
2.0
 40
2.0
 40
2.0
 40
3.0
 40
3.0
 40
3.0
 40
3.0
 10
6.295726255163268
 20
-1.480779196568656
 10
6.196613114479077
 20
-1.524313331891082
 10
6.374425466515074
 20
-1.569157971652341
 10
6.371251724702434
 20
-1.502350683916612
 10
6.380055731567962
 20
-1.622951994261168
 10
6.173259695030714
 20
-1.496227068186069
 10
6.287151962431279
 20
-1.466969390866501
 10
6.295923922757183
 20
-1.47270908489813
 10
6.314565366491402
 20
-1.487185389010884
 10
6.295726255163268
 20
-1.480779196568656
 97
        0
 97
        1
330
C5
 92
        1
 93
        1
 72
     4
 94
        3
 73
     0
 74
     0
 95
       29
 96
       25
 40
0.0
 40
0.0
 40
0.0
 40
0.0
 40
1.0
 40
1.0
 40
1.0
 40
2.0
 40
2.0
 40
2.0
 40
3.0
 40
3.0
 40
3.0
 40
4.0
 40
4.0
 40
4.0
 40
5.0
 40
5.0
 40
5.0
 40
6.0
 40
6.0
 40
6.0
 40
7.0
 40
7.0
 40
7.0
 40
8.0
 40
8.0
 40
8.0
 40
8.0
 10
6.199553171790486
 20
-1.439660277751954
 10
6.129626204362314
 20
-1.575598807534043
 10
6.418070301091296
 20
-1.683029406075194
 10
6.460932406027394
 20
-1.537775927598911
 10
6.480122327705126
 20
-1.476365777496804
 10
6.394036814368619
 20
-1.396486279080401
 10
6.44729617802472
 20
-1.3494637562273
 10
6.494186788228287
 20
-1.317723126721767
 10
6.599663577606456
 20
-1.398317727777326
 10
6.522582007510966
 20
-1.420762281507172
 10
6.513285107850302
 20
-1.430483644282604
 10
6.488839553675764
 20
-1.404139118278218
 10
6.509225690433948
 20
-1.412189322897701
 10
6.57919548111421
 20
-1.411083318165146
 10
6.511857760647822
 20
-1.333202539381115
 10
6.464495243878546
 20
-1.354968443643239
 10
6.345545011575065
 20
-1.550082104613731
 10
6.816417012837695
 20
-1.491903360110541
 10
6.526658157191377
 20
-1.297964732218487
 10
6.234482198384537
 20
-1.235426860600872
 10
6.360735071352514
 20
-1.406531842401578
 10
6.370963022248209
 20
-1.499075586218623
 10
6.358054222334986
 20
-1.426416142539462
 10
6.254845363729398
 20
-1.381444304477971
 10
6.199553171790486
 20
-1.439660277751954
 97
        0
 97
        1
330
C6
 75
     2
 76
     1
 98
        1
 10
0.0
 20
0.0
450
        0
451
        0
460
0.0
461
0.0
452
        0
462
0.0
453
        0
470

  0
SPLINE
  5
C8
330
7E
100
AcDbEntity
  8
Deck Box - DF
100
AcDbSpline
210
0.0
220
0.0
230
1.0
 70
     9
 71
     3
 72
    26
 73
    22
 74
     0
 42
0.0000000001
 43
0.0000000001
 40
0.0
 40
0.0
 40
0.0
 40
0.0
 40
1.0
 40
1.0
 40
1.0
 40
2.0
 40
2.0
 40
2.0
 40
3.0
 40
3.0
 40
3.0
 40
4.0
 40
4.0
 40
4.0
 40
5.0
 40
5.0
 40
5.0
 40
6.0
 40
6.0
 40
6.0
 40
7.0
 40
7.0
 40
7.0
 40
7.0
 10
7.264197867177421
 20
-1.673736424399167
 30
0.0
 10
7.264197867177421
 20
-1.673736424399167
 30
0.0
 10
7.3882162184144
 20
-1.673736424399167
 30
0.0
 10
7.3882162184144
 20
-1.673736424399167
 30
0.0
 10
7.390312606489487
 20
-1.668339051623547
 30
0.0
 10
7.392034306522039
 20
-1.662706863038478
 30
0.0
 10
7.393221948937403
 20
-1.656766955540648
 30
0.0
 10
7.328968035905719
 20
-1.34741874319257
 30
0.0
 10
7.613122292090615
 20
-1.503985786920856
 30
0.0
 10
7.465680851932195
 20
-1.564502144342731
 30
0.0
 10
7.458627900543306
 20
-1.557901870362709
 30
0.0
 10
7.44442705418914
 20
-1.541491890436481
 30
0.0
 10
7.46137533028506
 20
-1.549465455432154
 30
0.0
 10
7.592425440148341
 20
-1.504546123563651
 30
0.0
 10
7.35257423029591
 20
-1.432974773465995
 30
0.0
 10
7.395846460656153
 20
-1.563935026015908
 30
0.0
 10
7.659660751020737
 20
-1.810467890056707
 30
0.0
 10
7.594636269141396
 20
-1.206132528999862
 30
0.0
 10
7.313009885677855
 20
-1.478685019234237
 30
0.0
 10
7.312766592763359
 20
-1.596392165772853
 30
0.0
 10
7.29044044123341
 20
-1.652422439210353
 30
0.0
 10
7.264197867177421
 20
-1.673736424399167
 30
0.0
  0
HATCH
  5
C9
330
7E
100
AcDbEntity
  8
Deck Box - DF
 62
   250
420
  2301728
440
 33554687
100
AcDbHatch
 10
0.0
 20
0.0
 30
0.0
210
0.0
220
0.0
230
1.0
  2
SOLID
 70
     1
 71
     1
 91
        1
 92
        1
 93
        1
 72
     4
 94
        3
 73
     0
 74
     0
 95
       26
 96
       22
 40
0.0
 40
0.0
 40
0.0
 40
0.0
 40
1.0
 40
1.0
 40
1.0
 40
2.0
 40
2.0
 40
2.0
 40
3.0
 40
3.0
 40
3.0
 40
4.0
 40
4.0
 40
4.0
 40
5.0
 40
5.0
 40
5.0
 40
6.0
 40
6.0
 40
6.0
 40
7.0
 40
7.0
 40
7.0
 40
7.0
 10
7.264197867177421
 20
-1.673736424399167
 10
7.264197867177421
 20
-1.673736424399167
 10
7.3882162184144
 20
-1.673736424399167
 10
7.3882162184144
 20
-1.673736424399167
 10
7.390312606489487
 20
-1.668339051623547
 10
7.392034306522039
 20
-1.662706863038478
 10
7.393221948937403
 20
-1.656766955540648
 10
7.328968035905719
 20
-1.34741874319257
 10
7.613122292090615
 20
-1.503985786920856
 10
7.465680851932195
 20
-1.564502144342731
 10
7.458627900543306
 20
-1.557901870362709
 10
7.44442705418914
 20
-1.541491890436481
 10
7.46137533028506
 20
-1.549465455432154
 10
7.592425440148341
 20
-1.504546123563651
 10
7.35257423029591
 20
-1.432974773465995
 10
7.395846460656153
 20
-1.563935026015908
 10
7.659660751020737
 20
-1.810467890056707
 10
7.594636269141396
 20
-1.206132528999862
 10
7.313009885677855
 20
-1.478685019234237
 10
7.312766592763359
 20
-1.596392165772853
 10
7.29044044123341
 20
-1.652422439210353
 10
7.264197867177421
 20
-1.673736424399167
 97
        0
 97
        1
330
C8
 75
     2
 76
     1
 98
        1
 10
0.0
 20
0.0
450
        0
451
        0
460
0.0
461
0.0
452
        0
462
0.0
453
        0
470

  0
SPLINE
  5
CA
330
7E
100
AcDbEntity
  8
Deck Box - DF
100
AcDbSpline
210
0.0
220
0.0
230
1.0
 70
     9
 71
     3
 72
    20
 73
    16
 74
     0
 42
0.0000000001
 43
0.0000000001
 40
0.0
 40
0.0
 40
0.0
 40
0.0
 40
1.0
 40
1.0
 40
1.0
 40
2.0
 40
2.0
 40
2.0
 40
3.0
 40
3.0
 40
3.0
 40
4.0
 40
4.0
 40
4.0
 40
5.0
 40
5.0
 40
5.0
 40
5.0
 10
7.20533539294782
 20
-1.673736424399167
 30
0.0
 10
7.176630219879243
 20
-1.65236733802764
 30
0.0
 10
7.165382796919175
 20
-1.605951797120509
 30
0.0
 10
7.213953217926118
 20
-1.597063552491603
 30
0.0
 10
7.226407780643133
 20
-1.587509007406967
 30
0.0
 10
7.242704167361883
 20
-1.616736370145695
 30
0.0
 10
7.224717445899209
 20
-1.606937684436047
 30
0.0
 10
7.153908187544175
 20
-1.603394254531533
 30
0.0
 10
7.197122773590181
 20
-1.689465692791082
 30
0.0
 10
7.251691594119695
 20
-1.669857301135278
 30
0.0
 10
7.417953055165702
 20
-1.489936680746811
 30
0.0
 10
7.018169390886188
 20
-1.499545479303681
 30
0.0
 10
7.127763947906587
 20
-1.673736424399167
 30
0.0
 10
7.127763947906587
 20
-1.673736424399167
 30
0.0
 10
7.20533539294782
 20
-1.673736424399167
 30
0.0
 10
7.20533539294782
 20
-1.673736424399167
 30
0.0
  0
HATCH
  5
CB
330
7E
100
AcDbEntity
  8
Deck Box - DF
 62
   250
420
  2301728
440
 33554687
100
AcDbHatch
 10
0.0
 20
0.0
 30
0.0
210
0.0
220
0.0
230
1.0
  2
SOLID
 70
     1
 71
     1
 91
        1
 92
        1
 93
        1
 72
     4
 94
        3
 73
     0
 74
     0
 95
       20
 96
       16
 40
0.0
 40
0.0
 40
0.0
 40
0.0
 40
1.0
 40
1.0
 40
1.0
 40
2.0
 40
2.0
 40
2.0
 40
3.0
 40
3.0
 40
3.0
 40
4.0
 40
4.0
 40
4.0
 40
5.0
 40
5.0
 40
5.0
 40
5.0
 10
7.20533539294782
 20
-1.673736424399167
 10
7.176630219879243
 20
-1.65236733802764
 10
7.165382796919175
 20
-1.605951797120509
 10
7.213953217926118
 20
-1.597063552491603
 10
7.226407780643133
 20
-1.587509007406967
 10
7.242704167361883
 20
-1.616736370145695
 10
7.224717445899209
 20
-1.606937684436047
 10
7.153908187544175
 20
-1.603394254531533
 10
7.197122773590181
 20
-1.689465692791082
 10
7.251691594119695
 20
-1.669857301135278
 10
7.417953055165702
 20
-1.489936680746811
 10
7.018169390886188
 20
-1.499545479303681
 10
7.127763947906587
 20
-1.673736424399167
 10
7.127763947906587
 20
-1.673736424399167
 10
7.20533539294782
 20
-1.673736424399167
 10
7.20533539294782
 20
-1.673736424399167
 97
        0
 97
        1
330
CA
 75
     2
 76
     1
 98
        1
 10
0.0
 20
0.0
450
        0
451
        0
460
0.0
461
0.0
452
        0
462
0.0
453
        0
470

  0
SPLINE
  5
CC
330
7E
100
AcDbEntity
  8
Deck Box - DF
100
AcDbSpline
210
0.0
220
0.0
230
1.0
 70
     9
 71
     3
 72
    32
 73
    28
 74
     0
 42
0.0000000001
 43
0.0000000001
 40
0.0
 40
0.0
 40
0.0
 40
0.0
 40
1.0
 40
1.0
 40
1.0
 40
2.0
 40
2.0
 40
2.0
 40
3.0
 40
3.0
 40
3.0
 40
4.0
 40
4.0
 40
4.0
 40
5.0
 40
5.0
 40
5.0
 40
6.0
 40
6.0
 40
6.0
 40
7.0
 40
7.0
 40
7.0
 40
8.0
 40
8.0
 40
8.0
 40
9.0
 40
9.0
 40
9.0
 40
9.0
 10
6.750575159386622
 20
-1.663097657580578
 30
0.0
 10
6.765644909006848
 20
-1.663097657580578
 30
0.0
 10
6.778021482357543
 20
-1.667187860759832
 30
0.0
 10
6.788006664377942
 20
-1.673736424399167
 30
0.0
 10
6.788006664377942
 20
-1.673736424399167
 30
0.0
 10
6.854868134918306
 20
-1.673736424399167
 30
0.0
 10
6.854868134918306
 20
-1.673736424399167
 30
0.0
 10
6.86536702950381
 20
-1.652782716174328
 30
0.0
 10
6.862413606109712
 20
-1.624150446209051
 30
0.0
 10
6.835191926422212
 20
-1.587950664579276
 30
0.0
 10
6.785852631988618
 20
-1.571229574898287
 30
0.0
 10
6.725848291710841
 20
-1.65608624400636
 30
0.0
 10
6.795843747982543
 20
-1.649795384360092
 30
0.0
 10
6.660867043067177
 20
-1.685611153131806
 30
0.0
 10
6.896420360667004
 20
-1.446060880508096
 30
0.0
 10
6.867334565582368
 20
-1.673736424399167
 30
0.0
 10
6.867334565582368
 20
-1.673736424399167
 30
0.0
 10
6.946522594553723
 20
-1.673736424399167
 30
0.0
 10
6.946522594553723
 20
-1.673736424399167
 30
0.0
 10
6.998620338965615
 20
-1.573550606256806
 30
0.0
 10
6.938120088043306
 20
-1.454790603272853
 30
0.0
 10
6.767754012739487
 20
-1.537609376330578
 30
0.0
 10
6.70185638904157
 20
-1.59206545136313
 30
0.0
 10
6.680102442101466
 20
-1.633748224529376
 30
0.0
 10
6.682859196658758
 20
-1.663097657580578
 30
0.0
 10
6.682859196658758
 20
-1.663097657580578
 30
0.0
 10
6.750575159386622
 20
-1.663097657580578
 30
0.0
 10
6.750575159386622
 20
-1.663097657580578
 30
0.0
  0
HATCH
  5
CD
330
7E
100
AcDbEntity
  8
Deck Box - DF
 62
   250
420
  2301728
440
 33554687
100
AcDbHatch
 10
0.0
 20
0.0
 30
0.0
210
0.0
220
0.0
230
1.0
  2
SOLID
 70
     1
 71
     1
 91
        1
 92
        1
 93
        1
 72
     4
 94
        3
 73
     0
 74
     0
 95
       32
 96
       28
 40
0.0
 40
0.0
 40
0.0
 40
0.0
 40
1.0
 40
1.0
 40
1.0
 40
2.0
 40
2.0
 40
2.0
 40
3.0
 40
3.0
 40
3.0
 40
4.0
 40
4.0
 40
4.0
 40
5.0
 40
5.0
 40
5.0
 40
6.0
 40
6.0
 40
6.0
 40
7.0
 40
7.0
 40
7.0
 40
8.0
 40
8.0
 40
8.0
 40
9.0
 40
9.0
 40
9.0
 40
9.0
 10
6.750575159386622
 20
-1.663097657580578
 10
6.765644909006848
 20
-1.663097657580578
 10
6.778021482357543
 20
-1.667187860759832
 10
6.788006664377942
 20
-1.673736424399167
 10
6.788006664377942
 20
-1.673736424399167
 10
6.854868134918306
 20
-1.673736424399167
 10
6.854868134918306
 20
-1.673736424399167
 10
6.86536702950381
 20
-1.652782716174328
 10
6.862413606109712
 20
-1.624150446209051
 10
6.835191926422212
 20
-1.587950664579276
 10
6.785852631988618
 20
-1.571229574898287
 10
6.725848291710841
 20
-1.65608624400636
 10
6.795843747982543
 20
-1.649795384360092
 10
6.660867043067177
 20
-1.685611153131806
 10
6.896420360667004
 20
-1.446060880508096
 10
6.867334565582368
 20
-1.673736424399167
 10
6.867334565582368
 20
-1.673736424399167
 10
6.946522594553723
 20
-1.673736424399167
 10
6.946522594553723
 20
-1.673736424399167
 10
6.998620338965615
 20
-1.573550606256806
 10
6.938120088043306
 20
-1.454790603272853
 10
6.767754012739487
 20
-1.537609376330578
 10
6.70185638904157
 20
-1.59206545136313
 10
6.680102442101466
 20
-1.633748224529376
 10
6.682859196658758
 20
-1.663097657580578
 10
6.682859196658758
 20
-1.663097657580578
 10
6.750575159386622
 20
-1.663097657580578
 10
6.750575159386622
 20
-1.663097657580578
 97
        0
 97
        1
330
CC
 75
     2
 76
     1
 98
        1
 10
0.0
 20
0.0
450
        0
451
        0
460
0.0
461
0.0
452
        0
462
0.0
453
        0
470

  0
SPLINE
  5
CE
330
7E
100
AcDbEntity
  8
Deck Box - DF
100
AcDbSpline
210
0.0
220
0.0
230
1.0
 70
     9
 71
     3
 72
    26
 73
    22
 74
     0
 42
0.0000000001
 43
0.0000000001
 40
0.0
 40
0.0
 40
0.0
 40
0.0
 40
1.0
 40
1.0
 40
1.0
 40
2.0
 40
2.0
 40
2.0
 40
3.0
 40
3.0
 40
3.0
 40
4.0
 40
4.0
 40
4.0
 40
5.0
 40
5.0
 40
5.0
 40
6.0
 40
6.0
 40
6.0
 40
7.0
 40
7.0
 40
7.0
 40
7.0
 10
6.672242183489515
 20
-1.258198717274012
 30
0.0
 10
6.73994177461562
 20
-1.296741870510913
 30
0.0
 10
6.712087659736349
 20
-1.197146377024624
 30
0.0
 10
6.656331218369587
 20
-1.187695698436894
 30
0.0
 10
6.449944413307194
 20
-1.275156680907053
 30
0.0
 10
6.92951095272484
 20
-1.494373127106819
 30
0.0
 10
6.742945925006248
 20
-1.177586277432459
 30
0.0
 10
6.677725828533715
 20
-1.0946222202353
 30
0.0
 10
6.573690849840507
 20
-1.070550717514821
 30
0.0
 10
6.54183346988864
 20
-1.143335549762291
 30
0.0
 10
6.497656038839876
 20
-1.212822791929448
 30
0.0
 10
6.555700546415664
 20
-1.272632880486475
 30
0.0
 10
6.593817778304835
 20
-1.33847997617531
 30
0.0
 10
6.568400618424801
 20
-1.213326155934661
 30
0.0
 10
6.577549763686015
 20
-1.180036395910822
 30
0.0
 10
6.64241961700433
 20
-1.173647783721447
 30
0.0
 10
6.702435412162988
 20
-1.17493553724479
 30
0.0
 10
6.765624381938853
 20
-1.298166646593459
 30
0.0
 10
6.681014994608529
 20
-1.272510335782612
 30
0.0
 10
6.667495892454148
 20
-1.274969244387395
 30
0.0
 10
6.656472733619718
 20
-1.24034002421408
 30
0.0
 10
6.672242183489515
 20
-1.258198717274012
 30
0.0
  0
HATCH
  5
CF
330
7E
100
AcDbEntity
  8
Deck Box - DF
 62
   250
420
  2301728
440
 33554687
100
AcDbHatch
 10
0.0
 20
0.0
 30
0.0
210
0.0
220
0.0
230
1.0
  2
SOLID
 70
     1
 71
     1
 91
        1
 92
        1
 93
        1
 72
     4
 94
        3
 73
     0
 74
     0
 95
       26
 96
       22
 40
0.0
 40
0.0
 40
0.0
 40
0.0
 40
1.0
 40
1.0
 40
1.0
 40
2.0
 40
2.0
 40
2.0
 40
3.0
 40
3.0
 40
3.0
 40
4.0
 40
4.0
 40
4.0
 40
5.0
 40
5.0
 40
5.0
 40
6.0
 40
6.0
 40
6.0
 40
7.0
 40
7.0
 40
7.0
 40
7.0
 10
6.672242183489515
 20
-1.258198717274012
 10
6.73994177461562
 20
-1.296741870510913
 10
6.712087659736349
 20
-1.197146377024624
 10
6.656331218369587
 20
-1.187695698436894
 10
6.449944413307194
 20
-1.275156680907053
 10
6.92951095272484
 20
-1.494373127106819
 10
6.742945925006248
 20
-1.177586277432459
 10
6.677725828533715
 20
-1.0946222202353
 10
6.573690849840507
 20
-1.070550717514821
 10
6.54183346988864
 20
-1.143335549762291
 10
6.497656038839876
 20
-1.212822791929448
 10
6.555700546415664
 20
-1.272632880486475
 10
6.593817778304835
 20
-1.33847997617531
 10
6.568400618424801
 20
-1.213326155934661
 10
6.577549763686015
 20
-1.180036395910822
 10
6.64241961700433
 20
-1.173647783721447
 10
6.702435412162988
 20
-1.17493553724479
 10
6.765624381938853
 20
-1.298166646593459
 10
6.681014994608529
 20
-1.272510335782612
 10
6.667495892454148
 20
-1.274969244387395
 10
6.656472733619718
 20
-1.24034002421408
 10
6.672242183489515
 20
-1.258198717274012
 97
        0
 97
        1
330
CE
 75
     2
 76
     1
 98
        1
 10
0.0
 20
0.0
450
        0
451
        0
460
0.0
461
0.0
452
        0
462
0.0
453
        0
470

  0
SPLINE
  5
D0
330
7E
100
AcDbEntity
  8
Deck Box - DF
100
AcDbSpline
210
0.0
220
0.0
230
1.0
 70
     9
 71
     3
 72
    14
 73
    10
 74
     0
 42
0.0000000001
 43
0.0000000001
 40
0.0
 40
0.0
 40
0.0
 40
0.0
 40
1.0
 40
1.0
 40
1.0
 40
2.0
 40
2.0
 40
2.0
 40
3.0
 40
3.0
 40
3.0
 40
3.0
 10
7.652089000803723
 20
-0.7357930718058393
 30
0.0
 10
7.656236000586709
 20
-0.7403944444186866
 30
0.0
 10
7.660576278364487
 20
-0.745052613635279
 30
0.0
 10
7.66535227934105
 20
-0.7498370917168763
 30
0.0
 10
7.723329743805025
 20
-0.7893115790215512
 30
0.0
 10
7.813355751563271
 20
-0.7824934434421241
 30
0.0
 10
7.860378253190876
 20
-0.7357930718058393
 30
0.0
 10
7.860378253190876
 20
-0.7357930718058393
 30
0.0
 10
7.652089000803723
 20
-0.7357930718058393
 30
0.0
 10
7.652089000803723
 20
-0.7357930718058393
 30
0.0
  0
HATCH
  5
D1
330
7E
100
AcDbEntity
  8
Deck Box - DF
 62
   250
420
  2301728
440
 33554687
100
AcDbHatch
 10
0.0
 20
0.0
 30
0.0
210
0.0
220
0.0
230
1.0
  2
SOLID
 70
     1
 71
     1
 91
        1
 92
        1
 93
        1
 72
     4
 94
        3
 73
     0
 74
     0
 95
       14
 96
       10
 40
0.0
 40
0.0
 40
0.0
 40
0.0
 40
1.0
 40
1.0
 40
1.0
 40
2.0
 40
2.0
 40
2.0
 40
3.0
 40
3.0
 40
3.0
 40
3.0
 10
7.652089000803723
 20
-0.7357930718058393
 10
7.656236000586709
 20
-0.7403944444186866
 10
7.660576278364487
 20
-0.745052613635279
 10
7.66535227934105
 20
-0.7498370917168763
 10
7.723329743805025
 20
-0.7893115790215512
 10
7.813355751563271
 20
-0.7824934434421241
 10
7.860378253190876
 20
-0.7357930718058393
 10
7.860378253190876
 20
-0.7357930718058393
 10
7.652089000803723
 20
-0.7357930718058393
 10
7.652089000803723
 20
-0.7357930718058393
 97
        0
 97
        1
330
D0
 75
     2
 76
     1
 98
        1
 10
0.0
 20
0.0
450
        0
451
        0
460
0.0
461
0.0
452
        0
462
0.0
453
        0
470

  0
SPLINE
  5
D2
330
7E
100
AcDbEntity
  8
Deck Box - DF
100
AcDbSpline
210
0.0
220
0.0
230
1.0
 70
     9
 71
     3
 72
    20
 73
    16
 74
     0
 42
0.0000000001
 43
0.0000000001
 40
0.0
 40
0.0
 40
0.0
 40
0.0
 40
1.0
 40
1.0
 40
1.0
 40
2.0
 40
2.0
 40
2.0
 40
3.0
 40
3.0
 40
3.0
 40
4.0
 40
4.0
 40
4.0
 40
5.0
 40
5.0
 40
5.0
 40
5.0
 10
8.925296771257281
 20
-1.673736424399167
 30
0.0
 10
8.928977530263358
 20
-1.668921428739445
 30
0.0
 10
8.933177935808062
 20
-1.664190356419554
 30
0.0
 10
8.938645668555459
 20
-1.659660191488999
 30
0.0
 10
8.954101974165268
 20
-1.649122302220348
 30
0.0
 10
8.972081913943913
 20
-1.647827000571042
 30
0.0
 10
8.987867978939574
 20
-1.651845148357501
 30
0.0
 10
8.987867978939574
 20
-1.651845148357501
 30
0.0
 10
8.987867978939574
 20
-1.59639894745688
 30
0.0
 10
8.987867978939574
 20
-1.59639894745688
 30
0.0
 10
8.873343985341483
 20
-1.587276734729028
 30
0.0
 10
8.838827756771605
 20
-1.624036005291082
 30
0.0
 10
8.829992917904418
 20
-1.673736424399167
 30
0.0
 10
8.829992917904418
 20
-1.673736424399167
 30
0.0
 10
8.925296771257281
 20
-1.673736424399167
 30
0.0
 10
8.925296771257281
 20
-1.673736424399167
 30
0.0
  0
HATCH
  5
D3
330
7E
100
AcDbEntity
  8
Deck Box - DF
 62
   250
420
  2301728
440
 33554687
100
AcDbHatch
 10
0.0
 20
0.0
 30
0.0
210
0.0
220
0.0
230
1.0
  2
SOLID
 70
     1
 71
     1
 91
        1
 92
        1
 93
        1
 72
     4
 94
        3
 73
     0
 74
     0
 95
       20
 96
       16
 40
0.0
 40
0.0
 40
0.0
 40
0.0
 40
1.0
 40
1.0
 40
1.0
 40
2.0
 40
2.0
 40
2.0
 40
3.0
 40
3.0
 40
3.0
 40
4.0
 40
4.0
 40
4.0
 40
5.0
 40
5.0
 40
5.0
 40
5.0
 10
8.925296771257281
 20
-1.673736424399167
 10
8.928977530263358
 20
-1.668921428739445
 10
8.933177935808062
 20
-1.664190356419554
 10
8.938645668555459
 20
-1.659660191488999
 10
8.954101974165268
 20
-1.649122302220348
 10
8.972081913943913
 20
-1.647827000571042
 10
8.987867978939574
 20
-1.651845148357501
 10
8.987867978939574
 20
-1.651845148357501
 10
8.987867978939574
 20
-1.59639894745688
 10
8.987867978939574
 20
-1.59639894745688
 10
8.873343985341483
 20
-1.587276734729028
 10
8.838827756771605
 20
-1.624036005291082
 10
8.829992917904418
 20
-1.673736424399167
 10
8.829992917904418
 20
-1.673736424399167
 10
8.925296771257281
 20
-1.673736424399167
 10
8.925296771257281
 20
-1.673736424399167
 97
        0
 97
        1
330
D2
 75
     2
 76
     1
 98
        1
 10
0.0
 20
0.0
450
        0
451
        0
460
0.0
461
0.0
452
        0
462
0.0
453
        0
470

  0
SPLINE
  5
D4
330
7E
100
AcDbEntity
  8
Deck Box - DF
100
AcDbSpline
210
0.0
220
0.0
230
1.0
 70
     9
 71
     3
 72
    11
 73
     7
 74
     0
 42
0.0000000001
 43
0.0000000001
 40
0.0
 40
0.0
 40
0.0
 40
0.0
 40
1.0
 40
1.0
 40
1.0
 40
2.0
 40
2.0
 40
2.0
 40
2.0
 10
8.294140697581067
 20
-1.673736424399167
 30
0.0
 10
8.257262747548514
 20
-1.594952753337957
 30
0.0
 10
8.185350617828463
 20
-1.624647204564098
 30
0.0
 10
8.153522479265095
 20
-1.673736424399167
 30
0.0
 10
8.153522479265095
 20
-1.673736424399167
 30
0.0
 10
8.294140697581067
 20
-1.673736424399167
 30
0.0
 10
8.294140697581067
 20
-1.673736424399167
 30
0.0
  0
HATCH
  5
D5
330
7E
100
AcDbEntity
  8
Deck Box - DF
 62
   250
420
  2301728
440
 33554687
100
AcDbHatch
 10
0.0
 20
0.0
 30
0.0
210
0.0
220
0.0
230
1.0
  2
SOLID
 70
     1
 71
     1
 91
        1
 92
        1
 93
        1
 72
     4
 94
        3
 73
     0
 74
     0
 95
       11
 96
        7
 40
0.0
 40
0.0
 40
0.0
 40
0.0
 40
1.0
 40
1.0
 40
1.0
 40
2.0
 40
2.0
 40
2.0
 40
2.0
 10
8.294140697581067
 20
-1.673736424399167
 10
8.257262747548514
 20
-1.594952753337957
 10
8.185350617828463
 20
-1.624647204564098
 10
8.153522479265095
 20
-1.673736424399167
 10
8.153522479265095
 20
-1.673736424399167
 10
8.294140697581067
 20
-1.673736424399167
 10
8.294140697581067
 20
-1.673736424399167
 97
        0
 97
        1
330
D4
 75
     2
 76
     1
 98
        1
 10
0.0
 20
0.0
450
        0
451
        0
460
0.0
461
0.0
452
        0
462
0.0
453
        0
470

  0
SPLINE
  5
D6
330
7E
100
AcDbEntity
  8
Deck Box - DF
100
AcDbSpline
210
0.0
220
0.0
230
1.0
 70
     9
 71
     3
 72
    17
 73
    13
 74
     0
 42
0.0000000001
 43
0.0000000001
 40
0.0
 40
0.0
 40
0.0
 40
0.0
 40
1.0
 40
1.0
 40
1.0
 40
2.0
 40
2.0
 40
2.0
 40
3.0
 40
3.0
 40
3.0
 40
4.0
 40
4.0
 40
4.0
 40
4.0
 10
7.984128109131536
 20
-1.232829430987584
 30
0.0
 10
7.890848549634837
 20
-1.393807323959221
 30
0.0
 10
8.25399101608342
 20
-1.437678997540198
 30
0.0
 10
8.060018865175328
 20
-1.278977764544821
 30
0.0
 10
8.014473865800709
 20
-1.261543777541798
 30
0.0
 10
8.011389638495403
 20
-1.32580007031533
 30
0.0
 10
8.061078919902911
 20
-1.326150786843792
 30
0.0
 10
7.964693285549552
 20
-1.337596414862597
 30
0.0
 10
8.057258899581205
 20
-1.138188187567834
 30
0.0
 10
8.157171856116267
 20
-1.42275957062735
 30
0.0
 10
8.253066032367087
 20
-1.371693984013278
 30
0.0
 10
8.102546764919654
 20
-1.159628215563341
 30
0.0
 10
7.984128109131536
 20
-1.232829430987584
 30
0.0
  0
HATCH
  5
D7
330
7E
100
AcDbEntity
  8
Deck Box - DF
 62
   250
420
  2301728
440
 33554687
100
AcDbHatch
 10
0.0
 20
0.0
 30
0.0
210
0.0
220
0.0
230
1.0
  2
SOLID
 70
     1
 71
     1
 91
        1
 92
        1
 93
        1
 72
     4
 94
        3
 73
     0
 74
     0
 95
       17
 96
       13
 40
0.0
 40
0.0
 40
0.0
 40
0.0
 40
1.0
 40
1.0
 40
1.0
 40
2.0
 40
2.0
 40
2.0
 40
3.0
 40
3.0
 40
3.0
 40
4.0
 40
4.0
 40
4.0
 40
4.0
 10
7.984128109131536
 20
-1.232829430987584
 10
7.890848549634837
 20
-1.393807323959221
 10
8.25399101608342
 20
-1.437678997540198
 10
8.060018865175328
 20
-1.278977764544821
 10
8.014473865800709
 20
-1.261543777541798
 10
8.011389638495403
 20
-1.32580007031533
 10
8.061078919902911
 20
-1.326150786843792
 10
7.964693285549552
 20
-1.337596414862597
 10
8.057258899581205
 20
-1.138188187567834
 10
8.157171856116267
 20
-1.42275957062735
 10
8.253066032367087
 20
-1.371693984013278
 10
8.102546764919654
 20
-1.159628215563341
 10
7.984128109131536
 20
-1.232829430987584
 97
        0
 97
        1
330
D6
 75
     2
 76
     1
 98
        1
 10
0.0
 20
0.0
450
        0
451
        0
460
0.0
461
0.0
452
        0
462
0.0
453
        0
470

  0
SPLINE
  5
D8
330
7E
100
AcDbEntity
  8
Deck Box - DF
100
AcDbSpline
210
0.0
220
0.0
230
1.0
 70
     9
 71
     3
 72
    20
 73
    16
 74
     0
 42
0.0000000001
 43
0.0000000001
 40
0.0
 40
0.0
 40
0.0
 40
0.0
 40
1.0
 40
1.0
 40
1.0
 40
2.0
 40
2.0
 40
2.0
 40
3.0
 40
3.0
 40
3.0
 40
4.0
 40
4.0
 40
4.0
 40
5.0
 40
5.0
 40
5.0
 40
5.0
 10
8.381758359798949
 20
-1.673736424399167
 30
0.0
 10
8.38597995810624
 20
-1.663516426569306
 30
0.0
 10
8.398476906348427
 20
-1.659732246881806
 30
0.0
 10
8.422757030588879
 20
-1.670503256538912
 30
0.0
 10
8.412554834679591
 20
-1.66982424042563
 30
0.0
 10
8.404927983279851
 20
-1.671200922283269
 30
0.0
 10
8.399096582726466
 20
-1.673736424399167
 30
0.0
 10
8.399096582726466
 20
-1.673736424399167
 30
0.0
 10
8.488136703169175
 20
-1.673736424399167
 30
0.0
 10
8.488136703169175
 20
-1.673736424399167
 30
0.0
 10
8.517040240495564
 20
-1.578162151395695
 30
0.0
 10
8.314750235341483
 20
-1.579049704292818
 30
0.0
 10
8.306490991906153
 20
-1.673736424399167
 30
0.0
 10
8.306490991906153
 20
-1.673736424399167
 30
0.0
 10
8.381758359798949
 20
-1.673736424399167
 30
0.0
 10
8.381758359798949
 20
-1.673736424399167
 30
0.0
  0
HATCH
  5
D9
330
7E
100
AcDbEntity
  8
Deck Box - DF
 62
   250
420
  2301728
440
 33554687
100
AcDbHatch
 10
0.0
 20
0.0
 30
0.0
210
0.0
220
0.0
230
1.0
  2
SOLID
 70
     1
 71
     1
 91
        1
 92
        1
 93
        1
 72
     4
 94
        3
 73
     0
 74
     0
 95
       20
 96
       16
 40
0.0
 40
0.0
 40
0.0
 40
0.0
 40
1.0
 40
1.0
 40
1.0
 40
2.0
 40
2.0
 40
2.0
 40
3.0
 40
3.0
 40
3.0
 40
4.0
 40
4.0
 40
4.0
 40
5.0
 40
5.0
 40
5.0
 40
5.0
 10
8.381758359798949
 20
-1.673736424399167
 10
8.38597995810624
 20
-1.663516426569306
 10
8.398476906348427
 20
-1.659732246881806
 10
8.422757030588879
 20
-1.670503256538912
 10
8.412554834679591
 20
-1.66982424042563
 10
8.404927983279851
 20
-1.671200922283269
 10
8.399096582726466
 20
-1.673736424399167
 10
8.399096582726466
 20
-1.673736424399167
 10
8.488136703169175
 20
-1.673736424399167
 10
8.488136703169175
 20
-1.673736424399167
 10
8.517040240495564
 20
-1.578162151395695
 10
8.314750235341483
 20
-1.579049704292818
 10
8.306490991906153
 20
-1.673736424399167
 10
8.306490991906153
 20
-1.673736424399167
 10
8.381758359798949
 20
-1.673736424399167
 10
8.381758359798949
 20
-1.673736424399167
 97
        0
 97
        1
330
D8
 75
     2
 76
     1
 98
        1
 10
0.0
 20
0.0
450
        0
451
        0
460
0.0
461
0.0
452
        0
462
0.0
453
        0
470

  0
SPLINE
  5
DA
330
7E
100
AcDbEntity
  8
Deck Box - DF
100
AcDbSpline
210
0.0
220
0.0
230
1.0
 70
     9
 71
     3
 72
   134
 73
   130
 74
     0
 42
0.0000000001
 43
0.0000000001
 40
0.0
 40
0.0
 40
0.0
 40
0.0
 40
1.0
 40
1.0
 40
1.0
 40
2.0
 40
2.0
 40
2.0
 40
3.0
 40
3.0
 40
3.0
 40
4.0
 40
4.0
 40
4.0
 40
5.0
 40
5.0
 40
5.0
 40
6.0
 40
6.0
 40
6.0
 40
7.0
 40
7.0
 40
7.0
 40
8.0
 40
8.0
 40
8.0
 40
9.0
 40
9.0
 40
9.0
 40
10.0
 40
10.0
 40
10.0
 40
11.0
 40
11.0
 40
11.0
 40
12.0
 40
12.0
 40
12.0
 40
13.0
 40
13.0
 40
13.0
 40
14.0
 40
14.0
 40
14.0
 40
15.0
 40
15.0
 40
15.0
 40
16.0
 40
16.0
 40
16.0
 40
17.0
 40
17.0
 40
17.0
 40
18.0
 40
18.0
 40
18.0
 40
19.0
 40
19.0
 40
19.0
 40
20.0
 40
20.0
 40
20.0
 40
21.0
 40
21.0
 40
21.0
 40
22.0
 40
22.0
 40
22.0
 40
23.0
 40
23.0
 40
23.0
 40
24.0
 40
24.0
 40
24.0
 40
25.0
 40
25.0
 40
25.0
 40
26.0
 40
26.0
 40
26.0
 40
27.0
 40
27.0
 40
27.0
 40
28.0
 40
28.0
 40
28.0
 40
29.0
 40
29.0
 40
29.0
 40
30.0
 40
30.0
 40
30.0
 40
31.0
 40
31.0
 40
31.0
 40
32.0
 40
32.0
 40
32.0
 40
33.0
 40
33.0
 40
33.0
 40
34.0
 40
34.0
 40
34.0
 40
35.0
 40
35.0
 40
35.0
 40
36.0
 40
36.0
 40
36.0
 40
37.0
 40
37.0
 40
37.0
 40
38.0
 40
38.0
 40
38.0
 40
39.0
 40
39.0
 40
39.0
 40
40.0
 40
40.0
 40
40.0
 40
41.0
 40
41.0
 40
41.0
 40
42.0
 40
42.0
 40
42.0
 40
43.0
 40
43.0
 40
43.0
 40
43.0
 10
8.585921805165702
 20
-1.673736424399167
 30
0.0
 10
8.584198409712143
 20
-1.638053746176499
 30
0.0
 10
8.58634142186492
 20
-1.610730341228582
 30
0.0
 10
8.591250513390528
 20
-1.59047768959014
 30
0.0
 10
8.591103859473427
 20
-1.591137208361828
 30
0.0
 10
8.591081819000338
 20
-1.591905234077987
 30
0.0
 10
8.590959748687838
 20
-1.592586793322778
 30
0.0
 10
8.590998743370997
 20
-1.59241386038007
 30
0.0
 10
8.591022479265095
 20
-1.592237536595348
 30
0.0
 10
8.591061473948254
 20
-1.59206460365264
 30
0.0
 10
8.591140311025077
 20
-1.591713651504189
 30
0.0
 10
8.591235254601466
 20
-1.591362699355765
 30
0.0
 10
8.591294594336709
 20
-1.591008356365301
 30
0.0
 10
8.591323416493827
 20
-1.590832880291082
 30
0.0
 10
8.591350543229939
 20
-1.590658251927367
 30
0.0
 10
8.591375974545043
 20
-1.590482775853148
 30
0.0
 10
8.591386994781588
 20
-1.590407329618339
 30
0.0
 10
8.591397167307629
 20
-1.590331883383542
 30
0.0
 10
8.59140733983367
 20
-1.590256437148721
 30
0.0
 10
8.59141920778072
 20
-1.590175056940387
 30
0.0
 10
8.591410730675685
 20
-1.590236092096637
 30
0.0
 10
8.591408187544175
 20
-1.590252198596203
 30
0.0
 10
8.591414969228202
 20
-1.590202183676499
 30
0.0
 10
8.591420903201726
 20
-1.590152168756806
 30
0.0
 10
8.591427684885754
 20
-1.590101306126598
 30
0.0
 10
8.591446334516831
 20
-1.589953804498981
 30
0.0
 10
8.591459897884886
 20
-1.589805455160874
 30
0.0
 10
8.591476852094956
 20
-1.589657105822778
 30
0.0
 10
8.591434466569783
 20
-1.589831734186481
 30
0.0
 10
8.591362411176987
 20
-1.589979235814098
 30
0.0
 10
8.591321721072819
 20
-1.59015555959882
 30
0.0
 10
8.591370040571518
 20
-1.589959738472505
 30
0.0
 10
8.591433618859278
 20
-1.58980460745037
 30
0.0
 10
8.591481938357976
 20
-1.589609634034584
 30
0.0
 10
8.59154127809322
 20
-1.589103550863999
 30
0.0
 10
8.591596379275944
 20
-1.588597467693426
 30
0.0
 10
8.591649785037663
 20
-1.588090536812362
 30
0.0
 10
8.591798982086276
 20
-1.586680794245075
 30
0.0
 10
8.591962590213444
 20
-1.585262574572778
 30
0.0
 10
8.592329648861449
 20
-1.583890131267644
 30
0.0
 10
8.592668733062838
 20
-1.582621108643959
 30
0.0
 10
8.593164643707369
 20
-1.581380908177367
 30
0.0
 10
8.593670726877942
 20
-1.580170377578408
 30
0.0
 10
8.59418783028506
 20
-1.578931024822332
 30
0.0
 10
8.594747319217351
 20
-1.577711169407848
 30
0.0
 10
8.595318676096692
 20
-1.57649640025636
 30
0.0
 10
8.595858667687403
 20
-1.575348600234658
 30
0.0
 10
8.596406288672646
 20
-1.574203343344467
 30
0.0
 10
8.596929326053288
 20
-1.573048761638751
 30
0.0
 10
8.59742269356631
 20
-1.571843317302801
 30
0.0
 10
8.597893172895737
 20
-1.570576837810626
 30
0.0
 10
8.598411971723862
 20
-1.569444296577987
 30
0.0
 10
8.59842383967091
 20
-1.569410388157848
 30
0.0
 10
8.598439098459973
 20
-1.5693773274482
 30
0.0
 10
8.598450966407021
 20
-1.569343419028061
 30
0.0
 10
8.598451814117526
 20
-1.569341723607054
 30
0.0
 10
8.598453509538533
 20
-1.569343419028061
 30
0.0
 10
8.598454357249035
 20
-1.569341723607054
 30
0.0
 10
8.64324059856848
 20
-1.471847386313217
 30
0.0
 10
8.780509512685233
 20
-1.639270210748981
 30
0.0
 10
8.660494050445651
 20
-1.617100037951672
 30
0.0
 10
8.768724641265963
 20
-1.582039579238564
 30
0.0
 10
8.627854652930459
 20
-1.524887784804971
 30
0.0
 10
8.596094331207369
 20
-1.578108745633964
 30
0.0
 10
8.595849342871865
 20
-1.578636021567124
 30
0.0
 10
8.595606897667872
 20
-1.57916499292129
 30
0.0
 10
8.595372929568913
 20
-1.579696507406967
 30
0.0
 10
8.5951008144973
 20
-1.580315336074515
 30
0.0
 10
8.594908384213011
 20
-1.580770556614867
 30
0.0
 10
8.594652375640963
 20
-1.581420750571042
 30
0.0
 10
8.594167485232976
 20
-1.582649930801064
 30
0.0
 10
8.593713112403115
 20
-1.583902846925209
 30
0.0
 10
8.593448626726033
 20
-1.585199843995509
 30
0.0
 10
8.593379114464747
 20
-1.585538080486394
 30
0.0
 10
8.593319774729504
 20
-1.585879707819306
 30
0.0
 10
8.593268064388793
 20
-1.586221335152193
 30
0.0
 10
8.593254501020737
 20
-1.586309497044554
 30
0.0
 10
8.593240937652682
 20
-1.586398506647431
 30
0.0
 10
8.593228221995129
 20
-1.586487516250283
 30
0.0
 10
8.593221440311101
 20
-1.586537531170001
 30
0.0
 10
8.593213810916569
 20
-1.586588393800209
 30
0.0
 10
8.593207029232543
 20
-1.586639256430417
 30
0.0
 10
8.593209572364052
 20
-1.586622302220348
 30
0.0
 10
8.593217201758584
 20
-1.586562962485092
 30
0.0
 10
8.593206181522038
 20
-1.586644342693426
 30
0.0
 10
8.593184141048949
 20
-1.586808798531112
 30
0.0
 10
8.593163795996865
 20
-1.586974102079276
 30
0.0
 10
8.593144298655285
 20
-1.58713855791695
 30
0.0
 10
8.593064613867959
 20
-1.5878099446357
 30
0.0
 10
8.592999340159192
 20
-1.588483026775457
 30
0.0
 10
8.592926437055893
 20
-1.589154413494207
 30
0.0
 10
8.592848447689574
 20
-1.589872424290648
 30
0.0
 10
8.592762828928723
 20
-1.590589587376598
 30
0.0
 10
8.592645844879244
 20
-1.591302511910005
 30
0.0
 10
8.592529708540268
 20
-1.592012045601412
 30
0.0
 10
8.592335582834973
 20
-1.59271479760879
 30
0.0
 10
8.592179604102334
 20
-1.593416701905665
 30
0.0
 10
8.591571795671345
 20
-1.596160740805417
 30
0.0
 10
8.591025022396605
 20
-1.598931058730765
 30
0.0
 10
8.590629141591483
 20
-1.601713244603148
 30
0.0
 10
8.590581669803288
 20
-1.602044699410005
 30
0.0
 10
8.590551152225163
 20
-1.602271885824936
 30
0.0
 10
8.59050622356848
 20
-1.602645726156967
 30
0.0
 10
8.59046468575381
 20
-1.602993287463403
 30
0.0
 10
8.590426538781153
 20
-1.603340848769814
 30
0.0
 10
8.590393478071518
 20
-1.603689257786742
 30
0.0
 10
8.59032566123124
 20
-1.604386075820596
 30
0.0
 10
8.590276494022038
 20
-1.605085436985973
 30
0.0
 10
8.590249367285927
 20
-1.605785645861828
 30
0.0
 10
8.590204438629244
 20
-1.606950400093612
 30
0.0
 10
8.590268016917004
 20
-1.608116002035874
 30
0.0
 10
8.590362960493393
 20
-1.60927736542563
 30
0.0
 10
8.590947880740788
 20
-1.615652148411742
 30
0.0
 10
8.592308456098862
 20
-1.622648303196898
 30
0.0
 10
8.594704933692177
 20
-1.630419265382228
 30
0.0
 10
8.614523557552855
 20
-1.649637710206459
 30
0.0
 10
8.632494172515963
 20
-1.663785998509398
 30
0.0
 10
8.648693072526814
 20
-1.673736424399167
 30
0.0
 10
8.648693072526814
 20
-1.673736424399167
 30
0.0
 10
8.743985057932629
 20
-1.673736424399167
 30
0.0
 10
8.743985057932629
 20
-1.673736424399167
 30
0.0
 10
8.802258373362317
 20
-1.601125781224242
 30
0.0
 10
8.716420903201726
 20
-1.354642084392644
 30
0.0
 10
8.513611251509018
 20
-1.54378664276938
 30
0.0
 10
8.510174633127942
 20
-1.600451851373981
 30
0.0
 10
8.503510780860146
 20
-1.64272208791912
 30
0.0
 10
8.494931102854504
 20
-1.673736424399167
 30
0.0
 10
8.494931102854504
 20
-1.673736424399167
 30
0.0
 10
8.585921805165702
 20
-1.673736424399167
 30
0.0
 10
8.585921805165702
 20
-1.673736424399167
 30
0.0
  0
HATCH
  5
DB
330
7E
100
AcDbEntity
  8
Deck Box - DF
 62
   250
420
  2301728
440
 33554687
100
AcDbHatch
 10
0.0
 20
0.0
 30
0.0
210
0.0
220
0.0
230
1.0
  2
SOLID
 70
     1
 71
     1
 91
        1
 92
        1
 93
        1
 72
     4
 94
        3
 73
     0
 74
     0
 95
      134
 96
      130
 40
0.0
 40
0.0
 40
0.0
 40
0.0
 40
1.0
 40
1.0
 40
1.0
 40
2.0
 40
2.0
 40
2.0
 40
3.0
 40
3.0
 40
3.0
 40
4.0
 40
4.0
 40
4.0
 40
5.0
 40
5.0
 40
5.0
 40
6.0
 40
6.0
 40
6.0
 40
7.0
 40
7.0
 40
7.0
 40
8.0
 40
8.0
 40
8.0
 40
9.0
 40
9.0
 40
9.0
 40
10.0
 40
10.0
 40
10.0
 40
11.0
 40
11.0
 40
11.0
 40
12.0
 40
12.0
 40
12.0
 40
13.0
 40
13.0
 40
13.0
 40
14.0
 40
14.0
 40
14.0
 40
15.0
 40
15.0
 40
15.0
 40
16.0
 40
16.0
 40
16.0
 40
17.0
 40
17.0
 40
17.0
 40
18.0
 40
18.0
 40
18.0
 40
19.0
 40
19.0
 40
19.0
 40
20.0
 40
20.0
 40
20.0
 40
21.0
 40
21.0
 40
21.0
 40
22.0
 40
22.0
 40
22.0
 40
23.0
 40
23.0
 40
23.0
 40
24.0
 40
24.0
 40
24.0
 40
25.0
 40
25.0
 40
25.0
 40
26.0
 40
26.0
 40
26.0
 40
27.0
 40
27.0
 40
27.0
 40
28.0
 40
28.0
 40
28.0
 40
29.0
 40
29.0
 40
29.0
 40
30.0
 40
30.0
 40
30.0
 40
31.0
 40
31.0
 40
31.0
 40
32.0
 40
32.0
 40
32.0
 40
33.0
 40
33.0
 40
33.0
 40
34.0
 40
34.0
 40
34.0
 40
35.0
 40
35.0
 40
35.0
 40
36.0
 40
36.0
 40
36.0
 40
37.0
 40
37.0
 40
37.0
 40
38.0
 40
38.0
 40
38.0
 40
39.0
 40
39.0
 40
39.0
 40
40.0
 40
40.0
 40
40.0
 40
41.0
 40
41.0
 40
41.0
 40
42.0
 40
42.0
 40
42.0
 40
43.0
 40
43.0
 40
43.0
 40
43.0
 10
8.585921805165702
 20
-1.673736424399167
 10
8.584198409712143
 20
-1.638053746176499
 10
8.58634142186492
 20
-1.610730341228582
 10
8.591250513390528
 20
-1.59047768959014
 10
8.591103859473427
 20
-1.591137208361828
 10
8.591081819000338
 20
-1.591905234077987
 10
8.590959748687838
 20
-1.592586793322778
 10
8.590998743370997
 20
-1.59241386038007
 10
8.591022479265095
 20
-1.592237536595348
 10
8.591061473948254
 20
-1.59206460365264
 10
8.591140311025077
 20
-1.591713651504189
 10
8.591235254601466
 20
-1.591362699355765
 10
8.591294594336709
 20
-1.591008356365301
 10
8.591323416493827
 20
-1.590832880291082
 10
8.591350543229939
 20
-1.590658251927367
 10
8.591375974545043
 20
-1.590482775853148
 10
8.591386994781588
 20
-1.590407329618339
 10
8.591397167307629
 20
-1.590331883383542
 10
8.59140733983367
 20
-1.590256437148721
 10
8.59141920778072
 20
-1.590175056940387
 10
8.591410730675685
 20
-1.590236092096637
 10
8.591408187544175
 20
-1.590252198596203
 10
8.591414969228202
 20
-1.590202183676499
 10
8.591420903201726
 20
-1.590152168756806
 10
8.591427684885754
 20
-1.590101306126598
 10
8.591446334516831
 20
-1.589953804498981
 10
8.591459897884886
 20
-1.589805455160874
 10
8.591476852094956
 20
-1.589657105822778
 10
8.591434466569783
 20
-1.589831734186481
 10
8.591362411176987
 20
-1.589979235814098
 10
8.591321721072819
 20
-1.59015555959882
 10
8.591370040571518
 20
-1.589959738472505
 10
8.591433618859278
 20
-1.58980460745037
 10
8.591481938357976
 20
-1.589609634034584
 10
8.59154127809322
 20
-1.589103550863999
 10
8.591596379275944
 20
-1.588597467693426
 10
8.591649785037663
 20
-1.588090536812362
 10
8.591798982086276
 20
-1.586680794245075
 10
8.591962590213444
 20
-1.585262574572778
 10
8.592329648861449
 20
-1.583890131267644
 10
8.592668733062838
 20
-1.582621108643959
 10
8.593164643707369
 20
-1.581380908177367
 10
8.593670726877942
 20
-1.580170377578408
 10
8.59418783028506
 20
-1.578931024822332
 10
8.594747319217351
 20
-1.577711169407848
 10
8.595318676096692
 20
-1.57649640025636
 10
8.595858667687403
 20
-1.575348600234658
 10
8.596406288672646
 20
-1.574203343344467
 10
8.596929326053288
 20
-1.573048761638751
 10
8.59742269356631
 20
-1.571843317302801
 10
8.597893172895737
 20
-1.570576837810626
 10
8.598411971723862
 20
-1.569444296577987
 10
8.59842383967091
 20
-1.569410388157848
 10
8.598439098459973
 20
-1.5693773274482
 10
8.598450966407021
 20
-1.569343419028061
 10
8.598451814117526
 20
-1.569341723607054
 10
8.598453509538533
 20
-1.569343419028061
 10
8.598454357249035
 20
-1.569341723607054
 10
8.64324059856848
 20
-1.471847386313217
 10
8.780509512685233
 20
-1.639270210748981
 10
8.660494050445651
 20
-1.617100037951672
 10
8.768724641265963
 20
-1.582039579238564
 10
8.627854652930459
 20
-1.524887784804971
 10
8.596094331207369
 20
-1.578108745633964
 10
8.595849342871865
 20
-1.578636021567124
 10
8.595606897667872
 20
-1.57916499292129
 10
8.595372929568913
 20
-1.579696507406967
 10
8.5951008144973
 20
-1.580315336074515
 10
8.594908384213011
 20
-1.580770556614867
 10
8.594652375640963
 20
-1.581420750571042
 10
8.594167485232976
 20
-1.582649930801064
 10
8.593713112403115
 20
-1.583902846925209
 10
8.593448626726033
 20
-1.585199843995509
 10
8.593379114464747
 20
-1.585538080486394
 10
8.593319774729504
 20
-1.585879707819306
 10
8.593268064388793
 20
-1.586221335152193
 10
8.593254501020737
 20
-1.586309497044554
 10
8.593240937652682
 20
-1.586398506647431
 10
8.593228221995129
 20
-1.586487516250283
 10
8.593221440311101
 20
-1.586537531170001
 10
8.593213810916569
 20
-1.586588393800209
 10
8.593207029232543
 20
-1.586639256430417
 10
8.593209572364052
 20
-1.586622302220348
 10
8.593217201758584
 20
-1.586562962485092
 10
8.593206181522038
 20
-1.586644342693426
 10
8.593184141048949
 20
-1.586808798531112
 10
8.593163795996865
 20
-1.586974102079276
 10
8.593144298655285
 20
-1.58713855791695
 10
8.593064613867959
 20
-1.5878099446357
 10
8.592999340159192
 20
-1.588483026775457
 10
8.592926437055893
 20
-1.589154413494207
 10
8.592848447689574
 20
-1.589872424290648
 10
8.592762828928723
 20
-1.590589587376598
 10
8.592645844879244
 20
-1.591302511910005
 10
8.592529708540268
 20
-1.592012045601412
 10
8.592335582834973
 20
-1.59271479760879
 10
8.592179604102334
 20
-1.593416701905665
 10
8.591571795671345
 20
-1.596160740805417
 10
8.591025022396605
 20
-1.598931058730765
 10
8.590629141591483
 20
-1.601713244603148
 10
8.590581669803288
 20
-1.602044699410005
 10
8.590551152225163
 20
-1.602271885824936
 10
8.59050622356848
 20
-1.602645726156967
 10
8.59046468575381
 20
-1.602993287463403
 10
8.590426538781153
 20
-1.603340848769814
 10
8.590393478071518
 20
-1.603689257786742
 10
8.59032566123124
 20
-1.604386075820596
 10
8.590276494022038
 20
-1.605085436985973
 10
8.590249367285927
 20
-1.605785645861828
 10
8.590204438629244
 20
-1.606950400093612
 10
8.590268016917004
 20
-1.608116002035874
 10
8.590362960493393
 20
-1.60927736542563
 10
8.590947880740788
 20
-1.615652148411742
 10
8.592308456098862
 20
-1.622648303196898
 10
8.594704933692177
 20
-1.630419265382228
 10
8.614523557552855
 20
-1.649637710206459
 10
8.632494172515963
 20
-1.663785998509398
 10
8.648693072526814
 20
-1.673736424399167
 10
8.648693072526814
 20
-1.673736424399167
 10
8.743985057932629
 20
-1.673736424399167
 10
8.743985057932629
 20
-1.673736424399167
 10
8.802258373362317
 20
-1.601125781224242
 10
8.716420903201726
 20
-1.354642084392644
 10
8.513611251509018
 20
-1.54378664276938
 10
8.510174633127942
 20
-1.600451851373981
 10
8.503510780860146
 20
-1.64272208791912
 10
8.494931102854504
 20
-1.673736424399167
 10
8.494931102854504
 20
-1.673736424399167
 10
8.585921805165702
 20
-1.673736424399167
 10
8.585921805165702
 20
-1.673736424399167
 97
        0
 97
        1
330
DA
 75
     2
 76
     1
 98
        1
 10
0.0
 20
0.0
450
        0
451
        0
460
0.0
461
0.0
452
        0
462
0.0
453
        0
470

  0
SPLINE
  5
DC
330
7E
100
AcDbEntity
  8
Deck Box - DF
100
AcDbSpline
210
0.0
220
0.0
230
1.0
 70
     9
 71
     3
 72
    35
 73
    31
 74
     0
 42
0.0000000001
 43
0.0000000001
 40
0.0
 40
0.0
 40
0.0
 40
0.0
 40
1.0
 40
1.0
 40
1.0
 40
2.0
 40
2.0
 40
2.0
 40
3.0
 40
3.0
 40
3.0
 40
4.0
 40
4.0
 40
4.0
 40
5.0
 40
5.0
 40
5.0
 40
6.0
 40
6.0
 40
6.0
 40
7.0
 40
7.0
 40
7.0
 40
8.0
 40
8.0
 40
8.0
 40
9.0
 40
9.0
 40
9.0
 40
10.0
 40
10.0
 40
10.0
 40
10.0
 10
8.681726121995627
 20
-1.124456943502309
 30
0.0
 10
8.73548660278003
 20
-1.102346931643397
 30
0.0
 10
8.702494264849974
 20
-1.016018841351372
 30
0.0
 10
8.654293149694542
 20
-1.064343854116259
 30
0.0
 10
8.648668272997888
 20
-1.08264696562762
 30
0.0
 10
8.638630048960648
 20
-1.052279922644793
 30
0.0
 10
8.654661826698934
 20
-1.050688392693018
 30
0.0
 10
8.729104520235877
 20
-1.008158141516572
 30
0.0
 10
8.739158909341767
 20
-1.122500106237086
 30
0.0
 10
8.675686909065563
 20
-1.139249433633747
 30
0.0
 10
8.592562439269942
 20
-1.152739433853412
 30
0.0
 10
8.570177222354736
 20
-1.05230500035845
 30
0.0
 10
8.495514457005912
 20
-1.034735864404751
 30
0.0
 10
8.088126650720443
 20
-1.035622374509456
 30
0.0
 10
8.495718080151416
 20
-1.483551705860817
 30
0.0
 10
8.499491347492796
 20
-1.146194409120084
 30
0.0
 10
8.433112187237965
 20
-1.029434125496284
 30
0.0
 10
8.314149476635849
 20
-1.233472350133815
 30
0.0
 10
8.441643940315593
 20
-1.178904020798919
 30
0.0
 10
8.447880253644218
 20
-1.162511210589311
 30
0.0
 10
8.449891244904467
 20
-1.182836568247934
 30
0.0
 10
8.449748595263548
 20
-1.191856013573897
 30
0.0
 10
8.303025357021725
 20
-1.250045875001723
 30
0.0
 10
8.381015574134254
 20
-0.9537656147105179
 30
0.0
 10
8.570366665615438
 20
-1.207406005777885
 30
0.0
 10
8.650419205171147
 20
-1.256788419046807
 30
0.0
 10
8.763355748337188
 20
-1.192703743709027
 30
0.0
 10
8.780878682759521
 20
-1.109781051812736
 30
0.0
 10
8.780875279587183
 20
-0.8095217081090595
 30
0.0
 10
8.405486368503741
 20
-1.109141957914011
 30
0.0
 10
8.681726121995627
 20
-1.124456943502309
 30
0.0
  0
HATCH
  5
DD
330
7E
100
AcDbEntity
  8
Deck Box - DF
 62
   250
420
  2301728
440
 33554687
100
AcDbHatch
 10
0.0
 20
0.0
 30
0.0
210
0.0
220
0.0
230
1.0
  2
SOLID
 70
     1
 71
     1
 91
        1
 92
        1
 93
        1
 72
     4
 94
        3
 73
     0
 74
     0
 95
       35
 96
       31
 40
0.0
 40
0.0
 40
0.0
 40
0.0
 40
1.0
 40
1.0
 40
1.0
 40
2.0
 40
2.0
 40
2.0
 40
3.0
 40
3.0
 40
3.0
 40
4.0
 40
4.0
 40
4.0
 40
5.0
 40
5.0
 40
5.0
 40
6.0
 40
6.0
 40
6.0
 40
7.0
 40
7.0
 40
7.0
 40
8.0
 40
8.0
 40
8.0
 40
9.0
 40
9.0
 40
9.0
 40
10.0
 40
10.0
 40
10.0
 40
10.0
 10
8.681726121995627
 20
-1.124456943502309
 10
8.73548660278003
 20
-1.102346931643397
 10
8.702494264849974
 20
-1.016018841351372
 10
8.654293149694542
 20
-1.064343854116259
 10
8.648668272997888
 20
-1.08264696562762
 10
8.638630048960648
 20
-1.052279922644793
 10
8.654661826698934
 20
-1.050688392693018
 10
8.729104520235877
 20
-1.008158141516572
 10
8.739158909341767
 20
-1.122500106237086
 10
8.675686909065563
 20
-1.139249433633747
 10
8.592562439269942
 20
-1.152739433853412
 10
8.570177222354736
 20
-1.05230500035845
 10
8.495514457005912
 20
-1.034735864404751
 10
8.088126650720443
 20
-1.035622374509456
 10
8.495718080151416
 20
-1.483551705860817
 10
8.499491347492796
 20
-1.146194409120084
 10
8.433112187237965
 20
-1.029434125496284
 10
8.314149476635849
 20
-1.233472350133815
 10
8.441643940315593
 20
-1.178904020798919
 10
8.447880253644218
 20
-1.162511210589311
 10
8.449891244904467
 20
-1.182836568247934
 10
8.449748595263548
 20
-1.191856013573897
 10
8.303025357021725
 20
-1.250045875001723
 10
8.381015574134254
 20
-0.9537656147105179
 10
8.570366665615438
 20
-1.207406005777885
 10
8.650419205171147
 20
-1.256788419046807
 10
8.763355748337188
 20
-1.192703743709027
 10
8.780878682759521
 20
-1.109781051812736
 10
8.780875279587183
 20
-0.8095217081090595
 10
8.405486368503741
 20
-1.109141957914011
 10
8.681726121995627
 20
-1.124456943502309
 97
        0
 97
        1
330
DC
 75
     2
 76
     1
 98
        1
 10
0.0
 20
0.0
450
        0
451
        0
460
0.0
461
0.0
452
        0
462
0.0
453
        0
470

  0
SPLINE
  5
DE
330
7E
100
AcDbEntity
  8
Deck Box - DF
100
AcDbSpline
210
0.0
220
0.0
230
1.0
 70
     9
 71
     3
 72
    29
 73
    25
 74
     0
 42
0.0000000001
 43
0.0000000001
 40
0.0
 40
0.0
 40
0.0
 40
0.0
 40
1.0
 40
1.0
 40
1.0
 40
2.0
 40
2.0
 40
2.0
 40
3.0
 40
3.0
 40
3.0
 40
4.0
 40
4.0
 40
4.0
 40
5.0
 40
5.0
 40
5.0
 40
6.0
 40
6.0
 40
6.0
 40
7.0
 40
7.0
 40
7.0
 40
8.0
 40
8.0
 40
8.0
 40
8.0
 10
8.429323605621018
 20
-1.324789871312608
 30
0.0
 10
8.443710800321923
 20
-1.70065593638387
 30
0.0
 10
8.219682517000439
 20
-1.424917943047843
 30
0.0
 10
8.352920401213673
 20
-1.454808768004189
 30
0.0
 10
8.284871984921791
 20
-1.462407315244566
 30
0.0
 10
8.331733384562767
 20
-1.534037279997808
 30
0.0
 10
8.382750057641183
 20
-1.507890273305179
 30
0.0
 10
8.544007110592549
 20
-1.301802139475423
 30
0.0
 10
8.074129402851086
 20
-1.403568794192185
 30
0.0
 10
8.309083854595099
 20
-1.570638073824802
 30
0.0
 10
8.384960701679245
 20
-1.604245053999862
 30
0.0
 10
8.505934970736991
 20
-1.559129988584042
 30
0.0
 10
8.517469172619104
 20
-1.474396789174445
 30
0.0
 10
8.438223468507683
 20
-1.197703257387855
 30
0.0
 10
8.718474144209974
 20
-1.307344055662181
 30
0.0
 10
8.580997041641341
 20
-1.37948850134526
 30
0.0
 10
8.573825706709966
 20
-1.374565254939953
 30
0.0
 10
8.559182139692135
 20
-1.361817503338139
 30
0.0
 10
8.575920926485853
 20
-1.366478597149049
 30
0.0
 10
8.698578347867673
 20
-1.305657126985263
 30
0.0
 10
8.464309351754183
 20
-1.277210209563122
 30
0.0
 10
8.514081030948444
 20
-1.389627912192824
 30
0.0
 10
8.788833881721831
 20
-1.5723019930531
 30
0.0
 10
8.674179303715188
 20
-1.034031103090834
 30
0.0
 10
8.429323605621018
 20
-1.324789871312608
 30
0.0
  0
HATCH
  5
DF
330
7E
100
AcDbEntity
  8
Deck Box - DF
 62
   250
420
  2301728
440
 33554687
100
AcDbHatch
 10
0.0
 20
0.0
 30
0.0
210
0.0
220
0.0
230
1.0
  2
SOLID
 70
     1
 71
     1
 91
        1
 92
        1
 93
        1
 72
     4
 94
        3
 73
     0
 74
     0
 95
       29
 96
       25
 40
0.0
 40
0.0
 40
0.0
 40
0.0
 40
1.0
 40
1.0
 40
1.0
 40
2.0
 40
2.0
 40
2.0
 40
3.0
 40
3.0
 40
3.0
 40
4.0
 40
4.0
 40
4.0
 40
5.0
 40
5.0
 40
5.0
 40
6.0
 40
6.0
 40
6.0
 40
7.0
 40
7.0
 40
7.0
 40
8.0
 40
8.0
 40
8.0
 40
8.0
 10
8.429323605621018
 20
-1.324789871312608
 10
8.443710800321923
 20
-1.70065593638387
 10
8.219682517000439
 20
-1.424917943047843
 10
8.352920401213673
 20
-1.454808768004189
 10
8.284871984921791
 20
-1.462407315244566
 10
8.331733384562767
 20
-1.534037279997808
 10
8.382750057641183
 20
-1.507890273305179
 10
8.544007110592549
 20
-1.301802139475423
 10
8.074129402851086
 20
-1.403568794192185
 10
8.309083854595099
 20
-1.570638073824802
 10
8.384960701679245
 20
-1.604245053999862
 10
8.505934970736991
 20
-1.559129988584042
 10
8.517469172619104
 20
-1.474396789174445
 10
8.438223468507683
 20
-1.197703257387855
 10
8.718474144209974
 20
-1.307344055662181
 10
8.580997041641341
 20
-1.37948850134526
 10
8.573825706709966
 20
-1.374565254939953
 10
8.559182139692135
 20
-1.361817503338139
 10
8.575920926485853
 20
-1.366478597149049
 10
8.698578347867673
 20
-1.305657126985263
 10
8.464309351754183
 20
-1.277210209563122
 10
8.514081030948444
 20
-1.389627912192824
 10
8.788833881721831
 20
-1.5723019930531
 10
8.674179303715188
 20
-1.034031103090834
 10
8.429323605621018
 20
-1.324789871312608
 97
        0
 97
        1
330
DE
 75
     2
 76
     1
 98
        1
 10
0.0
 20
0.0
450
        0
451
        0
460
0.0
461
0.0
452
        0
462
0.0
453
        0
470

  0
SPLINE
  5
E0
330
7E
100
AcDbEntity
  8
Deck Box - DF
100
AcDbSpline
210
0.0
220
0.0
230
1.0
 70
     9
 71
     3
 72
    29
 73
    25
 74
     0
 42
0.0000000001
 43
0.0000000001
 40
0.0
 40
0.0
 40
0.0
 40
0.0
 40
1.0
 40
1.0
 40
1.0
 40
2.0
 40
2.0
 40
2.0
 40
3.0
 40
3.0
 40
3.0
 40
4.0
 40
4.0
 40
4.0
 40
5.0
 40
5.0
 40
5.0
 40
6.0
 40
6.0
 40
6.0
 40
7.0
 40
7.0
 40
7.0
 40
8.0
 40
8.0
 40
8.0
 40
8.0
 10
8.378649234961281
 20
-0.8420467271327096
 30
0.0
 10
8.340921099110573
 20
-1.155009354739755
 30
0.0
 10
8.119368907270326
 20
-0.9295674307560501
 30
0.0
 10
8.279774032743791
 20
-0.9109778645360316
 30
0.0
 10
8.284403481528517
 20
-0.9191689697116645
 30
0.0
 10
8.292722536334395
 20
-0.9386463387020285
 30
0.0
 10
8.279070994056155
 20
-0.9265053643576568
 30
0.0
 10
8.139342125783539
 20
-0.934547812983232
 30
0.0
 10
8.34577544086801
 20
-1.066898161446235
 30
0.0
 10
8.346377518776003
 20
-0.930126379384319
 30
0.0
 10
8.179845832282126
 20
-0.6241069175316877
 30
0.0
 10
8.034195444123193
 20
-1.215970691327192
 30
0.0
 10
8.398303973262221
 20
-1.033728877861221
 30
0.0
 10
8.549754217896053
 20
-0.6427145810708528
 30
0.0
 10
8.625947843606303
 20
-1.024815431118769
 30
0.0
 10
8.523790565256401
 20
-0.9346132218652453
 30
0.0
 10
8.590403126414861
 20
-0.9568504320243896
 30
0.0
 10
8.57666934080483
 20
-0.8630230712140775
 30
0.0
 10
8.518196884306235
 20
-0.8672363856428798
 30
0.0
 10
8.28178077003862
 20
-1.006638742308268
 30
0.0
 10
8.762208879255769
 20
-1.109871021342188
 30
0.0
 10
8.613074777002768
 20
-0.8356247641695265
 30
0.0
 10
8.556408554228154
 20
-0.767842030932166
 30
0.0
 10
8.424812984270804
 20
-0.7605834547585017
 30
0.0
 10
8.378649234961281
 20
-0.8420467271327096
 30
0.0
  0
HATCH
  5
E1
330
7E
100
AcDbEntity
  8
Deck Box - DF
 62
   250
420
  2301728
440
 33554687
100
AcDbHatch
 10
0.0
 20
0.0
 30
0.0
210
0.0
220
0.0
230
1.0
  2
SOLID
 70
     1
 71
     1
 91
        1
 92
        1
 93
        1
 72
     4
 94
        3
 73
     0
 74
     0
 95
       29
 96
       25
 40
0.0
 40
0.0
 40
0.0
 40
0.0
 40
1.0
 40
1.0
 40
1.0
 40
2.0
 40
2.0
 40
2.0
 40
3.0
 40
3.0
 40
3.0
 40
4.0
 40
4.0
 40
4.0
 40
5.0
 40
5.0
 40
5.0
 40
6.0
 40
6.0
 40
6.0
 40
7.0
 40
7.0
 40
7.0
 40
8.0
 40
8.0
 40
8.0
 40
8.0
 10
8.378649234961281
 20
-0.8420467271327096
 10
8.340921099110573
 20
-1.155009354739755
 10
8.119368907270326
 20
-0.9295674307560501
 10
8.279774032743791
 20
-0.9109778645360316
 10
8.284403481528517
 20
-0.9191689697116645
 10
8.292722536334395
 20
-0.9386463387020285
 10
8.279070994056155
 20
-0.9265053643576568
 10
8.139342125783539
 20
-0.934547812983232
 10
8.34577544086801
 20
-1.066898161446235
 10
8.346377518776003
 20
-0.930126379384319
 10
8.179845832282126
 20
-0.6241069175316877
 10
8.034195444123193
 20
-1.215970691327192
 10
8.398303973262221
 20
-1.033728877861221
 10
8.549754217896053
 20
-0.6427145810708528
 10
8.625947843606303
 20
-1.024815431118769
 10
8.523790565256401
 20
-0.9346132218652453
 10
8.590403126414861
 20
-0.9568504320243896
 10
8.57666934080483
 20
-0.8630230712140775
 10
8.518196884306235
 20
-0.8672363856428798
 10
8.28178077003862
 20
-1.006638742308268
 10
8.762208879255769
 20
-1.109871021342188
 10
8.613074777002768
 20
-0.8356247641695265
 10
8.556408554228154
 20
-0.767842030932166
 10
8.424812984270804
 20
-0.7605834547585017
 10
8.378649234961281
 20
-0.8420467271327096
 97
        0
 97
        1
330
E0
 75
     2
 76
     1
 98
        1
 10
0.0
 20
0.0
450
        0
451
        0
460
0.0
461
0.0
452
        0
462
0.0
453
        0
470

  0
SPLINE
  5
E2
330
7E
100
AcDbEntity
  8
Deck Box - DF
100
AcDbSpline
210
0.0
220
0.0
230
1.0
 70
     9
 71
     3
 72
    41
 73
    37
 74
     0
 42
0.0000000001
 43
0.0000000001
 40
0.0
 40
0.0
 40
0.0
 40
0.0
 40
1.0
 40
1.0
 40
1.0
 40
2.0
 40
2.0
 40
2.0
 40
3.0
 40
3.0
 40
3.0
 40
4.0
 40
4.0
 40
4.0
 40
5.0
 40
5.0
 40
5.0
 40
6.0
 40
6.0
 40
6.0
 40
7.0
 40
7.0
 40
7.0
 40
8.0
 40
8.0
 40
8.0
 40
9.0
 40
9.0
 40
9.0
 40
10.0
 40
10.0
 40
10.0
 40
11.0
 40
11.0
 40
11.0
 40
12.0
 40
12.0
 40
12.0
 40
12.0
 10
7.615074033405107
 20
-1.020419586557965
 30
0.0
 10
7.633853126047546
 20
-0.9734137938661053
 30
0.0
 10
7.537599844388497
 20
-0.9419252382048549
 30
0.0
 10
7.544936948013805
 20
-1.001284443249586
 30
0.0
 10
7.55653371849904
 20
-1.015860128727202
 30
0.0
 10
7.523769715927805
 20
-1.0038027597704
 30
0.0
 10
7.533612200183394
 20
-0.9928060274921032
 30
0.0
 10
7.549509931838201
 20
-0.9205205216051378
 30
0.0
 10
7.653510083733281
 20
-0.9832870080678175
 30
0.0
 10
7.623404510632099
 20
-1.033134149595209
 30
0.0
 10
7.576814422399769
 20
-1.093314708122382
 30
0.0
 10
7.476002017943351
 20
-1.046666449043313
 30
0.0
 10
7.408976444342088
 20
-1.082791255747022
 30
0.0
 10
7.250129652464996
 20
-1.166105769320122
 30
0.0
 10
7.40690335449138
 20
-1.374439075183216
 30
0.0
 10
7.551904135481031
 20
-1.271328607149775
 30
0.0
 10
7.595108090325841
 20
-1.218489034489847
 30
0.0
 10
7.575451998954273
 20
-1.161089169290322
 30
0.0
 10
7.506268725483348
 20
-1.14765258312069
 30
0.0
 10
7.360914777076585
 20
-1.118650346808635
 30
0.0
 10
7.450921355900996
 20
-1.316351409913042
 30
0.0
 10
7.49364595022871
 20
-1.203586699625967
 30
0.0
 10
7.484095991397124
 20
-1.189782006865091
 30
0.0
 10
7.502739072712099
 20
-1.200799050391424
 30
0.0
 10
7.510289289627557
 20
-1.206335952254575
 30
0.0
 10
7.5118027405131
 20
-1.269690073729078
 30
0.0
 10
7.391582299314045
 20
-1.247975958392139
 30
0.0
 10
7.408304473303966
 20
-1.188517979469869
 30
0.0
 10
7.431743758732308
 20
-1.103054925384867
 30
0.0
 10
7.539708741892253
 20
-1.160757233414819
 30
0.0
 10
7.607675421472473
 20
-1.14020252863381
 30
0.0
 10
7.705456881358308
 20
-1.119941919594996
 30
0.0
 10
7.729946717124776
 20
-1.010542198812067
 30
0.0
 10
7.671847933682884
 20
-0.9494902042731103
 30
0.0
 10
7.417176685669548
 20
-0.7681416434954068
 30
0.0
 10
7.409233739655771
 20
-1.184085119144065
 30
0.0
 10
7.615074033405107
 20
-1.020419586557965
 30
0.0
  0
HATCH
  5
E3
330
7E
100
AcDbEntity
  8
Deck Box - DF
 62
   250
420
  2301728
440
 33554687
100
AcDbHatch
 10
0.0
 20
0.0
 30
0.0
210
0.0
220
0.0
230
1.0
  2
SOLID
 70
     1
 71
     1
 91
        1
 92
        1
 93
        1
 72
     4
 94
        3
 73
     0
 74
     0
 95
       41
 96
       37
 40
0.0
 40
0.0
 40
0.0
 40
0.0
 40
1.0
 40
1.0
 40
1.0
 40
2.0
 40
2.0
 40
2.0
 40
3.0
 40
3.0
 40
3.0
 40
4.0
 40
4.0
 40
4.0
 40
5.0
 40
5.0
 40
5.0
 40
6.0
 40
6.0
 40
6.0
 40
7.0
 40
7.0
 40
7.0
 40
8.0
 40
8.0
 40
8.0
 40
9.0
 40
9.0
 40
9.0
 40
10.0
 40
10.0
 40
10.0
 40
11.0
 40
11.0
 40
11.0
 40
12.0
 40
12.0
 40
12.0
 40
12.0
 10
7.615074033405107
 20
-1.020419586557965
 10
7.633853126047546
 20
-0.9734137938661053
 10
7.537599844388497
 20
-0.9419252382048549
 10
7.544936948013805
 20
-1.001284443249586
 10
7.55653371849904
 20
-1.015860128727202
 10
7.523769715927805
 20
-1.0038027597704
 10
7.533612200183394
 20
-0.9928060274921032
 10
7.549509931838201
 20
-0.9205205216051378
 10
7.653510083733281
 20
-0.9832870080678175
 10
7.623404510632099
 20
-1.033134149595209
 10
7.576814422399769
 20
-1.093314708122382
 10
7.476002017943351
 20
-1.046666449043313
 10
7.408976444342088
 20
-1.082791255747022
 10
7.250129652464996
 20
-1.166105769320122
 10
7.40690335449138
 20
-1.374439075183216
 10
7.551904135481031
 20
-1.271328607149775
 10
7.595108090325841
 20
-1.218489034489847
 10
7.575451998954273
 20
-1.161089169290322
 10
7.506268725483348
 20
-1.14765258312069
 10
7.360914777076585
 20
-1.118650346808635
 10
7.450921355900996
 20
-1.316351409913042
 10
7.49364595022871
 20
-1.203586699625967
 10
7.484095991397124
 20
-1.189782006865091
 10
7.502739072712099
 20
-1.200799050391424
 10
7.510289289627557
 20
-1.206335952254575
 10
7.5118027405131
 20
-1.269690073729078
 10
7.391582299314045
 20
-1.247975958392139
 10
7.408304473303966
 20
-1.188517979469869
 10
7.431743758732308
 20
-1.103054925384867
 10
7.539708741892253
 20
-1.160757233414819
 10
7.607675421472473
 20
-1.14020252863381
 10
7.705456881358308
 20
-1.119941919594996
 10
7.729946717124776
 20
-1.010542198812067
 10
7.671847933682884
 20
-0.9494902042731103
 10
7.417176685669548
 20
-0.7681416434954068
 10
7.409233739655771
 20
-1.184085119144065
 10
7.615074033405107
 20
-1.020419586557965
 97
        0
 97
        1
330
E2
 75
     2
 76
     1
 98
        1
 10
0.0
 20
0.0
450
        0
451
        0
460
0.0
461
0.0
452
        0
462
0.0
453
        0
470

  0
SPLINE
  5
E4
330
7E
100
AcDbEntity
  8
Deck Box - DF
100
AcDbSpline
210
0.0
220
0.0
230
1.0
 70
     9
 71
     3
 72
    26
 73
    22
 74
     0
 42
0.0000000001
 43
0.0000000001
 40
0.0
 40
0.0
 40
0.0
 40
0.0
 40
1.0
 40
1.0
 40
1.0
 40
2.0
 40
2.0
 40
2.0
 40
3.0
 40
3.0
 40
3.0
 40
4.0
 40
4.0
 40
4.0
 40
5.0
 40
5.0
 40
5.0
 40
6.0
 40
6.0
 40
6.0
 40
7.0
 40
7.0
 40
7.0
 40
7.0
 10
8.339527965647473
 20
-0.7346113633639991
 30
0.0
 10
8.364101397722127
 20
-0.7588143459486344
 30
0.0
 10
8.366469900868827
 20
-0.8089030164672976
 30
0.0
 10
8.312626720530285
 20
-0.7929618204495151
 30
0.0
 10
8.310448104536362
 20
-0.7861352077650407
 30
0.0
 10
8.307086932390095
 20
-0.7705169894490684
 30
0.0
 10
8.314950295020302
 20
-0.7822136989759782
 30
0.0
 10
8.375134349924817
 20
-0.7989263115519458
 30
0.0
 10
8.348689173058497
 20
-0.7500142632120893
 30
0.0
 10
8.316408357086276
 20
-0.7346113633639991
 30
0.0
 10
8.316408357086276
 20
-0.7346113633639991
 30
0.0
 10
8.284436955447819
 20
-0.7346113633639991
 30
0.0
 10
8.284436955447819
 20
-0.7346113633639991
 30
0.0
 10
8.277601017947819
 20
-0.739510282363565
 30
0.0
 10
8.272171432173081
 20
-0.7487537176934262
 30
0.0
 10
8.26951979371822
 20
-0.7640820190172235
 30
0.0
 10
8.349609786665268
 20
-0.9378897989651401
 30
0.0
 10
8.403035045725598
 20
-0.8190797810614816
 30
0.0
 10
8.382182215050685
 20
-0.7346113633639991
 30
0.0
 10
8.382182215050685
 20
-0.7346113633639991
 30
0.0
 10
8.339527965647473
 20
-0.7346113633639991
 30
0.0
 10
8.339527965647473
 20
-0.7346113633639991
 30
0.0
  0
HATCH
  5
E5
330
7E
100
AcDbEntity
  8
Deck Box - DF
 62
   250
420
  2301728
440
 33554687
100
AcDbHatch
 10
0.0
 20
0.0
 30
0.0
210
0.0
220
0.0
230
1.0
  2
SOLID
 70
     1
 71
     1
 91
        1
 92
        1
 93
        1
 72
     4
 94
        3
 73
     0
 74
     0
 95
       26
 96
       22
 40
0.0
 40
0.0
 40
0.0
 40
0.0
 40
1.0
 40
1.0
 40
1.0
 40
2.0
 40
2.0
 40
2.0
 40
3.0
 40
3.0
 40
3.0
 40
4.0
 40
4.0
 40
4.0
 40
5.0
 40
5.0
 40
5.0
 40
6.0
 40
6.0
 40
6.0
 40
7.0
 40
7.0
 40
7.0
 40
7.0
 10
8.339527965647473
 20
-0.7346113633639991
 10
8.364101397722127
 20
-0.7588143459486344
 10
8.366469900868827
 20
-0.8089030164672976
 10
8.312626720530285
 20
-0.7929618204495151
 10
8.310448104536362
 20
-0.7861352077650407
 10
8.307086932390095
 20
-0.7705169894490684
 10
8.314950295020302
 20
-0.7822136989759782
 10
8.375134349924817
 20
-0.7989263115519458
 10
8.348689173058497
 20
-0.7500142632120893
 10
8.316408357086276
 20
-0.7346113633639991
 10
8.316408357086276
 20
-0.7346113633639991
 10
8.284436955447819
 20
-0.7346113633639991
 10
8.284436955447819
 20
-0.7346113633639991
 10
8.277601017947819
 20
-0.739510282363565
 10
8.272171432173081
 20
-0.7487537176934262
 10
8.26951979371822
 20
-0.7640820190172235
 10
8.349609786665268
 20
-0.9378897989651401
 10
8.403035045725598
 20
-0.8190797810614816
 10
8.382182215050685
 20
-0.7346113633639991
 10
8.382182215050685
 20
-0.7346113633639991
 10
8.339527965647473
 20
-0.7346113633639991
 10
8.339527965647473
 20
-0.7346113633639991
 97
        0
 97
        1
330
E4
 75
     2
 76
     1
 98
        1
 10
0.0
 20
0.0
450
        0
451
        0
460
0.0
461
0.0
452
        0
462
0.0
453
        0
470

  0
SPLINE
  5
E6
330
7E
100
AcDbEntity
  8
Deck Box - DF
100
AcDbSpline
210
0.0
220
0.0
230
1.0
 70
     9
 71
     3
 72
    38
 73
    34
 74
     0
 42
0.0000000001
 43
0.0000000001
 40
0.0
 40
0.0
 40
0.0
 40
0.0
 40
1.0
 40
1.0
 40
1.0
 40
2.0
 40
2.0
 40
2.0
 40
3.0
 40
3.0
 40
3.0
 40
4.0
 40
4.0
 40
4.0
 40
5.0
 40
5.0
 40
5.0
 40
6.0
 40
6.0
 40
6.0
 40
7.0
 40
7.0
 40
7.0
 40
8.0
 40
8.0
 40
8.0
 40
9.0
 40
9.0
 40
9.0
 40
10.0
 40
10.0
 40
10.0
 40
11.0
 40
11.0
 40
11.0
 40
11.0
 10
8.28337986044999
 20
-0.7346113633639991
 30
0.0
 10
8.28337986044999
 20
-0.7346113633639991
 30
0.0
 10
8.144777497711276
 20
-0.7346113633639991
 30
0.0
 10
8.144777497711276
 20
-0.7346113633639991
 30
0.0
 10
8.140654233822386
 20
-0.7353098768188602
 30
0.0
 10
8.136377534332369
 20
-0.7357930718058393
 30
0.0
 10
8.131780400272038
 20
-0.7357930718058393
 30
0.0
 10
8.131780400272038
 20
-0.7357930718058393
 30
0.0
 10
8.116430906185668
 20
-0.7357930718058393
 30
0.0
 10
8.116430906185668
 20
-0.7357930718058393
 30
0.0
 10
8.118551877865355
 20
-0.7491775729451622
 30
0.0
 10
8.127986048058497
 20
-0.7640421766235477
 30
0.0
 10
8.145000445573689
 20
-0.7685036770033346
 30
0.0
 10
8.15483727825598
 20
-0.7661080471205094
 30
0.0
 10
8.163081262902247
 20
-0.7632614352498624
 30
0.0
 10
8.170044356977768
 20
-0.760096931940388
 30
0.0
 10
8.164276534712143
 20
-0.7660715955688602
 30
0.0
 10
8.15839427152855
 20
-0.772347196426065
 30
0.0
 10
8.152361115875338
 20
-0.7790246120619157
 30
0.0
 10
8.13054274293697
 20
-0.7764229885267594
 30
0.0
 10
8.114779566124903
 20
-0.7548936848700755
 30
0.0
 10
8.110624936947386
 20
-0.7357930718058393
 30
0.0
 10
8.110624936947386
 20
-0.7357930718058393
 30
0.0
 10
8.068745494944348
 20
-0.7357930718058393
 30
0.0
 10
8.068745494944348
 20
-0.7357930718058393
 30
0.0
 10
8.070379033084538
 20
-0.7456850056708567
 30
0.0
 10
8.072912839779418
 20
-0.7565933444295372
 30
0.0
 10
8.076611400706067
 20
-0.7687545993123624
 30
0.0
 10
8.107194252539834
 20
-0.829525269885279
 30
0.0
 10
8.195998709462577
 20
-0.8651002888739816
 30
0.0
 10
8.237099953223427
 20
-0.8185253783922235
 30
0.0
 10
8.251592411990788
 20
-0.7739654757771934
 30
0.0
 10
8.267748078765963
 20
-0.748134041315388
 30
0.0
 10
8.28337986044999
 20
-0.7346113633639991
 30
0.0
  0
HATCH
  5
E7
330
7E
100
AcDbEntity
  8
Deck Box - DF
 62
   250
420
  2301728
440
 33554687
100
AcDbHatch
 10
0.0
 20
0.0
 30
0.0
210
0.0
220
0.0
230
1.0
  2
SOLID
 70
     1
 71
     1
 91
        1
 92
        1
 93
        1
 72
     4
 94
        3
 73
     0
 74
     0
 95
       38
 96
       34
 40
0.0
 40
0.0
 40
0.0
 40
0.0
 40
1.0
 40
1.0
 40
1.0
 40
2.0
 40
2.0
 40
2.0
 40
3.0
 40
3.0
 40
3.0
 40
4.0
 40
4.0
 40
4.0
 40
5.0
 40
5.0
 40
5.0
 40
6.0
 40
6.0
 40
6.0
 40
7.0
 40
7.0
 40
7.0
 40
8.0
 40
8.0
 40
8.0
 40
9.0
 40
9.0
 40
9.0
 40
10.0
 40
10.0
 40
10.0
 40
11.0
 40
11.0
 40
11.0
 40
11.0
 10
8.28337986044999
 20
-0.7346113633639991
 10
8.28337986044999
 20
-0.7346113633639991
 10
8.144777497711276
 20
-0.7346113633639991
 10
8.144777497711276
 20
-0.7346113633639991
 10
8.140654233822386
 20
-0.7353098768188602
 10
8.136377534332369
 20
-0.7357930718058393
 10
8.131780400272038
 20
-0.7357930718058393
 10
8.131780400272038
 20
-0.7357930718058393
 10
8.116430906185668
 20
-0.7357930718058393
 10
8.116430906185668
 20
-0.7357930718058393
 10
8.118551877865355
 20
-0.7491775729451622
 10
8.127986048058497
 20
-0.7640421766235477
 10
8.145000445573689
 20
-0.7685036770033346
 10
8.15483727825598
 20
-0.7661080471205094
 10
8.163081262902247
 20
-0.7632614352498624
 10
8.170044356977768
 20
-0.760096931940388
 10
8.164276534712143
 20
-0.7660715955688602
 10
8.15839427152855
 20
-0.772347196426065
 10
8.152361115875338
 20
-0.7790246120619157
 10
8.13054274293697
 20
-0.7764229885267594
 10
8.114779566124903
 20
-0.7548936848700755
 10
8.110624936947386
 20
-0.7357930718058393
 10
8.110624936947386
 20
-0.7357930718058393
 10
8.068745494944348
 20
-0.7357930718058393
 10
8.068745494944348
 20
-0.7357930718058393
 10
8.070379033084538
 20
-0.7456850056708567
 10
8.072912839779418
 20
-0.7565933444295372
 10
8.076611400706067
 20
-0.7687545993123624
 10
8.107194252539834
 20
-0.829525269885279
 10
8.195998709462577
 20
-0.8651002888739816
 10
8.237099953223427
 20
-0.8185253783922235
 10
8.251592411990788
 20
-0.7739654757771934
 10
8.267748078765963
 20
-0.748134041315388
 10
8.28337986044999
 20
-0.7346113633639991
 97
        0
 97
        1
330
E6
 75
     2
 76
     1
 98
        1
 10
0.0
 20
0.0
450
        0
451
        0
460
0.0
461
0.0
452
        0
462
0.0
453
        0
470

  0
SPLINE
  5
E8
330
7E
100
AcDbEntity
  8
Deck Box - DF
100
AcDbSpline
210
0.0
220
0.0
230
1.0
 70
     9
 71
     3
 72
    14
 73
    10
 74
     0
 42
0.0000000001
 43
0.0000000001
 40
0.0
 40
0.0
 40
0.0
 40
0.0
 40
1.0
 40
1.0
 40
1.0
 40
2.0
 40
2.0
 40
2.0
 40
3.0
 40
3.0
 40
3.0
 40
3.0
 10
8.739104788564139
 20
-0.7346113633639991
 30
0.0
 10
8.739104788564139
 20
-0.7346113633639991
 30
0.0
 10
8.673709009484278
 20
-0.7346113633639991
 30
0.0
 10
8.673709009484278
 20
-0.7346113633639991
 30
0.0
 10
8.586424497494261
 20
-0.8396443901652142
 30
0.0
 10
8.646346609853202
 20
-0.9993149020467374
 30
0.0
 10
8.834389992285927
 20
-0.9006871758097455
 30
0.0
 10
8.864043753407889
 20
-0.7402986531318068
 30
0.0
 10
8.690842086469956
 20
-1.009516250245509
 30
0.0
 10
8.739104788564139
 20
-0.7346113633639991
 30
0.0
  0
HATCH
  5
E9
330
7E
100
AcDbEntity
  8
Deck Box - DF
 62
   250
420
  2301728
440
 33554687
100
AcDbHatch
 10
0.0
 20
0.0
 30
0.0
210
0.0
220
0.0
230
1.0
  2
SOLID
 70
     1
 71
     1
 91
        1
 92
        1
 93
        1
 72
     4
 94
        3
 73
     0
 74
     0
 95
       14
 96
       10
 40
0.0
 40
0.0
 40
0.0
 40
0.0
 40
1.0
 40
1.0
 40
1.0
 40
2.0
 40
2.0
 40
2.0
 40
3.0
 40
3.0
 40
3.0
 40
3.0
 10
8.739104788564139
 20
-0.7346113633639991
 10
8.739104788564139
 20
-0.7346113633639991
 10
8.673709009484278
 20
-0.7346113633639991
 10
8.673709009484278
 20
-0.7346113633639991
 10
8.586424497494261
 20
-0.8396443901652142
 10
8.646346609853202
 20
-0.9993149020467374
 10
8.834389992285927
 20
-0.9006871758097455
 10
8.864043753407889
 20
-0.7402986531318068
 10
8.690842086469956
 20
-1.009516250245509
 10
8.739104788564139
 20
-0.7346113633639991
 97
        0
 97
        1
330
E8
 75
     2
 76
     1
 98
        1
 10
0.0
 20
0.0
450
        0
451
        0
460
0.0
461
0.0
452
        0
462
0.0
453
        0
470

  0
SPLINE
  5
EA
330
7E
100
AcDbEntity
  8
Deck Box - DF
100
AcDbSpline
210
0.0
220
0.0
230
1.0
 70
     9
 71
     3
 72
    17
 73
    13
 74
     0
 42
0.0000000001
 43
0.0000000001
 40
0.0
 40
0.0
 40
0.0
 40
0.0
 40
1.0
 40
1.0
 40
1.0
 40
2.0
 40
2.0
 40
2.0
 40
3.0
 40
3.0
 40
3.0
 40
4.0
 40
4.0
 40
4.0
 40
4.0
 10
8.837005179189139
 20
-0.7346113633639991
 30
0.0
 10
8.837005179189139
 20
-0.7346113633639991
 30
0.0
 10
8.762870352528983
 20
-0.7346113633639991
 30
0.0
 10
8.762870352528983
 20
-0.7346113633639991
 30
0.0
 10
8.736738828548949
 20
-0.7507348171400407
 30
0.0
 10
8.723061867285927
 20
-0.785412110705579
 30
0.0
 10
8.762710982954331
 20
-0.8452062187784955
 30
0.0
 10
8.805593266482976
 20
-0.8634709892863206
 30
0.0
 10
8.875097898373168
 20
-0.780208863635279
 30
0.0
 10
8.802061704525511
 20
-0.7833648898396934
 30
0.0
 10
8.839550006120564
 20
-0.7620898993340512
 30
0.0
 10
8.845647587772038
 20
-0.7450136189521067
 30
0.0
 10
8.837005179189139
 20
-0.7346113633639991
 30
0.0
  0
HATCH
  5
EB
330
7E
100
AcDbEntity
  8
Deck Box - DF
 62
   250
420
  2301728
440
 33554687
100
AcDbHatch
 10
0.0
 20
0.0
 30
0.0
210
0.0
220
0.0
230
1.0
  2
SOLID
 70
     1
 71
     1
 91
        1
 92
        1
 93
        1
 72
     4
 94
        3
 73
     0
 74
     0
 95
       17
 96
       13
 40
0.0
 40
0.0
 40
0.0
 40
0.0
 40
1.0
 40
1.0
 40
1.0
 40
2.0
 40
2.0
 40
2.0
 40
3.0
 40
3.0
 40
3.0
 40
4.0
 40
4.0
 40
4.0
 40
4.0
 10
8.837005179189139
 20
-0.7346113633639991
 10
8.837005179189139
 20
-0.7346113633639991
 10
8.762870352528983
 20
-0.7346113633639991
 10
8.762870352528983
 20
-0.7346113633639991
 10
8.736738828548949
 20
-0.7507348171400407
 10
8.723061867285927
 20
-0.785412110705579
 10
8.762710982954331
 20
-0.8452062187784955
 10
8.805593266482976
 20
-0.8634709892863206
 10
8.875097898373168
 20
-0.780208863635279
 10
8.802061704525511
 20
-0.7833648898396934
 10
8.839550006120564
 20
-0.7620898993340512
 10
8.845647587772038
 20
-0.7450136189521067
 10
8.837005179189139
 20
-0.7346113633639991
 97
        0
 97
        1
330
EA
 75
     2
 76
     1
 98
        1
 10
0.0
 20
0.0
450
        0
451
        0
460
0.0
461
0.0
452
        0
462
0.0
453
        0
470

  0
SPLINE
  5
EC
330
7E
100
AcDbEntity
  8
Deck Box - DF
100
AcDbSpline
210
0.0
220
0.0
230
1.0
 70
     9
 71
     3
 72
    17
 73
    13
 74
     0
 42
0.0000000001
 43
0.0000000001
 40
0.0
 40
0.0
 40
0.0
 40
0.0
 40
1.0
 40
1.0
 40
1.0
 40
2.0
 40
2.0
 40
2.0
 40
3.0
 40
3.0
 40
3.0
 40
4.0
 40
4.0
 40
4.0
 40
4.0
 10
8.280845834764249
 20
-1.267719558060321
 30
0.0
 10
8.300373286959686
 20
-1.275764799983423
 30
0.0
 10
8.314904692609944
 20
-1.287194383521384
 30
0.0
 10
8.320282423738438
 20
-1.305311712115541
 30
0.0
 10
8.338991492195038
 20
-1.357532661179586
 30
0.0
 10
8.242352435755012
 20
-1.364227385497706
 30
0.0
 10
8.238250248801174
 20
-1.310494529700261
 30
0.0
 10
8.243967557439216
 20
-1.306525085107308
 30
0.0
 10
8.258309096832286
 20
-1.298981089629326
 30
0.0
 10
8.251650731451894
 20
-1.309786428658058
 30
0.0
 10
8.288832858762791
 20
-1.393410047505072
 30
0.0
 10
8.334750454453342
 20
-1.295962711811461
 30
0.0
 10
8.280845834764249
 20
-1.267719558060321
 30
0.0
  0
SPLINE
  5
ED
330
7E
100
AcDbEntity
  8
Deck Box - DF
100
AcDbSpline
210
0.0
220
0.0
230
1.0
 70
     9
 71
     3
 72
    26
 73
    22
 74
     0
 42
0.0000000001
 43
0.0000000001
 40
0.0
 40
0.0
 40
0.0
 40
0.0
 40
1.0
 40
1.0
 40
1.0
 40
2.0
 40
2.0
 40
2.0
 40
3.0
 40
3.0
 40
3.0
 40
4.0
 40
4.0
 40
4.0
 40
5.0
 40
5.0
 40
5.0
 40
6.0
 40
6.0
 40
6.0
 40
7.0
 40
7.0
 40
7.0
 40
7.0
 10
8.209644354051635
 20
-1.361693821400864
 30
0.0
 10
8.337105588405165
 20
-1.463586095956303
 30
0.0
 10
8.44794913195162
 20
-1.301756487888774
 30
0.0
 10
8.310816640373735
 20
-1.215344704384695
 30
0.0
 10
7.98643530385046
 20
-1.159566300046624
 30
0.0
 10
8.176537725795116
 20
-1.042240985576149
 30
0.0
 10
8.201144941020098
 20
-1.126594096124866
 30
0.0
 10
8.210131770516529
 20
-1.136925590783221
 30
0.0
 10
8.1843123606829
 20
-1.143971885974198
 30
0.0
 10
8.192582089929423
 20
-1.132711296862832
 30
0.0
 10
8.193586808501979
 20
-1.082946461592731
 30
0.0
 10
8.11740290783622
 20
-1.100300472482381
 30
0.0
 10
8.136747267787667
 20
-1.142116464196179
 30
0.0
 10
8.319146834642879
 20
-1.301466882827323
 30
0.0
 10
8.277569589746159
 20
-0.9469408168854947
 30
0.0
 10
8.084264714018722
 20
-1.076233484225187
 30
0.0
 10
8.014081848664899
 20
-1.252319247174366
 30
0.0
 10
8.174117432443406
 20
-1.234940768558077
 30
0.0
 10
8.265090989525484
 20
-1.262197602454661
 30
0.0
 10
8.194239218087229
 20
-1.249280819221439
 30
0.0
 10
8.159582585583873
 20
-1.302860884734438
 30
0.0
 10
8.209644354051635
 20
-1.361693821400864
 30
0.0
  0
HATCH
  5
EE
330
7E
100
AcDbEntity
  8
Deck Box - DF
 62
   250
420
  2301728
440
 33554687
100
AcDbHatch
 10
0.0
 20
0.0
 30
0.0
210
0.0
220
0.0
230
1.0
  2
SOLID
 70
     1
 71
     1
 91
        2
 92
        1
 93
        1
 72
     4
 94
        3
 73
     0
 74
     0
 95
       17
 96
       13
 40
0.0
 40
0.0
 40
0.0
 40
0.0
 40
1.0
 40
1.0
 40
1.0
 40
2.0
 40
2.0
 40
2.0
 40
3.0
 40
3.0
 40
3.0
 40
4.0
 40
4.0
 40
4.0
 40
4.0
 10
8.280845834764249
 20
-1.267719558060321
 10
8.300373286959686
 20
-1.275764799983423
 10
8.314904692609944
 20
-1.287194383521384
 10
8.320282423738438
 20
-1.305311712115541
 10
8.338991492195038
 20
-1.357532661179586
 10
8.242352435755012
 20
-1.364227385497706
 10
8.238250248801174
 20
-1.310494529700261
 10
8.243967557439216
 20
-1.306525085107308
 10
8.258309096832286
 20
-1.298981089629326
 10
8.251650731451894
 20
-1.309786428658058
 10
8.288832858762791
 20
-1.393410047505072
 10
8.334750454453342
 20
-1.295962711811461
 10
8.280845834764249
 20
-1.267719558060321
 97
        0
 97
        1
330
EC
 92
        1
 93
        1
 72
     4
 94
        3
 73
     0
 74
     0
 95
       26
 96
       22
 40
0.0
 40
0.0
 40
0.0
 40
0.0
 40
1.0
 40
1.0
 40
1.0
 40
2.0
 40
2.0
 40
2.0
 40
3.0
 40
3.0
 40
3.0
 40
4.0
 40
4.0
 40
4.0
 40
5.0
 40
5.0
 40
5.0
 40
6.0
 40
6.0
 40
6.0
 40
7.0
 40
7.0
 40
7.0
 40
7.0
 10
8.209644354051635
 20
-1.361693821400864
 10
8.337105588405165
 20
-1.463586095956303
 10
8.44794913195162
 20
-1.301756487888774
 10
8.310816640373735
 20
-1.215344704384695
 10
7.98643530385046
 20
-1.159566300046624
 10
8.176537725795116
 20
-1.042240985576149
 10
8.201144941020098
 20
-1.126594096124866
 10
8.210131770516529
 20
-1.136925590783221
 10
8.1843123606829
 20
-1.143971885974198
 10
8.192582089929423
 20
-1.132711296862832
 10
8.193586808501979
 20
-1.082946461592731
 10
8.11740290783622
 20
-1.100300472482381
 10
8.136747267787667
 20
-1.142116464196179
 10
8.319146834642879
 20
-1.301466882827323
 10
8.277569589746159
 20
-0.9469408168854947
 10
8.084264714018722
 20
-1.076233484225187
 10
8.014081848664899
 20
-1.252319247174366
 10
8.174117432443406
 20
-1.234940768558077
 10
8.265090989525484
 20
-1.262197602454661
 10
8.194239218087229
 20
-1.249280819221439
 10
8.159582585583873
 20
-1.302860884734438
 10
8.209644354051635
 20
-1.361693821400864
 97
        0
 97
        1
330
ED
 75
     2
 76
     1
 98
        1
 10
0.0
 20
0.0
450
        0
451
        0
460
0.0
461
0.0
452
        0
462
0.0
453
        0
470

  0
SPLINE
  5
EF
330
7E
100
AcDbEntity
  8
Deck Box - DF
100
AcDbSpline
210
0.0
220
0.0
230
1.0
 70
     9
 71
     3
 72
    17
 73
    13
 74
     0
 42
0.0000000001
 43
0.0000000001
 40
0.0
 40
0.0
 40
0.0
 40
0.0
 40
1.0
 40
1.0
 40
1.0
 40
2.0
 40
2.0
 40
2.0
 40
3.0
 40
3.0
 40
3.0
 40
4.0
 40
4.0
 40
4.0
 40
4.0
 10
7.570716421864921
 20
-1.673736424399167
 30
0.0
 10
7.570295109744695
 20
-1.672691197348374
 30
0.0
 10
7.570018756120563
 20
-1.671720568821898
 30
0.0
 10
7.569547429080633
 20
-1.670649910456012
 30
0.0
 10
7.546379501020737
 20
-1.617058500137015
 30
0.0
 10
7.47942223919348
 20
-1.614104229032401
 30
0.0
 10
7.424897499610146
 20
-1.661593819147431
 30
0.0
 10
7.422033085818914
 20
-1.665698433405231
 30
0.0
 10
7.419533187544175
 20
-1.669737773954276
 30
0.0
 10
7.417241826053289
 20
-1.673736424399167
 30
0.0
 10
7.417241826053289
 20
-1.673736424399167
 30
0.0
 10
7.570716421864921
 20
-1.673736424399167
 30
0.0
 10
7.570716421864921
 20
-1.673736424399167
 30
0.0
  0
HATCH
  5
F0
330
7E
100
AcDbEntity
  8
Deck Box - DF
 62
   250
420
  2301728
440
 33554687
100
AcDbHatch
 10
0.0
 20
0.0
 30
0.0
210
0.0
220
0.0
230
1.0
  2
SOLID
 70
     1
 71
     1
 91
        1
 92
        1
 93
        1
 72
     4
 94
        3
 73
     0
 74
     0
 95
       17
 96
       13
 40
0.0
 40
0.0
 40
0.0
 40
0.0
 40
1.0
 40
1.0
 40
1.0
 40
2.0
 40
2.0
 40
2.0
 40
3.0
 40
3.0
 40
3.0
 40
4.0
 40
4.0
 40
4.0
 40
4.0
 10
7.570716421864921
 20
-1.673736424399167
 10
7.570295109744695
 20
-1.672691197348374
 10
7.570018756120563
 20
-1.671720568821898
 10
7.569547429080633
 20
-1.670649910456012
 10
7.546379501020737
 20
-1.617058500137015
 10
7.47942223919348
 20
-1.614104229032401
 10
7.424897499610146
 20
-1.661593819147431
 10
7.422033085818914
 20
-1.665698433405231
 10
7.419533187544175
 20
-1.669737773954276
 10
7.417241826053289
 20
-1.673736424399167
 10
7.417241826053289
 20
-1.673736424399167
 10
7.570716421864921
 20
-1.673736424399167
 10
7.570716421864921
 20
-1.673736424399167
 97
        0
 97
        1
330
EF
 75
     2
 76
     1
 98
        1
 10
0.0
 20
0.0
450
        0
451
        0
460
0.0
461
0.0
452
        0
462
0.0
453
        0
470

  0
SPLINE
  5
F1
330
7E
100
AcDbEntity
  8
Deck Box - DF
100
AcDbSpline
210
0.0
220
0.0
230
1.0
 70
     9
 71
     3
 72
    20
 73
    16
 74
     0
 42
0.0000000001
 43
0.0000000001
 40
0.0
 40
0.0
 40
0.0
 40
0.0
 40
1.0
 40
1.0
 40
1.0
 40
2.0
 40
2.0
 40
2.0
 40
3.0
 40
3.0
 40
3.0
 40
4.0
 40
4.0
 40
4.0
 40
5.0
 40
5.0
 40
5.0
 40
5.0
 10
8.023347206641396
 20
-1.577027067031533
 30
0.0
 10
8.035292295345824
 20
-1.639877171469467
 30
0.0
 10
8.108970206044608
 20
-1.567204645427801
 30
0.0
 10
8.078208487294608
 20
-1.527905634197332
 30
0.0
 10
8.065782746734713
 20
-1.5237230305732
 30
0.0
 10
8.054432750803723
 20
-1.520995098173026
 30
0.0
 10
8.044100855187403
 20
-1.519523472738999
 30
0.0
 10
8.056108674469088
 20
-1.5171312336982
 30
0.0
 10
8.068536958160494
 20
-1.514502483426945
 30
0.0
 10
8.08151964452117
 20
-1.51155923255889
 30
0.0
 10
8.122954886220389
 20
-1.548900032526325
 30
0.0
 10
8.052210053863619
 20
-1.656342252578408
 30
0.0
 10
8.016150144466918
 20
-1.590380202882228
 30
0.0
 10
8.004233030209105
 20
-1.583506966120075
 30
0.0
 10
8.028899710439139
 20
-1.557422066217731
 30
0.0
 10
8.023347206641396
 20
-1.577027067031533
 30
0.0
  0
SPLINE
  5
F2
330
7E
100
AcDbEntity
  8
Deck Box - DF
100
AcDbSpline
210
0.0
220
0.0
230
1.0
 70
     9
 71
     3
 72
    59
 73
    55
 74
     0
 42
0.0000000001
 43
0.0000000001
 40
0.0
 40
0.0
 40
0.0
 40
0.0
 40
1.0
 40
1.0
 40
1.0
 40
2.0
 40
2.0
 40
2.0
 40
3.0
 40
3.0
 40
3.0
 40
4.0
 40
4.0
 40
4.0
 40
5.0
 40
5.0
 40
5.0
 40
6.0
 40
6.0
 40
6.0
 40
7.0
 40
7.0
 40
7.0
 40
8.0
 40
8.0
 40
8.0
 40
9.0
 40
9.0
 40
9.0
 40
10.0
 40
10.0
 40
10.0
 40
11.0
 40
11.0
 40
11.0
 40
12.0
 40
12.0
 40
12.0
 40
13.0
 40
13.0
 40
13.0
 40
14.0
 40
14.0
 40
14.0
 40
15.0
 40
15.0
 40
15.0
 40
16.0
 40
16.0
 40
16.0
 40
17.0
 40
17.0
 40
17.0
 40
18.0
 40
18.0
 40
18.0
 40
18.0
 10
7.580443052181761
 20
-1.673736424399167
 30
0.0
 10
7.580443052181761
 20
-1.673736424399167
 30
0.0
 10
7.663053288455633
 20
-1.673736424399167
 30
0.0
 10
7.663053288455633
 20
-1.673736424399167
 30
0.0
 10
7.658828299306327
 20
-1.628766229900457
 30
0.0
 10
7.642355588802855
 20
-1.583965577502453
 30
0.0
 10
7.684989493153984
 20
-1.548476177274589
 30
0.0
 10
7.737662832997734
 20
-1.512400161378334
 30
0.0
 10
7.820454479319348
 20
-1.583211962864867
 30
0.0
 10
7.740850224490789
 20
-1.612789430041528
 30
0.0
 10
7.729601953820216
 20
-1.623369704835353
 30
0.0
 10
7.712213715972993
 20
-1.599293878826251
 30
0.0
 10
7.729982575836275
 20
-1.605455038765487
 30
0.0
 10
7.797718035905719
 20
-1.597870572890908
 30
0.0
 10
7.751068526899643
 20
-1.526239883058009
 30
0.0
 10
7.700283038347126
 20
-1.55238751353761
 30
0.0
 10
7.550415450727768
 20
-1.744791518800209
 30
0.0
 10
7.948077295617091
 20
-1.668854459609658
 30
0.0
 10
7.811230541331067
 20
-1.521972508383542
 30
0.0
 10
7.843032400868827
 20
-1.537083795818426
 30
0.0
 10
7.89761817560841
 20
-1.542092917183443
 30
0.0
 10
7.983688766157456
 20
-1.529920642064098
 30
0.0
 10
7.937164718305893
 20
-1.561924256701672
 30
0.0
 10
7.955265032976032
 20
-1.649834379043265
 30
0.0
 10
8.004318648969956
 20
-1.673736424399167
 30
0.0
 10
8.004318648969956
 20
-1.673736424399167
 30
0.0
 10
8.058194890018132
 20
-1.673736424399167
 30
0.0
 10
8.058194890018132
 20
-1.673736424399167
 30
0.0
 10
8.085729374881413
 20
-1.661992243084051
 30
0.0
 10
8.116910710330632
 20
-1.632235061280665
 30
0.0
 10
8.149261886274643
 20
-1.575095982504624
 30
0.0
 10
8.180770437978202
 20
-1.488925362116181
 30
0.0
 10
8.125824386274643
 20
-1.389278687854029
 30
0.0
 10
8.034868440094088
 20
-1.410533333307575
 30
0.0
 10
7.743928261328896
 20
-1.594147428359658
 30
0.0
 10
7.845049104156587
 20
-1.28017495521514
 30
0.0
 10
7.930110919206501
 20
-1.385438559273287
 30
0.0
 10
7.925276426205199
 20
-1.39424966224639
 30
0.0
 10
7.912522621680459
 20
-1.413273981365301
 30
0.0
 10
7.91653907404591
 20
-1.395316929770249
 30
0.0
 10
7.8447591871644
 20
-1.300049527969033
 30
0.0
 10
7.827738855675685
 20
-1.537301657417818
 30
0.0
 10
7.944720362023341
 20
-1.446221097793265
 30
0.0
 10
8.067955428755112
 20
-1.135726780844467
 30
0.0
 10
7.723150029178289
 20
-1.388136821805839
 30
0.0
 10
7.780624801313706
 20
-1.494856792508964
 30
0.0
 10
7.778327505849296
 20
-1.493121529108356
 30
0.0
 10
7.776065814226032
 20
-1.491389656549762
 30
0.0
 10
7.773615930870997
 20
-1.489639134360092
 30
0.0
 10
7.698082381880112
 20
-1.456032499160439
 30
0.0
 10
7.577656627756848
 20
-1.501147652155231
 30
0.0
 10
7.566174388987317
 20
-1.585880555529797
 30
0.0
 10
7.576240103505546
 20
-1.621187697999415
 30
0.0
 10
7.580423554840181
 20
-1.650130230008964
 30
0.0
 10
7.580443052181761
 20
-1.673736424399167
 30
0.0
  0
HATCH
  5
F3
330
7E
100
AcDbEntity
  8
Deck Box - DF
 62
   250
420
  2301728
440
 33554687
100
AcDbHatch
 10
0.0
 20
0.0
 30
0.0
210
0.0
220
0.0
230
1.0
  2
SOLID
 70
     1
 71
     1
 91
        2
 92
        1
 93
        1
 72
     4
 94
        3
 73
     0
 74
     0
 95
       20
 96
       16
 40
0.0
 40
0.0
 40
0.0
 40
0.0
 40
1.0
 40
1.0
 40
1.0
 40
2.0
 40
2.0
 40
2.0
 40
3.0
 40
3.0
 40
3.0
 40
4.0
 40
4.0
 40
4.0
 40
5.0
 40
5.0
 40
5.0
 40
5.0
 10
8.023347206641396
 20
-1.577027067031533
 10
8.035292295345824
 20
-1.639877171469467
 10
8.108970206044608
 20
-1.567204645427801
 10
8.078208487294608
 20
-1.527905634197332
 10
8.065782746734713
 20
-1.5237230305732
 10
8.054432750803723
 20
-1.520995098173026
 10
8.044100855187403
 20
-1.519523472738999
 10
8.056108674469088
 20
-1.5171312336982
 10
8.068536958160494
 20
-1.514502483426945
 10
8.08151964452117
 20
-1.51155923255889
 10
8.122954886220389
 20
-1.548900032526325
 10
8.052210053863619
 20
-1.656342252578408
 10
8.016150144466918
 20
-1.590380202882228
 10
8.004233030209105
 20
-1.583506966120075
 10
8.028899710439139
 20
-1.557422066217731
 10
8.023347206641396
 20
-1.577027067031533
 97
        0
 97
        1
330
F1
 92
        1
 93
        1
 72
     4
 94
        3
 73
     0
 74
     0
 95
       59
 96
       55
 40
0.0
 40
0.0
 40
0.0
 40
0.0
 40
1.0
 40
1.0
 40
1.0
 40
2.0
 40
2.0
 40
2.0
 40
3.0
 40
3.0
 40
3.0
 40
4.0
 40
4.0
 40
4.0
 40
5.0
 40
5.0
 40
5.0
 40
6.0
 40
6.0
 40
6.0
 40
7.0
 40
7.0
 40
7.0
 40
8.0
 40
8.0
 40
8.0
 40
9.0
 40
9.0
 40
9.0
 40
10.0
 40
10.0
 40
10.0
 40
11.0
 40
11.0
 40
11.0
 40
12.0
 40
12.0
 40
12.0
 40
13.0
 40
13.0
 40
13.0
 40
14.0
 40
14.0
 40
14.0
 40
15.0
 40
15.0
 40
15.0
 40
16.0
 40
16.0
 40
16.0
 40
17.0
 40
17.0
 40
17.0
 40
18.0
 40
18.0
 40
18.0
 40
18.0
 10
7.580443052181761
 20
-1.673736424399167
 10
7.580443052181761
 20
-1.673736424399167
 10
7.663053288455633
 20
-1.673736424399167
 10
7.663053288455633
 20
-1.673736424399167
 10
7.658828299306327
 20
-1.628766229900457
 10
7.642355588802855
 20
-1.583965577502453
 10
7.684989493153984
 20
-1.548476177274589
 10
7.737662832997734
 20
-1.512400161378334
 10
7.820454479319348
 20
-1.583211962864867
 10
7.740850224490789
 20
-1.612789430041528
 10
7.729601953820216
 20
-1.623369704835353
 10
7.712213715972993
 20
-1.599293878826251
 10
7.729982575836275
 20
-1.605455038765487
 10
7.797718035905719
 20
-1.597870572890908
 10
7.751068526899643
 20
-1.526239883058009
 10
7.700283038347126
 20
-1.55238751353761
 10
7.550415450727768
 20
-1.744791518800209
 10
7.948077295617091
 20
-1.668854459609658
 10
7.811230541331067
 20
-1.521972508383542
 10
7.843032400868827
 20
-1.537083795818426
 10
7.89761817560841
 20
-1.542092917183443
 10
7.983688766157456
 20
-1.529920642064098
 10
7.937164718305893
 20
-1.561924256701672
 10
7.955265032976032
 20
-1.649834379043265
 10
8.004318648969956
 20
-1.673736424399167
 10
8.004318648969956
 20
-1.673736424399167
 10
8.058194890018132
 20
-1.673736424399167
 10
8.058194890018132
 20
-1.673736424399167
 10
8.085729374881413
 20
-1.661992243084051
 10
8.116910710330632
 20
-1.632235061280665
 10
8.149261886274643
 20
-1.575095982504624
 10
8.180770437978202
 20
-1.488925362116181
 10
8.125824386274643
 20
-1.389278687854029
 10
8.034868440094088
 20
-1.410533333307575
 10
7.743928261328896
 20
-1.594147428359658
 10
7.845049104156587
 20
-1.28017495521514
 10
7.930110919206501
 20
-1.385438559273287
 10
7.925276426205199
 20
-1.39424966224639
 10
7.912522621680459
 20
-1.413273981365301
 10
7.91653907404591
 20
-1.395316929770249
 10
7.8447591871644
 20
-1.300049527969033
 10
7.827738855675685
 20
-1.537301657417818
 10
7.944720362023341
 20
-1.446221097793265
 10
8.067955428755112
 20
-1.135726780844467
 10
7.723150029178289
 20
-1.388136821805839
 10
7.780624801313706
 20
-1.494856792508964
 10
7.778327505849296
 20
-1.493121529108356
 10
7.776065814226032
 20
-1.491389656549762
 10
7.773615930870997
 20
-1.489639134360092
 10
7.698082381880112
 20
-1.456032499160439
 10
7.577656627756848
 20
-1.501147652155231
 10
7.566174388987317
 20
-1.585880555529797
 10
7.576240103505546
 20
-1.621187697999415
 10
7.580423554840181
 20
-1.650130230008964
 10
7.580443052181761
 20
-1.673736424399167
 97
        0
 97
        1
330
F2
 75
     2
 76
     1
 98
        1
 10
0.0
 20
0.0
450
        0
451
        0
460
0.0
461
0.0
452
        0
462
0.0
453
        0
470

  0
SPLINE
  5
F4
330
7E
100
AcDbEntity
  8
Deck Box - DF
100
AcDbSpline
210
0.0
220
0.0
230
1.0
 70
     9
 71
     3
 72
    41
 73
    37
 74
     0
 42
0.0000000001
 43
0.0000000001
 40
0.0
 40
0.0
 40
0.0
 40
0.0
 40
1.0
 40
1.0
 40
1.0
 40
2.0
 40
2.0
 40
2.0
 40
3.0
 40
3.0
 40
3.0
 40
4.0
 40
4.0
 40
4.0
 40
5.0
 40
5.0
 40
5.0
 40
6.0
 40
6.0
 40
6.0
 40
7.0
 40
7.0
 40
7.0
 40
8.0
 40
8.0
 40
8.0
 40
9.0
 40
9.0
 40
9.0
 40
10.0
 40
10.0
 40
10.0
 40
11.0
 40
11.0
 40
11.0
 40
12.0
 40
12.0
 40
12.0
 40
12.0
 10
7.607693720342417
 20
-1.385166664491811
 30
0.0
 10
7.7097800992684
 20
-1.19674073854277
 30
0.0
 10
7.344502013232259
 20
-1.332227352412625
 30
0.0
 10
7.556788784756058
 20
-1.445208915800107
 30
0.0
 10
7.622578628999285
 20
-1.464823565882814
 30
0.0
 10
7.714051080565745
 20
-1.4142575879422
 30
0.0
 10
7.711836182562263
 20
-1.342742411898901
 30
0.0
 10
7.716005635884559
 20
-1.291007347141885
 30
0.0
 10
7.642926480068581
 20
-1.237107067416407
 30
0.0
 10
7.713499483047598
 20
-1.194734004383349
 30
0.0
 10
7.762513105601252
 20
-1.164977616654886
 30
0.0
 10
7.806364115702257
 20
-1.238310797672296
 30
0.0
 10
7.750167530711728
 20
-1.257132268110454
 30
0.0
 10
7.743732415398426
 20
-1.253832868298205
 30
0.0
 10
7.730184386279132
 20
-1.244855046806239
 30
0.0
 10
7.744323716594003
 20
-1.246899526802735
 30
0.0
 10
7.835018259681115
 20
-1.183126642420436
 30
0.0
 10
7.642133257313666
 20
-1.185016519604851
 30
0.0
 10
7.697576323226712
 20
-1.272820575539273
 30
0.0
 10
7.723641220243784
 20
-1.314727244804834
 30
0.0
 10
7.778312333229071
 20
-1.309861909820736
 30
0.0
 10
7.816047559022181
 20
-1.264526574177693
 30
0.0
 10
7.877215895216117
 20
-1.135605667691606
 30
0.0
 10
7.661235830901103
 20
-1.096321817035636
 30
0.0
 10
7.62037450770827
 20
-1.228274541543846
 30
0.0
 10
7.602277287952094
 20
-1.284256271503484
 30
0.0
 10
7.664135900937404
 20
-1.336849149187729
 30
0.0
 10
7.620620954105813
 20
-1.386739062991914
 30
0.0
 10
7.582834680727501
 20
-1.422407844883208
 30
0.0
 10
7.506102502993144
 20
-1.372735357441835
 30
0.0
 10
7.566600981429827
 20
-1.339513333098175
 30
0.0
 10
7.574279105443413
 20
-1.329511203342942
 30
0.0
 10
7.591646061133157
 20
-1.347574913175397
 30
0.0
 10
7.576406371758921
 20
-1.344407623792878
 30
0.0
 10
7.522537556654746
 20
-1.358096953056183
 30
0.0
 10
7.570086680707794
 20
-1.412396149402133
 30
0.0
 10
7.607693720342417
 20
-1.385166664491811
 30
0.0
  0
HATCH
  5
F5
330
7E
100
AcDbEntity
  8
Deck Box - DF
 62
   250
420
  2301728
440
 33554687
100
AcDbHatch
 10
0.0
 20
0.0
 30
0.0
210
0.0
220
0.0
230
1.0
  2
SOLID
 70
     1
 71
     1
 91
        1
 92
        1
 93
        1
 72
     4
 94
        3
 73
     0
 74
     0
 95
       41
 96
       37
 40
0.0
 40
0.0
 40
0.0
 40
0.0
 40
1.0
 40
1.0
 40
1.0
 40
2.0
 40
2.0
 40
2.0
 40
3.0
 40
3.0
 40
3.0
 40
4.0
 40
4.0
 40
4.0
 40
5.0
 40
5.0
 40
5.0
 40
6.0
 40
6.0
 40
6.0
 40
7.0
 40
7.0
 40
7.0
 40
8.0
 40
8.0
 40
8.0
 40
9.0
 40
9.0
 40
9.0
 40
10.0
 40
10.0
 40
10.0
 40
11.0
 40
11.0
 40
11.0
 40
12.0
 40
12.0
 40
12.0
 40
12.0
 10
7.607693720342417
 20
-1.385166664491811
 10
7.7097800992684
 20
-1.19674073854277
 10
7.344502013232259
 20
-1.332227352412625
 10
7.556788784756058
 20
-1.445208915800107
 10
7.622578628999285
 20
-1.464823565882814
 10
7.714051080565745
 20
-1.4142575879422
 10
7.711836182562263
 20
-1.342742411898901
 10
7.716005635884559
 20
-1.291007347141885
 10
7.642926480068581
 20
-1.237107067416407
 10
7.713499483047598
 20
-1.194734004383349
 10
7.762513105601252
 20
-1.164977616654886
 10
7.806364115702257
 20
-1.238310797672296
 10
7.750167530711728
 20
-1.257132268110454
 10
7.743732415398426
 20
-1.253832868298205
 10
7.730184386279132
 20
-1.244855046806239
 10
7.744323716594003
 20
-1.246899526802735
 10
7.835018259681115
 20
-1.183126642420436
 10
7.642133257313666
 20
-1.185016519604851
 10
7.697576323226712
 20
-1.272820575539273
 10
7.723641220243784
 20
-1.314727244804834
 10
7.778312333229071
 20
-1.309861909820736
 10
7.816047559022181
 20
-1.264526574177693
 10
7.877215895216117
 20
-1.135605667691606
 10
7.661235830901103
 20
-1.096321817035636
 10
7.62037450770827
 20
-1.228274541543846
 10
7.602277287952094
 20
-1.284256271503484
 10
7.664135900937404
 20
-1.336849149187729
 10
7.620620954105813
 20
-1.386739062991914
 10
7.582834680727501
 20
-1.422407844883208
 10
7.506102502993144
 20
-1.372735357441835
 10
7.566600981429827
 20
-1.339513333098175
 10
7.574279105443413
 20
-1.329511203342942
 10
7.591646061133157
 20
-1.347574913175397
 10
7.576406371758921
 20
-1.344407623792878
 10
7.522537556654746
 20
-1.358096953056183
 10
7.570086680707794
 20
-1.412396149402133
 10
7.607693720342417
 20
-1.385166664491811
 97
        0
 97
        1
330
F4
 75
     2
 76
     1
 98
        1
 10
0.0
 20
0.0
450
        0
451
        0
460
0.0
461
0.0
452
        0
462
0.0
453
        0
470

  0
SPLINE
  5
F6
330
7E
100
AcDbEntity
  8
Deck Box - DF
100
AcDbSpline
210
0.0
220
0.0
230
1.0
 70
     9
 71
     3
 72
    14
 73
    10
 74
     0
 42
0.0000000001
 43
0.0000000001
 40
0.0
 40
0.0
 40
0.0
 40
0.0
 40
1.0
 40
1.0
 40
1.0
 40
2.0
 40
2.0
 40
2.0
 40
3.0
 40
3.0
 40
3.0
 40
3.0
 10
5.359617856869261
 20
-1.034398248943426
 30
0.0
 10
5.368602740495563
 20
-1.019567553685179
 30
0.0
 10
5.377102733713905
 20
-1.004591052220348
 30
0.0
 10
5.385397580990355
 20
-0.9900850300849317
 30
0.0
 10
5.382021997765528
 20
-0.9768548122572282
 30
0.0
 10
5.370094710981675
 20
-0.971898248943426
 30
0.0
 10
5.359617856869261
 20
-0.9637687052151401
 30
0.0
 10
5.359617856869261
 20
-0.9637687052151401
 30
0.0
 10
5.359617856869261
 20
-1.034398248943426
 30
0.0
 10
5.359617856869261
 20
-1.034398248943426
 30
0.0
  0
HATCH
  5
F7
330
7E
100
AcDbEntity
  8
Deck Box - DF
 62
   250
420
  2301728
440
 33554687
100
AcDbHatch
 10
0.0
 20
0.0
 30
0.0
210
0.0
220
0.0
230
1.0
  2
SOLID
 70
     1
 71
     1
 91
        1
 92
        1
 93
        1
 72
     4
 94
        3
 73
     0
 74
     0
 95
       14
 96
       10
 40
0.0
 40
0.0
 40
0.0
 40
0.0
 40
1.0
 40
1.0
 40
1.0
 40
2.0
 40
2.0
 40
2.0
 40
3.0
 40
3.0
 40
3.0
 40
3.0
 10
5.359617856869261
 20
-1.034398248943426
 10
5.368602740495563
 20
-1.019567553685179
 10
5.377102733713905
 20
-1.004591052220348
 10
5.385397580990355
 20
-0.9900850300849317
 10
5.382021997765528
 20
-0.9768548122572282
 10
5.370094710981675
 20
-0.971898248943426
 10
5.359617856869261
 20
-0.9637687052151401
 10
5.359617856869261
 20
-0.9637687052151401
 10
5.359617856869261
 20
-1.034398248943426
 10
5.359617856869261
 20
-1.034398248943426
 97
        0
 97
        1
330
F6
 75
     2
 76
     1
 98
        1
 10
0.0
 20
0.0
450
        0
451
        0
460
0.0
461
0.0
452
        0
462
0.0
453
        0
470

  0
SPLINE
  5
F8
330
7E
100
AcDbEntity
  8
Deck Box - DF
100
AcDbSpline
210
0.0
220
0.0
230
1.0
 70
     9
 71
     3
 72
    26
 73
    22
 74
     0
 42
0.0000000001
 43
0.0000000001
 40
0.0
 40
0.0
 40
0.0
 40
0.0
 40
1.0
 40
1.0
 40
1.0
 40
2.0
 40
2.0
 40
2.0
 40
3.0
 40
3.0
 40
3.0
 40
4.0
 40
4.0
 40
4.0
 40
5.0
 40
5.0
 40
5.0
 40
6.0
 40
6.0
 40
6.0
 40
7.0
 40
7.0
 40
7.0
 40
7.0
 10
8.987867978939574
 20
-0.8443949598266726
 30
0.0
 10
8.939929102257716
 20
-0.8951711235636517
 30
0.0
 10
8.86778893841223
 20
-0.7925065999091379
 30
0.0
 10
8.951135835113619
 20
-0.7988839260267594
 30
0.0
 10
8.890775456424382
 20
-0.8104339816365683
 30
0.0
 10
8.930269441070651
 20
-0.870854547771551
 30
0.0
 10
8.976075478125771
 20
-0.8440041652845845
 30
0.0
 10
8.980514090321952
 20
-0.838170221599676
 30
0.0
 10
8.984414241201672
 20
-0.8326397582750233
 30
0.0
 10
8.987867978939574
 20
-0.8273686943644456
 30
0.0
 10
8.987867978939574
 20
-0.8273686943644456
 30
0.0
 10
8.987867978939574
 20
-0.7461648098158346
 30
0.0
 10
8.987867978939574
 20
-0.7461648098158346
 30
0.0
 10
8.92801622655242
 20
-0.7249330525458567
 30
0.0
 10
8.767540389692612
 20
-0.8128897989651401
 30
0.0
 10
8.909259783952593
 20
-0.9050079562459433
 30
0.0
 10
8.93232259591006
 20
-0.9135655937784955
 30
0.0
 10
8.960449630415268
 20
-0.9131417385267594
 30
0.0
 10
8.987867978939574
 20
-0.9058056518297235
 30
0.0
 10
8.987867978939574
 20
-0.9058056518297235
 30
0.0
 10
8.987867978939574
 20
-0.8443949598266726
 30
0.0
 10
8.987867978939574
 20
-0.8443949598266726
 30
0.0
  0
HATCH
  5
F9
330
7E
100
AcDbEntity
  8
Deck Box - DF
 62
   250
420
  2301728
440
 33554687
100
AcDbHatch
 10
0.0
 20
0.0
 30
0.0
210
0.0
220
0.0
230
1.0
  2
SOLID
 70
     1
 71
     1
 91
        1
 92
        1
 93
        1
 72
     4
 94
        3
 73
     0
 74
     0
 95
       26
 96
       22
 40
0.0
 40
0.0
 40
0.0
 40
0.0
 40
1.0
 40
1.0
 40
1.0
 40
2.0
 40
2.0
 40
2.0
 40
3.0
 40
3.0
 40
3.0
 40
4.0
 40
4.0
 40
4.0
 40
5.0
 40
5.0
 40
5.0
 40
6.0
 40
6.0
 40
6.0
 40
7.0
 40
7.0
 40
7.0
 40
7.0
 10
8.987867978939574
 20
-0.8443949598266726
 10
8.939929102257716
 20
-0.8951711235636517
 10
8.86778893841223
 20
-0.7925065999091379
 10
8.951135835113619
 20
-0.7988839260267594
 10
8.890775456424382
 20
-0.8104339816365683
 10
8.930269441070651
 20
-0.870854547771551
 10
8.976075478125771
 20
-0.8440041652845845
 10
8.980514090321952
 20
-0.838170221599676
 10
8.984414241201672
 20
-0.8326397582750233
 10
8.987867978939574
 20
-0.8273686943644456
 10
8.987867978939574
 20
-0.8273686943644456
 10
8.987867978939574
 20
-0.7461648098158346
 10
8.987867978939574
 20
-0.7461648098158346
 10
8.92801622655242
 20
-0.7249330525458567
 10
8.767540389692612
 20
-0.8128897989651401
 10
8.909259783952593
 20
-0.9050079562459433
 10
8.93232259591006
 20
-0.9135655937784955
 10
8.960449630415268
 20
-0.9131417385267594
 10
8.987867978939574
 20
-0.9058056518297235
 10
8.987867978939574
 20
-0.9058056518297235
 10
8.987867978939574
 20
-0.8443949598266726
 10
8.987867978939574
 20
-0.8443949598266726
 97
        0
 97
        1
330
F8
 75
     2
 76
     1
 98
        1
 10
0.0
 20
0.0
450
        0
451
        0
460
0.0
461
0.0
452
        0
462
0.0
453
        0
470

  0
SPLINE
  5
FA
330
7E
100
AcDbEntity
  8
Deck Box - DF
100
AcDbSpline
210
0.0
220
0.0
230
1.0
 70
     9
 71
     3
 72
    14
 73
    10
 74
     0
 42
0.0000000001
 43
0.0000000001
 40
0.0
 40
0.0
 40
0.0
 40
0.0
 40
1.0
 40
1.0
 40
1.0
 40
2.0
 40
2.0
 40
2.0
 40
3.0
 40
3.0
 40
3.0
 40
3.0
 10
8.850885942423751
 20
-1.504316414793556
 30
0.0
 10
8.883695224836577
 20
-1.600611562847246
 30
0.0
 10
8.92080091367835
 20
-1.490036057193959
 30
0.0
 10
8.881100115363954
 20
-1.454120460994797
 30
0.0
 10
8.962570426459832
 20
-1.494636532249917
 30
0.0
 10
8.863897016939921
 20
-1.613530077392548
 30
0.0
 10
8.839088294443778
 20
-1.506244011134577
 30
0.0
 10
8.844066907715488
 20
-1.500898971465971
 30
0.0
 10
8.8565668164512
 20
-1.490467158693945
 30
0.0
 10
8.850885942423751
 20
-1.504316414793556
 30
0.0
  0
SPLINE
  5
FB
330
7E
100
AcDbEntity
  8
Deck Box - DF
100
AcDbSpline
210
0.0
220
0.0
230
1.0
 70
     9
 71
     3
 72
    26
 73
    22
 74
     0
 42
0.0000000001
 43
0.0000000001
 40
0.0
 40
0.0
 40
0.0
 40
0.0
 40
1.0
 40
1.0
 40
1.0
 40
2.0
 40
2.0
 40
2.0
 40
3.0
 40
3.0
 40
3.0
 40
4.0
 40
4.0
 40
4.0
 40
5.0
 40
5.0
 40
5.0
 40
6.0
 40
6.0
 40
6.0
 40
7.0
 40
7.0
 40
7.0
 40
7.0
 10
8.699595745392445
 20
-1.229466850524608
 30
0.0
 10
8.611173615188766
 20
-1.46034871312079
 30
0.0
 10
8.860447687932365
 20
-1.420087153560277
 30
0.0
 10
8.836843174929729
 20
-1.445311181712036
 30
0.0
 10
8.649765215111022
 20
-1.650391066616445
 30
0.0
 10
9.129341215737843
 20
-1.658407792545959
 30
0.0
 10
8.901381385110955
 20
-1.383164869780342
 30
0.0
 10
8.849749985177771
 20
-1.341771955271699
 30
0.0
 10
8.781013561956164
 20
-1.38470975179473
 30
0.0
 10
8.742012805400817
 20
-1.319367377925787
 30
0.0
 10
8.715841161095491
 20
-1.265722368638636
 30
0.0
 10
8.785455270307263
 20
-1.206165919564189
 30
0.0
 10
8.803343757717003
 20
-1.282395389403884
 30
0.0
 10
8.811430732914988
 20
-1.294410257162035
 30
0.0
 10
8.788817004928052
 20
-1.305130684750249
 30
0.0
 10
8.795908821690671
 20
-1.290593557528508
 30
0.0
 10
8.795958392875894
 20
-1.229144247548333
 30
0.0
 10
8.729175396628306
 20
-1.256539412957522
 30
0.0
 10
8.746908311220218
 20
-1.306585409056146
 30
0.0
 10
8.910171589442748
 20
-1.488746595254206
 30
0.0
 10
8.86761665322289
 20
-1.054813618409449
 30
0.0
 10
8.699595745392445
 20
-1.229466850524608
 30
0.0
  0
HATCH
  5
FC
330
7E
100
AcDbEntity
  8
Deck Box - DF
 62
   250
420
  2301728
440
 33554687
100
AcDbHatch
 10
0.0
 20
0.0
 30
0.0
210
0.0
220
0.0
230
1.0
  2
SOLID
 70
     1
 71
     1
 91
        2
 92
        1
 93
        1
 72
     4
 94
        3
 73
     0
 74
     0
 95
       14
 96
       10
 40
0.0
 40
0.0
 40
0.0
 40
0.0
 40
1.0
 40
1.0
 40
1.0
 40
2.0
 40
2.0
 40
2.0
 40
3.0
 40
3.0
 40
3.0
 40
3.0
 10
8.850885942423751
 20
-1.504316414793556
 10
8.883695224836577
 20
-1.600611562847246
 10
8.92080091367835
 20
-1.490036057193959
 10
8.881100115363954
 20
-1.454120460994797
 10
8.962570426459832
 20
-1.494636532249917
 10
8.863897016939921
 20
-1.613530077392548
 10
8.839088294443778
 20
-1.506244011134577
 10
8.844066907715488
 20
-1.500898971465971
 10
8.8565668164512
 20
-1.490467158693945
 10
8.850885942423751
 20
-1.504316414793556
 97
        0
 97
        1
330
FA
 92
        1
 93
        1
 72
     4
 94
        3
 73
     0
 74
     0
 95
       26
 96
       22
 40
0.0
 40
0.0
 40
0.0
 40
0.0
 40
1.0
 40
1.0
 40
1.0
 40
2.0
 40
2.0
 40
2.0
 40
3.0
 40
3.0
 40
3.0
 40
4.0
 40
4.0
 40
4.0
 40
5.0
 40
5.0
 40
5.0
 40
6.0
 40
6.0
 40
6.0
 40
7.0
 40
7.0
 40
7.0
 40
7.0
 10
8.699595745392445
 20
-1.229466850524608
 10
8.611173615188766
 20
-1.46034871312079
 10
8.860447687932365
 20
-1.420087153560277
 10
8.836843174929729
 20
-1.445311181712036
 10
8.649765215111022
 20
-1.650391066616445
 10
9.129341215737843
 20
-1.658407792545959
 10
8.901381385110955
 20
-1.383164869780342
 10
8.849749985177771
 20
-1.341771955271699
 10
8.781013561956164
 20
-1.38470975179473
 10
8.742012805400817
 20
-1.319367377925787
 10
8.715841161095491
 20
-1.265722368638636
 10
8.785455270307263
 20
-1.206165919564189
 10
8.803343757717003
 20
-1.282395389403884
 10
8.811430732914988
 20
-1.294410257162035
 10
8.788817004928052
 20
-1.305130684750249
 10
8.795908821690671
 20
-1.290593557528508
 10
8.795958392875894
 20
-1.229144247548333
 10
8.729175396628306
 20
-1.256539412957522
 10
8.746908311220218
 20
-1.306585409056146
 10
8.910171589442748
 20
-1.488746595254206
 10
8.86761665322289
 20
-1.054813618409449
 10
8.699595745392445
 20
-1.229466850524608
 97
        0
 97
        1
330
FB
 75
     2
 76
     1
 98
        1
 10
0.0
 20
0.0
450
        0
451
        0
460
0.0
461
0.0
452
        0
462
0.0
453
        0
470

  0
SPLINE
  5
FD
330
7E
100
AcDbEntity
  8
Deck Box - DF
100
AcDbSpline
210
0.0
220
0.0
230
1.0
 70
     9
 71
     3
 72
    14
 73
    10
 74
     0
 42
0.0000000001
 43
0.0000000001
 40
0.0
 40
0.0
 40
0.0
 40
0.0
 40
1.0
 40
1.0
 40
1.0
 40
2.0
 40
2.0
 40
2.0
 40
3.0
 40
3.0
 40
3.0
 40
3.0
 10
8.899444991743393
 20
-1.124180116076672
 30
0.0
 10
8.908217100033324
 20
-1.129919116185179
 30
0.0
 10
8.926858254004677
 20
-1.144395468452987
 30
0.0
 10
8.908018735775511
 20
-1.137989320178235
 30
0.0
 10
8.808906119130545
 20
-1.181523493084051
 30
0.0
 10
8.986718483496865
 20
-1.226368226428235
 30
0.0
 10
8.983544655371865
 20
-1.159561009360092
 30
0.0
 10
8.992348128950425
 20
-1.280162239557575
 30
0.0
 10
8.785552542470389
 20
-1.153437148683009
 30
0.0
 10
8.899444991743393
 20
-1.124180116076672
 30
0.0
  0
SPLINE
  5
FE
330
7E
100
AcDbEntity
  8
Deck Box - DF
100
AcDbSpline
210
0.0
220
0.0
230
1.0
 70
     9
 71
     3
 72
    17
 73
    13
 74
     0
 42
0.0000000001
 43
0.0000000001
 40
0.0
 40
0.0
 40
0.0
 40
0.0
 40
1.0
 40
1.0
 40
1.0
 40
2.0
 40
2.0
 40
2.0
 40
3.0
 40
3.0
 40
3.0
 40
4.0
 40
4.0
 40
4.0
 40
4.0
 10
8.987867978939574
 20
-0.9479538180623624
 30
0.0
 10
8.904009065094088
 20
-0.9752704413262511
 30
0.0
 10
8.975649927453028
 20
-1.08746577417129
 30
0.0
 10
8.983255586090182
 20
-1.156286303685179
 30
0.0
 10
8.970346650543307
 20
-1.083626493301065
 30
0.0
 10
8.867137896745564
 20
-1.03865460338136
 30
0.0
 10
8.811845979156588
 20
-1.096870274496811
 30
0.0
 10
8.762335447201293
 20
-1.193119325061047
 30
0.0
 10
8.892442902984713
 20
-1.274997987170422
 30
0.0
 10
8.987867978939574
 20
-1.263087654596637
 30
0.0
 10
8.987867978939574
 20
-1.263087654596637
 30
0.0
 10
8.987867978939574
 20
-0.9479538180623624
 30
0.0
 10
8.987867978939574
 20
-0.9479538180623624
 30
0.0
  0
HATCH
  5
FF
330
7E
100
AcDbEntity
  8
Deck Box - DF
 62
   250
420
  2301728
440
 33554687
100
AcDbHatch
 10
0.0
 20
0.0
 30
0.0
210
0.0
220
0.0
230
1.0
  2
SOLID
 70
     1
 71
     1
 91
        2
 92
        1
 93
        1
 72
     4
 94
        3
 73
     0
 74
     0
 95
       14
 96
       10
 40
0.0
 40
0.0
 40
0.0
 40
0.0
 40
1.0
 40
1.0
 40
1.0
 40
2.0
 40
2.0
 40
2.0
 40
3.0
 40
3.0
 40
3.0
 40
3.0
 10
8.899444991743393
 20
-1.124180116076672
 10
8.908217100033324
 20
-1.129919116185179
 10
8.926858254004677
 20
-1.144395468452987
 10
8.908018735775511
 20
-1.137989320178235
 10
8.808906119130545
 20
-1.181523493084051
 10
8.986718483496865
 20
-1.226368226428235
 10
8.983544655371865
 20
-1.159561009360092
 10
8.992348128950425
 20
-1.280162239557575
 10
8.785552542470389
 20
-1.153437148683009
 10
8.899444991743393
 20
-1.124180116076672
 97
        0
 97
        1
330
FD
 92
        1
 93
        1
 72
     4
 94
        3
 73
     0
 74
     0
 95
       17
 96
       13
 40
0.0
 40
0.0
 40
0.0
 40
0.0
 40
1.0
 40
1.0
 40
1.0
 40
2.0
 40
2.0
 40
2.0
 40
3.0
 40
3.0
 40
3.0
 40
4.0
 40
4.0
 40
4.0
 40
4.0
 10
8.987867978939574
 20
-0.9479538180623624
 10
8.904009065094088
 20
-0.9752704413262511
 10
8.975649927453028
 20
-1.08746577417129
 10
8.983255586090182
 20
-1.156286303685179
 10
8.970346650543307
 20
-1.083626493301065
 10
8.867137896745564
 20
-1.03865460338136
 10
8.811845979156588
 20
-1.096870274496811
 10
8.762335447201293
 20
-1.193119325061047
 10
8.892442902984713
 20
-1.274997987170422
 10
8.987867978939574
 20
-1.263087654596637
 10
8.987867978939574
 20
-1.263087654596637
 10
8.987867978939574
 20
-0.9479538180623624
 10
8.987867978939574
 20
-0.9479538180623624
 97
        0
 97
        1
330
FE
 75
     2
 76
     1
 98
        1
 10
0.0
 20
0.0
450
        0
451
        0
460
0.0
461
0.0
452
        0
462
0.0
453
        0
470

  0
SPLINE
  5
100
330
7E
100
AcDbEntity
  8
Deck Box - DF
100
AcDbSpline
210
0.0
220
0.0
230
1.0
 70
     9
 71
     3
 72
    14
 73
    10
 74
     0
 42
0.0000000001
 43
0.0000000001
 40
0.0
 40
0.0
 40
0.0
 40
0.0
 40
1.0
 40
1.0
 40
1.0
 40
2.0
 40
2.0
 40
2.0
 40
3.0
 40
3.0
 40
3.0
 40
3.0
 10
8.987867978939574
 20
-1.277641996230765
 30
0.0
 10
8.973913816341918
 20
-1.284540664308009
 30
0.0
 10
8.962484135623601
 20
-1.296246698650457
 30
0.0
 10
8.955023435482543
 20
-1.313290766033269
 30
0.0
 10
8.917847091352768
 20
-1.371765836562783
 30
0.0
 10
8.95305759482499
 20
-1.423398187908269
 30
0.0
 10
8.987867978939574
 20
-1.477532132949515
 30
0.0
 10
8.987867978939574
 20
-1.477532132949515
 30
0.0
 10
8.987867978939574
 20
-1.277641996230765
 30
0.0
 10
8.987867978939574
 20
-1.277641996230765
 30
0.0
  0
HATCH
  5
101
330
7E
100
AcDbEntity
  8
Deck Box - DF
 62
   250
420
  2301728
440
 33554687
100
AcDbHatch
 10
0.0
 20
0.0
 30
0.0
210
0.0
220
0.0
230
1.0
  2
SOLID
 70
     1
 71
     1
 91
        1
 92
        1
 93
        1
 72
     4
 94
        3
 73
     0
 74
     0
 95
       14
 96
       10
 40
0.0
 40
0.0
 40
0.0
 40
0.0
 40
1.0
 40
1.0
 40
1.0
 40
2.0
 40
2.0
 40
2.0
 40
3.0
 40
3.0
 40
3.0
 40
3.0
 10
8.987867978939574
 20
-1.277641996230765
 10
8.973913816341918
 20
-1.284540664308009
 10
8.962484135623601
 20
-1.296246698650457
 10
8.955023435482543
 20
-1.313290766033269
 10
8.917847091352768
 20
-1.371765836562783
 10
8.95305759482499
 20
-1.423398187908269
 10
8.987867978939574
 20
-1.477532132949515
 10
8.987867978939574
 20
-1.477532132949515
 10
8.987867978939574
 20
-1.277641996230765
 10
8.987867978939574
 20
-1.277641996230765
 97
        0
 97
        1
330
100
 75
     2
 76
     1
 98
        1
 10
0.0
 20
0.0
450
        0
451
        0
460
0.0
461
0.0
452
        0
462
0.0
453
        0
470

  0
ENDBLK
  5
81
330
7E
100
AcDbEntity
  8
0
100
AcDbBlockEnd
  0
ENDSEC
  0
SECTION
  2
ENTITIES
  0
INSERT
  5
7B
330
70
100
AcDbEntity
  8
Deck Box - DF
100
AcDbBlockReference
  2
Block_0
 10
0.0
 20
0.0
 30
0.0
  0
ENDSEC
  0
SECTION
  2
OBJECTS
  0
DICTIONARY
  5
C
330
0
100
AcDbDictionary
281
     1
  3
ACAD_COLOR
350
63
  3
ACAD_DETAILVIEWSTYLE
350
6A
  3
ACAD_GROUP
350
D
  3
ACAD_LAYOUT
350
62
  3
ACAD_MATERIAL
350
10
  3
ACAD_MLEADERSTYLE
350
66
  3
ACAD_MLINESTYLE
350
5F
  3
ACAD_PLOTSETTINGS
350
61
  3
ACAD_PLOTSTYLENAME
350
E
  3
ACAD_SCALELIST
350
42
  3
ACAD_SECTIONVIEWSTYLE
350
68
  3
ACAD_TABLESTYLE
350
64
  3
ACAD_VISUALSTYLE
350
29
  3
ACDB_RECOMPOSE_DATA
350
111
  3
AcDbVariableDictionary
350
109
  0
DICTIONARY
  5
63
102
{ACAD_REACTORS
330
C
102
}
330
C
100
AcDbDictionary
281
     1
  0
DICTIONARY
  5
6A
102
{ACAD_REACTORS
330
C
102
}
330
C
100
AcDbDictionary
281
     1
  3
Imperial24
350
6B
  0
DICTIONARY
  5
D
102
{ACAD_REACTORS
330
C
102
}
330
C
100
AcDbDictionary
281
     1
  0
DICTIONARY
  5
62
102
{ACAD_REACTORS
330
C
102
}
330
C
100
AcDbDictionary
281
     1
  3
Layout1
350
6F
  3
Layout2
350
77
  3
Model
350
73
  0
DICTIONARY
  5
10
102
{ACAD_REACTORS
330
C
102
}
330
C
100
AcDbDictionary
281
     1
  3
ByBlock
350
19
  3
ByLayer
350
11
  3
Global
350
21
  0
DICTIONARY
  5
66
102
{ACAD_REACTORS
330
C
102
}
330
C
100
AcDbDictionary
281
     1
  3
Standard
350
67
  0
DICTIONARY
  5
5F
102
{ACAD_REACTORS
330
C
102
}
330
C
100
AcDbDictionary
281
     1
  3
Standard
350
60
  0
DICTIONARY
  5
61
102
{ACAD_REACTORS
330
C
102
}
330
C
100
AcDbDictionary
281
     1
  0
ACDBDICTIONARYWDFLT
  5
E
102
{ACAD_REACTORS
330
C
102
}
330
C
100
AcDbDictionary
281
     1
  3
Normal
350
F
100
AcDbDictionaryWithDefault
340
F
  0
DICTIONARY
  5
42
102
{ACAD_REACTORS
330
C
102
}
330
C
100
AcDbDictionary
281
     1
  3
A0
350
43
  3
A1
350
44
  3
A2
350
45
  3
A3
350
46
  3
A4
350
47
  3
A5
350
48
  3
A6
350
49
  3
A7
350
4A
  3
A8
350
4B
  3
A9
350
4C
  3
B0
350
4D
  3
B1
350
4E
  3
B2
350
4F
  3
B3
350
50
  3
B4
350
51
  3
B5
350
52
  3
B6
350
53
  0
DICTIONARY
  5
68
102
{ACAD_REACTORS
330
C
102
}
330
C
100
AcDbDictionary
281
     1
  3
Imperial24
350
69
  0
DICTIONARY
  5
64
102
{ACAD_REACTORS
330
C
102
}
330
C
100
AcDbDictionary
281
     1
  3
Standard
350
65
  0
DICTIONARY
  5
29
102
{ACAD_REACTORS
330
C
102
}
330
C
100
AcDbDictionary
281
     1
  3
2dWireframe
350
2F
  3
Basic
350
2E
  3
Brighten
350
35
  3
ColorChange
350
39
  3
Conceptual
350
32
  3
Dim
350
34
  3
EdgeColorOff
350
41
  3
Facepattern
350
38
  3
Flat
350
2A
  3
FlatWithEdges
350
2B
  3
Gouraud
350
2C
  3
GouraudWithEdges
350
2D
  3
Hidden
350
31
  3
JitterOff
350
3F
  3
Linepattern
350
37
  3
OverhangOff
350
40
  3
Realistic
350
33
  3
Shaded
350
3E
  3
Shaded with edges
350
3D
  3
Shades of Gray
350
3A
  3
Sketchy
350
3B
  3
Thicken
350
36
  3
Wireframe
350
30
  3
X-Ray
350
3C
  0
XRECORD
  5
111
102
{ACAD_REACTORS
330
C
102
}
330
C
100
AcDbXrecord
280
     1
 90
        1
330
65
  0
DICTIONARY
  5
109
102
{ACAD_REACTORS
330
C
102
}
330
C
100
AcDbDictionary
281
     1
  3
CANNOSCALE
350
10E
  3
CMLEADERSTYLE
350
10B
  3
CTABLESTYLE
350
10A
  3
CVIEWDETAILSTYLE
350
10C
  3
CVIEWSECTIONSTYLE
350
10D
  0
ACDBDETAILVIEWSTYLE
  5
6B
102
{ACAD_REACTORS
330
6A
102
}
330
6A
100
AcDbModelDocViewStyle
 70
     0
  3
Imperial24
290
     1
300
Imperial24
 90
        0
100
AcDbDetailViewStyle
 70
     0
 71
     0
 90
        3
 71
     1
340
55
 62
   256
 40
0.24
340
0
 62
   256
 40
0.24
300

 40
0.36
280
     3
 71
     2
340
5D
 90
       25
 62
   256
 71
     3
340
55
 62
   256
 40
0.24
 90
        1
 40
0.75
 90
        1
300
%<\AcVar ViewType \f "%tc1">% %<\AcVar ViewDetailId>%\PSCALE %<\AcVar ViewScale \f "%sn">%
 71
     4
340
5D
 90
       25
 62
   256
340
5D
 90
       25
 62
   256
280
     0
  0
LAYOUT
  5
6F
102
{ACAD_REACTORS
330
62
102
}
330
62
100
AcDbPlotSettings
  1

  2

  4

  6

 40
0.0
 41
0.0
 42
0.0
 43
0.0
 44
0.0
 45
0.0
 46
0.0
 47
0.0
 48
0.0
 49
0.0
140
0.0
141
0.0
142
1.0
143
1.0
 70
   688
 72
     0
 73
     0
 74
     5
  7

 75
    16
147
1.0
 76
     0
 77
     2
 78
   300
148
0.0
149
0.0
100
AcDbLayout
  1
Layout1
 70
     1
 71
     1
 10
0.0
 20
0.0
 11
12.0
 21
9.0
 12
0.0
 22
0.0
 32
0.0
 14
0.0
 24
0.0
 34
0.0
 15
0.0
 25
0.0
 35
0.0
146
0.0
 13
0.0
 23
0.0
 33
0.0
 16
1.0
 26
0.0
 36
0.0
 17
0.0
 27
1.0
 37
0.0
 76
     0
330
6C
  0
LAYOUT
  5
77
102
{ACAD_REACTORS
330
62
102
}
330
62
100
AcDbPlotSettings
  1

  2

  4

  6

 40
0.0
 41
0.0
 42
0.0
 43
0.0
 44
0.0
 45
0.0
 46
0.0
 47
0.0
 48
0.0
 49
0.0
140
0.0
141
0.0
142
1.0
143
1.0
 70
   688
 72
     0
 73
     0
 74
     5
  7

 75
    16
147
1.0
 76
     0
 77
     2
 78
   300
148
0.0
149
0.0
100
AcDbLayout
  1
Layout2
 70
     1
 71
     2
 10
0.0
 20
0.0
 11
12.0
 21
9.0
 12
0.0
 22
0.0
 32
0.0
 14
0.0
 24
0.0
 34
0.0
 15
0.0
 25
0.0
 35
0.0
146
0.0
 13
0.0
 23
0.0
 33
0.0
 16
1.0
 26
0.0
 36
0.0
 17
0.0
 27
1.0
 37
0.0
 76
     0
330
74
  0
LAYOUT
  5
73
102
{ACAD_REACTORS
330
62
102
}
330
62
100
AcDbPlotSettings
  1

  2

  4

  6

 40
0.0
 41
0.0
 42
0.0
 43
0.0
 44
0.0
 45
0.0
 46
0.0
 47
0.0
 48
0.0
 49
0.0
140
0.0
141
0.0
142
1.0
143
1.0
 70
  1712
 72
     0
 73
     0
 74
     0
  7

 75
     0
147
1.0
 76
     0
 77
     2
 78
   300
148
0.0
149
0.0
100
AcDbLayout
  1
Model
 70
     1
 71
     0
 10
0.0
 20
0.0
 11
12.0
 21
9.0
 12
0.0
 22
0.0
 32
0.0
 14
0.0
 24
0.0
 34
0.0
 15
0.0
 25
0.0
 35
0.0
146
0.0
 13
0.0
 23
0.0
 33
0.0
 16
1.0
 26
0.0
 36
0.0
 17
0.0
 27
1.0
 37
0.0
 76
     0
330
70
  0
MATERIAL
  5
19
102
{ACAD_XDICTIONARY
360
1A
102
}
102
{ACAD_REACTORS
330
10
102
}
330
10
100
AcDbMaterial
  1
ByBlock
 72
     0
 43
0.0208333333333333
 43
0.0
 43
0.0
 43
0.0
 43
0.0
 43
0.0208333333333333
 43
0.0
 43
0.0
 43
0.0
 43
0.0
 43
1.0
 43
0.0
 43
0.0
 43
0.0
 43
0.0
 43
1.0
 77
     0
 47
0.0208333333333333
 47
0.0
 47
0.0
 47
0.0
 47
0.0
 47
0.0208333333333333
 47
0.0
 47
0.0
 47
0.0
 47
0.0
 47
1.0
 47
0.0
 47
0.0
 47
0.0
 47
0.0
 47
1.0
171
     0
 49
0.0208333333333333
 49
0.0
 49
0.0
 49
0.0
 49
0.0
 49
0.0208333333333333
 49
0.0
 49
0.0
 49
0.0
 49
0.0
 49
1.0
 49
0.0
 49
0.0
 49
0.0
 49
0.0
 49
1.0
175
     0
142
0.0208333333333333
142
0.0
142
0.0
142
0.0
142
0.0
142
0.0208333333333333
142
0.0
142
0.0
142
0.0
142
0.0
142
1.0
142
0.0
142
0.0
142
0.0
142
0.0
142
1.0
179
     0
144
0.0208333333333333
144
0.0
144
0.0
144
0.0
144
0.0
144
0.0208333333333333
144
0.0
144
0.0
144
0.0
144
0.0
144
1.0
144
0.0
144
0.0
144
0.0
144
0.0
144
1.0
147
0.0208333333333333
147
0.0
147
0.0
147
0.0
147
0.0
147
0.0208333333333333
147
0.0
147
0.0
147
0.0
147
0.0
147
1.0
147
0.0
147
0.0
147
0.0
147
0.0
147
1.0
  0
MATERIAL
  5
11
102
{ACAD_XDICTIONARY
360
12
102
}
102
{ACAD_REACTORS
330
10
102
}
330
10
100
AcDbMaterial
  1
ByLayer
 72
     0
 43
0.0208333333333333
 43
0.0
 43
0.0
 43
0.0
 43
0.0
 43
0.0208333333333333
 43
0.0
 43
0.0
 43
0.0
 43
0.0
 43
1.0
 43
0.0
 43
0.0
 43
0.0
 43
0.0
 43
1.0
 77
     0
 47
0.0208333333333333
 47
0.0
 47
0.0
 47
0.0
 47
0.0
 47
0.0208333333333333
 47
0.0
 47
0.0
 47
0.0
 47
0.0
 47
1.0
 47
0.0
 47
0.0
 47
0.0
 47
0.0
 47
1.0
171
     0
 49
0.0208333333333333
 49
0.0
 49
0.0
 49
0.0
 49
0.0
 49
0.0208333333333333
 49
0.0
 49
0.0
 49
0.0
 49
0.0
 49
1.0
 49
0.0
 49
0.0
 49
0.0
 49
0.0
 49
1.0
175
     0
142
0.0208333333333333
142
0.0
142
0.0
142
0.0
142
0.0
142
0.0208333333333333
142
0.0
142
0.0
142
0.0
142
0.0
142
1.0
142
0.0
142
0.0
142
0.0
142
0.0
142
1.0
179
     0
144
0.0208333333333333
144
0.0
144
0.0
144
0.0
144
0.0
144
0.0208333333333333
144
0.0
144
0.0
144
0.0
144
0.0
144
1.0
144
0.0
144
0.0
144
0.0
144
0.0
144
1.0
147
0.0208333333333333
147
0.0
147
0.0
147
0.0
147
0.0
147
0.0208333333333333
147
0.0
147
0.0
147
0.0
147
0.0
147
1.0
147
0.0
147
0.0
147
0.0
147
0.0
147
1.0
  0
MATERIAL
  5
21
102
{ACAD_XDICTIONARY
360
22
102
}
102
{ACAD_REACTORS
330
10
102
}
330
10
100
AcDbMaterial
  1
Global
 72
     0
 43
0.0208333333333333
 43
0.0
 43
0.0
 43
0.0
 43
0.0
 43
0.0208333333333333
 43
0.0
 43
0.0
 43
0.0
 43
0.0
 43
1.0
 43
0.0
 43
0.0
 43
0.0
 43
0.0
 43
1.0
 77
     0
 47
0.0208333333333333
 47
0.0
 47
0.0
 47
0.0
 47
0.0
 47
0.0208333333333333
 47
0.0
 47
0.0
 47
0.0
 47
0.0
 47
1.0
 47
0.0
 47
0.0
 47
0.0
 47
0.0
 47
1.0
171
     0
 49
0.0208333333333333
 49
0.0
 49
0.0
 49
0.0
 49
0.0
 49
0.0208333333333333
 49
0.0
 49
0.0
 49
0.0
 49
0.0
 49
1.0
 49
0.0
 49
0.0
 49
0.0
 49
0.0
 49
1.0
175
     0
142
0.0208333333333333
142
0.0
142
0.0
142
0.0
142
0.0
142
0.0208333333333333
142
0.0
142
0.0
142
0.0
142
0.0
142
1.0
142
0.0
142
0.0
142
0.0
142
0.0
142
1.0
179
     0
144
0.0208333333333333
144
0.0
144
0.0
144
0.0
144
0.0
144
0.0208333333333333
144
0.0
144
0.0
144
0.0
144
0.0
144
1.0
144
0.0
144
0.0
144
0.0
144
0.0
144
1.0
147
0.0208333333333333
147
0.0
147
0.0
147
0.0
147
0.0
147
0.0208333333333333
147
0.0
147
0.0
147
0.0
147
0.0
147
1.0
147
0.0
147
0.0
147
0.0
147
0.0
147
1.0
  0
MLEADERSTYLE
  5
67
102
{ACAD_REACTORS
330
66
102
}
330
66
100
AcDbMLeaderStyle
179
     2
170
     2
171
     1
172
     0
 90
        2
 40
0.0
 41
0.0
173
     1
 91
-1056964608
340
5B
 92
       -2
290
     1
 42
0.09
291
     1
 43
0.36
  3
Standard
 44
0.18
300

342
55
174
     1
178
     6
175
     1
176
     0
 93
-1056964608
 45
0.18
292
     0
297
     0
 46
0.18
 94
-1056964608
 47
1.0
 49
1.0
140
1.0
293
     1
141
0.0
294
     1
177
     0
142
1.0
295
     1
296
     0
143
0.125
271
     0
272
     9
273
     9
298
     1
  0
MLINESTYLE
  5
60
102
{ACAD_REACTORS
330
5F
102
}
330
5F
100
AcDbMlineStyle
  2
STANDARD
 70
     0
  3

 62
   256
 51
90.0
 52
90.0
 71
     2
 49
0.5
 62
   256
  6
BYLAYER
 49
-0.5
 62
   256
  6
BYLAYER
  0
ACDBPLACEHOLDER
  5
F
102
{ACAD_REACTORS
330
E
102
}
330
E
  0
SCALE
  5
43
102
{ACAD_REACTORS
330
42
102
}
330
42
100
AcDbScale
 70
     0
300
1:1
140
1.0
141
1.0
290
     1
  0
SCALE
  5
44
102
{ACAD_REACTORS
330
42
102
}
330
42
100
AcDbScale
 70
     0
300
1/128" = 1'-0"
140
0.0078125
141
12.0
290
     0
  0
SCALE
  5
45
102
{ACAD_REACTORS
330
42
102
}
330
42
100
AcDbScale
 70
     0
300
1/64" = 1'-0"
140
0.015625
141
12.0
290
     0
  0
SCALE
  5
46
102
{ACAD_REACTORS
330
42
102
}
330
42
100
AcDbScale
 70
     0
300
1/32" = 1'-0"
140
0.03125
141
12.0
290
     0
  0
SCALE
  5
47
102
{ACAD_REACTORS
330
42
102
}
330
42
100
AcDbScale
 70
     0
300
1/16" = 1'-0"
140
0.0625
141
12.0
290
     0
  0
SCALE
  5
48
102
{ACAD_REACTORS
330
42
102
}
330
42
100
AcDbScale
 70
     0
300
3/32" = 1'-0"
140
0.09375
141
12.0
290
     0
  0
SCALE
  5
49
102
{ACAD_REACTORS
330
42
102
}
330
42
100
AcDbScale
 70
     0
300
1/8" = 1'-0"
140
0.125
141
12.0
290
     0
  0
SCALE
  5
4A
102
{ACAD_REACTORS
330
42
102
}
330
42
100
AcDbScale
 70
     0
300
3/16" = 1'-0"
140
0.1875
141
12.0
290
     0
  0
SCALE
  5
4B
102
{ACAD_REACTORS
330
42
102
}
330
42
100
AcDbScale
 70
     0
300
1/4" = 1'-0"
140
0.25
141
12.0
290
     0
  0
SCALE
  5
4C
102
{ACAD_REACTORS
330
42
102
}
330
42
100
AcDbScale
 70
     0
300
3/8" = 1'-0"
140
0.375
141
12.0
290
     0
  0
SCALE
  5
4D
102
{ACAD_REACTORS
330
42
102
}
330
42
100
AcDbScale
 70
     0
300
1/2" = 1'-0"
140
0.5
141
12.0
290
     0
  0
SCALE
  5
4E
102
{ACAD_REACTORS
330
42
102
}
330
42
100
AcDbScale
 70
     0
300
3/4" = 1'-0"
140
0.75
141
12.0
290
     0
  0
SCALE
  5
4F
102
{ACAD_REACTORS
330
42
102
}
330
42
100
AcDbScale
 70
     0
300
1" = 1'-0"
140
1.0
141
12.0
290
     0
  0
SCALE
  5
50
102
{ACAD_REACTORS
330
42
102
}
330
42
100
AcDbScale
 70
     0
300
1-1/2" = 1'-0"
140
1.5
141
12.0
290
     0
  0
SCALE
  5
51
102
{ACAD_REACTORS
330
42
102
}
330
42
100
AcDbScale
 70
     0
300
3" = 1'-0"
140
3.0
141
12.0
290
     0
  0
SCALE
  5
52
102
{ACAD_REACTORS
330
42
102
}
330
42
100
AcDbScale
 70
     0
300
6" = 1'-0"
140
6.0
141
12.0
290
     0
  0
SCALE
  5
53
102
{ACAD_REACTORS
330
42
102
}
330
42
100
AcDbScale
 70
     0
300
1'-0" = 1'-0"
140
12.0
141
12.0
290
     0
  0
ACDBSECTIONVIEWSTYLE
  5
69
102
{ACAD_REACTORS
330
68
102
}
330
68
100
AcDbModelDocViewStyle
 70
     0
  3
Imperial24
290
     1
300
Imperial24
 90
        0
100
AcDbSectionViewStyle
 70
     0
 71
     0
 90
       78
 71
     1
340
55
 62
   256
 40
0.24
340
0
340
0
 62
   256
 40
0.24
300
I, O, Q, S, X, Z
 40
0.48
 90
        3
 40
0.18
 90
        1
 71
     2
340
5D
 90
       25
 62
   256
340
5D
 90
       50
 62
   256
 40
0.24
 40
0.0
 40
0.24
 71
     3
340
55
 62
   256
 40
0.24
 90
        1
 40
0.75
 90
        1
300
%<\AcVar ViewType \f "%tc1">% %<\AcVar ViewSectionStartId>%-%<\AcVar ViewSectionEndId>%\PSCALE %<\AcVar ViewScale \f "%sn">%
 71
     4
 62
   256
 62
   257
300
ANSI31
 40
1.0
 90
        0
290
     0
290
     0
 90
        6
 40
0.0
 40
1.570796326794896
 40
0.2617993877991494
 40
1.308996938995747
 40
-0.2617993877991494
 40
1.832595714594046
  0
TABLESTYLE
  5
65
102
{ACAD_XDICTIONARY
360
10F
102
}
102
{ACAD_REACTORS
330
64
102
}
330
64
100
AcDbTableStyle
280
     0
  3
Standard
 70
     0
 71
     0
 40
0.06
 41
0.06
280
     0
281
     0
  7
Standard
140
0.18
170
     2
 62
     0
 63
     7
283
     0
 90
      512
 91
        0
  1

274
    -2
284
     1
 64
     0
275
    -2
285
     1
 65
     0
276
    -2
286
     1
 66
     0
277
    -2
287
     1
 67
     0
278
    -2
288
     1
 68
     0
279
    -2
289
     1
 69
     0
  7
Standard
140
0.25
170
     5
 62
     0
 63
     7
283
     0
 90
      512
 91
        0
  1

274
    -2
284
     1
 64
     0
275
    -2
285
     1
 65
     0
276
    -2
286
     1
 66
     0
277
    -2
287
     1
 67
     0
278
    -2
288
     1
 68
     0
279
    -2
289
     1
 69
     0
  7
Standard
140
0.18
170
     5
 62
     0
 63
     7
283
     0
 90
      512
 91
        0
  1

274
    -2
284
     1
 64
     0
275
    -2
285
     1
 65
     0
276
    -2
286
     1
 66
     0
277
    -2
287
     1
 67
     0
278
    -2
288
     1
 68
     0
279
    -2
289
     1
 69
     0
  0
VISUALSTYLE
  5
2F
102
{ACAD_REACTORS
330
29
102
}
330
29
100
AcDbVisualStyle
  2
2dWireframe
 70
     4
177
     3
291
     0
 70
    58
 90
        0
176
     1
 90
        2
176
     1
 90
        0
176
     1
 90
        0
176
     1
 40
0.6
176
     1
 40
30.0
176
     1
 62
     7
420
 16777215
176
     1
 90
        1
176
     1
 90
        4
176
     1
 62
     7
176
     1
 62
   257
176
     1
 90
        1
176
     1
 90
        1
176
     1
 40
1.0
176
     1
 90
        0
176
     1
 62
   257
176
     1
 40
1.0
176
     1
 90
        1
176
     1
 90
        6
176
     1
 90
        2
176
     1
 62
     7
176
     1
 90
        5
176
     1
 90
        0
176
     1
 90
        0
176
     1
290
     0
176
     1
 90
        1
176
     1
 40
0.0
176
     1
 90
        0
176
     1
290
     1
176
     1
290
     1
176
     1
290
     0
176
     1
290
     0
176
     1
290
     0
176
     1
290
     0
176
     1
290
     0
176
     1
290
     0
176
     1
290
     0
176
     1
 90
       50
176
     1
 40
0.0
176
     1
 40
1.0
176
     1
 90
        0
176
     1
 62
    18
420
        0
176
     1
 90
       50
176
     1
 90
        3
176
     1
 62
     5
420
      255
176
     1
290
     0
176
     1
 90
       50
176
     1
 90
       50
176
     1
 90
       50
176
     1
290
     0
176
     1
 90
       50
176
     1
 62
   256
176
     0
 40
1.0
176
     0
 90
        2
176
     1
  1
strokes_ogs.tif
176
     1
290
     0
176
     1
 40
1.0
176
     1
 40
1.0
176
     1
  0
VISUALSTYLE
  5
2E
102
{ACAD_REACTORS
330
29
102
}
330
29
100
AcDbVisualStyle
  2
Basic
 70
     7
177
     3
291
     1
 70
    58
 90
        1
176
     1
 90
        0
176
     1
 90
        1
176
     1
 90
        0
176
     1
 40
0.6
176
     1
 40
30.0
176
     1
 62
     7
420
 16777215
176
     1
 90
        0
176
     1
 90
        4
176
     1
 62
     7
176
     1
 62
   257
176
     1
 90
        1
176
     1
 90
        1
176
     1
 40
1.0
176
     1
 90
        8
176
     1
 62
     7
176
     1
 40
1.0
176
     1
 90
        1
176
     1
 90
        6
176
     1
 90
        2
176
     1
 62
     7
176
     1
 90
        5
176
     1
 90
        0
176
     1
 90
        0
176
     1
290
     0
176
     1
 90
        1
176
     1
 40
0.0
176
     1
 90
        0
176
     1
290
     0
176
     1
290
     1
176
     1
290
     1
176
     1
290
     0
176
     1
290
     0
176
     1
290
     0
176
     1
290
     0
176
     1
290
     0
176
     1
290
     0
176
     1
 90
       50
176
     1
 40
0.0
176
     1
 40
1.0
176
     1
 90
        0
176
     1
 62
    18
420
        0
176
     1
 90
       50
176
     1
 90
        3
176
     1
 62
     5
420
      255
176
     1
290
     0
176
     1
 90
       50
176
     1
 90
       50
176
     1
 90
       50
176
     1
290
     0
176
     1
 90
       50
176
     1
 62
   256
176
     0
 40
1.0
176
     0
 90
        2
176
     1
  1
strokes_ogs.tif
176
     1
290
     0
176
     1
 40
1.0
176
     1
 40
1.0
176
     1
  0
VISUALSTYLE
  5
35
102
{ACAD_REACTORS
330
29
102
}
330
29
100
AcDbVisualStyle
  2
Brighten
 70
    12
177
     3
291
     1
 70
    58
 90
        2
176
     1
 90
        2
176
     1
 90
        0
176
     1
 90
        0
176
     1
 40
0.6
176
     1
 40
30.0
176
     1
 62
     7
420
 16777215
176
     1
 90
        1
176
     1
 90
        4
176
     1
 62
     7
176
     1
 62
   257
176
     1
 90
        1
176
     1
 90
        1
176
     1
 40
1.0
176
     1
 90
        8
176
     1
 62
     7
176
     1
 40
1.0
176
     1
 90
        1
176
     1
 90
        6
176
     1
 90
        2
176
     1
 62
     7
176
     1
 90
        5
176
     1
 90
        0
176
     1
 90
        0
176
     1
290
     0
176
     1
 90
        1
176
     1
 40
50.0
176
     1
 90
        0
176
     1
290
     0
176
     1
290
     1
176
     1
290
     1
176
     1
290
     0
176
     1
290
     0
176
     1
290
     0
176
     1
290
     0
176
     1
290
     0
176
     1
290
     0
176
     1
 90
       50
176
     1
 40
0.0
176
     1
 40
1.0
176
     1
 90
        0
176
     1
 62
    18
420
        0
176
     1
 90
       50
176
     1
 90
        3
176
     1
 62
     5
420
      255
176
     1
290
     0
176
     1
 90
       50
176
     1
 90
       50
176
     1
 90
       50
176
     1
290
     0
176
     1
 90
       50
176
     1
 62
   256
176
     0
 40
1.0
176
     0
 90
        2
176
     1
  1
strokes_ogs.tif
176
     1
290
     0
176
     1
 40
1.0
176
     1
 40
1.0
176
     1
  0
VISUALSTYLE
  5
39
102
{ACAD_REACTORS
330
29
102
}
330
29
100
AcDbVisualStyle
  2
ColorChange
 70
    16
177
     3
291
     1
 70
    58
 90
        2
176
     1
 90
        2
176
     1
 90
        3
176
     1
 90
        0
176
     1
 40
0.6
176
     1
 40
30.0
176
     1
 62
     8
420
  8421504
176
     1
 90
        1
176
     1
 90
        4
176
     1
 62
     7
176
     1
 62
   257
176
     1
 90
        1
176
     1
 90
        1
176
     1
 40
1.0
176
     1
 90
        8
176
     1
 62
     8
420
  8421504
176
     1
 40
1.0
176
     1
 90
        1
176
     1
 90
        6
176
     1
 90
        2
176
     1
 62
     7
176
     1
 90
        5
176
     1
 90
        0
176
     1
 90
        0
176
     1
290
     0
176
     1
 90
        1
176
     1
 40
0.0
176
     1
 90
        0
176
     1
290
     0
176
     1
290
     1
176
     1
290
     1
176
     1
290
     0
176
     1
290
     0
176
     1
290
     0
176
     1
290
     0
176
     1
290
     0
176
     1
290
     0
176
     1
 90
       50
176
     1
 40
0.0
176
     1
 40
1.0
176
     1
 90
        0
176
     1
 62
    18
420
        0
176
     1
 90
       50
176
     1
 90
        3
176
     1
 62
     5
420
      255
176
     1
290
     0
176
     1
 90
       50
176
     1
 90
       50
176
     1
 90
       50
176
     1
290
     0
176
     1
 90
       50
176
     1
 62
   256
176
     0
 40
1.0
176
     0
 90
        2
176
     1
  1
strokes_ogs.tif
176
     1
290
     0
176
     1
 40
1.0
176
     1
 40
1.0
176
     1
  0
VISUALSTYLE
  5
32
102
{ACAD_REACTORS
330
29
102
}
330
29
100
AcDbVisualStyle
  2
Conceptual
 70
     9
177
     3
291
     0
 70
    58
 90
        3
176
     1
 90
        2
176
     1
 90
        0
176
     1
 90
        0
176
     1
 40
0.6
176
     1
 40
30.0
176
     1
 62
     7
420
 16777215
176
     1
 90
        2
176
     1
 90
        2
176
     1
 62
     7
176
     1
 62
   257
176
     1
 90
        1
176
     1
 90
        1
176
     1
 40
179.0
176
     1
 90
        8
176
     1
 62
     7
176
     1
 40
1.0
176
     1
 90
        1
176
     1
 90
        6
176
     1
 90
        2
176
     1
 62
     7
176
     1
 90
        3
176
     1
 90
        0
176
     1
 90
        0
176
     1
290
     0
176
     1
 90
        1
176
     1
 40
0.0
176
     1
 90
        0
176
     1
290
     0
176
     1
290
     1
176
     1
290
     1
176
     1
290
     0
176
     1
290
     0
176
     1
290
     0
176
     1
290
     0
176
     1
290
     0
176
     1
290
     0
176
     1
 90
       50
176
     1
 40
0.0
176
     1
 40
1.0
176
     1
 90
        0
176
     1
 62
    18
420
        0
176
     1
 90
       50
176
     1
 90
        3
176
     1
 62
     5
420
      255
176
     1
290
     0
176
     1
 90
       50
176
     1
 90
       50
176
     1
 90
       50
176
     1
290
     0
176
     1
 90
       50
176
     1
 62
   256
176
     0
 40
1.0
176
     0
 90
        2
176
     1
  1
strokes_ogs.tif
176
     1
290
     0
176
     1
 40
1.0
176
     1
 40
1.0
176
     1
  0
VISUALSTYLE
  5
34
102
{ACAD_REACTORS
330
29
102
}
330
29
100
AcDbVisualStyle
  2
Dim
 70
    11
177
     3
291
     1
 70
    58
 90
        2
176
     1
 90
        2
176
     1
 90
        0
176
     1
 90
        0
176
     1
 40
0.6
176
     1
 40
30.0
176
     1
 62
     7
420
 16777215
176
     1
 90
        1
176
     1
 90
        4
176
     1
 62
     7
176
     1
 62
   257
176
     1
 90
        1
176
     1
 90
        1
176
     1
 40
1.0
176
     1
 90
        8
176
     1
 62
     7
176
     1
 40
1.0
176
     1
 90
        1
176
     1
 90
        6
176
     1
 90
        2
176
     1
 62
     7
176
     1
 90
        5
176
     1
 90
        0
176
     1
 90
        0
176
     1
290
     0
176
     1
 90
        1
176
     1
 40
-50.0
176
     1
 90
        0
176
     1
290
     0
176
     1
290
     1
176
     1
290
     1
176
     1
290
     0
176
     1
290
     0
176
     1
290
     0
176
     1
290
     0
176
     1
290
     0
176
     1
290
     0
176
     1
 90
       50
176
     1
 40
0.0
176
     1
 40
1.0
176
     1
 90
        0
176
     1
 62
    18
420
        0
176
     1
 90
       50
176
     1
 90
        3
176
     1
 62
     5
420
      255
176
     1
290
     0
176
     1
 90
       50
176
     1
 90
       50
176
     1
 90
       50
176
     1
290
     0
176
     1
 90
       50
176
     1
 62
   256
176
     0
 40
1.0
176
     0
 90
        2
176
     1
  1
strokes_ogs.tif
176
     1
290
     0
176
     1
 40
1.0
176
     1
 40
1.0
176
     1
  0
VISUALSTYLE
  5
41
102
{ACAD_REACTORS
330
29
102
}
330
29
100
AcDbVisualStyle
  2
EdgeColorOff
 70
    22
177
     3
291
     1
 70
    58
 90
        2
176
     0
 90
        2
176
     0
 90
        0
176
     0
 90
        0
176
     0
 40
0.6
176
     0
 40
30.0
176
     0
 62
     7
420
 16777215
176
     0
 90
        1
176
     0
 90
        4
176
     0
 62
     7
176
     0
 62
   257
176
     0
 90
        1
176
     0
 90
        1
176
     0
 40
1.0
176
     0
 90
        8
176
     2
 62
     7
176
     0
 40
1.0
176
     0
 90
        1
176
     0
 90
        6
176
     0
 90
        2
176
     0
 62
     7
176
     0
 90
        5
176
     0
 90
        0
176
     0
 90
        0
176
     0
290
     0
176
     0
 90
        1
176
     0
 40
0.0
176
     0
 90
        0
176
     0
290
     0
176
     0
290
     1
176
     0
290
     1
176
     0
290
     0
176
     0
290
     0
176
     0
290
     0
176
     0
290
     0
176
     0
290
     0
176
     0
290
     0
176
     0
 90
       50
176
     0
 40
0.0
176
     0
 40
1.0
176
     0
 90
        0
176
     0
 62
    18
420
        0
176
     0
 90
       50
176
     0
 90
        3
176
     0
 62
     5
420
      255
176
     0
290
     0
176
     0
 90
       50
176
     0
 90
       50
176
     0
 90
       50
176
     0
290
     0
176
     0
 90
       50
176
     0
 62
   256
176
     0
 40
1.0
176
     0
 90
        2
176
     0
  1
strokes_ogs.tif
176
     0
290
     0
176
     0
 40
1.0
176
     0
 40
1.0
176
     0
  0
VISUALSTYLE
  5
38
102
{ACAD_REACTORS
330
29
102
}
330
29
100
AcDbVisualStyle
  2
Facepattern
 70
    15
177
     3
291
     1
 70
    58
 90
        2
176
     1
 90
        2
176
     1
 90
        0
176
     1
 90
        0
176
     1
 40
0.6
176
     1
 40
30.0
176
     1
 62
     7
420
 16777215
176
     1
 90
        1
176
     1
 90
        4
176
     1
 62
     7
176
     1
 62
   257
176
     1
 90
        1
176
     1
 90
        1
176
     1
 40
1.0
176
     1
 90
        8
176
     1
 62
     7
176
     1
 40
1.0
176
     1
 90
        1
176
     1
 90
        6
176
     1
 90
        2
176
     1
 62
     7
176
     1
 90
        5
176
     1
 90
        0
176
     1
 90
        0
176
     1
290
     0
176
     1
 90
        1
176
     1
 40
0.0
176
     1
 90
        0
176
     1
290
     0
176
     1
290
     1
176
     1
290
     1
176
     1
290
     0
176
     1
290
     0
176
     1
290
     0
176
     1
290
     0
176
     1
290
     0
176
     1
290
     0
176
     1
 90
       50
176
     1
 40
0.0
176
     1
 40
1.0
176
     1
 90
        0
176
     1
 62
    18
420
        0
176
     1
 90
       50
176
     1
 90
        3
176
     1
 62
     5
420
      255
176
     1
290
     0
176
     1
 90
       50
176
     1
 90
       50
176
     1
 90
       50
176
     1
290
     0
176
     1
 90
       50
176
     1
 62
   256
176
     0
 40
1.0
176
     0
 90
        2
176
     1
  1
strokes_ogs.tif
176
     1
290
     0
176
     1
 40
1.0
176
     1
 40
1.0
176
     1
  0
VISUALSTYLE
  5
2A
102
{ACAD_REACTORS
330
29
102
}
330
29
100
AcDbVisualStyle
  2
Flat
 70
     0
177
     3
291
     1
 70
    58
 90
        2
176
     1
 90
        1
176
     1
 90
        1
176
     1
 90
        2
176
     1
 40
0.6
176
     1
 40
30.0
176
     1
 62
     7
420
 16777215
176
     1
 90
        0
176
     1
 90
        0
176
     1
 62
     7
176
     1
 62
   257
176
     1
 90
        1
176
     1
 90
        1
176
     1
 40
1.0
176
     1
 90
        8
176
     1
 62
     7
176
     1
 40
1.0
176
     1
 90
        1
176
     1
 90
        6
176
     1
 90
        2
176
     1
 62
     7
176
     1
 90
        5
176
     1
 90
        0
176
     1
 90
        0
176
     1
290
     0
176
     1
 90
       13
176
     1
 40
0.0
176
     1
 90
        0
176
     1
290
     0
176
     1
290
     1
176
     1
290
     1
176
     1
290
     0
176
     1
290
     0
176
     1
290
     0
176
     1
290
     0
176
     1
290
     0
176
     1
290
     0
176
     1
 90
       50
176
     1
 40
0.0
176
     1
 40
1.0
176
     1
 90
        0
176
     1
 62
    18
420
        0
176
     1
 90
       50
176
     1
 90
        3
176
     1
 62
     5
420
      255
176
     1
290
     0
176
     1
 90
       50
176
     1
 90
       50
176
     1
 90
       50
176
     1
290
     0
176
     1
 90
       50
176
     1
 62
   256
176
     0
 40
1.0
176
     0
 90
        2
176
     1
  1
strokes_ogs.tif
176
     1
290
     0
176
     1
 40
1.0
176
     1
 40
1.0
176
     1
  0
VISUALSTYLE
  5
2B
102
{ACAD_REACTORS
330
29
102
}
330
29
100
AcDbVisualStyle
  2
FlatWithEdges
 70
     1
177
     3
291
     1
 70
    58
 90
        2
176
     1
 90
        1
176
     1
 90
        1
176
     1
 90
        2
176
     1
 40
0.6
176
     1
 40
30.0
176
     1
 62
     7
420
 16777215
176
     1
 90
        1
176
     1
 90
        0
176
     1
 62
     7
176
     1
 62
   257
176
     1
 90
        1
176
     1
 90
        1
176
     1
 40
1.0
176
     1
 90
        0
176
     1
 62
   257
176
     1
 40
1.0
176
     1
 90
        1
176
     1
 90
        6
176
     1
 90
        2
176
     1
 62
     7
176
     1
 90
        5
176
     1
 90
        0
176
     1
 90
        0
176
     1
290
     0
176
     1
 90
       13
176
     1
 40
0.0
176
     1
 90
        0
176
     1
290
     0
176
     1
290
     1
176
     1
290
     1
176
     1
290
     0
176
     1
290
     0
176
     1
290
     0
176
     1
290
     0
176
     1
290
     0
176
     1
290
     0
176
     1
 90
       50
176
     1
 40
0.0
176
     1
 40
1.0
176
     1
 90
        0
176
     1
 62
    18
420
        0
176
     1
 90
       50
176
     1
 90
        3
176
     1
 62
     5
420
      255
176
     1
290
     0
176
     1
 90
       50
176
     1
 90
       50
176
     1
 90
       50
176
     1
290
     0
176
     1
 90
       50
176
     1
 62
   256
176
     0
 40
1.0
176
     0
 90
        2
176
     1
  1
strokes_ogs.tif
176
     1
290
     0
176
     1
 40
1.0
176
     1
 40
1.0
176
     1
  0
VISUALSTYLE
  5
2C
102
{ACAD_REACTORS
330
29
102
}
330
29
100
AcDbVisualStyle
  2
Gouraud
 70
     2
177
     3
291
     1
 70
    58
 90
        2
176
     1
 90
        2
176
     1
 90
        1
176
     1
 90
        2
176
     1
 40
0.6
176
     1
 40
30.0
176
     1
 62
     7
420
 16777215
176
     1
 90
        0
176
     1
 90
        0
176
     1
 62
     7
176
     1
 62
   257
176
     1
 90
        1
176
     1
 90
        1
176
     1
 40
1.0
176
     1
 90
        0
176
     1
 62
     7
176
     1
 40
1.0
176
     1
 90
        1
176
     1
 90
        6
176
     1
 90
        2
176
     1
 62
     7
176
     1
 90
        5
176
     1
 90
        0
176
     1
 90
        0
176
     1
290
     0
176
     1
 90
       13
176
     1
 40
0.0
176
     1
 90
        0
176
     1
290
     0
176
     1
290
     1
176
     1
290
     1
176
     1
290
     0
176
     1
290
     0
176
     1
290
     0
176
     1
290
     0
176
     1
290
     0
176
     1
290
     0
176
     1
 90
       50
176
     1
 40
0.0
176
     1
 40
1.0
176
     1
 90
        0
176
     1
 62
    18
420
        0
176
     1
 90
       50
176
     1
 90
        3
176
     1
 62
     5
420
      255
176
     1
290
     0
176
     1
 90
       50
176
     1
 90
       50
176
     1
 90
       50
176
     1
290
     0
176
     1
 90
       50
176
     1
 62
   256
176
     0
 40
1.0
176
     0
 90
        2
176
     1
  1
strokes_ogs.tif
176
     1
290
     0
176
     1
 40
1.0
176
     1
 40
1.0
176
     1
  0
VISUALSTYLE
  5
2D
102
{ACAD_REACTORS
330
29
102
}
330
29
100
AcDbVisualStyle
  2
GouraudWithEdges
 70
     3
177
     3
291
     1
 70
    58
 90
        2
176
     1
 90
        2
176
     1
 90
        1
176
     1
 90
        2
176
     1
 40
0.6
176
     1
 40
30.0
176
     1
 62
     7
420
 16777215
176
     1
 90
        1
176
     1
 90
        0
176
     1
 62
     7
176
     1
 62
   257
176
     1
 90
        1
176
     1
 90
        1
176
     1
 40
1.0
176
     1
 90
        0
176
     1
 62
   257
176
     1
 40
1.0
176
     1
 90
        1
176
     1
 90
        6
176
     1
 90
        2
176
     1
 62
     7
176
     1
 90
        5
176
     1
 90
        0
176
     1
 90
        0
176
     1
290
     0
176
     1
 90
       13
176
     1
 40
0.0
176
     1
 90
        0
176
     1
290
     0
176
     1
290
     1
176
     1
290
     1
176
     1
290
     0
176
     1
290
     0
176
     1
290
     0
176
     1
290
     0
176
     1
290
     0
176
     1
290
     0
176
     1
 90
       50
176
     1
 40
0.0
176
     1
 40
1.0
176
     1
 90
        0
176
     1
 62
    18
420
        0
176
     1
 90
       50
176
     1
 90
        3
176
     1
 62
     5
420
      255
176
     1
290
     0
176
     1
 90
       50
176
     1
 90
       50
176
     1
 90
       50
176
     1
290
     0
176
     1
 90
       50
176
     1
 62
   256
176
     0
 40
1.0
176
     0
 90
        2
176
     1
  1
strokes_ogs.tif
176
     1
290
     0
176
     1
 40
1.0
176
     1
 40
1.0
176
     1
  0
VISUALSTYLE
  5
31
102
{ACAD_REACTORS
330
29
102
}
330
29
100
AcDbVisualStyle
  2
Hidden
 70
     6
177
     3
291
     0
 70
    58
 90
        1
176
     1
 90
        2
176
     1
 90
        2
176
     1
 90
        0
176
     1
 40
0.6
176
     1
 40
30.0
176
     1
 62
     7
420
 16777215
176
     1
 90
        2
176
     1
 90
        2
176
     1
 62
     7
176
     1
 62
   257
176
     1
 90
        2
176
     1
 90
        1
176
     1
 40
40.0
176
     1
 90
        0
176
     1
 62
   257
176
     1
 40
1.0
176
     1
 90
        1
176
     1
 90
        6
176
     1
 90
        2
176
     1
 62
     7
176
     1
 90
        3
176
     1
 90
        0
176
     1
 90
        0
176
     1
290
     0
176
     1
 90
        1
176
     1
 40
0.0
176
     1
 90
        0
176
     1
290
     0
176
     1
290
     1
176
     1
290
     1
176
     1
290
     0
176
     1
290
     0
176
     1
290
     0
176
     1
290
     0
176
     1
290
     0
176
     1
290
     0
176
     1
 90
       50
176
     1
 40
0.0
176
     1
 40
1.0
176
     1
 90
        0
176
     1
 62
    18
420
        0
176
     1
 90
       50
176
     1
 90
        3
176
     1
 62
     5
420
      255
176
     1
290
     0
176
     1
 90
       50
176
     1
 90
       50
176
     1
 90
       50
176
     1
290
     0
176
     1
 90
       50
176
     1
 62
   256
176
     0
 40
1.0
176
     0
 90
        2
176
     1
  1
strokes_ogs.tif
176
     1
290
     0
176
     1
 40
1.0
176
     1
 40
1.0
176
     1
  0
VISUALSTYLE
  5
3F
102
{ACAD_REACTORS
330
29
102
}
330
29
100
AcDbVisualStyle
  2
JitterOff
 70
    20
177
     3
291
     1
 70
    58
 90
        2
176
     0
 90
        2
176
     0
 90
        0
176
     0
 90
        0
176
     0
 40
0.6
176
     0
 40
30.0
176
     0
 62
     7
420
 16777215
176
     0
 90
        1
176
     0
 90
        4
176
     0
 62
     7
176
     0
 62
   257
176
     0
 90
        1
176
     0
 90
        1
176
     0
 40
1.0
176
     0
 90
       10
176
     2
 62
     7
176
     0
 40
1.0
176
     0
 90
        1
176
     0
 90
        6
176
     0
 90
        2
176
     0
 62
     7
176
     0
 90
        5
176
     0
 90
        0
176
     0
 90
        0
176
     0
290
     0
176
     0
 90
        1
176
     0
 40
0.0
176
     0
 90
        0
176
     0
290
     0
176
     0
290
     1
176
     0
290
     1
176
     0
290
     0
176
     0
290
     0
176
     0
290
     0
176
     0
290
     0
176
     0
290
     0
176
     0
290
     0
176
     0
 90
       50
176
     0
 40
0.0
176
     0
 40
1.0
176
     0
 90
        0
176
     0
 62
    18
420
        0
176
     0
 90
       50
176
     0
 90
        3
176
     0
 62
     5
420
      255
176
     0
290
     0
176
     0
 90
       50
176
     0
 90
       50
176
     0
 90
       50
176
     0
290
     0
176
     0
 90
       50
176
     0
 62
   256
176
     0
 40
1.0
176
     0
 90
        2
176
     0
  1
strokes_ogs.tif
176
     0
290
     0
176
     0
 40
1.0
176
     0
 40
1.0
176
     0
  0
VISUALSTYLE
  5
37
102
{ACAD_REACTORS
330
29
102
}
330
29
100
AcDbVisualStyle
  2
Linepattern
 70
    14
177
     3
291
     1
 70
    58
 90
        2
176
     1
 90
        2
176
     1
 90
        0
176
     1
 90
        0
176
     1
 40
0.6
176
     1
 40
30.0
176
     1
 62
     7
420
 16777215
176
     1
 90
        1
176
     1
 90
        4
176
     1
 62
     7
176
     1
 62
   257
176
     1
 90
        7
176
     1
 90
        7
176
     1
 40
1.0
176
     1
 90
        8
176
     1
 62
     7
176
     1
 40
1.0
176
     1
 90
        1
176
     1
 90
        6
176
     1
 90
        2
176
     1
 62
     7
176
     1
 90
        5
176
     1
 90
        0
176
     1
 90
        0
176
     1
290
     0
176
     1
 90
        1
176
     1
 40
0.0
176
     1
 90
        0
176
     1
290
     0
176
     1
290
     1
176
     1
290
     1
176
     1
290
     0
176
     1
290
     0
176
     1
290
     0
176
     1
290
     0
176
     1
290
     0
176
     1
290
     0
176
     1
 90
       50
176
     1
 40
0.0
176
     1
 40
1.0
176
     1
 90
        0
176
     1
 62
    18
420
        0
176
     1
 90
       50
176
     1
 90
        3
176
     1
 62
     5
420
      255
176
     1
290
     0
176
     1
 90
       50
176
     1
 90
       50
176
     1
 90
       50
176
     1
290
     0
176
     1
 90
       50
176
     1
 62
   256
176
     0
 40
1.0
176
     0
 90
        2
176
     1
  1
strokes_ogs.tif
176
     1
290
     0
176
     1
 40
1.0
176
     1
 40
1.0
176
     1
  0
VISUALSTYLE
  5
40
102
{ACAD_REACTORS
330
29
102
}
330
29
100
AcDbVisualStyle
  2
OverhangOff
 70
    21
177
     3
291
     1
 70
    58
 90
        2
176
     0
 90
        2
176
     0
 90
        0
176
     0
 90
        0
176
     0
 40
0.6
176
     0
 40
30.0
176
     0
 62
     7
420
 16777215
176
     0
 90
        1
176
     0
 90
        4
176
     0
 62
     7
176
     0
 62
   257
176
     0
 90
        1
176
     0
 90
        1
176
     0
 40
1.0
176
     0
 90
        9
176
     2
 62
     7
176
     0
 40
1.0
176
     0
 90
        1
176
     0
 90
        6
176
     0
 90
        2
176
     0
 62
     7
176
     0
 90
        5
176
     0
 90
        0
176
     0
 90
        0
176
     0
290
     0
176
     0
 90
        1
176
     0
 40
0.0
176
     0
 90
        0
176
     0
290
     0
176
     0
290
     1
176
     0
290
     1
176
     0
290
     0
176
     0
290
     0
176
     0
290
     0
176
     0
290
     0
176
     0
290
     0
176
     0
290
     0
176
     0
 90
       50
176
     0
 40
0.0
176
     0
 40
1.0
176
     0
 90
        0
176
     0
 62
    18
420
        0
176
     0
 90
       50
176
     0
 90
        3
176
     0
 62
     5
420
      255
176
     0
290
     0
176
     0
 90
       50
176
     0
 90
       50
176
     0
 90
       50
176
     0
290
     0
176
     0
 90
       50
176
     0
 62
   256
176
     0
 40
1.0
176
     0
 90
        2
176
     0
  1
strokes_ogs.tif
176
     0
290
     0
176
     0
 40
1.0
176
     0
 40
1.0
176
     0
  0
VISUALSTYLE
  5
33
102
{ACAD_REACTORS
330
29
102
}
330
29
100
AcDbVisualStyle
  2
Realistic
 70
     8
177
     3
291
     0
 70
    58
 90
        2
176
     1
 90
        3
176
     1
 90
        0
176
     1
 90
        2
176
     1
 40
0.6
176
     1
 40
30.0
176
     1
 62
     7
420
 16777215
176
     1
 90
        0
176
     1
 90
        0
176
     1
 62
     7
176
     1
 62
   257
176
     1
 90
        1
176
     1
 90
        1
176
     1
 40
1.0
176
     1
 90
        8
176
     1
 62
   257
176
     1
 40
1.0
176
     1
 90
        1
176
     1
 90
        6
176
     1
 90
        2
176
     1
 62
     7
176
     1
 90
        3
176
     1
 90
        0
176
     1
 90
        0
176
     1
290
     0
176
     1
 90
       13
176
     1
 40
0.0
176
     1
 90
        0
176
     1
290
     0
176
     1
290
     1
176
     1
290
     1
176
     1
290
     0
176
     1
290
     0
176
     1
290
     0
176
     1
290
     0
176
     1
290
     0
176
     1
290
     0
176
     1
 90
       50
176
     1
 40
0.0
176
     1
 40
1.0
176
     1
 90
        0
176
     1
 62
    18
420
        0
176
     1
 90
       50
176
     1
 90
        3
176
     1
 62
     5
420
      255
176
     1
290
     0
176
     1
 90
       50
176
     1
 90
       50
176
     1
 90
       50
176
     1
290
     0
176
     1
 90
       50
176
     1
 62
   256
176
     0
 40
1.0
176
     0
 90
        2
176
     1
  1
strokes_ogs.tif
176
     1
290
     0
176
     1
 40
1.0
176
     1
 40
1.0
176
     1
  0
VISUALSTYLE
  5
3E
102
{ACAD_REACTORS
330
29
102
}
330
29
100
AcDbVisualStyle
  2
Shaded
 70
    27
177
     3
291
     0
 70
    58
 90
        2
176
     1
 90
        2
176
     1
 90
        1
176
     1
 90
        2
176
     1
 40
0.6
176
     1
 40
30.0
176
     1
 62
     7
420
 16777215
176
     1
 90
        0
176
     1
 90
        4
176
     1
 62
     7
176
     1
 62
   257
176
     1
 90
        1
176
     1
 90
        1
176
     1
 40
1.0
176
     1
 90
        8
176
     1
 62
   257
176
     1
 40
1.0
176
     1
 90
        1
176
     1
 90
        6
176
     1
 90
        2
176
     1
 62
     8
420
  7895160
176
     1
 90
        3
176
     1
 90
        0
176
     1
 90
        0
176
     1
290
     0
176
     1
 90
        5
176
     1
 40
0.0
176
     1
 90
        0
176
     1
290
     0
176
     1
290
     1
176
     1
290
     1
176
     1
290
     0
176
     1
290
     0
176
     1
290
     0
176
     1
290
     0
176
     1
290
     0
176
     1
290
     0
176
     1
 90
       50
176
     1
 40
0.0
176
     1
 40
1.0
176
     1
 90
        0
176
     1
 62
    18
420
        0
176
     1
 90
       50
176
     1
 90
        3
176
     1
 62
     5
420
      255
176
     1
290
     0
176
     1
 90
       50
176
     1
 90
       50
176
     1
 90
       50
176
     1
290
     0
176
     1
 90
       50
176
     1
 62
   256
176
     0
 40
1.0
176
     0
 90
        2
176
     1
  1
strokes_ogs.tif
176
     1
290
     0
176
     1
 40
1.0
176
     1
 40
1.0
176
     1
  0
VISUALSTYLE
  5
3D
102
{ACAD_REACTORS
330
29
102
}
330
29
100
AcDbVisualStyle
  2
Shaded with edges
 70
    26
177
     3
291
     0
 70
    58
 90
        2
176
     1
 90
        2
176
     1
 90
        1
176
     1
 90
        2
176
     1
 40
0.6
176
     1
 40
30.0
176
     1
 62
     7
420
 16777215
176
     1
 90
        1
176
     1
 90
        2
176
     1
 62
     7
176
     1
 62
   257
176
     1
 90
        2
176
     1
 90
        1
176
     1
 40
1.0
176
     1
 90
        8
176
     1
 62
   257
176
     1
 40
1.0
176
     1
 90
        1
176
     1
 90
        6
176
     1
 90
        2
176
     1
 62
     7
176
     1
 90
        3
176
     1
 90
        0
176
     1
 90
        0
176
     1
290
     0
176
     1
 90
        5
176
     1
 40
0.0
176
     1
 90
        0
176
     1
290
     0
176
     1
290
     1
176
     1
290
     1
176
     1
290
     0
176
     1
290
     0
176
     1
290
     0
176
     1
290
     0
176
     1
290
     0
176
     1
290
     0
176
     1
 90
       50
176
     1
 40
0.0
176
     1
 40
1.0
176
     1
 90
        0
176
     1
 62
    18
420
        0
176
     1
 90
       50
176
     1
 90
        3
176
     1
 62
     5
420
      255
176
     1
290
     0
176
     1
 90
       50
176
     1
 90
       50
176
     1
 90
       50
176
     1
290
     0
176
     1
 90
       50
176
     1
 62
   256
176
     0
 40
1.0
176
     0
 90
        2
176
     1
  1
strokes_ogs.tif
176
     1
290
     0
176
     1
 40
1.0
176
     1
 40
1.0
176
     1
  0
VISUALSTYLE
  5
3A
102
{ACAD_REACTORS
330
29
102
}
330
29
100
AcDbVisualStyle
  2
Shades of Gray
 70
    23
177
     3
291
     0
 70
    58
 90
        2
176
     1
 90
        2
176
     1
 90
        3
176
     1
 90
        0
176
     1
 40
0.6
176
     1
 40
30.0
176
     1
 62
     7
420
 16777215
176
     1
 90
        2
176
     1
 90
        2
176
     1
 62
     7
176
     1
 62
     7
176
     1
 90
        1
176
     1
 90
        1
176
     1
 40
40.0
176
     1
 90
        8
176
     1
 62
     7
176
     1
 40
1.0
176
     1
 90
        1
176
     1
 90
        6
176
     1
 90
        2
176
     1
 62
     7
176
     1
 90
        3
176
     1
 90
        0
176
     1
 90
        0
176
     1
290
     0
176
     1
 90
        1
176
     1
 40
0.0
176
     1
 90
        0
176
     1
290
     0
176
     1
290
     1
176
     1
290
     1
176
     1
290
     0
176
     1
290
     0
176
     1
290
     0
176
     1
290
     0
176
     1
290
     0
176
     1
290
     0
176
     1
 90
       50
176
     1
 40
0.0
176
     1
 40
1.0
176
     1
 90
        0
176
     1
 62
    18
420
        0
176
     1
 90
       50
176
     1
 90
        3
176
     1
 62
     5
420
      255
176
     1
290
     0
176
     1
 90
       50
176
     1
 90
       50
176
     1
 90
       50
176
     1
290
     0
176
     1
 90
       50
176
     1
 62
   256
176
     0
 40
1.0
176
     0
 90
        2
176
     1
  1
strokes_ogs.tif
176
     1
290
     0
176
     1
 40
1.0
176
     1
 40
1.0
176
     1
  0
VISUALSTYLE
  5
3B
102
{ACAD_REACTORS
330
29
102
}
330
29
100
AcDbVisualStyle
  2
Sketchy
 70
    24
177
     3
291
     0
 70
    58
 90
        1
176
     1
 90
        2
176
     1
 90
        2
176
     1
 90
        0
176
     1
 40
0.6
176
     1
 40
30.0
176
     1
 62
     7
420
 16777215
176
     1
 90
        2
176
     1
 90
        2
176
     1
 62
     7
176
     1
 62
     7
176
     1
 90
        1
176
     1
 90
        1
176
     1
 40
40.0
176
     1
 90
       11
176
     1
 62
     7
176
     1
 40
1.0
176
     1
 90
        1
176
     1
 90
        6
176
     1
 90
        2
176
     1
 62
     7
176
     1
 90
        6
176
     1
 90
        0
176
     1
 90
        0
176
     1
290
     0
176
     1
 90
        1
176
     1
 40
0.0
176
     1
 90
        0
176
     1
290
     0
176
     1
290
     1
176
     1
290
     1
176
     1
290
     0
176
     1
290
     0
176
     1
290
     0
176
     1
290
     0
176
     1
290
     0
176
     1
290
     0
176
     1
 90
       50
176
     1
 40
0.0
176
     1
 40
1.0
176
     1
 90
        0
176
     1
 62
    18
420
        0
176
     1
 90
       50
176
     1
 90
        3
176
     1
 62
     5
420
      255
176
     1
290
     0
176
     1
 90
       50
176
     1
 90
       50
176
     1
 90
       50
176
     1
290
     0
176
     1
 90
       50
176
     1
 62
   256
176
     0
 40
1.0
176
     0
 90
        2
176
     1
  1
strokes_ogs.tif
176
     1
290
     0
176
     1
 40
1.0
176
     1
 40
1.0
176
     1
  0
VISUALSTYLE
  5
36
102
{ACAD_REACTORS
330
29
102
}
330
29
100
AcDbVisualStyle
  2
Thicken
 70
    13
177
     3
291
     1
 70
    58
 90
        2
176
     1
 90
        2
176
     1
 90
        0
176
     1
 90
        0
176
     1
 40
0.6
176
     1
 40
30.0
176
     1
 62
     7
420
 16777215
176
     1
 90
        1
176
     1
 90
        4
176
     1
 62
     7
176
     1
 62
   257
176
     1
 90
        1
176
     1
 90
        1
176
     1
 40
1.0
176
     1
 90
       12
176
     1
 62
     7
176
     1
 40
1.0
176
     1
 90
        1
176
     1
 90
        6
176
     1
 90
        2
176
     1
 62
     7
176
     1
 90
        5
176
     1
 90
        0
176
     1
 90
        0
176
     1
290
     0
176
     1
 90
        1
176
     1
 40
0.0
176
     1
 90
        0
176
     1
290
     0
176
     1
290
     1
176
     1
290
     1
176
     1
290
     0
176
     1
290
     0
176
     1
290
     0
176
     1
290
     0
176
     1
290
     0
176
     1
290
     0
176
     1
 90
       50
176
     1
 40
0.0
176
     1
 40
1.0
176
     1
 90
        0
176
     1
 62
    18
420
        0
176
     1
 90
       50
176
     1
 90
        3
176
     1
 62
     5
420
      255
176
     1
290
     0
176
     1
 90
       50
176
     1
 90
       50
176
     1
 90
       50
176
     1
290
     0
176
     1
 90
       50
176
     1
 62
   256
176
     0
 40
1.0
176
     0
 90
        2
176
     1
  1
strokes_ogs.tif
176
     1
290
     0
176
     1
 40
1.0
176
     1
 40
1.0
176
     1
  0
VISUALSTYLE
  5
30
102
{ACAD_REACTORS
330
29
102
}
330
29
100
AcDbVisualStyle
  2
Wireframe
 70
     5
177
     3
291
     0
 70
    58
 90
        0
176
     1
 90
        2
176
     1
 90
        0
176
     1
 90
        0
176
     1
 40
0.6
176
     1
 40
30.0
176
     1
 62
     7
420
 16777215
176
     1
 90
        1
176
     1
 90
        4
176
     1
 62
     7
176
     1
 62
   257
176
     1
 90
        1
176
     1
 90
        1
176
     1
 40
1.0
176
     1
 90
        0
176
     1
 62
   257
176
     1
 40
1.0
176
     1
 90
        1
176
     1
 90
        6
176
     1
 90
        2
176
     1
 62
     7
176
     1
 90
        3
176
     1
 90
        0
176
     1
 90
        0
176
     1
290
     0
176
     1
 90
        1
176
     1
 40
0.0
176
     1
 90
        0
176
     1
290
     0
176
     1
290
     1
176
     1
290
     1
176
     1
290
     0
176
     1
290
     0
176
     1
290
     0
176
     1
290
     0
176
     1
290
     0
176
     1
290
     0
176
     1
 90
       50
176
     1
 40
0.0
176
     1
 40
1.0
176
     1
 90
        0
176
     1
 62
    18
420
        0
176
     1
 90
       50
176
     1
 90
        3
176
     1
 62
     5
420
      255
176
     1
290
     0
176
     1
 90
       50
176
     1
 90
       50
176
     1
 90
       50
176
     1
290
     0
176
     1
 90
       50
176
     1
 62
   256
176
     0
 40
1.0
176
     0
 90
        2
176
     1
  1
strokes_ogs.tif
176
     1
290
     0
176
     1
 40
1.0
176
     1
 40
1.0
176
     1
  0
VISUALSTYLE
  5
3C
102
{ACAD_REACTORS
330
29
102
}
330
29
100
AcDbVisualStyle
  2
X-Ray
 70
    25
177
     3
291
     0
 70
    58
 90
        2
176
     1
 90
        2
176
     1
 90
        1
176
     1
 90
        1
176
     1
 40
0.5
176
     1
 40
30.0
176
     1
 62
     7
420
 16777215
176
     1
 90
        1
176
     1
 90
        0
176
     1
 62
     7
176
     1
 62
   257
176
     1
 90
        1
176
     1
 90
        1
176
     1
 40
1.0
176
     1
 90
        8
176
     1
 62
     7
176
     1
 40
1.0
176
     1
 90
        1
176
     1
 90
        6
176
     1
 90
        2
176
     1
 62
     7
176
     1
 90
        3
176
     1
 90
        0
176
     1
 90
        0
176
     1
290
     0
176
     1
 90
       13
176
     1
 40
0.0
176
     1
 90
        0
176
     1
290
     0
176
     1
290
     1
176
     1
290
     1
176
     1
290
     0
176
     1
290
     0
176
     1
290
     0
176
     1
290
     0
176
     1
290
     0
176
     1
290
     0
176
     1
 90
       50
176
     1
 40
0.0
176
     1
 40
1.0
176
     1
 90
        0
176
     1
 62
    18
420
        0
176
     1
 90
       50
176
     1
 90
        3
176
     1
 62
     5
420
      255
176
     1
290
     0
176
     1
 90
       50
176
     1
 90
       50
176
     1
 90
       50
176
     1
290
     0
176
     1
 90
       50
176
     1
 62
   256
176
     0
 40
1.0
176
     0
 90
        2
176
     1
  1
strokes_ogs.tif
176
     1
290
     0
176
     1
 40
1.0
176
     1
 40
1.0
176
     1
  0
DICTIONARYVAR
  5
10E
102
{ACAD_REACTORS
330
109
102
}
330
109
100
DictionaryVariables
280
     0
  1
1:1
  0
DICTIONARYVAR
  5
10B
102
{ACAD_REACTORS
330
109
102
}
330
109
100
DictionaryVariables
280
     0
  1
STANDARD
  0
DICTIONARYVAR
  5
10A
102
{ACAD_REACTORS
330
109
102
}
330
109
100
DictionaryVariables
280
     0
  1
STANDARD
  0
DICTIONARYVAR
  5
10C
102
{ACAD_REACTORS
330
109
102
}
330
109
100
DictionaryVariables
280
     0
  1
Imperial24
  0
DICTIONARYVAR
  5
10D
102
{ACAD_REACTORS
330
109
102
}
330
109
100
DictionaryVariables
280
     0
  1
Imperial24
  0
DICTIONARY
  5
1A
330
19
100
AcDbDictionary
280
     1
281
     1
  3
BUMPTILE
360
1C
  3
DIFFUSETILE
360
1B
  3
OPACITYTILE
360
1F
  3
REFLECTIONTILE
360
1E
  3
REFRACTIONTILE
360
20
  3
SPECULARTILE
360
1D
  0
DICTIONARY
  5
12
330
11
100
AcDbDictionary
280
     1
281
     1
  3
BUMPTILE
360
14
  3
DIFFUSETILE
360
13
  3
OPACITYTILE
360
17
  3
REFLECTIONTILE
360
16
  3
REFRACTIONTILE
360
18
  3
SPECULARTILE
360
15
  0
DICTIONARY
  5
22
330
21
100
AcDbDictionary
280
     1
281
     1
  3
BUMPTILE
360
24
  3
DIFFUSETILE
360
23
  3
OPACITYTILE
360
27
  3
REFLECTIONTILE
360
26
  3
REFRACTIONTILE
360
28
  3
SPECULARTILE
360
25
  0
DICTIONARY
  5
10F
330
65
100
AcDbDictionary
280
     1
281
     1
  3
ACAD_ROUNDTRIP_2008_TABLESTYLE_CELLSTYLEMAP
360
110
  0
XRECORD
  5
1C
102
{ACAD_REACTORS
330
1A
102
}
330
1A
100
AcDbXrecord
280
     1
270
     1
271
     1
  0
XRECORD
  5
1B
102
{ACAD_REACTORS
330
1A
102
}
330
1A
100
AcDbXrecord
280
     1
270
     1
271
     1
  0
XRECORD
  5
1F
102
{ACAD_REACTORS
330
1A
102
}
330
1A
100
AcDbXrecord
280
     1
270
     1
271
     1
  0
XRECORD
  5
1E
102
{ACAD_REACTORS
330
1A
102
}
330
1A
100
AcDbXrecord
280
     1
270
     1
271
     1
  0
XRECORD
  5
20
102
{ACAD_REACTORS
330
1A
102
}
330
1A
100
AcDbXrecord
280
     1
270
     1
271
     1
  0
XRECORD
  5
1D
102
{ACAD_REACTORS
330
1A
102
}
330
1A
100
AcDbXrecord
280
     1
270
     1
271
     1
  0
XRECORD
  5
14
102
{ACAD_REACTORS
330
12
102
}
330
12
100
AcDbXrecord
280
     1
270
     1
271
     1
  0
XRECORD
  5
13
102
{ACAD_REACTORS
330
12
102
}
330
12
100
AcDbXrecord
280
     1
270
     1
271
     1
  0
XRECORD
  5
17
102
{ACAD_REACTORS
330
12
102
}
330
12
100
AcDbXrecord
280
     1
270
     1
271
     1
  0
XRECORD
  5
16
102
{ACAD_REACTORS
330
12
102
}
330
12
100
AcDbXrecord
280
     1
270
     1
271
     1
  0
XRECORD
  5
18
102
{ACAD_REACTORS
330
12
102
}
330
12
100
AcDbXrecord
280
     1
270
     1
271
     1
  0
XRECORD
  5
15
102
{ACAD_REACTORS
330
12
102
}
330
12
100
AcDbXrecord
280
     1
270
     1
271
     1
  0
XRECORD
  5
24
102
{ACAD_REACTORS
330
22
102
}
330
22
100
AcDbXrecord
280
     1
270
     1
271
     1
  0
XRECORD
  5
23
102
{ACAD_REACTORS
330
22
102
}
330
22
100
AcDbXrecord
280
     1
270
     1
271
     1
  0
XRECORD
  5
27
102
{ACAD_REACTORS
330
22
102
}
330
22
100
AcDbXrecord
280
     1
270
     1
271
     1
  0
XRECORD
  5
26
102
{ACAD_REACTORS
330
22
102
}
330
22
100
AcDbXrecord
280
     1
270
     1
271
     1
  0
XRECORD
  5
28
102
{ACAD_REACTORS
330
22
102
}
330
22
100
AcDbXrecord
280
     1
270
     1
271
     1
  0
XRECORD
  5
25
102
{ACAD_REACTORS
330
22
102
}
330
22
100
AcDbXrecord
280
     1
270
     1
271
     1
  0
CELLSTYLEMAP
  5
110
102
{ACAD_REACTORS
330
10F
102
}
330
10F
100
AcDbCellStyleMap
 90
        3
300
CELLSTYLE
  1
TABLEFORMAT_BEGIN
 90
        5
170
     1
 91
        0
 92
    32768
 62
   257
 93
        1
300
CONTENTFORMAT
  1
CONTENTFORMAT_BEGIN
 90
        0
 91
        0
 92
      512
 93
        0
300

 40
0.0
140
1.0
 94
        5
 62
     0
340
55
144
0.25
309
CONTENTFORMAT_END
171
     0
 94
        0
309
TABLEFORMAT_END
  1
CELLSTYLE_BEGIN
 90
        1
 91
        1
300
_TITLE
309
CELLSTYLE_END
300
CELLSTYLE
  1
TABLEFORMAT_BEGIN
 90
        5
170
     1
 91
        0
 92
        0
 62
   257
 93
        1
300
CONTENTFORMAT
  1
CONTENTFORMAT_BEGIN
 90
        0
 91
        0
 92
      512
 93
        0
300

 40
0.0
140
1.0
 94
        5
 62
     0
340
55
144
0.18
309
CONTENTFORMAT_END
171
     0
 94
        0
309
TABLEFORMAT_END
  1
CELLSTYLE_BEGIN
 90
        2
 91
        1
300
_HEADER
309
CELLSTYLE_END
300
CELLSTYLE
  1
TABLEFORMAT_BEGIN
 90
        5
170
     1
 91
        0
 92
        0
 62
   257
 93
        1
300
CONTENTFORMAT
  1
CONTENTFORMAT_BEGIN
 90
        0
 91
        0
 92
      512
 93
        0
300

 40
0.0
140
1.0
 94
        2
 62
     0
340
55
144
0.18
309
CONTENTFORMAT_END
171
     0
 94
        0
309
TABLEFORMAT_END
  1
CELLSTYLE_BEGIN
 90
        3
 91
        2
300
_DATA
309
CELLSTYLE_END
  0
ENDSEC
  0
EOF
