  0
SECTION
  2
HEADER
  9
$ACADVER
  1
AC1032
  9
$ACADMAINTVER
 90
      228
  9
$DWGCODEPAGE
  3
ANSI_1252
  9
$REQUIREDVERSIONS
160
                 0
  9
$INSBASE
 10
0.0
 20
0.0
 30
0.0
  9
$EXTMIN
 10
1.000000000000000E+20
 20
1.000000000000000E+20
 30
1.000000000000000E+20
  9
$EXTMAX
 10
-1.000000000000000E+20
 20
-1.000000000000000E+20
 30
-1.000000000000000E+20
  9
$LIMMIN
 10
0.0
 20
0.0
  9
$LIMMAX
 10
12.0
 20
9.0
  9
$ORTHOMODE
 70
     0
  9
$REGENMODE
 70
     1
  9
$FILLMODE
 70
     1
  9
$QTEXTMODE
 70
     0
  9
$MIRRTEXT
 70
     0
  9
$LTSCALE
 40
1.0
  9
$ATTMODE
 70
     1
  9
$TEXTSIZE
 40
0.2
  9
$TRACEWID
 40
0.05
  9
$TEXTSTYLE
  7
Standard
  9
$CLAYER
  8
0
  9
$CELTYPE
  6
ByLayer
  9
$CECOLOR
 62
   256
  9
$CELTSCALE
 40
1.0
  9
$DISPSILH
 70
     0
  9
$DIMSCALE
 40
1.0
  9
$DIMASZ
 40
0.18
  9
$DIMEXO
 40
0.0625
  9
$DIMDLI
 40
0.38
  9
$DIMRND
 40
0.0
  9
$DIMDLE
 40
0.0
  9
$DIMEXE
 40
0.18
  9
$DIMTP
 40
0.0
  9
$DIMTM
 40
0.0
  9
$DIMTXT
 40
0.18
  9
$DIMCEN
 40
0.09
  9
$DIMTSZ
 40
0.0
  9
$DIMTOL
 70
     0
  9
$DIMLIM
 70
     0
  9
$DIMTIH
 70
     1
  9
$DIMTOH
 70
     1
  9
$DIMSE1
 70
     0
  9
$DIMSE2
 70
     0
  9
$DIMTAD
 70
     0
  9
$DIMZIN
 70
     0
  9
$DIMBLK
  1

  9
$DIMASO
 70
     1
  9
$DIMSHO
 70
     1
  9
$DIMPOST
  1

  9
$DIMAPOST
  1

  9
$DIMALT
 70
     0
  9
$DIMALTD
 70
     2
  9
$DIMALTF
 40
25.4
  9
$DIMLFAC
 40
1.0
  9
$DIMTOFL
 70
     0
  9
$DIMTVP
 40
0.0
  9
$DIMTIX
 70
     0
  9
$DIMSOXD
 70
     0
  9
$DIMSAH
 70
     0
  9
$DIMBLK1
  1

  9
$DIMBLK2
  1

  9
$DIMSTYLE
  2
Standard
  9
$DIMCLRD
 70
     0
  9
$DIMCLRE
 70
     0
  9
$DIMCLRT
 70
     0
  9
$DIMTFAC
 40
1.0
  9
$DIMGAP
 40
0.09
  9
$DIMJUST
 70
     0
  9
$DIMSD1
 70
     0
  9
$DIMSD2
 70
     0
  9
$DIMTOLJ
 70
     1
  9
$DIMTZIN
 70
     0
  9
$DIMALTZ
 70
     0
  9
$DIMALTTZ
 70
     0
  9
$DIMUPT
 70
     0
  9
$DIMDEC
 70
     4
  9
$DIMTDEC
 70
     4
  9
$DIMALTU
 70
     2
  9
$DIMALTTD
 70
     2
  9
$DIMTXSTY
  7
Standard
  9
$DIMAUNIT
 70
     0
  9
$DIMADEC
 70
     0
  9
$DIMALTRND
 40
0.0
  9
$DIMAZIN
 70
     0
  9
$DIMDSEP
 70
    46
  9
$DIMATFIT
 70
     3
  9
$DIMFRAC
 70
     0
  9
$DIMLDRBLK
  1

  9
$DIMLUNIT
 70
     2
  9
$DIMLWD
 70
    -2
  9
$DIMLWE
 70
    -2
  9
$DIMTMOVE
 70
     0
  9
$DIMFXL
 40
1.0
  9
$DIMFXLON
 70
     0
  9
$DIMJOGANG
 40
0.7853981633974483
  9
$DIMTFILL
 70
     0
  9
$DIMTFILLCLR
 70
     0
  9
$DIMARCSYM
 70
     0
  9
$DIMLTYPE
  6

  9
$DIMLTEX1
  6

  9
$DIMLTEX2
  6

  9
$DIMTXTDIRECTION
 70
     0
  9
$LUNITS
 70
     2
  9
$LUPREC
 70
     4
  9
$SKETCHINC
 40
0.1
  9
$FILLETRAD
 40
0.0
  9
$AUNITS
 70
     0
  9
$AUPREC
 70
     0
  9
$MENU
  1
.
  9
$ELEVATION
 40
0.0
  9
$PELEVATION
 40
0.0
  9
$THICKNESS
 40
0.0
  9
$LIMCHECK
 70
     0
  9
$CHAMFERA
 40
0.0
  9
$CHAMFERB
 40
0.0
  9
$CHAMFERC
 40
0.0
  9
$CHAMFERD
 40
0.0
  9
$SKPOLY
 70
     0
  9
$TDCREATE
 40
2460398.997199074
  9
$TDUCREATE
 40
2460399.288865741
  9
$TDUPDATE
 40
2460398.997199074
  9
$TDUUPDATE
 40
2460399.288865741
  9
$TDINDWG
 40
0.0000000000
  9
$TDUSRTIMER
 40
0.0000000000
  9
$USRTIMER
 70
     1
  9
$ANGBASE
 50
0.0
  9
$ANGDIR
 70
     0
  9
$PDMODE
 70
     0
  9
$PDSIZE
 40
0.0
  9
$PLINEWID
 40
0.0
  9
$SPLFRAME
 70
     0
  9
$SPLINETYPE
 70
     6
  9
$SPLINESEGS
 70
     8
  9
$HANDSEED
  5
A4
  9
$SURFTAB1
 70
     6
  9
$SURFTAB2
 70
     6
  9
$SURFTYPE
 70
     6
  9
$SURFU
 70
     6
  9
$SURFV
 70
     6
  9
$UCSBASE
  2

  9
$UCSNAME
  2

  9
$UCSORG
 10
0.0
 20
0.0
 30
0.0
  9
$UCSXDIR
 10
1.0
 20
0.0
 30
0.0
  9
$UCSYDIR
 10
0.0
 20
1.0
 30
0.0
  9
$UCSORTHOREF
  2

  9
$UCSORTHOVIEW
 70
     0
  9
$UCSORGTOP
 10
0.0
 20
0.0
 30
0.0
  9
$UCSORGBOTTOM
 10
0.0
 20
0.0
 30
0.0
  9
$UCSORGLEFT
 10
0.0
 20
0.0
 30
0.0
  9
$UCSORGRIGHT
 10
0.0
 20
0.0
 30
0.0
  9
$UCSORGFRONT
 10
0.0
 20
0.0
 30
0.0
  9
$UCSORGBACK
 10
0.0
 20
0.0
 30
0.0
  9
$PUCSBASE
  2

  9
$PUCSNAME
  2

  9
$PUCSORG
 10
0.0
 20
0.0
 30
0.0
  9
$PUCSXDIR
 10
1.0
 20
0.0
 30
0.0
  9
$PUCSYDIR
 10
0.0
 20
1.0
 30
0.0
  9
$PUCSORTHOREF
  2

  9
$PUCSORTHOVIEW
 70
     0
  9
$PUCSORGTOP
 10
0.0
 20
0.0
 30
0.0
  9
$PUCSORGBOTTOM
 10
0.0
 20
0.0
 30
0.0
  9
$PUCSORGLEFT
 10
0.0
 20
0.0
 30
0.0
  9
$PUCSORGRIGHT
 10
0.0
 20
0.0
 30
0.0
  9
$PUCSORGFRONT
 10
0.0
 20
0.0
 30
0.0
  9
$PUCSORGBACK
 10
0.0
 20
0.0
 30
0.0
  9
$USERI1
 70
     0
  9
$USERI2
 70
     0
  9
$USERI3
 70
     0
  9
$USERI4
 70
     0
  9
$USERI5
 70
     0
  9
$USERR1
 40
0.0
  9
$USERR2
 40
0.0
  9
$USERR3
 40
0.0
  9
$USERR4
 40
0.0
  9
$USERR5
 40
0.0
  9
$WORLDVIEW
 70
     1
  9
$SHADEDGE
 70
     3
  9
$SHADEDIF
 70
    70
  9
$TILEMODE
 70
     1
  9
$MAXACTVP
 70
    64
  9
$PINSBASE
 10
0.0
 20
0.0
 30
0.0
  9
$PLIMCHECK
 70
     0
  9
$PEXTMIN
 10
1.000000000000000E+20
 20
1.000000000000000E+20
 30
1.000000000000000E+20
  9
$PEXTMAX
 10
-1.000000000000000E+20
 20
-1.000000000000000E+20
 30
-1.000000000000000E+20
  9
$PLIMMIN
 10
0.0
 20
0.0
  9
$PLIMMAX
 10
12.0
 20
9.0
  9
$UNITMODE
 70
     0
  9
$VISRETAIN
 70
     1
  9
$PLINEGEN
 70
     0
  9
$PSLTSCALE
 70
     1
  9
$TREEDEPTH
 70
  3020
  9
$CMLSTYLE
  2
Standard
  9
$CMLJUST
 70
     0
  9
$CMLSCALE
 40
1.0
  9
$PROXYGRAPHICS
 70
     1
  9
$MEASUREMENT
 70
     0
  9
$CELWEIGHT
370
    -1
  9
$ENDCAPS
280
     0
  9
$JOINSTYLE
280
     0
  9
$LWDISPLAY
290
     1
  9
$INSUNITS
 70
     1
  9
$HYPERLINKBASE
  1

  9
$STYLESHEET
  1

  9
$XEDIT
290
     1
  9
$CEPSNTYPE
380
     0
  9
$PSTYLEMODE
290
     1
  9
$FINGERPRINTGUID
  2
{30C22BEE-6911-A848-820E-1C84DF8063CE}
  9
$VERSIONGUID
  2
{35B6887A-7AAB-4243-855E-7124D67F3CCA}
  9
$EXTNAMES
290
     1
  9
$PSVPSCALE
 40
0.0
  9
$OLESTARTUP
290
     0
  9
$SORTENTS
280
   127
  9
$INDEXCTL
280
     0
  9
$HIDETEXT
280
     1
  9
$XCLIPFRAME
280
     2
  9
$HALOGAP
280
     0
  9
$OBSCOLOR
 70
   257
  9
$OBSLTYPE
280
     0
  9
$INTERSECTIONDISPLAY
280
     0
  9
$INTERSECTIONCOLOR
 70
   257
  9
$DIMASSOC
280
     2
  9
$PROJECTNAME
  1

  9
$CAMERADISPLAY
290
     0
  9
$LENSLENGTH
 40
50.0
  9
$CAMERAHEIGHT
 40
0.0
  9
$STEPSPERSEC
 40
2.0
  9
$STEPSIZE
 40
6.0
  9
$3DDWFPREC
 40
2.0
  9
$PSOLWIDTH
 40
0.25
  9
$PSOLHEIGHT
 40
4.0
  9
$LOFTANG1
 40
1.570796326794896
  9
$LOFTANG2
 40
1.570796326794896
  9
$LOFTMAG1
 40
0.0
  9
$LOFTMAG2
 40
0.0
  9
$LOFTPARAM
 70
     7
  9
$LOFTNORMALS
280
     1
  9
$LATITUDE
 40
37.795
  9
$LONGITUDE
 40
-122.394
  9
$NORTHDIRECTION
 40
0.0
  9
$TIMEZONE
 70
 -8000
  9
$LIGHTGLYPHDISPLAY
280
     1
  9
$TILEMODELIGHTSYNCH
280
     1
  9
$CMATERIAL
347
11
  9
$SOLIDHIST
280
     0
  9
$SHOWHIST
280
     1
  9
$DWFFRAME
280
     2
  9
$DGNFRAME
280
     0
  9
$REALWORLDSCALE
290
     1
  9
$INTERFERECOLOR
 62
     1
  9
$INTERFEREOBJVS
345
33
  9
$INTERFEREVPVS
346
30
  9
$CSHADOW
280
     0
  9
$SHADOWPLANELOCATION
 40
0.0
  0
ENDSEC
  0
SECTION
  2
CLASSES
  0
CLASS
  1
ACDBDICTIONARYWDFLT
  2
AcDbDictionaryWithDefault
  3
ObjectDBX Classes
 90
        0
 91
        1
280
     0
281
     0
  0
CLASS
  1
MATERIAL
  2
AcDbMaterial
  3
ObjectDBX Classes
 90
     1153
 91
        3
280
     0
281
     0
  0
CLASS
  1
VISUALSTYLE
  2
AcDbVisualStyle
  3
ObjectDBX Classes
 90
     4095
 91
       24
280
     0
281
     0
  0
CLASS
  1
SCALE
  2
AcDbScale
  3
ObjectDBX Classes
 90
     1153
 91
       17
280
     0
281
     0
  0
CLASS
  1
TABLESTYLE
  2
AcDbTableStyle
  3
ObjectDBX Classes
 90
     4095
 91
        1
280
     0
281
     0
  0
CLASS
  1
MLEADERSTYLE
  2
AcDbMLeaderStyle
  3
ACDB_MLEADERSTYLE_CLASS
 90
     4095
 91
        1
280
     0
281
     0
  0
CLASS
  1
ACDBSECTIONVIEWSTYLE
  2
AcDbSectionViewStyle
  3
ObjectDBX Classes
 90
     1025
 91
        1
280
     0
281
     0
  0
CLASS
  1
ACDBDETAILVIEWSTYLE
  2
AcDbDetailViewStyle
  3
ObjectDBX Classes
 90
     1025
 91
        1
280
     0
281
     0
  0
CLASS
  1
DICTIONARYVAR
  2
AcDbDictionaryVar
  3
ObjectDBX Classes
 90
        0
 91
        5
280
     0
281
     0
  0
CLASS
  1
CELLSTYLEMAP
  2
AcDbCellStyleMap
  3
ObjectDBX Classes
 90
     1152
 91
        1
280
     0
281
     0
  0
ENDSEC
  0
SECTION
  2
TABLES
  0
TABLE
  2
VPORT
  5
8
330
0
100
AcDbSymbolTable
 70
     1
  0
VPORT
  5
57
330
8
100
AcDbSymbolTableRecord
100
AcDbViewportTableRecord
  2
*Active
 70
     0
 10
0.0
 20
0.0
 11
1.0
 21
1.0
 12
0.0
 22
0.0
 13
0.0
 23
0.0
 14
1.0
 24
1.0
 15
0.0
 25
0.0
 16
0.0
 26
0.0
 36
1.0
 17
0.9063715204259281
 27
-9.464948306989626
 37
0.0
 40
28.18769568220839
 41
1.322120462652983
 42
50.0
 43
0.0
 44
0.0
 50
0.0
 51
0.0
 71
     0
 72
   100
 73
     1
 74
     1
 75
     0
 76
     0
 77
     0
 78
     0
281
     0
 65
     1
110
0.0
120
0.0
130
0.0
111
1.0
121
0.0
131
0.0
112
0.0
122
1.0
132
0.0
 79
     0
146
0.0
 60
     3
 61
     5
292
     1
282
     1
141
0.0
142
0.0
 63
   250
421
  3355443
  0
ENDTAB
  0
TABLE
  2
LTYPE
  5
5
330
0
100
AcDbSymbolTable
 70
     1
  0
LTYPE
  5
5B
330
5
100
AcDbSymbolTableRecord
100
AcDbLinetypeTableRecord
  2
ByBlock
 70
     0
  3

 72
    65
 73
     0
 40
0.0
  0
LTYPE
  5
5C
330
5
100
AcDbSymbolTableRecord
100
AcDbLinetypeTableRecord
  2
ByLayer
 70
     0
  3

 72
    65
 73
     0
 40
0.0
  0
LTYPE
  5
5D
330
5
100
AcDbSymbolTableRecord
100
AcDbLinetypeTableRecord
  2
Continuous
 70
     0
  3
Solid line
 72
    65
 73
     0
 40
0.0
  0
ENDTAB
  0
TABLE
  2
LAYER
  5
2
330
0
100
AcDbSymbolTable
 70
     8
  0
LAYER
  5
54
330
2
100
AcDbSymbolTableRecord
100
AcDbLayerTableRecord
  2
0
 70
     0
 62
     7
  6
Continuous
370
    -3
390
F
347
21
348
0
  0
LAYER
  5
78
330
2
100
AcDbSymbolTableRecord
100
AcDbLayerTableRecord
  2
Luffy
 70
     1
 62
     7
  6
Continuous
370
     0
390
F
347
21
348
0
  0
LAYER
  5
79
330
2
100
AcDbSymbolTableRecord
100
AcDbLayerTableRecord
  2
Deck Box - DF
 70
     1
 62
     7
  6
Continuous
370
     0
390
F
347
21
348
0
  0
LAYER
  5
7A
330
2
100
AcDbSymbolTableRecord
100
AcDbLayerTableRecord
  2
Deck Box - G5
 70
     1
 62
     7
  6
Continuous
370
     0
390
F
347
21
348
0
  0
LAYER
  5
7B
330
2
100
AcDbSymbolTableRecord
100
AcDbLayerTableRecord
  2
Poneglyph
 70
     1
 62
     7
  6
Continuous
370
     0
390
F
347
21
348
0
  0
LAYER
  5
7C
330
2
100
AcDbSymbolTableRecord
100
AcDbLayerTableRecord
  2
Crocodile
 70
     1
 62
     7
  6
Continuous
370
     0
390
F
347
21
348
0
  0
LAYER
  5
7D
330
2
100
AcDbSymbolTableRecord
100
AcDbLayerTableRecord
  2
Layer 2
 70
     5
 62
     7
  6
Continuous
370
     0
390
F
347
21
348
0
  0
LAYER
  5
7E
330
2
100
AcDbSymbolTableRecord
100
AcDbLayerTableRecord
  2
Lid
 70
     0
 62
     7
  6
Continuous
370
     0
390
F
347
21
348
0
  0
ENDTAB
  0
TABLE
  2
STYLE
  5
3
330
0
100
AcDbSymbolTable
 70
     2
  0
STYLE
  5
55
330
3
100
AcDbSymbolTableRecord
100
AcDbTextStyleTableRecord
  2
Standard
 70
     0
 40
0.0
 41
1.0
 50
0.0
 71
     0
 42
0.2
  3
txt
  4

  0
STYLE
  5
5A
330
3
100
AcDbSymbolTableRecord
100
AcDbTextStyleTableRecord
  2
Annotative
 70
     0
 40
0.0
 41
1.0
 50
0.0
 71
     0
 42
0.2
  3
txt
  4

1001
AcadAnnotative
1000
AnnotativeData
1002
{
1070
     1
1070
     1
1002
}
  0
ENDTAB
  0
TABLE
  2
VIEW
  5
6
330
0
100
AcDbSymbolTable
 70
     0
  0
ENDTAB
  0
TABLE
  2
UCS
  5
7
330
0
100
AcDbSymbolTable
 70
     0
  0
ENDTAB
  0
TABLE
  2
APPID
  5
9
330
0
100
AcDbSymbolTable
 70
     2
  0
APPID
  5
56
330
9
100
AcDbSymbolTableRecord
100
AcDbRegAppTableRecord
  2
ACAD
 70
     0
  0
APPID
  5
5E
330
9
100
AcDbSymbolTableRecord
100
AcDbRegAppTableRecord
  2
AcadAnnotative
 70
     0
  0
ENDTAB
  0
TABLE
  2
DIMSTYLE
  5
A
330
0
100
AcDbSymbolTable
 70
     2
100
AcDbDimStyleTable
 71
     0
  0
DIMSTYLE
105
58
330
A
100
AcDbSymbolTableRecord
100
AcDbDimStyleTableRecord
  2
Standard
 70
     0
340
55
  0
DIMSTYLE
105
59
330
A
100
AcDbSymbolTableRecord
100
AcDbDimStyleTableRecord
  2
Annotative
 70
     0
340
55
1001
AcadAnnotative
1000
AnnotativeData
1002
{
1070
     1
1070
     1
1002
}
  0
ENDTAB
  0
TABLE
  2
BLOCK_RECORD
  5
1
330
0
100
AcDbSymbolTable
 70
     2
  0
BLOCK_RECORD
  5
70
330
1
100
AcDbSymbolTableRecord
100
AcDbBlockTableRecord
  2
*Model_Space
340
73
 70
     0
280
     1
281
     0
  0
BLOCK_RECORD
  5
6C
330
1
100
AcDbSymbolTableRecord
100
AcDbBlockTableRecord
  2
*Paper_Space
340
6F
 70
     0
280
     1
281
     0
  0
BLOCK_RECORD
  5
74
330
1
100
AcDbSymbolTableRecord
100
AcDbBlockTableRecord
  2
*Paper_Space0
340
77
 70
     0
280
     1
281
     0
  0
BLOCK_RECORD
  5
80
330
1
100
AcDbSymbolTableRecord
100
AcDbBlockTableRecord
  2
Block_0
340
0
102
{BLKREFS
331
81
102
}
 70
     0
280
     1
281
     0
  0
ENDTAB
  0
ENDSEC
  0
SECTION
  2
BLOCKS
  0
BLOCK
  5
71
330
70
100
AcDbEntity
  8
0
100
AcDbBlockBegin
  2
*Model_Space
 70
     0
 10
0.0
 20
0.0
 30
0.0
  3
*Model_Space
  1

  0
ENDBLK
  5
72
330
70
100
AcDbEntity
  8
0
100
AcDbBlockEnd
  0
BLOCK
  5
6D
330
6C
100
AcDbEntity
 67
     1
  8
0
100
AcDbBlockBegin
  2
*Paper_Space
 70
     0
 10
0.0
 20
0.0
 30
0.0
  3
*Paper_Space
  1

  0
ENDBLK
  5
6E
330
6C
100
AcDbEntity
 67
     1
  8
0
100
AcDbBlockEnd
  0
BLOCK
  5
75
330
74
100
AcDbEntity
 67
     1
  8
0
100
AcDbBlockBegin
  2
*Paper_Space0
 70
     0
 10
0.0
 20
0.0
 30
0.0
  3
*Paper_Space0
  1

  0
ENDBLK
  5
76
330
74
100
AcDbEntity
 67
     1
  8
0
100
AcDbBlockEnd
  0
BLOCK
  5
82
330
80
100
AcDbEntity
  8
0
100
AcDbBlockBegin
  2
Block_0
 70
     0
 10
0.0
 20
0.0
 30
0.0
  3
Block_0
  1

  0
SPLINE
  5
84
330
80
100
AcDbEntity
  8
Lid
100
AcDbSpline
210
0.0
220
0.0
230
1.0
 70
     9
 71
     3
 72
    17
 73
    13
 74
     0
 42
0.0000000001
 43
0.0000000001
 40
0.0
 40
0.0
 40
0.0
 40
0.0
 40
1.0
 40
1.0
 40
1.0
 40
2.0
 40
2.0
 40
2.0
 40
3.0
 40
3.0
 40
3.0
 40
4.0
 40
4.0
 40
4.0
 40
4.0
 10
3.801637565445364
 20
-6.644067914720936
 30
0.0
 10
4.246843119653552
 20
-6.644956670646428
 30
0.0
 10
4.615649851399035
 20
-6.287236146099429
 30
0.0
 10
4.617911682273288
 20
-5.835299016790031
 30
0.0
 10
4.620160582652791
 20
-5.385977798168369
 30
0.0
 10
4.262705819583414
 20
-5.016841300018338
 30
0.0
 10
3.801558904935695
 20
-5.016824490376683
 30
0.0
 10
3.335423405417486
 20
-5.01680750114484
 30
0.0
 10
2.98404838138438
 20
-5.393446523097294
 30
0.0
 10
2.985241937884893
 20
-5.833103706324132
 30
0.0
 10
2.986451406077574
 20
-6.278621563930906
 30
0.0
 10
3.350764359884603
 20
-6.645086550270863
 30
0.0
 10
3.801637565445364
 20
-6.644067914720936
 30
0.0
  0
SPLINE
  5
85
330
80
100
AcDbEntity
  8
Lid
100
AcDbSpline
210
0.0
220
0.0
230
1.0
 70
     9
 71
     3
 72
   269
 73
   265
 74
     0
 42
0.0000000001
 43
0.0000000001
 40
0.0
 40
0.0
 40
0.0
 40
0.0
 40
1.0
 40
1.0
 40
1.0
 40
2.0
 40
2.0
 40
2.0
 40
3.0
 40
3.0
 40
3.0
 40
4.0
 40
4.0
 40
4.0
 40
5.0
 40
5.0
 40
5.0
 40
6.0
 40
6.0
 40
6.0
 40
7.0
 40
7.0
 40
7.0
 40
8.0
 40
8.0
 40
8.0
 40
9.0
 40
9.0
 40
9.0
 40
10.0
 40
10.0
 40
10.0
 40
11.0
 40
11.0
 40
11.0
 40
12.0
 40
12.0
 40
12.0
 40
13.0
 40
13.0
 40
13.0
 40
14.0
 40
14.0
 40
14.0
 40
15.0
 40
15.0
 40
15.0
 40
16.0
 40
16.0
 40
16.0
 40
17.0
 40
17.0
 40
17.0
 40
18.0
 40
18.0
 40
18.0
 40
19.0
 40
19.0
 40
19.0
 40
20.0
 40
20.0
 40
20.0
 40
21.0
 40
21.0
 40
21.0
 40
22.0
 40
22.0
 40
22.0
 40
23.0
 40
23.0
 40
23.0
 40
24.0
 40
24.0
 40
24.0
 40
25.0
 40
25.0
 40
25.0
 40
26.0
 40
26.0
 40
26.0
 40
27.0
 40
27.0
 40
27.0
 40
28.0
 40
28.0
 40
28.0
 40
29.0
 40
29.0
 40
29.0
 40
30.0
 40
30.0
 40
30.0
 40
31.0
 40
31.0
 40
31.0
 40
32.0
 40
32.0
 40
32.0
 40
33.0
 40
33.0
 40
33.0
 40
34.0
 40
34.0
 40
34.0
 40
35.0
 40
35.0
 40
35.0
 40
36.0
 40
36.0
 40
36.0
 40
37.0
 40
37.0
 40
37.0
 40
38.0
 40
38.0
 40
38.0
 40
39.0
 40
39.0
 40
39.0
 40
40.0
 40
40.0
 40
40.0
 40
41.0
 40
41.0
 40
41.0
 40
42.0
 40
42.0
 40
42.0
 40
43.0
 40
43.0
 40
43.0
 40
44.0
 40
44.0
 40
44.0
 40
45.0
 40
45.0
 40
45.0
 40
46.0
 40
46.0
 40
46.0
 40
47.0
 40
47.0
 40
47.0
 40
48.0
 40
48.0
 40
48.0
 40
49.0
 40
49.0
 40
49.0
 40
50.0
 40
50.0
 40
50.0
 40
51.0
 40
51.0
 40
51.0
 40
52.0
 40
52.0
 40
52.0
 40
53.0
 40
53.0
 40
53.0
 40
54.0
 40
54.0
 40
54.0
 40
55.0
 40
55.0
 40
55.0
 40
56.0
 40
56.0
 40
56.0
 40
57.0
 40
57.0
 40
57.0
 40
58.0
 40
58.0
 40
58.0
 40
59.0
 40
59.0
 40
59.0
 40
60.0
 40
60.0
 40
60.0
 40
61.0
 40
61.0
 40
61.0
 40
62.0
 40
62.0
 40
62.0
 40
63.0
 40
63.0
 40
63.0
 40
64.0
 40
64.0
 40
64.0
 40
65.0
 40
65.0
 40
65.0
 40
66.0
 40
66.0
 40
66.0
 40
67.0
 40
67.0
 40
67.0
 40
68.0
 40
68.0
 40
68.0
 40
69.0
 40
69.0
 40
69.0
 40
70.0
 40
70.0
 40
70.0
 40
71.0
 40
71.0
 40
71.0
 40
72.0
 40
72.0
 40
72.0
 40
73.0
 40
73.0
 40
73.0
 40
74.0
 40
74.0
 40
74.0
 40
75.0
 40
75.0
 40
75.0
 40
76.0
 40
76.0
 40
76.0
 40
77.0
 40
77.0
 40
77.0
 40
78.0
 40
78.0
 40
78.0
 40
79.0
 40
79.0
 40
79.0
 40
80.0
 40
80.0
 40
80.0
 40
81.0
 40
81.0
 40
81.0
 40
82.0
 40
82.0
 40
82.0
 40
83.0
 40
83.0
 40
83.0
 40
84.0
 40
84.0
 40
84.0
 40
85.0
 40
85.0
 40
85.0
 40
86.0
 40
86.0
 40
86.0
 40
87.0
 40
87.0
 40
87.0
 40
88.0
 40
88.0
 40
88.0
 40
88.0
 10
2.920558287328225
 20
-5.948867972935507
 30
0.0
 10
2.860527208369022
 20
-5.92947424397289
 30
0.0
 10
2.827331287995118
 20
-5.890680895489518
 30
0.0
 10
2.827511416970436
 20
-5.83104474072949
 30
0.0
 10
2.827689911674901
 20
-5.771944123911958
 30
0.0
 10
2.860456773090744
 20
-5.733307809089486
 30
0.0
 10
2.919491054577696
 20
-5.714774819983024
 30
0.0
 10
2.913780409330153
 20
-5.709333668283761
 30
0.0
 10
2.910209509535711
 20
-5.70556148412561
 30
0.0
 10
2.90626644496001
 20
-5.702229655109931
 30
0.0
 10
2.844451137316961
 20
-5.649996567105871
 30
0.0
 10
2.84920560839656
 20
-5.55531417723028
 30
0.0
 10
2.915969829433859
 20
-5.511163366075581
 30
0.0
 10
2.933094258305926
 20
-5.499839055304859
 30
0.0
 10
2.952051512971264
 20
-5.494274345555847
 30
0.0
 10
2.97258348638757
 20
-5.493850871891039
 30
0.0
 10
2.977423514240702
 20
-5.493750947910092
 30
0.0
 10
2.982249893238278
 20
-5.492988048788762
 30
0.0
 10
2.990392800464355
 20
-5.492216529338381
 30
0.0
 10
2.949571982850834
 20
-5.444265877136444
 30
0.0
 10
2.93729182016073
 20
-5.393124266462804
 30
0.0
 10
2.969468673877018
 20
-5.3399310174742
 30
0.0
 10
3.002408031684479
 20
-5.285476973525292
 30
0.0
 10
3.052546707479374
 20
-5.273837733399773
 30
0.0
 10
3.111889704528241
 20
-5.295867918167624
 30
0.0
 10
3.112405846776583
 20
-5.295003514671685
 30
0.0
 10
3.112921989024926
 20
-5.29413903933966
 30
0.0
 10
3.113438131273293
 20
-5.293274564007648
 30
0.0
 10
3.111174396742853
 20
-5.288271468696532
 30
0.0
 10
3.109136335263681
 20
-5.283151424254596
 30
0.0
 10
3.106612482280752
 20
-5.27828316525712
 30
0.0
 10
3.077911776566907
 20
-5.222921831675218
 30
0.0
 10
3.092116930743309
 20
-5.157031448595918
 30
0.0
 10
3.140979474461548
 20
-5.12398390860777
 30
0.0
 10
3.178313691922691
 20
-5.098733528085517
 30
0.0
 10
3.217326539027301
 20
-5.098866532579209
 30
0.0
 10
3.256682583013116
 20
-5.119909079063682
 30
0.0
 10
3.260477970563467
 20
-5.121938376359202
 30
0.0
 10
3.264189022553687
 20
-5.124132393775728
 30
0.0
 10
3.268042238149948
 20
-5.12604201216954
 30
0.0
 10
3.268956998816671
 20
-5.126495333723684
 30
0.0
 10
3.270287762233616
 20
-5.126109142982045
 30
0.0
 10
3.273433536095479
 20
-5.126109142982045
 30
0.0
 10
3.272801234902721
 20
-5.120169125656818
 30
0.0
 10
3.272508574705094
 20
-5.114580314904515
 30
0.0
 10
3.271576645214811
 20
-5.109100156216312
 30
0.0
 10
3.261126937727213
 20
-5.04764292102546
 30
0.0
 10
3.298778311489892
 20
-4.988877096237577
 30
0.0
 10
3.358054716490844
 20
-4.975801278275121
 30
0.0
 10
3.396848355791563
 20
-4.967243733950529
 30
0.0
 10
3.430091077372834
 20
-4.979265608931958
 30
0.0
 10
3.457865492728791
 20
-5.006922102883524
 30
0.0
 10
3.462445545801579
 20
-5.011482759805895
 30
0.0
 10
3.465456267829495
 20
-5.017619428387673
 30
0.0
 10
3.469192318776195
 20
-5.023027751000413
 30
0.0
 10
3.470898210212756
 20
-5.021894393237971
 30
0.0
 10
3.472604173485377
 20
-5.020761035475516
 30
0.0
 10
3.474310064921913
 20
-5.019627677713073
 30
0.0
 10
3.474805805723008
 20
-5.015207137055855
 30
0.0
 10
3.475574236290917
 20
-5.010797730990361
 30
0.0
 10
3.475755694233789
 20
-5.006364295757609
 30
0.0
 10
3.477962786013626
 20
-4.952430057650695
 30
0.0
 10
3.510983677774017
 20
-4.908950770129333
 30
0.0
 10
3.560176739305031
 20
-4.895339575855536
 30
0.0
 10
3.604325614838166
 20
-4.883124048773715
 30
0.0
 10
3.652864537007518
 20
-4.90316151876747
 30
0.0
 10
3.679016606290158
 20
-4.944305972205382
 30
0.0
 10
3.681629715604837
 20
-4.948417222639729
 30
0.0
 10
3.684716871223877
 20
-4.952227120737524
 30
0.0
 10
3.689100596284863
 20
-4.958265984502569
 30
0.0
 10
3.692101333097399
 20
-4.951490657291969
 30
0.0
 10
3.694474869078981
 20
-4.947157325630365
 30
0.0
 10
3.695994274046951
 20
-4.942542755733357
 30
0.0
 10
3.711798571242196
 20
-4.894543865606743
 30
0.0
 10
3.753320760441207
 20
-4.863247796892285
 30
0.0
 10
3.801461064192153
 20
-4.863221271421429
 30
0.0
 10
3.848480437721364
 20
-4.86319539247524
 30
0.0
 10
3.890504545624505
 20
-4.895002072014031
 30
0.0
 10
3.90601022022737
 20
-4.942203007014502
 30
0.0
 10
3.90754090346018
 20
-4.946862474458662
 30
0.0
 10
3.909808624893154
 20
-4.951279818410512
 30
0.0
 10
3.912699883516905
 20
-4.958080827018092
 30
0.0
 10
3.916486507065251
 20
-4.95338382522449
 30
0.0
 10
3.919038124693845
 20
-4.950705668577433
 30
0.0
 10
3.921038184885698
 20
-4.947664775667375
 30
0.0
 10
3.950386241451446
 20
-4.903044174538219
 30
0.0
 10
3.995618261427251
 20
-4.882967248580004
 30
0.0
 10
4.040387513363561
 20
-4.894782684639594
 30
0.0
 10
4.089312913653454
 20
-4.907695003694306
 30
0.0
 10
4.123020845700996
 20
-4.950570221657168
 30
0.0
 10
4.126031208548511
 20
-5.003622348675548
 30
0.0
 10
4.126332201731606
 20
-5.008927837946278
 30
0.0
 10
4.127014644509523
 20
-5.014211632722208
 30
0.0
 10
4.127791767243353
 20
-5.022350516399064
 30
0.0
 10
4.132573751542344
 20
-5.018176768579084
 30
0.0
 10
4.135548771037544
 20
-5.01598526542519
 30
0.0
 10
4.138044212850092
 20
-5.013341159077905
 30
0.0
 10
4.175633448401918
 20
-4.973514340894982
 30
0.0
 10
4.221810112854553
 20
-4.962671547338041
 30
0.0
 10
4.26685133619685
 20
-4.983183907667617
 30
0.0
 10
4.310731688455916
 20
-5.003167626317917
 30
0.0
 10
4.336787066372354
 20
-5.052090148784688
 30
0.0
 10
4.33104592670803
 20
-5.103783101337423
 30
0.0
 10
4.330248833543438
 20
-5.110960818324693
 30
0.0
 10
4.329294994048142
 20
-5.118121150981689
 30
0.0
 10
4.328104239154829
 20
-5.127807455559895
 30
0.0
 10
4.33362843385185
 20
-5.12566749479015
 30
0.0
 10
4.337047687677442
 20
-5.125017162799053
 30
0.0
 10
4.339685795948601
 20
-5.123220003781384
 30
0.0
 10
4.379910697344813
 20
-5.095818887078053
 30
0.0
 10
4.436508191180109
 20
-5.099637010406505
 30
0.0
 10
4.471680429920803
 20
-5.132069849096991
 30
0.0
 10
4.509523534186024
 20
-5.166965408044246
 30
0.0
 10
4.520816166258478
 20
-5.220922705531405
 30
0.0
 10
4.49968170362336
 20
-5.26914619114791
 30
0.0
 10
4.496164034365594
 20
-5.277172795038823
 30
0.0
 10
4.49231735585277
 20
-5.285055295762364
 30
0.0
 10
4.486781380038311
 20
-5.296966076253093
 30
0.0
 10
4.548901344504656
 20
-5.273908276425875
 30
0.0
 10
4.599185308775177
 20
-5.285139559478882
 30
0.0
 10
4.632294989932764
 20
-5.339414444255604
 30
0.0
 10
4.66476087612452
 20
-5.39263369790352
 30
0.0
 10
4.652813242657455
 20
-5.44378543746379
 30
0.0
 10
4.611014700051454
 20
-5.492688205009812
 30
0.0
 10
4.672922604404043
 20
-5.492901198973539
 30
0.0
 10
4.716156431926138
 20
-5.517724442191138
 30
0.0
 10
4.733660442654909
 20
-5.575251777120127
 30
0.0
 10
4.750883430631296
 20
-5.631855228282751
 30
0.0
 10
4.729553430181314
 20
-5.677097804112185
 30
0.0
 10
4.681845938823723
 20
-5.714260330010599
 30
0.0
 10
4.741268314743087
 20
-5.733372820737813
 30
0.0
 10
4.774506582487244
 20
-5.771761372935998
 30
0.0
 10
4.774430292568291
 20
-5.831580637852362
 30
0.0
 10
4.774353715304995
 20
-5.891320092888892
 30
0.0
 10
4.740994475598932
 20
-5.929674379279124
 30
0.0
 10
4.682186441851854
 20
-5.948557353745248
 30
0.0
 10
4.688345667512749
 20
-5.954118328018314
 30
0.0
 10
4.691918650553589
 20
-5.95746028592061
 30
0.0
 10
4.695613180244941
 20
-5.960662019803647
 30
0.0
 10
4.733238621182054
 20
-5.993267983435948
 30
0.0
 10
4.747064337173949
 20
-6.034220868019676
 30
0.0
 10
4.735119002461512
 20
-6.082285236729047
 30
0.0
 10
4.723565030723167
 20
-6.128774671320166
 30
0.0
 10
4.693127651811715
 20
-6.15738108961548
 30
0.0
 10
4.645922150994313
 20
-6.167223637657823
 30
0.0
 10
4.639088240852363
 20
-6.168648434378408
 30
0.0
 10
4.631868858295016
 20
-6.168126904470581
 30
0.0
 10
4.624880787921356
 20
-6.168952875666136
 30
0.0
 10
4.621626900756255
 20
-6.169337486014177
 30
0.0
 10
4.618499301423121
 20
-6.170792310214235
 30
0.0
 10
4.615314376896649
 20
-6.17176209723291
 30
0.0
 10
4.616600817451044
 20
-6.17481398106247
 30
0.0
 10
4.617224785658284
 20
-6.178434375593243
 30
0.0
 10
4.619278722911581
 20
-6.180828097299531
 30
0.0
 10
4.635559221493647
 20
-6.199803309286531
 30
0.0
 10
4.6453908513327
 20
-6.221500533844643
 30
0.0
 10
4.649105351454863
 20
-6.24627679626893
 30
0.0
 10
4.65927475455093
 20
-6.314105855434515
 30
0.0
 10
4.604297164362151
 20
-6.379936722325358
 30
0.0
 10
4.537884706658839
 20
-6.378301302231546
 30
0.0
 10
4.526718362418351
 20
-6.378026313734708
 30
0.0
 10
4.515621124488663
 20
-6.374338105948734
 30
0.0
 10
4.504527478363039
 20
-6.372053718749257
 30
0.0
 10
4.500503795744458
 20
-6.371225161454983
 30
0.0
 10
4.496584275444623
 20
-6.369890016156558
 30
0.0
 10
4.489229122692525
 20
-6.367842975350413
 30
0.0
 10
4.492211900484562
 20
-6.375233614465336
 30
0.0
 10
4.493624341526583
 20
-6.379787446960512
 30
0.0
 10
4.495792785494409
 20
-6.383946899401507
 30
0.0
 10
4.526550122314574
 20
-6.442949603648179
 30
0.0
 10
4.5063947854756
 20
-6.515299738058628
 30
0.0
 10
4.450067251636028
 20
-6.545099497239434
 30
0.0
 10
4.416964610414449
 20
-6.562612414074465
 30
0.0
 10
4.383156682540907
 20
-6.562568737740598
 30
0.0
 10
4.349648023784513
 20
-6.545287564084951
 30
0.0
 10
4.344097249737211
 20
-6.542424896478122
 30
0.0
 10
4.338537136999244
 20
-6.539578751168593
 30
0.0
 10
4.332926882676146
 20
-6.536836193479858
 30
0.0
 10
4.332384520257897
 20
-6.536571118361481
 30
0.0
 10
4.33145539237479
 20
-6.537097676794523
 30
0.0
 10
4.328831076631331
 20
-6.537654550051481
 30
0.0
 10
4.329283643947241
 20
-6.542566269874592
 30
0.0
 10
4.329461510085971
 20
-6.54775556429326
 30
0.0
 10
4.330276562271061
 20
-6.552842851484809
 30
0.0
 10
4.340485044195651
 20
-6.616569783397658
 30
0.0
 10
4.30313272404189
 20
-6.674617355185141
 30
0.0
 10
4.242590279933791
 20
-6.687482190593982
 30
0.0
 10
4.203588459667748
 20
-6.695769918619184
 30
0.0
 10
4.170831924688678
 20
-6.682579378444188
 30
0.0
 10
4.14309831222724
 20
-6.655092309876585
 30
0.0
 10
4.139487112390851
 20
-6.651513005581009
 30
0.0
 10
4.135943151127094
 20
-6.64786172153779
 30
0.0
 10
4.132219743330779
 20
-6.644403532865402
 30
0.0
 10
4.131497934379997
 20
-6.64373301493712
 30
0.0
 10
4.130086211698804
 20
-6.643805138356886
 30
0.0
 10
4.127463189004806
 20
-6.643156745939854
 30
0.0
 10
4.126953583839925
 20
-6.648859955642314
 30
0.0
 10
4.12648492524171
 20
-6.654097954920163
 30
0.0
 10
4.126017559692956
 20
-6.659335810525842
 30
0.0
 10
4.122050914923394
 20
-6.70379271519803
 30
0.0
 10
4.103198540937632
 20
-6.739150431536775
 30
0.0
 10
4.062145369517262
 20
-6.759577019592243
 30
0.0
 10
4.014732118751074
 20
-6.783168130443653
 30
0.0
 10
3.959540457038302
 20
-6.768788990564189
 30
0.0
 10
3.928138463219283
 20
-6.725708608769864
 30
0.0
 10
3.923595405728645
 20
-6.719476398207714
 30
0.0
 10
3.919271304615626
 20
-6.713084424213775
 30
0.0
 10
3.912621725859808
 20
-6.703590855826051
 30
0.0
 10
3.90910951614425
 20
-6.712771075252677
 30
0.0
 10
3.906633901090294
 20
-6.718989924304777
 30
0.0
 10
3.904340606012182
 20
-6.725275580907034
 30
0.0
 10
3.883326540650336
 20
-6.782872022140609
 30
0.0
 10
3.823506911198137
 20
-6.813036852256876
 30
0.0
 10
3.766679901081235
 20
-6.793790099904627
 30
0.0
 10
3.732146859797138
 20
-6.782094181115603
 30
0.0
 10
3.709728614542655
 20
-6.757453545201819
 30
0.0
 10
3.697009533392247
 20
-6.723623925860161
 30
0.0
 10
3.694880096416884
 20
-6.717960369671345
 30
0.0
 10
3.692632345414696
 20
-6.712341064504975
 30
0.0
 10
3.689270991471099
 20
-6.703696742201271
 30
0.0
 10
3.656899641563111
 20
-6.755090138319347
 30
0.0
 10
3.615444475428527
 20
-6.783906892643598
 30
0.0
 10
3.55595227483756
 20
-6.76563481216317
 30
0.0
 10
3.497420378989267
 20
-6.747657834280693
 30
0.0
 10
3.476948963389961
 20
-6.701087081252151
 30
0.0
 10
3.474593601937107
 20
-6.641089591032545
 30
0.0
 10
3.469559401154633
 20
-6.645229216716668
 30
0.0
 10
3.466220891085084
 20
-6.647421222723096
 30
0.0
 10
3.463556490807933
 20
-6.650248403308725
 30
0.0
 10
3.425951738662408
 20
-6.690153199551533
 30
0.0
 10
3.378319890699053
 20
-6.700651898307063
 30
0.0
 10
3.333527866724782
 20
-6.678782985528565
 30
0.0
 10
3.288877072487492
 20
-6.656983179054703
 30
0.0
 10
3.263426841724872
 20
-6.606114186287413
 30
0.0
 10
3.271451506760159
 20
-6.554834578512882
 30
0.0
 10
3.272335449747767
 20
-6.549186538916323
 30
0.0
 10
3.272866174720749
 20
-6.543483329213813
 30
0.0
 10
3.27390478079264
 20
-6.534992736111537
 30
0.0
 10
3.267367841013209
 20
-6.537890459723257
 30
0.0
 10
3.263127859952065
 20
-6.539302469622422
 30
0.0
 10
3.259357184013879
 20
-6.541514158713501
 30
0.0
 10
3.223172738961364
 20
-6.562739994944472
 30
0.0
 10
3.185913338779502
 20
-6.564660029569191
 30
0.0
 10
3.149733994088794
 20
-6.543621829167325
 30
0.0
 10
3.112516222916408
 20
-6.521979774715115
 30
0.0
 10
3.093352547269786
 20
-6.488192826002331
 30
0.0
 10
3.091852789470218
 20
-6.444721368613196
 30
0.0
 10
3.091072685538998
 20
-6.422109383470241
 30
0.0
 10
3.096723455412277
 20
-6.401278789326422
 30
0.0
 10
3.107509607189386
 20
-6.381595560979753
 30
0.0
 10
3.109264562669851
 20
-6.378393108735963
 30
0.0
 10
3.110272422898712
 20
-6.374781334534266
 30
0.0
 10
3.113156354242088
 20
-6.367486812088322
 30
0.0
 10
3.05079257811384
 20
-6.39056156522934
 30
0.0
 10
3.001354411871438
 20
-6.376422788858386
 30
0.0
 10
2.969079430067317
 20
-6.322330655057612
 30
0.0
 10
2.937479815187038
 20
-6.269370370461729
 30
0.0
 10
2.949485815470628
 20
-6.218493906742574
 30
0.0
 10
2.991299299981669
 20
-6.169902835927991
 30
0.0
 10
2.92942106393088
 20
-6.170051823948445
 30
0.0
 10
2.886280282093871
 20
-6.145533884051524
 30
0.0
 10
2.868721568188751
 20
-6.088495321779949
 30
0.0
 10
2.851354908048556
 20
-6.03208072765973
 30
0.0
 10
2.871313916875755
 20
-5.986368415732865
 30
0.0
 10
2.920558287328225
 20
-5.948867972935507
 30
0.0
  0
HATCH
  5
86
330
80
100
AcDbEntity
  8
Lid
 62
    18
420
        0
440
 33554687
100
AcDbHatch
 10
0.0
 20
0.0
 30
0.0
210
0.0
220
0.0
230
1.0
  2
SOLID
 70
     1
 71
     1
 91
        2
 92
        1
 93
        1
 72
     4
 94
        3
 73
     0
 74
     0
 95
       17
 96
       13
 40
0.0
 40
0.0
 40
0.0
 40
0.0
 40
1.0
 40
1.0
 40
1.0
 40
2.0
 40
2.0
 40
2.0
 40
3.0
 40
3.0
 40
3.0
 40
4.0
 40
4.0
 40
4.0
 40
4.0
 10
3.801637565445364
 20
-6.644067914720936
 10
4.246843119653552
 20
-6.644956670646428
 10
4.615649851399035
 20
-6.287236146099429
 10
4.617911682273288
 20
-5.835299016790031
 10
4.620160582652791
 20
-5.385977798168369
 10
4.262705819583414
 20
-5.016841300018338
 10
3.801558904935695
 20
-5.016824490376683
 10
3.335423405417486
 20
-5.01680750114484
 10
2.98404838138438
 20
-5.393446523097294
 10
2.985241937884893
 20
-5.833103706324132
 10
2.986451406077574
 20
-6.278621563930906
 10
3.350764359884603
 20
-6.645086550270863
 10
3.801637565445364
 20
-6.644067914720936
 97
        0
 97
        1
330
84
 92
        1
 93
        1
 72
     4
 94
        3
 73
     0
 74
     0
 95
      269
 96
      265
 40
0.0
 40
0.0
 40
0.0
 40
0.0
 40
1.0
 40
1.0
 40
1.0
 40
2.0
 40
2.0
 40
2.0
 40
3.0
 40
3.0
 40
3.0
 40
4.0
 40
4.0
 40
4.0
 40
5.0
 40
5.0
 40
5.0
 40
6.0
 40
6.0
 40
6.0
 40
7.0
 40
7.0
 40
7.0
 40
8.0
 40
8.0
 40
8.0
 40
9.0
 40
9.0
 40
9.0
 40
10.0
 40
10.0
 40
10.0
 40
11.0
 40
11.0
 40
11.0
 40
12.0
 40
12.0
 40
12.0
 40
13.0
 40
13.0
 40
13.0
 40
14.0
 40
14.0
 40
14.0
 40
15.0
 40
15.0
 40
15.0
 40
16.0
 40
16.0
 40
16.0
 40
17.0
 40
17.0
 40
17.0
 40
18.0
 40
18.0
 40
18.0
 40
19.0
 40
19.0
 40
19.0
 40
20.0
 40
20.0
 40
20.0
 40
21.0
 40
21.0
 40
21.0
 40
22.0
 40
22.0
 40
22.0
 40
23.0
 40
23.0
 40
23.0
 40
24.0
 40
24.0
 40
24.0
 40
25.0
 40
25.0
 40
25.0
 40
26.0
 40
26.0
 40
26.0
 40
27.0
 40
27.0
 40
27.0
 40
28.0
 40
28.0
 40
28.0
 40
29.0
 40
29.0
 40
29.0
 40
30.0
 40
30.0
 40
30.0
 40
31.0
 40
31.0
 40
31.0
 40
32.0
 40
32.0
 40
32.0
 40
33.0
 40
33.0
 40
33.0
 40
34.0
 40
34.0
 40
34.0
 40
35.0
 40
35.0
 40
35.0
 40
36.0
 40
36.0
 40
36.0
 40
37.0
 40
37.0
 40
37.0
 40
38.0
 40
38.0
 40
38.0
 40
39.0
 40
39.0
 40
39.0
 40
40.0
 40
40.0
 40
40.0
 40
41.0
 40
41.0
 40
41.0
 40
42.0
 40
42.0
 40
42.0
 40
43.0
 40
43.0
 40
43.0
 40
44.0
 40
44.0
 40
44.0
 40
45.0
 40
45.0
 40
45.0
 40
46.0
 40
46.0
 40
46.0
 40
47.0
 40
47.0
 40
47.0
 40
48.0
 40
48.0
 40
48.0
 40
49.0
 40
49.0
 40
49.0
 40
50.0
 40
50.0
 40
50.0
 40
51.0
 40
51.0
 40
51.0
 40
52.0
 40
52.0
 40
52.0
 40
53.0
 40
53.0
 40
53.0
 40
54.0
 40
54.0
 40
54.0
 40
55.0
 40
55.0
 40
55.0
 40
56.0
 40
56.0
 40
56.0
 40
57.0
 40
57.0
 40
57.0
 40
58.0
 40
58.0
 40
58.0
 40
59.0
 40
59.0
 40
59.0
 40
60.0
 40
60.0
 40
60.0
 40
61.0
 40
61.0
 40
61.0
 40
62.0
 40
62.0
 40
62.0
 40
63.0
 40
63.0
 40
63.0
 40
64.0
 40
64.0
 40
64.0
 40
65.0
 40
65.0
 40
65.0
 40
66.0
 40
66.0
 40
66.0
 40
67.0
 40
67.0
 40
67.0
 40
68.0
 40
68.0
 40
68.0
 40
69.0
 40
69.0
 40
69.0
 40
70.0
 40
70.0
 40
70.0
 40
71.0
 40
71.0
 40
71.0
 40
72.0
 40
72.0
 40
72.0
 40
73.0
 40
73.0
 40
73.0
 40
74.0
 40
74.0
 40
74.0
 40
75.0
 40
75.0
 40
75.0
 40
76.0
 40
76.0
 40
76.0
 40
77.0
 40
77.0
 40
77.0
 40
78.0
 40
78.0
 40
78.0
 40
79.0
 40
79.0
 40
79.0
 40
80.0
 40
80.0
 40
80.0
 40
81.0
 40
81.0
 40
81.0
 40
82.0
 40
82.0
 40
82.0
 40
83.0
 40
83.0
 40
83.0
 40
84.0
 40
84.0
 40
84.0
 40
85.0
 40
85.0
 40
85.0
 40
86.0
 40
86.0
 40
86.0
 40
87.0
 40
87.0
 40
87.0
 40
88.0
 40
88.0
 40
88.0
 40
88.0
 10
2.920558287328225
 20
-5.948867972935507
 10
2.860527208369022
 20
-5.92947424397289
 10
2.827331287995118
 20
-5.890680895489518
 10
2.827511416970436
 20
-5.83104474072949
 10
2.827689911674901
 20
-5.771944123911958
 10
2.860456773090744
 20
-5.733307809089486
 10
2.919491054577696
 20
-5.714774819983024
 10
2.913780409330153
 20
-5.709333668283761
 10
2.910209509535711
 20
-5.70556148412561
 10
2.90626644496001
 20
-5.702229655109931
 10
2.844451137316961
 20
-5.649996567105871
 10
2.84920560839656
 20
-5.55531417723028
 10
2.915969829433859
 20
-5.511163366075581
 10
2.933094258305926
 20
-5.499839055304859
 10
2.952051512971264
 20
-5.494274345555847
 10
2.97258348638757
 20
-5.493850871891039
 10
2.977423514240702
 20
-5.493750947910092
 10
2.982249893238278
 20
-5.492988048788762
 10
2.990392800464355
 20
-5.492216529338381
 10
2.949571982850834
 20
-5.444265877136444
 10
2.93729182016073
 20
-5.393124266462804
 10
2.969468673877018
 20
-5.3399310174742
 10
3.002408031684479
 20
-5.285476973525292
 10
3.052546707479374
 20
-5.273837733399773
 10
3.111889704528241
 20
-5.295867918167624
 10
3.112405846776583
 20
-5.295003514671685
 10
3.112921989024926
 20
-5.29413903933966
 10
3.113438131273293
 20
-5.293274564007648
 10
3.111174396742853
 20
-5.288271468696532
 10
3.109136335263681
 20
-5.283151424254596
 10
3.106612482280752
 20
-5.27828316525712
 10
3.077911776566907
 20
-5.222921831675218
 10
3.092116930743309
 20
-5.157031448595918
 10
3.140979474461548
 20
-5.12398390860777
 10
3.178313691922691
 20
-5.098733528085517
 10
3.217326539027301
 20
-5.098866532579209
 10
3.256682583013116
 20
-5.119909079063682
 10
3.260477970563467
 20
-5.121938376359202
 10
3.264189022553687
 20
-5.124132393775728
 10
3.268042238149948
 20
-5.12604201216954
 10
3.268956998816671
 20
-5.126495333723684
 10
3.270287762233616
 20
-5.126109142982045
 10
3.273433536095479
 20
-5.126109142982045
 10
3.272801234902721
 20
-5.120169125656818
 10
3.272508574705094
 20
-5.114580314904515
 10
3.271576645214811
 20
-5.109100156216312
 10
3.261126937727213
 20
-5.04764292102546
 10
3.298778311489892
 20
-4.988877096237577
 10
3.358054716490844
 20
-4.975801278275121
 10
3.396848355791563
 20
-4.967243733950529
 10
3.430091077372834
 20
-4.979265608931958
 10
3.457865492728791
 20
-5.006922102883524
 10
3.462445545801579
 20
-5.011482759805895
 10
3.465456267829495
 20
-5.017619428387673
 10
3.469192318776195
 20
-5.023027751000413
 10
3.470898210212756
 20
-5.021894393237971
 10
3.472604173485377
 20
-5.020761035475516
 10
3.474310064921913
 20
-5.019627677713073
 10
3.474805805723008
 20
-5.015207137055855
 10
3.475574236290917
 20
-5.010797730990361
 10
3.475755694233789
 20
-5.006364295757609
 10
3.477962786013626
 20
-4.952430057650695
 10
3.510983677774017
 20
-4.908950770129333
 10
3.560176739305031
 20
-4.895339575855536
 10
3.604325614838166
 20
-4.883124048773715
 10
3.652864537007518
 20
-4.90316151876747
 10
3.679016606290158
 20
-4.944305972205382
 10
3.681629715604837
 20
-4.948417222639729
 10
3.684716871223877
 20
-4.952227120737524
 10
3.689100596284863
 20
-4.958265984502569
 10
3.692101333097399
 20
-4.951490657291969
 10
3.694474869078981
 20
-4.947157325630365
 10
3.695994274046951
 20
-4.942542755733357
 10
3.711798571242196
 20
-4.894543865606743
 10
3.753320760441207
 20
-4.863247796892285
 10
3.801461064192153
 20
-4.863221271421429
 10
3.848480437721364
 20
-4.86319539247524
 10
3.890504545624505
 20
-4.895002072014031
 10
3.90601022022737
 20
-4.942203007014502
 10
3.90754090346018
 20
-4.946862474458662
 10
3.909808624893154
 20
-4.951279818410512
 10
3.912699883516905
 20
-4.958080827018092
 10
3.916486507065251
 20
-4.95338382522449
 10
3.919038124693845
 20
-4.950705668577433
 10
3.921038184885698
 20
-4.947664775667375
 10
3.950386241451446
 20
-4.903044174538219
 10
3.995618261427251
 20
-4.882967248580004
 10
4.040387513363561
 20
-4.894782684639594
 10
4.089312913653454
 20
-4.907695003694306
 10
4.123020845700996
 20
-4.950570221657168
 10
4.126031208548511
 20
-5.003622348675548
 10
4.126332201731606
 20
-5.008927837946278
 10
4.127014644509523
 20
-5.014211632722208
 10
4.127791767243353
 20
-5.022350516399064
 10
4.132573751542344
 20
-5.018176768579084
 10
4.135548771037544
 20
-5.01598526542519
 10
4.138044212850092
 20
-5.013341159077905
 10
4.175633448401918
 20
-4.973514340894982
 10
4.221810112854553
 20
-4.962671547338041
 10
4.26685133619685
 20
-4.983183907667617
 10
4.310731688455916
 20
-5.003167626317917
 10
4.336787066372354
 20
-5.052090148784688
 10
4.33104592670803
 20
-5.103783101337423
 10
4.330248833543438
 20
-5.110960818324693
 10
4.329294994048142
 20
-5.118121150981689
 10
4.328104239154829
 20
-5.127807455559895
 10
4.33362843385185
 20
-5.12566749479015
 10
4.337047687677442
 20
-5.125017162799053
 10
4.339685795948601
 20
-5.123220003781384
 10
4.379910697344813
 20
-5.095818887078053
 10
4.436508191180109
 20
-5.099637010406505
 10
4.471680429920803
 20
-5.132069849096991
 10
4.509523534186024
 20
-5.166965408044246
 10
4.520816166258478
 20
-5.220922705531405
 10
4.49968170362336
 20
-5.26914619114791
 10
4.496164034365594
 20
-5.277172795038823
 10
4.49231735585277
 20
-5.285055295762364
 10
4.486781380038311
 20
-5.296966076253093
 10
4.548901344504656
 20
-5.273908276425875
 10
4.599185308775177
 20
-5.285139559478882
 10
4.632294989932764
 20
-5.339414444255604
 10
4.66476087612452
 20
-5.39263369790352
 10
4.652813242657455
 20
-5.44378543746379
 10
4.611014700051454
 20
-5.492688205009812
 10
4.672922604404043
 20
-5.492901198973539
 10
4.716156431926138
 20
-5.517724442191138
 10
4.733660442654909
 20
-5.575251777120127
 10
4.750883430631296
 20
-5.631855228282751
 10
4.729553430181314
 20
-5.677097804112185
 10
4.681845938823723
 20
-5.714260330010599
 10
4.741268314743087
 20
-5.733372820737813
 10
4.774506582487244
 20
-5.771761372935998
 10
4.774430292568291
 20
-5.831580637852362
 10
4.774353715304995
 20
-5.891320092888892
 10
4.740994475598932
 20
-5.929674379279124
 10
4.682186441851854
 20
-5.948557353745248
 10
4.688345667512749
 20
-5.954118328018314
 10
4.691918650553589
 20
-5.95746028592061
 10
4.695613180244941
 20
-5.960662019803647
 10
4.733238621182054
 20
-5.993267983435948
 10
4.747064337173949
 20
-6.034220868019676
 10
4.735119002461512
 20
-6.082285236729047
 10
4.723565030723167
 20
-6.128774671320166
 10
4.693127651811715
 20
-6.15738108961548
 10
4.645922150994313
 20
-6.167223637657823
 10
4.639088240852363
 20
-6.168648434378408
 10
4.631868858295016
 20
-6.168126904470581
 10
4.624880787921356
 20
-6.168952875666136
 10
4.621626900756255
 20
-6.169337486014177
 10
4.618499301423121
 20
-6.170792310214235
 10
4.615314376896649
 20
-6.17176209723291
 10
4.616600817451044
 20
-6.17481398106247
 10
4.617224785658284
 20
-6.178434375593243
 10
4.619278722911581
 20
-6.180828097299531
 10
4.635559221493647
 20
-6.199803309286531
 10
4.6453908513327
 20
-6.221500533844643
 10
4.649105351454863
 20
-6.24627679626893
 10
4.65927475455093
 20
-6.314105855434515
 10
4.604297164362151
 20
-6.379936722325358
 10
4.537884706658839
 20
-6.378301302231546
 10
4.526718362418351
 20
-6.378026313734708
 10
4.515621124488663
 20
-6.374338105948734
 10
4.504527478363039
 20
-6.372053718749257
 10
4.500503795744458
 20
-6.371225161454983
 10
4.496584275444623
 20
-6.369890016156558
 10
4.489229122692525
 20
-6.367842975350413
 10
4.492211900484562
 20
-6.375233614465336
 10
4.493624341526583
 20
-6.379787446960512
 10
4.495792785494409
 20
-6.383946899401507
 10
4.526550122314574
 20
-6.442949603648179
 10
4.5063947854756
 20
-6.515299738058628
 10
4.450067251636028
 20
-6.545099497239434
 10
4.416964610414449
 20
-6.562612414074465
 10
4.383156682540907
 20
-6.562568737740598
 10
4.349648023784513
 20
-6.545287564084951
 10
4.344097249737211
 20
-6.542424896478122
 10
4.338537136999244
 20
-6.539578751168593
 10
4.332926882676146
 20
-6.536836193479858
 10
4.332384520257897
 20
-6.536571118361481
 10
4.33145539237479
 20
-6.537097676794523
 10
4.328831076631331
 20
-6.537654550051481
 10
4.329283643947241
 20
-6.542566269874592
 10
4.329461510085971
 20
-6.54775556429326
 10
4.330276562271061
 20
-6.552842851484809
 10
4.340485044195651
 20
-6.616569783397658
 10
4.30313272404189
 20
-6.674617355185141
 10
4.242590279933791
 20
-6.687482190593982
 10
4.203588459667748
 20
-6.695769918619184
 10
4.170831924688678
 20
-6.682579378444188
 10
4.14309831222724
 20
-6.655092309876585
 10
4.139487112390851
 20
-6.651513005581009
 10
4.135943151127094
 20
-6.64786172153779
 10
4.132219743330779
 20
-6.644403532865402
 10
4.131497934379997
 20
-6.64373301493712
 10
4.130086211698804
 20
-6.643805138356886
 10
4.127463189004806
 20
-6.643156745939854
 10
4.126953583839925
 20
-6.648859955642314
 10
4.12648492524171
 20
-6.654097954920163
 10
4.126017559692956
 20
-6.659335810525842
 10
4.122050914923394
 20
-6.70379271519803
 10
4.103198540937632
 20
-6.739150431536775
 10
4.062145369517262
 20
-6.759577019592243
 10
4.014732118751074
 20
-6.783168130443653
 10
3.959540457038302
 20
-6.768788990564189
 10
3.928138463219283
 20
-6.725708608769864
 10
3.923595405728645
 20
-6.719476398207714
 10
3.919271304615626
 20
-6.713084424213775
 10
3.912621725859808
 20
-6.703590855826051
 10
3.90910951614425
 20
-6.712771075252677
 10
3.906633901090294
 20
-6.718989924304777
 10
3.904340606012182
 20
-6.725275580907034
 10
3.883326540650336
 20
-6.782872022140609
 10
3.823506911198137
 20
-6.813036852256876
 10
3.766679901081235
 20
-6.793790099904627
 10
3.732146859797138
 20
-6.782094181115603
 10
3.709728614542655
 20
-6.757453545201819
 10
3.697009533392247
 20
-6.723623925860161
 10
3.694880096416884
 20
-6.717960369671345
 10
3.692632345414696
 20
-6.712341064504975
 10
3.689270991471099
 20
-6.703696742201271
 10
3.656899641563111
 20
-6.755090138319347
 10
3.615444475428527
 20
-6.783906892643598
 10
3.55595227483756
 20
-6.76563481216317
 10
3.497420378989267
 20
-6.747657834280693
 10
3.476948963389961
 20
-6.701087081252151
 10
3.474593601937107
 20
-6.641089591032545
 10
3.469559401154633
 20
-6.645229216716668
 10
3.466220891085084
 20
-6.647421222723096
 10
3.463556490807933
 20
-6.650248403308725
 10
3.425951738662408
 20
-6.690153199551533
 10
3.378319890699053
 20
-6.700651898307063
 10
3.333527866724782
 20
-6.678782985528565
 10
3.288877072487492
 20
-6.656983179054703
 10
3.263426841724872
 20
-6.606114186287413
 10
3.271451506760159
 20
-6.554834578512882
 10
3.272335449747767
 20
-6.549186538916323
 10
3.272866174720749
 20
-6.543483329213813
 10
3.27390478079264
 20
-6.534992736111537
 10
3.267367841013209
 20
-6.537890459723257
 10
3.263127859952065
 20
-6.539302469622422
 10
3.259357184013879
 20
-6.541514158713501
 10
3.223172738961364
 20
-6.562739994944472
 10
3.185913338779502
 20
-6.564660029569191
 10
3.149733994088794
 20
-6.543621829167325
 10
3.112516222916408
 20
-6.521979774715115
 10
3.093352547269786
 20
-6.488192826002331
 10
3.091852789470218
 20
-6.444721368613196
 10
3.091072685538998
 20
-6.422109383470241
 10
3.096723455412277
 20
-6.401278789326422
 10
3.107509607189386
 20
-6.381595560979753
 10
3.109264562669851
 20
-6.378393108735963
 10
3.110272422898712
 20
-6.374781334534266
 10
3.113156354242088
 20
-6.367486812088322
 10
3.05079257811384
 20
-6.39056156522934
 10
3.001354411871438
 20
-6.376422788858386
 10
2.969079430067317
 20
-6.322330655057612
 10
2.937479815187038
 20
-6.269370370461729
 10
2.949485815470628
 20
-6.218493906742574
 10
2.991299299981669
 20
-6.169902835927991
 10
2.92942106393088
 20
-6.170051823948445
 10
2.886280282093871
 20
-6.145533884051524
 10
2.868721568188751
 20
-6.088495321779949
 10
2.851354908048556
 20
-6.03208072765973
 10
2.871313916875755
 20
-5.986368415732865
 10
2.920558287328225
 20
-5.948867972935507
 97
        0
 97
        1
330
85
 75
     2
 76
     1
 98
        1
 10
0.0
 20
0.0
450
        0
451
        0
460
0.0
461
0.0
452
        0
462
0.0
453
        0
470

  0
SPLINE
  5
87
330
80
100
AcDbEntity
  8
Lid
100
AcDbSpline
210
0.0
220
0.0
230
1.0
 70
     9
 71
     3
 72
    68
 73
    64
 74
     0
 42
0.0000000001
 43
0.0000000001
 40
0.0
 40
0.0
 40
0.0
 40
0.0
 40
1.0
 40
1.0
 40
1.0
 40
2.0
 40
2.0
 40
2.0
 40
3.0
 40
3.0
 40
3.0
 40
4.0
 40
4.0
 40
4.0
 40
5.0
 40
5.0
 40
5.0
 40
6.0
 40
6.0
 40
6.0
 40
7.0
 40
7.0
 40
7.0
 40
8.0
 40
8.0
 40
8.0
 40
9.0
 40
9.0
 40
9.0
 40
10.0
 40
10.0
 40
10.0
 40
11.0
 40
11.0
 40
11.0
 40
12.0
 40
12.0
 40
12.0
 40
13.0
 40
13.0
 40
13.0
 40
14.0
 40
14.0
 40
14.0
 40
15.0
 40
15.0
 40
15.0
 40
16.0
 40
16.0
 40
16.0
 40
17.0
 40
17.0
 40
17.0
 40
18.0
 40
18.0
 40
18.0
 40
19.0
 40
19.0
 40
19.0
 40
20.0
 40
20.0
 40
20.0
 40
21.0
 40
21.0
 40
21.0
 40
21.0
 10
4.862005100567936
 20
-4.976236823633737
 30
0.0
 10
4.833934014955957
 20
-4.922871752019154
 30
0.0
 10
4.784640496889551
 20
-4.896817369694935
 30
0.0
 10
4.725161737123926
 20
-4.890742676227053
 30
0.0
 10
4.71592932203061
 20
-4.889800022147192
 30
0.0
 10
4.712222283998926
 20
-4.887390828896323
 30
0.0
 10
4.711623800383474
 20
-4.877714213499189
 30
0.0
 10
4.710926134639117
 20
-4.866453227171064
 30
0.0
 10
4.708935710376963
 20
-4.855023546452748
 30
0.0
 10
4.7056974562537
 20
-4.844207608138945
 30
0.0
 10
4.680994324472016
 20
-4.761688076888945
 30
0.0
 10
4.630092699580523
 20
-4.716756029362904
 30
0.0
 10
4.543827135615679
 20
-4.714239176878095
 30
0.0
 10
4.490473084237641
 20
-4.71268278039372
 30
0.0
 10
4.443647251446842
 20
-4.749297092459692
 30
0.0
 10
4.435619432978961
 20
-4.798410895899362
 30
0.0
 10
4.434358039749794
 20
-4.806130995454483
 30
0.0
 10
4.435443109194238
 20
-4.814235955578181
 30
0.0
 10
4.435443109194238
 20
-4.824215203625056
 30
0.0
 10
4.440564976056217
 20
-4.821764472559518
 30
0.0
 10
4.443667596498926
 20
-4.820427633095542
 30
0.0
 10
4.446632887840071
 20
-4.818835632770022
 30
0.0
 10
4.459326504919064
 20
-4.812021735743112
 30
0.0
 10
4.472646580060123
 20
-4.810680657726619
 30
0.0
 10
4.486571072790158
 20
-4.813962992796064
 30
0.0
 10
4.55189394876672
 20
-4.829361654091636
 30
0.0
 10
4.583813640064463
 20
-4.909307536253095
 30
0.0
 10
4.544257772551443
 20
-4.9632151425899
 30
0.0
 10
4.514743883662554
 20
-5.003436462848147
 30
0.0
 10
4.481882385995453
 20
-5.041205356619848
 30
0.0
 10
4.450239048321842
 20
-5.079854173894154
 30
0.0
 10
4.458009162796669
 20
-5.082327793143286
 30
0.0
 10
4.465542766041026
 20
-5.085839010048667
 30
0.0
 10
4.472477037959429
 20
-5.089305298297365
 30
0.0
 10
4.486129415617849
 20
-5.09613021556082
 30
0.0
 10
4.49919856844988
 20
-5.104647162989206
 30
0.0
 10
4.509232917679481
 20
-5.116279446517851
 30
0.0
 10
4.51909094312436
 20
-5.127707431815161
 30
0.0
 10
4.527572286711599
 20
-5.140834228961428
 30
0.0
 10
4.534598111364377
 20
-5.154175496865073
 30
0.0
 10
4.536981025589637
 20
-5.158700575532608
 30
0.0
 10
4.539003662850922
 20
-5.163320597776532
 30
0.0
 10
4.540727906014985
 20
-5.168020304807782
 30
0.0
 10
4.575396722475488
 20
-5.135427531370282
 30
0.0
 10
4.609908712492849
 20
-5.102665215832088
 30
0.0
 10
4.644855577998492
 20
-5.070374227333823
 30
0.0
 10
4.670031732241113
 20
-5.047112203408042
 30
0.0
 10
4.699283678584429
 20
-5.045797404417157
 30
0.0
 10
4.730711697790158
 20
-5.055379076237904
 30
0.0
 10
4.772002828703787
 20
-5.067967577214466
 30
0.0
 10
4.810699117766287
 20
-5.133394721582956
 30
0.0
 10
4.785205919795367
 20
-5.172445353635907
 30
0.0
 10
4.784263265715505
 20
-5.173889852333823
 30
0.0
 10
4.784379402054481
 20
-5.176026082802573
 30
0.0
 10
4.7835783156287
 20
-5.179877231619848
 30
0.0
 10
4.788756131383908
 20
-5.179877231619848
 30
0.0
 10
4.792851420826182
 20
-5.180129849349882
 30
0.0
 10
4.796907715585297
 20
-5.179837389226185
 30
0.0
 10
4.829765822410384
 20
-5.177471429210994
 30
0.0
 10
4.853031237178179
 20
-5.158986253972279
 30
0.0
 10
4.867946703486773
 20
-5.13183323883556
 30
0.0
 10
4.896723931948145
 20
-5.079446425141983
 30
0.0
 10
4.887993361472884
 20
-5.025643087197105
 30
0.0
 10
4.862005100567936
 20
-4.976236823633737
 30
0.0
  0
HATCH
  5
88
330
80
100
AcDbEntity
  8
Lid
 62
    18
420
        0
440
 33554687
100
AcDbHatch
 10
0.0
 20
0.0
 30
0.0
210
0.0
220
0.0
230
1.0
  2
SOLID
 70
     1
 71
     1
 91
        1
 92
        1
 93
        1
 72
     4
 94
        3
 73
     0
 74
     0
 95
       68
 96
       64
 40
0.0
 40
0.0
 40
0.0
 40
0.0
 40
1.0
 40
1.0
 40
1.0
 40
2.0
 40
2.0
 40
2.0
 40
3.0
 40
3.0
 40
3.0
 40
4.0
 40
4.0
 40
4.0
 40
5.0
 40
5.0
 40
5.0
 40
6.0
 40
6.0
 40
6.0
 40
7.0
 40
7.0
 40
7.0
 40
8.0
 40
8.0
 40
8.0
 40
9.0
 40
9.0
 40
9.0
 40
10.0
 40
10.0
 40
10.0
 40
11.0
 40
11.0
 40
11.0
 40
12.0
 40
12.0
 40
12.0
 40
13.0
 40
13.0
 40
13.0
 40
14.0
 40
14.0
 40
14.0
 40
15.0
 40
15.0
 40
15.0
 40
16.0
 40
16.0
 40
16.0
 40
17.0
 40
17.0
 40
17.0
 40
18.0
 40
18.0
 40
18.0
 40
19.0
 40
19.0
 40
19.0
 40
20.0
 40
20.0
 40
20.0
 40
21.0
 40
21.0
 40
21.0
 40
21.0
 10
4.862005100567936
 20
-4.976236823633737
 10
4.833934014955957
 20
-4.922871752019154
 10
4.784640496889551
 20
-4.896817369694935
 10
4.725161737123926
 20
-4.890742676227053
 10
4.71592932203061
 20
-4.889800022147192
 10
4.712222283998926
 20
-4.887390828896323
 10
4.711623800383474
 20
-4.877714213499189
 10
4.710926134639117
 20
-4.866453227171064
 10
4.708935710376963
 20
-4.855023546452748
 10
4.7056974562537
 20
-4.844207608138945
 10
4.680994324472016
 20
-4.761688076888945
 10
4.630092699580523
 20
-4.716756029362904
 10
4.543827135615679
 20
-4.714239176878095
 10
4.490473084237641
 20
-4.71268278039372
 10
4.443647251446842
 20
-4.749297092459692
 10
4.435619432978961
 20
-4.798410895899362
 10
4.434358039749794
 20
-4.806130995454483
 10
4.435443109194238
 20
-4.814235955578181
 10
4.435443109194238
 20
-4.824215203625056
 10
4.440564976056217
 20
-4.821764472559518
 10
4.443667596498926
 20
-4.820427633095542
 10
4.446632887840071
 20
-4.818835632770022
 10
4.459326504919064
 20
-4.812021735743112
 10
4.472646580060123
 20
-4.810680657726619
 10
4.486571072790158
 20
-4.813962992796064
 10
4.55189394876672
 20
-4.829361654091636
 10
4.583813640064463
 20
-4.909307536253095
 10
4.544257772551443
 20
-4.9632151425899
 10
4.514743883662554
 20
-5.003436462848147
 10
4.481882385995453
 20
-5.041205356619848
 10
4.450239048321842
 20
-5.079854173894154
 10
4.458009162796669
 20
-5.082327793143286
 10
4.465542766041026
 20
-5.085839010048667
 10
4.472477037959429
 20
-5.089305298297365
 10
4.486129415617849
 20
-5.09613021556082
 10
4.49919856844988
 20
-5.104647162989206
 10
4.509232917679481
 20
-5.116279446517851
 10
4.51909094312436
 20
-5.127707431815161
 10
4.527572286711599
 20
-5.140834228961428
 10
4.534598111364377
 20
-5.154175496865073
 10
4.536981025589637
 20
-5.158700575532608
 10
4.539003662850922
 20
-5.163320597776532
 10
4.540727906014985
 20
-5.168020304807782
 10
4.575396722475488
 20
-5.135427531370282
 10
4.609908712492849
 20
-5.102665215832088
 10
4.644855577998492
 20
-5.070374227333823
 10
4.670031732241113
 20
-5.047112203408042
 10
4.699283678584429
 20
-5.045797404417157
 10
4.730711697790158
 20
-5.055379076237904
 10
4.772002828703787
 20
-5.067967577214466
 10
4.810699117766287
 20
-5.133394721582956
 10
4.785205919795367
 20
-5.172445353635907
 10
4.784263265715505
 20
-5.173889852333823
 10
4.784379402054481
 20
-5.176026082802573
 10
4.7835783156287
 20
-5.179877231619848
 10
4.788756131383908
 20
-5.179877231619848
 10
4.792851420826182
 20
-5.180129849349882
 10
4.796907715585297
 20
-5.179837389226185
 10
4.829765822410384
 20
-5.177471429210994
 10
4.853031237178179
 20
-5.158986253972279
 10
4.867946703486773
 20
-5.13183323883556
 10
4.896723931948145
 20
-5.079446425141983
 10
4.887993361472884
 20
-5.025643087197105
 10
4.862005100567936
 20
-4.976236823633737
 97
        0
 97
        1
330
87
 75
     2
 76
     1
 98
        1
 10
0.0
 20
0.0
450
        0
451
        0
460
0.0
461
0.0
452
        0
462
0.0
453
        0
470

  0
SPLINE
  5
89
330
80
100
AcDbEntity
  8
Lid
100
AcDbSpline
210
0.0
220
0.0
230
1.0
 70
     9
 71
     3
 72
    59
 73
    55
 74
     0
 42
0.0000000001
 43
0.0000000001
 40
0.0
 40
0.0
 40
0.0
 40
0.0
 40
1.0
 40
1.0
 40
1.0
 40
2.0
 40
2.0
 40
2.0
 40
3.0
 40
3.0
 40
3.0
 40
4.0
 40
4.0
 40
4.0
 40
5.0
 40
5.0
 40
5.0
 40
6.0
 40
6.0
 40
6.0
 40
7.0
 40
7.0
 40
7.0
 40
8.0
 40
8.0
 40
8.0
 40
9.0
 40
9.0
 40
9.0
 40
10.0
 40
10.0
 40
10.0
 40
11.0
 40
11.0
 40
11.0
 40
12.0
 40
12.0
 40
12.0
 40
13.0
 40
13.0
 40
13.0
 40
14.0
 40
14.0
 40
14.0
 40
15.0
 40
15.0
 40
15.0
 40
16.0
 40
16.0
 40
16.0
 40
17.0
 40
17.0
 40
17.0
 40
18.0
 40
18.0
 40
18.0
 40
18.0
 10
3.082768413013682
 20
-5.099446459050404
 30
0.0
 10
3.096579312536252
 20
-5.083072930675838
 30
0.0
 10
3.113111362774967
 20
-5.06933578196707
 30
0.0
 10
3.133810757848752
 20
-5.063385701943198
 30
0.0
 10
3.108771932707693
 20
-5.03198226634207
 30
0.0
 10
3.083792447301877
 20
-5.00052457726872
 30
0.0
 10
3.059565728823145
 20
-4.968501465289553
 30
0.0
 10
3.034254788610471
 20
-4.935044027138511
 30
0.0
 10
3.037665975676443
 20
-4.899052782292591
 30
0.0
 10
3.056087572627398
 20
-4.864312758149796
 30
0.0
 10
3.077801677173839
 20
-4.823360711437556
 30
0.0
 10
3.122546380678613
 20
-4.808982693588164
 30
0.0
 10
3.164814074092241
 20
-4.827194058334257
 30
0.0
 10
3.165814372486339
 20
-4.827624695270022
 30
0.0
 10
3.167066440899967
 20
-4.827471259668893
 30
0.0
 10
3.169746901511946
 20
-4.827752699556046
 30
0.0
 10
3.170159736527137
 20
-4.823731160927573
 30
0.0
 10
3.17080230108877
 20
-4.82069296648313
 30
0.0
 10
3.170731093406478
 20
-4.817672573959257
 30
0.0
 10
3.16980624124719
 20
-4.778862691689292
 30
0.0
 10
3.151528755081825
 20
-4.749519192611601
 30
0.0
 10
3.11792635843469
 20
-4.732017361556914
 30
0.0
 10
3.068049615541895
 20
-4.706038425467505
 30
0.0
 10
3.017500638219846
 20
-4.714406175847279
 30
0.0
 10
2.972124390389985
 20
-4.741996609603789
 30
0.0
 10
2.922885973506304
 20
-4.771936049165421
 30
0.0
 10
2.899754496998058
 20
-4.820897264714466
 30
0.0
 10
2.892658312373491
 20
-4.877193719250056
 30
0.0
 10
2.891346056514116
 20
-4.88760953820622
 30
0.0
 10
2.887921306080089
 20
-4.890460388629397
 30
0.0
 10
2.87765044562002
 20
-4.891484422917591
 30
0.0
 10
2.776117615487641
 20
-4.901609477171064
 30
0.0
 10
2.710488716019325
 20
-4.975188205740942
 30
0.0
 10
2.717989258554047
 20
-5.083437446192331
 30
0.0
 10
2.720665480613509
 20
-5.122057441309518
 30
0.0
 10
2.739697429126964
 20
-5.152666572168893
 30
0.0
 10
2.774657858000662
 20
-5.171539151107695
 30
0.0
 10
2.787422682761946
 20
-5.178430189790421
 30
0.0
 10
2.801274272388683
 20
-5.180899570487036
 30
0.0
 10
2.814267978985905
 20
-5.179295702214466
 30
0.0
 10
2.811800293710297
 20
-5.163596103690161
 30
0.0
 10
2.806403768645193
 20
-5.149477485254831
 30
0.0
 10
2.808122925546235
 20
-5.136286262110299
 30
0.0
 10
2.812696323712467
 20
-5.101191047266549
 30
0.0
 10
2.830731364673839
 20
-5.073355625174536
 30
0.0
 10
2.864107422616547
 20
-5.059103068479657
 30
0.0
 10
2.897671672291026
 20
-5.044770826997452
 30
0.0
 10
2.930154243363075
 20
-5.047021498384171
 30
0.0
 10
2.958032898690766
 20
-5.073464979829483
 30
0.0
 10
2.98704748609311
 20
-5.100985901324709
 30
0.0
 10
3.015856927553613
 20
-5.128728922971845
 30
0.0
 10
3.04464263312002
 20
-5.156488051118546
 30
0.0
 10
3.053896240975922
 20
-5.135483480263511
 30
0.0
 10
3.068036899884342
 20
-5.116910990842939
 30
0.0
 10
3.082768413013682
 20
-5.099446459050404
 30
0.0
  0
HATCH
  5
8A
330
80
100
AcDbEntity
  8
Lid
 62
    18
420
        0
440
 33554687
100
AcDbHatch
 10
0.0
 20
0.0
 30
0.0
210
0.0
220
0.0
230
1.0
  2
SOLID
 70
     1
 71
     1
 91
        1
 92
        1
 93
        1
 72
     4
 94
        3
 73
     0
 74
     0
 95
       59
 96
       55
 40
0.0
 40
0.0
 40
0.0
 40
0.0
 40
1.0
 40
1.0
 40
1.0
 40
2.0
 40
2.0
 40
2.0
 40
3.0
 40
3.0
 40
3.0
 40
4.0
 40
4.0
 40
4.0
 40
5.0
 40
5.0
 40
5.0
 40
6.0
 40
6.0
 40
6.0
 40
7.0
 40
7.0
 40
7.0
 40
8.0
 40
8.0
 40
8.0
 40
9.0
 40
9.0
 40
9.0
 40
10.0
 40
10.0
 40
10.0
 40
11.0
 40
11.0
 40
11.0
 40
12.0
 40
12.0
 40
12.0
 40
13.0
 40
13.0
 40
13.0
 40
14.0
 40
14.0
 40
14.0
 40
15.0
 40
15.0
 40
15.0
 40
16.0
 40
16.0
 40
16.0
 40
17.0
 40
17.0
 40
17.0
 40
18.0
 40
18.0
 40
18.0
 40
18.0
 10
3.082768413013682
 20
-5.099446459050404
 10
3.096579312536252
 20
-5.083072930675838
 10
3.113111362774967
 20
-5.06933578196707
 10
3.133810757848752
 20
-5.063385701943198
 10
3.108771932707693
 20
-5.03198226634207
 10
3.083792447301877
 20
-5.00052457726872
 10
3.059565728823145
 20
-4.968501465289553
 10
3.034254788610471
 20
-4.935044027138511
 10
3.037665975676443
 20
-4.899052782292591
 10
3.056087572627398
 20
-4.864312758149796
 10
3.077801677173839
 20
-4.823360711437556
 10
3.122546380678613
 20
-4.808982693588164
 10
3.164814074092241
 20
-4.827194058334257
 10
3.165814372486339
 20
-4.827624695270022
 10
3.167066440899967
 20
-4.827471259668893
 10
3.169746901511946
 20
-4.827752699556046
 10
3.170159736527137
 20
-4.823731160927573
 10
3.17080230108877
 20
-4.82069296648313
 10
3.170731093406478
 20
-4.817672573959257
 10
3.16980624124719
 20
-4.778862691689292
 10
3.151528755081825
 20
-4.749519192611601
 10
3.11792635843469
 20
-4.732017361556914
 10
3.068049615541895
 20
-4.706038425467505
 10
3.017500638219846
 20
-4.714406175847279
 10
2.972124390389985
 20
-4.741996609603789
 10
2.922885973506304
 20
-4.771936049165421
 10
2.899754496998058
 20
-4.820897264714466
 10
2.892658312373491
 20
-4.877193719250056
 10
2.891346056514116
 20
-4.88760953820622
 10
2.887921306080089
 20
-4.890460388629397
 10
2.87765044562002
 20
-4.891484422917591
 10
2.776117615487641
 20
-4.901609477171064
 10
2.710488716019325
 20
-4.975188205740942
 10
2.717989258554047
 20
-5.083437446192331
 10
2.720665480613509
 20
-5.122057441309518
 10
2.739697429126964
 20
-5.152666572168893
 10
2.774657858000662
 20
-5.171539151107695
 10
2.787422682761946
 20
-5.178430189790421
 10
2.801274272388683
 20
-5.180899570487036
 10
2.814267978985905
 20
-5.179295702214466
 10
2.811800293710297
 20
-5.163596103690161
 10
2.806403768645193
 20
-5.149477485254831
 10
2.808122925546235
 20
-5.136286262110299
 10
2.812696323712467
 20
-5.101191047266549
 10
2.830731364673839
 20
-5.073355625174536
 10
2.864107422616547
 20
-5.059103068479657
 10
2.897671672291026
 20
-5.044770826997452
 10
2.930154243363075
 20
-5.047021498384171
 10
2.958032898690766
 20
-5.073464979829483
 10
2.98704748609311
 20
-5.100985901324709
 10
3.015856927553613
 20
-5.128728922971845
 10
3.04464263312002
 20
-5.156488051118546
 10
3.053896240975922
 20
-5.135483480263511
 10
3.068036899884342
 20
-5.116910990842939
 10
3.082768413013682
 20
-5.099446459050404
 97
        0
 97
        1
330
89
 75
     2
 76
     1
 98
        1
 10
0.0
 20
0.0
450
        0
451
        0
460
0.0
461
0.0
452
        0
462
0.0
453
        0
470

  0
SPLINE
  5
8B
330
80
100
AcDbEntity
  8
Lid
100
AcDbSpline
210
0.0
220
0.0
230
1.0
 70
     9
 71
     3
 72
    68
 73
    64
 74
     0
 42
0.0000000001
 43
0.0000000001
 40
0.0
 40
0.0
 40
0.0
 40
0.0
 40
1.0
 40
1.0
 40
1.0
 40
2.0
 40
2.0
 40
2.0
 40
3.0
 40
3.0
 40
3.0
 40
4.0
 40
4.0
 40
4.0
 40
5.0
 40
5.0
 40
5.0
 40
6.0
 40
6.0
 40
6.0
 40
7.0
 40
7.0
 40
7.0
 40
8.0
 40
8.0
 40
8.0
 40
9.0
 40
9.0
 40
9.0
 40
10.0
 40
10.0
 40
10.0
 40
11.0
 40
11.0
 40
11.0
 40
12.0
 40
12.0
 40
12.0
 40
13.0
 40
13.0
 40
13.0
 40
14.0
 40
14.0
 40
14.0
 40
15.0
 40
15.0
 40
15.0
 40
16.0
 40
16.0
 40
16.0
 40
17.0
 40
17.0
 40
17.0
 40
18.0
 40
18.0
 40
18.0
 40
19.0
 40
19.0
 40
19.0
 40
20.0
 40
20.0
 40
20.0
 40
21.0
 40
21.0
 40
21.0
 40
21.0
 10
3.018283075014551
 20
-6.730928901270443
 30
0.0
 10
2.946548964500228
 20
-6.697479092513932
 30
0.0
 10
2.94430083624502
 20
-6.609174784788238
 30
0.0
 10
2.985366476164724
 20
-6.57260285824744
 30
0.0
 10
3.010555346064898
 20
-6.550169895194054
 30
0.0
 10
3.034875312699012
 20
-6.526762912772179
 30
0.0
 10
3.059604723506304
 20
-6.503811150890669
 30
0.0
 10
3.052988343026703
 20
-6.491148899100304
 30
0.0
 10
3.049519511646495
 20
-6.476864129406294
 30
0.0
 10
3.047908013979395
 20
-6.462665826183638
 30
0.0
 10
3.046633905092676
 20
-6.451446377670182
 30
0.0
 10
3.047658787091374
 20
-6.440560927095096
 30
0.0
 10
3.050264649179047
 20
-6.42958053294362
 30
0.0
 10
3.051192044469846
 20
-6.425670044391103
 30
0.0
 10
3.052567030906478
 20
-6.421589166027388
 30
0.0
 10
3.053826728714637
 20
-6.417484551769575
 30
0.0
 10
3.040271837764116
 20
-6.416368117036502
 30
0.0
 10
3.026898356861339
 20
-6.41281281918494
 30
0.0
 10
3.013695265769759
 20
-6.409048136839019
 30
0.0
 10
3.002925951533648
 20
-6.40597688168494
 30
0.0
 10
2.9934171828162
 20
-6.401530640094228
 30
0.0
 10
2.984912103334863
 20
-6.395521220335113
 30
0.0
 10
2.956531603389116
 20
-6.41564501997704
 30
0.0
 10
2.928162971390419
 20
-6.435881565115929
 30
0.0
 10
2.898599067581825
 20
-6.454148878755252
 30
0.0
 10
2.861692295392155
 20
-6.476953139009158
 30
0.0
 10
2.817255310800141
 20
-6.468888021279123
 30
0.0
 10
2.787833822356131
 20
-6.436561428939714
 30
0.0
 10
2.759683899667328
 20
-6.405631015799523
 30
0.0
 10
2.754977410952051
 20
-6.366750773557769
 30
0.0
 10
2.774922343677745
 20
-6.330661194293447
 30
0.0
 10
2.775758186234169
 20
-6.329148878755252
 30
0.0
 10
2.775777683575749
 20
-6.327184733518707
 30
0.0
 10
2.776460938241547
 20
-6.324184686046919
 30
0.0
 10
2.770283671802745
 20
-6.323437005382857
 30
0.0
 10
2.764954115867415
 20
-6.322220540810373
 30
0.0
 10
2.759629646195106
 20
-6.32223919044145
 30
0.0
 10
2.722138801468544
 20
-6.322369737858984
 30
0.0
 10
2.696168342484169
 20
-6.341801805730078
 30
0.0
 10
2.677646715693804
 20
-6.372605910005252
 30
0.0
 10
2.660296624819238
 20
-6.40146028012244
 30
0.0
 10
2.659501472366981
 20
-6.433188388846398
 30
0.0
 10
2.660683180808821
 20
-6.465917643674957
 30
0.0
 10
2.663537422074012
 20
-6.544918328625044
 30
0.0
 10
2.728247403356565
 20
-6.604047831663238
 30
0.0
 10
2.793713542408214
 20
-6.619009074339019
 30
0.0
 10
2.804615099482866
 20
-6.621500495508724
 30
0.0
 10
2.806708944426443
 20
-6.625784824393273
 30
0.0
 10
2.806561442798839
 20
-6.636352383529557
 30
0.0
 10
2.805313612937728
 20
-6.725687507227474
 30
0.0
 10
2.849599705060123
 20
-6.805418918631554
 30
0.0
 10
2.951904799461165
 20
-6.822112881576432
 30
0.0
 10
2.994245395978092
 20
-6.829021722179732
 30
0.0
 10
3.037743965042762
 20
-6.810049113401519
 30
0.0
 10
3.05959878953278
 20
-6.774670763249609
 30
0.0
 10
3.067914829571842
 20
-6.761209120454471
 30
0.0
 10
3.072139818721148
 20
-6.746587809690582
 30
0.0
 10
3.072185595088335
 20
-6.729225003158464
 30
0.0
 10
3.067451131926443
 20
-6.730684760645443
 30
0.0
 10
3.064507881058387
 20
-6.73140446686289
 30
0.0
 10
3.061704502423405
 20
-6.732486993175825
 30
0.0
 10
3.046990791214637
 20
-6.738170892101607
 30
0.0
 10
3.032463576316634
 20
-6.737541043197526
 30
0.0
 10
3.018283075014551
 20
-6.730928901270443
 30
0.0
  0
HATCH
  5
8C
330
80
100
AcDbEntity
  8
Lid
 62
    18
420
        0
440
 33554687
100
AcDbHatch
 10
0.0
 20
0.0
 30
0.0
210
0.0
220
0.0
230
1.0
  2
SOLID
 70
     1
 71
     1
 91
        1
 92
        1
 93
        1
 72
     4
 94
        3
 73
     0
 74
     0
 95
       68
 96
       64
 40
0.0
 40
0.0
 40
0.0
 40
0.0
 40
1.0
 40
1.0
 40
1.0
 40
2.0
 40
2.0
 40
2.0
 40
3.0
 40
3.0
 40
3.0
 40
4.0
 40
4.0
 40
4.0
 40
5.0
 40
5.0
 40
5.0
 40
6.0
 40
6.0
 40
6.0
 40
7.0
 40
7.0
 40
7.0
 40
8.0
 40
8.0
 40
8.0
 40
9.0
 40
9.0
 40
9.0
 40
10.0
 40
10.0
 40
10.0
 40
11.0
 40
11.0
 40
11.0
 40
12.0
 40
12.0
 40
12.0
 40
13.0
 40
13.0
 40
13.0
 40
14.0
 40
14.0
 40
14.0
 40
15.0
 40
15.0
 40
15.0
 40
16.0
 40
16.0
 40
16.0
 40
17.0
 40
17.0
 40
17.0
 40
18.0
 40
18.0
 40
18.0
 40
19.0
 40
19.0
 40
19.0
 40
20.0
 40
20.0
 40
20.0
 40
21.0
 40
21.0
 40
21.0
 40
21.0
 10
3.018283075014551
 20
-6.730928901270443
 10
2.946548964500228
 20
-6.697479092513932
 10
2.94430083624502
 20
-6.609174784788238
 10
2.985366476164724
 20
-6.57260285824744
 10
3.010555346064898
 20
-6.550169895194054
 10
3.034875312699012
 20
-6.526762912772179
 10
3.059604723506304
 20
-6.503811150890669
 10
3.052988343026703
 20
-6.491148899100304
 10
3.049519511646495
 20
-6.476864129406294
 10
3.047908013979395
 20
-6.462665826183638
 10
3.046633905092676
 20
-6.451446377670182
 10
3.047658787091374
 20
-6.440560927095096
 10
3.050264649179047
 20
-6.42958053294362
 10
3.051192044469846
 20
-6.425670044391103
 10
3.052567030906478
 20
-6.421589166027388
 10
3.053826728714637
 20
-6.417484551769575
 10
3.040271837764116
 20
-6.416368117036502
 10
3.026898356861339
 20
-6.41281281918494
 10
3.013695265769759
 20
-6.409048136839019
 10
3.002925951533648
 20
-6.40597688168494
 10
2.9934171828162
 20
-6.401530640094228
 10
2.984912103334863
 20
-6.395521220335113
 10
2.956531603389116
 20
-6.41564501997704
 10
2.928162971390419
 20
-6.435881565115929
 10
2.898599067581825
 20
-6.454148878755252
 10
2.861692295392155
 20
-6.476953139009158
 10
2.817255310800141
 20
-6.468888021279123
 10
2.787833822356131
 20
-6.436561428939714
 10
2.759683899667328
 20
-6.405631015799523
 10
2.754977410952051
 20
-6.366750773557769
 10
2.774922343677745
 20
-6.330661194293447
 10
2.775758186234169
 20
-6.329148878755252
 10
2.775777683575749
 20
-6.327184733518707
 10
2.776460938241547
 20
-6.324184686046919
 10
2.770283671802745
 20
-6.323437005382857
 10
2.764954115867415
 20
-6.322220540810373
 10
2.759629646195106
 20
-6.32223919044145
 10
2.722138801468544
 20
-6.322369737858984
 10
2.696168342484169
 20
-6.341801805730078
 10
2.677646715693804
 20
-6.372605910005252
 10
2.660296624819238
 20
-6.40146028012244
 10
2.659501472366981
 20
-6.433188388846398
 10
2.660683180808821
 20
-6.465917643674957
 10
2.663537422074012
 20
-6.544918328625044
 10
2.728247403356565
 20
-6.604047831663238
 10
2.793713542408214
 20
-6.619009074339019
 10
2.804615099482866
 20
-6.621500495508724
 10
2.806708944426443
 20
-6.625784824393273
 10
2.806561442798839
 20
-6.636352383529557
 10
2.805313612937728
 20
-6.725687507227474
 10
2.849599705060123
 20
-6.805418918631554
 10
2.951904799461165
 20
-6.822112881576432
 10
2.994245395978092
 20
-6.829021722179732
 10
3.037743965042762
 20
-6.810049113401519
 10
3.05959878953278
 20
-6.774670763249609
 10
3.067914829571842
 20
-6.761209120454471
 10
3.072139818721148
 20
-6.746587809690582
 10
3.072185595088335
 20
-6.729225003158464
 10
3.067451131926443
 20
-6.730684760645443
 10
3.064507881058387
 20
-6.73140446686289
 10
3.061704502423405
 20
-6.732486993175825
 10
3.046990791214637
 20
-6.738170892101607
 10
3.032463576316634
 20
-6.737541043197526
 10
3.018283075014551
 20
-6.730928901270443
 97
        0
 97
        1
330
8B
 75
     2
 76
     1
 98
        1
 10
0.0
 20
0.0
450
        0
451
        0
460
0.0
461
0.0
452
        0
462
0.0
453
        0
470

  0
SPLINE
  5
8D
330
80
100
AcDbEntity
  8
Lid
100
AcDbSpline
210
0.0
220
0.0
230
1.0
 70
     9
 71
     3
 72
    74
 73
    70
 74
     0
 42
0.0000000001
 43
0.0000000001
 40
0.0
 40
0.0
 40
0.0
 40
0.0
 40
1.0
 40
1.0
 40
1.0
 40
2.0
 40
2.0
 40
2.0
 40
3.0
 40
3.0
 40
3.0
 40
4.0
 40
4.0
 40
4.0
 40
5.0
 40
5.0
 40
5.0
 40
6.0
 40
6.0
 40
6.0
 40
7.0
 40
7.0
 40
7.0
 40
8.0
 40
8.0
 40
8.0
 40
9.0
 40
9.0
 40
9.0
 40
10.0
 40
10.0
 40
10.0
 40
11.0
 40
11.0
 40
11.0
 40
12.0
 40
12.0
 40
12.0
 40
13.0
 40
13.0
 40
13.0
 40
14.0
 40
14.0
 40
14.0
 40
15.0
 40
15.0
 40
15.0
 40
16.0
 40
16.0
 40
16.0
 40
17.0
 40
17.0
 40
17.0
 40
18.0
 40
18.0
 40
18.0
 40
19.0
 40
19.0
 40
19.0
 40
20.0
 40
20.0
 40
20.0
 40
21.0
 40
21.0
 40
21.0
 40
22.0
 40
22.0
 40
22.0
 40
23.0
 40
23.0
 40
23.0
 40
23.0
 10
4.935262546856998
 20
-6.415282199881554
 30
0.0
 10
4.929507440248926
 20
-6.387059374089453
 30
0.0
 10
4.914322402000228
 20
-6.364024536578603
 30
0.0
 10
4.889912578052745
 20
-6.347596754731815
 30
0.0
 10
4.870906060854395
 20
-6.334805650944922
 30
0.0
 10
4.85067799282054
 20
-6.32948796295664
 30
0.0
 10
4.82628088453061
 20
-6.334979431598134
 30
0.0
 10
4.828832493146061
 20
-6.339674052366363
 30
0.0
 10
4.831423944155176
 20
-6.34278854075612
 30
0.0
 10
4.832286913447711
 20
-6.346326036687109
 30
0.0
 10
4.835386143048404
 20
-6.359042541949697
 30
0.0
 10
4.841390476544498
 20
-6.37227360748789
 30
0.0
 10
4.840068895869586
 20
-6.384645094575565
 30
0.0
 10
4.831930027325748
 20
-6.460815274154557
 30
0.0
 10
4.750749878671235
 20
-6.499537842242665
 30
0.0
 10
4.693843072573145
 20
-6.454912665918881
 30
0.0
 10
4.670364034758474
 20
-6.436501241493967
 30
0.0
 10
4.646455207718544
 20
-6.41863574263329
 30
0.0
 10
4.622471782154307
 20
-6.40087705529605
 30
0.0
 10
4.61139813984745
 20
-6.405643731457075
 30
0.0
 10
4.597130324363509
 20
-6.404361993175825
 30
0.0
 10
4.585626892831391
 20
-6.406125231023047
 30
0.0
 10
4.576481791919932
 20
-6.407528191906294
 30
0.0
 10
4.567346863534516
 20
-6.409099847179732
 30
0.0
 10
4.558143270598318
 20
-6.410075561969228
 30
0.0
 10
4.554731235821842
 20
-6.410436686643707
 30
0.0
 10
4.551284444914724
 20
-6.410600294770877
 30
0.0
 10
4.547846131112641
 20
-6.410672350163672
 30
0.0
 10
4.548701471010645
 20
-6.417086975543447
 30
0.0
 10
4.549372857729395
 20
-6.423510925738759
 30
0.0
 10
4.549612759801877
 20
-6.429981500011763
 30
0.0
 10
4.55009934563087
 20
-6.443131185341623
 30
0.0
 10
4.548364082230262
 20
-6.455946025022613
 30
0.0
 10
4.546341444968978
 20
-6.46890921404171
 30
0.0
 10
4.544553623517154
 20
-6.480366021496138
 30
0.0
 10
4.541959629376529
 20
-6.491317593490495
 30
0.0
 10
4.538860399775836
 20
-6.50209538483164
 30
0.0
 10
4.562652242766287
 20
-6.525724467405425
 30
0.0
 10
4.586197402000228
 20
-6.549610406261763
 30
0.0
 10
4.609389913664724
 20
-6.57382864763546
 30
0.0
 10
4.636230123625662
 20
-6.601854804590756
 30
0.0
 10
4.638757996347016
 20
-6.63536903934553
 30
0.0
 10
4.627789470142588
 20
-6.670360833507857
 30
0.0
 10
4.613000312699012
 20
-6.717540161578603
 30
0.0
 10
4.567964844491547
 20
-6.741148899100304
 30
0.0
 10
4.521119514359169
 20
-6.727728794119835
 30
0.0
 10
4.52008954609745
 20
-6.727433790864627
 30
0.0
 10
4.518858670446408
 20
-6.72783984419579
 30
0.0
 10
4.516590197139117
 20
-6.727997518349436
 30
0.0
 10
4.516590197139117
 20
-6.731458720335113
 30
0.0
 10
4.516236701859169
 20
-6.734857191743533
 30
0.0
 10
4.516644450611338
 20
-6.738161567286068
 30
0.0
 10
4.5211271437537
 20
-6.774521566200998
 30
0.0
 10
4.541236532317068
 20
-6.80063274512895
 30
0.0
 10
4.573928487883474
 20
-6.814383457205773
 30
0.0
 10
4.629361973126529
 20
-6.837698886893273
 30
0.0
 10
4.680747640715505
 20
-6.821994202105947
 30
0.0
 10
4.72439116827627
 20
-6.786356452539974
 30
0.0
 10
4.768479743851356
 20
-6.750356730589019
 30
0.0
 10
4.785528049786686
 20
-6.69931692888546
 30
0.0
 10
4.785892565303179
 20
-6.642978088824697
 30
0.0
 10
4.785951905038422
 20
-6.633890632227474
 30
0.0
 10
4.788034729745453
 20
-6.630134426986589
 30
0.0
 10
4.797627421802745
 20
-6.628270311589453
 30
0.0
 10
4.848255236201617
 20
-6.618427544933638
 30
0.0
 10
4.888700352032779
 20
-6.592037469250044
 30
0.0
 10
4.915825392722884
 20
-6.548168450695357
 30
0.0
 10
4.941164307382172
 20
-6.507188429536502
 30
0.0
 10
4.944712823549707
 20
-6.461625685395877
 30
0.0
 10
4.935262546856998
 20
-6.415282199881554
 30
0.0
  0
HATCH
  5
8E
330
80
100
AcDbEntity
  8
Lid
 62
    18
420
        0
440
 33554687
100
AcDbHatch
 10
0.0
 20
0.0
 30
0.0
210
0.0
220
0.0
230
1.0
  2
SOLID
 70
     1
 71
     1
 91
        1
 92
        1
 93
        1
 72
     4
 94
        3
 73
     0
 74
     0
 95
       74
 96
       70
 40
0.0
 40
0.0
 40
0.0
 40
0.0
 40
1.0
 40
1.0
 40
1.0
 40
2.0
 40
2.0
 40
2.0
 40
3.0
 40
3.0
 40
3.0
 40
4.0
 40
4.0
 40
4.0
 40
5.0
 40
5.0
 40
5.0
 40
6.0
 40
6.0
 40
6.0
 40
7.0
 40
7.0
 40
7.0
 40
8.0
 40
8.0
 40
8.0
 40
9.0
 40
9.0
 40
9.0
 40
10.0
 40
10.0
 40
10.0
 40
11.0
 40
11.0
 40
11.0
 40
12.0
 40
12.0
 40
12.0
 40
13.0
 40
13.0
 40
13.0
 40
14.0
 40
14.0
 40
14.0
 40
15.0
 40
15.0
 40
15.0
 40
16.0
 40
16.0
 40
16.0
 40
17.0
 40
17.0
 40
17.0
 40
18.0
 40
18.0
 40
18.0
 40
19.0
 40
19.0
 40
19.0
 40
20.0
 40
20.0
 40
20.0
 40
21.0
 40
21.0
 40
21.0
 40
22.0
 40
22.0
 40
22.0
 40
23.0
 40
23.0
 40
23.0
 40
23.0
 10
4.935262546856998
 20
-6.415282199881554
 10
4.929507440248926
 20
-6.387059374089453
 10
4.914322402000228
 20
-6.364024536578603
 10
4.889912578052745
 20
-6.347596754731815
 10
4.870906060854395
 20
-6.334805650944922
 10
4.85067799282054
 20
-6.32948796295664
 10
4.82628088453061
 20
-6.334979431598134
 10
4.828832493146061
 20
-6.339674052366363
 10
4.831423944155176
 20
-6.34278854075612
 10
4.832286913447711
 20
-6.346326036687109
 10
4.835386143048404
 20
-6.359042541949697
 10
4.841390476544498
 20
-6.37227360748789
 10
4.840068895869586
 20
-6.384645094575565
 10
4.831930027325748
 20
-6.460815274154557
 10
4.750749878671235
 20
-6.499537842242665
 10
4.693843072573145
 20
-6.454912665918881
 10
4.670364034758474
 20
-6.436501241493967
 10
4.646455207718544
 20
-6.41863574263329
 10
4.622471782154307
 20
-6.40087705529605
 10
4.61139813984745
 20
-6.405643731457075
 10
4.597130324363509
 20
-6.404361993175825
 10
4.585626892831391
 20
-6.406125231023047
 10
4.576481791919932
 20
-6.407528191906294
 10
4.567346863534516
 20
-6.409099847179732
 10
4.558143270598318
 20
-6.410075561969228
 10
4.554731235821842
 20
-6.410436686643707
 10
4.551284444914724
 20
-6.410600294770877
 10
4.547846131112641
 20
-6.410672350163672
 10
4.548701471010645
 20
-6.417086975543447
 10
4.549372857729395
 20
-6.423510925738759
 10
4.549612759801877
 20
-6.429981500011763
 10
4.55009934563087
 20
-6.443131185341623
 10
4.548364082230262
 20
-6.455946025022613
 10
4.546341444968978
 20
-6.46890921404171
 10
4.544553623517154
 20
-6.480366021496138
 10
4.541959629376529
 20
-6.491317593490495
 10
4.538860399775836
 20
-6.50209538483164
 10
4.562652242766287
 20
-6.525724467405425
 10
4.586197402000228
 20
-6.549610406261763
 10
4.609389913664724
 20
-6.57382864763546
 10
4.636230123625662
 20
-6.601854804590756
 10
4.638757996347016
 20
-6.63536903934553
 10
4.627789470142588
 20
-6.670360833507857
 10
4.613000312699012
 20
-6.717540161578603
 10
4.567964844491547
 20
-6.741148899100304
 10
4.521119514359169
 20
-6.727728794119835
 10
4.52008954609745
 20
-6.727433790864627
 10
4.518858670446408
 20
-6.72783984419579
 10
4.516590197139117
 20
-6.727997518349436
 10
4.516590197139117
 20
-6.731458720335113
 10
4.516236701859169
 20
-6.734857191743533
 10
4.516644450611338
 20
-6.738161567286068
 10
4.5211271437537
 20
-6.774521566200998
 10
4.541236532317068
 20
-6.80063274512895
 10
4.573928487883474
 20
-6.814383457205773
 10
4.629361973126529
 20
-6.837698886893273
 10
4.680747640715505
 20
-6.821994202105947
 10
4.72439116827627
 20
-6.786356452539974
 10
4.768479743851356
 20
-6.750356730589019
 10
4.785528049786686
 20
-6.69931692888546
 10
4.785892565303179
 20
-6.642978088824697
 10
4.785951905038422
 20
-6.633890632227474
 10
4.788034729745453
 20
-6.630134426986589
 10
4.797627421802745
 20
-6.628270311589453
 10
4.848255236201617
 20
-6.618427544933638
 10
4.888700352032779
 20
-6.592037469250044
 10
4.915825392722884
 20
-6.548168450695357
 10
4.941164307382172
 20
-6.507188429536502
 10
4.944712823549707
 20
-6.461625685395877
 10
4.935262546856998
 20
-6.415282199881554
 97
        0
 97
        1
330
8D
 75
     2
 76
     1
 98
        1
 10
0.0
 20
0.0
450
        0
451
        0
460
0.0
461
0.0
452
        0
462
0.0
453
        0
470

  0
SPLINE
  5
8F
330
80
100
AcDbEntity
  8
Lid
100
AcDbSpline
210
0.0
220
0.0
230
1.0
 70
     9
 71
     3
 72
    17
 73
    13
 74
     0
 42
0.0000000001
 43
0.0000000001
 40
0.0
 40
0.0
 40
0.0
 40
0.0
 40
1.0
 40
1.0
 40
1.0
 40
2.0
 40
2.0
 40
2.0
 40
3.0
 40
3.0
 40
3.0
 40
4.0
 40
4.0
 40
4.0
 40
4.0
 10
3.98289709546811
 20
-6.330209364595096
 30
0.0
 10
3.963486220359603
 20
-6.329613424111155
 30
0.0
 10
3.948222345034082
 20
-6.313397569890234
 30
0.0
 10
3.948871691279741
 20
-6.294063836437544
 30
0.0
 10
3.949532057761946
 20
-6.27440966841454
 30
0.0
 10
3.965395264413422
 20
-6.259283969901085
 30
0.0
 10
3.984788337601356
 20
-6.259818027518273
 30
0.0
 10
4.004222948603961
 20
-6.260353780556467
 30
0.0
 10
4.019246921856998
 20
-6.276336514388932
 30
0.0
 10
4.018752706633474
 20
-6.29595253543928
 30
0.0
 10
4.018261882251964
 20
-6.315476156044748
 30
0.0
 10
4.002218960973752
 20
-6.33080360965803
 30
0.0
 10
3.98289709546811
 20
-6.330209364595096
 30
0.0
  0
SPLINE
  5
90
330
80
100
AcDbEntity
  8
Lid
100
AcDbSpline
210
0.0
220
0.0
230
1.0
 70
     9
 71
     3
 72
    17
 73
    13
 74
     0
 42
0.0000000001
 43
0.0000000001
 40
0.0
 40
0.0
 40
0.0
 40
0.0
 40
1.0
 40
1.0
 40
1.0
 40
2.0
 40
2.0
 40
2.0
 40
3.0
 40
3.0
 40
3.0
 40
4.0
 40
4.0
 40
4.0
 40
4.0
 10
3.930838345739377
 20
-6.460926324230513
 30
0.0
 10
3.911384237395193
 20
-6.461309489378082
 30
0.0
 10
3.895217550383474
 20
-6.445882853635894
 30
0.0
 10
3.894958150969412
 20
-6.426688992416276
 30
0.0
 10
3.894695360713335
 20
-6.40726370622921
 30
0.0
 10
3.911105340639551
 20
-6.390821513303863
 30
0.0
 10
3.930813762134776
 20
-6.390763868989627
 30
0.0
 10
3.949504931025835
 20
-6.390709615517405
 30
0.0
 10
3.965126540183821
 20
-6.406285448308203
 30
0.0
 10
3.965289300600488
 20
-6.425138529905425
 30
0.0
 10
3.965457994990679
 20
-6.444619764985721
 30
0.0
 10
3.950125455114377
 20
-6.460546549924957
 30
0.0
 10
3.930838345739377
 20
-6.460926324230513
 30
0.0
  0
SPLINE
  5
91
330
80
100
AcDbEntity
  8
Lid
100
AcDbSpline
210
0.0
220
0.0
230
1.0
 70
     9
 71
     3
 72
    23
 73
    19
 74
     0
 42
0.0000000001
 43
0.0000000001
 40
0.0
 40
0.0
 40
0.0
 40
0.0
 40
1.0
 40
1.0
 40
1.0
 40
2.0
 40
2.0
 40
2.0
 40
3.0
 40
3.0
 40
3.0
 40
4.0
 40
4.0
 40
4.0
 40
5.0
 40
5.0
 40
5.0
 40
6.0
 40
6.0
 40
6.0
 40
6.0
 10
3.821257352087033
 20
-6.42394834435855
 30
0.0
 10
3.757063626501096
 20
-6.434683750174523
 30
0.0
 10
3.696992317093544
 20
-6.393337518078169
 30
0.0
 10
3.681797106318804
 20
-6.327961236339888
 30
0.0
 10
3.664373264630436
 20
-6.252992262544315
 30
0.0
 10
3.711951016637815
 20
-6.182105862533464
 30
0.0
 10
3.787536275969412
 20
-6.170421868664107
 30
0.0
 10
3.842667976273231
 20
-6.1618998349727
 30
0.0
 10
3.900826003074446
 20
-6.202039775022613
 30
0.0
 10
3.917381789207259
 20
-6.260192715560807
 30
0.0
 10
3.919307787471148
 20
-6.266959140799523
 30
0.0
 10
3.920769240379134
 20
-6.273906976085982
 30
0.0
 10
3.921789036114811
 20
-6.280866679319488
 30
0.0
 10
3.922636746618283
 20
-6.286653998926693
 30
0.0
 10
3.922517219437294
 20
-6.292582886187978
 30
0.0
 10
3.922825786060558
 20
-6.298449042872006
 30
0.0
 10
3.922570625199012
 20
-6.360520101357248
 30
0.0
 10
3.879169542842241
 20
-6.414264099566884
 30
0.0
 10
3.821257352087033
 20
-6.42394834435855
 30
0.0
  0
SPLINE
  5
92
330
80
100
AcDbEntity
  8
Lid
100
AcDbSpline
210
0.0
220
0.0
230
1.0
 70
     9
 71
     3
 72
    17
 73
    13
 74
     0
 42
0.0000000001
 43
0.0000000001
 40
0.0
 40
0.0
 40
0.0
 40
0.0
 40
1.0
 40
1.0
 40
1.0
 40
2.0
 40
2.0
 40
2.0
 40
3.0
 40
3.0
 40
3.0
 40
4.0
 40
4.0
 40
4.0
 40
4.0
 10
3.798724359194238
 20
-6.515207770899349
 30
0.0
 10
3.779257535192502
 20
-6.515331536632857
 30
0.0
 10
3.763115431785384
 20
-6.499634481240061
 30
0.0
 10
3.763049310366113
 20
-6.480517761676259
 30
0.0
 10
3.762983188946842
 20
-6.461192505328603
 30
0.0
 10
3.77861242749936
 20
-6.445492059093794
 30
0.0
 10
3.798173347366981
 20
-6.445232659679732
 30
0.0
 10
3.817696120261946
 20
-6.444974955686675
 30
0.0
 10
3.833477098994585
 20
-6.46042532732296
 30
0.0
 10
3.833656813621321
 20
-6.47997353153303
 30
0.0
 10
3.833834832827051
 20
-6.499396274588585
 30
0.0
 10
3.818281888219846
 20
-6.515084005165842
 30
0.0
 10
3.798724359194238
 20
-6.515207770899349
 30
0.0
  0
SPLINE
  5
93
330
80
100
AcDbEntity
  8
Lid
100
AcDbSpline
210
0.0
220
0.0
230
1.0
 70
     9
 71
     3
 72
    17
 73
    13
 74
     0
 42
0.0000000001
 43
0.0000000001
 40
0.0
 40
0.0
 40
0.0
 40
0.0
 40
1.0
 40
1.0
 40
1.0
 40
2.0
 40
2.0
 40
2.0
 40
3.0
 40
3.0
 40
3.0
 40
4.0
 40
4.0
 40
4.0
 40
4.0
 10
3.668881389087901
 20
-6.460789842839453
 30
0.0
 10
3.649070394621755
 20
-6.460767802366363
 30
0.0
 10
3.632915575557085
 20
-6.444516344304297
 30
0.0
 10
3.633136827998491
 20
-6.424831658703169
 30
0.0
 10
3.633347060203353
 20
-6.406019267210113
 30
0.0
 10
3.648838969654307
 20
-6.390697747570357
 30
0.0
 10
3.66779716735396
 20
-6.390551093653256
 30
0.0
 10
3.687372498300141
 20
-6.390399353473134
 30
0.0
 10
3.70364430141429
 20
-6.406787292926259
 30
0.0
 10
3.703523926522797
 20
-6.426531318262631
 30
0.0
 10
3.703409485604828
 20
-6.445240289074263
 30
0.0
 10
3.687664110713335
 20
-6.46081103560204
 30
0.0
 10
3.668881389087901
 20
-6.460789842839453
 30
0.0
  0
SPLINE
  5
94
330
80
100
AcDbEntity
  8
Lid
100
AcDbSpline
210
0.0
220
0.0
230
1.0
 70
     9
 71
     3
 72
    17
 73
    13
 74
     0
 42
0.0000000001
 43
0.0000000001
 40
0.0
 40
0.0
 40
0.0
 40
0.0
 40
1.0
 40
1.0
 40
1.0
 40
2.0
 40
2.0
 40
2.0
 40
3.0
 40
3.0
 40
3.0
 40
4.0
 40
4.0
 40
4.0
 40
4.0
 10
3.579143602900835
 20
-6.294658081500478
 30
0.0
 10
3.579387743525835
 20
-6.275098857053863
 30
0.0
 10
3.595169569968978
 20
-6.259547607867665
 30
0.0
 10
3.614456679343978
 20
-6.259860413043447
 30
0.0
 10
3.633973518265419
 20
-6.260176609061241
 30
0.0
 10
3.649429823875228
 20
-6.275943176715322
 30
0.0
 10
3.649228068775401
 20
-6.295330315929732
 30
0.0
 10
3.649028856807085
 20
-6.314474162229644
 30
0.0
 10
3.632966438187294
 20
-6.330343302854644
 30
0.0
 10
3.613821744176877
 20
-6.330309394434506
 30
0.0
 10
3.594906779712901
 20
-6.33027633372487
 30
0.0
 10
3.578903700828353
 20
-6.313823968273482
 30
0.0
 10
3.579143602900835
 20
-6.294658081500478
 30
0.0
  0
SPLINE
  5
95
330
80
100
AcDbEntity
  8
Lid
100
AcDbSpline
210
0.0
220
0.0
230
1.0
 70
     9
 71
     3
 72
    17
 73
    13
 74
     0
 42
0.0000000001
 43
0.0000000001
 40
0.0
 40
0.0
 40
0.0
 40
0.0
 40
1.0
 40
1.0
 40
1.0
 40
2.0
 40
2.0
 40
2.0
 40
3.0
 40
3.0
 40
3.0
 40
4.0
 40
4.0
 40
4.0
 40
4.0
 10
3.669312026023665
 20
-6.129221442774349
 30
0.0
 10
3.68877122063087
 20
-6.129139214855513
 30
0.0
 10
3.704130887243283
 20
-6.144762519434506
 30
0.0
 10
3.703974908510645
 20
-6.164479418034766
 30
0.0
 10
3.703824016041026
 20
-6.183507127995704
 30
0.0
 10
3.687725145869585
 20
-6.199343207911068
 30
0.0
 10
3.668496528519325
 20
-6.199378811752214
 30
0.0
 10
3.64922043938087
 20
-6.199415263303863
 30
0.0
 10
3.63349540954146
 20
-6.183429986339888
 30
0.0
 10
3.63375396124502
 20
-6.164063192177561
 30
0.0
 10
3.634007426685557
 20
-6.145028700532596
 30
0.0
 10
3.650057129647797
 20
-6.129303670693186
 30
0.0
 10
3.669312026023665
 20
-6.129221442774349
 30
0.0
  0
SPLINE
  5
96
330
80
100
AcDbEntity
  8
Lid
100
AcDbSpline
210
0.0
220
0.0
230
1.0
 70
     9
 71
     3
 72
    17
 73
    13
 74
     0
 42
0.0000000001
 43
0.0000000001
 40
0.0
 40
0.0
 40
0.0
 40
0.0
 40
1.0
 40
1.0
 40
1.0
 40
2.0
 40
2.0
 40
2.0
 40
3.0
 40
3.0
 40
3.0
 40
4.0
 40
4.0
 40
4.0
 40
4.0
 10
3.758508972909516
 20
-5.77460972809336
 30
0.0
 10
3.746579142994151
 20
-5.774843696192318
 30
0.0
 10
3.736837253888249
 20
-5.765403592025651
 30
0.0
 10
3.736482910897797
 20
-5.753264377615929
 30
0.0
 10
3.736121786223318
 20
-5.740921712685373
 30
0.0
 10
3.746147658347884
 20
-5.730410950152822
 30
0.0
 10
3.758343669361339
 20
-5.73034482873355
 30
0.0
 10
3.770267565303179
 20
-5.730280402735287
 30
0.0
 10
3.779604248788422
 20
-5.739935825369835
 30
0.0
 10
3.779575426631304
 20
-5.752299683062978
 30
0.0
 10
3.77954745218469
 20
-5.764633023177995
 30
0.0
 10
3.770346402380002
 20
-5.774376607704905
 30
0.0
 10
3.758508972909516
 20
-5.77460972809336
 30
0.0
  0
SPLINE
  5
97
330
80
100
AcDbEntity
  8
Lid
100
AcDbSpline
210
0.0
220
0.0
230
1.0
 70
     9
 71
     3
 72
    17
 73
    13
 74
     0
 42
0.0000000001
 43
0.0000000001
 40
0.0
 40
0.0
 40
0.0
 40
0.0
 40
1.0
 40
1.0
 40
1.0
 40
2.0
 40
2.0
 40
2.0
 40
3.0
 40
3.0
 40
3.0
 40
4.0
 40
4.0
 40
4.0
 40
4.0
 10
3.833738193829655
 20
-6.110494670042144
 30
0.0
 10
3.833694112883474
 20
-6.129101067882857
 30
0.0
 10
3.817983494122623
 20
-6.144994792112457
 30
0.0
 10
3.799333863046235
 20
-6.145299967893707
 30
0.0
 10
3.779544061342676
 20
-6.145623793306033
 30
0.0
 10
3.762956909921235
 20
-6.129406243664107
 30
0.0
 10
3.763091695891287
 20
-6.109865668848568
 30
0.0
 10
3.763223091019325
 20
-6.090844740571658
 30
0.0
 10
3.779686476707259
 20
-6.074801819293447
 30
0.0
 10
3.798764201587901
 20
-6.07510529965369
 30
0.0
 10
3.818281888219846
 20
-6.07541556169796
 30
0.0
 10
3.833784817907346
 20
-6.091102444564714
 30
0.0
 10
3.833738193829655
 20
-6.110494670042144
 30
0.0
  0
SPLINE
  5
98
330
80
100
AcDbEntity
  8
Lid
100
AcDbSpline
210
0.0
220
0.0
230
1.0
 70
     9
 71
     3
 72
    17
 73
    13
 74
     0
 42
0.0000000001
 43
0.0000000001
 40
0.0
 40
0.0
 40
0.0
 40
0.0
 40
1.0
 40
1.0
 40
1.0
 40
2.0
 40
2.0
 40
2.0
 40
3.0
 40
3.0
 40
3.0
 40
4.0
 40
4.0
 40
4.0
 40
4.0
 10
3.92959390672028
 20
-6.128990017806901
 30
0.0
 10
3.948523282262815
 20
-6.128719598156294
 30
0.0
 10
3.964561964988509
 20
-6.144755737750478
 30
0.0
 10
3.964762872377832
 20
-6.164153897201432
 30
0.0
 10
3.964959541214637
 20
-6.183093445270009
 30
0.0
 10
3.949780436939464
 20
-6.198888835081207
 30
0.0
 10
3.931018908076616
 20
-6.199267761676259
 30
0.0
 10
3.91130540031837
 20
-6.199665337902388
 30
0.0
 10
3.894730964554481
 20
-6.18365039107079
 30
0.0
 10
3.8945402296912
 20
-6.164020806652388
 30
0.0
 10
3.894352885669933
 20
-6.144639601411502
 30
0.0
 10
3.909729506492415
 20
-6.129274000825565
 30
0.0
 10
3.92959390672028
 20
-6.128990017806901
 30
0.0
  0
SPLINE
  5
99
330
80
100
AcDbEntity
  8
Lid
100
AcDbSpline
210
0.0
220
0.0
230
1.0
 70
     9
 71
     3
 72
   455
 73
   451
 74
     0
 42
0.0000000001
 43
0.0000000001
 40
0.0
 40
0.0
 40
0.0
 40
0.0
 40
1.0
 40
1.0
 40
1.0
 40
2.0
 40
2.0
 40
2.0
 40
3.0
 40
3.0
 40
3.0
 40
4.0
 40
4.0
 40
4.0
 40
5.0
 40
5.0
 40
5.0
 40
6.0
 40
6.0
 40
6.0
 40
7.0
 40
7.0
 40
7.0
 40
8.0
 40
8.0
 40
8.0
 40
9.0
 40
9.0
 40
9.0
 40
10.0
 40
10.0
 40
10.0
 40
11.0
 40
11.0
 40
11.0
 40
12.0
 40
12.0
 40
12.0
 40
13.0
 40
13.0
 40
13.0
 40
14.0
 40
14.0
 40
14.0
 40
15.0
 40
15.0
 40
15.0
 40
16.0
 40
16.0
 40
16.0
 40
17.0
 40
17.0
 40
17.0
 40
18.0
 40
18.0
 40
18.0
 40
19.0
 40
19.0
 40
19.0
 40
20.0
 40
20.0
 40
20.0
 40
21.0
 40
21.0
 40
21.0
 40
22.0
 40
22.0
 40
22.0
 40
23.0
 40
23.0
 40
23.0
 40
24.0
 40
24.0
 40
24.0
 40
25.0
 40
25.0
 40
25.0
 40
26.0
 40
26.0
 40
26.0
 40
27.0
 40
27.0
 40
27.0
 40
28.0
 40
28.0
 40
28.0
 40
29.0
 40
29.0
 40
29.0
 40
30.0
 40
30.0
 40
30.0
 40
31.0
 40
31.0
 40
31.0
 40
32.0
 40
32.0
 40
32.0
 40
33.0
 40
33.0
 40
33.0
 40
34.0
 40
34.0
 40
34.0
 40
35.0
 40
35.0
 40
35.0
 40
36.0
 40
36.0
 40
36.0
 40
37.0
 40
37.0
 40
37.0
 40
38.0
 40
38.0
 40
38.0
 40
39.0
 40
39.0
 40
39.0
 40
40.0
 40
40.0
 40
40.0
 40
41.0
 40
41.0
 40
41.0
 40
42.0
 40
42.0
 40
42.0
 40
43.0
 40
43.0
 40
43.0
 40
44.0
 40
44.0
 40
44.0
 40
45.0
 40
45.0
 40
45.0
 40
46.0
 40
46.0
 40
46.0
 40
47.0
 40
47.0
 40
47.0
 40
48.0
 40
48.0
 40
48.0
 40
49.0
 40
49.0
 40
49.0
 40
50.0
 40
50.0
 40
50.0
 40
51.0
 40
51.0
 40
51.0
 40
52.0
 40
52.0
 40
52.0
 40
53.0
 40
53.0
 40
53.0
 40
54.0
 40
54.0
 40
54.0
 40
55.0
 40
55.0
 40
55.0
 40
56.0
 40
56.0
 40
56.0
 40
57.0
 40
57.0
 40
57.0
 40
58.0
 40
58.0
 40
58.0
 40
59.0
 40
59.0
 40
59.0
 40
60.0
 40
60.0
 40
60.0
 40
61.0
 40
61.0
 40
61.0
 40
62.0
 40
62.0
 40
62.0
 40
63.0
 40
63.0
 40
63.0
 40
64.0
 40
64.0
 40
64.0
 40
65.0
 40
65.0
 40
65.0
 40
66.0
 40
66.0
 40
66.0
 40
67.0
 40
67.0
 40
67.0
 40
68.0
 40
68.0
 40
68.0
 40
69.0
 40
69.0
 40
69.0
 40
70.0
 40
70.0
 40
70.0
 40
71.0
 40
71.0
 40
71.0
 40
72.0
 40
72.0
 40
72.0
 40
73.0
 40
73.0
 40
73.0
 40
74.0
 40
74.0
 40
74.0
 40
75.0
 40
75.0
 40
75.0
 40
76.0
 40
76.0
 40
76.0
 40
77.0
 40
77.0
 40
77.0
 40
78.0
 40
78.0
 40
78.0
 40
79.0
 40
79.0
 40
79.0
 40
80.0
 40
80.0
 40
80.0
 40
81.0
 40
81.0
 40
81.0
 40
82.0
 40
82.0
 40
82.0
 40
83.0
 40
83.0
 40
83.0
 40
84.0
 40
84.0
 40
84.0
 40
85.0
 40
85.0
 40
85.0
 40
86.0
 40
86.0
 40
86.0
 40
87.0
 40
87.0
 40
87.0
 40
88.0
 40
88.0
 40
88.0
 40
89.0
 40
89.0
 40
89.0
 40
90.0
 40
90.0
 40
90.0
 40
91.0
 40
91.0
 40
91.0
 40
92.0
 40
92.0
 40
92.0
 40
93.0
 40
93.0
 40
93.0
 40
94.0
 40
94.0
 40
94.0
 40
95.0
 40
95.0
 40
95.0
 40
96.0
 40
96.0
 40
96.0
 40
97.0
 40
97.0
 40
97.0
 40
98.0
 40
98.0
 40
98.0
 40
99.0
 40
99.0
 40
99.0
 40
100.0
 40
100.0
 40
100.0
 40
101.0
 40
101.0
 40
101.0
 40
102.0
 40
102.0
 40
102.0
 40
103.0
 40
103.0
 40
103.0
 40
104.0
 40
104.0
 40
104.0
 40
105.0
 40
105.0
 40
105.0
 40
106.0
 40
106.0
 40
106.0
 40
107.0
 40
107.0
 40
107.0
 40
108.0
 40
108.0
 40
108.0
 40
109.0
 40
109.0
 40
109.0
 40
110.0
 40
110.0
 40
110.0
 40
111.0
 40
111.0
 40
111.0
 40
112.0
 40
112.0
 40
112.0
 40
113.0
 40
113.0
 40
113.0
 40
114.0
 40
114.0
 40
114.0
 40
115.0
 40
115.0
 40
115.0
 40
116.0
 40
116.0
 40
116.0
 40
117.0
 40
117.0
 40
117.0
 40
118.0
 40
118.0
 40
118.0
 40
119.0
 40
119.0
 40
119.0
 40
120.0
 40
120.0
 40
120.0
 40
121.0
 40
121.0
 40
121.0
 40
122.0
 40
122.0
 40
122.0
 40
123.0
 40
123.0
 40
123.0
 40
124.0
 40
124.0
 40
124.0
 40
125.0
 40
125.0
 40
125.0
 40
126.0
 40
126.0
 40
126.0
 40
127.0
 40
127.0
 40
127.0
 40
128.0
 40
128.0
 40
128.0
 40
129.0
 40
129.0
 40
129.0
 40
130.0
 40
130.0
 40
130.0
 40
131.0
 40
131.0
 40
131.0
 40
132.0
 40
132.0
 40
132.0
 40
133.0
 40
133.0
 40
133.0
 40
134.0
 40
134.0
 40
134.0
 40
135.0
 40
135.0
 40
135.0
 40
136.0
 40
136.0
 40
136.0
 40
137.0
 40
137.0
 40
137.0
 40
138.0
 40
138.0
 40
138.0
 40
139.0
 40
139.0
 40
139.0
 40
140.0
 40
140.0
 40
140.0
 40
141.0
 40
141.0
 40
141.0
 40
142.0
 40
142.0
 40
142.0
 40
143.0
 40
143.0
 40
143.0
 40
144.0
 40
144.0
 40
144.0
 40
145.0
 40
145.0
 40
145.0
 40
146.0
 40
146.0
 40
146.0
 40
147.0
 40
147.0
 40
147.0
 40
148.0
 40
148.0
 40
148.0
 40
149.0
 40
149.0
 40
149.0
 40
150.0
 40
150.0
 40
150.0
 40
150.0
 10
4.543696588198145
 20
-5.768601156044748
 30
0.0
 10
4.54059735859745
 20
-5.72604778419145
 30
0.0
 10
4.530614719708561
 20
-5.685060133638065
 30
0.0
 10
4.51628586906837
 20
-5.645107537609419
 30
0.0
 10
4.5175871046912
 20
-5.786559055350304
 30
0.0
 10
4.497660821596582
 20
-5.919691989920616
 30
0.0
 10
4.471936198658213
 20
-5.994041287338151
 30
0.0
 10
4.442018799569672
 20
-6.080499281587283
 30
0.0
 10
4.386192824363509
 20
-6.14924606028737
 30
0.0
 10
4.369710789044498
 20
-6.168376343219228
 30
0.0
 10
4.368202712058821
 20
-6.174355245400217
 30
0.0
 10
4.363627618471582
 20
-6.179425401921485
 30
0.0
 10
4.355649814923404
 20
-6.179425401921485
 30
0.0
 10
4.339168627314898
 20
-6.179425401921485
 30
0.0
 10
4.336698398907779
 20
-6.158220771387631
 30
0.0
 10
4.347789843135211
 20
-6.151239027681033
 30
0.0
 10
4.361722812970279
 20
-6.135060472722266
 30
0.0
 10
4.417129171477224
 20
-6.067492011622006
 30
0.0
 10
4.445691081470713
 20
-5.984953830740929
 30
0.0
 10
4.447509420500662
 20
-5.979698025619401
 30
0.0
 10
4.449287917136946
 20
-5.974050578245269
 30
0.0
 10
4.451040982458127
 20
-5.968203071192318
 30
0.0
 10
4.455464335865245
 20
-5.952187276650217
 30
0.0
 10
4.459535041702919
 20
-5.936157071029557
 30
0.0
 10
4.463235298050575
 20
-5.920112454330339
 30
0.0
 10
4.474331828541026
 20
-5.868760695161502
 30
0.0
 10
4.482799608760211
 20
-5.805040839747006
 30
0.0
 10
4.486550727738075
 20
-5.735940565766971
 30
0.0
 10
4.487221266746321
 20
-5.678353048134592
 30
0.0
 10
4.481135553041895
 20
-5.620490872299089
 30
0.0
 10
4.466283665021061
 20
-5.562272658052127
 30
0.0
 10
4.448135878562728
 20
-5.491135335732261
 30
0.0
 10
4.41799977016429
 20
-5.425980306435386
 30
0.0
 10
4.374496962547103
 20
-5.367200060124623
 30
0.0
 10
4.408735989782345
 20
-5.464678290918893
 30
0.0
 10
4.42910816860179
 20
-5.563412828679298
 30
0.0
 10
4.430120334942936
 20
-5.579653266504818
 30
0.0
 10
4.430255968623492
 20
-5.581809842025651
 30
0.0
 10
4.43065608798113
 20
-5.585485514768707
 30
0.0
 10
4.431198622703353
 20
-5.590503960949263
 30
0.0
 10
4.435321886592242
 20
-5.628834039074263
 30
0.0
 10
4.447881565411686
 20
-5.745492567720096
 30
0.0
 10
4.420354709942936
 20
-5.867278049490929
 30
0.0
 10
4.390454265064464
 20
-5.999497999849002
 30
0.0
 10
4.311856242603527
 20
-6.083168721962717
 30
0.0
 10
4.301868517451617
 20
-6.093382785819054
 30
0.0
 10
4.299920478714637
 20
-6.098537713390669
 30
0.0
 10
4.295435242440766
 20
-6.102630459701432
 30
0.0
 10
4.288273784107433
 20
-6.102630459701432
 30
0.0
 10
4.27070498392297
 20
-6.102630459701432
 30
0.0
 10
4.268944289207259
 20
-6.078456299273915
 30
0.0
 10
4.282702630678613
 20
-6.073208123546919
 30
0.0
 10
4.285300015661252
 20
-6.070443739595096
 30
0.0
 10
4.291072076479395
 20
-6.0641215146602
 30
0.0
 10
4.298733684009777
 20
-6.054643263520877
 30
0.0
 10
4.331081469111773
 20
-6.011260830795182
 30
0.0
 10
4.357624132685992
 20
-5.964694397418447
 30
0.0
 10
4.373474623679915
 20
-5.912110914888065
 30
0.0
 10
4.390498346010645
 20
-5.855634745725738
 30
0.0
 10
4.405133220142589
 20
-5.798430393240929
 30
0.0
 10
4.407534783998926
 20
-5.739443305567318
 30
0.0
 10
4.410086392614377
 20
-5.676768677203603
 30
0.0
 10
4.408613071759342
 20
-5.614027079710113
 30
0.0
 10
4.395956753942502
 20
-5.551966193750912
 30
0.0
 10
4.377226590368283
 20
-5.46012439009424
 30
0.0
 10
4.347476190248926
 20
-5.3737376035274
 30
0.0
 10
4.285617907100054
 20
-5.300603075261341
 30
0.0
 10
4.247499756600922
 20
-5.255537089475751
 30
0.0
 10
4.205672024938595
 20
-5.215699782075577
 30
0.0
 10
4.15416428703712
 20
-5.187409139443198
 30
0.0
 10
4.173948154767154
 20
-5.207077718544761
 30
0.0
 10
4.191773811234169
 20
-5.225874003538251
 30
0.0
 10
4.199400662633908
 20
-5.235028429265248
 30
0.0
 10
4.217928223397797
 20
-5.257252007824275
 30
0.0
 10
4.30028499423113
 20
-5.381336480480525
 30
0.0
 10
4.33495296298113
 20
-5.539715929265235
 30
0.0
 10
4.365680773310992
 20
-5.680062880220096
 30
0.0
 10
4.341870280689464
 20
-5.771832628483985
 30
0.0
 10
4.324482042842242
 20
-5.838835666678429
 30
0.0
 10
4.322284777217242
 20
-5.847299208345096
 30
0.0
 10
4.32018245516863
 20
-5.855396539074263
 30
0.0
 10
4.318303928692936
 20
-5.863181912338151
 30
0.0
 10
4.303716526349186
 20
-5.923633843761763
 30
0.0
 10
4.259472819751964
 20
-5.995818088553429
 30
0.0
 10
4.244932889196408
 20
-6.01952685591454
 30
0.0
 10
4.242986545880436
 20
-6.022714247407596
 30
0.0
 10
4.241609864022797
 20
-6.024938639768707
 30
0.0
 10
4.241013075828353
 20
-6.026010145845096
 30
0.0
 10
4.241013075828353
 20
-6.026010145845096
 30
0.0
 10
4.240668057653439
 20
-6.025837212902388
 30
0.0
 10
4.240668057653439
 20
-6.025837212902388
 30
0.0
 10
4.240622281286252
 20
-6.025901638900651
 30
0.0
 10
4.240579895761078
 20
-6.025967760319923
 30
0.0
 10
4.240533271683387
 20
-6.026031338607682
 30
0.0
 10
4.239722012731564
 20
-6.027138448525217
 30
0.0
 10
4.238855652597016
 20
-6.028339654308638
 30
0.0
 10
4.237943516095279
 20
-6.029365384017839
 30
0.0
 10
4.235861539098752
 20
-6.031705912717925
 30
0.0
 10
4.232874207284516
 20
-6.033275024859853
 30
0.0
 10
4.229936042679481
 20
-6.0342142880977
 30
0.0
 10
4.22838049390561
 20
-6.034711894163238
 30
0.0
 10
4.226656250741547
 20
-6.034813619423655
 30
0.0
 10
4.22506764125804
 20
-6.034941623709679
 30
0.0
 10
4.224731100188162
 20
-6.03496875044579
 30
0.0
 10
4.224397949960297
 20
-6.034970445866798
 30
0.0
 10
4.224061408890419
 20
-6.034945862262197
 30
0.0
 10
4.221238532913856
 20
-6.034743259451866
 30
0.0
 10
4.21829273891429
 20
-6.03421174496619
 30
0.0
 10
4.215494446542328
 20
-6.033634454113325
 30
0.0
 10
4.213632874276703
 20
-6.033249593544748
 30
0.0
 10
4.211765368037554
 20
-6.032467156750044
 30
0.0
 10
4.210196255895627
 20
-6.031393107542144
 30
0.0
 10
4.208538981861339
 20
-6.030258870888498
 30
0.0
 10
4.206945286114811
 20
-6.029093268946224
 30
0.0
 10
4.205661852412554
 20
-6.027565694618967
 30
0.0
 10
4.203768914858301
 20
-6.025660041407162
 30
0.0
 10
4.202459202130436
 20
-6.023412760862457
 30
0.0
 10
4.201732714228961
 20
-6.020824700695357
 30
0.0
 10
4.201551304181217
 20
-6.019470907021311
 30
0.0
 10
4.20136904642297
 20
-6.018117113347266
 30
0.0
 10
4.201187636375228
 20
-6.016762471962717
 30
0.0
 10
4.201195265769759
 20
-6.014410075315582
 30
0.0
 10
4.201809008174273
 20
-6.012224677637631
 30
0.0
 10
4.202815240541895
 20
-6.01014439606211
 30
0.0
 10
4.202815240541895
 20
-6.01014439606211
 30
0.0
 10
4.202642307599186
 20
-6.010086751747873
 30
0.0
 10
4.202642307599186
 20
-6.010086751747873
 30
0.0
 10
4.203591743363075
 20
-6.007252007824263
 30
0.0
 10
4.204480143970714
 20
-6.005800727442318
 30
0.0
 10
4.209410428258908
 20
-5.997757650185373
 30
0.0
 10
4.223095866626964
 20
-5.975432346365929
 30
0.0
 10
4.264755751609603
 20
-5.90746630903954
 30
0.0
 10
4.277803711679047
 20
-5.853416287338151
 30
0.0
 10
4.279736491626964
 20
-5.845400336817318
 30
0.0
 10
4.281893067147797
 20
-5.837072428831207
 30
0.0
 10
4.284151367929047
 20
-5.82836474653954
 30
0.0
 10
4.301390408727658
 20
-5.761931369803429
 30
0.0
 10
4.322847656991547
 20
-5.679235514768707
 30
0.0
 10
4.294249295446408
 20
-5.548627062077735
 30
0.0
 10
4.277290846824446
 20
-5.471148865191897
 30
0.0
 10
4.248110108163422
 20
-5.402268148232261
 30
0.0
 10
4.221764961136512
 20
-5.351121535005264
 30
0.0
 10
4.206505324363509
 20
-5.325068000391549
 30
0.0
 10
4.189450236744152
 20
-5.299735019705786
 30
0.0
 10
4.170497973018023
 20
-5.275192952919761
 30
0.0
 10
4.128158224211599
 20
-5.220365580686689
 30
0.0
 10
4.078389140552745
 20
-5.17484606978174
 30
0.0
 10
4.016043423864377
 20
-5.143580810992678
 30
0.0
 10
3.983450650426877
 20
-5.12723610477523
 30
0.0
 10
3.950336535029741
 20
-5.113590508800838
 30
0.0
 10
3.913044902271495
 20
-5.114406854015681
 30
0.0
 10
3.908892816225488
 20
-5.114498406750056
 30
0.0
 10
3.904771247757606
 20
-5.115962402789553
 30
0.0
 10
3.897434313350054
 20
-5.117429789671064
 30
0.0
 10
3.903088542408214
 20
-5.122204095226619
 30
0.0
 10
3.905911418384776
 20
-5.124725186263945
 30
0.0
 10
3.908874166594412
 20
-5.127069105806046
 30
0.0
 10
3.949914375199012
 20
-5.159533874957522
 30
0.0
 10
3.988169854799707
 20
-5.195172472233998
 30
0.0
 10
4.021778185420367
 20
-5.23512676368365
 30
0.0
 10
4.092707818666895
 20
-5.319446832043025
 30
0.0
 10
4.143133030255436
 20
-5.41491683665457
 30
0.0
 10
4.171605082935558
 20
-5.521649523015235
 30
0.0
 10
4.193231873300141
 20
-5.6027203170148
 30
0.0
 10
4.200381463686426
 20
-5.684520142047353
 30
0.0
 10
4.183417928801443
 20
-5.767418599892405
 30
0.0
 10
4.164096063295801
 20
-5.861839138900651
 30
0.0
 10
4.115684164153005
 20
-5.93932920373355
 30
0.0
 10
4.046192247920367
 20
-6.00500303185855
 30
0.0
 10
4.01668853155752
 20
-6.032885078028256
 30
0.0
 10
3.982791131655176
 20
-6.047442810504384
 30
0.0
 10
3.942624064869151
 20
-6.042502353690148
 30
0.0
 10
3.891585958586599
 20
-6.036224209701432
 30
0.0
 10
3.856767097366981
 20
-6.009083910222266
 30
0.0
 10
3.855350573115679
 20
-5.955358561643707
 30
0.0
 10
3.854697836028005
 20
-5.930591851574263
 30
0.0
 10
3.85940093390127
 20
-5.906938185395877
 30
0.0
 10
3.871578295283648
 20
-5.885130832694054
 30
0.0
 10
3.881711826642155
 20
-5.866983893946224
 30
0.0
 10
3.892275994936426
 20
-5.849076009560373
 30
0.0
 10
3.902398506058387
 20
-5.830922289128516
 30
0.0
 10
3.951701348940332
 20
-5.742503540484853
 30
0.0
 10
3.894922547128266
 20
-5.681453973156294
 30
0.0
 10
3.832616672833561
 20
-5.664342936643707
 30
0.0
 10
3.789452949417762
 20
-5.652488552963151
 30
0.0
 10
3.709413819100922
 20
-5.675519999631988
 30
0.0
 10
3.687590359899533
 20
-5.741552409299957
 30
0.0
 10
3.681101135995453
 20
-5.761187079981381
 30
0.0
 10
3.66968417093469
 20
-5.777418192991363
 30
0.0
 10
3.652081462330089
 20
-5.789839694998741
 30
0.0
 10
3.613152900589637
 20
-5.817309753863759
 30
0.0
 10
3.569628900209863
 20
-5.832816922103776
 30
0.0
 10
3.523722833315332
 20
-5.843123386404991
 30
0.0
 10
3.51730142625153
 20
-5.844565341971398
 30
0.0
 10
3.507078885290158
 20
-5.845129069456207
 30
0.0
 10
3.509361769676009
 20
-5.854442017047353
 30
0.0
 10
3.510323073386946
 20
-5.858363525836415
 30
0.0
 10
3.520729567527571
 20
-5.860074205632423
 30
0.0
 10
3.526949219491547
 20
-5.862518155013932
 30
0.0
 10
3.528258932219412
 20
-5.86303271528954
 30
0.0
 10
3.530050144513249
 20
-5.862446099621138
 30
0.0
 10
3.531596368471582
 20
-5.86221467465369
 30
0.0
 10
3.569600925763249
 20
-5.856534166569923
 30
0.0
 10
3.607491042136946
 20
-5.849855903223568
 30
0.0
 10
3.645643948766721
 20
-5.845468153657596
 30
0.0
 10
3.672340047942068
 20
-5.842397746214019
 30
0.0
 10
3.69954985968252
 20
-5.840071628592491
 30
0.0
 10
3.726245958857866
 20
-5.841798414888065
 30
0.0
 10
3.751594198332693
 20
-5.843438734712283
 30
0.0
 10
3.763272258228526
 20
-5.861302538151954
 30
0.0
 10
3.762037144024967
 20
-5.886710965072526
 30
0.0
 10
3.760659614456825
 20
-5.915032972993533
 30
0.0
 10
3.751484843677745
 20
-5.941173821789107
 30
0.0
 10
3.740752828703787
 20
-5.967001865408898
 30
0.0
 10
3.734243259747624
 20
-5.982668403223568
 30
0.0
 10
3.724187717755436
 20
-5.99527640154171
 30
0.0
 10
3.710671821488075
 20
-6.005382806164107
 30
0.0
 10
3.68903231546594
 20
-6.021563904254384
 30
0.0
 10
3.665330329788856
 20
-6.034115953679298
 30
0.0
 10
3.637831448766721
 20
-6.029907918740061
 30
0.0
 10
3.594621948983735
 20
-6.023296624523482
 30
0.0
 10
3.55520680141429
 20
-6.005626946789107
 30
0.0
 10
3.524768060366113
 20
-5.973984456825998
 30
0.0
 10
3.444711975839203
 20
-5.89076217356862
 30
0.0
 10
3.407716194046669
 20
-5.789575209321658
 30
0.0
 10
3.40725503953278
 20
-5.674996114540842
 30
0.0
 10
3.406819316333995
 20
-5.566635824013498
 30
0.0
 10
3.438176127857432
 20
-5.465890516938858
 30
0.0
 10
3.487105978117849
 20
-5.370533257824275
 30
0.0
 10
3.53673518954363
 20
-5.273815423351619
 30
0.0
 10
3.606958679940766
 20
-5.193641507064726
 30
0.0
 10
3.69206711906837
 20
-5.126360419825143
 30
0.0
 10
3.695007826804915
 20
-5.124035149914119
 30
0.0
 10
3.699246379322276
 20
-5.123352742958823
 30
0.0
 10
3.702880514250662
 20
-5.121904853418893
 30
0.0
 10
3.701416518211165
 20
-5.11962875071707
 30
0.0
 10
3.699952522171669
 20
-5.117352648015248
 30
0.0
 10
3.698488526132172
 20
-5.115077393023928
 30
0.0
 10
3.690181810908648
 20
-5.115077393023928
 30
0.0
 10
3.681808126555349
 20
-5.114391595226619
 30
0.0
 10
3.673579400698145
 20
-5.115193529362904
 30
0.0
 10
3.632936768319672
 20
-5.119154032835126
 30
0.0
 10
3.595400994936426
 20
-5.133251458507869
 30
0.0
 10
3.56135185485396
 20
-5.154893507661514
 30
0.0
 10
3.54250640265127
 20
-5.166871657075577
 30
0.0
 10
3.524658705711165
 20
-5.179761942991376
 30
0.0
 10
3.507684150589637
 20
-5.193470269543025
 30
0.0
 10
3.481032132360471
 20
-5.218351420530439
 30
0.0
 10
3.447899367332259
 20
-5.251953817177573
 30
0.0
 10
3.435790670500662
 20
-5.266487813759605
 30
0.0
 10
3.421501662254134
 20
-5.283625129297799
 30
0.0
 10
3.341972853660384
 20
-5.402453796832522
 30
0.0
 10
3.308932489077051
 20
-5.553407301606815
 30
0.0
 10
3.280334127531912
 20
-5.684015754297787
 30
0.0
 10
3.301791375795801
 20
-5.766711609332509
 30
0.0
 10
3.319030416594412
 20
-5.83314498606862
 30
0.0
 10
3.321288717375662
 20
-5.841852668360287
 30
0.0
 10
3.323445292896495
 20
-5.850180576346398
 30
0.0
 10
3.325378072844412
 20
-5.858196526867232
 30
0.0
 10
3.338426032913856
 20
-5.91224654856862
 30
0.0
 10
3.380085917896495
 20
-5.980212585895009
 30
0.0
 10
3.393771356264551
 20
-6.002537889714454
 30
0.0
 10
3.398092984411252
 20
-6.009588297971832
 30
0.0
 10
3.399288256221148
 20
-6.011593133312544
 30
0.0
 10
3.400162245750228
 20
-6.013884494803429
 30
0.0
 10
3.40017241827627
 20
-6.013902296724002
 30
0.0
 10
3.400191915617849
 20
-6.013909926118533
 30
0.0
 10
3.400202088143891
 20
-6.013927728039107
 30
0.0
 10
3.400272448115679
 20
-6.014038778115061
 30
0.0
 10
3.400249559932085
 20
-6.01417525950612
 30
0.0
 10
3.40031652906186
 20
-6.014287157292579
 30
0.0
 10
3.400386889033648
 20
-6.014482130708377
 30
0.0
 10
3.400469964662988
 20
-6.01466099762461
 30
0.0
 10
3.400539476924273
 20
-6.014866991276954
 30
0.0
 10
3.400539476924273
 20
-6.014866991276954
 30
0.0
 10
3.400505568504134
 20
-6.014878011513498
 30
0.0
 10
3.400505568504134
 20
-6.014878011513498
 30
0.0
 10
3.401292243851356
 20
-6.016377611394141
 30
0.0
 10
3.401938199255002
 20
-6.017914510536936
 30
0.0
 10
3.402015340910818
 20
-6.019608236122873
 30
0.0
 10
3.402469713740679
 20
-6.02163850277869
 30
0.0
 10
3.402379008716807
 20
-6.023669617145009
 30
0.0
 10
3.4017423781287
 20
-6.025699883800825
 30
0.0
 10
3.401065905146929
 20
-6.028948310450131
 30
0.0
 10
3.398842360496321
 20
-6.032611267535634
 30
0.0
 10
3.396420451587901
 20
-6.034853461817318
 30
0.0
 10
3.396311096932953
 20
-6.034954339367232
 30
0.0
 10
3.396197503725488
 20
-6.03504928294362
 30
0.0
 10
3.396082215097016
 20
-6.035143378809506
 30
0.0
 10
3.395051399124794
 20
-6.035982612207943
 30
0.0
 10
3.393886644893023
 20
-6.036887119315148
 30
0.0
 10
3.39281174797462
 20
-6.037669556109853
 30
0.0
 10
3.392593886375228
 20
-6.037827230263498
 30
0.0
 10
3.392370938512815
 20
-6.03797642731211
 30
0.0
 10
3.392139513545366
 20
-6.038112908703169
 30
0.0
 10
3.391901306893891
 20
-6.038253628646745
 30
0.0
 10
3.391655470847884
 20
-6.038382480643273
 30
0.0
 10
3.39140539624936
 20
-6.038502007824263
 30
0.0
 10
3.389999044524099
 20
-6.039172546832509
 30
0.0
 10
3.388532505353092
 20
-6.039754076237891
 30
0.0
 10
3.387088006655176
 20
-6.040333910222266
 30
0.0
 10
3.38601226202627
 20
-6.040766242579037
 30
0.0
 10
3.384883111635645
 20
-6.041056159571224
 30
0.0
 10
3.383746331850488
 20
-6.041274021170616
 30
0.0
 10
3.381421061939464
 20
-6.041718221474436
 30
0.0
 10
3.379060188187294
 20
-6.04200474762461
 30
0.0
 10
3.376704400698145
 20
-6.042235324881554
 30
0.0
 10
3.373946798430349
 20
-6.042226847776519
 30
0.0
 10
3.371376540183821
 20
-6.041531725163673
 30
0.0
 10
3.368993625958561
 20
-6.040149957043013
 30
0.0
 10
3.367962809986339
 20
-6.039353956880252
 30
0.0
 10
3.366931994014116
 20
-6.038557109006988
 30
0.0
 10
3.365901178041895
 20
-6.037761108844228
 30
0.0
 10
3.364008240487641
 20
-6.035854607921919
 30
0.0
 10
3.362698527759776
 20
-6.033607327377214
 30
0.0
 10
3.361972039858301
 20
-6.031019267210113
 30
0.0
 10
3.361939826859169
 20
-6.030777669716623
 30
0.0
 10
3.361906766149533
 20
-6.030536919933638
 30
0.0
 10
3.361874553150401
 20
-6.030295322440148
 30
0.0
 10
3.361198927879134
 20
-6.029124634234853
 30
0.0
 10
3.359998569806217
 20
-6.027172356945357
 30
0.0
 10
3.358248895327051
 20
-6.02430709544362
 30
0.0
 10
3.343708964771495
 20
-6.000598328082509
 30
0.0
 10
3.299465258174273
 20
-5.928414083290842
 30
0.0
 10
3.284877855830523
 20
-5.867962151867232
 30
0.0
 10
3.282999329354828
 20
-5.860176778603342
 30
0.0
 10
3.280897007306217
 20
-5.852079447874175
 30
0.0
 10
3.278699741681217
 20
-5.843615906207509
 30
0.0
 10
3.261311503833995
 20
-5.776612868013065
 30
0.0
 10
3.237501011212467
 20
-5.684843119749175
 30
0.0
 10
3.268228821542328
 20
-5.544496168794315
 30
0.0
 10
3.302896790292328
 20
-5.386116720009605
 30
0.0
 10
3.385253561125662
 20
-5.262032247353355
 30
0.0
 10
3.403781121889551
 20
-5.239808668794327
 30
0.0
 10
3.413005907588335
 20
-5.228735874197973
 30
0.0
 10
3.437124966833127
 20
-5.203585998980959
 30
0.0
 10
3.461622104962467
 20
-5.179812805621584
 30
0.0
 10
3.430030477629568
 20
-5.198357320595542
 30
0.0
 10
3.397080818070106
 20
-5.215215739378095
 30
0.0
 10
3.368716424623926
 20
-5.237823330795195
 30
0.0
 10
3.310320191171235
 20
-5.284368571409345
 30
0.0
 10
3.271287361038856
 20
-5.345525797971845
 30
0.0
 10
3.243850362883474
 20
-5.414240363672799
 30
0.0
 10
3.217478089120453
 20
-5.496571703191029
 30
0.0
 10
3.201607253074446
 20
-5.572980089421485
 30
0.0
 10
3.200784973886078
 20
-5.586169617145009
 30
0.0
 10
3.200635776837467
 20
-5.588570333290842
 30
0.0
 10
3.20020174905969
 20
-5.59266647044362
 30
0.0
 10
3.199598179181217
 20
-5.598254578082509
 30
0.0
 10
3.196137824906044
 20
-5.630428582531294
 30
0.0
 10
3.186611254268023
 20
-5.719449205632423
 30
0.0
 10
3.201230021900401
 20
-5.818778836166276
 30
0.0
 10
3.202341370370453
 20
-5.825863152843794
 30
0.0
 10
3.20348069328712
 20
-5.832948317231815
 30
0.0
 10
3.204770060962901
 20
-5.84004195872487
 30
0.0
 10
3.21981861782054
 20
-5.922807326020877
 30
0.0
 10
3.254513713306651
 20
-5.998354438379818
 30
0.0
 10
3.308372152434255
 20
-6.064132534896745
 30
0.0
 10
3.30878837829146
 20
-6.064640313488325
 30
0.0
 10
3.309174934281044
 20
-6.065175218816016
 30
0.0
 10
3.309588617006738
 20
-6.065685540539107
 30
0.0
 10
3.313236315303179
 20
-6.070014798080339
 30
0.0
 10
3.316223647117415
 20
-6.073367493121572
 30
0.0
 10
3.318367506980696
 20
-6.075713108084679
 30
0.0
 10
3.331291701316634
 20
-6.081557224295616
 30
0.0
 10
3.329120714717241
 20
-6.104957425033464
 30
0.0
 10
3.311913886917762
 20
-6.104957425033464
 30
0.0
 10
3.304242954571842
 20
-6.104957425033464
 30
0.0
 10
3.299659383879568
 20
-6.100297560395877
 30
0.0
 10
3.297969049135645
 20
-6.09463654965369
 30
0.0
 10
3.27966952249719
 20
-6.07494423465803
 30
0.0
 10
3.210442939652137
 20
-5.994176073308204
 30
0.0
 10
3.182827074580523
 20
-5.872058289020009
 30
0.0
 10
3.155300219111773
 20
-5.750272807249175
 30
0.0
 10
3.167859897931217
 20
-5.633614278603342
 30
0.0
 10
3.171983161820106
 20
-5.595284200478342
 30
0.0
 10
3.172525696542328
 20
-5.590265754297787
 30
0.0
 10
3.172925815899967
 20
-5.586590081554732
 30
0.0
 10
3.173061449580523
 20
-5.584433506033898
 30
0.0
 10
3.17413973734094
 20
-5.567119866710982
 30
0.0
 10
3.197206787850922
 20
-5.456043511730525
 30
0.0
 10
3.235639438946842
 20
-5.352690647147192
 30
0.0
 10
3.214336473994585
 20
-5.381907837359865
 30
0.0
 10
3.191760247866113
 20
-5.410428209538685
 30
0.0
 10
3.174179579734603
 20
-5.441746874089466
 30
0.0
 10
3.137455065303179
 20
-5.507168932194935
 30
0.0
 10
3.124269776132172
 20
-5.580410271984419
 30
0.0
 10
3.116820943938162
 20
-5.653911858898482
 30
0.0
 10
3.116409804343978
 20
-5.657969001368099
 30
0.0
 10
3.116191942744585
 20
-5.662023600706207
 30
0.0
 10
3.115852010832693
 20
-5.666079895465322
 30
0.0
 10
3.116520006709429
 20
-5.796247538694488
 30
0.0
 10
3.135132338523665
 20
-5.916505446138065
 30
0.0
 10
3.158812283727658
 20
-5.984953830740929
 30
0.0
 10
3.189659621238509
 20
-6.074096524154557
 30
0.0
 10
3.251754415617849
 20
-6.145705173514366
 30
0.0
 10
3.259160862286686
 20
-6.154044101737023
 30
0.0
 10
3.259249024179047
 20
-6.154132263629384
 30
0.0
 10
3.259282932599186
 20
-6.154254333941884
 30
0.0
 10
3.259367703649533
 20
-6.154344191255252
 30
0.0
 10
3.259453322410384
 20
-6.154434896279123
 30
0.0
 10
3.259496555646061
 20
-6.154551880328603
 30
0.0
 10
3.259575392722884
 20
-6.154645976194488
 30
0.0
 10
3.259832249005436
 20
-6.154934197765669
 30
0.0
 10
3.259992466290592
 20
-6.155274977388065
 30
0.0
 10
3.26022134812653
 20
-6.155584391721832
 30
0.0
 10
3.260451925383474
 20
-6.1559429732648
 30
0.0
 10
3.260727431297103
 20
-6.156270189519141
 30
0.0
 10
3.260949531449012
 20
-6.156642334430165
 30
0.0
 10
3.261163154495887
 20
-6.157011088499175
 30
0.0
 10
3.261489523039724
 20
-6.15730270091237
 30
0.0
 10
3.261673476218978
 20
-6.157693495454471
 30
0.0
 10
3.261862515661252
 20
-6.158020711708811
 30
0.0
 10
3.262063423050575
 20
-6.158328430621572
 30
0.0
 10
3.262225335756738
 20
-6.158670057954471
 30
0.0
 10
3.262338928964203
 20
-6.158969299762197
 30
0.0
 10
3.262441501935124
 20
-6.159254978201866
 30
0.0
 10
3.262535597801009
 20
-6.159561849404123
 30
0.0
 10
3.265756897714203
 20
-6.167730387815582
 30
0.0
 10
3.261812500741547
 20
-6.178985440170182
 30
0.0
 10
3.250376886049707
 20
-6.178985440170182
 30
0.0
 10
3.246944506221148
 20
-6.178985440170182
 30
0.0
 10
3.244487841182085
 20
-6.17768844309987
 30
0.0
 10
3.242439772605696
 20
-6.175993022092925
 30
0.0
 10
3.24136402797679
 20
-6.175297051769575
 30
0.0
 10
3.240289978768891
 20
-6.174607863130252
 30
0.0
 10
3.239505846553179
 20
-6.173651645682335
 30
0.0
 10
3.239505846553179
 20
-6.173651645682335
 30
0.0
 10
3.23946685187002
 20
-6.173688097233985
 30
0.0
 10
3.23946685187002
 20
-6.173688097233985
 30
0.0
 10
3.236530382685991
 20
-6.170473579004818
 30
0.0
 10
3.16716731844988
 20
-6.094030436643707
 30
0.0
 10
3.132567166540158
 20
-5.994041287338151
 30
0.0
 10
3.10579985968252
 20
-5.916678379080773
 30
0.0
 10
3.085204733000662
 20
-5.775713447168881
 30
0.0
 10
3.088384495099186
 20
-5.627909186914974
 30
0.0
 10
3.060190491464203
 20
-5.705849386025217
 30
0.0
 10
3.049219422128266
 20
-5.786219123438412
 30
0.0
 10
3.054331964174707
 20
-5.8690777388898
 30
0.0
 10
3.064547723452051
 20
-6.034625427691884
 30
0.0
 10
3.122876987774967
 20
-6.181038595009592
 30
0.0
 10
3.232241815248926
 20
-6.305462999577734
 30
0.0
 10
3.37274813577844
 20
-6.465316616927995
 30
0.0
 10
3.551687107403874
 20
-6.550750576888932
 30
0.0
 10
3.763350247594846
 20
-6.561404602496572
 30
0.0
 10
3.981733188946842
 20
-6.572396864595096
 30
0.0
 10
4.172528239673839
 20
-6.500546617741797
 30
0.0
 10
4.328285719871321
 20
-6.346697333887631
 30
0.0
 10
4.488647963523665
 20
-6.188299235471832
 30
0.0
 10
4.560126913176443
 20
-5.9941752255977
 30
0.0
 10
4.543696588198145
 20
-5.768601156044748
 30
0.0
  0
HATCH
  5
9A
330
80
100
AcDbEntity
  8
Lid
 62
    18
420
        0
440
 33554687
100
AcDbHatch
 10
0.0
 20
0.0
 30
0.0
210
0.0
220
0.0
230
1.0
  2
SOLID
 70
     1
 71
     1
 91
       11
 92
        1
 93
        1
 72
     4
 94
        3
 73
     0
 74
     0
 95
       17
 96
       13
 40
0.0
 40
0.0
 40
0.0
 40
0.0
 40
1.0
 40
1.0
 40
1.0
 40
2.0
 40
2.0
 40
2.0
 40
3.0
 40
3.0
 40
3.0
 40
4.0
 40
4.0
 40
4.0
 40
4.0
 10
3.98289709546811
 20
-6.330209364595096
 10
3.963486220359603
 20
-6.329613424111155
 10
3.948222345034082
 20
-6.313397569890234
 10
3.948871691279741
 20
-6.294063836437544
 10
3.949532057761946
 20
-6.27440966841454
 10
3.965395264413422
 20
-6.259283969901085
 10
3.984788337601356
 20
-6.259818027518273
 10
4.004222948603961
 20
-6.260353780556467
 10
4.019246921856998
 20
-6.276336514388932
 10
4.018752706633474
 20
-6.29595253543928
 10
4.018261882251964
 20
-6.315476156044748
 10
4.002218960973752
 20
-6.33080360965803
 10
3.98289709546811
 20
-6.330209364595096
 97
        0
 97
        1
330
8F
 92
        1
 93
        1
 72
     4
 94
        3
 73
     0
 74
     0
 95
       17
 96
       13
 40
0.0
 40
0.0
 40
0.0
 40
0.0
 40
1.0
 40
1.0
 40
1.0
 40
2.0
 40
2.0
 40
2.0
 40
3.0
 40
3.0
 40
3.0
 40
4.0
 40
4.0
 40
4.0
 40
4.0
 10
3.930838345739377
 20
-6.460926324230513
 10
3.911384237395193
 20
-6.461309489378082
 10
3.895217550383474
 20
-6.445882853635894
 10
3.894958150969412
 20
-6.426688992416276
 10
3.894695360713335
 20
-6.40726370622921
 10
3.911105340639551
 20
-6.390821513303863
 10
3.930813762134776
 20
-6.390763868989627
 10
3.949504931025835
 20
-6.390709615517405
 10
3.965126540183821
 20
-6.406285448308203
 10
3.965289300600488
 20
-6.425138529905425
 10
3.965457994990679
 20
-6.444619764985721
 10
3.950125455114377
 20
-6.460546549924957
 10
3.930838345739377
 20
-6.460926324230513
 97
        0
 97
        1
330
90
 92
        1
 93
        1
 72
     4
 94
        3
 73
     0
 74
     0
 95
       23
 96
       19
 40
0.0
 40
0.0
 40
0.0
 40
0.0
 40
1.0
 40
1.0
 40
1.0
 40
2.0
 40
2.0
 40
2.0
 40
3.0
 40
3.0
 40
3.0
 40
4.0
 40
4.0
 40
4.0
 40
5.0
 40
5.0
 40
5.0
 40
6.0
 40
6.0
 40
6.0
 40
6.0
 10
3.821257352087033
 20
-6.42394834435855
 10
3.757063626501096
 20
-6.434683750174523
 10
3.696992317093544
 20
-6.393337518078169
 10
3.681797106318804
 20
-6.327961236339888
 10
3.664373264630436
 20
-6.252992262544315
 10
3.711951016637815
 20
-6.182105862533464
 10
3.787536275969412
 20
-6.170421868664107
 10
3.842667976273231
 20
-6.1618998349727
 10
3.900826003074446
 20
-6.202039775022613
 10
3.917381789207259
 20
-6.260192715560807
 10
3.919307787471148
 20
-6.266959140799523
 10
3.920769240379134
 20
-6.273906976085982
 10
3.921789036114811
 20
-6.280866679319488
 10
3.922636746618283
 20
-6.286653998926693
 10
3.922517219437294
 20
-6.292582886187978
 10
3.922825786060558
 20
-6.298449042872006
 10
3.922570625199012
 20
-6.360520101357248
 10
3.879169542842241
 20
-6.414264099566884
 10
3.821257352087033
 20
-6.42394834435855
 97
        0
 97
        1
330
91
 92
        1
 93
        1
 72
     4
 94
        3
 73
     0
 74
     0
 95
       17
 96
       13
 40
0.0
 40
0.0
 40
0.0
 40
0.0
 40
1.0
 40
1.0
 40
1.0
 40
2.0
 40
2.0
 40
2.0
 40
3.0
 40
3.0
 40
3.0
 40
4.0
 40
4.0
 40
4.0
 40
4.0
 10
3.798724359194238
 20
-6.515207770899349
 10
3.779257535192502
 20
-6.515331536632857
 10
3.763115431785384
 20
-6.499634481240061
 10
3.763049310366113
 20
-6.480517761676259
 10
3.762983188946842
 20
-6.461192505328603
 10
3.77861242749936
 20
-6.445492059093794
 10
3.798173347366981
 20
-6.445232659679732
 10
3.817696120261946
 20
-6.444974955686675
 10
3.833477098994585
 20
-6.46042532732296
 10
3.833656813621321
 20
-6.47997353153303
 10
3.833834832827051
 20
-6.499396274588585
 10
3.818281888219846
 20
-6.515084005165842
 10
3.798724359194238
 20
-6.515207770899349
 97
        0
 97
        1
330
92
 92
        1
 93
        1
 72
     4
 94
        3
 73
     0
 74
     0
 95
       17
 96
       13
 40
0.0
 40
0.0
 40
0.0
 40
0.0
 40
1.0
 40
1.0
 40
1.0
 40
2.0
 40
2.0
 40
2.0
 40
3.0
 40
3.0
 40
3.0
 40
4.0
 40
4.0
 40
4.0
 40
4.0
 10
3.668881389087901
 20
-6.460789842839453
 10
3.649070394621755
 20
-6.460767802366363
 10
3.632915575557085
 20
-6.444516344304297
 10
3.633136827998491
 20
-6.424831658703169
 10
3.633347060203353
 20
-6.406019267210113
 10
3.648838969654307
 20
-6.390697747570357
 10
3.66779716735396
 20
-6.390551093653256
 10
3.687372498300141
 20
-6.390399353473134
 10
3.70364430141429
 20
-6.406787292926259
 10
3.703523926522797
 20
-6.426531318262631
 10
3.703409485604828
 20
-6.445240289074263
 10
3.687664110713335
 20
-6.46081103560204
 10
3.668881389087901
 20
-6.460789842839453
 97
        0
 97
        1
330
93
 92
        1
 93
        1
 72
     4
 94
        3
 73
     0
 74
     0
 95
       17
 96
       13
 40
0.0
 40
0.0
 40
0.0
 40
0.0
 40
1.0
 40
1.0
 40
1.0
 40
2.0
 40
2.0
 40
2.0
 40
3.0
 40
3.0
 40
3.0
 40
4.0
 40
4.0
 40
4.0
 40
4.0
 10
3.579143602900835
 20
-6.294658081500478
 10
3.579387743525835
 20
-6.275098857053863
 10
3.595169569968978
 20
-6.259547607867665
 10
3.614456679343978
 20
-6.259860413043447
 10
3.633973518265419
 20
-6.260176609061241
 10
3.649429823875228
 20
-6.275943176715322
 10
3.649228068775401
 20
-6.295330315929732
 10
3.649028856807085
 20
-6.314474162229644
 10
3.632966438187294
 20
-6.330343302854644
 10
3.613821744176877
 20
-6.330309394434506
 10
3.594906779712901
 20
-6.33027633372487
 10
3.578903700828353
 20
-6.313823968273482
 10
3.579143602900835
 20
-6.294658081500478
 97
        0
 97
        1
330
94
 92
        1
 93
        1
 72
     4
 94
        3
 73
     0
 74
     0
 95
       17
 96
       13
 40
0.0
 40
0.0
 40
0.0
 40
0.0
 40
1.0
 40
1.0
 40
1.0
 40
2.0
 40
2.0
 40
2.0
 40
3.0
 40
3.0
 40
3.0
 40
4.0
 40
4.0
 40
4.0
 40
4.0
 10
3.669312026023665
 20
-6.129221442774349
 10
3.68877122063087
 20
-6.129139214855513
 10
3.704130887243283
 20
-6.144762519434506
 10
3.703974908510645
 20
-6.164479418034766
 10
3.703824016041026
 20
-6.183507127995704
 10
3.687725145869585
 20
-6.199343207911068
 10
3.668496528519325
 20
-6.199378811752214
 10
3.64922043938087
 20
-6.199415263303863
 10
3.63349540954146
 20
-6.183429986339888
 10
3.63375396124502
 20
-6.164063192177561
 10
3.634007426685557
 20
-6.145028700532596
 10
3.650057129647797
 20
-6.129303670693186
 10
3.669312026023665
 20
-6.129221442774349
 97
        0
 97
        1
330
95
 92
        1
 93
        1
 72
     4
 94
        3
 73
     0
 74
     0
 95
       17
 96
       13
 40
0.0
 40
0.0
 40
0.0
 40
0.0
 40
1.0
 40
1.0
 40
1.0
 40
2.0
 40
2.0
 40
2.0
 40
3.0
 40
3.0
 40
3.0
 40
4.0
 40
4.0
 40
4.0
 40
4.0
 10
3.758508972909516
 20
-5.77460972809336
 10
3.746579142994151
 20
-5.774843696192318
 10
3.736837253888249
 20
-5.765403592025651
 10
3.736482910897797
 20
-5.753264377615929
 10
3.736121786223318
 20
-5.740921712685373
 10
3.746147658347884
 20
-5.730410950152822
 10
3.758343669361339
 20
-5.73034482873355
 10
3.770267565303179
 20
-5.730280402735287
 10
3.779604248788422
 20
-5.739935825369835
 10
3.779575426631304
 20
-5.752299683062978
 10
3.77954745218469
 20
-5.764633023177995
 10
3.770346402380002
 20
-5.774376607704905
 10
3.758508972909516
 20
-5.77460972809336
 97
        0
 97
        1
330
96
 92
        1
 93
        1
 72
     4
 94
        3
 73
     0
 74
     0
 95
       17
 96
       13
 40
0.0
 40
0.0
 40
0.0
 40
0.0
 40
1.0
 40
1.0
 40
1.0
 40
2.0
 40
2.0
 40
2.0
 40
3.0
 40
3.0
 40
3.0
 40
4.0
 40
4.0
 40
4.0
 40
4.0
 10
3.833738193829655
 20
-6.110494670042144
 10
3.833694112883474
 20
-6.129101067882857
 10
3.817983494122623
 20
-6.144994792112457
 10
3.799333863046235
 20
-6.145299967893707
 10
3.779544061342676
 20
-6.145623793306033
 10
3.762956909921235
 20
-6.129406243664107
 10
3.763091695891287
 20
-6.109865668848568
 10
3.763223091019325
 20
-6.090844740571658
 10
3.779686476707259
 20
-6.074801819293447
 10
3.798764201587901
 20
-6.07510529965369
 10
3.818281888219846
 20
-6.07541556169796
 10
3.833784817907346
 20
-6.091102444564714
 10
3.833738193829655
 20
-6.110494670042144
 97
        0
 97
        1
330
97
 92
        1
 93
        1
 72
     4
 94
        3
 73
     0
 74
     0
 95
       17
 96
       13
 40
0.0
 40
0.0
 40
0.0
 40
0.0
 40
1.0
 40
1.0
 40
1.0
 40
2.0
 40
2.0
 40
2.0
 40
3.0
 40
3.0
 40
3.0
 40
4.0
 40
4.0
 40
4.0
 40
4.0
 10
3.92959390672028
 20
-6.128990017806901
 10
3.948523282262815
 20
-6.128719598156294
 10
3.964561964988509
 20
-6.144755737750478
 10
3.964762872377832
 20
-6.164153897201432
 10
3.964959541214637
 20
-6.183093445270009
 10
3.949780436939464
 20
-6.198888835081207
 10
3.931018908076616
 20
-6.199267761676259
 10
3.91130540031837
 20
-6.199665337902388
 10
3.894730964554481
 20
-6.18365039107079
 10
3.8945402296912
 20
-6.164020806652388
 10
3.894352885669933
 20
-6.144639601411502
 10
3.909729506492415
 20
-6.129274000825565
 10
3.92959390672028
 20
-6.128990017806901
 97
        0
 97
        1
330
98
 92
        1
 93
        1
 72
     4
 94
        3
 73
     0
 74
     0
 95
      455
 96
      451
 40
0.0
 40
0.0
 40
0.0
 40
0.0
 40
1.0
 40
1.0
 40
1.0
 40
2.0
 40
2.0
 40
2.0
 40
3.0
 40
3.0
 40
3.0
 40
4.0
 40
4.0
 40
4.0
 40
5.0
 40
5.0
 40
5.0
 40
6.0
 40
6.0
 40
6.0
 40
7.0
 40
7.0
 40
7.0
 40
8.0
 40
8.0
 40
8.0
 40
9.0
 40
9.0
 40
9.0
 40
10.0
 40
10.0
 40
10.0
 40
11.0
 40
11.0
 40
11.0
 40
12.0
 40
12.0
 40
12.0
 40
13.0
 40
13.0
 40
13.0
 40
14.0
 40
14.0
 40
14.0
 40
15.0
 40
15.0
 40
15.0
 40
16.0
 40
16.0
 40
16.0
 40
17.0
 40
17.0
 40
17.0
 40
18.0
 40
18.0
 40
18.0
 40
19.0
 40
19.0
 40
19.0
 40
20.0
 40
20.0
 40
20.0
 40
21.0
 40
21.0
 40
21.0
 40
22.0
 40
22.0
 40
22.0
 40
23.0
 40
23.0
 40
23.0
 40
24.0
 40
24.0
 40
24.0
 40
25.0
 40
25.0
 40
25.0
 40
26.0
 40
26.0
 40
26.0
 40
27.0
 40
27.0
 40
27.0
 40
28.0
 40
28.0
 40
28.0
 40
29.0
 40
29.0
 40
29.0
 40
30.0
 40
30.0
 40
30.0
 40
31.0
 40
31.0
 40
31.0
 40
32.0
 40
32.0
 40
32.0
 40
33.0
 40
33.0
 40
33.0
 40
34.0
 40
34.0
 40
34.0
 40
35.0
 40
35.0
 40
35.0
 40
36.0
 40
36.0
 40
36.0
 40
37.0
 40
37.0
 40
37.0
 40
38.0
 40
38.0
 40
38.0
 40
39.0
 40
39.0
 40
39.0
 40
40.0
 40
40.0
 40
40.0
 40
41.0
 40
41.0
 40
41.0
 40
42.0
 40
42.0
 40
42.0
 40
43.0
 40
43.0
 40
43.0
 40
44.0
 40
44.0
 40
44.0
 40
45.0
 40
45.0
 40
45.0
 40
46.0
 40
46.0
 40
46.0
 40
47.0
 40
47.0
 40
47.0
 40
48.0
 40
48.0
 40
48.0
 40
49.0
 40
49.0
 40
49.0
 40
50.0
 40
50.0
 40
50.0
 40
51.0
 40
51.0
 40
51.0
 40
52.0
 40
52.0
 40
52.0
 40
53.0
 40
53.0
 40
53.0
 40
54.0
 40
54.0
 40
54.0
 40
55.0
 40
55.0
 40
55.0
 40
56.0
 40
56.0
 40
56.0
 40
57.0
 40
57.0
 40
57.0
 40
58.0
 40
58.0
 40
58.0
 40
59.0
 40
59.0
 40
59.0
 40
60.0
 40
60.0
 40
60.0
 40
61.0
 40
61.0
 40
61.0
 40
62.0
 40
62.0
 40
62.0
 40
63.0
 40
63.0
 40
63.0
 40
64.0
 40
64.0
 40
64.0
 40
65.0
 40
65.0
 40
65.0
 40
66.0
 40
66.0
 40
66.0
 40
67.0
 40
67.0
 40
67.0
 40
68.0
 40
68.0
 40
68.0
 40
69.0
 40
69.0
 40
69.0
 40
70.0
 40
70.0
 40
70.0
 40
71.0
 40
71.0
 40
71.0
 40
72.0
 40
72.0
 40
72.0
 40
73.0
 40
73.0
 40
73.0
 40
74.0
 40
74.0
 40
74.0
 40
75.0
 40
75.0
 40
75.0
 40
76.0
 40
76.0
 40
76.0
 40
77.0
 40
77.0
 40
77.0
 40
78.0
 40
78.0
 40
78.0
 40
79.0
 40
79.0
 40
79.0
 40
80.0
 40
80.0
 40
80.0
 40
81.0
 40
81.0
 40
81.0
 40
82.0
 40
82.0
 40
82.0
 40
83.0
 40
83.0
 40
83.0
 40
84.0
 40
84.0
 40
84.0
 40
85.0
 40
85.0
 40
85.0
 40
86.0
 40
86.0
 40
86.0
 40
87.0
 40
87.0
 40
87.0
 40
88.0
 40
88.0
 40
88.0
 40
89.0
 40
89.0
 40
89.0
 40
90.0
 40
90.0
 40
90.0
 40
91.0
 40
91.0
 40
91.0
 40
92.0
 40
92.0
 40
92.0
 40
93.0
 40
93.0
 40
93.0
 40
94.0
 40
94.0
 40
94.0
 40
95.0
 40
95.0
 40
95.0
 40
96.0
 40
96.0
 40
96.0
 40
97.0
 40
97.0
 40
97.0
 40
98.0
 40
98.0
 40
98.0
 40
99.0
 40
99.0
 40
99.0
 40
100.0
 40
100.0
 40
100.0
 40
101.0
 40
101.0
 40
101.0
 40
102.0
 40
102.0
 40
102.0
 40
103.0
 40
103.0
 40
103.0
 40
104.0
 40
104.0
 40
104.0
 40
105.0
 40
105.0
 40
105.0
 40
106.0
 40
106.0
 40
106.0
 40
107.0
 40
107.0
 40
107.0
 40
108.0
 40
108.0
 40
108.0
 40
109.0
 40
109.0
 40
109.0
 40
110.0
 40
110.0
 40
110.0
 40
111.0
 40
111.0
 40
111.0
 40
112.0
 40
112.0
 40
112.0
 40
113.0
 40
113.0
 40
113.0
 40
114.0
 40
114.0
 40
114.0
 40
115.0
 40
115.0
 40
115.0
 40
116.0
 40
116.0
 40
116.0
 40
117.0
 40
117.0
 40
117.0
 40
118.0
 40
118.0
 40
118.0
 40
119.0
 40
119.0
 40
119.0
 40
120.0
 40
120.0
 40
120.0
 40
121.0
 40
121.0
 40
121.0
 40
122.0
 40
122.0
 40
122.0
 40
123.0
 40
123.0
 40
123.0
 40
124.0
 40
124.0
 40
124.0
 40
125.0
 40
125.0
 40
125.0
 40
126.0
 40
126.0
 40
126.0
 40
127.0
 40
127.0
 40
127.0
 40
128.0
 40
128.0
 40
128.0
 40
129.0
 40
129.0
 40
129.0
 40
130.0
 40
130.0
 40
130.0
 40
131.0
 40
131.0
 40
131.0
 40
132.0
 40
132.0
 40
132.0
 40
133.0
 40
133.0
 40
133.0
 40
134.0
 40
134.0
 40
134.0
 40
135.0
 40
135.0
 40
135.0
 40
136.0
 40
136.0
 40
136.0
 40
137.0
 40
137.0
 40
137.0
 40
138.0
 40
138.0
 40
138.0
 40
139.0
 40
139.0
 40
139.0
 40
140.0
 40
140.0
 40
140.0
 40
141.0
 40
141.0
 40
141.0
 40
142.0
 40
142.0
 40
142.0
 40
143.0
 40
143.0
 40
143.0
 40
144.0
 40
144.0
 40
144.0
 40
145.0
 40
145.0
 40
145.0
 40
146.0
 40
146.0
 40
146.0
 40
147.0
 40
147.0
 40
147.0
 40
148.0
 40
148.0
 40
148.0
 40
149.0
 40
149.0
 40
149.0
 40
150.0
 40
150.0
 40
150.0
 40
150.0
 10
4.543696588198145
 20
-5.768601156044748
 10
4.54059735859745
 20
-5.72604778419145
 10
4.530614719708561
 20
-5.685060133638065
 10
4.51628586906837
 20
-5.645107537609419
 10
4.5175871046912
 20
-5.786559055350304
 10
4.497660821596582
 20
-5.919691989920616
 10
4.471936198658213
 20
-5.994041287338151
 10
4.442018799569672
 20
-6.080499281587283
 10
4.386192824363509
 20
-6.14924606028737
 10
4.369710789044498
 20
-6.168376343219228
 10
4.368202712058821
 20
-6.174355245400217
 10
4.363627618471582
 20
-6.179425401921485
 10
4.355649814923404
 20
-6.179425401921485
 10
4.339168627314898
 20
-6.179425401921485
 10
4.336698398907779
 20
-6.158220771387631
 10
4.347789843135211
 20
-6.151239027681033
 10
4.361722812970279
 20
-6.135060472722266
 10
4.417129171477224
 20
-6.067492011622006
 10
4.445691081470713
 20
-5.984953830740929
 10
4.447509420500662
 20
-5.979698025619401
 10
4.449287917136946
 20
-5.974050578245269
 10
4.451040982458127
 20
-5.968203071192318
 10
4.455464335865245
 20
-5.952187276650217
 10
4.459535041702919
 20
-5.936157071029557
 10
4.463235298050575
 20
-5.920112454330339
 10
4.474331828541026
 20
-5.868760695161502
 10
4.482799608760211
 20
-5.805040839747006
 10
4.486550727738075
 20
-5.735940565766971
 10
4.487221266746321
 20
-5.678353048134592
 10
4.481135553041895
 20
-5.620490872299089
 10
4.466283665021061
 20
-5.562272658052127
 10
4.448135878562728
 20
-5.491135335732261
 10
4.41799977016429
 20
-5.425980306435386
 10
4.374496962547103
 20
-5.367200060124623
 10
4.408735989782345
 20
-5.464678290918893
 10
4.42910816860179
 20
-5.563412828679298
 10
4.430120334942936
 20
-5.579653266504818
 10
4.430255968623492
 20
-5.581809842025651
 10
4.43065608798113
 20
-5.585485514768707
 10
4.431198622703353
 20
-5.590503960949263
 10
4.435321886592242
 20
-5.628834039074263
 10
4.447881565411686
 20
-5.745492567720096
 10
4.420354709942936
 20
-5.867278049490929
 10
4.390454265064464
 20
-5.999497999849002
 10
4.311856242603527
 20
-6.083168721962717
 10
4.301868517451617
 20
-6.093382785819054
 10
4.299920478714637
 20
-6.098537713390669
 10
4.295435242440766
 20
-6.102630459701432
 10
4.288273784107433
 20
-6.102630459701432
 10
4.27070498392297
 20
-6.102630459701432
 10
4.268944289207259
 20
-6.078456299273915
 10
4.282702630678613
 20
-6.073208123546919
 10
4.285300015661252
 20
-6.070443739595096
 10
4.291072076479395
 20
-6.0641215146602
 10
4.298733684009777
 20
-6.054643263520877
 10
4.331081469111773
 20
-6.011260830795182
 10
4.357624132685992
 20
-5.964694397418447
 10
4.373474623679915
 20
-5.912110914888065
 10
4.390498346010645
 20
-5.855634745725738
 10
4.405133220142589
 20
-5.798430393240929
 10
4.407534783998926
 20
-5.739443305567318
 10
4.410086392614377
 20
-5.676768677203603
 10
4.408613071759342
 20
-5.614027079710113
 10
4.395956753942502
 20
-5.551966193750912
 10
4.377226590368283
 20
-5.46012439009424
 10
4.347476190248926
 20
-5.3737376035274
 10
4.285617907100054
 20
-5.300603075261341
 10
4.247499756600922
 20
-5.255537089475751
 10
4.205672024938595
 20
-5.215699782075577
 10
4.15416428703712
 20
-5.187409139443198
 10
4.173948154767154
 20
-5.207077718544761
 10
4.191773811234169
 20
-5.225874003538251
 10
4.199400662633908
 20
-5.235028429265248
 10
4.217928223397797
 20
-5.257252007824275
 10
4.30028499423113
 20
-5.381336480480525
 10
4.33495296298113
 20
-5.539715929265235
 10
4.365680773310992
 20
-5.680062880220096
 10
4.341870280689464
 20
-5.771832628483985
 10
4.324482042842242
 20
-5.838835666678429
 10
4.322284777217242
 20
-5.847299208345096
 10
4.32018245516863
 20
-5.855396539074263
 10
4.318303928692936
 20
-5.863181912338151
 10
4.303716526349186
 20
-5.923633843761763
 10
4.259472819751964
 20
-5.995818088553429
 10
4.244932889196408
 20
-6.01952685591454
 10
4.242986545880436
 20
-6.022714247407596
 10
4.241609864022797
 20
-6.024938639768707
 10
4.241013075828353
 20
-6.026010145845096
 10
4.241013075828353
 20
-6.026010145845096
 10
4.240668057653439
 20
-6.025837212902388
 10
4.240668057653439
 20
-6.025837212902388
 10
4.240622281286252
 20
-6.025901638900651
 10
4.240579895761078
 20
-6.025967760319923
 10
4.240533271683387
 20
-6.026031338607682
 10
4.239722012731564
 20
-6.027138448525217
 10
4.238855652597016
 20
-6.028339654308638
 10
4.237943516095279
 20
-6.029365384017839
 10
4.235861539098752
 20
-6.031705912717925
 10
4.232874207284516
 20
-6.033275024859853
 10
4.229936042679481
 20
-6.0342142880977
 10
4.22838049390561
 20
-6.034711894163238
 10
4.226656250741547
 20
-6.034813619423655
 10
4.22506764125804
 20
-6.034941623709679
 10
4.224731100188162
 20
-6.03496875044579
 10
4.224397949960297
 20
-6.034970445866798
 10
4.224061408890419
 20
-6.034945862262197
 10
4.221238532913856
 20
-6.034743259451866
 10
4.21829273891429
 20
-6.03421174496619
 10
4.215494446542328
 20
-6.033634454113325
 10
4.213632874276703
 20
-6.033249593544748
 10
4.211765368037554
 20
-6.032467156750044
 10
4.210196255895627
 20
-6.031393107542144
 10
4.208538981861339
 20
-6.030258870888498
 10
4.206945286114811
 20
-6.029093268946224
 10
4.205661852412554
 20
-6.027565694618967
 10
4.203768914858301
 20
-6.025660041407162
 10
4.202459202130436
 20
-6.023412760862457
 10
4.201732714228961
 20
-6.020824700695357
 10
4.201551304181217
 20
-6.019470907021311
 10
4.20136904642297
 20
-6.018117113347266
 10
4.201187636375228
 20
-6.016762471962717
 10
4.201195265769759
 20
-6.014410075315582
 10
4.201809008174273
 20
-6.012224677637631
 10
4.202815240541895
 20
-6.01014439606211
 10
4.202815240541895
 20
-6.01014439606211
 10
4.202642307599186
 20
-6.010086751747873
 10
4.202642307599186
 20
-6.010086751747873
 10
4.203591743363075
 20
-6.007252007824263
 10
4.204480143970714
 20
-6.005800727442318
 10
4.209410428258908
 20
-5.997757650185373
 10
4.223095866626964
 20
-5.975432346365929
 10
4.264755751609603
 20
-5.90746630903954
 10
4.277803711679047
 20
-5.853416287338151
 10
4.279736491626964
 20
-5.845400336817318
 10
4.281893067147797
 20
-5.837072428831207
 10
4.284151367929047
 20
-5.82836474653954
 10
4.301390408727658
 20
-5.761931369803429
 10
4.322847656991547
 20
-5.679235514768707
 10
4.294249295446408
 20
-5.548627062077735
 10
4.277290846824446
 20
-5.471148865191897
 10
4.248110108163422
 20
-5.402268148232261
 10
4.221764961136512
 20
-5.351121535005264
 10
4.206505324363509
 20
-5.325068000391549
 10
4.189450236744152
 20
-5.299735019705786
 10
4.170497973018023
 20
-5.275192952919761
 10
4.128158224211599
 20
-5.220365580686689
 10
4.078389140552745
 20
-5.17484606978174
 10
4.016043423864377
 20
-5.143580810992678
 10
3.983450650426877
 20
-5.12723610477523
 10
3.950336535029741
 20
-5.113590508800838
 10
3.913044902271495
 20
-5.114406854015681
 10
3.908892816225488
 20
-5.114498406750056
 10
3.904771247757606
 20
-5.115962402789553
 10
3.897434313350054
 20
-5.117429789671064
 10
3.903088542408214
 20
-5.122204095226619
 10
3.905911418384776
 20
-5.124725186263945
 10
3.908874166594412
 20
-5.127069105806046
 10
3.949914375199012
 20
-5.159533874957522
 10
3.988169854799707
 20
-5.195172472233998
 10
4.021778185420367
 20
-5.23512676368365
 10
4.092707818666895
 20
-5.319446832043025
 10
4.143133030255436
 20
-5.41491683665457
 10
4.171605082935558
 20
-5.521649523015235
 10
4.193231873300141
 20
-5.6027203170148
 10
4.200381463686426
 20
-5.684520142047353
 10
4.183417928801443
 20
-5.767418599892405
 10
4.164096063295801
 20
-5.861839138900651
 10
4.115684164153005
 20
-5.93932920373355
 10
4.046192247920367
 20
-6.00500303185855
 10
4.01668853155752
 20
-6.032885078028256
 10
3.982791131655176
 20
-6.047442810504384
 10
3.942624064869151
 20
-6.042502353690148
 10
3.891585958586599
 20
-6.036224209701432
 10
3.856767097366981
 20
-6.009083910222266
 10
3.855350573115679
 20
-5.955358561643707
 10
3.854697836028005
 20
-5.930591851574263
 10
3.85940093390127
 20
-5.906938185395877
 10
3.871578295283648
 20
-5.885130832694054
 10
3.881711826642155
 20
-5.866983893946224
 10
3.892275994936426
 20
-5.849076009560373
 10
3.902398506058387
 20
-5.830922289128516
 10
3.951701348940332
 20
-5.742503540484853
 10
3.894922547128266
 20
-5.681453973156294
 10
3.832616672833561
 20
-5.664342936643707
 10
3.789452949417762
 20
-5.652488552963151
 10
3.709413819100922
 20
-5.675519999631988
 10
3.687590359899533
 20
-5.741552409299957
 10
3.681101135995453
 20
-5.761187079981381
 10
3.66968417093469
 20
-5.777418192991363
 10
3.652081462330089
 20
-5.789839694998741
 10
3.613152900589637
 20
-5.817309753863759
 10
3.569628900209863
 20
-5.832816922103776
 10
3.523722833315332
 20
-5.843123386404991
 10
3.51730142625153
 20
-5.844565341971398
 10
3.507078885290158
 20
-5.845129069456207
 10
3.509361769676009
 20
-5.854442017047353
 10
3.510323073386946
 20
-5.858363525836415
 10
3.520729567527571
 20
-5.860074205632423
 10
3.526949219491547
 20
-5.862518155013932
 10
3.528258932219412
 20
-5.86303271528954
 10
3.530050144513249
 20
-5.862446099621138
 10
3.531596368471582
 20
-5.86221467465369
 10
3.569600925763249
 20
-5.856534166569923
 10
3.607491042136946
 20
-5.849855903223568
 10
3.645643948766721
 20
-5.845468153657596
 10
3.672340047942068
 20
-5.842397746214019
 10
3.69954985968252
 20
-5.840071628592491
 10
3.726245958857866
 20
-5.841798414888065
 10
3.751594198332693
 20
-5.843438734712283
 10
3.763272258228526
 20
-5.861302538151954
 10
3.762037144024967
 20
-5.886710965072526
 10
3.760659614456825
 20
-5.915032972993533
 10
3.751484843677745
 20
-5.941173821789107
 10
3.740752828703787
 20
-5.967001865408898
 10
3.734243259747624
 20
-5.982668403223568
 10
3.724187717755436
 20
-5.99527640154171
 10
3.710671821488075
 20
-6.005382806164107
 10
3.68903231546594
 20
-6.021563904254384
 10
3.665330329788856
 20
-6.034115953679298
 10
3.637831448766721
 20
-6.029907918740061
 10
3.594621948983735
 20
-6.023296624523482
 10
3.55520680141429
 20
-6.005626946789107
 10
3.524768060366113
 20
-5.973984456825998
 10
3.444711975839203
 20
-5.89076217356862
 10
3.407716194046669
 20
-5.789575209321658
 10
3.40725503953278
 20
-5.674996114540842
 10
3.406819316333995
 20
-5.566635824013498
 10
3.438176127857432
 20
-5.465890516938858
 10
3.487105978117849
 20
-5.370533257824275
 10
3.53673518954363
 20
-5.273815423351619
 10
3.606958679940766
 20
-5.193641507064726
 10
3.69206711906837
 20
-5.126360419825143
 10
3.695007826804915
 20
-5.124035149914119
 10
3.699246379322276
 20
-5.123352742958823
 10
3.702880514250662
 20
-5.121904853418893
 10
3.701416518211165
 20
-5.11962875071707
 10
3.699952522171669
 20
-5.117352648015248
 10
3.698488526132172
 20
-5.115077393023928
 10
3.690181810908648
 20
-5.115077393023928
 10
3.681808126555349
 20
-5.114391595226619
 10
3.673579400698145
 20
-5.115193529362904
 10
3.632936768319672
 20
-5.119154032835126
 10
3.595400994936426
 20
-5.133251458507869
 10
3.56135185485396
 20
-5.154893507661514
 10
3.54250640265127
 20
-5.166871657075577
 10
3.524658705711165
 20
-5.179761942991376
 10
3.507684150589637
 20
-5.193470269543025
 10
3.481032132360471
 20
-5.218351420530439
 10
3.447899367332259
 20
-5.251953817177573
 10
3.435790670500662
 20
-5.266487813759605
 10
3.421501662254134
 20
-5.283625129297799
 10
3.341972853660384
 20
-5.402453796832522
 10
3.308932489077051
 20
-5.553407301606815
 10
3.280334127531912
 20
-5.684015754297787
 10
3.301791375795801
 20
-5.766711609332509
 10
3.319030416594412
 20
-5.83314498606862
 10
3.321288717375662
 20
-5.841852668360287
 10
3.323445292896495
 20
-5.850180576346398
 10
3.325378072844412
 20
-5.858196526867232
 10
3.338426032913856
 20
-5.91224654856862
 10
3.380085917896495
 20
-5.980212585895009
 10
3.393771356264551
 20
-6.002537889714454
 10
3.398092984411252
 20
-6.009588297971832
 10
3.399288256221148
 20
-6.011593133312544
 10
3.400162245750228
 20
-6.013884494803429
 10
3.40017241827627
 20
-6.013902296724002
 10
3.400191915617849
 20
-6.013909926118533
 10
3.400202088143891
 20
-6.013927728039107
 10
3.400272448115679
 20
-6.014038778115061
 10
3.400249559932085
 20
-6.01417525950612
 10
3.40031652906186
 20
-6.014287157292579
 10
3.400386889033648
 20
-6.014482130708377
 10
3.400469964662988
 20
-6.01466099762461
 10
3.400539476924273
 20
-6.014866991276954
 10
3.400539476924273
 20
-6.014866991276954
 10
3.400505568504134
 20
-6.014878011513498
 10
3.400505568504134
 20
-6.014878011513498
 10
3.401292243851356
 20
-6.016377611394141
 10
3.401938199255002
 20
-6.017914510536936
 10
3.402015340910818
 20
-6.019608236122873
 10
3.402469713740679
 20
-6.02163850277869
 10
3.402379008716807
 20
-6.023669617145009
 10
3.4017423781287
 20
-6.025699883800825
 10
3.401065905146929
 20
-6.028948310450131
 10
3.398842360496321
 20
-6.032611267535634
 10
3.396420451587901
 20
-6.034853461817318
 10
3.396311096932953
 20
-6.034954339367232
 10
3.396197503725488
 20
-6.03504928294362
 10
3.396082215097016
 20
-6.035143378809506
 10
3.395051399124794
 20
-6.035982612207943
 10
3.393886644893023
 20
-6.036887119315148
 10
3.39281174797462
 20
-6.037669556109853
 10
3.392593886375228
 20
-6.037827230263498
 10
3.392370938512815
 20
-6.03797642731211
 10
3.392139513545366
 20
-6.038112908703169
 10
3.391901306893891
 20
-6.038253628646745
 10
3.391655470847884
 20
-6.038382480643273
 10
3.39140539624936
 20
-6.038502007824263
 10
3.389999044524099
 20
-6.039172546832509
 10
3.388532505353092
 20
-6.039754076237891
 10
3.387088006655176
 20
-6.040333910222266
 10
3.38601226202627
 20
-6.040766242579037
 10
3.384883111635645
 20
-6.041056159571224
 10
3.383746331850488
 20
-6.041274021170616
 10
3.381421061939464
 20
-6.041718221474436
 10
3.379060188187294
 20
-6.04200474762461
 10
3.376704400698145
 20
-6.042235324881554
 10
3.373946798430349
 20
-6.042226847776519
 10
3.371376540183821
 20
-6.041531725163673
 10
3.368993625958561
 20
-6.040149957043013
 10
3.367962809986339
 20
-6.039353956880252
 10
3.366931994014116
 20
-6.038557109006988
 10
3.365901178041895
 20
-6.037761108844228
 10
3.364008240487641
 20
-6.035854607921919
 10
3.362698527759776
 20
-6.033607327377214
 10
3.361972039858301
 20
-6.031019267210113
 10
3.361939826859169
 20
-6.030777669716623
 10
3.361906766149533
 20
-6.030536919933638
 10
3.361874553150401
 20
-6.030295322440148
 10
3.361198927879134
 20
-6.029124634234853
 10
3.359998569806217
 20
-6.027172356945357
 10
3.358248895327051
 20
-6.02430709544362
 10
3.343708964771495
 20
-6.000598328082509
 10
3.299465258174273
 20
-5.928414083290842
 10
3.284877855830523
 20
-5.867962151867232
 10
3.282999329354828
 20
-5.860176778603342
 10
3.280897007306217
 20
-5.852079447874175
 10
3.278699741681217
 20
-5.843615906207509
 10
3.261311503833995
 20
-5.776612868013065
 10
3.237501011212467
 20
-5.684843119749175
 10
3.268228821542328
 20
-5.544496168794315
 10
3.302896790292328
 20
-5.386116720009605
 10
3.385253561125662
 20
-5.262032247353355
 10
3.403781121889551
 20
-5.239808668794327
 10
3.413005907588335
 20
-5.228735874197973
 10
3.437124966833127
 20
-5.203585998980959
 10
3.461622104962467
 20
-5.179812805621584
 10
3.430030477629568
 20
-5.198357320595542
 10
3.397080818070106
 20
-5.215215739378095
 10
3.368716424623926
 20
-5.237823330795195
 10
3.310320191171235
 20
-5.284368571409345
 10
3.271287361038856
 20
-5.345525797971845
 10
3.243850362883474
 20
-5.414240363672799
 10
3.217478089120453
 20
-5.496571703191029
 10
3.201607253074446
 20
-5.572980089421485
 10
3.200784973886078
 20
-5.586169617145009
 10
3.200635776837467
 20
-5.588570333290842
 10
3.20020174905969
 20
-5.59266647044362
 10
3.199598179181217
 20
-5.598254578082509
 10
3.196137824906044
 20
-5.630428582531294
 10
3.186611254268023
 20
-5.719449205632423
 10
3.201230021900401
 20
-5.818778836166276
 10
3.202341370370453
 20
-5.825863152843794
 10
3.20348069328712
 20
-5.832948317231815
 10
3.204770060962901
 20
-5.84004195872487
 10
3.21981861782054
 20
-5.922807326020877
 10
3.254513713306651
 20
-5.998354438379818
 10
3.308372152434255
 20
-6.064132534896745
 10
3.30878837829146
 20
-6.064640313488325
 10
3.309174934281044
 20
-6.065175218816016
 10
3.309588617006738
 20
-6.065685540539107
 10
3.313236315303179
 20
-6.070014798080339
 10
3.316223647117415
 20
-6.073367493121572
 10
3.318367506980696
 20
-6.075713108084679
 10
3.331291701316634
 20
-6.081557224295616
 10
3.329120714717241
 20
-6.104957425033464
 10
3.311913886917762
 20
-6.104957425033464
 10
3.304242954571842
 20
-6.104957425033464
 10
3.299659383879568
 20
-6.100297560395877
 10
3.297969049135645
 20
-6.09463654965369
 10
3.27966952249719
 20
-6.07494423465803
 10
3.210442939652137
 20
-5.994176073308204
 10
3.182827074580523
 20
-5.872058289020009
 10
3.155300219111773
 20
-5.750272807249175
 10
3.167859897931217
 20
-5.633614278603342
 10
3.171983161820106
 20
-5.595284200478342
 10
3.172525696542328
 20
-5.590265754297787
 10
3.172925815899967
 20
-5.586590081554732
 10
3.173061449580523
 20
-5.584433506033898
 10
3.17413973734094
 20
-5.567119866710982
 10
3.197206787850922
 20
-5.456043511730525
 10
3.235639438946842
 20
-5.352690647147192
 10
3.214336473994585
 20
-5.381907837359865
 10
3.191760247866113
 20
-5.410428209538685
 10
3.174179579734603
 20
-5.441746874089466
 10
3.137455065303179
 20
-5.507168932194935
 10
3.124269776132172
 20
-5.580410271984419
 10
3.116820943938162
 20
-5.653911858898482
 10
3.116409804343978
 20
-5.657969001368099
 10
3.116191942744585
 20
-5.662023600706207
 10
3.115852010832693
 20
-5.666079895465322
 10
3.116520006709429
 20
-5.796247538694488
 10
3.135132338523665
 20
-5.916505446138065
 10
3.158812283727658
 20
-5.984953830740929
 10
3.189659621238509
 20
-6.074096524154557
 10
3.251754415617849
 20
-6.145705173514366
 10
3.259160862286686
 20
-6.154044101737023
 10
3.259249024179047
 20
-6.154132263629384
 10
3.259282932599186
 20
-6.154254333941884
 10
3.259367703649533
 20
-6.154344191255252
 10
3.259453322410384
 20
-6.154434896279123
 10
3.259496555646061
 20
-6.154551880328603
 10
3.259575392722884
 20
-6.154645976194488
 10
3.259832249005436
 20
-6.154934197765669
 10
3.259992466290592
 20
-6.155274977388065
 10
3.26022134812653
 20
-6.155584391721832
 10
3.260451925383474
 20
-6.1559429732648
 10
3.260727431297103
 20
-6.156270189519141
 10
3.260949531449012
 20
-6.156642334430165
 10
3.261163154495887
 20
-6.157011088499175
 10
3.261489523039724
 20
-6.15730270091237
 10
3.261673476218978
 20
-6.157693495454471
 10
3.261862515661252
 20
-6.158020711708811
 10
3.262063423050575
 20
-6.158328430621572
 10
3.262225335756738
 20
-6.158670057954471
 10
3.262338928964203
 20
-6.158969299762197
 10
3.262441501935124
 20
-6.159254978201866
 10
3.262535597801009
 20
-6.159561849404123
 10
3.265756897714203
 20
-6.167730387815582
 10
3.261812500741547
 20
-6.178985440170182
 10
3.250376886049707
 20
-6.178985440170182
 10
3.246944506221148
 20
-6.178985440170182
 10
3.244487841182085
 20
-6.17768844309987
 10
3.242439772605696
 20
-6.175993022092925
 10
3.24136402797679
 20
-6.175297051769575
 10
3.240289978768891
 20
-6.174607863130252
 10
3.239505846553179
 20
-6.173651645682335
 10
3.239505846553179
 20
-6.173651645682335
 10
3.23946685187002
 20
-6.173688097233985
 10
3.23946685187002
 20
-6.173688097233985
 10
3.236530382685991
 20
-6.170473579004818
 10
3.16716731844988
 20
-6.094030436643707
 10
3.132567166540158
 20
-5.994041287338151
 10
3.10579985968252
 20
-5.916678379080773
 10
3.085204733000662
 20
-5.775713447168881
 10
3.088384495099186
 20
-5.627909186914974
 10
3.060190491464203
 20
-5.705849386025217
 10
3.049219422128266
 20
-5.786219123438412
 10
3.054331964174707
 20
-5.8690777388898
 10
3.064547723452051
 20
-6.034625427691884
 10
3.122876987774967
 20
-6.181038595009592
 10
3.232241815248926
 20
-6.305462999577734
 10
3.37274813577844
 20
-6.465316616927995
 10
3.551687107403874
 20
-6.550750576888932
 10
3.763350247594846
 20
-6.561404602496572
 10
3.981733188946842
 20
-6.572396864595096
 10
4.172528239673839
 20
-6.500546617741797
 10
4.328285719871321
 20
-6.346697333887631
 10
4.488647963523665
 20
-6.188299235471832
 10
4.560126913176443
 20
-5.9941752255977
 10
4.543696588198145
 20
-5.768601156044748
 97
        0
 97
        1
330
99
 75
     2
 76
     1
 98
        1
 10
0.0
 20
0.0
450
        0
451
        0
460
0.0
461
0.0
452
        0
462
0.0
453
        0
470

  0
ENDBLK
  5
83
330
80
100
AcDbEntity
  8
0
100
AcDbBlockEnd
  0
ENDSEC
  0
SECTION
  2
ENTITIES
  0
LWPOLYLINE
  5
7F
330
70
100
AcDbEntity
  8
Lid
 62
   250
420
  2301728
370
    70
100
AcDbPolyline
 90
        4
 70
     1
 43
0.0
 10
5.415189125295531
 20
-7.284799054373529
 10
2.185189125295525
 20
-7.284799054373529
 10
2.185189125295525
 20
-4.254799054373506
 10
5.415189125295531
 20
-4.254799054373506
  0
INSERT
  5
81
330
70
100
AcDbEntity
  8
Lid
100
AcDbBlockReference
  2
Block_0
 10
0.0
 20
0.0
 30
0.0
  0
ENDSEC
  0
SECTION
  2
OBJECTS
  0
DICTIONARY
  5
C
330
0
100
AcDbDictionary
281
     1
  3
ACAD_COLOR
350
63
  3
ACAD_DETAILVIEWSTYLE
350
6A
  3
ACAD_GROUP
350
D
  3
ACAD_LAYOUT
350
62
  3
ACAD_MATERIAL
350
10
  3
ACAD_MLEADERSTYLE
350
66
  3
ACAD_MLINESTYLE
350
5F
  3
ACAD_PLOTSETTINGS
350
61
  3
ACAD_PLOTSTYLENAME
350
E
  3
ACAD_SCALELIST
350
42
  3
ACAD_SECTIONVIEWSTYLE
350
68
  3
ACAD_TABLESTYLE
350
64
  3
ACAD_VISUALSTYLE
350
29
  3
ACDB_RECOMPOSE_DATA
350
A3
  3
AcDbVariableDictionary
350
9B
  0
DICTIONARY
  5
63
102
{ACAD_REACTORS
330
C
102
}
330
C
100
AcDbDictionary
281
     1
  0
DICTIONARY
  5
6A
102
{ACAD_REACTORS
330
C
102
}
330
C
100
AcDbDictionary
281
     1
  3
Imperial24
350
6B
  0
DICTIONARY
  5
D
102
{ACAD_REACTORS
330
C
102
}
330
C
100
AcDbDictionary
281
     1
  0
DICTIONARY
  5
62
102
{ACAD_REACTORS
330
C
102
}
330
C
100
AcDbDictionary
281
     1
  3
Layout1
350
6F
  3
Layout2
350
77
  3
Model
350
73
  0
DICTIONARY
  5
10
102
{ACAD_REACTORS
330
C
102
}
330
C
100
AcDbDictionary
281
     1
  3
ByBlock
350
19
  3
ByLayer
350
11
  3
Global
350
21
  0
DICTIONARY
  5
66
102
{ACAD_REACTORS
330
C
102
}
330
C
100
AcDbDictionary
281
     1
  3
Standard
350
67
  0
DICTIONARY
  5
5F
102
{ACAD_REACTORS
330
C
102
}
330
C
100
AcDbDictionary
281
     1
  3
Standard
350
60
  0
DICTIONARY
  5
61
102
{ACAD_REACTORS
330
C
102
}
330
C
100
AcDbDictionary
281
     1
  0
ACDBDICTIONARYWDFLT
  5
E
102
{ACAD_REACTORS
330
C
102
}
330
C
100
AcDbDictionary
281
     1
  3
Normal
350
F
100
AcDbDictionaryWithDefault
340
F
  0
DICTIONARY
  5
42
102
{ACAD_REACTORS
330
C
102
}
330
C
100
AcDbDictionary
281
     1
  3
A0
350
43
  3
A1
350
44
  3
A2
350
45
  3
A3
350
46
  3
A4
350
47
  3
A5
350
48
  3
A6
350
49
  3
A7
350
4A
  3
A8
350
4B
  3
A9
350
4C
  3
B0
350
4D
  3
B1
350
4E
  3
B2
350
4F
  3
B3
350
50
  3
B4
350
51
  3
B5
350
52
  3
B6
350
53
  0
DICTIONARY
  5
68
102
{ACAD_REACTORS
330
C
102
}
330
C
100
AcDbDictionary
281
     1
  3
Imperial24
350
69
  0
DICTIONARY
  5
64
102
{ACAD_REACTORS
330
C
102
}
330
C
100
AcDbDictionary
281
     1
  3
Standard
350
65
  0
DICTIONARY
  5
29
102
{ACAD_REACTORS
330
C
102
}
330
C
100
AcDbDictionary
281
     1
  3
2dWireframe
350
2F
  3
Basic
350
2E
  3
Brighten
350
35
  3
ColorChange
350
39
  3
Conceptual
350
32
  3
Dim
350
34
  3
EdgeColorOff
350
41
  3
Facepattern
350
38
  3
Flat
350
2A
  3
FlatWithEdges
350
2B
  3
Gouraud
350
2C
  3
GouraudWithEdges
350
2D
  3
Hidden
350
31
  3
JitterOff
350
3F
  3
Linepattern
350
37
  3
OverhangOff
350
40
  3
Realistic
350
33
  3
Shaded
350
3E
  3
Shaded with edges
350
3D
  3
Shades of Gray
350
3A
  3
Sketchy
350
3B
  3
Thicken
350
36
  3
Wireframe
350
30
  3
X-Ray
350
3C
  0
XRECORD
  5
A3
102
{ACAD_REACTORS
330
C
102
}
330
C
100
AcDbXrecord
280
     1
 90
        1
330
65
  0
DICTIONARY
  5
9B
102
{ACAD_REACTORS
330
C
102
}
330
C
100
AcDbDictionary
281
     1
  3
CANNOSCALE
350
A0
  3
CMLEADERSTYLE
350
9D
  3
CTABLESTYLE
350
9C
  3
CVIEWDETAILSTYLE
350
9E
  3
CVIEWSECTIONSTYLE
350
9F
  0
ACDBDETAILVIEWSTYLE
  5
6B
102
{ACAD_REACTORS
330
6A
102
}
330
6A
100
AcDbModelDocViewStyle
 70
     0
  3
Imperial24
290
     1
300
Imperial24
 90
        0
100
AcDbDetailViewStyle
 70
     0
 71
     0
 90
        3
 71
     1
340
55
 62
   256
 40
0.24
340
0
 62
   256
 40
0.24
300

 40
0.36
280
     3
 71
     2
340
5D
 90
       25
 62
   256
 71
     3
340
55
 62
   256
 40
0.24
 90
        1
 40
0.75
 90
        1
300
%<\AcVar ViewType \f "%tc1">% %<\AcVar ViewDetailId>%\PSCALE %<\AcVar ViewScale \f "%sn">%
 71
     4
340
5D
 90
       25
 62
   256
340
5D
 90
       25
 62
   256
280
     0
  0
LAYOUT
  5
6F
102
{ACAD_REACTORS
330
62
102
}
330
62
100
AcDbPlotSettings
  1

  2

  4

  6

 40
0.0
 41
0.0
 42
0.0
 43
0.0
 44
0.0
 45
0.0
 46
0.0
 47
0.0
 48
0.0
 49
0.0
140
0.0
141
0.0
142
1.0
143
1.0
 70
   688
 72
     0
 73
     0
 74
     5
  7

 75
    16
147
1.0
 76
     0
 77
     2
 78
   300
148
0.0
149
0.0
100
AcDbLayout
  1
Layout1
 70
     1
 71
     1
 10
0.0
 20
0.0
 11
12.0
 21
9.0
 12
0.0
 22
0.0
 32
0.0
 14
0.0
 24
0.0
 34
0.0
 15
0.0
 25
0.0
 35
0.0
146
0.0
 13
0.0
 23
0.0
 33
0.0
 16
1.0
 26
0.0
 36
0.0
 17
0.0
 27
1.0
 37
0.0
 76
     0
330
6C
  0
LAYOUT
  5
77
102
{ACAD_REACTORS
330
62
102
}
330
62
100
AcDbPlotSettings
  1

  2

  4

  6

 40
0.0
 41
0.0
 42
0.0
 43
0.0
 44
0.0
 45
0.0
 46
0.0
 47
0.0
 48
0.0
 49
0.0
140
0.0
141
0.0
142
1.0
143
1.0
 70
   688
 72
     0
 73
     0
 74
     5
  7

 75
    16
147
1.0
 76
     0
 77
     2
 78
   300
148
0.0
149
0.0
100
AcDbLayout
  1
Layout2
 70
     1
 71
     2
 10
0.0
 20
0.0
 11
12.0
 21
9.0
 12
0.0
 22
0.0
 32
0.0
 14
0.0
 24
0.0
 34
0.0
 15
0.0
 25
0.0
 35
0.0
146
0.0
 13
0.0
 23
0.0
 33
0.0
 16
1.0
 26
0.0
 36
0.0
 17
0.0
 27
1.0
 37
0.0
 76
     0
330
74
  0
LAYOUT
  5
73
102
{ACAD_REACTORS
330
62
102
}
330
62
100
AcDbPlotSettings
  1

  2

  4

  6

 40
0.0
 41
0.0
 42
0.0
 43
0.0
 44
0.0
 45
0.0
 46
0.0
 47
0.0
 48
0.0
 49
0.0
140
0.0
141
0.0
142
1.0
143
1.0
 70
  1712
 72
     0
 73
     0
 74
     0
  7

 75
     0
147
1.0
 76
     0
 77
     2
 78
   300
148
0.0
149
0.0
100
AcDbLayout
  1
Model
 70
     1
 71
     0
 10
0.0
 20
0.0
 11
12.0
 21
9.0
 12
0.0
 22
0.0
 32
0.0
 14
0.0
 24
0.0
 34
0.0
 15
0.0
 25
0.0
 35
0.0
146
0.0
 13
0.0
 23
0.0
 33
0.0
 16
1.0
 26
0.0
 36
0.0
 17
0.0
 27
1.0
 37
0.0
 76
     0
330
70
  0
MATERIAL
  5
19
102
{ACAD_XDICTIONARY
360
1A
102
}
102
{ACAD_REACTORS
330
10
102
}
330
10
100
AcDbMaterial
  1
ByBlock
 72
     0
 43
0.0208333333333333
 43
0.0
 43
0.0
 43
0.0
 43
0.0
 43
0.0208333333333333
 43
0.0
 43
0.0
 43
0.0
 43
0.0
 43
1.0
 43
0.0
 43
0.0
 43
0.0
 43
0.0
 43
1.0
 77
     0
 47
0.0208333333333333
 47
0.0
 47
0.0
 47
0.0
 47
0.0
 47
0.0208333333333333
 47
0.0
 47
0.0
 47
0.0
 47
0.0
 47
1.0
 47
0.0
 47
0.0
 47
0.0
 47
0.0
 47
1.0
171
     0
 49
0.0208333333333333
 49
0.0
 49
0.0
 49
0.0
 49
0.0
 49
0.0208333333333333
 49
0.0
 49
0.0
 49
0.0
 49
0.0
 49
1.0
 49
0.0
 49
0.0
 49
0.0
 49
0.0
 49
1.0
175
     0
142
0.0208333333333333
142
0.0
142
0.0
142
0.0
142
0.0
142
0.0208333333333333
142
0.0
142
0.0
142
0.0
142
0.0
142
1.0
142
0.0
142
0.0
142
0.0
142
0.0
142
1.0
179
     0
144
0.0208333333333333
144
0.0
144
0.0
144
0.0
144
0.0
144
0.0208333333333333
144
0.0
144
0.0
144
0.0
144
0.0
144
1.0
144
0.0
144
0.0
144
0.0
144
0.0
144
1.0
147
0.0208333333333333
147
0.0
147
0.0
147
0.0
147
0.0
147
0.0208333333333333
147
0.0
147
0.0
147
0.0
147
0.0
147
1.0
147
0.0
147
0.0
147
0.0
147
0.0
147
1.0
  0
MATERIAL
  5
11
102
{ACAD_XDICTIONARY
360
12
102
}
102
{ACAD_REACTORS
330
10
102
}
330
10
100
AcDbMaterial
  1
ByLayer
 72
     0
 43
0.0208333333333333
 43
0.0
 43
0.0
 43
0.0
 43
0.0
 43
0.0208333333333333
 43
0.0
 43
0.0
 43
0.0
 43
0.0
 43
1.0
 43
0.0
 43
0.0
 43
0.0
 43
0.0
 43
1.0
 77
     0
 47
0.0208333333333333
 47
0.0
 47
0.0
 47
0.0
 47
0.0
 47
0.0208333333333333
 47
0.0
 47
0.0
 47
0.0
 47
0.0
 47
1.0
 47
0.0
 47
0.0
 47
0.0
 47
0.0
 47
1.0
171
     0
 49
0.0208333333333333
 49
0.0
 49
0.0
 49
0.0
 49
0.0
 49
0.0208333333333333
 49
0.0
 49
0.0
 49
0.0
 49
0.0
 49
1.0
 49
0.0
 49
0.0
 49
0.0
 49
0.0
 49
1.0
175
     0
142
0.0208333333333333
142
0.0
142
0.0
142
0.0
142
0.0
142
0.0208333333333333
142
0.0
142
0.0
142
0.0
142
0.0
142
1.0
142
0.0
142
0.0
142
0.0
142
0.0
142
1.0
179
     0
144
0.0208333333333333
144
0.0
144
0.0
144
0.0
144
0.0
144
0.0208333333333333
144
0.0
144
0.0
144
0.0
144
0.0
144
1.0
144
0.0
144
0.0
144
0.0
144
0.0
144
1.0
147
0.0208333333333333
147
0.0
147
0.0
147
0.0
147
0.0
147
0.0208333333333333
147
0.0
147
0.0
147
0.0
147
0.0
147
1.0
147
0.0
147
0.0
147
0.0
147
0.0
147
1.0
  0
MATERIAL
  5
21
102
{ACAD_XDICTIONARY
360
22
102
}
102
{ACAD_REACTORS
330
10
102
}
330
10
100
AcDbMaterial
  1
Global
 72
     0
 43
0.0208333333333333
 43
0.0
 43
0.0
 43
0.0
 43
0.0
 43
0.0208333333333333
 43
0.0
 43
0.0
 43
0.0
 43
0.0
 43
1.0
 43
0.0
 43
0.0
 43
0.0
 43
0.0
 43
1.0
 77
     0
 47
0.0208333333333333
 47
0.0
 47
0.0
 47
0.0
 47
0.0
 47
0.0208333333333333
 47
0.0
 47
0.0
 47
0.0
 47
0.0
 47
1.0
 47
0.0
 47
0.0
 47
0.0
 47
0.0
 47
1.0
171
     0
 49
0.0208333333333333
 49
0.0
 49
0.0
 49
0.0
 49
0.0
 49
0.0208333333333333
 49
0.0
 49
0.0
 49
0.0
 49
0.0
 49
1.0
 49
0.0
 49
0.0
 49
0.0
 49
0.0
 49
1.0
175
     0
142
0.0208333333333333
142
0.0
142
0.0
142
0.0
142
0.0
142
0.0208333333333333
142
0.0
142
0.0
142
0.0
142
0.0
142
1.0
142
0.0
142
0.0
142
0.0
142
0.0
142
1.0
179
     0
144
0.0208333333333333
144
0.0
144
0.0
144
0.0
144
0.0
144
0.0208333333333333
144
0.0
144
0.0
144
0.0
144
0.0
144
1.0
144
0.0
144
0.0
144
0.0
144
0.0
144
1.0
147
0.0208333333333333
147
0.0
147
0.0
147
0.0
147
0.0
147
0.0208333333333333
147
0.0
147
0.0
147
0.0
147
0.0
147
1.0
147
0.0
147
0.0
147
0.0
147
0.0
147
1.0
  0
MLEADERSTYLE
  5
67
102
{ACAD_REACTORS
330
66
102
}
330
66
100
AcDbMLeaderStyle
179
     2
170
     2
171
     1
172
     0
 90
        2
 40
0.0
 41
0.0
173
     1
 91
-1056964608
340
5B
 92
       -2
290
     1
 42
0.09
291
     1
 43
0.36
  3
Standard
 44
0.18
300

342
55
174
     1
178
     6
175
     1
176
     0
 93
-1056964608
 45
0.18
292
     0
297
     0
 46
0.18
 94
-1056964608
 47
1.0
 49
1.0
140
1.0
293
     1
141
0.0
294
     1
177
     0
142
1.0
295
     1
296
     0
143
0.125
271
     0
272
     9
273
     9
298
     1
  0
MLINESTYLE
  5
60
102
{ACAD_REACTORS
330
5F
102
}
330
5F
100
AcDbMlineStyle
  2
STANDARD
 70
     0
  3

 62
   256
 51
90.0
 52
90.0
 71
     2
 49
0.5
 62
   256
  6
BYLAYER
 49
-0.5
 62
   256
  6
BYLAYER
  0
ACDBPLACEHOLDER
  5
F
102
{ACAD_REACTORS
330
E
102
}
330
E
  0
SCALE
  5
43
102
{ACAD_REACTORS
330
42
102
}
330
42
100
AcDbScale
 70
     0
300
1:1
140
1.0
141
1.0
290
     1
  0
SCALE
  5
44
102
{ACAD_REACTORS
330
42
102
}
330
42
100
AcDbScale
 70
     0
300
1/128" = 1'-0"
140
0.0078125
141
12.0
290
     0
  0
SCALE
  5
45
102
{ACAD_REACTORS
330
42
102
}
330
42
100
AcDbScale
 70
     0
300
1/64" = 1'-0"
140
0.015625
141
12.0
290
     0
  0
SCALE
  5
46
102
{ACAD_REACTORS
330
42
102
}
330
42
100
AcDbScale
 70
     0
300
1/32" = 1'-0"
140
0.03125
141
12.0
290
     0
  0
SCALE
  5
47
102
{ACAD_REACTORS
330
42
102
}
330
42
100
AcDbScale
 70
     0
300
1/16" = 1'-0"
140
0.0625
141
12.0
290
     0
  0
SCALE
  5
48
102
{ACAD_REACTORS
330
42
102
}
330
42
100
AcDbScale
 70
     0
300
3/32" = 1'-0"
140
0.09375
141
12.0
290
     0
  0
SCALE
  5
49
102
{ACAD_REACTORS
330
42
102
}
330
42
100
AcDbScale
 70
     0
300
1/8" = 1'-0"
140
0.125
141
12.0
290
     0
  0
SCALE
  5
4A
102
{ACAD_REACTORS
330
42
102
}
330
42
100
AcDbScale
 70
     0
300
3/16" = 1'-0"
140
0.1875
141
12.0
290
     0
  0
SCALE
  5
4B
102
{ACAD_REACTORS
330
42
102
}
330
42
100
AcDbScale
 70
     0
300
1/4" = 1'-0"
140
0.25
141
12.0
290
     0
  0
SCALE
  5
4C
102
{ACAD_REACTORS
330
42
102
}
330
42
100
AcDbScale
 70
     0
300
3/8" = 1'-0"
140
0.375
141
12.0
290
     0
  0
SCALE
  5
4D
102
{ACAD_REACTORS
330
42
102
}
330
42
100
AcDbScale
 70
     0
300
1/2" = 1'-0"
140
0.5
141
12.0
290
     0
  0
SCALE
  5
4E
102
{ACAD_REACTORS
330
42
102
}
330
42
100
AcDbScale
 70
     0
300
3/4" = 1'-0"
140
0.75
141
12.0
290
     0
  0
SCALE
  5
4F
102
{ACAD_REACTORS
330
42
102
}
330
42
100
AcDbScale
 70
     0
300
1" = 1'-0"
140
1.0
141
12.0
290
     0
  0
SCALE
  5
50
102
{ACAD_REACTORS
330
42
102
}
330
42
100
AcDbScale
 70
     0
300
1-1/2" = 1'-0"
140
1.5
141
12.0
290
     0
  0
SCALE
  5
51
102
{ACAD_REACTORS
330
42
102
}
330
42
100
AcDbScale
 70
     0
300
3" = 1'-0"
140
3.0
141
12.0
290
     0
  0
SCALE
  5
52
102
{ACAD_REACTORS
330
42
102
}
330
42
100
AcDbScale
 70
     0
300
6" = 1'-0"
140
6.0
141
12.0
290
     0
  0
SCALE
  5
53
102
{ACAD_REACTORS
330
42
102
}
330
42
100
AcDbScale
 70
     0
300
1'-0" = 1'-0"
140
12.0
141
12.0
290
     0
  0
ACDBSECTIONVIEWSTYLE
  5
69
102
{ACAD_REACTORS
330
68
102
}
330
68
100
AcDbModelDocViewStyle
 70
     0
  3
Imperial24
290
     1
300
Imperial24
 90
        0
100
AcDbSectionViewStyle
 70
     0
 71
     0
 90
       78
 71
     1
340
55
 62
   256
 40
0.24
340
0
340
0
 62
   256
 40
0.24
300
I, O, Q, S, X, Z
 40
0.48
 90
        3
 40
0.18
 90
        1
 71
     2
340
5D
 90
       25
 62
   256
340
5D
 90
       50
 62
   256
 40
0.24
 40
0.0
 40
0.24
 71
     3
340
55
 62
   256
 40
0.24
 90
        1
 40
0.75
 90
        1
300
%<\AcVar ViewType \f "%tc1">% %<\AcVar ViewSectionStartId>%-%<\AcVar ViewSectionEndId>%\PSCALE %<\AcVar ViewScale \f "%sn">%
 71
     4
 62
   256
 62
   257
300
ANSI31
 40
1.0
 90
        0
290
     0
290
     0
 90
        6
 40
0.0
 40
1.570796326794896
 40
0.2617993877991494
 40
1.308996938995747
 40
-0.2617993877991494
 40
1.832595714594046
  0
TABLESTYLE
  5
65
102
{ACAD_XDICTIONARY
360
A1
102
}
102
{ACAD_REACTORS
330
64
102
}
330
64
100
AcDbTableStyle
280
     0
  3
Standard
 70
     0
 71
     0
 40
0.06
 41
0.06
280
     0
281
     0
  7
Standard
140
0.18
170
     2
 62
     0
 63
     7
283
     0
 90
      512
 91
        0
  1

274
    -2
284
     1
 64
     0
275
    -2
285
     1
 65
     0
276
    -2
286
     1
 66
     0
277
    -2
287
     1
 67
     0
278
    -2
288
     1
 68
     0
279
    -2
289
     1
 69
     0
  7
Standard
140
0.25
170
     5
 62
     0
 63
     7
283
     0
 90
      512
 91
        0
  1

274
    -2
284
     1
 64
     0
275
    -2
285
     1
 65
     0
276
    -2
286
     1
 66
     0
277
    -2
287
     1
 67
     0
278
    -2
288
     1
 68
     0
279
    -2
289
     1
 69
     0
  7
Standard
140
0.18
170
     5
 62
     0
 63
     7
283
     0
 90
      512
 91
        0
  1

274
    -2
284
     1
 64
     0
275
    -2
285
     1
 65
     0
276
    -2
286
     1
 66
     0
277
    -2
287
     1
 67
     0
278
    -2
288
     1
 68
     0
279
    -2
289
     1
 69
     0
  0
VISUALSTYLE
  5
2F
102
{ACAD_REACTORS
330
29
102
}
330
29
100
AcDbVisualStyle
  2
2dWireframe
 70
     4
177
     3
291
     0
 70
    58
 90
        0
176
     1
 90
        2
176
     1
 90
        0
176
     1
 90
        0
176
     1
 40
0.6
176
     1
 40
30.0
176
     1
 62
     7
420
 16777215
176
     1
 90
        1
176
     1
 90
        4
176
     1
 62
     7
176
     1
 62
   257
176
     1
 90
        1
176
     1
 90
        1
176
     1
 40
1.0
176
     1
 90
        0
176
     1
 62
   257
176
     1
 40
1.0
176
     1
 90
        1
176
     1
 90
        6
176
     1
 90
        2
176
     1
 62
     7
176
     1
 90
        5
176
     1
 90
        0
176
     1
 90
        0
176
     1
290
     0
176
     1
 90
        1
176
     1
 40
0.0
176
     1
 90
        0
176
     1
290
     1
176
     1
290
     1
176
     1
290
     0
176
     1
290
     0
176
     1
290
     0
176
     1
290
     0
176
     1
290
     0
176
     1
290
     0
176
     1
290
     0
176
     1
 90
       50
176
     1
 40
0.0
176
     1
 40
1.0
176
     1
 90
        0
176
     1
 62
    18
420
        0
176
     1
 90
       50
176
     1
 90
        3
176
     1
 62
     5
420
      255
176
     1
290
     0
176
     1
 90
       50
176
     1
 90
       50
176
     1
 90
       50
176
     1
290
     0
176
     1
 90
       50
176
     1
 62
   256
176
     0
 40
1.0
176
     0
 90
        2
176
     1
  1
strokes_ogs.tif
176
     1
290
     0
176
     1
 40
1.0
176
     1
 40
1.0
176
     1
  0
VISUALSTYLE
  5
2E
102
{ACAD_REACTORS
330
29
102
}
330
29
100
AcDbVisualStyle
  2
Basic
 70
     7
177
     3
291
     1
 70
    58
 90
        1
176
     1
 90
        0
176
     1
 90
        1
176
     1
 90
        0
176
     1
 40
0.6
176
     1
 40
30.0
176
     1
 62
     7
420
 16777215
176
     1
 90
        0
176
     1
 90
        4
176
     1
 62
     7
176
     1
 62
   257
176
     1
 90
        1
176
     1
 90
        1
176
     1
 40
1.0
176
     1
 90
        8
176
     1
 62
     7
176
     1
 40
1.0
176
     1
 90
        1
176
     1
 90
        6
176
     1
 90
        2
176
     1
 62
     7
176
     1
 90
        5
176
     1
 90
        0
176
     1
 90
        0
176
     1
290
     0
176
     1
 90
        1
176
     1
 40
0.0
176
     1
 90
        0
176
     1
290
     0
176
     1
290
     1
176
     1
290
     1
176
     1
290
     0
176
     1
290
     0
176
     1
290
     0
176
     1
290
     0
176
     1
290
     0
176
     1
290
     0
176
     1
 90
       50
176
     1
 40
0.0
176
     1
 40
1.0
176
     1
 90
        0
176
     1
 62
    18
420
        0
176
     1
 90
       50
176
     1
 90
        3
176
     1
 62
     5
420
      255
176
     1
290
     0
176
     1
 90
       50
176
     1
 90
       50
176
     1
 90
       50
176
     1
290
     0
176
     1
 90
       50
176
     1
 62
   256
176
     0
 40
1.0
176
     0
 90
        2
176
     1
  1
strokes_ogs.tif
176
     1
290
     0
176
     1
 40
1.0
176
     1
 40
1.0
176
     1
  0
VISUALSTYLE
  5
35
102
{ACAD_REACTORS
330
29
102
}
330
29
100
AcDbVisualStyle
  2
Brighten
 70
    12
177
     3
291
     1
 70
    58
 90
        2
176
     1
 90
        2
176
     1
 90
        0
176
     1
 90
        0
176
     1
 40
0.6
176
     1
 40
30.0
176
     1
 62
     7
420
 16777215
176
     1
 90
        1
176
     1
 90
        4
176
     1
 62
     7
176
     1
 62
   257
176
     1
 90
        1
176
     1
 90
        1
176
     1
 40
1.0
176
     1
 90
        8
176
     1
 62
     7
176
     1
 40
1.0
176
     1
 90
        1
176
     1
 90
        6
176
     1
 90
        2
176
     1
 62
     7
176
     1
 90
        5
176
     1
 90
        0
176
     1
 90
        0
176
     1
290
     0
176
     1
 90
        1
176
     1
 40
50.0
176
     1
 90
        0
176
     1
290
     0
176
     1
290
     1
176
     1
290
     1
176
     1
290
     0
176
     1
290
     0
176
     1
290
     0
176
     1
290
     0
176
     1
290
     0
176
     1
290
     0
176
     1
 90
       50
176
     1
 40
0.0
176
     1
 40
1.0
176
     1
 90
        0
176
     1
 62
    18
420
        0
176
     1
 90
       50
176
     1
 90
        3
176
     1
 62
     5
420
      255
176
     1
290
     0
176
     1
 90
       50
176
     1
 90
       50
176
     1
 90
       50
176
     1
290
     0
176
     1
 90
       50
176
     1
 62
   256
176
     0
 40
1.0
176
     0
 90
        2
176
     1
  1
strokes_ogs.tif
176
     1
290
     0
176
     1
 40
1.0
176
     1
 40
1.0
176
     1
  0
VISUALSTYLE
  5
39
102
{ACAD_REACTORS
330
29
102
}
330
29
100
AcDbVisualStyle
  2
ColorChange
 70
    16
177
     3
291
     1
 70
    58
 90
        2
176
     1
 90
        2
176
     1
 90
        3
176
     1
 90
        0
176
     1
 40
0.6
176
     1
 40
30.0
176
     1
 62
     8
420
  8421504
176
     1
 90
        1
176
     1
 90
        4
176
     1
 62
     7
176
     1
 62
   257
176
     1
 90
        1
176
     1
 90
        1
176
     1
 40
1.0
176
     1
 90
        8
176
     1
 62
     8
420
  8421504
176
     1
 40
1.0
176
     1
 90
        1
176
     1
 90
        6
176
     1
 90
        2
176
     1
 62
     7
176
     1
 90
        5
176
     1
 90
        0
176
     1
 90
        0
176
     1
290
     0
176
     1
 90
        1
176
     1
 40
0.0
176
     1
 90
        0
176
     1
290
     0
176
     1
290
     1
176
     1
290
     1
176
     1
290
     0
176
     1
290
     0
176
     1
290
     0
176
     1
290
     0
176
     1
290
     0
176
     1
290
     0
176
     1
 90
       50
176
     1
 40
0.0
176
     1
 40
1.0
176
     1
 90
        0
176
     1
 62
    18
420
        0
176
     1
 90
       50
176
     1
 90
        3
176
     1
 62
     5
420
      255
176
     1
290
     0
176
     1
 90
       50
176
     1
 90
       50
176
     1
 90
       50
176
     1
290
     0
176
     1
 90
       50
176
     1
 62
   256
176
     0
 40
1.0
176
     0
 90
        2
176
     1
  1
strokes_ogs.tif
176
     1
290
     0
176
     1
 40
1.0
176
     1
 40
1.0
176
     1
  0
VISUALSTYLE
  5
32
102
{ACAD_REACTORS
330
29
102
}
330
29
100
AcDbVisualStyle
  2
Conceptual
 70
     9
177
     3
291
     0
 70
    58
 90
        3
176
     1
 90
        2
176
     1
 90
        0
176
     1
 90
        0
176
     1
 40
0.6
176
     1
 40
30.0
176
     1
 62
     7
420
 16777215
176
     1
 90
        2
176
     1
 90
        2
176
     1
 62
     7
176
     1
 62
   257
176
     1
 90
        1
176
     1
 90
        1
176
     1
 40
179.0
176
     1
 90
        8
176
     1
 62
     7
176
     1
 40
1.0
176
     1
 90
        1
176
     1
 90
        6
176
     1
 90
        2
176
     1
 62
     7
176
     1
 90
        3
176
     1
 90
        0
176
     1
 90
        0
176
     1
290
     0
176
     1
 90
        1
176
     1
 40
0.0
176
     1
 90
        0
176
     1
290
     0
176
     1
290
     1
176
     1
290
     1
176
     1
290
     0
176
     1
290
     0
176
     1
290
     0
176
     1
290
     0
176
     1
290
     0
176
     1
290
     0
176
     1
 90
       50
176
     1
 40
0.0
176
     1
 40
1.0
176
     1
 90
        0
176
     1
 62
    18
420
        0
176
     1
 90
       50
176
     1
 90
        3
176
     1
 62
     5
420
      255
176
     1
290
     0
176
     1
 90
       50
176
     1
 90
       50
176
     1
 90
       50
176
     1
290
     0
176
     1
 90
       50
176
     1
 62
   256
176
     0
 40
1.0
176
     0
 90
        2
176
     1
  1
strokes_ogs.tif
176
     1
290
     0
176
     1
 40
1.0
176
     1
 40
1.0
176
     1
  0
VISUALSTYLE
  5
34
102
{ACAD_REACTORS
330
29
102
}
330
29
100
AcDbVisualStyle
  2
Dim
 70
    11
177
     3
291
     1
 70
    58
 90
        2
176
     1
 90
        2
176
     1
 90
        0
176
     1
 90
        0
176
     1
 40
0.6
176
     1
 40
30.0
176
     1
 62
     7
420
 16777215
176
     1
 90
        1
176
     1
 90
        4
176
     1
 62
     7
176
     1
 62
   257
176
     1
 90
        1
176
     1
 90
        1
176
     1
 40
1.0
176
     1
 90
        8
176
     1
 62
     7
176
     1
 40
1.0
176
     1
 90
        1
176
     1
 90
        6
176
     1
 90
        2
176
     1
 62
     7
176
     1
 90
        5
176
     1
 90
        0
176
     1
 90
        0
176
     1
290
     0
176
     1
 90
        1
176
     1
 40
-50.0
176
     1
 90
        0
176
     1
290
     0
176
     1
290
     1
176
     1
290
     1
176
     1
290
     0
176
     1
290
     0
176
     1
290
     0
176
     1
290
     0
176
     1
290
     0
176
     1
290
     0
176
     1
 90
       50
176
     1
 40
0.0
176
     1
 40
1.0
176
     1
 90
        0
176
     1
 62
    18
420
        0
176
     1
 90
       50
176
     1
 90
        3
176
     1
 62
     5
420
      255
176
     1
290
     0
176
     1
 90
       50
176
     1
 90
       50
176
     1
 90
       50
176
     1
290
     0
176
     1
 90
       50
176
     1
 62
   256
176
     0
 40
1.0
176
     0
 90
        2
176
     1
  1
strokes_ogs.tif
176
     1
290
     0
176
     1
 40
1.0
176
     1
 40
1.0
176
     1
  0
VISUALSTYLE
  5
41
102
{ACAD_REACTORS
330
29
102
}
330
29
100
AcDbVisualStyle
  2
EdgeColorOff
 70
    22
177
     3
291
     1
 70
    58
 90
        2
176
     0
 90
        2
176
     0
 90
        0
176
     0
 90
        0
176
     0
 40
0.6
176
     0
 40
30.0
176
     0
 62
     7
420
 16777215
176
     0
 90
        1
176
     0
 90
        4
176
     0
 62
     7
176
     0
 62
   257
176
     0
 90
        1
176
     0
 90
        1
176
     0
 40
1.0
176
     0
 90
        8
176
     2
 62
     7
176
     0
 40
1.0
176
     0
 90
        1
176
     0
 90
        6
176
     0
 90
        2
176
     0
 62
     7
176
     0
 90
        5
176
     0
 90
        0
176
     0
 90
        0
176
     0
290
     0
176
     0
 90
        1
176
     0
 40
0.0
176
     0
 90
        0
176
     0
290
     0
176
     0
290
     1
176
     0
290
     1
176
     0
290
     0
176
     0
290
     0
176
     0
290
     0
176
     0
290
     0
176
     0
290
     0
176
     0
290
     0
176
     0
 90
       50
176
     0
 40
0.0
176
     0
 40
1.0
176
     0
 90
        0
176
     0
 62
    18
420
        0
176
     0
 90
       50
176
     0
 90
        3
176
     0
 62
     5
420
      255
176
     0
290
     0
176
     0
 90
       50
176
     0
 90
       50
176
     0
 90
       50
176
     0
290
     0
176
     0
 90
       50
176
     0
 62
   256
176
     0
 40
1.0
176
     0
 90
        2
176
     0
  1
strokes_ogs.tif
176
     0
290
     0
176
     0
 40
1.0
176
     0
 40
1.0
176
     0
  0
VISUALSTYLE
  5
38
102
{ACAD_REACTORS
330
29
102
}
330
29
100
AcDbVisualStyle
  2
Facepattern
 70
    15
177
     3
291
     1
 70
    58
 90
        2
176
     1
 90
        2
176
     1
 90
        0
176
     1
 90
        0
176
     1
 40
0.6
176
     1
 40
30.0
176
     1
 62
     7
420
 16777215
176
     1
 90
        1
176
     1
 90
        4
176
     1
 62
     7
176
     1
 62
   257
176
     1
 90
        1
176
     1
 90
        1
176
     1
 40
1.0
176
     1
 90
        8
176
     1
 62
     7
176
     1
 40
1.0
176
     1
 90
        1
176
     1
 90
        6
176
     1
 90
        2
176
     1
 62
     7
176
     1
 90
        5
176
     1
 90
        0
176
     1
 90
        0
176
     1
290
     0
176
     1
 90
        1
176
     1
 40
0.0
176
     1
 90
        0
176
     1
290
     0
176
     1
290
     1
176
     1
290
     1
176
     1
290
     0
176
     1
290
     0
176
     1
290
     0
176
     1
290
     0
176
     1
290
     0
176
     1
290
     0
176
     1
 90
       50
176
     1
 40
0.0
176
     1
 40
1.0
176
     1
 90
        0
176
     1
 62
    18
420
        0
176
     1
 90
       50
176
     1
 90
        3
176
     1
 62
     5
420
      255
176
     1
290
     0
176
     1
 90
       50
176
     1
 90
       50
176
     1
 90
       50
176
     1
290
     0
176
     1
 90
       50
176
     1
 62
   256
176
     0
 40
1.0
176
     0
 90
        2
176
     1
  1
strokes_ogs.tif
176
     1
290
     0
176
     1
 40
1.0
176
     1
 40
1.0
176
     1
  0
VISUALSTYLE
  5
2A
102
{ACAD_REACTORS
330
29
102
}
330
29
100
AcDbVisualStyle
  2
Flat
 70
     0
177
     3
291
     1
 70
    58
 90
        2
176
     1
 90
        1
176
     1
 90
        1
176
     1
 90
        2
176
     1
 40
0.6
176
     1
 40
30.0
176
     1
 62
     7
420
 16777215
176
     1
 90
        0
176
     1
 90
        0
176
     1
 62
     7
176
     1
 62
   257
176
     1
 90
        1
176
     1
 90
        1
176
     1
 40
1.0
176
     1
 90
        8
176
     1
 62
     7
176
     1
 40
1.0
176
     1
 90
        1
176
     1
 90
        6
176
     1
 90
        2
176
     1
 62
     7
176
     1
 90
        5
176
     1
 90
        0
176
     1
 90
        0
176
     1
290
     0
176
     1
 90
       13
176
     1
 40
0.0
176
     1
 90
        0
176
     1
290
     0
176
     1
290
     1
176
     1
290
     1
176
     1
290
     0
176
     1
290
     0
176
     1
290
     0
176
     1
290
     0
176
     1
290
     0
176
     1
290
     0
176
     1
 90
       50
176
     1
 40
0.0
176
     1
 40
1.0
176
     1
 90
        0
176
     1
 62
    18
420
        0
176
     1
 90
       50
176
     1
 90
        3
176
     1
 62
     5
420
      255
176
     1
290
     0
176
     1
 90
       50
176
     1
 90
       50
176
     1
 90
       50
176
     1
290
     0
176
     1
 90
       50
176
     1
 62
   256
176
     0
 40
1.0
176
     0
 90
        2
176
     1
  1
strokes_ogs.tif
176
     1
290
     0
176
     1
 40
1.0
176
     1
 40
1.0
176
     1
  0
VISUALSTYLE
  5
2B
102
{ACAD_REACTORS
330
29
102
}
330
29
100
AcDbVisualStyle
  2
FlatWithEdges
 70
     1
177
     3
291
     1
 70
    58
 90
        2
176
     1
 90
        1
176
     1
 90
        1
176
     1
 90
        2
176
     1
 40
0.6
176
     1
 40
30.0
176
     1
 62
     7
420
 16777215
176
     1
 90
        1
176
     1
 90
        0
176
     1
 62
     7
176
     1
 62
   257
176
     1
 90
        1
176
     1
 90
        1
176
     1
 40
1.0
176
     1
 90
        0
176
     1
 62
   257
176
     1
 40
1.0
176
     1
 90
        1
176
     1
 90
        6
176
     1
 90
        2
176
     1
 62
     7
176
     1
 90
        5
176
     1
 90
        0
176
     1
 90
        0
176
     1
290
     0
176
     1
 90
       13
176
     1
 40
0.0
176
     1
 90
        0
176
     1
290
     0
176
     1
290
     1
176
     1
290
     1
176
     1
290
     0
176
     1
290
     0
176
     1
290
     0
176
     1
290
     0
176
     1
290
     0
176
     1
290
     0
176
     1
 90
       50
176
     1
 40
0.0
176
     1
 40
1.0
176
     1
 90
        0
176
     1
 62
    18
420
        0
176
     1
 90
       50
176
     1
 90
        3
176
     1
 62
     5
420
      255
176
     1
290
     0
176
     1
 90
       50
176
     1
 90
       50
176
     1
 90
       50
176
     1
290
     0
176
     1
 90
       50
176
     1
 62
   256
176
     0
 40
1.0
176
     0
 90
        2
176
     1
  1
strokes_ogs.tif
176
     1
290
     0
176
     1
 40
1.0
176
     1
 40
1.0
176
     1
  0
VISUALSTYLE
  5
2C
102
{ACAD_REACTORS
330
29
102
}
330
29
100
AcDbVisualStyle
  2
Gouraud
 70
     2
177
     3
291
     1
 70
    58
 90
        2
176
     1
 90
        2
176
     1
 90
        1
176
     1
 90
        2
176
     1
 40
0.6
176
     1
 40
30.0
176
     1
 62
     7
420
 16777215
176
     1
 90
        0
176
     1
 90
        0
176
     1
 62
     7
176
     1
 62
   257
176
     1
 90
        1
176
     1
 90
        1
176
     1
 40
1.0
176
     1
 90
        0
176
     1
 62
     7
176
     1
 40
1.0
176
     1
 90
        1
176
     1
 90
        6
176
     1
 90
        2
176
     1
 62
     7
176
     1
 90
        5
176
     1
 90
        0
176
     1
 90
        0
176
     1
290
     0
176
     1
 90
       13
176
     1
 40
0.0
176
     1
 90
        0
176
     1
290
     0
176
     1
290
     1
176
     1
290
     1
176
     1
290
     0
176
     1
290
     0
176
     1
290
     0
176
     1
290
     0
176
     1
290
     0
176
     1
290
     0
176
     1
 90
       50
176
     1
 40
0.0
176
     1
 40
1.0
176
     1
 90
        0
176
     1
 62
    18
420
        0
176
     1
 90
       50
176
     1
 90
        3
176
     1
 62
     5
420
      255
176
     1
290
     0
176
     1
 90
       50
176
     1
 90
       50
176
     1
 90
       50
176
     1
290
     0
176
     1
 90
       50
176
     1
 62
   256
176
     0
 40
1.0
176
     0
 90
        2
176
     1
  1
strokes_ogs.tif
176
     1
290
     0
176
     1
 40
1.0
176
     1
 40
1.0
176
     1
  0
VISUALSTYLE
  5
2D
102
{ACAD_REACTORS
330
29
102
}
330
29
100
AcDbVisualStyle
  2
GouraudWithEdges
 70
     3
177
     3
291
     1
 70
    58
 90
        2
176
     1
 90
        2
176
     1
 90
        1
176
     1
 90
        2
176
     1
 40
0.6
176
     1
 40
30.0
176
     1
 62
     7
420
 16777215
176
     1
 90
        1
176
     1
 90
        0
176
     1
 62
     7
176
     1
 62
   257
176
     1
 90
        1
176
     1
 90
        1
176
     1
 40
1.0
176
     1
 90
        0
176
     1
 62
   257
176
     1
 40
1.0
176
     1
 90
        1
176
     1
 90
        6
176
     1
 90
        2
176
     1
 62
     7
176
     1
 90
        5
176
     1
 90
        0
176
     1
 90
        0
176
     1
290
     0
176
     1
 90
       13
176
     1
 40
0.0
176
     1
 90
        0
176
     1
290
     0
176
     1
290
     1
176
     1
290
     1
176
     1
290
     0
176
     1
290
     0
176
     1
290
     0
176
     1
290
     0
176
     1
290
     0
176
     1
290
     0
176
     1
 90
       50
176
     1
 40
0.0
176
     1
 40
1.0
176
     1
 90
        0
176
     1
 62
    18
420
        0
176
     1
 90
       50
176
     1
 90
        3
176
     1
 62
     5
420
      255
176
     1
290
     0
176
     1
 90
       50
176
     1
 90
       50
176
     1
 90
       50
176
     1
290
     0
176
     1
 90
       50
176
     1
 62
   256
176
     0
 40
1.0
176
     0
 90
        2
176
     1
  1
strokes_ogs.tif
176
     1
290
     0
176
     1
 40
1.0
176
     1
 40
1.0
176
     1
  0
VISUALSTYLE
  5
31
102
{ACAD_REACTORS
330
29
102
}
330
29
100
AcDbVisualStyle
  2
Hidden
 70
     6
177
     3
291
     0
 70
    58
 90
        1
176
     1
 90
        2
176
     1
 90
        2
176
     1
 90
        0
176
     1
 40
0.6
176
     1
 40
30.0
176
     1
 62
     7
420
 16777215
176
     1
 90
        2
176
     1
 90
        2
176
     1
 62
     7
176
     1
 62
   257
176
     1
 90
        2
176
     1
 90
        1
176
     1
 40
40.0
176
     1
 90
        0
176
     1
 62
   257
176
     1
 40
1.0
176
     1
 90
        1
176
     1
 90
        6
176
     1
 90
        2
176
     1
 62
     7
176
     1
 90
        3
176
     1
 90
        0
176
     1
 90
        0
176
     1
290
     0
176
     1
 90
        1
176
     1
 40
0.0
176
     1
 90
        0
176
     1
290
     0
176
     1
290
     1
176
     1
290
     1
176
     1
290
     0
176
     1
290
     0
176
     1
290
     0
176
     1
290
     0
176
     1
290
     0
176
     1
290
     0
176
     1
 90
       50
176
     1
 40
0.0
176
     1
 40
1.0
176
     1
 90
        0
176
     1
 62
    18
420
        0
176
     1
 90
       50
176
     1
 90
        3
176
     1
 62
     5
420
      255
176
     1
290
     0
176
     1
 90
       50
176
     1
 90
       50
176
     1
 90
       50
176
     1
290
     0
176
     1
 90
       50
176
     1
 62
   256
176
     0
 40
1.0
176
     0
 90
        2
176
     1
  1
strokes_ogs.tif
176
     1
290
     0
176
     1
 40
1.0
176
     1
 40
1.0
176
     1
  0
VISUALSTYLE
  5
3F
102
{ACAD_REACTORS
330
29
102
}
330
29
100
AcDbVisualStyle
  2
JitterOff
 70
    20
177
     3
291
     1
 70
    58
 90
        2
176
     0
 90
        2
176
     0
 90
        0
176
     0
 90
        0
176
     0
 40
0.6
176
     0
 40
30.0
176
     0
 62
     7
420
 16777215
176
     0
 90
        1
176
     0
 90
        4
176
     0
 62
     7
176
     0
 62
   257
176
     0
 90
        1
176
     0
 90
        1
176
     0
 40
1.0
176
     0
 90
       10
176
     2
 62
     7
176
     0
 40
1.0
176
     0
 90
        1
176
     0
 90
        6
176
     0
 90
        2
176
     0
 62
     7
176
     0
 90
        5
176
     0
 90
        0
176
     0
 90
        0
176
     0
290
     0
176
     0
 90
        1
176
     0
 40
0.0
176
     0
 90
        0
176
     0
290
     0
176
     0
290
     1
176
     0
290
     1
176
     0
290
     0
176
     0
290
     0
176
     0
290
     0
176
     0
290
     0
176
     0
290
     0
176
     0
290
     0
176
     0
 90
       50
176
     0
 40
0.0
176
     0
 40
1.0
176
     0
 90
        0
176
     0
 62
    18
420
        0
176
     0
 90
       50
176
     0
 90
        3
176
     0
 62
     5
420
      255
176
     0
290
     0
176
     0
 90
       50
176
     0
 90
       50
176
     0
 90
       50
176
     0
290
     0
176
     0
 90
       50
176
     0
 62
   256
176
     0
 40
1.0
176
     0
 90
        2
176
     0
  1
strokes_ogs.tif
176
     0
290
     0
176
     0
 40
1.0
176
     0
 40
1.0
176
     0
  0
VISUALSTYLE
  5
37
102
{ACAD_REACTORS
330
29
102
}
330
29
100
AcDbVisualStyle
  2
Linepattern
 70
    14
177
     3
291
     1
 70
    58
 90
        2
176
     1
 90
        2
176
     1
 90
        0
176
     1
 90
        0
176
     1
 40
0.6
176
     1
 40
30.0
176
     1
 62
     7
420
 16777215
176
     1
 90
        1
176
     1
 90
        4
176
     1
 62
     7
176
     1
 62
   257
176
     1
 90
        7
176
     1
 90
        7
176
     1
 40
1.0
176
     1
 90
        8
176
     1
 62
     7
176
     1
 40
1.0
176
     1
 90
        1
176
     1
 90
        6
176
     1
 90
        2
176
     1
 62
     7
176
     1
 90
        5
176
     1
 90
        0
176
     1
 90
        0
176
     1
290
     0
176
     1
 90
        1
176
     1
 40
0.0
176
     1
 90
        0
176
     1
290
     0
176
     1
290
     1
176
     1
290
     1
176
     1
290
     0
176
     1
290
     0
176
     1
290
     0
176
     1
290
     0
176
     1
290
     0
176
     1
290
     0
176
     1
 90
       50
176
     1
 40
0.0
176
     1
 40
1.0
176
     1
 90
        0
176
     1
 62
    18
420
        0
176
     1
 90
       50
176
     1
 90
        3
176
     1
 62
     5
420
      255
176
     1
290
     0
176
     1
 90
       50
176
     1
 90
       50
176
     1
 90
       50
176
     1
290
     0
176
     1
 90
       50
176
     1
 62
   256
176
     0
 40
1.0
176
     0
 90
        2
176
     1
  1
strokes_ogs.tif
176
     1
290
     0
176
     1
 40
1.0
176
     1
 40
1.0
176
     1
  0
VISUALSTYLE
  5
40
102
{ACAD_REACTORS
330
29
102
}
330
29
100
AcDbVisualStyle
  2
OverhangOff
 70
    21
177
     3
291
     1
 70
    58
 90
        2
176
     0
 90
        2
176
     0
 90
        0
176
     0
 90
        0
176
     0
 40
0.6
176
     0
 40
30.0
176
     0
 62
     7
420
 16777215
176
     0
 90
        1
176
     0
 90
        4
176
     0
 62
     7
176
     0
 62
   257
176
     0
 90
        1
176
     0
 90
        1
176
     0
 40
1.0
176
     0
 90
        9
176
     2
 62
     7
176
     0
 40
1.0
176
     0
 90
        1
176
     0
 90
        6
176
     0
 90
        2
176
     0
 62
     7
176
     0
 90
        5
176
     0
 90
        0
176
     0
 90
        0
176
     0
290
     0
176
     0
 90
        1
176
     0
 40
0.0
176
     0
 90
        0
176
     0
290
     0
176
     0
290
     1
176
     0
290
     1
176
     0
290
     0
176
     0
290
     0
176
     0
290
     0
176
     0
290
     0
176
     0
290
     0
176
     0
290
     0
176
     0
 90
       50
176
     0
 40
0.0
176
     0
 40
1.0
176
     0
 90
        0
176
     0
 62
    18
420
        0
176
     0
 90
       50
176
     0
 90
        3
176
     0
 62
     5
420
      255
176
     0
290
     0
176
     0
 90
       50
176
     0
 90
       50
176
     0
 90
       50
176
     0
290
     0
176
     0
 90
       50
176
     0
 62
   256
176
     0
 40
1.0
176
     0
 90
        2
176
     0
  1
strokes_ogs.tif
176
     0
290
     0
176
     0
 40
1.0
176
     0
 40
1.0
176
     0
  0
VISUALSTYLE
  5
33
102
{ACAD_REACTORS
330
29
102
}
330
29
100
AcDbVisualStyle
  2
Realistic
 70
     8
177
     3
291
     0
 70
    58
 90
        2
176
     1
 90
        3
176
     1
 90
        0
176
     1
 90
        2
176
     1
 40
0.6
176
     1
 40
30.0
176
     1
 62
     7
420
 16777215
176
     1
 90
        0
176
     1
 90
        0
176
     1
 62
     7
176
     1
 62
   257
176
     1
 90
        1
176
     1
 90
        1
176
     1
 40
1.0
176
     1
 90
        8
176
     1
 62
   257
176
     1
 40
1.0
176
     1
 90
        1
176
     1
 90
        6
176
     1
 90
        2
176
     1
 62
     7
176
     1
 90
        3
176
     1
 90
        0
176
     1
 90
        0
176
     1
290
     0
176
     1
 90
       13
176
     1
 40
0.0
176
     1
 90
        0
176
     1
290
     0
176
     1
290
     1
176
     1
290
     1
176
     1
290
     0
176
     1
290
     0
176
     1
290
     0
176
     1
290
     0
176
     1
290
     0
176
     1
290
     0
176
     1
 90
       50
176
     1
 40
0.0
176
     1
 40
1.0
176
     1
 90
        0
176
     1
 62
    18
420
        0
176
     1
 90
       50
176
     1
 90
        3
176
     1
 62
     5
420
      255
176
     1
290
     0
176
     1
 90
       50
176
     1
 90
       50
176
     1
 90
       50
176
     1
290
     0
176
     1
 90
       50
176
     1
 62
   256
176
     0
 40
1.0
176
     0
 90
        2
176
     1
  1
strokes_ogs.tif
176
     1
290
     0
176
     1
 40
1.0
176
     1
 40
1.0
176
     1
  0
VISUALSTYLE
  5
3E
102
{ACAD_REACTORS
330
29
102
}
330
29
100
AcDbVisualStyle
  2
Shaded
 70
    27
177
     3
291
     0
 70
    58
 90
        2
176
     1
 90
        2
176
     1
 90
        1
176
     1
 90
        2
176
     1
 40
0.6
176
     1
 40
30.0
176
     1
 62
     7
420
 16777215
176
     1
 90
        0
176
     1
 90
        4
176
     1
 62
     7
176
     1
 62
   257
176
     1
 90
        1
176
     1
 90
        1
176
     1
 40
1.0
176
     1
 90
        8
176
     1
 62
   257
176
     1
 40
1.0
176
     1
 90
        1
176
     1
 90
        6
176
     1
 90
        2
176
     1
 62
     8
420
  7895160
176
     1
 90
        3
176
     1
 90
        0
176
     1
 90
        0
176
     1
290
     0
176
     1
 90
        5
176
     1
 40
0.0
176
     1
 90
        0
176
     1
290
     0
176
     1
290
     1
176
     1
290
     1
176
     1
290
     0
176
     1
290
     0
176
     1
290
     0
176
     1
290
     0
176
     1
290
     0
176
     1
290
     0
176
     1
 90
       50
176
     1
 40
0.0
176
     1
 40
1.0
176
     1
 90
        0
176
     1
 62
    18
420
        0
176
     1
 90
       50
176
     1
 90
        3
176
     1
 62
     5
420
      255
176
     1
290
     0
176
     1
 90
       50
176
     1
 90
       50
176
     1
 90
       50
176
     1
290
     0
176
     1
 90
       50
176
     1
 62
   256
176
     0
 40
1.0
176
     0
 90
        2
176
     1
  1
strokes_ogs.tif
176
     1
290
     0
176
     1
 40
1.0
176
     1
 40
1.0
176
     1
  0
VISUALSTYLE
  5
3D
102
{ACAD_REACTORS
330
29
102
}
330
29
100
AcDbVisualStyle
  2
Shaded with edges
 70
    26
177
     3
291
     0
 70
    58
 90
        2
176
     1
 90
        2
176
     1
 90
        1
176
     1
 90
        2
176
     1
 40
0.6
176
     1
 40
30.0
176
     1
 62
     7
420
 16777215
176
     1
 90
        1
176
     1
 90
        2
176
     1
 62
     7
176
     1
 62
   257
176
     1
 90
        2
176
     1
 90
        1
176
     1
 40
1.0
176
     1
 90
        8
176
     1
 62
   257
176
     1
 40
1.0
176
     1
 90
        1
176
     1
 90
        6
176
     1
 90
        2
176
     1
 62
     7
176
     1
 90
        3
176
     1
 90
        0
176
     1
 90
        0
176
     1
290
     0
176
     1
 90
        5
176
     1
 40
0.0
176
     1
 90
        0
176
     1
290
     0
176
     1
290
     1
176
     1
290
     1
176
     1
290
     0
176
     1
290
     0
176
     1
290
     0
176
     1
290
     0
176
     1
290
     0
176
     1
290
     0
176
     1
 90
       50
176
     1
 40
0.0
176
     1
 40
1.0
176
     1
 90
        0
176
     1
 62
    18
420
        0
176
     1
 90
       50
176
     1
 90
        3
176
     1
 62
     5
420
      255
176
     1
290
     0
176
     1
 90
       50
176
     1
 90
       50
176
     1
 90
       50
176
     1
290
     0
176
     1
 90
       50
176
     1
 62
   256
176
     0
 40
1.0
176
     0
 90
        2
176
     1
  1
strokes_ogs.tif
176
     1
290
     0
176
     1
 40
1.0
176
     1
 40
1.0
176
     1
  0
VISUALSTYLE
  5
3A
102
{ACAD_REACTORS
330
29
102
}
330
29
100
AcDbVisualStyle
  2
Shades of Gray
 70
    23
177
     3
291
     0
 70
    58
 90
        2
176
     1
 90
        2
176
     1
 90
        3
176
     1
 90
        0
176
     1
 40
0.6
176
     1
 40
30.0
176
     1
 62
     7
420
 16777215
176
     1
 90
        2
176
     1
 90
        2
176
     1
 62
     7
176
     1
 62
     7
176
     1
 90
        1
176
     1
 90
        1
176
     1
 40
40.0
176
     1
 90
        8
176
     1
 62
     7
176
     1
 40
1.0
176
     1
 90
        1
176
     1
 90
        6
176
     1
 90
        2
176
     1
 62
     7
176
     1
 90
        3
176
     1
 90
        0
176
     1
 90
        0
176
     1
290
     0
176
     1
 90
        1
176
     1
 40
0.0
176
     1
 90
        0
176
     1
290
     0
176
     1
290
     1
176
     1
290
     1
176
     1
290
     0
176
     1
290
     0
176
     1
290
     0
176
     1
290
     0
176
     1
290
     0
176
     1
290
     0
176
     1
 90
       50
176
     1
 40
0.0
176
     1
 40
1.0
176
     1
 90
        0
176
     1
 62
    18
420
        0
176
     1
 90
       50
176
     1
 90
        3
176
     1
 62
     5
420
      255
176
     1
290
     0
176
     1
 90
       50
176
     1
 90
       50
176
     1
 90
       50
176
     1
290
     0
176
     1
 90
       50
176
     1
 62
   256
176
     0
 40
1.0
176
     0
 90
        2
176
     1
  1
strokes_ogs.tif
176
     1
290
     0
176
     1
 40
1.0
176
     1
 40
1.0
176
     1
  0
VISUALSTYLE
  5
3B
102
{ACAD_REACTORS
330
29
102
}
330
29
100
AcDbVisualStyle
  2
Sketchy
 70
    24
177
     3
291
     0
 70
    58
 90
        1
176
     1
 90
        2
176
     1
 90
        2
176
     1
 90
        0
176
     1
 40
0.6
176
     1
 40
30.0
176
     1
 62
     7
420
 16777215
176
     1
 90
        2
176
     1
 90
        2
176
     1
 62
     7
176
     1
 62
     7
176
     1
 90
        1
176
     1
 90
        1
176
     1
 40
40.0
176
     1
 90
       11
176
     1
 62
     7
176
     1
 40
1.0
176
     1
 90
        1
176
     1
 90
        6
176
     1
 90
        2
176
     1
 62
     7
176
     1
 90
        6
176
     1
 90
        0
176
     1
 90
        0
176
     1
290
     0
176
     1
 90
        1
176
     1
 40
0.0
176
     1
 90
        0
176
     1
290
     0
176
     1
290
     1
176
     1
290
     1
176
     1
290
     0
176
     1
290
     0
176
     1
290
     0
176
     1
290
     0
176
     1
290
     0
176
     1
290
     0
176
     1
 90
       50
176
     1
 40
0.0
176
     1
 40
1.0
176
     1
 90
        0
176
     1
 62
    18
420
        0
176
     1
 90
       50
176
     1
 90
        3
176
     1
 62
     5
420
      255
176
     1
290
     0
176
     1
 90
       50
176
     1
 90
       50
176
     1
 90
       50
176
     1
290
     0
176
     1
 90
       50
176
     1
 62
   256
176
     0
 40
1.0
176
     0
 90
        2
176
     1
  1
strokes_ogs.tif
176
     1
290
     0
176
     1
 40
1.0
176
     1
 40
1.0
176
     1
  0
VISUALSTYLE
  5
36
102
{ACAD_REACTORS
330
29
102
}
330
29
100
AcDbVisualStyle
  2
Thicken
 70
    13
177
     3
291
     1
 70
    58
 90
        2
176
     1
 90
        2
176
     1
 90
        0
176
     1
 90
        0
176
     1
 40
0.6
176
     1
 40
30.0
176
     1
 62
     7
420
 16777215
176
     1
 90
        1
176
     1
 90
        4
176
     1
 62
     7
176
     1
 62
   257
176
     1
 90
        1
176
     1
 90
        1
176
     1
 40
1.0
176
     1
 90
       12
176
     1
 62
     7
176
     1
 40
1.0
176
     1
 90
        1
176
     1
 90
        6
176
     1
 90
        2
176
     1
 62
     7
176
     1
 90
        5
176
     1
 90
        0
176
     1
 90
        0
176
     1
290
     0
176
     1
 90
        1
176
     1
 40
0.0
176
     1
 90
        0
176
     1
290
     0
176
     1
290
     1
176
     1
290
     1
176
     1
290
     0
176
     1
290
     0
176
     1
290
     0
176
     1
290
     0
176
     1
290
     0
176
     1
290
     0
176
     1
 90
       50
176
     1
 40
0.0
176
     1
 40
1.0
176
     1
 90
        0
176
     1
 62
    18
420
        0
176
     1
 90
       50
176
     1
 90
        3
176
     1
 62
     5
420
      255
176
     1
290
     0
176
     1
 90
       50
176
     1
 90
       50
176
     1
 90
       50
176
     1
290
     0
176
     1
 90
       50
176
     1
 62
   256
176
     0
 40
1.0
176
     0
 90
        2
176
     1
  1
strokes_ogs.tif
176
     1
290
     0
176
     1
 40
1.0
176
     1
 40
1.0
176
     1
  0
VISUALSTYLE
  5
30
102
{ACAD_REACTORS
330
29
102
}
330
29
100
AcDbVisualStyle
  2
Wireframe
 70
     5
177
     3
291
     0
 70
    58
 90
        0
176
     1
 90
        2
176
     1
 90
        0
176
     1
 90
        0
176
     1
 40
0.6
176
     1
 40
30.0
176
     1
 62
     7
420
 16777215
176
     1
 90
        1
176
     1
 90
        4
176
     1
 62
     7
176
     1
 62
   257
176
     1
 90
        1
176
     1
 90
        1
176
     1
 40
1.0
176
     1
 90
        0
176
     1
 62
   257
176
     1
 40
1.0
176
     1
 90
        1
176
     1
 90
        6
176
     1
 90
        2
176
     1
 62
     7
176
     1
 90
        3
176
     1
 90
        0
176
     1
 90
        0
176
     1
290
     0
176
     1
 90
        1
176
     1
 40
0.0
176
     1
 90
        0
176
     1
290
     0
176
     1
290
     1
176
     1
290
     1
176
     1
290
     0
176
     1
290
     0
176
     1
290
     0
176
     1
290
     0
176
     1
290
     0
176
     1
290
     0
176
     1
 90
       50
176
     1
 40
0.0
176
     1
 40
1.0
176
     1
 90
        0
176
     1
 62
    18
420
        0
176
     1
 90
       50
176
     1
 90
        3
176
     1
 62
     5
420
      255
176
     1
290
     0
176
     1
 90
       50
176
     1
 90
       50
176
     1
 90
       50
176
     1
290
     0
176
     1
 90
       50
176
     1
 62
   256
176
     0
 40
1.0
176
     0
 90
        2
176
     1
  1
strokes_ogs.tif
176
     1
290
     0
176
     1
 40
1.0
176
     1
 40
1.0
176
     1
  0
VISUALSTYLE
  5
3C
102
{ACAD_REACTORS
330
29
102
}
330
29
100
AcDbVisualStyle
  2
X-Ray
 70
    25
177
     3
291
     0
 70
    58
 90
        2
176
     1
 90
        2
176
     1
 90
        1
176
     1
 90
        1
176
     1
 40
0.5
176
     1
 40
30.0
176
     1
 62
     7
420
 16777215
176
     1
 90
        1
176
     1
 90
        0
176
     1
 62
     7
176
     1
 62
   257
176
     1
 90
        1
176
     1
 90
        1
176
     1
 40
1.0
176
     1
 90
        8
176
     1
 62
     7
176
     1
 40
1.0
176
     1
 90
        1
176
     1
 90
        6
176
     1
 90
        2
176
     1
 62
     7
176
     1
 90
        3
176
     1
 90
        0
176
     1
 90
        0
176
     1
290
     0
176
     1
 90
       13
176
     1
 40
0.0
176
     1
 90
        0
176
     1
290
     0
176
     1
290
     1
176
     1
290
     1
176
     1
290
     0
176
     1
290
     0
176
     1
290
     0
176
     1
290
     0
176
     1
290
     0
176
     1
290
     0
176
     1
 90
       50
176
     1
 40
0.0
176
     1
 40
1.0
176
     1
 90
        0
176
     1
 62
    18
420
        0
176
     1
 90
       50
176
     1
 90
        3
176
     1
 62
     5
420
      255
176
     1
290
     0
176
     1
 90
       50
176
     1
 90
       50
176
     1
 90
       50
176
     1
290
     0
176
     1
 90
       50
176
     1
 62
   256
176
     0
 40
1.0
176
     0
 90
        2
176
     1
  1
strokes_ogs.tif
176
     1
290
     0
176
     1
 40
1.0
176
     1
 40
1.0
176
     1
  0
DICTIONARYVAR
  5
A0
102
{ACAD_REACTORS
330
9B
102
}
330
9B
100
DictionaryVariables
280
     0
  1
1:1
  0
DICTIONARYVAR
  5
9D
102
{ACAD_REACTORS
330
9B
102
}
330
9B
100
DictionaryVariables
280
     0
  1
STANDARD
  0
DICTIONARYVAR
  5
9C
102
{ACAD_REACTORS
330
9B
102
}
330
9B
100
DictionaryVariables
280
     0
  1
STANDARD
  0
DICTIONARYVAR
  5
9E
102
{ACAD_REACTORS
330
9B
102
}
330
9B
100
DictionaryVariables
280
     0
  1
Imperial24
  0
DICTIONARYVAR
  5
9F
102
{ACAD_REACTORS
330
9B
102
}
330
9B
100
DictionaryVariables
280
     0
  1
Imperial24
  0
DICTIONARY
  5
1A
330
19
100
AcDbDictionary
280
     1
281
     1
  3
BUMPTILE
360
1C
  3
DIFFUSETILE
360
1B
  3
OPACITYTILE
360
1F
  3
REFLECTIONTILE
360
1E
  3
REFRACTIONTILE
360
20
  3
SPECULARTILE
360
1D
  0
DICTIONARY
  5
12
330
11
100
AcDbDictionary
280
     1
281
     1
  3
BUMPTILE
360
14
  3
DIFFUSETILE
360
13
  3
OPACITYTILE
360
17
  3
REFLECTIONTILE
360
16
  3
REFRACTIONTILE
360
18
  3
SPECULARTILE
360
15
  0
DICTIONARY
  5
22
330
21
100
AcDbDictionary
280
     1
281
     1
  3
BUMPTILE
360
24
  3
DIFFUSETILE
360
23
  3
OPACITYTILE
360
27
  3
REFLECTIONTILE
360
26
  3
REFRACTIONTILE
360
28
  3
SPECULARTILE
360
25
  0
DICTIONARY
  5
A1
330
65
100
AcDbDictionary
280
     1
281
     1
  3
ACAD_ROUNDTRIP_2008_TABLESTYLE_CELLSTYLEMAP
360
A2
  0
XRECORD
  5
1C
102
{ACAD_REACTORS
330
1A
102
}
330
1A
100
AcDbXrecord
280
     1
270
     1
271
     1
  0
XRECORD
  5
1B
102
{ACAD_REACTORS
330
1A
102
}
330
1A
100
AcDbXrecord
280
     1
270
     1
271
     1
  0
XRECORD
  5
1F
102
{ACAD_REACTORS
330
1A
102
}
330
1A
100
AcDbXrecord
280
     1
270
     1
271
     1
  0
XRECORD
  5
1E
102
{ACAD_REACTORS
330
1A
102
}
330
1A
100
AcDbXrecord
280
     1
270
     1
271
     1
  0
XRECORD
  5
20
102
{ACAD_REACTORS
330
1A
102
}
330
1A
100
AcDbXrecord
280
     1
270
     1
271
     1
  0
XRECORD
  5
1D
102
{ACAD_REACTORS
330
1A
102
}
330
1A
100
AcDbXrecord
280
     1
270
     1
271
     1
  0
XRECORD
  5
14
102
{ACAD_REACTORS
330
12
102
}
330
12
100
AcDbXrecord
280
     1
270
     1
271
     1
  0
XRECORD
  5
13
102
{ACAD_REACTORS
330
12
102
}
330
12
100
AcDbXrecord
280
     1
270
     1
271
     1
  0
XRECORD
  5
17
102
{ACAD_REACTORS
330
12
102
}
330
12
100
AcDbXrecord
280
     1
270
     1
271
     1
  0
XRECORD
  5
16
102
{ACAD_REACTORS
330
12
102
}
330
12
100
AcDbXrecord
280
     1
270
     1
271
     1
  0
XRECORD
  5
18
102
{ACAD_REACTORS
330
12
102
}
330
12
100
AcDbXrecord
280
     1
270
     1
271
     1
  0
XRECORD
  5
15
102
{ACAD_REACTORS
330
12
102
}
330
12
100
AcDbXrecord
280
     1
270
     1
271
     1
  0
XRECORD
  5
24
102
{ACAD_REACTORS
330
22
102
}
330
22
100
AcDbXrecord
280
     1
270
     1
271
     1
  0
XRECORD
  5
23
102
{ACAD_REACTORS
330
22
102
}
330
22
100
AcDbXrecord
280
     1
270
     1
271
     1
  0
XRECORD
  5
27
102
{ACAD_REACTORS
330
22
102
}
330
22
100
AcDbXrecord
280
     1
270
     1
271
     1
  0
XRECORD
  5
26
102
{ACAD_REACTORS
330
22
102
}
330
22
100
AcDbXrecord
280
     1
270
     1
271
     1
  0
XRECORD
  5
28
102
{ACAD_REACTORS
330
22
102
}
330
22
100
AcDbXrecord
280
     1
270
     1
271
     1
  0
XRECORD
  5
25
102
{ACAD_REACTORS
330
22
102
}
330
22
100
AcDbXrecord
280
     1
270
     1
271
     1
  0
CELLSTYLEMAP
  5
A2
102
{ACAD_REACTORS
330
A1
102
}
330
A1
100
AcDbCellStyleMap
 90
        3
300
CELLSTYLE
  1
TABLEFORMAT_BEGIN
 90
        5
170
     1
 91
        0
 92
    32768
 62
   257
 93
        1
300
CONTENTFORMAT
  1
CONTENTFORMAT_BEGIN
 90
        0
 91
        0
 92
      512
 93
        0
300

 40
0.0
140
1.0
 94
        5
 62
     0
340
55
144
0.25
309
CONTENTFORMAT_END
171
     0
 94
        0
309
TABLEFORMAT_END
  1
CELLSTYLE_BEGIN
 90
        1
 91
        1
300
_TITLE
309
CELLSTYLE_END
300
CELLSTYLE
  1
TABLEFORMAT_BEGIN
 90
        5
170
     1
 91
        0
 92
        0
 62
   257
 93
        1
300
CONTENTFORMAT
  1
CONTENTFORMAT_BEGIN
 90
        0
 91
        0
 92
      512
 93
        0
300

 40
0.0
140
1.0
 94
        5
 62
     0
340
55
144
0.18
309
CONTENTFORMAT_END
171
     0
 94
        0
309
TABLEFORMAT_END
  1
CELLSTYLE_BEGIN
 90
        2
 91
        1
300
_HEADER
309
CELLSTYLE_END
300
CELLSTYLE
  1
TABLEFORMAT_BEGIN
 90
        5
170
     1
 91
        0
 92
        0
 62
   257
 93
        1
300
CONTENTFORMAT
  1
CONTENTFORMAT_BEGIN
 90
        0
 91
        0
 92
      512
 93
        0
300

 40
0.0
140
1.0
 94
        2
 62
     0
340
55
144
0.18
309
CONTENTFORMAT_END
171
     0
 94
        0
309
TABLEFORMAT_END
  1
CELLSTYLE_BEGIN
 90
        3
 91
        2
300
_DATA
309
CELLSTYLE_END
  0
ENDSEC
  0
EOF
