  0
SECTION
  2
HEADER
  9
$ACADVER
  1
AC1032
  9
$ACADMAINTVER
 90
      228
  9
$DWGCODEPAGE
  3
ANSI_1252
  9
$REQUIREDVERSIONS
160
                 0
  9
$INSBASE
 10
0.0
 20
0.0
 30
0.0
  9
$EXTMIN
 10
1.000000000000000E+20
 20
1.000000000000000E+20
 30
1.000000000000000E+20
  9
$EXTMAX
 10
-1.000000000000000E+20
 20
-1.000000000000000E+20
 30
-1.000000000000000E+20
  9
$LIMMIN
 10
0.0
 20
0.0
  9
$LIMMAX
 10
12.0
 20
9.0
  9
$ORTHOMODE
 70
     0
  9
$REGENMODE
 70
     1
  9
$FILLMODE
 70
     1
  9
$QTEXTMODE
 70
     0
  9
$MIRRTEXT
 70
     0
  9
$LTSCALE
 40
1.0
  9
$ATTMODE
 70
     1
  9
$TEXTSIZE
 40
0.2
  9
$TRACEWID
 40
0.05
  9
$TEXTSTYLE
  7
Standard
  9
$CLAYER
  8
0
  9
$CELTYPE
  6
ByLayer
  9
$CECOLOR
 62
   256
  9
$CELTSCALE
 40
1.0
  9
$DISPSILH
 70
     0
  9
$DIMSCALE
 40
1.0
  9
$DIMASZ
 40
0.18
  9
$DIMEXO
 40
0.0625
  9
$DIMDLI
 40
0.38
  9
$DIMRND
 40
0.0
  9
$DIMDLE
 40
0.0
  9
$DIMEXE
 40
0.18
  9
$DIMTP
 40
0.0
  9
$DIMTM
 40
0.0
  9
$DIMTXT
 40
0.18
  9
$DIMCEN
 40
0.09
  9
$DIMTSZ
 40
0.0
  9
$DIMTOL
 70
     0
  9
$DIMLIM
 70
     0
  9
$DIMTIH
 70
     1
  9
$DIMTOH
 70
     1
  9
$DIMSE1
 70
     0
  9
$DIMSE2
 70
     0
  9
$DIMTAD
 70
     0
  9
$DIMZIN
 70
     0
  9
$DIMBLK
  1

  9
$DIMASO
 70
     1
  9
$DIMSHO
 70
     1
  9
$DIMPOST
  1

  9
$DIMAPOST
  1

  9
$DIMALT
 70
     0
  9
$DIMALTD
 70
     2
  9
$DIMALTF
 40
25.4
  9
$DIMLFAC
 40
1.0
  9
$DIMTOFL
 70
     0
  9
$DIMTVP
 40
0.0
  9
$DIMTIX
 70
     0
  9
$DIMSOXD
 70
     0
  9
$DIMSAH
 70
     0
  9
$DIMBLK1
  1

  9
$DIMBLK2
  1

  9
$DIMSTYLE
  2
Standard
  9
$DIMCLRD
 70
     0
  9
$DIMCLRE
 70
     0
  9
$DIMCLRT
 70
     0
  9
$DIMTFAC
 40
1.0
  9
$DIMGAP
 40
0.09
  9
$DIMJUST
 70
     0
  9
$DIMSD1
 70
     0
  9
$DIMSD2
 70
     0
  9
$DIMTOLJ
 70
     1
  9
$DIMTZIN
 70
     0
  9
$DIMALTZ
 70
     0
  9
$DIMALTTZ
 70
     0
  9
$DIMUPT
 70
     0
  9
$DIMDEC
 70
     4
  9
$DIMTDEC
 70
     4
  9
$DIMALTU
 70
     2
  9
$DIMALTTD
 70
     2
  9
$DIMTXSTY
  7
Standard
  9
$DIMAUNIT
 70
     0
  9
$DIMADEC
 70
     0
  9
$DIMALTRND
 40
0.0
  9
$DIMAZIN
 70
     0
  9
$DIMDSEP
 70
    46
  9
$DIMATFIT
 70
     3
  9
$DIMFRAC
 70
     0
  9
$DIMLDRBLK
  1

  9
$DIMLUNIT
 70
     2
  9
$DIMLWD
 70
    -2
  9
$DIMLWE
 70
    -2
  9
$DIMTMOVE
 70
     0
  9
$DIMFXL
 40
1.0
  9
$DIMFXLON
 70
     0
  9
$DIMJOGANG
 40
0.7853981633974483
  9
$DIMTFILL
 70
     0
  9
$DIMTFILLCLR
 70
     0
  9
$DIMARCSYM
 70
     0
  9
$DIMLTYPE
  6

  9
$DIMLTEX1
  6

  9
$DIMLTEX2
  6

  9
$DIMTXTDIRECTION
 70
     0
  9
$LUNITS
 70
     2
  9
$LUPREC
 70
     4
  9
$SKETCHINC
 40
0.1
  9
$FILLETRAD
 40
0.0
  9
$AUNITS
 70
     0
  9
$AUPREC
 70
     0
  9
$MENU
  1
.
  9
$ELEVATION
 40
0.0
  9
$PELEVATION
 40
0.0
  9
$THICKNESS
 40
0.0
  9
$LIMCHECK
 70
     0
  9
$CHAMFERA
 40
0.0
  9
$CHAMFERB
 40
0.0
  9
$CHAMFERC
 40
0.0
  9
$CHAMFERD
 40
0.0
  9
$SKPOLY
 70
     0
  9
$TDCREATE
 40
2460399.005312500
  9
$TDUCREATE
 40
2460399.296979167
  9
$TDUPDATE
 40
2460399.005312500
  9
$TDUUPDATE
 40
2460399.296979167
  9
$TDINDWG
 40
0.0000000000
  9
$TDUSRTIMER
 40
0.0000000000
  9
$USRTIMER
 70
     1
  9
$ANGBASE
 50
0.0
  9
$ANGDIR
 70
     0
  9
$PDMODE
 70
     0
  9
$PDSIZE
 40
0.0
  9
$PLINEWID
 40
0.0
  9
$SPLFRAME
 70
     0
  9
$SPLINETYPE
 70
     6
  9
$SPLINESEGS
 70
     8
  9
$HANDSEED
  5
9F
  9
$SURFTAB1
 70
     6
  9
$SURFTAB2
 70
     6
  9
$SURFTYPE
 70
     6
  9
$SURFU
 70
     6
  9
$SURFV
 70
     6
  9
$UCSBASE
  2

  9
$UCSNAME
  2

  9
$UCSORG
 10
0.0
 20
0.0
 30
0.0
  9
$UCSXDIR
 10
1.0
 20
0.0
 30
0.0
  9
$UCSYDIR
 10
0.0
 20
1.0
 30
0.0
  9
$UCSORTHOREF
  2

  9
$UCSORTHOVIEW
 70
     0
  9
$UCSORGTOP
 10
0.0
 20
0.0
 30
0.0
  9
$UCSORGBOTTOM
 10
0.0
 20
0.0
 30
0.0
  9
$UCSORGLEFT
 10
0.0
 20
0.0
 30
0.0
  9
$UCSORGRIGHT
 10
0.0
 20
0.0
 30
0.0
  9
$UCSORGFRONT
 10
0.0
 20
0.0
 30
0.0
  9
$UCSORGBACK
 10
0.0
 20
0.0
 30
0.0
  9
$PUCSBASE
  2

  9
$PUCSNAME
  2

  9
$PUCSORG
 10
0.0
 20
0.0
 30
0.0
  9
$PUCSXDIR
 10
1.0
 20
0.0
 30
0.0
  9
$PUCSYDIR
 10
0.0
 20
1.0
 30
0.0
  9
$PUCSORTHOREF
  2

  9
$PUCSORTHOVIEW
 70
     0
  9
$PUCSORGTOP
 10
0.0
 20
0.0
 30
0.0
  9
$PUCSORGBOTTOM
 10
0.0
 20
0.0
 30
0.0
  9
$PUCSORGLEFT
 10
0.0
 20
0.0
 30
0.0
  9
$PUCSORGRIGHT
 10
0.0
 20
0.0
 30
0.0
  9
$PUCSORGFRONT
 10
0.0
 20
0.0
 30
0.0
  9
$PUCSORGBACK
 10
0.0
 20
0.0
 30
0.0
  9
$USERI1
 70
     0
  9
$USERI2
 70
     0
  9
$USERI3
 70
     0
  9
$USERI4
 70
     0
  9
$USERI5
 70
     0
  9
$USERR1
 40
0.0
  9
$USERR2
 40
0.0
  9
$USERR3
 40
0.0
  9
$USERR4
 40
0.0
  9
$USERR5
 40
0.0
  9
$WORLDVIEW
 70
     1
  9
$SHADEDGE
 70
     3
  9
$SHADEDIF
 70
    70
  9
$TILEMODE
 70
     1
  9
$MAXACTVP
 70
    64
  9
$PINSBASE
 10
0.0
 20
0.0
 30
0.0
  9
$PLIMCHECK
 70
     0
  9
$PEXTMIN
 10
1.000000000000000E+20
 20
1.000000000000000E+20
 30
1.000000000000000E+20
  9
$PEXTMAX
 10
-1.000000000000000E+20
 20
-1.000000000000000E+20
 30
-1.000000000000000E+20
  9
$PLIMMIN
 10
0.0
 20
0.0
  9
$PLIMMAX
 10
12.0
 20
9.0
  9
$UNITMODE
 70
     0
  9
$VISRETAIN
 70
     1
  9
$PLINEGEN
 70
     0
  9
$PSLTSCALE
 70
     1
  9
$TREEDEPTH
 70
  3020
  9
$CMLSTYLE
  2
Standard
  9
$CMLJUST
 70
     0
  9
$CMLSCALE
 40
1.0
  9
$PROXYGRAPHICS
 70
     1
  9
$MEASUREMENT
 70
     0
  9
$CELWEIGHT
370
    -1
  9
$ENDCAPS
280
     0
  9
$JOINSTYLE
280
     0
  9
$LWDISPLAY
290
     1
  9
$INSUNITS
 70
     1
  9
$HYPERLINKBASE
  1

  9
$STYLESHEET
  1

  9
$XEDIT
290
     1
  9
$CEPSNTYPE
380
     0
  9
$PSTYLEMODE
290
     1
  9
$FINGERPRINTGUID
  2
{CB11B95B-1885-C54E-90B6-FD2ECCD639B6}
  9
$VERSIONGUID
  2
{B50A10FB-CBD1-8649-A5C2-6FD055F618F7}
  9
$EXTNAMES
290
     1
  9
$PSVPSCALE
 40
0.0
  9
$OLESTARTUP
290
     0
  9
$SORTENTS
280
   127
  9
$INDEXCTL
280
     0
  9
$HIDETEXT
280
     1
  9
$XCLIPFRAME
280
     2
  9
$HALOGAP
280
     0
  9
$OBSCOLOR
 70
   257
  9
$OBSLTYPE
280
     0
  9
$INTERSECTIONDISPLAY
280
     0
  9
$INTERSECTIONCOLOR
 70
   257
  9
$DIMASSOC
280
     2
  9
$PROJECTNAME
  1

  9
$CAMERADISPLAY
290
     0
  9
$LENSLENGTH
 40
50.0
  9
$CAMERAHEIGHT
 40
0.0
  9
$STEPSPERSEC
 40
2.0
  9
$STEPSIZE
 40
6.0
  9
$3DDWFPREC
 40
2.0
  9
$PSOLWIDTH
 40
0.25
  9
$PSOLHEIGHT
 40
4.0
  9
$LOFTANG1
 40
1.570796326794896
  9
$LOFTANG2
 40
1.570796326794896
  9
$LOFTMAG1
 40
0.0
  9
$LOFTMAG2
 40
0.0
  9
$LOFTPARAM
 70
     7
  9
$LOFTNORMALS
280
     1
  9
$LATITUDE
 40
37.795
  9
$LONGITUDE
 40
-122.394
  9
$NORTHDIRECTION
 40
0.0
  9
$TIMEZONE
 70
 -8000
  9
$LIGHTGLYPHDISPLAY
280
     1
  9
$TILEMODELIGHTSYNCH
280
     1
  9
$CMATERIAL
347
11
  9
$SOLIDHIST
280
     0
  9
$SHOWHIST
280
     1
  9
$DWFFRAME
280
     2
  9
$DGNFRAME
280
     0
  9
$REALWORLDSCALE
290
     1
  9
$INTERFERECOLOR
 62
     1
  9
$INTERFEREOBJVS
345
33
  9
$INTERFEREVPVS
346
30
  9
$CSHADOW
280
     0
  9
$SHADOWPLANELOCATION
 40
0.0
  0
ENDSEC
  0
SECTION
  2
CLASSES
  0
CLASS
  1
ACDBDICTIONARYWDFLT
  2
AcDbDictionaryWithDefault
  3
ObjectDBX Classes
 90
        0
 91
        1
280
     0
281
     0
  0
CLASS
  1
MATERIAL
  2
AcDbMaterial
  3
ObjectDBX Classes
 90
     1153
 91
        3
280
     0
281
     0
  0
CLASS
  1
VISUALSTYLE
  2
AcDbVisualStyle
  3
ObjectDBX Classes
 90
     4095
 91
       24
280
     0
281
     0
  0
CLASS
  1
SCALE
  2
AcDbScale
  3
ObjectDBX Classes
 90
     1153
 91
       17
280
     0
281
     0
  0
CLASS
  1
TABLESTYLE
  2
AcDbTableStyle
  3
ObjectDBX Classes
 90
     4095
 91
        1
280
     0
281
     0
  0
CLASS
  1
MLEADERSTYLE
  2
AcDbMLeaderStyle
  3
ACDB_MLEADERSTYLE_CLASS
 90
     4095
 91
        1
280
     0
281
     0
  0
CLASS
  1
ACDBSECTIONVIEWSTYLE
  2
AcDbSectionViewStyle
  3
ObjectDBX Classes
 90
     1025
 91
        1
280
     0
281
     0
  0
CLASS
  1
ACDBDETAILVIEWSTYLE
  2
AcDbDetailViewStyle
  3
ObjectDBX Classes
 90
     1025
 91
        1
280
     0
281
     0
  0
CLASS
  1
DICTIONARYVAR
  2
AcDbDictionaryVar
  3
ObjectDBX Classes
 90
        0
 91
        5
280
     0
281
     0
  0
CLASS
  1
CELLSTYLEMAP
  2
AcDbCellStyleMap
  3
ObjectDBX Classes
 90
     1152
 91
        1
280
     0
281
     0
  0
ENDSEC
  0
SECTION
  2
TABLES
  0
TABLE
  2
VPORT
  5
8
330
0
100
AcDbSymbolTable
 70
     1
  0
VPORT
  5
57
330
8
100
AcDbSymbolTableRecord
100
AcDbViewportTableRecord
  2
*Active
 70
     0
 10
0.0
 20
0.0
 11
1.0
 21
1.0
 12
0.0
 22
0.0
 13
0.0
 23
0.0
 14
1.0
 24
1.0
 15
0.0
 25
0.0
 16
0.0
 26
0.0
 36
1.0
 17
0.9063715204259281
 27
-9.464948306989626
 37
0.0
 40
28.18769568220839
 41
1.322120462652983
 42
50.0
 43
0.0
 44
0.0
 50
0.0
 51
0.0
 71
     0
 72
   100
 73
     1
 74
     1
 75
     0
 76
     0
 77
     0
 78
     0
281
     0
 65
     1
110
0.0
120
0.0
130
0.0
111
1.0
121
0.0
131
0.0
112
0.0
122
1.0
132
0.0
 79
     0
146
0.0
 60
     3
 61
     5
292
     1
282
     1
141
0.0
142
0.0
 63
   250
421
  3355443
  0
ENDTAB
  0
TABLE
  2
LTYPE
  5
5
330
0
100
AcDbSymbolTable
 70
     1
  0
LTYPE
  5
5B
330
5
100
AcDbSymbolTableRecord
100
AcDbLinetypeTableRecord
  2
ByBlock
 70
     0
  3

 72
    65
 73
     0
 40
0.0
  0
LTYPE
  5
5C
330
5
100
AcDbSymbolTableRecord
100
AcDbLinetypeTableRecord
  2
ByLayer
 70
     0
  3

 72
    65
 73
     0
 40
0.0
  0
LTYPE
  5
5D
330
5
100
AcDbSymbolTableRecord
100
AcDbLinetypeTableRecord
  2
Continuous
 70
     0
  3
Solid line
 72
    65
 73
     0
 40
0.0
  0
ENDTAB
  0
TABLE
  2
LAYER
  5
2
330
0
100
AcDbSymbolTable
 70
     8
  0
LAYER
  5
54
330
2
100
AcDbSymbolTableRecord
100
AcDbLayerTableRecord
  2
0
 70
     0
 62
     7
  6
Continuous
370
    -3
390
F
347
21
348
0
  0
LAYER
  5
78
330
2
100
AcDbSymbolTableRecord
100
AcDbLayerTableRecord
  2
Luffy
 70
     1
 62
     7
  6
Continuous
370
     0
390
F
347
21
348
0
  0
LAYER
  5
79
330
2
100
AcDbSymbolTableRecord
100
AcDbLayerTableRecord
  2
Deck Box - DF
 70
     1
 62
     7
  6
Continuous
370
     0
390
F
347
21
348
0
  0
LAYER
  5
7A
330
2
100
AcDbSymbolTableRecord
100
AcDbLayerTableRecord
  2
Deck Box - G5
 70
     1
 62
     7
  6
Continuous
370
     0
390
F
347
21
348
0
  0
LAYER
  5
7B
330
2
100
AcDbSymbolTableRecord
100
AcDbLayerTableRecord
  2
Poneglyph
 70
     1
 62
     7
  6
Continuous
370
     0
390
F
347
21
348
0
  0
LAYER
  5
7C
330
2
100
AcDbSymbolTableRecord
100
AcDbLayerTableRecord
  2
Crocodile
 70
     1
 62
     7
  6
Continuous
370
     0
390
F
347
21
348
0
  0
LAYER
  5
7D
330
2
100
AcDbSymbolTableRecord
100
AcDbLayerTableRecord
  2
Layer 2
 70
     5
 62
     7
  6
Continuous
370
     0
390
F
347
21
348
0
  0
LAYER
  5
7E
330
2
100
AcDbSymbolTableRecord
100
AcDbLayerTableRecord
  2
Lid
 70
     0
 62
     7
  6
Continuous
370
     0
390
F
347
21
348
0
  0
ENDTAB
  0
TABLE
  2
STYLE
  5
3
330
0
100
AcDbSymbolTable
 70
     2
  0
STYLE
  5
55
330
3
100
AcDbSymbolTableRecord
100
AcDbTextStyleTableRecord
  2
Standard
 70
     0
 40
0.0
 41
1.0
 50
0.0
 71
     0
 42
0.2
  3
txt
  4

  0
STYLE
  5
5A
330
3
100
AcDbSymbolTableRecord
100
AcDbTextStyleTableRecord
  2
Annotative
 70
     0
 40
0.0
 41
1.0
 50
0.0
 71
     0
 42
0.2
  3
txt
  4

1001
AcadAnnotative
1000
AnnotativeData
1002
{
1070
     1
1070
     1
1002
}
  0
ENDTAB
  0
TABLE
  2
VIEW
  5
6
330
0
100
AcDbSymbolTable
 70
     0
  0
ENDTAB
  0
TABLE
  2
UCS
  5
7
330
0
100
AcDbSymbolTable
 70
     0
  0
ENDTAB
  0
TABLE
  2
APPID
  5
9
330
0
100
AcDbSymbolTable
 70
     2
  0
APPID
  5
56
330
9
100
AcDbSymbolTableRecord
100
AcDbRegAppTableRecord
  2
ACAD
 70
     0
  0
APPID
  5
5E
330
9
100
AcDbSymbolTableRecord
100
AcDbRegAppTableRecord
  2
AcadAnnotative
 70
     0
  0
ENDTAB
  0
TABLE
  2
DIMSTYLE
  5
A
330
0
100
AcDbSymbolTable
 70
     2
100
AcDbDimStyleTable
 71
     0
  0
DIMSTYLE
105
58
330
A
100
AcDbSymbolTableRecord
100
AcDbDimStyleTableRecord
  2
Standard
 70
     0
340
55
  0
DIMSTYLE
105
59
330
A
100
AcDbSymbolTableRecord
100
AcDbDimStyleTableRecord
  2
Annotative
 70
     0
340
55
1001
AcadAnnotative
1000
AnnotativeData
1002
{
1070
     1
1070
     1
1002
}
  0
ENDTAB
  0
TABLE
  2
BLOCK_RECORD
  5
1
330
0
100
AcDbSymbolTable
 70
     1
  0
BLOCK_RECORD
  5
70
330
1
100
AcDbSymbolTableRecord
100
AcDbBlockTableRecord
  2
*Model_Space
340
73
 70
     0
280
     1
281
     0
  0
BLOCK_RECORD
  5
6C
330
1
100
AcDbSymbolTableRecord
100
AcDbBlockTableRecord
  2
*Paper_Space
340
6F
 70
     0
280
     1
281
     0
  0
BLOCK_RECORD
  5
74
330
1
100
AcDbSymbolTableRecord
100
AcDbBlockTableRecord
  2
*Paper_Space0
340
77
 70
     0
280
     1
281
     0
  0
ENDTAB
  0
ENDSEC
  0
SECTION
  2
BLOCKS
  0
BLOCK
  5
71
330
70
100
AcDbEntity
  8
0
100
AcDbBlockBegin
  2
*Model_Space
 70
     0
 10
0.0
 20
0.0
 30
0.0
  3
*Model_Space
  1

  0
ENDBLK
  5
72
330
70
100
AcDbEntity
  8
0
100
AcDbBlockEnd
  0
BLOCK
  5
6D
330
6C
100
AcDbEntity
 67
     1
  8
0
100
AcDbBlockBegin
  2
*Paper_Space
 70
     0
 10
0.0
 20
0.0
 30
0.0
  3
*Paper_Space
  1

  0
ENDBLK
  5
6E
330
6C
100
AcDbEntity
 67
     1
  8
0
100
AcDbBlockEnd
  0
BLOCK
  5
75
330
74
100
AcDbEntity
 67
     1
  8
0
100
AcDbBlockBegin
  2
*Paper_Space0
 70
     0
 10
0.0
 20
0.0
 30
0.0
  3
*Paper_Space0
  1

  0
ENDBLK
  5
76
330
74
100
AcDbEntity
 67
     1
  8
0
100
AcDbBlockEnd
  0
ENDSEC
  0
SECTION
  2
ENTITIES
  0
SPLINE
  5
7F
330
70
100
AcDbEntity
  8
Lid
100
AcDbSpline
210
0.0
220
0.0
230
1.0
 70
     9
 71
     3
 72
    17
 73
    13
 74
     0
 42
0.0000000001
 43
0.0000000001
 40
0.0
 40
0.0
 40
0.0
 40
0.0
 40
1.0
 40
1.0
 40
1.0
 40
2.0
 40
2.0
 40
2.0
 40
3.0
 40
3.0
 40
3.0
 40
4.0
 40
4.0
 40
4.0
 40
4.0
 10
3.801637565445364
 20
-6.644067914720936
 30
0.0
 10
4.246843119653564
 20
-6.644956670646428
 30
0.0
 10
4.61564985139906
 20
-6.287236146099429
 30
0.0
 10
4.617911682273288
 20
-5.835299016790031
 30
0.0
 10
4.620160582652816
 20
-5.385977798168369
 30
0.0
 10
4.262705819583402
 20
-5.016841300018326
 30
0.0
 10
3.801558904935695
 20
-5.016824490376671
 30
0.0
 10
3.335423405417486
 20
-5.016807501144827
 30
0.0
 10
2.98404838138438
 20
-5.393446523097281
 30
0.0
 10
2.985241937884893
 20
-5.833103706324132
 30
0.0
 10
2.986451406077574
 20
-6.278621563930906
 30
0.0
 10
3.350764359884603
 20
-6.645086550270863
 30
0.0
 10
3.801637565445364
 20
-6.644067914720936
 30
0.0
  0
SPLINE
  5
80
330
70
100
AcDbEntity
  8
Lid
100
AcDbSpline
210
0.0
220
0.0
230
1.0
 70
     9
 71
     3
 72
   269
 73
   265
 74
     0
 42
0.0000000001
 43
0.0000000001
 40
0.0
 40
0.0
 40
0.0
 40
0.0
 40
1.0
 40
1.0
 40
1.0
 40
2.0
 40
2.0
 40
2.0
 40
3.0
 40
3.0
 40
3.0
 40
4.0
 40
4.0
 40
4.0
 40
5.0
 40
5.0
 40
5.0
 40
6.0
 40
6.0
 40
6.0
 40
7.0
 40
7.0
 40
7.0
 40
8.0
 40
8.0
 40
8.0
 40
9.0
 40
9.0
 40
9.0
 40
10.0
 40
10.0
 40
10.0
 40
11.0
 40
11.0
 40
11.0
 40
12.0
 40
12.0
 40
12.0
 40
13.0
 40
13.0
 40
13.0
 40
14.0
 40
14.0
 40
14.0
 40
15.0
 40
15.0
 40
15.0
 40
16.0
 40
16.0
 40
16.0
 40
17.0
 40
17.0
 40
17.0
 40
18.0
 40
18.0
 40
18.0
 40
19.0
 40
19.0
 40
19.0
 40
20.0
 40
20.0
 40
20.0
 40
21.0
 40
21.0
 40
21.0
 40
22.0
 40
22.0
 40
22.0
 40
23.0
 40
23.0
 40
23.0
 40
24.0
 40
24.0
 40
24.0
 40
25.0
 40
25.0
 40
25.0
 40
26.0
 40
26.0
 40
26.0
 40
27.0
 40
27.0
 40
27.0
 40
28.0
 40
28.0
 40
28.0
 40
29.0
 40
29.0
 40
29.0
 40
30.0
 40
30.0
 40
30.0
 40
31.0
 40
31.0
 40
31.0
 40
32.0
 40
32.0
 40
32.0
 40
33.0
 40
33.0
 40
33.0
 40
34.0
 40
34.0
 40
34.0
 40
35.0
 40
35.0
 40
35.0
 40
36.0
 40
36.0
 40
36.0
 40
37.0
 40
37.0
 40
37.0
 40
38.0
 40
38.0
 40
38.0
 40
39.0
 40
39.0
 40
39.0
 40
40.0
 40
40.0
 40
40.0
 40
41.0
 40
41.0
 40
41.0
 40
42.0
 40
42.0
 40
42.0
 40
43.0
 40
43.0
 40
43.0
 40
44.0
 40
44.0
 40
44.0
 40
45.0
 40
45.0
 40
45.0
 40
46.0
 40
46.0
 40
46.0
 40
47.0
 40
47.0
 40
47.0
 40
48.0
 40
48.0
 40
48.0
 40
49.0
 40
49.0
 40
49.0
 40
50.0
 40
50.0
 40
50.0
 40
51.0
 40
51.0
 40
51.0
 40
52.0
 40
52.0
 40
52.0
 40
53.0
 40
53.0
 40
53.0
 40
54.0
 40
54.0
 40
54.0
 40
55.0
 40
55.0
 40
55.0
 40
56.0
 40
56.0
 40
56.0
 40
57.0
 40
57.0
 40
57.0
 40
58.0
 40
58.0
 40
58.0
 40
59.0
 40
59.0
 40
59.0
 40
60.0
 40
60.0
 40
60.0
 40
61.0
 40
61.0
 40
61.0
 40
62.0
 40
62.0
 40
62.0
 40
63.0
 40
63.0
 40
63.0
 40
64.0
 40
64.0
 40
64.0
 40
65.0
 40
65.0
 40
65.0
 40
66.0
 40
66.0
 40
66.0
 40
67.0
 40
67.0
 40
67.0
 40
68.0
 40
68.0
 40
68.0
 40
69.0
 40
69.0
 40
69.0
 40
70.0
 40
70.0
 40
70.0
 40
71.0
 40
71.0
 40
71.0
 40
72.0
 40
72.0
 40
72.0
 40
73.0
 40
73.0
 40
73.0
 40
74.0
 40
74.0
 40
74.0
 40
75.0
 40
75.0
 40
75.0
 40
76.0
 40
76.0
 40
76.0
 40
77.0
 40
77.0
 40
77.0
 40
78.0
 40
78.0
 40
78.0
 40
79.0
 40
79.0
 40
79.0
 40
80.0
 40
80.0
 40
80.0
 40
81.0
 40
81.0
 40
81.0
 40
82.0
 40
82.0
 40
82.0
 40
83.0
 40
83.0
 40
83.0
 40
84.0
 40
84.0
 40
84.0
 40
85.0
 40
85.0
 40
85.0
 40
86.0
 40
86.0
 40
86.0
 40
87.0
 40
87.0
 40
87.0
 40
88.0
 40
88.0
 40
88.0
 40
88.0
 10
2.920558287328225
 20
-5.948867972935507
 30
0.0
 10
2.860527208369022
 20
-5.92947424397289
 30
0.0
 10
2.827331287995118
 20
-5.890680895489518
 30
0.0
 10
2.827511416970436
 20
-5.83104474072949
 30
0.0
 10
2.827689911674901
 20
-5.771944123911958
 30
0.0
 10
2.860456773090744
 20
-5.733307809089486
 30
0.0
 10
2.919491054577696
 20
-5.714774819983024
 30
0.0
 10
2.913780409330153
 20
-5.709333668283761
 30
0.0
 10
2.910209509535711
 20
-5.70556148412561
 30
0.0
 10
2.90626644496001
 20
-5.702229655109931
 30
0.0
 10
2.844451137316961
 20
-5.649996567105871
 30
0.0
 10
2.84920560839656
 20
-5.55531417723028
 30
0.0
 10
2.915969829433859
 20
-5.511163366075581
 30
0.0
 10
2.933094258305926
 20
-5.499839055304871
 30
0.0
 10
2.952051512971264
 20
-5.494274345555822
 30
0.0
 10
2.97258348638757
 20
-5.493850871891027
 30
0.0
 10
2.977423514240702
 20
-5.49375094791008
 30
0.0
 10
2.982249893238278
 20
-5.49298804878875
 30
0.0
 10
2.990392800464355
 20
-5.492216529338393
 30
0.0
 10
2.949571982850834
 20
-5.444265877136431
 30
0.0
 10
2.93729182016073
 20
-5.393124266462816
 30
0.0
 10
2.969468673877018
 20
-5.339931017474188
 30
0.0
 10
3.002408031684479
 20
-5.28547697352528
 30
0.0
 10
3.052546707479374
 20
-5.273837733399773
 30
0.0
 10
3.111889704528241
 20
-5.295867918167598
 30
0.0
 10
3.112405846776583
 20
-5.295003514671671
 30
0.0
 10
3.112921989024926
 20
-5.29413903933966
 30
0.0
 10
3.113438131273293
 20
-5.293274564007623
 30
0.0
 10
3.111174396742853
 20
-5.288271468696507
 30
0.0
 10
3.109136335263681
 20
-5.283151424254596
 30
0.0
 10
3.106612482280752
 20
-5.278283165257094
 30
0.0
 10
3.077911776566907
 20
-5.222921831675206
 30
0.0
 10
3.092116930743309
 20
-5.157031448595906
 30
0.0
 10
3.140979474461548
 20
-5.123983908607757
 30
0.0
 10
3.178313691922691
 20
-5.098733528085504
 30
0.0
 10
3.217326539027301
 20
-5.098866532579196
 30
0.0
 10
3.256682583013116
 20
-5.119909079063669
 30
0.0
 10
3.260477970563467
 20
-5.12193837635919
 30
0.0
 10
3.264189022553687
 20
-5.124132393775716
 30
0.0
 10
3.268042238149948
 20
-5.126042012169528
 30
0.0
 10
3.268956998816671
 20
-5.126495333723672
 30
0.0
 10
3.270287762233616
 20
-5.126109142982032
 30
0.0
 10
3.273433536095479
 20
-5.126109142982032
 30
0.0
 10
3.272801234902721
 20
-5.120169125656805
 30
0.0
 10
3.272508574705094
 20
-5.114580314904501
 30
0.0
 10
3.271576645214811
 20
-5.1091001562163
 30
0.0
 10
3.261126937727213
 20
-5.047642921025448
 30
0.0
 10
3.298778311489892
 20
-4.988877096237565
 30
0.0
 10
3.358054716490844
 20
-4.975801278275108
 30
0.0
 10
3.396848355791563
 20
-4.967243733950517
 30
0.0
 10
3.430091077372834
 20
-4.979265608931945
 30
0.0
 10
3.457865492728791
 20
-5.006922102883511
 30
0.0
 10
3.462445545801579
 20
-5.011482759805883
 30
0.0
 10
3.465456267829495
 20
-5.017619428387661
 30
0.0
 10
3.469192318776195
 20
-5.023027751000401
 30
0.0
 10
3.470898210212756
 20
-5.021894393237958
 30
0.0
 10
3.472604173485377
 20
-5.020761035475502
 30
0.0
 10
3.474310064921913
 20
-5.01962767771306
 30
0.0
 10
3.474805805723008
 20
-5.015207137055843
 30
0.0
 10
3.475574236290917
 20
-5.010797730990348
 30
0.0
 10
3.475755694233789
 20
-5.006364295757596
 30
0.0
 10
3.477962786013626
 20
-4.952430057650682
 30
0.0
 10
3.510983677774017
 20
-4.908950770129321
 30
0.0
 10
3.560176739305031
 20
-4.895339575855524
 30
0.0
 10
3.604325614838166
 20
-4.883124048773702
 30
0.0
 10
3.652864537007518
 20
-4.903161518767458
 30
0.0
 10
3.679016606290158
 20
-4.94430597220537
 30
0.0
 10
3.681629715604837
 20
-4.948417222639717
 30
0.0
 10
3.684716871223877
 20
-4.952227120737512
 30
0.0
 10
3.689100596284863
 20
-4.958265984502556
 30
0.0
 10
3.692101333097399
 20
-4.951490657291956
 30
0.0
 10
3.694474869078981
 20
-4.947157325630351
 30
0.0
 10
3.695994274046951
 20
-4.942542755733344
 30
0.0
 10
3.711798571242196
 20
-4.894543865606729
 30
0.0
 10
3.753320760441207
 20
-4.863247796892273
 30
0.0
 10
3.801461064192153
 20
-4.863221271421417
 30
0.0
 10
3.848480437721364
 20
-4.863195392475227
 30
0.0
 10
3.890504545624505
 20
-4.895002072014019
 30
0.0
 10
3.90601022022737
 20
-4.94220300701449
 30
0.0
 10
3.90754090346018
 20
-4.946862474458649
 30
0.0
 10
3.909808624893154
 20
-4.951279818410498
 30
0.0
 10
3.912699883516905
 20
-4.958080827018079
 30
0.0
 10
3.916486507065251
 20
-4.953383825224477
 30
0.0
 10
3.919038124693845
 20
-4.950705668577421
 30
0.0
 10
3.921038184885698
 20
-4.947664775667362
 30
0.0
 10
3.950386241451446
 20
-4.903044174538207
 30
0.0
 10
3.995618261427251
 20
-4.882967248579991
 30
0.0
 10
4.040387513363573
 20
-4.894782684639582
 30
0.0
 10
4.089312913653467
 20
-4.907695003694294
 30
0.0
 10
4.123020845701009
 20
-4.950570221657155
 30
0.0
 10
4.126031208548523
 20
-5.003622348675535
 30
0.0
 10
4.126332201731593
 20
-5.008927837946266
 30
0.0
 10
4.127014644509509
 20
-5.014211632722195
 30
0.0
 10
4.12779176724334
 20
-5.022350516399051
 30
0.0
 10
4.132573751542357
 20
-5.018176768579071
 30
0.0
 10
4.135548771037557
 20
-5.015985265425178
 30
0.0
 10
4.138044212850104
 20
-5.013341159077892
 30
0.0
 10
4.175633448401931
 20
-4.973514340894969
 30
0.0
 10
4.221810112854541
 20
-4.962671547338029
 30
0.0
 10
4.26685133619685
 20
-4.983183907667605
 30
0.0
 10
4.310731688455941
 20
-5.003167626317904
 30
0.0
 10
4.33678706637238
 20
-5.052090148784675
 30
0.0
 10
4.331045926708055
 20
-5.103783101337411
 30
0.0
 10
4.330248833543464
 20
-5.110960818324681
 30
0.0
 10
4.329294994048167
 20
-5.118121150981677
 30
0.0
 10
4.328104239154829
 20
-5.127807455559882
 30
0.0
 10
4.333628433851875
 20
-5.125667494790136
 30
0.0
 10
4.337047687677467
 20
-5.12501716279904
 30
0.0
 10
4.339685795948601
 20
-5.123220003781372
 30
0.0
 10
4.379910697344813
 20
-5.095818887078039
 30
0.0
 10
4.436508191180109
 20
-5.099637010406492
 30
0.0
 10
4.471680429920827
 20
-5.132069849096978
 30
0.0
 10
4.509523534186024
 20
-5.166965408044234
 30
0.0
 10
4.520816166258504
 20
-5.220922705531393
 30
0.0
 10
4.499681703623385
 20
-5.269146191147897
 30
0.0
 10
4.496164034365594
 20
-5.27717279503881
 30
0.0
 10
4.49231735585277
 20
-5.285055295762339
 30
0.0
 10
4.486781380038337
 20
-5.296966076253069
 30
0.0
 10
4.548901344504681
 20
-5.273908276425863
 30
0.0
 10
4.599185308775203
 20
-5.285139559478857
 30
0.0
 10
4.632294989932788
 20
-5.339414444255591
 30
0.0
 10
4.664760876124546
 20
-5.39263369790352
 30
0.0
 10
4.65281324265748
 20
-5.443785437463803
 30
0.0
 10
4.611014700051478
 20
-5.492688205009825
 30
0.0
 10
4.672922604404043
 20
-5.492901198973513
 30
0.0
 10
4.716156431926163
 20
-5.517724442191138
 30
0.0
 10
4.733660442654935
 20
-5.575251777120127
 30
0.0
 10
4.750883430631296
 20
-5.631855228282751
 30
0.0
 10
4.729553430181314
 20
-5.677097804112185
 30
0.0
 10
4.681845938823749
 20
-5.714260330010599
 30
0.0
 10
4.741268314743087
 20
-5.733372820737813
 30
0.0
 10
4.774506582487244
 20
-5.771761372935998
 30
0.0
 10
4.774430292568315
 20
-5.831580637852362
 30
0.0
 10
4.774353715304995
 20
-5.891320092888892
 30
0.0
 10
4.740994475598957
 20
-5.929674379279124
 30
0.0
 10
4.682186441851879
 20
-5.948557353745248
 30
0.0
 10
4.688345667512749
 20
-5.954118328018314
 30
0.0
 10
4.691918650553613
 20
-5.95746028592061
 30
0.0
 10
4.695613180244941
 20
-5.960662019803647
 30
0.0
 10
4.733238621182054
 20
-5.993267983435948
 30
0.0
 10
4.747064337173974
 20
-6.034220868019676
 30
0.0
 10
4.735119002461538
 20
-6.082285236729047
 30
0.0
 10
4.723565030723167
 20
-6.128774671320166
 30
0.0
 10
4.693127651811715
 20
-6.15738108961548
 30
0.0
 10
4.645922150994313
 20
-6.167223637657823
 30
0.0
 10
4.639088240852388
 20
-6.168648434378408
 30
0.0
 10
4.631868858295042
 20
-6.168126904470581
 30
0.0
 10
4.624880787921382
 20
-6.168952875666136
 30
0.0
 10
4.621626900756281
 20
-6.169337486014177
 30
0.0
 10
4.618499301423121
 20
-6.170792310214235
 30
0.0
 10
4.615314376896649
 20
-6.17176209723291
 30
0.0
 10
4.616600817451044
 20
-6.17481398106247
 30
0.0
 10
4.617224785658284
 20
-6.178434375593243
 30
0.0
 10
4.619278722911581
 20
-6.180828097299531
 30
0.0
 10
4.635559221493672
 20
-6.199803309286531
 30
0.0
 10
4.6453908513327
 20
-6.221500533844643
 30
0.0
 10
4.649105351454888
 20
-6.24627679626893
 30
0.0
 10
4.659274754550955
 20
-6.314105855434515
 30
0.0
 10
4.604297164362176
 20
-6.379936722325358
 30
0.0
 10
4.537884706658839
 20
-6.378301302231546
 30
0.0
 10
4.526718362418351
 20
-6.378026313734708
 30
0.0
 10
4.515621124488663
 20
-6.374338105948734
 30
0.0
 10
4.504527478363039
 20
-6.372053718749257
 30
0.0
 10
4.500503795744458
 20
-6.371225161454983
 30
0.0
 10
4.496584275444647
 20
-6.369890016156558
 30
0.0
 10
4.48922912269255
 20
-6.367842975350413
 30
0.0
 10
4.492211900484562
 20
-6.375233614465336
 30
0.0
 10
4.493624341526608
 20
-6.379787446960512
 30
0.0
 10
4.495792785494409
 20
-6.383946899401507
 30
0.0
 10
4.526550122314599
 20
-6.442949603648179
 30
0.0
 10
4.5063947854756
 20
-6.515299738058628
 30
0.0
 10
4.450067251636028
 20
-6.545099497239434
 30
0.0
 10
4.416964610414449
 20
-6.562612414074465
 30
0.0
 10
4.383156682540932
 20
-6.562568737740598
 30
0.0
 10
4.349648023784538
 20
-6.545287564084951
 30
0.0
 10
4.344097249737235
 20
-6.542424896478122
 30
0.0
 10
4.338537136999244
 20
-6.539578751168593
 30
0.0
 10
4.33292688267617
 20
-6.536836193479858
 30
0.0
 10
4.332384520257922
 20
-6.536571118361481
 30
0.0
 10
4.331455392374815
 20
-6.537097676794523
 30
0.0
 10
4.328831076631356
 20
-6.537654550051481
 30
0.0
 10
4.329283643947241
 20
-6.542566269874592
 30
0.0
 10
4.329461510085971
 20
-6.54775556429326
 30
0.0
 10
4.330276562271087
 20
-6.552842851484809
 30
0.0
 10
4.340485044195651
 20
-6.616569783397658
 30
0.0
 10
4.303132724041915
 20
-6.674617355185141
 30
0.0
 10
4.242590279933803
 20
-6.687482190593982
 30
0.0
 10
4.20358845966776
 20
-6.695769918619184
 30
0.0
 10
4.170831924688664
 20
-6.682579378444188
 30
0.0
 10
4.143098312227253
 20
-6.655092309876585
 30
0.0
 10
4.139487112390863
 20
-6.651513005581009
 30
0.0
 10
4.135943151127106
 20
-6.64786172153779
 30
0.0
 10
4.132219743330791
 20
-6.644403532865402
 30
0.0
 10
4.131497934379985
 20
-6.64373301493712
 30
0.0
 10
4.130086211698792
 20
-6.643805138356886
 30
0.0
 10
4.127463189004818
 20
-6.643156745939854
 30
0.0
 10
4.126953583839912
 20
-6.648859955642314
 30
0.0
 10
4.126484925241722
 20
-6.654097954920163
 30
0.0
 10
4.126017559692968
 20
-6.659335810525842
 30
0.0
 10
4.122050914923407
 20
-6.70379271519803
 30
0.0
 10
4.103198540937619
 20
-6.739150431536775
 30
0.0
 10
4.062145369517249
 20
-6.759577019592243
 30
0.0
 10
4.014732118751074
 20
-6.783168130443653
 30
0.0
 10
3.959540457038302
 20
-6.768788990564189
 30
0.0
 10
3.928138463219283
 20
-6.725708608769864
 30
0.0
 10
3.923595405728645
 20
-6.719476398207714
 30
0.0
 10
3.919271304615626
 20
-6.713084424213775
 30
0.0
 10
3.912621725859808
 20
-6.703590855826051
 30
0.0
 10
3.90910951614425
 20
-6.712771075252677
 30
0.0
 10
3.906633901090294
 20
-6.718989924304777
 30
0.0
 10
3.904340606012182
 20
-6.725275580907034
 30
0.0
 10
3.883326540650336
 20
-6.782872022140609
 30
0.0
 10
3.823506911198137
 20
-6.813036852256876
 30
0.0
 10
3.766679901081235
 20
-6.793790099904627
 30
0.0
 10
3.732146859797138
 20
-6.782094181115603
 30
0.0
 10
3.709728614542655
 20
-6.757453545201819
 30
0.0
 10
3.697009533392247
 20
-6.723623925860161
 30
0.0
 10
3.694880096416884
 20
-6.717960369671345
 30
0.0
 10
3.692632345414696
 20
-6.712341064504975
 30
0.0
 10
3.689270991471099
 20
-6.703696742201271
 30
0.0
 10
3.656899641563111
 20
-6.755090138319347
 30
0.0
 10
3.615444475428527
 20
-6.783906892643598
 30
0.0
 10
3.55595227483756
 20
-6.76563481216317
 30
0.0
 10
3.497420378989267
 20
-6.747657834280693
 30
0.0
 10
3.476948963389961
 20
-6.701087081252151
 30
0.0
 10
3.474593601937107
 20
-6.641089591032545
 30
0.0
 10
3.469559401154633
 20
-6.645229216716668
 30
0.0
 10
3.466220891085084
 20
-6.647421222723096
 30
0.0
 10
3.463556490807933
 20
-6.650248403308725
 30
0.0
 10
3.425951738662408
 20
-6.690153199551533
 30
0.0
 10
3.378319890699053
 20
-6.700651898307063
 30
0.0
 10
3.333527866724782
 20
-6.678782985528565
 30
0.0
 10
3.288877072487492
 20
-6.656983179054703
 30
0.0
 10
3.263426841724872
 20
-6.606114186287413
 30
0.0
 10
3.271451506760159
 20
-6.554834578512882
 30
0.0
 10
3.272335449747767
 20
-6.549186538916323
 30
0.0
 10
3.272866174720749
 20
-6.543483329213813
 30
0.0
 10
3.27390478079264
 20
-6.534992736111537
 30
0.0
 10
3.267367841013209
 20
-6.537890459723257
 30
0.0
 10
3.263127859952065
 20
-6.539302469622422
 30
0.0
 10
3.259357184013879
 20
-6.541514158713501
 30
0.0
 10
3.223172738961364
 20
-6.562739994944472
 30
0.0
 10
3.185913338779502
 20
-6.564660029569191
 30
0.0
 10
3.149733994088794
 20
-6.543621829167325
 30
0.0
 10
3.112516222916408
 20
-6.521979774715115
 30
0.0
 10
3.093352547269786
 20
-6.488192826002331
 30
0.0
 10
3.091852789470218
 20
-6.444721368613196
 30
0.0
 10
3.091072685538998
 20
-6.422109383470241
 30
0.0
 10
3.096723455412277
 20
-6.401278789326422
 30
0.0
 10
3.107509607189386
 20
-6.381595560979753
 30
0.0
 10
3.109264562669851
 20
-6.378393108735963
 30
0.0
 10
3.110272422898712
 20
-6.374781334534266
 30
0.0
 10
3.113156354242088
 20
-6.367486812088322
 30
0.0
 10
3.05079257811384
 20
-6.39056156522934
 30
0.0
 10
3.001354411871438
 20
-6.376422788858386
 30
0.0
 10
2.969079430067317
 20
-6.322330655057612
 30
0.0
 10
2.937479815187038
 20
-6.269370370461729
 30
0.0
 10
2.949485815470628
 20
-6.218493906742574
 30
0.0
 10
2.991299299981669
 20
-6.169902835927991
 30
0.0
 10
2.92942106393088
 20
-6.170051823948445
 30
0.0
 10
2.886280282093871
 20
-6.145533884051524
 30
0.0
 10
2.868721568188751
 20
-6.088495321779949
 30
0.0
 10
2.851354908048556
 20
-6.03208072765973
 30
0.0
 10
2.871313916875755
 20
-5.986368415732865
 30
0.0
 10
2.920558287328225
 20
-5.948867972935507
 30
0.0
  0
HATCH
  5
81
330
70
100
AcDbEntity
  8
Lid
 62
    18
420
        0
440
 33554687
100
AcDbHatch
 10
0.0
 20
0.0
 30
0.0
210
0.0
220
0.0
230
1.0
  2
SOLID
 70
     1
 71
     1
 91
        2
 92
        1
 93
        1
 72
     4
 94
        3
 73
     0
 74
     0
 95
       17
 96
       13
 40
0.0
 40
0.0
 40
0.0
 40
0.0
 40
1.0
 40
1.0
 40
1.0
 40
2.0
 40
2.0
 40
2.0
 40
3.0
 40
3.0
 40
3.0
 40
4.0
 40
4.0
 40
4.0
 40
4.0
 10
3.801637565445364
 20
-6.644067914720936
 10
4.246843119653564
 20
-6.644956670646428
 10
4.61564985139906
 20
-6.287236146099429
 10
4.617911682273288
 20
-5.835299016790031
 10
4.620160582652816
 20
-5.385977798168369
 10
4.262705819583402
 20
-5.016841300018326
 10
3.801558904935695
 20
-5.016824490376671
 10
3.335423405417486
 20
-5.016807501144827
 10
2.98404838138438
 20
-5.393446523097281
 10
2.985241937884893
 20
-5.833103706324132
 10
2.986451406077574
 20
-6.278621563930906
 10
3.350764359884603
 20
-6.645086550270863
 10
3.801637565445364
 20
-6.644067914720936
 97
        0
 97
        1
330
7F
 92
        1
 93
        1
 72
     4
 94
        3
 73
     0
 74
     0
 95
      269
 96
      265
 40
0.0
 40
0.0
 40
0.0
 40
0.0
 40
1.0
 40
1.0
 40
1.0
 40
2.0
 40
2.0
 40
2.0
 40
3.0
 40
3.0
 40
3.0
 40
4.0
 40
4.0
 40
4.0
 40
5.0
 40
5.0
 40
5.0
 40
6.0
 40
6.0
 40
6.0
 40
7.0
 40
7.0
 40
7.0
 40
8.0
 40
8.0
 40
8.0
 40
9.0
 40
9.0
 40
9.0
 40
10.0
 40
10.0
 40
10.0
 40
11.0
 40
11.0
 40
11.0
 40
12.0
 40
12.0
 40
12.0
 40
13.0
 40
13.0
 40
13.0
 40
14.0
 40
14.0
 40
14.0
 40
15.0
 40
15.0
 40
15.0
 40
16.0
 40
16.0
 40
16.0
 40
17.0
 40
17.0
 40
17.0
 40
18.0
 40
18.0
 40
18.0
 40
19.0
 40
19.0
 40
19.0
 40
20.0
 40
20.0
 40
20.0
 40
21.0
 40
21.0
 40
21.0
 40
22.0
 40
22.0
 40
22.0
 40
23.0
 40
23.0
 40
23.0
 40
24.0
 40
24.0
 40
24.0
 40
25.0
 40
25.0
 40
25.0
 40
26.0
 40
26.0
 40
26.0
 40
27.0
 40
27.0
 40
27.0
 40
28.0
 40
28.0
 40
28.0
 40
29.0
 40
29.0
 40
29.0
 40
30.0
 40
30.0
 40
30.0
 40
31.0
 40
31.0
 40
31.0
 40
32.0
 40
32.0
 40
32.0
 40
33.0
 40
33.0
 40
33.0
 40
34.0
 40
34.0
 40
34.0
 40
35.0
 40
35.0
 40
35.0
 40
36.0
 40
36.0
 40
36.0
 40
37.0
 40
37.0
 40
37.0
 40
38.0
 40
38.0
 40
38.0
 40
39.0
 40
39.0
 40
39.0
 40
40.0
 40
40.0
 40
40.0
 40
41.0
 40
41.0
 40
41.0
 40
42.0
 40
42.0
 40
42.0
 40
43.0
 40
43.0
 40
43.0
 40
44.0
 40
44.0
 40
44.0
 40
45.0
 40
45.0
 40
45.0
 40
46.0
 40
46.0
 40
46.0
 40
47.0
 40
47.0
 40
47.0
 40
48.0
 40
48.0
 40
48.0
 40
49.0
 40
49.0
 40
49.0
 40
50.0
 40
50.0
 40
50.0
 40
51.0
 40
51.0
 40
51.0
 40
52.0
 40
52.0
 40
52.0
 40
53.0
 40
53.0
 40
53.0
 40
54.0
 40
54.0
 40
54.0
 40
55.0
 40
55.0
 40
55.0
 40
56.0
 40
56.0
 40
56.0
 40
57.0
 40
57.0
 40
57.0
 40
58.0
 40
58.0
 40
58.0
 40
59.0
 40
59.0
 40
59.0
 40
60.0
 40
60.0
 40
60.0
 40
61.0
 40
61.0
 40
61.0
 40
62.0
 40
62.0
 40
62.0
 40
63.0
 40
63.0
 40
63.0
 40
64.0
 40
64.0
 40
64.0
 40
65.0
 40
65.0
 40
65.0
 40
66.0
 40
66.0
 40
66.0
 40
67.0
 40
67.0
 40
67.0
 40
68.0
 40
68.0
 40
68.0
 40
69.0
 40
69.0
 40
69.0
 40
70.0
 40
70.0
 40
70.0
 40
71.0
 40
71.0
 40
71.0
 40
72.0
 40
72.0
 40
72.0
 40
73.0
 40
73.0
 40
73.0
 40
74.0
 40
74.0
 40
74.0
 40
75.0
 40
75.0
 40
75.0
 40
76.0
 40
76.0
 40
76.0
 40
77.0
 40
77.0
 40
77.0
 40
78.0
 40
78.0
 40
78.0
 40
79.0
 40
79.0
 40
79.0
 40
80.0
 40
80.0
 40
80.0
 40
81.0
 40
81.0
 40
81.0
 40
82.0
 40
82.0
 40
82.0
 40
83.0
 40
83.0
 40
83.0
 40
84.0
 40
84.0
 40
84.0
 40
85.0
 40
85.0
 40
85.0
 40
86.0
 40
86.0
 40
86.0
 40
87.0
 40
87.0
 40
87.0
 40
88.0
 40
88.0
 40
88.0
 40
88.0
 10
2.920558287328225
 20
-5.948867972935507
 10
2.860527208369022
 20
-5.92947424397289
 10
2.827331287995118
 20
-5.890680895489518
 10
2.827511416970436
 20
-5.83104474072949
 10
2.827689911674901
 20
-5.771944123911958
 10
2.860456773090744
 20
-5.733307809089486
 10
2.919491054577696
 20
-5.714774819983024
 10
2.913780409330153
 20
-5.709333668283761
 10
2.910209509535711
 20
-5.70556148412561
 10
2.90626644496001
 20
-5.702229655109931
 10
2.844451137316961
 20
-5.649996567105871
 10
2.84920560839656
 20
-5.55531417723028
 10
2.915969829433859
 20
-5.511163366075581
 10
2.933094258305926
 20
-5.499839055304871
 10
2.952051512971264
 20
-5.494274345555822
 10
2.97258348638757
 20
-5.493850871891027
 10
2.977423514240702
 20
-5.49375094791008
 10
2.982249893238278
 20
-5.49298804878875
 10
2.990392800464355
 20
-5.492216529338393
 10
2.949571982850834
 20
-5.444265877136431
 10
2.93729182016073
 20
-5.393124266462816
 10
2.969468673877018
 20
-5.339931017474188
 10
3.002408031684479
 20
-5.28547697352528
 10
3.052546707479374
 20
-5.273837733399773
 10
3.111889704528241
 20
-5.295867918167598
 10
3.112405846776583
 20
-5.295003514671671
 10
3.112921989024926
 20
-5.29413903933966
 10
3.113438131273293
 20
-5.293274564007623
 10
3.111174396742853
 20
-5.288271468696507
 10
3.109136335263681
 20
-5.283151424254596
 10
3.106612482280752
 20
-5.278283165257094
 10
3.077911776566907
 20
-5.222921831675206
 10
3.092116930743309
 20
-5.157031448595906
 10
3.140979474461548
 20
-5.123983908607757
 10
3.178313691922691
 20
-5.098733528085504
 10
3.217326539027301
 20
-5.098866532579196
 10
3.256682583013116
 20
-5.119909079063669
 10
3.260477970563467
 20
-5.12193837635919
 10
3.264189022553687
 20
-5.124132393775716
 10
3.268042238149948
 20
-5.126042012169528
 10
3.268956998816671
 20
-5.126495333723672
 10
3.270287762233616
 20
-5.126109142982032
 10
3.273433536095479
 20
-5.126109142982032
 10
3.272801234902721
 20
-5.120169125656805
 10
3.272508574705094
 20
-5.114580314904501
 10
3.271576645214811
 20
-5.1091001562163
 10
3.261126937727213
 20
-5.047642921025448
 10
3.298778311489892
 20
-4.988877096237565
 10
3.358054716490844
 20
-4.975801278275108
 10
3.396848355791563
 20
-4.967243733950517
 10
3.430091077372834
 20
-4.979265608931945
 10
3.457865492728791
 20
-5.006922102883511
 10
3.462445545801579
 20
-5.011482759805883
 10
3.465456267829495
 20
-5.017619428387661
 10
3.469192318776195
 20
-5.023027751000401
 10
3.470898210212756
 20
-5.021894393237958
 10
3.472604173485377
 20
-5.020761035475502
 10
3.474310064921913
 20
-5.01962767771306
 10
3.474805805723008
 20
-5.015207137055843
 10
3.475574236290917
 20
-5.010797730990348
 10
3.475755694233789
 20
-5.006364295757596
 10
3.477962786013626
 20
-4.952430057650682
 10
3.510983677774017
 20
-4.908950770129321
 10
3.560176739305031
 20
-4.895339575855524
 10
3.604325614838166
 20
-4.883124048773702
 10
3.652864537007518
 20
-4.903161518767458
 10
3.679016606290158
 20
-4.94430597220537
 10
3.681629715604837
 20
-4.948417222639717
 10
3.684716871223877
 20
-4.952227120737512
 10
3.689100596284863
 20
-4.958265984502556
 10
3.692101333097399
 20
-4.951490657291956
 10
3.694474869078981
 20
-4.947157325630351
 10
3.695994274046951
 20
-4.942542755733344
 10
3.711798571242196
 20
-4.894543865606729
 10
3.753320760441207
 20
-4.863247796892273
 10
3.801461064192153
 20
-4.863221271421417
 10
3.848480437721364
 20
-4.863195392475227
 10
3.890504545624505
 20
-4.895002072014019
 10
3.90601022022737
 20
-4.94220300701449
 10
3.90754090346018
 20
-4.946862474458649
 10
3.909808624893154
 20
-4.951279818410498
 10
3.912699883516905
 20
-4.958080827018079
 10
3.916486507065251
 20
-4.953383825224477
 10
3.919038124693845
 20
-4.950705668577421
 10
3.921038184885698
 20
-4.947664775667362
 10
3.950386241451446
 20
-4.903044174538207
 10
3.995618261427251
 20
-4.882967248579991
 10
4.040387513363573
 20
-4.894782684639582
 10
4.089312913653467
 20
-4.907695003694294
 10
4.123020845701009
 20
-4.950570221657155
 10
4.126031208548523
 20
-5.003622348675535
 10
4.126332201731593
 20
-5.008927837946266
 10
4.127014644509509
 20
-5.014211632722195
 10
4.12779176724334
 20
-5.022350516399051
 10
4.132573751542357
 20
-5.018176768579071
 10
4.135548771037557
 20
-5.015985265425178
 10
4.138044212850104
 20
-5.013341159077892
 10
4.175633448401931
 20
-4.973514340894969
 10
4.221810112854541
 20
-4.962671547338029
 10
4.26685133619685
 20
-4.983183907667605
 10
4.310731688455941
 20
-5.003167626317904
 10
4.33678706637238
 20
-5.052090148784675
 10
4.331045926708055
 20
-5.103783101337411
 10
4.330248833543464
 20
-5.110960818324681
 10
4.329294994048167
 20
-5.118121150981677
 10
4.328104239154829
 20
-5.127807455559882
 10
4.333628433851875
 20
-5.125667494790136
 10
4.337047687677467
 20
-5.12501716279904
 10
4.339685795948601
 20
-5.123220003781372
 10
4.379910697344813
 20
-5.095818887078039
 10
4.436508191180109
 20
-5.099637010406492
 10
4.471680429920827
 20
-5.132069849096978
 10
4.509523534186024
 20
-5.166965408044234
 10
4.520816166258504
 20
-5.220922705531393
 10
4.499681703623385
 20
-5.269146191147897
 10
4.496164034365594
 20
-5.27717279503881
 10
4.49231735585277
 20
-5.285055295762339
 10
4.486781380038337
 20
-5.296966076253069
 10
4.548901344504681
 20
-5.273908276425863
 10
4.599185308775203
 20
-5.285139559478857
 10
4.632294989932788
 20
-5.339414444255591
 10
4.664760876124546
 20
-5.39263369790352
 10
4.65281324265748
 20
-5.443785437463803
 10
4.611014700051478
 20
-5.492688205009825
 10
4.672922604404043
 20
-5.492901198973513
 10
4.716156431926163
 20
-5.517724442191138
 10
4.733660442654935
 20
-5.575251777120127
 10
4.750883430631296
 20
-5.631855228282751
 10
4.729553430181314
 20
-5.677097804112185
 10
4.681845938823749
 20
-5.714260330010599
 10
4.741268314743087
 20
-5.733372820737813
 10
4.774506582487244
 20
-5.771761372935998
 10
4.774430292568315
 20
-5.831580637852362
 10
4.774353715304995
 20
-5.891320092888892
 10
4.740994475598957
 20
-5.929674379279124
 10
4.682186441851879
 20
-5.948557353745248
 10
4.688345667512749
 20
-5.954118328018314
 10
4.691918650553613
 20
-5.95746028592061
 10
4.695613180244941
 20
-5.960662019803647
 10
4.733238621182054
 20
-5.993267983435948
 10
4.747064337173974
 20
-6.034220868019676
 10
4.735119002461538
 20
-6.082285236729047
 10
4.723565030723167
 20
-6.128774671320166
 10
4.693127651811715
 20
-6.15738108961548
 10
4.645922150994313
 20
-6.167223637657823
 10
4.639088240852388
 20
-6.168648434378408
 10
4.631868858295042
 20
-6.168126904470581
 10
4.624880787921382
 20
-6.168952875666136
 10
4.621626900756281
 20
-6.169337486014177
 10
4.618499301423121
 20
-6.170792310214235
 10
4.615314376896649
 20
-6.17176209723291
 10
4.616600817451044
 20
-6.17481398106247
 10
4.617224785658284
 20
-6.178434375593243
 10
4.619278722911581
 20
-6.180828097299531
 10
4.635559221493672
 20
-6.199803309286531
 10
4.6453908513327
 20
-6.221500533844643
 10
4.649105351454888
 20
-6.24627679626893
 10
4.659274754550955
 20
-6.314105855434515
 10
4.604297164362176
 20
-6.379936722325358
 10
4.537884706658839
 20
-6.378301302231546
 10
4.526718362418351
 20
-6.378026313734708
 10
4.515621124488663
 20
-6.374338105948734
 10
4.504527478363039
 20
-6.372053718749257
 10
4.500503795744458
 20
-6.371225161454983
 10
4.496584275444647
 20
-6.369890016156558
 10
4.48922912269255
 20
-6.367842975350413
 10
4.492211900484562
 20
-6.375233614465336
 10
4.493624341526608
 20
-6.379787446960512
 10
4.495792785494409
 20
-6.383946899401507
 10
4.526550122314599
 20
-6.442949603648179
 10
4.5063947854756
 20
-6.515299738058628
 10
4.450067251636028
 20
-6.545099497239434
 10
4.416964610414449
 20
-6.562612414074465
 10
4.383156682540932
 20
-6.562568737740598
 10
4.349648023784538
 20
-6.545287564084951
 10
4.344097249737235
 20
-6.542424896478122
 10
4.338537136999244
 20
-6.539578751168593
 10
4.33292688267617
 20
-6.536836193479858
 10
4.332384520257922
 20
-6.536571118361481
 10
4.331455392374815
 20
-6.537097676794523
 10
4.328831076631356
 20
-6.537654550051481
 10
4.329283643947241
 20
-6.542566269874592
 10
4.329461510085971
 20
-6.54775556429326
 10
4.330276562271087
 20
-6.552842851484809
 10
4.340485044195651
 20
-6.616569783397658
 10
4.303132724041915
 20
-6.674617355185141
 10
4.242590279933803
 20
-6.687482190593982
 10
4.20358845966776
 20
-6.695769918619184
 10
4.170831924688664
 20
-6.682579378444188
 10
4.143098312227253
 20
-6.655092309876585
 10
4.139487112390863
 20
-6.651513005581009
 10
4.135943151127106
 20
-6.64786172153779
 10
4.132219743330791
 20
-6.644403532865402
 10
4.131497934379985
 20
-6.64373301493712
 10
4.130086211698792
 20
-6.643805138356886
 10
4.127463189004818
 20
-6.643156745939854
 10
4.126953583839912
 20
-6.648859955642314
 10
4.126484925241722
 20
-6.654097954920163
 10
4.126017559692968
 20
-6.659335810525842
 10
4.122050914923407
 20
-6.70379271519803
 10
4.103198540937619
 20
-6.739150431536775
 10
4.062145369517249
 20
-6.759577019592243
 10
4.014732118751074
 20
-6.783168130443653
 10
3.959540457038302
 20
-6.768788990564189
 10
3.928138463219283
 20
-6.725708608769864
 10
3.923595405728645
 20
-6.719476398207714
 10
3.919271304615626
 20
-6.713084424213775
 10
3.912621725859808
 20
-6.703590855826051
 10
3.90910951614425
 20
-6.712771075252677
 10
3.906633901090294
 20
-6.718989924304777
 10
3.904340606012182
 20
-6.725275580907034
 10
3.883326540650336
 20
-6.782872022140609
 10
3.823506911198137
 20
-6.813036852256876
 10
3.766679901081235
 20
-6.793790099904627
 10
3.732146859797138
 20
-6.782094181115603
 10
3.709728614542655
 20
-6.757453545201819
 10
3.697009533392247
 20
-6.723623925860161
 10
3.694880096416884
 20
-6.717960369671345
 10
3.692632345414696
 20
-6.712341064504975
 10
3.689270991471099
 20
-6.703696742201271
 10
3.656899641563111
 20
-6.755090138319347
 10
3.615444475428527
 20
-6.783906892643598
 10
3.55595227483756
 20
-6.76563481216317
 10
3.497420378989267
 20
-6.747657834280693
 10
3.476948963389961
 20
-6.701087081252151
 10
3.474593601937107
 20
-6.641089591032545
 10
3.469559401154633
 20
-6.645229216716668
 10
3.466220891085084
 20
-6.647421222723096
 10
3.463556490807933
 20
-6.650248403308725
 10
3.425951738662408
 20
-6.690153199551533
 10
3.378319890699053
 20
-6.700651898307063
 10
3.333527866724782
 20
-6.678782985528565
 10
3.288877072487492
 20
-6.656983179054703
 10
3.263426841724872
 20
-6.606114186287413
 10
3.271451506760159
 20
-6.554834578512882
 10
3.272335449747767
 20
-6.549186538916323
 10
3.272866174720749
 20
-6.543483329213813
 10
3.27390478079264
 20
-6.534992736111537
 10
3.267367841013209
 20
-6.537890459723257
 10
3.263127859952065
 20
-6.539302469622422
 10
3.259357184013879
 20
-6.541514158713501
 10
3.223172738961364
 20
-6.562739994944472
 10
3.185913338779502
 20
-6.564660029569191
 10
3.149733994088794
 20
-6.543621829167325
 10
3.112516222916408
 20
-6.521979774715115
 10
3.093352547269786
 20
-6.488192826002331
 10
3.091852789470218
 20
-6.444721368613196
 10
3.091072685538998
 20
-6.422109383470241
 10
3.096723455412277
 20
-6.401278789326422
 10
3.107509607189386
 20
-6.381595560979753
 10
3.109264562669851
 20
-6.378393108735963
 10
3.110272422898712
 20
-6.374781334534266
 10
3.113156354242088
 20
-6.367486812088322
 10
3.05079257811384
 20
-6.39056156522934
 10
3.001354411871438
 20
-6.376422788858386
 10
2.969079430067317
 20
-6.322330655057612
 10
2.937479815187038
 20
-6.269370370461729
 10
2.949485815470628
 20
-6.218493906742574
 10
2.991299299981669
 20
-6.169902835927991
 10
2.92942106393088
 20
-6.170051823948445
 10
2.886280282093871
 20
-6.145533884051524
 10
2.868721568188751
 20
-6.088495321779949
 10
2.851354908048556
 20
-6.03208072765973
 10
2.871313916875755
 20
-5.986368415732865
 10
2.920558287328225
 20
-5.948867972935507
 97
        0
 97
        1
330
80
 75
     2
 76
     1
 98
        1
 10
0.0
 20
0.0
450
        0
451
        0
460
0.0
461
0.0
452
        0
462
0.0
453
        0
470

  0
LWPOLYLINE
  5
82
330
70
100
AcDbEntity
  8
Lid
 62
   250
420
  2301728
370
    70
100
AcDbPolyline
 90
        4
 70
     1
 43
0.0
 10
5.415189125295531
 20
-7.284799054373529
 10
2.185189125295525
 20
-7.284799054373529
 10
2.185189125295525
 20
-4.254799054373506
 10
5.415189125295531
 20
-4.254799054373506
  0
SPLINE
  5
83
330
70
100
AcDbEntity
  8
Lid
100
AcDbSpline
210
0.0
220
0.0
230
1.0
 70
     9
 71
     3
 72
    17
 73
    13
 74
     0
 42
0.0000000001
 43
0.0000000001
 40
0.0
 40
0.0
 40
0.0
 40
0.0
 40
1.0
 40
1.0
 40
1.0
 40
2.0
 40
2.0
 40
2.0
 40
3.0
 40
3.0
 40
3.0
 40
4.0
 40
4.0
 40
4.0
 40
4.0
 10
3.98289709546811
 20
-6.330209364595096
 30
0.0
 10
3.963486220359603
 20
-6.329613424111155
 30
0.0
 10
3.948222345034082
 20
-6.313397569890234
 30
0.0
 10
3.948871691279741
 20
-6.294063836437544
 30
0.0
 10
3.949532057761946
 20
-6.27440966841454
 30
0.0
 10
3.965395264413422
 20
-6.259283969901085
 30
0.0
 10
3.984788337601356
 20
-6.259818027518273
 30
0.0
 10
4.004222948603961
 20
-6.260353780556467
 30
0.0
 10
4.019246921856998
 20
-6.276336514388932
 30
0.0
 10
4.018752706633474
 20
-6.29595253543928
 30
0.0
 10
4.018261882251964
 20
-6.315476156044748
 30
0.0
 10
4.002218960973752
 20
-6.33080360965803
 30
0.0
 10
3.98289709546811
 20
-6.330209364595096
 30
0.0
  0
SPLINE
  5
84
330
70
100
AcDbEntity
  8
Lid
100
AcDbSpline
210
0.0
220
0.0
230
1.0
 70
     9
 71
     3
 72
    17
 73
    13
 74
     0
 42
0.0000000001
 43
0.0000000001
 40
0.0
 40
0.0
 40
0.0
 40
0.0
 40
1.0
 40
1.0
 40
1.0
 40
2.0
 40
2.0
 40
2.0
 40
3.0
 40
3.0
 40
3.0
 40
4.0
 40
4.0
 40
4.0
 40
4.0
 10
3.930838345739377
 20
-6.460926324230513
 30
0.0
 10
3.911384237395193
 20
-6.461309489378082
 30
0.0
 10
3.895217550383474
 20
-6.445882853635894
 30
0.0
 10
3.894958150969412
 20
-6.426688992416276
 30
0.0
 10
3.894695360713335
 20
-6.40726370622921
 30
0.0
 10
3.911105340639551
 20
-6.390821513303863
 30
0.0
 10
3.930813762134776
 20
-6.390763868989627
 30
0.0
 10
3.949504931025835
 20
-6.390709615517405
 30
0.0
 10
3.965126540183821
 20
-6.406285448308203
 30
0.0
 10
3.965289300600488
 20
-6.425138529905425
 30
0.0
 10
3.965457994990679
 20
-6.444619764985721
 30
0.0
 10
3.950125455114377
 20
-6.460546549924957
 30
0.0
 10
3.930838345739377
 20
-6.460926324230513
 30
0.0
  0
SPLINE
  5
85
330
70
100
AcDbEntity
  8
Lid
100
AcDbSpline
210
0.0
220
0.0
230
1.0
 70
     9
 71
     3
 72
    23
 73
    19
 74
     0
 42
0.0000000001
 43
0.0000000001
 40
0.0
 40
0.0
 40
0.0
 40
0.0
 40
1.0
 40
1.0
 40
1.0
 40
2.0
 40
2.0
 40
2.0
 40
3.0
 40
3.0
 40
3.0
 40
4.0
 40
4.0
 40
4.0
 40
5.0
 40
5.0
 40
5.0
 40
6.0
 40
6.0
 40
6.0
 40
6.0
 10
3.821257352087033
 20
-6.42394834435855
 30
0.0
 10
3.757063626501096
 20
-6.434683750174523
 30
0.0
 10
3.696992317093544
 20
-6.393337518078169
 30
0.0
 10
3.681797106318804
 20
-6.327961236339888
 30
0.0
 10
3.664373264630436
 20
-6.252992262544315
 30
0.0
 10
3.711951016637815
 20
-6.182105862533464
 30
0.0
 10
3.787536275969412
 20
-6.170421868664107
 30
0.0
 10
3.842667976273231
 20
-6.1618998349727
 30
0.0
 10
3.900826003074446
 20
-6.202039775022613
 30
0.0
 10
3.917381789207259
 20
-6.260192715560807
 30
0.0
 10
3.919307787471148
 20
-6.266959140799523
 30
0.0
 10
3.920769240379134
 20
-6.273906976085982
 30
0.0
 10
3.921789036114811
 20
-6.280866679319488
 30
0.0
 10
3.922636746618283
 20
-6.286653998926693
 30
0.0
 10
3.922517219437294
 20
-6.292582886187978
 30
0.0
 10
3.922825786060558
 20
-6.298449042872006
 30
0.0
 10
3.922570625199012
 20
-6.360520101357248
 30
0.0
 10
3.879169542842241
 20
-6.414264099566884
 30
0.0
 10
3.821257352087033
 20
-6.42394834435855
 30
0.0
  0
SPLINE
  5
86
330
70
100
AcDbEntity
  8
Lid
100
AcDbSpline
210
0.0
220
0.0
230
1.0
 70
     9
 71
     3
 72
    17
 73
    13
 74
     0
 42
0.0000000001
 43
0.0000000001
 40
0.0
 40
0.0
 40
0.0
 40
0.0
 40
1.0
 40
1.0
 40
1.0
 40
2.0
 40
2.0
 40
2.0
 40
3.0
 40
3.0
 40
3.0
 40
4.0
 40
4.0
 40
4.0
 40
4.0
 10
3.798724359194238
 20
-6.515207770899349
 30
0.0
 10
3.779257535192502
 20
-6.515331536632857
 30
0.0
 10
3.763115431785384
 20
-6.499634481240061
 30
0.0
 10
3.763049310366113
 20
-6.480517761676259
 30
0.0
 10
3.762983188946842
 20
-6.461192505328603
 30
0.0
 10
3.77861242749936
 20
-6.445492059093794
 30
0.0
 10
3.798173347366981
 20
-6.445232659679732
 30
0.0
 10
3.817696120261946
 20
-6.444974955686675
 30
0.0
 10
3.833477098994585
 20
-6.46042532732296
 30
0.0
 10
3.833656813621321
 20
-6.47997353153303
 30
0.0
 10
3.833834832827051
 20
-6.499396274588585
 30
0.0
 10
3.818281888219846
 20
-6.515084005165842
 30
0.0
 10
3.798724359194238
 20
-6.515207770899349
 30
0.0
  0
SPLINE
  5
87
330
70
100
AcDbEntity
  8
Lid
100
AcDbSpline
210
0.0
220
0.0
230
1.0
 70
     9
 71
     3
 72
    17
 73
    13
 74
     0
 42
0.0000000001
 43
0.0000000001
 40
0.0
 40
0.0
 40
0.0
 40
0.0
 40
1.0
 40
1.0
 40
1.0
 40
2.0
 40
2.0
 40
2.0
 40
3.0
 40
3.0
 40
3.0
 40
4.0
 40
4.0
 40
4.0
 40
4.0
 10
3.668881389087901
 20
-6.460789842839453
 30
0.0
 10
3.649070394621755
 20
-6.460767802366363
 30
0.0
 10
3.632915575557085
 20
-6.444516344304297
 30
0.0
 10
3.633136827998491
 20
-6.424831658703169
 30
0.0
 10
3.633347060203353
 20
-6.406019267210113
 30
0.0
 10
3.648838969654307
 20
-6.390697747570357
 30
0.0
 10
3.66779716735396
 20
-6.390551093653256
 30
0.0
 10
3.687372498300141
 20
-6.390399353473134
 30
0.0
 10
3.70364430141429
 20
-6.406787292926259
 30
0.0
 10
3.703523926522797
 20
-6.426531318262631
 30
0.0
 10
3.703409485604828
 20
-6.445240289074263
 30
0.0
 10
3.687664110713335
 20
-6.46081103560204
 30
0.0
 10
3.668881389087901
 20
-6.460789842839453
 30
0.0
  0
SPLINE
  5
88
330
70
100
AcDbEntity
  8
Lid
100
AcDbSpline
210
0.0
220
0.0
230
1.0
 70
     9
 71
     3
 72
    17
 73
    13
 74
     0
 42
0.0000000001
 43
0.0000000001
 40
0.0
 40
0.0
 40
0.0
 40
0.0
 40
1.0
 40
1.0
 40
1.0
 40
2.0
 40
2.0
 40
2.0
 40
3.0
 40
3.0
 40
3.0
 40
4.0
 40
4.0
 40
4.0
 40
4.0
 10
3.579143602900835
 20
-6.294658081500478
 30
0.0
 10
3.579387743525835
 20
-6.275098857053863
 30
0.0
 10
3.595169569968978
 20
-6.259547607867665
 30
0.0
 10
3.614456679343978
 20
-6.259860413043447
 30
0.0
 10
3.633973518265419
 20
-6.260176609061241
 30
0.0
 10
3.649429823875228
 20
-6.275943176715322
 30
0.0
 10
3.649228068775401
 20
-6.295330315929732
 30
0.0
 10
3.649028856807085
 20
-6.314474162229644
 30
0.0
 10
3.632966438187294
 20
-6.330343302854644
 30
0.0
 10
3.613821744176877
 20
-6.330309394434506
 30
0.0
 10
3.594906779712901
 20
-6.33027633372487
 30
0.0
 10
3.578903700828353
 20
-6.313823968273482
 30
0.0
 10
3.579143602900835
 20
-6.294658081500478
 30
0.0
  0
SPLINE
  5
89
330
70
100
AcDbEntity
  8
Lid
100
AcDbSpline
210
0.0
220
0.0
230
1.0
 70
     9
 71
     3
 72
    17
 73
    13
 74
     0
 42
0.0000000001
 43
0.0000000001
 40
0.0
 40
0.0
 40
0.0
 40
0.0
 40
1.0
 40
1.0
 40
1.0
 40
2.0
 40
2.0
 40
2.0
 40
3.0
 40
3.0
 40
3.0
 40
4.0
 40
4.0
 40
4.0
 40
4.0
 10
3.669312026023665
 20
-6.129221442774349
 30
0.0
 10
3.68877122063087
 20
-6.129139214855513
 30
0.0
 10
3.704130887243283
 20
-6.144762519434506
 30
0.0
 10
3.703974908510645
 20
-6.164479418034766
 30
0.0
 10
3.703824016041026
 20
-6.183507127995704
 30
0.0
 10
3.687725145869585
 20
-6.199343207911068
 30
0.0
 10
3.668496528519325
 20
-6.199378811752214
 30
0.0
 10
3.64922043938087
 20
-6.199415263303863
 30
0.0
 10
3.63349540954146
 20
-6.183429986339888
 30
0.0
 10
3.63375396124502
 20
-6.164063192177561
 30
0.0
 10
3.634007426685557
 20
-6.145028700532596
 30
0.0
 10
3.650057129647797
 20
-6.129303670693186
 30
0.0
 10
3.669312026023665
 20
-6.129221442774349
 30
0.0
  0
SPLINE
  5
8A
330
70
100
AcDbEntity
  8
Lid
100
AcDbSpline
210
0.0
220
0.0
230
1.0
 70
     9
 71
     3
 72
    17
 73
    13
 74
     0
 42
0.0000000001
 43
0.0000000001
 40
0.0
 40
0.0
 40
0.0
 40
0.0
 40
1.0
 40
1.0
 40
1.0
 40
2.0
 40
2.0
 40
2.0
 40
3.0
 40
3.0
 40
3.0
 40
4.0
 40
4.0
 40
4.0
 40
4.0
 10
3.758508972909516
 20
-5.77460972809336
 30
0.0
 10
3.746579142994151
 20
-5.774843696192318
 30
0.0
 10
3.736837253888249
 20
-5.765403592025651
 30
0.0
 10
3.736482910897797
 20
-5.753264377615929
 30
0.0
 10
3.736121786223318
 20
-5.740921712685373
 30
0.0
 10
3.746147658347884
 20
-5.730410950152822
 30
0.0
 10
3.758343669361339
 20
-5.73034482873355
 30
0.0
 10
3.770267565303179
 20
-5.730280402735287
 30
0.0
 10
3.779604248788422
 20
-5.739935825369835
 30
0.0
 10
3.779575426631304
 20
-5.752299683062978
 30
0.0
 10
3.77954745218469
 20
-5.764633023177995
 30
0.0
 10
3.770346402380002
 20
-5.774376607704905
 30
0.0
 10
3.758508972909516
 20
-5.77460972809336
 30
0.0
  0
SPLINE
  5
8B
330
70
100
AcDbEntity
  8
Lid
100
AcDbSpline
210
0.0
220
0.0
230
1.0
 70
     9
 71
     3
 72
    17
 73
    13
 74
     0
 42
0.0000000001
 43
0.0000000001
 40
0.0
 40
0.0
 40
0.0
 40
0.0
 40
1.0
 40
1.0
 40
1.0
 40
2.0
 40
2.0
 40
2.0
 40
3.0
 40
3.0
 40
3.0
 40
4.0
 40
4.0
 40
4.0
 40
4.0
 10
3.833738193829655
 20
-6.110494670042144
 30
0.0
 10
3.833694112883474
 20
-6.129101067882857
 30
0.0
 10
3.817983494122623
 20
-6.144994792112457
 30
0.0
 10
3.799333863046235
 20
-6.145299967893707
 30
0.0
 10
3.779544061342676
 20
-6.145623793306033
 30
0.0
 10
3.762956909921235
 20
-6.129406243664107
 30
0.0
 10
3.763091695891287
 20
-6.109865668848568
 30
0.0
 10
3.763223091019325
 20
-6.090844740571658
 30
0.0
 10
3.779686476707259
 20
-6.074801819293447
 30
0.0
 10
3.798764201587901
 20
-6.07510529965369
 30
0.0
 10
3.818281888219846
 20
-6.07541556169796
 30
0.0
 10
3.833784817907346
 20
-6.091102444564714
 30
0.0
 10
3.833738193829655
 20
-6.110494670042144
 30
0.0
  0
SPLINE
  5
8C
330
70
100
AcDbEntity
  8
Lid
100
AcDbSpline
210
0.0
220
0.0
230
1.0
 70
     9
 71
     3
 72
    17
 73
    13
 74
     0
 42
0.0000000001
 43
0.0000000001
 40
0.0
 40
0.0
 40
0.0
 40
0.0
 40
1.0
 40
1.0
 40
1.0
 40
2.0
 40
2.0
 40
2.0
 40
3.0
 40
3.0
 40
3.0
 40
4.0
 40
4.0
 40
4.0
 40
4.0
 10
3.92959390672028
 20
-6.128990017806901
 30
0.0
 10
3.948523282262815
 20
-6.128719598156294
 30
0.0
 10
3.964561964988509
 20
-6.144755737750478
 30
0.0
 10
3.964762872377832
 20
-6.164153897201432
 30
0.0
 10
3.964959541214637
 20
-6.183093445270009
 30
0.0
 10
3.949780436939464
 20
-6.198888835081207
 30
0.0
 10
3.931018908076616
 20
-6.199267761676259
 30
0.0
 10
3.91130540031837
 20
-6.199665337902388
 30
0.0
 10
3.894730964554481
 20
-6.18365039107079
 30
0.0
 10
3.8945402296912
 20
-6.164020806652388
 30
0.0
 10
3.894352885669933
 20
-6.144639601411502
 30
0.0
 10
3.909729506492415
 20
-6.129274000825565
 30
0.0
 10
3.92959390672028
 20
-6.128990017806901
 30
0.0
  0
SPLINE
  5
8D
330
70
100
AcDbEntity
  8
Lid
100
AcDbSpline
210
0.0
220
0.0
230
1.0
 70
     9
 71
     3
 72
   455
 73
   451
 74
     0
 42
0.0000000001
 43
0.0000000001
 40
0.0
 40
0.0
 40
0.0
 40
0.0
 40
1.0
 40
1.0
 40
1.0
 40
2.0
 40
2.0
 40
2.0
 40
3.0
 40
3.0
 40
3.0
 40
4.0
 40
4.0
 40
4.0
 40
5.0
 40
5.0
 40
5.0
 40
6.0
 40
6.0
 40
6.0
 40
7.0
 40
7.0
 40
7.0
 40
8.0
 40
8.0
 40
8.0
 40
9.0
 40
9.0
 40
9.0
 40
10.0
 40
10.0
 40
10.0
 40
11.0
 40
11.0
 40
11.0
 40
12.0
 40
12.0
 40
12.0
 40
13.0
 40
13.0
 40
13.0
 40
14.0
 40
14.0
 40
14.0
 40
15.0
 40
15.0
 40
15.0
 40
16.0
 40
16.0
 40
16.0
 40
17.0
 40
17.0
 40
17.0
 40
18.0
 40
18.0
 40
18.0
 40
19.0
 40
19.0
 40
19.0
 40
20.0
 40
20.0
 40
20.0
 40
21.0
 40
21.0
 40
21.0
 40
22.0
 40
22.0
 40
22.0
 40
23.0
 40
23.0
 40
23.0
 40
24.0
 40
24.0
 40
24.0
 40
25.0
 40
25.0
 40
25.0
 40
26.0
 40
26.0
 40
26.0
 40
27.0
 40
27.0
 40
27.0
 40
28.0
 40
28.0
 40
28.0
 40
29.0
 40
29.0
 40
29.0
 40
30.0
 40
30.0
 40
30.0
 40
31.0
 40
31.0
 40
31.0
 40
32.0
 40
32.0
 40
32.0
 40
33.0
 40
33.0
 40
33.0
 40
34.0
 40
34.0
 40
34.0
 40
35.0
 40
35.0
 40
35.0
 40
36.0
 40
36.0
 40
36.0
 40
37.0
 40
37.0
 40
37.0
 40
38.0
 40
38.0
 40
38.0
 40
39.0
 40
39.0
 40
39.0
 40
40.0
 40
40.0
 40
40.0
 40
41.0
 40
41.0
 40
41.0
 40
42.0
 40
42.0
 40
42.0
 40
43.0
 40
43.0
 40
43.0
 40
44.0
 40
44.0
 40
44.0
 40
45.0
 40
45.0
 40
45.0
 40
46.0
 40
46.0
 40
46.0
 40
47.0
 40
47.0
 40
47.0
 40
48.0
 40
48.0
 40
48.0
 40
49.0
 40
49.0
 40
49.0
 40
50.0
 40
50.0
 40
50.0
 40
51.0
 40
51.0
 40
51.0
 40
52.0
 40
52.0
 40
52.0
 40
53.0
 40
53.0
 40
53.0
 40
54.0
 40
54.0
 40
54.0
 40
55.0
 40
55.0
 40
55.0
 40
56.0
 40
56.0
 40
56.0
 40
57.0
 40
57.0
 40
57.0
 40
58.0
 40
58.0
 40
58.0
 40
59.0
 40
59.0
 40
59.0
 40
60.0
 40
60.0
 40
60.0
 40
61.0
 40
61.0
 40
61.0
 40
62.0
 40
62.0
 40
62.0
 40
63.0
 40
63.0
 40
63.0
 40
64.0
 40
64.0
 40
64.0
 40
65.0
 40
65.0
 40
65.0
 40
66.0
 40
66.0
 40
66.0
 40
67.0
 40
67.0
 40
67.0
 40
68.0
 40
68.0
 40
68.0
 40
69.0
 40
69.0
 40
69.0
 40
70.0
 40
70.0
 40
70.0
 40
71.0
 40
71.0
 40
71.0
 40
72.0
 40
72.0
 40
72.0
 40
73.0
 40
73.0
 40
73.0
 40
74.0
 40
74.0
 40
74.0
 40
75.0
 40
75.0
 40
75.0
 40
76.0
 40
76.0
 40
76.0
 40
77.0
 40
77.0
 40
77.0
 40
78.0
 40
78.0
 40
78.0
 40
79.0
 40
79.0
 40
79.0
 40
80.0
 40
80.0
 40
80.0
 40
81.0
 40
81.0
 40
81.0
 40
82.0
 40
82.0
 40
82.0
 40
83.0
 40
83.0
 40
83.0
 40
84.0
 40
84.0
 40
84.0
 40
85.0
 40
85.0
 40
85.0
 40
86.0
 40
86.0
 40
86.0
 40
87.0
 40
87.0
 40
87.0
 40
88.0
 40
88.0
 40
88.0
 40
89.0
 40
89.0
 40
89.0
 40
90.0
 40
90.0
 40
90.0
 40
91.0
 40
91.0
 40
91.0
 40
92.0
 40
92.0
 40
92.0
 40
93.0
 40
93.0
 40
93.0
 40
94.0
 40
94.0
 40
94.0
 40
95.0
 40
95.0
 40
95.0
 40
96.0
 40
96.0
 40
96.0
 40
97.0
 40
97.0
 40
97.0
 40
98.0
 40
98.0
 40
98.0
 40
99.0
 40
99.0
 40
99.0
 40
100.0
 40
100.0
 40
100.0
 40
101.0
 40
101.0
 40
101.0
 40
102.0
 40
102.0
 40
102.0
 40
103.0
 40
103.0
 40
103.0
 40
104.0
 40
104.0
 40
104.0
 40
105.0
 40
105.0
 40
105.0
 40
106.0
 40
106.0
 40
106.0
 40
107.0
 40
107.0
 40
107.0
 40
108.0
 40
108.0
 40
108.0
 40
109.0
 40
109.0
 40
109.0
 40
110.0
 40
110.0
 40
110.0
 40
111.0
 40
111.0
 40
111.0
 40
112.0
 40
112.0
 40
112.0
 40
113.0
 40
113.0
 40
113.0
 40
114.0
 40
114.0
 40
114.0
 40
115.0
 40
115.0
 40
115.0
 40
116.0
 40
116.0
 40
116.0
 40
117.0
 40
117.0
 40
117.0
 40
118.0
 40
118.0
 40
118.0
 40
119.0
 40
119.0
 40
119.0
 40
120.0
 40
120.0
 40
120.0
 40
121.0
 40
121.0
 40
121.0
 40
122.0
 40
122.0
 40
122.0
 40
123.0
 40
123.0
 40
123.0
 40
124.0
 40
124.0
 40
124.0
 40
125.0
 40
125.0
 40
125.0
 40
126.0
 40
126.0
 40
126.0
 40
127.0
 40
127.0
 40
127.0
 40
128.0
 40
128.0
 40
128.0
 40
129.0
 40
129.0
 40
129.0
 40
130.0
 40
130.0
 40
130.0
 40
131.0
 40
131.0
 40
131.0
 40
132.0
 40
132.0
 40
132.0
 40
133.0
 40
133.0
 40
133.0
 40
134.0
 40
134.0
 40
134.0
 40
135.0
 40
135.0
 40
135.0
 40
136.0
 40
136.0
 40
136.0
 40
137.0
 40
137.0
 40
137.0
 40
138.0
 40
138.0
 40
138.0
 40
139.0
 40
139.0
 40
139.0
 40
140.0
 40
140.0
 40
140.0
 40
141.0
 40
141.0
 40
141.0
 40
142.0
 40
142.0
 40
142.0
 40
143.0
 40
143.0
 40
143.0
 40
144.0
 40
144.0
 40
144.0
 40
145.0
 40
145.0
 40
145.0
 40
146.0
 40
146.0
 40
146.0
 40
147.0
 40
147.0
 40
147.0
 40
148.0
 40
148.0
 40
148.0
 40
149.0
 40
149.0
 40
149.0
 40
150.0
 40
150.0
 40
150.0
 40
150.0
 10
4.543696588198145
 20
-5.768601156044748
 30
0.0
 10
4.54059735859745
 20
-5.72604778419145
 30
0.0
 10
4.530614719708561
 20
-5.685060133638065
 30
0.0
 10
4.51628586906837
 20
-5.645107537609419
 30
0.0
 10
4.5175871046912
 20
-5.786559055350304
 30
0.0
 10
4.497660821596582
 20
-5.919691989920616
 30
0.0
 10
4.471936198658213
 20
-5.994041287338151
 30
0.0
 10
4.442018799569672
 20
-6.080499281587283
 30
0.0
 10
4.386192824363509
 20
-6.14924606028737
 30
0.0
 10
4.369710789044498
 20
-6.168376343219228
 30
0.0
 10
4.368202712058821
 20
-6.174355245400217
 30
0.0
 10
4.363627618471582
 20
-6.179425401921485
 30
0.0
 10
4.355649814923404
 20
-6.179425401921485
 30
0.0
 10
4.339168627314898
 20
-6.179425401921485
 30
0.0
 10
4.336698398907779
 20
-6.158220771387631
 30
0.0
 10
4.347789843135211
 20
-6.151239027681033
 30
0.0
 10
4.361722812970279
 20
-6.135060472722266
 30
0.0
 10
4.417129171477224
 20
-6.067492011622006
 30
0.0
 10
4.445691081470713
 20
-5.984953830740929
 30
0.0
 10
4.447509420500662
 20
-5.979698025619401
 30
0.0
 10
4.449287917136946
 20
-5.974050578245269
 30
0.0
 10
4.451040982458127
 20
-5.968203071192318
 30
0.0
 10
4.455464335865245
 20
-5.952187276650217
 30
0.0
 10
4.459535041702919
 20
-5.936157071029557
 30
0.0
 10
4.463235298050575
 20
-5.920112454330339
 30
0.0
 10
4.474331828541026
 20
-5.868760695161502
 30
0.0
 10
4.482799608760211
 20
-5.805040839747006
 30
0.0
 10
4.486550727738075
 20
-5.735940565766971
 30
0.0
 10
4.487221266746321
 20
-5.678353048134592
 30
0.0
 10
4.481135553041895
 20
-5.620490872299089
 30
0.0
 10
4.466283665021061
 20
-5.562272658052127
 30
0.0
 10
4.448135878562728
 20
-5.491135335732248
 30
0.0
 10
4.41799977016429
 20
-5.425980306435373
 30
0.0
 10
4.374496962547103
 20
-5.36720006012461
 30
0.0
 10
4.408735989782345
 20
-5.464678290918881
 30
0.0
 10
4.42910816860179
 20
-5.563412828679298
 30
0.0
 10
4.430120334942936
 20
-5.579653266504818
 30
0.0
 10
4.430255968623492
 20
-5.581809842025651
 30
0.0
 10
4.43065608798113
 20
-5.585485514768707
 30
0.0
 10
4.431198622703353
 20
-5.590503960949263
 30
0.0
 10
4.435321886592242
 20
-5.628834039074263
 30
0.0
 10
4.447881565411686
 20
-5.745492567720096
 30
0.0
 10
4.420354709942936
 20
-5.867278049490929
 30
0.0
 10
4.390454265064464
 20
-5.999497999849002
 30
0.0
 10
4.311856242603527
 20
-6.083168721962717
 30
0.0
 10
4.301868517451617
 20
-6.093382785819054
 30
0.0
 10
4.299920478714637
 20
-6.098537713390669
 30
0.0
 10
4.295435242440766
 20
-6.102630459701432
 30
0.0
 10
4.288273784107433
 20
-6.102630459701432
 30
0.0
 10
4.27070498392297
 20
-6.102630459701432
 30
0.0
 10
4.268944289207259
 20
-6.078456299273915
 30
0.0
 10
4.282702630678613
 20
-6.073208123546919
 30
0.0
 10
4.285300015661252
 20
-6.070443739595096
 30
0.0
 10
4.291072076479395
 20
-6.0641215146602
 30
0.0
 10
4.298733684009777
 20
-6.054643263520877
 30
0.0
 10
4.331081469111773
 20
-6.011260830795182
 30
0.0
 10
4.357624132685992
 20
-5.964694397418447
 30
0.0
 10
4.373474623679915
 20
-5.912110914888065
 30
0.0
 10
4.390498346010645
 20
-5.855634745725738
 30
0.0
 10
4.405133220142589
 20
-5.798430393240929
 30
0.0
 10
4.407534783998926
 20
-5.739443305567318
 30
0.0
 10
4.410086392614377
 20
-5.676768677203603
 30
0.0
 10
4.408613071759342
 20
-5.614027079710113
 30
0.0
 10
4.395956753942502
 20
-5.551966193750912
 30
0.0
 10
4.377226590368283
 20
-5.460124390094228
 30
0.0
 10
4.347476190248926
 20
-5.373737603527388
 30
0.0
 10
4.285617907100054
 20
-5.300603075261329
 30
0.0
 10
4.247499756600922
 20
-5.255537089475738
 30
0.0
 10
4.205672024938595
 20
-5.215699782075577
 30
0.0
 10
4.15416428703712
 20
-5.187409139443198
 30
0.0
 10
4.173948154767154
 20
-5.207077718544761
 30
0.0
 10
4.191773811234169
 20
-5.225874003538251
 30
0.0
 10
4.199400662633908
 20
-5.235028429265235
 30
0.0
 10
4.217928223397797
 20
-5.257252007824263
 30
0.0
 10
4.30028499423113
 20
-5.381336480480513
 30
0.0
 10
4.33495296298113
 20
-5.539715929265235
 30
0.0
 10
4.365680773310992
 20
-5.680062880220096
 30
0.0
 10
4.341870280689464
 20
-5.771832628483985
 30
0.0
 10
4.324482042842242
 20
-5.838835666678429
 30
0.0
 10
4.322284777217242
 20
-5.847299208345096
 30
0.0
 10
4.32018245516863
 20
-5.855396539074263
 30
0.0
 10
4.318303928692936
 20
-5.863181912338151
 30
0.0
 10
4.303716526349186
 20
-5.923633843761763
 30
0.0
 10
4.259472819751964
 20
-5.995818088553429
 30
0.0
 10
4.244932889196408
 20
-6.01952685591454
 30
0.0
 10
4.242986545880436
 20
-6.022714247407596
 30
0.0
 10
4.241609864022797
 20
-6.024938639768707
 30
0.0
 10
4.241013075828353
 20
-6.026010145845096
 30
0.0
 10
4.241013075828353
 20
-6.026010145845096
 30
0.0
 10
4.240668057653439
 20
-6.025837212902388
 30
0.0
 10
4.240668057653439
 20
-6.025837212902388
 30
0.0
 10
4.240622281286252
 20
-6.025901638900651
 30
0.0
 10
4.240579895761078
 20
-6.025967760319923
 30
0.0
 10
4.240533271683387
 20
-6.026031338607682
 30
0.0
 10
4.239722012731564
 20
-6.027138448525217
 30
0.0
 10
4.238855652597016
 20
-6.028339654308638
 30
0.0
 10
4.237943516095279
 20
-6.029365384017839
 30
0.0
 10
4.235861539098752
 20
-6.031705912717925
 30
0.0
 10
4.232874207284516
 20
-6.033275024859853
 30
0.0
 10
4.229936042679481
 20
-6.0342142880977
 30
0.0
 10
4.22838049390561
 20
-6.034711894163238
 30
0.0
 10
4.226656250741547
 20
-6.034813619423655
 30
0.0
 10
4.22506764125804
 20
-6.034941623709679
 30
0.0
 10
4.224731100188162
 20
-6.03496875044579
 30
0.0
 10
4.224397949960297
 20
-6.034970445866798
 30
0.0
 10
4.224061408890419
 20
-6.034945862262197
 30
0.0
 10
4.221238532913856
 20
-6.034743259451866
 30
0.0
 10
4.21829273891429
 20
-6.03421174496619
 30
0.0
 10
4.215494446542328
 20
-6.033634454113325
 30
0.0
 10
4.213632874276703
 20
-6.033249593544748
 30
0.0
 10
4.211765368037554
 20
-6.032467156750044
 30
0.0
 10
4.210196255895627
 20
-6.031393107542144
 30
0.0
 10
4.208538981861339
 20
-6.030258870888498
 30
0.0
 10
4.206945286114811
 20
-6.029093268946224
 30
0.0
 10
4.205661852412554
 20
-6.027565694618967
 30
0.0
 10
4.203768914858301
 20
-6.025660041407162
 30
0.0
 10
4.202459202130436
 20
-6.023412760862457
 30
0.0
 10
4.201732714228961
 20
-6.020824700695357
 30
0.0
 10
4.201551304181217
 20
-6.019470907021311
 30
0.0
 10
4.20136904642297
 20
-6.018117113347266
 30
0.0
 10
4.201187636375228
 20
-6.016762471962717
 30
0.0
 10
4.201195265769759
 20
-6.014410075315582
 30
0.0
 10
4.201809008174273
 20
-6.012224677637631
 30
0.0
 10
4.202815240541895
 20
-6.01014439606211
 30
0.0
 10
4.202815240541895
 20
-6.01014439606211
 30
0.0
 10
4.202642307599186
 20
-6.010086751747873
 30
0.0
 10
4.202642307599186
 20
-6.010086751747873
 30
0.0
 10
4.203591743363075
 20
-6.007252007824263
 30
0.0
 10
4.204480143970714
 20
-6.005800727442318
 30
0.0
 10
4.209410428258908
 20
-5.997757650185373
 30
0.0
 10
4.223095866626964
 20
-5.975432346365929
 30
0.0
 10
4.264755751609603
 20
-5.90746630903954
 30
0.0
 10
4.277803711679047
 20
-5.853416287338151
 30
0.0
 10
4.279736491626964
 20
-5.845400336817318
 30
0.0
 10
4.281893067147797
 20
-5.837072428831207
 30
0.0
 10
4.284151367929047
 20
-5.82836474653954
 30
0.0
 10
4.301390408727658
 20
-5.761931369803429
 30
0.0
 10
4.322847656991547
 20
-5.679235514768707
 30
0.0
 10
4.294249295446408
 20
-5.548627062077735
 30
0.0
 10
4.277290846824446
 20
-5.471148865191884
 30
0.0
 10
4.248110108163422
 20
-5.402268148232248
 30
0.0
 10
4.221764961136512
 20
-5.351121535005252
 30
0.0
 10
4.206505324363509
 20
-5.325068000391537
 30
0.0
 10
4.189450236744152
 20
-5.299735019705773
 30
0.0
 10
4.170497973018023
 20
-5.275192952919748
 30
0.0
 10
4.128158224211599
 20
-5.220365580686689
 30
0.0
 10
4.078389140552745
 20
-5.17484606978174
 30
0.0
 10
4.016043423864377
 20
-5.143580810992678
 30
0.0
 10
3.983450650426877
 20
-5.12723610477523
 30
0.0
 10
3.950336535029741
 20
-5.113590508800838
 30
0.0
 10
3.913044902271495
 20
-5.114406854015681
 30
0.0
 10
3.908892816225488
 20
-5.114498406750056
 30
0.0
 10
3.904771247757606
 20
-5.115962402789553
 30
0.0
 10
3.897434313350054
 20
-5.117429789671064
 30
0.0
 10
3.903088542408214
 20
-5.122204095226619
 30
0.0
 10
3.905911418384776
 20
-5.124725186263945
 30
0.0
 10
3.908874166594412
 20
-5.127069105806046
 30
0.0
 10
3.949914375199012
 20
-5.159533874957522
 30
0.0
 10
3.988169854799707
 20
-5.195172472233998
 30
0.0
 10
4.021778185420367
 20
-5.235126763683638
 30
0.0
 10
4.092707818666895
 20
-5.319446832043013
 30
0.0
 10
4.143133030255436
 20
-5.414916836654557
 30
0.0
 10
4.171605082935558
 20
-5.521649523015235
 30
0.0
 10
4.193231873300141
 20
-5.6027203170148
 30
0.0
 10
4.200381463686426
 20
-5.684520142047353
 30
0.0
 10
4.183417928801443
 20
-5.767418599892405
 30
0.0
 10
4.164096063295801
 20
-5.861839138900651
 30
0.0
 10
4.115684164153005
 20
-5.93932920373355
 30
0.0
 10
4.046192247920367
 20
-6.00500303185855
 30
0.0
 10
4.01668853155752
 20
-6.032885078028256
 30
0.0
 10
3.982791131655176
 20
-6.047442810504384
 30
0.0
 10
3.942624064869151
 20
-6.042502353690148
 30
0.0
 10
3.891585958586599
 20
-6.036224209701432
 30
0.0
 10
3.856767097366981
 20
-6.009083910222266
 30
0.0
 10
3.855350573115679
 20
-5.955358561643707
 30
0.0
 10
3.854697836028005
 20
-5.930591851574263
 30
0.0
 10
3.85940093390127
 20
-5.906938185395877
 30
0.0
 10
3.871578295283648
 20
-5.885130832694054
 30
0.0
 10
3.881711826642155
 20
-5.866983893946224
 30
0.0
 10
3.892275994936426
 20
-5.849076009560373
 30
0.0
 10
3.902398506058387
 20
-5.830922289128516
 30
0.0
 10
3.951701348940332
 20
-5.742503540484853
 30
0.0
 10
3.894922547128266
 20
-5.681453973156294
 30
0.0
 10
3.832616672833561
 20
-5.664342936643707
 30
0.0
 10
3.789452949417762
 20
-5.652488552963151
 30
0.0
 10
3.709413819100922
 20
-5.675519999631988
 30
0.0
 10
3.687590359899533
 20
-5.741552409299957
 30
0.0
 10
3.681101135995453
 20
-5.761187079981381
 30
0.0
 10
3.66968417093469
 20
-5.777418192991363
 30
0.0
 10
3.652081462330089
 20
-5.789839694998741
 30
0.0
 10
3.613152900589637
 20
-5.817309753863759
 30
0.0
 10
3.569628900209863
 20
-5.832816922103776
 30
0.0
 10
3.523722833315332
 20
-5.843123386404991
 30
0.0
 10
3.51730142625153
 20
-5.844565341971398
 30
0.0
 10
3.507078885290158
 20
-5.845129069456207
 30
0.0
 10
3.509361769676009
 20
-5.854442017047353
 30
0.0
 10
3.510323073386946
 20
-5.858363525836415
 30
0.0
 10
3.520729567527571
 20
-5.860074205632423
 30
0.0
 10
3.526949219491547
 20
-5.862518155013932
 30
0.0
 10
3.528258932219412
 20
-5.86303271528954
 30
0.0
 10
3.530050144513249
 20
-5.862446099621138
 30
0.0
 10
3.531596368471582
 20
-5.86221467465369
 30
0.0
 10
3.569600925763249
 20
-5.856534166569923
 30
0.0
 10
3.607491042136946
 20
-5.849855903223568
 30
0.0
 10
3.645643948766721
 20
-5.845468153657596
 30
0.0
 10
3.672340047942068
 20
-5.842397746214019
 30
0.0
 10
3.69954985968252
 20
-5.840071628592491
 30
0.0
 10
3.726245958857866
 20
-5.841798414888065
 30
0.0
 10
3.751594198332693
 20
-5.843438734712283
 30
0.0
 10
3.763272258228526
 20
-5.861302538151954
 30
0.0
 10
3.762037144024967
 20
-5.886710965072526
 30
0.0
 10
3.760659614456825
 20
-5.915032972993533
 30
0.0
 10
3.751484843677745
 20
-5.941173821789107
 30
0.0
 10
3.740752828703787
 20
-5.967001865408898
 30
0.0
 10
3.734243259747624
 20
-5.982668403223568
 30
0.0
 10
3.724187717755436
 20
-5.99527640154171
 30
0.0
 10
3.710671821488075
 20
-6.005382806164107
 30
0.0
 10
3.68903231546594
 20
-6.021563904254384
 30
0.0
 10
3.665330329788856
 20
-6.034115953679298
 30
0.0
 10
3.637831448766721
 20
-6.029907918740061
 30
0.0
 10
3.594621948983735
 20
-6.023296624523482
 30
0.0
 10
3.55520680141429
 20
-6.005626946789107
 30
0.0
 10
3.524768060366113
 20
-5.973984456825998
 30
0.0
 10
3.444711975839203
 20
-5.89076217356862
 30
0.0
 10
3.407716194046669
 20
-5.789575209321658
 30
0.0
 10
3.40725503953278
 20
-5.674996114540842
 30
0.0
 10
3.406819316333995
 20
-5.566635824013498
 30
0.0
 10
3.438176127857432
 20
-5.465890516938846
 30
0.0
 10
3.487105978117849
 20
-5.370533257824263
 30
0.0
 10
3.53673518954363
 20
-5.273815423351607
 30
0.0
 10
3.606958679940766
 20
-5.193641507064726
 30
0.0
 10
3.69206711906837
 20
-5.126360419825143
 30
0.0
 10
3.695007826804915
 20
-5.124035149914119
 30
0.0
 10
3.699246379322276
 20
-5.123352742958823
 30
0.0
 10
3.702880514250662
 20
-5.121904853418893
 30
0.0
 10
3.701416518211165
 20
-5.11962875071707
 30
0.0
 10
3.699952522171669
 20
-5.117352648015248
 30
0.0
 10
3.698488526132172
 20
-5.115077393023928
 30
0.0
 10
3.690181810908648
 20
-5.115077393023928
 30
0.0
 10
3.681808126555349
 20
-5.114391595226619
 30
0.0
 10
3.673579400698145
 20
-5.115193529362904
 30
0.0
 10
3.632936768319672
 20
-5.119154032835126
 30
0.0
 10
3.595400994936426
 20
-5.133251458507869
 30
0.0
 10
3.56135185485396
 20
-5.154893507661514
 30
0.0
 10
3.54250640265127
 20
-5.166871657075577
 30
0.0
 10
3.524658705711165
 20
-5.179761942991376
 30
0.0
 10
3.507684150589637
 20
-5.193470269543025
 30
0.0
 10
3.481032132360471
 20
-5.218351420530439
 30
0.0
 10
3.447899367332259
 20
-5.251953817177561
 30
0.0
 10
3.435790670500662
 20
-5.266487813759592
 30
0.0
 10
3.421501662254134
 20
-5.283625129297787
 30
0.0
 10
3.341972853660384
 20
-5.402453796832509
 30
0.0
 10
3.308932489077051
 20
-5.553407301606815
 30
0.0
 10
3.280334127531912
 20
-5.684015754297787
 30
0.0
 10
3.301791375795801
 20
-5.766711609332509
 30
0.0
 10
3.319030416594412
 20
-5.83314498606862
 30
0.0
 10
3.321288717375662
 20
-5.841852668360287
 30
0.0
 10
3.323445292896495
 20
-5.850180576346398
 30
0.0
 10
3.325378072844412
 20
-5.858196526867232
 30
0.0
 10
3.338426032913856
 20
-5.91224654856862
 30
0.0
 10
3.380085917896495
 20
-5.980212585895009
 30
0.0
 10
3.393771356264551
 20
-6.002537889714454
 30
0.0
 10
3.398092984411252
 20
-6.009588297971832
 30
0.0
 10
3.399288256221148
 20
-6.011593133312544
 30
0.0
 10
3.400162245750228
 20
-6.013884494803429
 30
0.0
 10
3.40017241827627
 20
-6.013902296724002
 30
0.0
 10
3.400191915617849
 20
-6.013909926118533
 30
0.0
 10
3.400202088143891
 20
-6.013927728039107
 30
0.0
 10
3.400272448115679
 20
-6.014038778115061
 30
0.0
 10
3.400249559932085
 20
-6.01417525950612
 30
0.0
 10
3.40031652906186
 20
-6.014287157292579
 30
0.0
 10
3.400386889033648
 20
-6.014482130708377
 30
0.0
 10
3.400469964662988
 20
-6.01466099762461
 30
0.0
 10
3.400539476924273
 20
-6.014866991276954
 30
0.0
 10
3.400539476924273
 20
-6.014866991276954
 30
0.0
 10
3.400505568504134
 20
-6.014878011513498
 30
0.0
 10
3.400505568504134
 20
-6.014878011513498
 30
0.0
 10
3.401292243851356
 20
-6.016377611394141
 30
0.0
 10
3.401938199255002
 20
-6.017914510536936
 30
0.0
 10
3.402015340910818
 20
-6.019608236122873
 30
0.0
 10
3.402469713740679
 20
-6.02163850277869
 30
0.0
 10
3.402379008716807
 20
-6.023669617145009
 30
0.0
 10
3.4017423781287
 20
-6.025699883800825
 30
0.0
 10
3.401065905146929
 20
-6.028948310450131
 30
0.0
 10
3.398842360496321
 20
-6.032611267535634
 30
0.0
 10
3.396420451587901
 20
-6.034853461817318
 30
0.0
 10
3.396311096932953
 20
-6.034954339367232
 30
0.0
 10
3.396197503725488
 20
-6.03504928294362
 30
0.0
 10
3.396082215097016
 20
-6.035143378809506
 30
0.0
 10
3.395051399124794
 20
-6.035982612207943
 30
0.0
 10
3.393886644893023
 20
-6.036887119315148
 30
0.0
 10
3.39281174797462
 20
-6.037669556109853
 30
0.0
 10
3.392593886375228
 20
-6.037827230263498
 30
0.0
 10
3.392370938512815
 20
-6.03797642731211
 30
0.0
 10
3.392139513545366
 20
-6.038112908703169
 30
0.0
 10
3.391901306893891
 20
-6.038253628646745
 30
0.0
 10
3.391655470847884
 20
-6.038382480643273
 30
0.0
 10
3.39140539624936
 20
-6.038502007824263
 30
0.0
 10
3.389999044524099
 20
-6.039172546832509
 30
0.0
 10
3.388532505353092
 20
-6.039754076237891
 30
0.0
 10
3.387088006655176
 20
-6.040333910222266
 30
0.0
 10
3.38601226202627
 20
-6.040766242579037
 30
0.0
 10
3.384883111635645
 20
-6.041056159571224
 30
0.0
 10
3.383746331850488
 20
-6.041274021170616
 30
0.0
 10
3.381421061939464
 20
-6.041718221474436
 30
0.0
 10
3.379060188187294
 20
-6.04200474762461
 30
0.0
 10
3.376704400698145
 20
-6.042235324881554
 30
0.0
 10
3.373946798430349
 20
-6.042226847776519
 30
0.0
 10
3.371376540183821
 20
-6.041531725163673
 30
0.0
 10
3.368993625958561
 20
-6.040149957043013
 30
0.0
 10
3.367962809986339
 20
-6.039353956880252
 30
0.0
 10
3.366931994014116
 20
-6.038557109006988
 30
0.0
 10
3.365901178041895
 20
-6.037761108844228
 30
0.0
 10
3.364008240487641
 20
-6.035854607921919
 30
0.0
 10
3.362698527759776
 20
-6.033607327377214
 30
0.0
 10
3.361972039858301
 20
-6.031019267210113
 30
0.0
 10
3.361939826859169
 20
-6.030777669716623
 30
0.0
 10
3.361906766149533
 20
-6.030536919933638
 30
0.0
 10
3.361874553150401
 20
-6.030295322440148
 30
0.0
 10
3.361198927879134
 20
-6.029124634234853
 30
0.0
 10
3.359998569806217
 20
-6.027172356945357
 30
0.0
 10
3.358248895327051
 20
-6.02430709544362
 30
0.0
 10
3.343708964771495
 20
-6.000598328082509
 30
0.0
 10
3.299465258174273
 20
-5.928414083290842
 30
0.0
 10
3.284877855830523
 20
-5.867962151867232
 30
0.0
 10
3.282999329354828
 20
-5.860176778603342
 30
0.0
 10
3.280897007306217
 20
-5.852079447874175
 30
0.0
 10
3.278699741681217
 20
-5.843615906207509
 30
0.0
 10
3.261311503833995
 20
-5.776612868013065
 30
0.0
 10
3.237501011212467
 20
-5.684843119749175
 30
0.0
 10
3.268228821542328
 20
-5.544496168794315
 30
0.0
 10
3.302896790292328
 20
-5.386116720009592
 30
0.0
 10
3.385253561125662
 20
-5.262032247353342
 30
0.0
 10
3.403781121889551
 20
-5.239808668794315
 30
0.0
 10
3.413005907588335
 20
-5.22873587419796
 30
0.0
 10
3.437124966833127
 20
-5.203585998980959
 30
0.0
 10
3.461622104962467
 20
-5.179812805621584
 30
0.0
 10
3.430030477629568
 20
-5.198357320595542
 30
0.0
 10
3.397080818070106
 20
-5.215215739378095
 30
0.0
 10
3.368716424623926
 20
-5.237823330795182
 30
0.0
 10
3.310320191171235
 20
-5.284368571409332
 30
0.0
 10
3.271287361038856
 20
-5.345525797971832
 30
0.0
 10
3.243850362883474
 20
-5.414240363672787
 30
0.0
 10
3.217478089120453
 20
-5.496571703191016
 30
0.0
 10
3.201607253074446
 20
-5.572980089421485
 30
0.0
 10
3.200784973886078
 20
-5.586169617145009
 30
0.0
 10
3.200635776837467
 20
-5.588570333290842
 30
0.0
 10
3.20020174905969
 20
-5.59266647044362
 30
0.0
 10
3.199598179181217
 20
-5.598254578082509
 30
0.0
 10
3.196137824906044
 20
-5.630428582531294
 30
0.0
 10
3.186611254268023
 20
-5.719449205632423
 30
0.0
 10
3.201230021900401
 20
-5.818778836166276
 30
0.0
 10
3.202341370370453
 20
-5.825863152843794
 30
0.0
 10
3.20348069328712
 20
-5.832948317231815
 30
0.0
 10
3.204770060962901
 20
-5.84004195872487
 30
0.0
 10
3.21981861782054
 20
-5.922807326020877
 30
0.0
 10
3.254513713306651
 20
-5.998354438379818
 30
0.0
 10
3.308372152434255
 20
-6.064132534896745
 30
0.0
 10
3.30878837829146
 20
-6.064640313488325
 30
0.0
 10
3.309174934281044
 20
-6.065175218816016
 30
0.0
 10
3.309588617006738
 20
-6.065685540539107
 30
0.0
 10
3.313236315303179
 20
-6.070014798080339
 30
0.0
 10
3.316223647117415
 20
-6.073367493121572
 30
0.0
 10
3.318367506980696
 20
-6.075713108084679
 30
0.0
 10
3.331291701316634
 20
-6.081557224295616
 30
0.0
 10
3.329120714717241
 20
-6.104957425033464
 30
0.0
 10
3.311913886917762
 20
-6.104957425033464
 30
0.0
 10
3.304242954571842
 20
-6.104957425033464
 30
0.0
 10
3.299659383879568
 20
-6.100297560395877
 30
0.0
 10
3.297969049135645
 20
-6.09463654965369
 30
0.0
 10
3.27966952249719
 20
-6.07494423465803
 30
0.0
 10
3.210442939652137
 20
-5.994176073308204
 30
0.0
 10
3.182827074580523
 20
-5.872058289020009
 30
0.0
 10
3.155300219111773
 20
-5.750272807249175
 30
0.0
 10
3.167859897931217
 20
-5.633614278603342
 30
0.0
 10
3.171983161820106
 20
-5.595284200478342
 30
0.0
 10
3.172525696542328
 20
-5.590265754297787
 30
0.0
 10
3.172925815899967
 20
-5.586590081554732
 30
0.0
 10
3.173061449580523
 20
-5.584433506033898
 30
0.0
 10
3.17413973734094
 20
-5.567119866710982
 30
0.0
 10
3.197206787850922
 20
-5.456043511730513
 30
0.0
 10
3.235639438946842
 20
-5.352690647147179
 30
0.0
 10
3.214336473994585
 20
-5.381907837359853
 30
0.0
 10
3.191760247866113
 20
-5.410428209538673
 30
0.0
 10
3.174179579734603
 20
-5.441746874089454
 30
0.0
 10
3.137455065303179
 20
-5.507168932194923
 30
0.0
 10
3.124269776132172
 20
-5.580410271984419
 30
0.0
 10
3.116820943938162
 20
-5.653911858898482
 30
0.0
 10
3.116409804343978
 20
-5.657969001368099
 30
0.0
 10
3.116191942744585
 20
-5.662023600706207
 30
0.0
 10
3.115852010832693
 20
-5.666079895465322
 30
0.0
 10
3.116520006709429
 20
-5.796247538694488
 30
0.0
 10
3.135132338523665
 20
-5.916505446138065
 30
0.0
 10
3.158812283727658
 20
-5.984953830740929
 30
0.0
 10
3.189659621238509
 20
-6.074096524154557
 30
0.0
 10
3.251754415617849
 20
-6.145705173514366
 30
0.0
 10
3.259160862286686
 20
-6.154044101737023
 30
0.0
 10
3.259249024179047
 20
-6.154132263629384
 30
0.0
 10
3.259282932599186
 20
-6.154254333941884
 30
0.0
 10
3.259367703649533
 20
-6.154344191255252
 30
0.0
 10
3.259453322410384
 20
-6.154434896279123
 30
0.0
 10
3.259496555646061
 20
-6.154551880328603
 30
0.0
 10
3.259575392722884
 20
-6.154645976194488
 30
0.0
 10
3.259832249005436
 20
-6.154934197765669
 30
0.0
 10
3.259992466290592
 20
-6.155274977388065
 30
0.0
 10
3.26022134812653
 20
-6.155584391721832
 30
0.0
 10
3.260451925383474
 20
-6.1559429732648
 30
0.0
 10
3.260727431297103
 20
-6.156270189519141
 30
0.0
 10
3.260949531449012
 20
-6.156642334430165
 30
0.0
 10
3.261163154495887
 20
-6.157011088499175
 30
0.0
 10
3.261489523039724
 20
-6.15730270091237
 30
0.0
 10
3.261673476218978
 20
-6.157693495454471
 30
0.0
 10
3.261862515661252
 20
-6.158020711708811
 30
0.0
 10
3.262063423050575
 20
-6.158328430621572
 30
0.0
 10
3.262225335756738
 20
-6.158670057954471
 30
0.0
 10
3.262338928964203
 20
-6.158969299762197
 30
0.0
 10
3.262441501935124
 20
-6.159254978201866
 30
0.0
 10
3.262535597801009
 20
-6.159561849404123
 30
0.0
 10
3.265756897714203
 20
-6.167730387815582
 30
0.0
 10
3.261812500741547
 20
-6.178985440170182
 30
0.0
 10
3.250376886049707
 20
-6.178985440170182
 30
0.0
 10
3.246944506221148
 20
-6.178985440170182
 30
0.0
 10
3.244487841182085
 20
-6.17768844309987
 30
0.0
 10
3.242439772605696
 20
-6.175993022092925
 30
0.0
 10
3.24136402797679
 20
-6.175297051769575
 30
0.0
 10
3.240289978768891
 20
-6.174607863130252
 30
0.0
 10
3.239505846553179
 20
-6.173651645682335
 30
0.0
 10
3.239505846553179
 20
-6.173651645682335
 30
0.0
 10
3.23946685187002
 20
-6.173688097233985
 30
0.0
 10
3.23946685187002
 20
-6.173688097233985
 30
0.0
 10
3.236530382685991
 20
-6.170473579004818
 30
0.0
 10
3.16716731844988
 20
-6.094030436643707
 30
0.0
 10
3.132567166540158
 20
-5.994041287338151
 30
0.0
 10
3.10579985968252
 20
-5.916678379080773
 30
0.0
 10
3.085204733000662
 20
-5.775713447168881
 30
0.0
 10
3.088384495099186
 20
-5.627909186914974
 30
0.0
 10
3.060190491464203
 20
-5.705849386025217
 30
0.0
 10
3.049219422128266
 20
-5.786219123438412
 30
0.0
 10
3.054331964174707
 20
-5.8690777388898
 30
0.0
 10
3.064547723452051
 20
-6.034625427691884
 30
0.0
 10
3.122876987774967
 20
-6.181038595009592
 30
0.0
 10
3.232241815248926
 20
-6.305462999577734
 30
0.0
 10
3.37274813577844
 20
-6.465316616927995
 30
0.0
 10
3.551687107403874
 20
-6.550750576888932
 30
0.0
 10
3.763350247594846
 20
-6.561404602496572
 30
0.0
 10
3.981733188946842
 20
-6.572396864595096
 30
0.0
 10
4.172528239673839
 20
-6.500546617741797
 30
0.0
 10
4.328285719871321
 20
-6.346697333887631
 30
0.0
 10
4.488647963523665
 20
-6.188299235471832
 30
0.0
 10
4.560126913176443
 20
-5.9941752255977
 30
0.0
 10
4.543696588198145
 20
-5.768601156044748
 30
0.0
  0
HATCH
  5
8E
330
70
100
AcDbEntity
  8
Lid
 62
    18
420
        0
440
 33554687
100
AcDbHatch
 10
0.0
 20
0.0
 30
0.0
210
0.0
220
0.0
230
1.0
  2
SOLID
 70
     1
 71
     1
 91
       11
 92
        1
 93
        1
 72
     4
 94
        3
 73
     0
 74
     0
 95
       17
 96
       13
 40
0.0
 40
0.0
 40
0.0
 40
0.0
 40
1.0
 40
1.0
 40
1.0
 40
2.0
 40
2.0
 40
2.0
 40
3.0
 40
3.0
 40
3.0
 40
4.0
 40
4.0
 40
4.0
 40
4.0
 10
3.98289709546811
 20
-6.330209364595096
 10
3.963486220359603
 20
-6.329613424111155
 10
3.948222345034082
 20
-6.313397569890234
 10
3.948871691279741
 20
-6.294063836437544
 10
3.949532057761946
 20
-6.27440966841454
 10
3.965395264413422
 20
-6.259283969901085
 10
3.984788337601356
 20
-6.259818027518273
 10
4.004222948603961
 20
-6.260353780556467
 10
4.019246921856998
 20
-6.276336514388932
 10
4.018752706633474
 20
-6.29595253543928
 10
4.018261882251964
 20
-6.315476156044748
 10
4.002218960973752
 20
-6.33080360965803
 10
3.98289709546811
 20
-6.330209364595096
 97
        0
 97
        1
330
83
 92
        1
 93
        1
 72
     4
 94
        3
 73
     0
 74
     0
 95
       17
 96
       13
 40
0.0
 40
0.0
 40
0.0
 40
0.0
 40
1.0
 40
1.0
 40
1.0
 40
2.0
 40
2.0
 40
2.0
 40
3.0
 40
3.0
 40
3.0
 40
4.0
 40
4.0
 40
4.0
 40
4.0
 10
3.930838345739377
 20
-6.460926324230513
 10
3.911384237395193
 20
-6.461309489378082
 10
3.895217550383474
 20
-6.445882853635894
 10
3.894958150969412
 20
-6.426688992416276
 10
3.894695360713335
 20
-6.40726370622921
 10
3.911105340639551
 20
-6.390821513303863
 10
3.930813762134776
 20
-6.390763868989627
 10
3.949504931025835
 20
-6.390709615517405
 10
3.965126540183821
 20
-6.406285448308203
 10
3.965289300600488
 20
-6.425138529905425
 10
3.965457994990679
 20
-6.444619764985721
 10
3.950125455114377
 20
-6.460546549924957
 10
3.930838345739377
 20
-6.460926324230513
 97
        0
 97
        1
330
84
 92
        1
 93
        1
 72
     4
 94
        3
 73
     0
 74
     0
 95
       23
 96
       19
 40
0.0
 40
0.0
 40
0.0
 40
0.0
 40
1.0
 40
1.0
 40
1.0
 40
2.0
 40
2.0
 40
2.0
 40
3.0
 40
3.0
 40
3.0
 40
4.0
 40
4.0
 40
4.0
 40
5.0
 40
5.0
 40
5.0
 40
6.0
 40
6.0
 40
6.0
 40
6.0
 10
3.821257352087033
 20
-6.42394834435855
 10
3.757063626501096
 20
-6.434683750174523
 10
3.696992317093544
 20
-6.393337518078169
 10
3.681797106318804
 20
-6.327961236339888
 10
3.664373264630436
 20
-6.252992262544315
 10
3.711951016637815
 20
-6.182105862533464
 10
3.787536275969412
 20
-6.170421868664107
 10
3.842667976273231
 20
-6.1618998349727
 10
3.900826003074446
 20
-6.202039775022613
 10
3.917381789207259
 20
-6.260192715560807
 10
3.919307787471148
 20
-6.266959140799523
 10
3.920769240379134
 20
-6.273906976085982
 10
3.921789036114811
 20
-6.280866679319488
 10
3.922636746618283
 20
-6.286653998926693
 10
3.922517219437294
 20
-6.292582886187978
 10
3.922825786060558
 20
-6.298449042872006
 10
3.922570625199012
 20
-6.360520101357248
 10
3.879169542842241
 20
-6.414264099566884
 10
3.821257352087033
 20
-6.42394834435855
 97
        0
 97
        1
330
85
 92
        1
 93
        1
 72
     4
 94
        3
 73
     0
 74
     0
 95
       17
 96
       13
 40
0.0
 40
0.0
 40
0.0
 40
0.0
 40
1.0
 40
1.0
 40
1.0
 40
2.0
 40
2.0
 40
2.0
 40
3.0
 40
3.0
 40
3.0
 40
4.0
 40
4.0
 40
4.0
 40
4.0
 10
3.798724359194238
 20
-6.515207770899349
 10
3.779257535192502
 20
-6.515331536632857
 10
3.763115431785384
 20
-6.499634481240061
 10
3.763049310366113
 20
-6.480517761676259
 10
3.762983188946842
 20
-6.461192505328603
 10
3.77861242749936
 20
-6.445492059093794
 10
3.798173347366981
 20
-6.445232659679732
 10
3.817696120261946
 20
-6.444974955686675
 10
3.833477098994585
 20
-6.46042532732296
 10
3.833656813621321
 20
-6.47997353153303
 10
3.833834832827051
 20
-6.499396274588585
 10
3.818281888219846
 20
-6.515084005165842
 10
3.798724359194238
 20
-6.515207770899349
 97
        0
 97
        1
330
86
 92
        1
 93
        1
 72
     4
 94
        3
 73
     0
 74
     0
 95
       17
 96
       13
 40
0.0
 40
0.0
 40
0.0
 40
0.0
 40
1.0
 40
1.0
 40
1.0
 40
2.0
 40
2.0
 40
2.0
 40
3.0
 40
3.0
 40
3.0
 40
4.0
 40
4.0
 40
4.0
 40
4.0
 10
3.668881389087901
 20
-6.460789842839453
 10
3.649070394621755
 20
-6.460767802366363
 10
3.632915575557085
 20
-6.444516344304297
 10
3.633136827998491
 20
-6.424831658703169
 10
3.633347060203353
 20
-6.406019267210113
 10
3.648838969654307
 20
-6.390697747570357
 10
3.66779716735396
 20
-6.390551093653256
 10
3.687372498300141
 20
-6.390399353473134
 10
3.70364430141429
 20
-6.406787292926259
 10
3.703523926522797
 20
-6.426531318262631
 10
3.703409485604828
 20
-6.445240289074263
 10
3.687664110713335
 20
-6.46081103560204
 10
3.668881389087901
 20
-6.460789842839453
 97
        0
 97
        1
330
87
 92
        1
 93
        1
 72
     4
 94
        3
 73
     0
 74
     0
 95
       17
 96
       13
 40
0.0
 40
0.0
 40
0.0
 40
0.0
 40
1.0
 40
1.0
 40
1.0
 40
2.0
 40
2.0
 40
2.0
 40
3.0
 40
3.0
 40
3.0
 40
4.0
 40
4.0
 40
4.0
 40
4.0
 10
3.579143602900835
 20
-6.294658081500478
 10
3.579387743525835
 20
-6.275098857053863
 10
3.595169569968978
 20
-6.259547607867665
 10
3.614456679343978
 20
-6.259860413043447
 10
3.633973518265419
 20
-6.260176609061241
 10
3.649429823875228
 20
-6.275943176715322
 10
3.649228068775401
 20
-6.295330315929732
 10
3.649028856807085
 20
-6.314474162229644
 10
3.632966438187294
 20
-6.330343302854644
 10
3.613821744176877
 20
-6.330309394434506
 10
3.594906779712901
 20
-6.33027633372487
 10
3.578903700828353
 20
-6.313823968273482
 10
3.579143602900835
 20
-6.294658081500478
 97
        0
 97
        1
330
88
 92
        1
 93
        1
 72
     4
 94
        3
 73
     0
 74
     0
 95
       17
 96
       13
 40
0.0
 40
0.0
 40
0.0
 40
0.0
 40
1.0
 40
1.0
 40
1.0
 40
2.0
 40
2.0
 40
2.0
 40
3.0
 40
3.0
 40
3.0
 40
4.0
 40
4.0
 40
4.0
 40
4.0
 10
3.669312026023665
 20
-6.129221442774349
 10
3.68877122063087
 20
-6.129139214855513
 10
3.704130887243283
 20
-6.144762519434506
 10
3.703974908510645
 20
-6.164479418034766
 10
3.703824016041026
 20
-6.183507127995704
 10
3.687725145869585
 20
-6.199343207911068
 10
3.668496528519325
 20
-6.199378811752214
 10
3.64922043938087
 20
-6.199415263303863
 10
3.63349540954146
 20
-6.183429986339888
 10
3.63375396124502
 20
-6.164063192177561
 10
3.634007426685557
 20
-6.145028700532596
 10
3.650057129647797
 20
-6.129303670693186
 10
3.669312026023665
 20
-6.129221442774349
 97
        0
 97
        1
330
89
 92
        1
 93
        1
 72
     4
 94
        3
 73
     0
 74
     0
 95
       17
 96
       13
 40
0.0
 40
0.0
 40
0.0
 40
0.0
 40
1.0
 40
1.0
 40
1.0
 40
2.0
 40
2.0
 40
2.0
 40
3.0
 40
3.0
 40
3.0
 40
4.0
 40
4.0
 40
4.0
 40
4.0
 10
3.758508972909516
 20
-5.77460972809336
 10
3.746579142994151
 20
-5.774843696192318
 10
3.736837253888249
 20
-5.765403592025651
 10
3.736482910897797
 20
-5.753264377615929
 10
3.736121786223318
 20
-5.740921712685373
 10
3.746147658347884
 20
-5.730410950152822
 10
3.758343669361339
 20
-5.73034482873355
 10
3.770267565303179
 20
-5.730280402735287
 10
3.779604248788422
 20
-5.739935825369835
 10
3.779575426631304
 20
-5.752299683062978
 10
3.77954745218469
 20
-5.764633023177995
 10
3.770346402380002
 20
-5.774376607704905
 10
3.758508972909516
 20
-5.77460972809336
 97
        0
 97
        1
330
8A
 92
        1
 93
        1
 72
     4
 94
        3
 73
     0
 74
     0
 95
       17
 96
       13
 40
0.0
 40
0.0
 40
0.0
 40
0.0
 40
1.0
 40
1.0
 40
1.0
 40
2.0
 40
2.0
 40
2.0
 40
3.0
 40
3.0
 40
3.0
 40
4.0
 40
4.0
 40
4.0
 40
4.0
 10
3.833738193829655
 20
-6.110494670042144
 10
3.833694112883474
 20
-6.129101067882857
 10
3.817983494122623
 20
-6.144994792112457
 10
3.799333863046235
 20
-6.145299967893707
 10
3.779544061342676
 20
-6.145623793306033
 10
3.762956909921235
 20
-6.129406243664107
 10
3.763091695891287
 20
-6.109865668848568
 10
3.763223091019325
 20
-6.090844740571658
 10
3.779686476707259
 20
-6.074801819293447
 10
3.798764201587901
 20
-6.07510529965369
 10
3.818281888219846
 20
-6.07541556169796
 10
3.833784817907346
 20
-6.091102444564714
 10
3.833738193829655
 20
-6.110494670042144
 97
        0
 97
        1
330
8B
 92
        1
 93
        1
 72
     4
 94
        3
 73
     0
 74
     0
 95
       17
 96
       13
 40
0.0
 40
0.0
 40
0.0
 40
0.0
 40
1.0
 40
1.0
 40
1.0
 40
2.0
 40
2.0
 40
2.0
 40
3.0
 40
3.0
 40
3.0
 40
4.0
 40
4.0
 40
4.0
 40
4.0
 10
3.92959390672028
 20
-6.128990017806901
 10
3.948523282262815
 20
-6.128719598156294
 10
3.964561964988509
 20
-6.144755737750478
 10
3.964762872377832
 20
-6.164153897201432
 10
3.964959541214637
 20
-6.183093445270009
 10
3.949780436939464
 20
-6.198888835081207
 10
3.931018908076616
 20
-6.199267761676259
 10
3.91130540031837
 20
-6.199665337902388
 10
3.894730964554481
 20
-6.18365039107079
 10
3.8945402296912
 20
-6.164020806652388
 10
3.894352885669933
 20
-6.144639601411502
 10
3.909729506492415
 20
-6.129274000825565
 10
3.92959390672028
 20
-6.128990017806901
 97
        0
 97
        1
330
8C
 92
        1
 93
        1
 72
     4
 94
        3
 73
     0
 74
     0
 95
      455
 96
      451
 40
0.0
 40
0.0
 40
0.0
 40
0.0
 40
1.0
 40
1.0
 40
1.0
 40
2.0
 40
2.0
 40
2.0
 40
3.0
 40
3.0
 40
3.0
 40
4.0
 40
4.0
 40
4.0
 40
5.0
 40
5.0
 40
5.0
 40
6.0
 40
6.0
 40
6.0
 40
7.0
 40
7.0
 40
7.0
 40
8.0
 40
8.0
 40
8.0
 40
9.0
 40
9.0
 40
9.0
 40
10.0
 40
10.0
 40
10.0
 40
11.0
 40
11.0
 40
11.0
 40
12.0
 40
12.0
 40
12.0
 40
13.0
 40
13.0
 40
13.0
 40
14.0
 40
14.0
 40
14.0
 40
15.0
 40
15.0
 40
15.0
 40
16.0
 40
16.0
 40
16.0
 40
17.0
 40
17.0
 40
17.0
 40
18.0
 40
18.0
 40
18.0
 40
19.0
 40
19.0
 40
19.0
 40
20.0
 40
20.0
 40
20.0
 40
21.0
 40
21.0
 40
21.0
 40
22.0
 40
22.0
 40
22.0
 40
23.0
 40
23.0
 40
23.0
 40
24.0
 40
24.0
 40
24.0
 40
25.0
 40
25.0
 40
25.0
 40
26.0
 40
26.0
 40
26.0
 40
27.0
 40
27.0
 40
27.0
 40
28.0
 40
28.0
 40
28.0
 40
29.0
 40
29.0
 40
29.0
 40
30.0
 40
30.0
 40
30.0
 40
31.0
 40
31.0
 40
31.0
 40
32.0
 40
32.0
 40
32.0
 40
33.0
 40
33.0
 40
33.0
 40
34.0
 40
34.0
 40
34.0
 40
35.0
 40
35.0
 40
35.0
 40
36.0
 40
36.0
 40
36.0
 40
37.0
 40
37.0
 40
37.0
 40
38.0
 40
38.0
 40
38.0
 40
39.0
 40
39.0
 40
39.0
 40
40.0
 40
40.0
 40
40.0
 40
41.0
 40
41.0
 40
41.0
 40
42.0
 40
42.0
 40
42.0
 40
43.0
 40
43.0
 40
43.0
 40
44.0
 40
44.0
 40
44.0
 40
45.0
 40
45.0
 40
45.0
 40
46.0
 40
46.0
 40
46.0
 40
47.0
 40
47.0
 40
47.0
 40
48.0
 40
48.0
 40
48.0
 40
49.0
 40
49.0
 40
49.0
 40
50.0
 40
50.0
 40
50.0
 40
51.0
 40
51.0
 40
51.0
 40
52.0
 40
52.0
 40
52.0
 40
53.0
 40
53.0
 40
53.0
 40
54.0
 40
54.0
 40
54.0
 40
55.0
 40
55.0
 40
55.0
 40
56.0
 40
56.0
 40
56.0
 40
57.0
 40
57.0
 40
57.0
 40
58.0
 40
58.0
 40
58.0
 40
59.0
 40
59.0
 40
59.0
 40
60.0
 40
60.0
 40
60.0
 40
61.0
 40
61.0
 40
61.0
 40
62.0
 40
62.0
 40
62.0
 40
63.0
 40
63.0
 40
63.0
 40
64.0
 40
64.0
 40
64.0
 40
65.0
 40
65.0
 40
65.0
 40
66.0
 40
66.0
 40
66.0
 40
67.0
 40
67.0
 40
67.0
 40
68.0
 40
68.0
 40
68.0
 40
69.0
 40
69.0
 40
69.0
 40
70.0
 40
70.0
 40
70.0
 40
71.0
 40
71.0
 40
71.0
 40
72.0
 40
72.0
 40
72.0
 40
73.0
 40
73.0
 40
73.0
 40
74.0
 40
74.0
 40
74.0
 40
75.0
 40
75.0
 40
75.0
 40
76.0
 40
76.0
 40
76.0
 40
77.0
 40
77.0
 40
77.0
 40
78.0
 40
78.0
 40
78.0
 40
79.0
 40
79.0
 40
79.0
 40
80.0
 40
80.0
 40
80.0
 40
81.0
 40
81.0
 40
81.0
 40
82.0
 40
82.0
 40
82.0
 40
83.0
 40
83.0
 40
83.0
 40
84.0
 40
84.0
 40
84.0
 40
85.0
 40
85.0
 40
85.0
 40
86.0
 40
86.0
 40
86.0
 40
87.0
 40
87.0
 40
87.0
 40
88.0
 40
88.0
 40
88.0
 40
89.0
 40
89.0
 40
89.0
 40
90.0
 40
90.0
 40
90.0
 40
91.0
 40
91.0
 40
91.0
 40
92.0
 40
92.0
 40
92.0
 40
93.0
 40
93.0
 40
93.0
 40
94.0
 40
94.0
 40
94.0
 40
95.0
 40
95.0
 40
95.0
 40
96.0
 40
96.0
 40
96.0
 40
97.0
 40
97.0
 40
97.0
 40
98.0
 40
98.0
 40
98.0
 40
99.0
 40
99.0
 40
99.0
 40
100.0
 40
100.0
 40
100.0
 40
101.0
 40
101.0
 40
101.0
 40
102.0
 40
102.0
 40
102.0
 40
103.0
 40
103.0
 40
103.0
 40
104.0
 40
104.0
 40
104.0
 40
105.0
 40
105.0
 40
105.0
 40
106.0
 40
106.0
 40
106.0
 40
107.0
 40
107.0
 40
107.0
 40
108.0
 40
108.0
 40
108.0
 40
109.0
 40
109.0
 40
109.0
 40
110.0
 40
110.0
 40
110.0
 40
111.0
 40
111.0
 40
111.0
 40
112.0
 40
112.0
 40
112.0
 40
113.0
 40
113.0
 40
113.0
 40
114.0
 40
114.0
 40
114.0
 40
115.0
 40
115.0
 40
115.0
 40
116.0
 40
116.0
 40
116.0
 40
117.0
 40
117.0
 40
117.0
 40
118.0
 40
118.0
 40
118.0
 40
119.0
 40
119.0
 40
119.0
 40
120.0
 40
120.0
 40
120.0
 40
121.0
 40
121.0
 40
121.0
 40
122.0
 40
122.0
 40
122.0
 40
123.0
 40
123.0
 40
123.0
 40
124.0
 40
124.0
 40
124.0
 40
125.0
 40
125.0
 40
125.0
 40
126.0
 40
126.0
 40
126.0
 40
127.0
 40
127.0
 40
127.0
 40
128.0
 40
128.0
 40
128.0
 40
129.0
 40
129.0
 40
129.0
 40
130.0
 40
130.0
 40
130.0
 40
131.0
 40
131.0
 40
131.0
 40
132.0
 40
132.0
 40
132.0
 40
133.0
 40
133.0
 40
133.0
 40
134.0
 40
134.0
 40
134.0
 40
135.0
 40
135.0
 40
135.0
 40
136.0
 40
136.0
 40
136.0
 40
137.0
 40
137.0
 40
137.0
 40
138.0
 40
138.0
 40
138.0
 40
139.0
 40
139.0
 40
139.0
 40
140.0
 40
140.0
 40
140.0
 40
141.0
 40
141.0
 40
141.0
 40
142.0
 40
142.0
 40
142.0
 40
143.0
 40
143.0
 40
143.0
 40
144.0
 40
144.0
 40
144.0
 40
145.0
 40
145.0
 40
145.0
 40
146.0
 40
146.0
 40
146.0
 40
147.0
 40
147.0
 40
147.0
 40
148.0
 40
148.0
 40
148.0
 40
149.0
 40
149.0
 40
149.0
 40
150.0
 40
150.0
 40
150.0
 40
150.0
 10
4.543696588198145
 20
-5.768601156044748
 10
4.54059735859745
 20
-5.72604778419145
 10
4.530614719708561
 20
-5.685060133638065
 10
4.51628586906837
 20
-5.645107537609419
 10
4.5175871046912
 20
-5.786559055350304
 10
4.497660821596582
 20
-5.919691989920616
 10
4.471936198658213
 20
-5.994041287338151
 10
4.442018799569672
 20
-6.080499281587283
 10
4.386192824363509
 20
-6.14924606028737
 10
4.369710789044498
 20
-6.168376343219228
 10
4.368202712058821
 20
-6.174355245400217
 10
4.363627618471582
 20
-6.179425401921485
 10
4.355649814923404
 20
-6.179425401921485
 10
4.339168627314898
 20
-6.179425401921485
 10
4.336698398907779
 20
-6.158220771387631
 10
4.347789843135211
 20
-6.151239027681033
 10
4.361722812970279
 20
-6.135060472722266
 10
4.417129171477224
 20
-6.067492011622006
 10
4.445691081470713
 20
-5.984953830740929
 10
4.447509420500662
 20
-5.979698025619401
 10
4.449287917136946
 20
-5.974050578245269
 10
4.451040982458127
 20
-5.968203071192318
 10
4.455464335865245
 20
-5.952187276650217
 10
4.459535041702919
 20
-5.936157071029557
 10
4.463235298050575
 20
-5.920112454330339
 10
4.474331828541026
 20
-5.868760695161502
 10
4.482799608760211
 20
-5.805040839747006
 10
4.486550727738075
 20
-5.735940565766971
 10
4.487221266746321
 20
-5.678353048134592
 10
4.481135553041895
 20
-5.620490872299089
 10
4.466283665021061
 20
-5.562272658052127
 10
4.448135878562728
 20
-5.491135335732248
 10
4.41799977016429
 20
-5.425980306435373
 10
4.374496962547103
 20
-5.36720006012461
 10
4.408735989782345
 20
-5.464678290918881
 10
4.42910816860179
 20
-5.563412828679298
 10
4.430120334942936
 20
-5.579653266504818
 10
4.430255968623492
 20
-5.581809842025651
 10
4.43065608798113
 20
-5.585485514768707
 10
4.431198622703353
 20
-5.590503960949263
 10
4.435321886592242
 20
-5.628834039074263
 10
4.447881565411686
 20
-5.745492567720096
 10
4.420354709942936
 20
-5.867278049490929
 10
4.390454265064464
 20
-5.999497999849002
 10
4.311856242603527
 20
-6.083168721962717
 10
4.301868517451617
 20
-6.093382785819054
 10
4.299920478714637
 20
-6.098537713390669
 10
4.295435242440766
 20
-6.102630459701432
 10
4.288273784107433
 20
-6.102630459701432
 10
4.27070498392297
 20
-6.102630459701432
 10
4.268944289207259
 20
-6.078456299273915
 10
4.282702630678613
 20
-6.073208123546919
 10
4.285300015661252
 20
-6.070443739595096
 10
4.291072076479395
 20
-6.0641215146602
 10
4.298733684009777
 20
-6.054643263520877
 10
4.331081469111773
 20
-6.011260830795182
 10
4.357624132685992
 20
-5.964694397418447
 10
4.373474623679915
 20
-5.912110914888065
 10
4.390498346010645
 20
-5.855634745725738
 10
4.405133220142589
 20
-5.798430393240929
 10
4.407534783998926
 20
-5.739443305567318
 10
4.410086392614377
 20
-5.676768677203603
 10
4.408613071759342
 20
-5.614027079710113
 10
4.395956753942502
 20
-5.551966193750912
 10
4.377226590368283
 20
-5.460124390094228
 10
4.347476190248926
 20
-5.373737603527388
 10
4.285617907100054
 20
-5.300603075261329
 10
4.247499756600922
 20
-5.255537089475738
 10
4.205672024938595
 20
-5.215699782075577
 10
4.15416428703712
 20
-5.187409139443198
 10
4.173948154767154
 20
-5.207077718544761
 10
4.191773811234169
 20
-5.225874003538251
 10
4.199400662633908
 20
-5.235028429265235
 10
4.217928223397797
 20
-5.257252007824263
 10
4.30028499423113
 20
-5.381336480480513
 10
4.33495296298113
 20
-5.539715929265235
 10
4.365680773310992
 20
-5.680062880220096
 10
4.341870280689464
 20
-5.771832628483985
 10
4.324482042842242
 20
-5.838835666678429
 10
4.322284777217242
 20
-5.847299208345096
 10
4.32018245516863
 20
-5.855396539074263
 10
4.318303928692936
 20
-5.863181912338151
 10
4.303716526349186
 20
-5.923633843761763
 10
4.259472819751964
 20
-5.995818088553429
 10
4.244932889196408
 20
-6.01952685591454
 10
4.242986545880436
 20
-6.022714247407596
 10
4.241609864022797
 20
-6.024938639768707
 10
4.241013075828353
 20
-6.026010145845096
 10
4.241013075828353
 20
-6.026010145845096
 10
4.240668057653439
 20
-6.025837212902388
 10
4.240668057653439
 20
-6.025837212902388
 10
4.240622281286252
 20
-6.025901638900651
 10
4.240579895761078
 20
-6.025967760319923
 10
4.240533271683387
 20
-6.026031338607682
 10
4.239722012731564
 20
-6.027138448525217
 10
4.238855652597016
 20
-6.028339654308638
 10
4.237943516095279
 20
-6.029365384017839
 10
4.235861539098752
 20
-6.031705912717925
 10
4.232874207284516
 20
-6.033275024859853
 10
4.229936042679481
 20
-6.0342142880977
 10
4.22838049390561
 20
-6.034711894163238
 10
4.226656250741547
 20
-6.034813619423655
 10
4.22506764125804
 20
-6.034941623709679
 10
4.224731100188162
 20
-6.03496875044579
 10
4.224397949960297
 20
-6.034970445866798
 10
4.224061408890419
 20
-6.034945862262197
 10
4.221238532913856
 20
-6.034743259451866
 10
4.21829273891429
 20
-6.03421174496619
 10
4.215494446542328
 20
-6.033634454113325
 10
4.213632874276703
 20
-6.033249593544748
 10
4.211765368037554
 20
-6.032467156750044
 10
4.210196255895627
 20
-6.031393107542144
 10
4.208538981861339
 20
-6.030258870888498
 10
4.206945286114811
 20
-6.029093268946224
 10
4.205661852412554
 20
-6.027565694618967
 10
4.203768914858301
 20
-6.025660041407162
 10
4.202459202130436
 20
-6.023412760862457
 10
4.201732714228961
 20
-6.020824700695357
 10
4.201551304181217
 20
-6.019470907021311
 10
4.20136904642297
 20
-6.018117113347266
 10
4.201187636375228
 20
-6.016762471962717
 10
4.201195265769759
 20
-6.014410075315582
 10
4.201809008174273
 20
-6.012224677637631
 10
4.202815240541895
 20
-6.01014439606211
 10
4.202815240541895
 20
-6.01014439606211
 10
4.202642307599186
 20
-6.010086751747873
 10
4.202642307599186
 20
-6.010086751747873
 10
4.203591743363075
 20
-6.007252007824263
 10
4.204480143970714
 20
-6.005800727442318
 10
4.209410428258908
 20
-5.997757650185373
 10
4.223095866626964
 20
-5.975432346365929
 10
4.264755751609603
 20
-5.90746630903954
 10
4.277803711679047
 20
-5.853416287338151
 10
4.279736491626964
 20
-5.845400336817318
 10
4.281893067147797
 20
-5.837072428831207
 10
4.284151367929047
 20
-5.82836474653954
 10
4.301390408727658
 20
-5.761931369803429
 10
4.322847656991547
 20
-5.679235514768707
 10
4.294249295446408
 20
-5.548627062077735
 10
4.277290846824446
 20
-5.471148865191884
 10
4.248110108163422
 20
-5.402268148232248
 10
4.221764961136512
 20
-5.351121535005252
 10
4.206505324363509
 20
-5.325068000391537
 10
4.189450236744152
 20
-5.299735019705773
 10
4.170497973018023
 20
-5.275192952919748
 10
4.128158224211599
 20
-5.220365580686689
 10
4.078389140552745
 20
-5.17484606978174
 10
4.016043423864377
 20
-5.143580810992678
 10
3.983450650426877
 20
-5.12723610477523
 10
3.950336535029741
 20
-5.113590508800838
 10
3.913044902271495
 20
-5.114406854015681
 10
3.908892816225488
 20
-5.114498406750056
 10
3.904771247757606
 20
-5.115962402789553
 10
3.897434313350054
 20
-5.117429789671064
 10
3.903088542408214
 20
-5.122204095226619
 10
3.905911418384776
 20
-5.124725186263945
 10
3.908874166594412
 20
-5.127069105806046
 10
3.949914375199012
 20
-5.159533874957522
 10
3.988169854799707
 20
-5.195172472233998
 10
4.021778185420367
 20
-5.235126763683638
 10
4.092707818666895
 20
-5.319446832043013
 10
4.143133030255436
 20
-5.414916836654557
 10
4.171605082935558
 20
-5.521649523015235
 10
4.193231873300141
 20
-5.6027203170148
 10
4.200381463686426
 20
-5.684520142047353
 10
4.183417928801443
 20
-5.767418599892405
 10
4.164096063295801
 20
-5.861839138900651
 10
4.115684164153005
 20
-5.93932920373355
 10
4.046192247920367
 20
-6.00500303185855
 10
4.01668853155752
 20
-6.032885078028256
 10
3.982791131655176
 20
-6.047442810504384
 10
3.942624064869151
 20
-6.042502353690148
 10
3.891585958586599
 20
-6.036224209701432
 10
3.856767097366981
 20
-6.009083910222266
 10
3.855350573115679
 20
-5.955358561643707
 10
3.854697836028005
 20
-5.930591851574263
 10
3.85940093390127
 20
-5.906938185395877
 10
3.871578295283648
 20
-5.885130832694054
 10
3.881711826642155
 20
-5.866983893946224
 10
3.892275994936426
 20
-5.849076009560373
 10
3.902398506058387
 20
-5.830922289128516
 10
3.951701348940332
 20
-5.742503540484853
 10
3.894922547128266
 20
-5.681453973156294
 10
3.832616672833561
 20
-5.664342936643707
 10
3.789452949417762
 20
-5.652488552963151
 10
3.709413819100922
 20
-5.675519999631988
 10
3.687590359899533
 20
-5.741552409299957
 10
3.681101135995453
 20
-5.761187079981381
 10
3.66968417093469
 20
-5.777418192991363
 10
3.652081462330089
 20
-5.789839694998741
 10
3.613152900589637
 20
-5.817309753863759
 10
3.569628900209863
 20
-5.832816922103776
 10
3.523722833315332
 20
-5.843123386404991
 10
3.51730142625153
 20
-5.844565341971398
 10
3.507078885290158
 20
-5.845129069456207
 10
3.509361769676009
 20
-5.854442017047353
 10
3.510323073386946
 20
-5.858363525836415
 10
3.520729567527571
 20
-5.860074205632423
 10
3.526949219491547
 20
-5.862518155013932
 10
3.528258932219412
 20
-5.86303271528954
 10
3.530050144513249
 20
-5.862446099621138
 10
3.531596368471582
 20
-5.86221467465369
 10
3.569600925763249
 20
-5.856534166569923
 10
3.607491042136946
 20
-5.849855903223568
 10
3.645643948766721
 20
-5.845468153657596
 10
3.672340047942068
 20
-5.842397746214019
 10
3.69954985968252
 20
-5.840071628592491
 10
3.726245958857866
 20
-5.841798414888065
 10
3.751594198332693
 20
-5.843438734712283
 10
3.763272258228526
 20
-5.861302538151954
 10
3.762037144024967
 20
-5.886710965072526
 10
3.760659614456825
 20
-5.915032972993533
 10
3.751484843677745
 20
-5.941173821789107
 10
3.740752828703787
 20
-5.967001865408898
 10
3.734243259747624
 20
-5.982668403223568
 10
3.724187717755436
 20
-5.99527640154171
 10
3.710671821488075
 20
-6.005382806164107
 10
3.68903231546594
 20
-6.021563904254384
 10
3.665330329788856
 20
-6.034115953679298
 10
3.637831448766721
 20
-6.029907918740061
 10
3.594621948983735
 20
-6.023296624523482
 10
3.55520680141429
 20
-6.005626946789107
 10
3.524768060366113
 20
-5.973984456825998
 10
3.444711975839203
 20
-5.89076217356862
 10
3.407716194046669
 20
-5.789575209321658
 10
3.40725503953278
 20
-5.674996114540842
 10
3.406819316333995
 20
-5.566635824013498
 10
3.438176127857432
 20
-5.465890516938846
 10
3.487105978117849
 20
-5.370533257824263
 10
3.53673518954363
 20
-5.273815423351607
 10
3.606958679940766
 20
-5.193641507064726
 10
3.69206711906837
 20
-5.126360419825143
 10
3.695007826804915
 20
-5.124035149914119
 10
3.699246379322276
 20
-5.123352742958823
 10
3.702880514250662
 20
-5.121904853418893
 10
3.701416518211165
 20
-5.11962875071707
 10
3.699952522171669
 20
-5.117352648015248
 10
3.698488526132172
 20
-5.115077393023928
 10
3.690181810908648
 20
-5.115077393023928
 10
3.681808126555349
 20
-5.114391595226619
 10
3.673579400698145
 20
-5.115193529362904
 10
3.632936768319672
 20
-5.119154032835126
 10
3.595400994936426
 20
-5.133251458507869
 10
3.56135185485396
 20
-5.154893507661514
 10
3.54250640265127
 20
-5.166871657075577
 10
3.524658705711165
 20
-5.179761942991376
 10
3.507684150589637
 20
-5.193470269543025
 10
3.481032132360471
 20
-5.218351420530439
 10
3.447899367332259
 20
-5.251953817177561
 10
3.435790670500662
 20
-5.266487813759592
 10
3.421501662254134
 20
-5.283625129297787
 10
3.341972853660384
 20
-5.402453796832509
 10
3.308932489077051
 20
-5.553407301606815
 10
3.280334127531912
 20
-5.684015754297787
 10
3.301791375795801
 20
-5.766711609332509
 10
3.319030416594412
 20
-5.83314498606862
 10
3.321288717375662
 20
-5.841852668360287
 10
3.323445292896495
 20
-5.850180576346398
 10
3.325378072844412
 20
-5.858196526867232
 10
3.338426032913856
 20
-5.91224654856862
 10
3.380085917896495
 20
-5.980212585895009
 10
3.393771356264551
 20
-6.002537889714454
 10
3.398092984411252
 20
-6.009588297971832
 10
3.399288256221148
 20
-6.011593133312544
 10
3.400162245750228
 20
-6.013884494803429
 10
3.40017241827627
 20
-6.013902296724002
 10
3.400191915617849
 20
-6.013909926118533
 10
3.400202088143891
 20
-6.013927728039107
 10
3.400272448115679
 20
-6.014038778115061
 10
3.400249559932085
 20
-6.01417525950612
 10
3.40031652906186
 20
-6.014287157292579
 10
3.400386889033648
 20
-6.014482130708377
 10
3.400469964662988
 20
-6.01466099762461
 10
3.400539476924273
 20
-6.014866991276954
 10
3.400539476924273
 20
-6.014866991276954
 10
3.400505568504134
 20
-6.014878011513498
 10
3.400505568504134
 20
-6.014878011513498
 10
3.401292243851356
 20
-6.016377611394141
 10
3.401938199255002
 20
-6.017914510536936
 10
3.402015340910818
 20
-6.019608236122873
 10
3.402469713740679
 20
-6.02163850277869
 10
3.402379008716807
 20
-6.023669617145009
 10
3.4017423781287
 20
-6.025699883800825
 10
3.401065905146929
 20
-6.028948310450131
 10
3.398842360496321
 20
-6.032611267535634
 10
3.396420451587901
 20
-6.034853461817318
 10
3.396311096932953
 20
-6.034954339367232
 10
3.396197503725488
 20
-6.03504928294362
 10
3.396082215097016
 20
-6.035143378809506
 10
3.395051399124794
 20
-6.035982612207943
 10
3.393886644893023
 20
-6.036887119315148
 10
3.39281174797462
 20
-6.037669556109853
 10
3.392593886375228
 20
-6.037827230263498
 10
3.392370938512815
 20
-6.03797642731211
 10
3.392139513545366
 20
-6.038112908703169
 10
3.391901306893891
 20
-6.038253628646745
 10
3.391655470847884
 20
-6.038382480643273
 10
3.39140539624936
 20
-6.038502007824263
 10
3.389999044524099
 20
-6.039172546832509
 10
3.388532505353092
 20
-6.039754076237891
 10
3.387088006655176
 20
-6.040333910222266
 10
3.38601226202627
 20
-6.040766242579037
 10
3.384883111635645
 20
-6.041056159571224
 10
3.383746331850488
 20
-6.041274021170616
 10
3.381421061939464
 20
-6.041718221474436
 10
3.379060188187294
 20
-6.04200474762461
 10
3.376704400698145
 20
-6.042235324881554
 10
3.373946798430349
 20
-6.042226847776519
 10
3.371376540183821
 20
-6.041531725163673
 10
3.368993625958561
 20
-6.040149957043013
 10
3.367962809986339
 20
-6.039353956880252
 10
3.366931994014116
 20
-6.038557109006988
 10
3.365901178041895
 20
-6.037761108844228
 10
3.364008240487641
 20
-6.035854607921919
 10
3.362698527759776
 20
-6.033607327377214
 10
3.361972039858301
 20
-6.031019267210113
 10
3.361939826859169
 20
-6.030777669716623
 10
3.361906766149533
 20
-6.030536919933638
 10
3.361874553150401
 20
-6.030295322440148
 10
3.361198927879134
 20
-6.029124634234853
 10
3.359998569806217
 20
-6.027172356945357
 10
3.358248895327051
 20
-6.02430709544362
 10
3.343708964771495
 20
-6.000598328082509
 10
3.299465258174273
 20
-5.928414083290842
 10
3.284877855830523
 20
-5.867962151867232
 10
3.282999329354828
 20
-5.860176778603342
 10
3.280897007306217
 20
-5.852079447874175
 10
3.278699741681217
 20
-5.843615906207509
 10
3.261311503833995
 20
-5.776612868013065
 10
3.237501011212467
 20
-5.684843119749175
 10
3.268228821542328
 20
-5.544496168794315
 10
3.302896790292328
 20
-5.386116720009592
 10
3.385253561125662
 20
-5.262032247353342
 10
3.403781121889551
 20
-5.239808668794315
 10
3.413005907588335
 20
-5.22873587419796
 10
3.437124966833127
 20
-5.203585998980959
 10
3.461622104962467
 20
-5.179812805621584
 10
3.430030477629568
 20
-5.198357320595542
 10
3.397080818070106
 20
-5.215215739378095
 10
3.368716424623926
 20
-5.237823330795182
 10
3.310320191171235
 20
-5.284368571409332
 10
3.271287361038856
 20
-5.345525797971832
 10
3.243850362883474
 20
-5.414240363672787
 10
3.217478089120453
 20
-5.496571703191016
 10
3.201607253074446
 20
-5.572980089421485
 10
3.200784973886078
 20
-5.586169617145009
 10
3.200635776837467
 20
-5.588570333290842
 10
3.20020174905969
 20
-5.59266647044362
 10
3.199598179181217
 20
-5.598254578082509
 10
3.196137824906044
 20
-5.630428582531294
 10
3.186611254268023
 20
-5.719449205632423
 10
3.201230021900401
 20
-5.818778836166276
 10
3.202341370370453
 20
-5.825863152843794
 10
3.20348069328712
 20
-5.832948317231815
 10
3.204770060962901
 20
-5.84004195872487
 10
3.21981861782054
 20
-5.922807326020877
 10
3.254513713306651
 20
-5.998354438379818
 10
3.308372152434255
 20
-6.064132534896745
 10
3.30878837829146
 20
-6.064640313488325
 10
3.309174934281044
 20
-6.065175218816016
 10
3.309588617006738
 20
-6.065685540539107
 10
3.313236315303179
 20
-6.070014798080339
 10
3.316223647117415
 20
-6.073367493121572
 10
3.318367506980696
 20
-6.075713108084679
 10
3.331291701316634
 20
-6.081557224295616
 10
3.329120714717241
 20
-6.104957425033464
 10
3.311913886917762
 20
-6.104957425033464
 10
3.304242954571842
 20
-6.104957425033464
 10
3.299659383879568
 20
-6.100297560395877
 10
3.297969049135645
 20
-6.09463654965369
 10
3.27966952249719
 20
-6.07494423465803
 10
3.210442939652137
 20
-5.994176073308204
 10
3.182827074580523
 20
-5.872058289020009
 10
3.155300219111773
 20
-5.750272807249175
 10
3.167859897931217
 20
-5.633614278603342
 10
3.171983161820106
 20
-5.595284200478342
 10
3.172525696542328
 20
-5.590265754297787
 10
3.172925815899967
 20
-5.586590081554732
 10
3.173061449580523
 20
-5.584433506033898
 10
3.17413973734094
 20
-5.567119866710982
 10
3.197206787850922
 20
-5.456043511730513
 10
3.235639438946842
 20
-5.352690647147179
 10
3.214336473994585
 20
-5.381907837359853
 10
3.191760247866113
 20
-5.410428209538673
 10
3.174179579734603
 20
-5.441746874089454
 10
3.137455065303179
 20
-5.507168932194923
 10
3.124269776132172
 20
-5.580410271984419
 10
3.116820943938162
 20
-5.653911858898482
 10
3.116409804343978
 20
-5.657969001368099
 10
3.116191942744585
 20
-5.662023600706207
 10
3.115852010832693
 20
-5.666079895465322
 10
3.116520006709429
 20
-5.796247538694488
 10
3.135132338523665
 20
-5.916505446138065
 10
3.158812283727658
 20
-5.984953830740929
 10
3.189659621238509
 20
-6.074096524154557
 10
3.251754415617849
 20
-6.145705173514366
 10
3.259160862286686
 20
-6.154044101737023
 10
3.259249024179047
 20
-6.154132263629384
 10
3.259282932599186
 20
-6.154254333941884
 10
3.259367703649533
 20
-6.154344191255252
 10
3.259453322410384
 20
-6.154434896279123
 10
3.259496555646061
 20
-6.154551880328603
 10
3.259575392722884
 20
-6.154645976194488
 10
3.259832249005436
 20
-6.154934197765669
 10
3.259992466290592
 20
-6.155274977388065
 10
3.26022134812653
 20
-6.155584391721832
 10
3.260451925383474
 20
-6.1559429732648
 10
3.260727431297103
 20
-6.156270189519141
 10
3.260949531449012
 20
-6.156642334430165
 10
3.261163154495887
 20
-6.157011088499175
 10
3.261489523039724
 20
-6.15730270091237
 10
3.261673476218978
 20
-6.157693495454471
 10
3.261862515661252
 20
-6.158020711708811
 10
3.262063423050575
 20
-6.158328430621572
 10
3.262225335756738
 20
-6.158670057954471
 10
3.262338928964203
 20
-6.158969299762197
 10
3.262441501935124
 20
-6.159254978201866
 10
3.262535597801009
 20
-6.159561849404123
 10
3.265756897714203
 20
-6.167730387815582
 10
3.261812500741547
 20
-6.178985440170182
 10
3.250376886049707
 20
-6.178985440170182
 10
3.246944506221148
 20
-6.178985440170182
 10
3.244487841182085
 20
-6.17768844309987
 10
3.242439772605696
 20
-6.175993022092925
 10
3.24136402797679
 20
-6.175297051769575
 10
3.240289978768891
 20
-6.174607863130252
 10
3.239505846553179
 20
-6.173651645682335
 10
3.239505846553179
 20
-6.173651645682335
 10
3.23946685187002
 20
-6.173688097233985
 10
3.23946685187002
 20
-6.173688097233985
 10
3.236530382685991
 20
-6.170473579004818
 10
3.16716731844988
 20
-6.094030436643707
 10
3.132567166540158
 20
-5.994041287338151
 10
3.10579985968252
 20
-5.916678379080773
 10
3.085204733000662
 20
-5.775713447168881
 10
3.088384495099186
 20
-5.627909186914974
 10
3.060190491464203
 20
-5.705849386025217
 10
3.049219422128266
 20
-5.786219123438412
 10
3.054331964174707
 20
-5.8690777388898
 10
3.064547723452051
 20
-6.034625427691884
 10
3.122876987774967
 20
-6.181038595009592
 10
3.232241815248926
 20
-6.305462999577734
 10
3.37274813577844
 20
-6.465316616927995
 10
3.551687107403874
 20
-6.550750576888932
 10
3.763350247594846
 20
-6.561404602496572
 10
3.981733188946842
 20
-6.572396864595096
 10
4.172528239673839
 20
-6.500546617741797
 10
4.328285719871321
 20
-6.346697333887631
 10
4.488647963523665
 20
-6.188299235471832
 10
4.560126913176443
 20
-5.9941752255977
 10
4.543696588198145
 20
-5.768601156044748
 97
        0
 97
        1
330
8D
 75
     2
 76
     1
 98
        1
 10
0.0
 20
0.0
450
        0
451
        0
460
0.0
461
0.0
452
        0
462
0.0
453
        0
470

  0
SPLINE
  5
8F
330
70
100
AcDbEntity
  8
Lid
100
AcDbSpline
210
0.0
220
0.0
230
1.0
 70
     9
 71
     3
 72
    74
 73
    70
 74
     0
 42
0.0000000001
 43
0.0000000001
 40
0.0
 40
0.0
 40
0.0
 40
0.0
 40
1.0
 40
1.0
 40
1.0
 40
2.0
 40
2.0
 40
2.0
 40
3.0
 40
3.0
 40
3.0
 40
4.0
 40
4.0
 40
4.0
 40
5.0
 40
5.0
 40
5.0
 40
6.0
 40
6.0
 40
6.0
 40
7.0
 40
7.0
 40
7.0
 40
8.0
 40
8.0
 40
8.0
 40
9.0
 40
9.0
 40
9.0
 40
10.0
 40
10.0
 40
10.0
 40
11.0
 40
11.0
 40
11.0
 40
12.0
 40
12.0
 40
12.0
 40
13.0
 40
13.0
 40
13.0
 40
14.0
 40
14.0
 40
14.0
 40
15.0
 40
15.0
 40
15.0
 40
16.0
 40
16.0
 40
16.0
 40
17.0
 40
17.0
 40
17.0
 40
18.0
 40
18.0
 40
18.0
 40
19.0
 40
19.0
 40
19.0
 40
20.0
 40
20.0
 40
20.0
 40
21.0
 40
21.0
 40
21.0
 40
22.0
 40
22.0
 40
22.0
 40
23.0
 40
23.0
 40
23.0
 40
23.0
 10
4.915825737847222
 20
-6.55031500922309
 30
0.0
 10
4.888700697157117
 20
-6.594184027777777
 30
0.0
 10
4.848255581325954
 20
-6.620574103461371
 30
0.0
 10
4.797627766927083
 20
-6.630416870117187
 30
0.0
 10
4.788035074869791
 20
-6.632280985514322
 30
0.0
 10
4.785952250162759
 20
-6.636037190755208
 30
0.0
 10
4.785892910427516
 20
-6.64512464735243
 30
0.0
 10
4.785528394911024
 20
-6.701463487413193
 30
0.0
 10
4.768480088975693
 20
-6.752503289116752
 30
0.0
 10
4.724391513400607
 20
-6.788503011067708
 30
0.0
 10
4.680747985839843
 20
-6.82414076063368
 30
0.0
 10
4.629362318250867
 20
-6.839845445421006
 30
0.0
 10
4.573928833007812
 20
-6.816530015733506
 30
0.0
 10
4.541236877441406
 20
-6.802779303656683
 30
0.0
 10
4.521127488878037
 20
-6.776668124728732
 30
0.0
 10
4.516644795735676
 20
-6.740308125813801
 30
0.0
 10
4.516237046983506
 20
-6.737003750271266
 30
0.0
 10
4.516590542263454
 20
-6.733605278862846
 30
0.0
 10
4.516590542263454
 20
-6.730144076877169
 30
0.0
 10
4.518859015570746
 20
-6.729986402723524
 30
0.0
 10
4.520089891221787
 20
-6.72958034939236
 30
0.0
 10
4.521119859483506
 20
-6.729875352647568
 30
0.0
 10
4.567965189615884
 20
-6.743295457628037
 30
0.0
 10
4.61300065782335
 20
-6.719686720106336
 30
0.0
 10
4.627789815266926
 20
-6.67250739203559
 30
0.0
 10
4.638758341471353
 20
-6.637515597873263
 30
0.0
 10
4.63623046875
 20
-6.604001363118489
 30
0.0
 10
4.609390258789062
 20
-6.575975206163193
 30
0.0
 10
4.586197747124566
 20
-6.551756964789496
 30
0.0
 10
4.562652587890625
 20
-6.527871025933158
 30
0.0
 10
4.538860744900173
 20
-6.504241943359375
 30
0.0
 10
4.541959974500867
 20
-6.493464152018228
 30
0.0
 10
4.544553968641492
 20
-6.482512580023871
 30
0.0
 10
4.546341790093316
 20
-6.471055772569443
 30
0.0
 10
4.5483644273546
 20
-6.458092583550346
 30
0.0
 10
4.550099690755208
 20
-6.445277743869357
 30
0.0
 10
4.549613104926215
 20
-6.432128058539496
 30
0.0
 10
4.549373202853732
 20
-6.425657484266492
 30
0.0
 10
4.548701816134982
 20
-6.41923353407118
 30
0.0
 10
4.547846476236978
 20
-6.412818908691406
 30
0.0
 10
4.551284790039062
 20
-6.41274685329861
 30
0.0
 10
4.55473158094618
 20
-6.41258324517144
 30
0.0
 10
4.558143615722656
 20
-6.412222120496961
 30
0.0
 10
4.567347208658853
 20
-6.411246405707465
 30
0.0
 10
4.57648213704427
 20
-6.409674750434027
 30
0.0
 10
4.585627237955728
 20
-6.408271789550781
 30
0.0
 10
4.597130669487847
 20
-6.406508551703558
 30
0.0
 10
4.611398484971787
 20
-6.407790289984808
 30
0.0
 10
4.622472127278645
 20
-6.403023613823783
 30
0.0
 10
4.646455552842881
 20
-6.420782301161024
 30
0.0
 10
4.670364379882812
 20
-6.4386478000217
 30
0.0
 10
4.693843417697482
 20
-6.457059224446614
 30
0.0
 10
4.750750223795572
 20
-6.501684400770399
 30
0.0
 10
4.831930372450086
 20
-6.462961832682291
 30
0.0
 10
4.840069240993923
 20
-6.386791653103298
 30
0.0
 10
4.841390821668836
 20
-6.374420166015625
 30
0.0
 10
4.835386488172742
 20
-6.36118910047743
 30
0.0
 10
4.832287258572048
 20
-6.348472595214843
 30
0.0
 10
4.831424289279513
 20
-6.344935099283853
 30
0.0
 10
4.828832838270399
 20
-6.341820610894096
 30
0.0
 10
4.826281229654947
 20
-6.337125990125867
 30
0.0
 10
4.850678337944878
 20
-6.331634521484375
 30
0.0
 10
4.870906405978732
 20
-6.336952209472656
 30
0.0
 10
4.889912923177083
 20
-6.349743313259548
 30
0.0
 10
4.914322747124566
 20
-6.366171095106336
 30
0.0
 10
4.929507785373263
 20
-6.389205932617187
 30
0.0
 10
4.935262891981336
 20
-6.417428758409287
 30
0.0
 10
4.944713168674044
 20
-6.46377224392361
 30
0.0
 10
4.941164652506509
 20
-6.509334988064235
 30
0.0
 10
4.915825737847222
 20
-6.55031500922309
 30
0.0
  0
SPLINE
  5
90
330
70
100
AcDbEntity
  8
Lid
100
AcDbSpline
210
0.0
220
0.0
230
1.0
 70
     9
 71
     3
 72
   269
 73
   265
 74
     0
 42
0.0000000001
 43
0.0000000001
 40
0.0
 40
0.0
 40
0.0
 40
0.0
 40
1.0
 40
1.0
 40
1.0
 40
2.0
 40
2.0
 40
2.0
 40
3.0
 40
3.0
 40
3.0
 40
4.0
 40
4.0
 40
4.0
 40
5.0
 40
5.0
 40
5.0
 40
6.0
 40
6.0
 40
6.0
 40
7.0
 40
7.0
 40
7.0
 40
8.0
 40
8.0
 40
8.0
 40
9.0
 40
9.0
 40
9.0
 40
10.0
 40
10.0
 40
10.0
 40
11.0
 40
11.0
 40
11.0
 40
12.0
 40
12.0
 40
12.0
 40
13.0
 40
13.0
 40
13.0
 40
14.0
 40
14.0
 40
14.0
 40
15.0
 40
15.0
 40
15.0
 40
16.0
 40
16.0
 40
16.0
 40
17.0
 40
17.0
 40
17.0
 40
18.0
 40
18.0
 40
18.0
 40
19.0
 40
19.0
 40
19.0
 40
20.0
 40
20.0
 40
20.0
 40
21.0
 40
21.0
 40
21.0
 40
22.0
 40
22.0
 40
22.0
 40
23.0
 40
23.0
 40
23.0
 40
24.0
 40
24.0
 40
24.0
 40
25.0
 40
25.0
 40
25.0
 40
26.0
 40
26.0
 40
26.0
 40
27.0
 40
27.0
 40
27.0
 40
28.0
 40
28.0
 40
28.0
 40
29.0
 40
29.0
 40
29.0
 40
30.0
 40
30.0
 40
30.0
 40
31.0
 40
31.0
 40
31.0
 40
32.0
 40
32.0
 40
32.0
 40
33.0
 40
33.0
 40
33.0
 40
34.0
 40
34.0
 40
34.0
 40
35.0
 40
35.0
 40
35.0
 40
36.0
 40
36.0
 40
36.0
 40
37.0
 40
37.0
 40
37.0
 40
38.0
 40
38.0
 40
38.0
 40
39.0
 40
39.0
 40
39.0
 40
40.0
 40
40.0
 40
40.0
 40
41.0
 40
41.0
 40
41.0
 40
42.0
 40
42.0
 40
42.0
 40
43.0
 40
43.0
 40
43.0
 40
44.0
 40
44.0
 40
44.0
 40
45.0
 40
45.0
 40
45.0
 40
46.0
 40
46.0
 40
46.0
 40
47.0
 40
47.0
 40
47.0
 40
48.0
 40
48.0
 40
48.0
 40
49.0
 40
49.0
 40
49.0
 40
50.0
 40
50.0
 40
50.0
 40
51.0
 40
51.0
 40
51.0
 40
52.0
 40
52.0
 40
52.0
 40
53.0
 40
53.0
 40
53.0
 40
54.0
 40
54.0
 40
54.0
 40
55.0
 40
55.0
 40
55.0
 40
56.0
 40
56.0
 40
56.0
 40
57.0
 40
57.0
 40
57.0
 40
58.0
 40
58.0
 40
58.0
 40
59.0
 40
59.0
 40
59.0
 40
60.0
 40
60.0
 40
60.0
 40
61.0
 40
61.0
 40
61.0
 40
62.0
 40
62.0
 40
62.0
 40
63.0
 40
63.0
 40
63.0
 40
64.0
 40
64.0
 40
64.0
 40
65.0
 40
65.0
 40
65.0
 40
66.0
 40
66.0
 40
66.0
 40
67.0
 40
67.0
 40
67.0
 40
68.0
 40
68.0
 40
68.0
 40
69.0
 40
69.0
 40
69.0
 40
70.0
 40
70.0
 40
70.0
 40
71.0
 40
71.0
 40
71.0
 40
72.0
 40
72.0
 40
72.0
 40
73.0
 40
73.0
 40
73.0
 40
74.0
 40
74.0
 40
74.0
 40
75.0
 40
75.0
 40
75.0
 40
76.0
 40
76.0
 40
76.0
 40
77.0
 40
77.0
 40
77.0
 40
78.0
 40
78.0
 40
78.0
 40
79.0
 40
79.0
 40
79.0
 40
80.0
 40
80.0
 40
80.0
 40
81.0
 40
81.0
 40
81.0
 40
82.0
 40
82.0
 40
82.0
 40
83.0
 40
83.0
 40
83.0
 40
84.0
 40
84.0
 40
84.0
 40
85.0
 40
85.0
 40
85.0
 40
86.0
 40
86.0
 40
86.0
 40
87.0
 40
87.0
 40
87.0
 40
88.0
 40
88.0
 40
88.0
 40
88.0
 10
4.504527621799044
 20
-6.37205335828993
 30
0.0
 10
4.500503540039062
 20
-6.371225145128037
 30
0.0
 10
4.496584574381509
 20
-6.369890001085068
 30
0.0
 10
4.489228990342881
 20
-6.367842780219183
 30
0.0
 10
4.4922120836046
 20
-6.375233120388454
 30
0.0
 10
4.493624369303384
 20
-6.379787021213107
 30
0.0
 10
4.495792812771266
 20
-6.383946736653645
 30
0.0
 10
4.52655029296875
 20
-6.442949083116318
 30
0.0
 10
4.506395128038193
 20
-6.515299479166666
 30
0.0
 10
4.450067308213975
 20
-6.545099046495225
 30
0.0
 10
4.416964213053384
 20
-6.562611897786458
 30
0.0
 10
4.383156670464409
 20
-6.562568664550781
 30
0.0
 10
4.349648369683159
 20
-6.545287238226996
 30
0.0
 10
4.344097561306423
 20
-6.54242451985677
 30
0.0
 10
4.338537428114149
 20
-6.539578755696614
 30
0.0
 10
4.332927280002169
 20
-6.536835564507377
 30
0.0
 10
4.332384745279947
 20
-6.536571078830294
 30
0.0
 10
4.331455654568141
 20
-6.53709750705295
 30
0.0
 10
4.328831142849391
 20
-6.537654452853732
 30
0.0
 10
4.329283820258246
 20
-6.54256608751085
 30
0.0
 10
4.329461839463975
 20
-6.547755771213107
 30
0.0
 10
4.330276489257812
 20
-6.552842881944443
 30
0.0
 10
4.340485466851128
 20
-6.616569519042968
 30
0.0
 10
4.303132798936632
 20
-6.674617343478732
 30
0.0
 10
4.242590162489149
 20
-6.687482198079426
 30
0.0
 10
4.203588697645399
 20
-6.695769415961371
 30
0.0
 10
4.170832316080728
 20
-6.682579040527343
 30
0.0
 10
4.143098619249132
 20
-6.655092027452256
 30
0.0
 10
4.13948737250434
 20
-6.651512993706596
 30
0.0
 10
4.135943094889322
 20
-6.647861904568141
 30
0.0
 10
4.132219950358072
 20
-6.644403245713975
 30
0.0
 10
4.131497701009114
 20
-6.643732706705728
 30
0.0
 10
4.130086263020833
 20
-6.643804762098524
 30
0.0
 10
4.12746344672309
 20
-6.643156263563367
 30
0.0
 10
4.126953972710503
 20
-6.648859659830728
 30
0.0
 10
4.126485188802083
 20
-6.654097663031683
 30
0.0
 10
4.126017252604166
 20
-6.659335666232638
 30
0.0
 10
4.122050815158419
 20
-6.703792148166232
 30
0.0
 10
4.1031985812717
 20
-6.739150153266058
 30
0.0
 10
4.062145657009548
 20
-6.759576585557725
 30
0.0
 10
4.014732360839843
 20
-6.783167521158853
 30
0.0
 10
3.959540473090277
 20
-6.768788655598958
 30
0.0
 10
3.928138732910156
 20
-6.7257080078125
 30
0.0
 10
3.923595004611545
 20
-6.719476487901475
 30
0.0
 10
3.919271681043836
 20
-6.713083902994791
 30
0.0
 10
3.912621392144096
 20
-6.703590393066406
 30
0.0
 10
3.909109327528211
 20
-6.712771097819009
 30
0.0
 10
3.906634012858072
 20
-6.718989902072482
 30
0.0
 10
3.90434095594618
 20
-6.725275675455728
 30
0.0
 10
3.883326212565103
 20
-6.782871670193141
 30
0.0
 10
3.823506673177083
 20
-6.813036600748697
 30
0.0
 10
3.766679551866319
 20
-6.793790181477864
 30
0.0
 10
3.732147216796875
 20
-6.782094319661458
 30
0.0
 10
3.709728664822048
 20
-6.757453070746527
 30
0.0
 10
3.697009616427951
 20
-6.723623487684461
 30
0.0
 10
3.694880167643229
 20
-6.717959933810763
 30
0.0
 10
3.69263203938802
 20
-6.712340460883246
 30
0.0
 10
3.689270867241753
 20
-6.70369635687934
 30
0.0
 10
3.656899346245659
 20
-6.755089653862846
 30
0.0
 10
3.61544460720486
 20
-6.783906724717881
 30
0.0
 10
3.55595228407118
 20
-6.765634324815537
 30
0.0
 10
3.497420416937933
 20
-6.747657775878906
 30
0.0
 10
3.476949055989583
 20
-6.701087103949652
 30
0.0
 10
3.474593268500433
 20
-6.641089545355902
 30
0.0
 10
3.469559563530815
 20
-6.645228915744357
 30
0.0
 10
3.466221279568141
 20
-6.647421095106336
 30
0.0
 10
3.463556077745225
 20
-6.650248209635416
 30
0.0
 10
3.425951639811197
 20
-6.690153333875867
 30
0.0
 10
3.378319634331596
 20
-6.700651380750867
 30
0.0
 10
3.333527459038628
 20
-6.678782992892794
 30
0.0
 10
3.288876851399739
 20
-6.656983269585502
 30
0.0
 10
3.263426886664496
 20
-6.606113857693141
 30
0.0
 10
3.271451314290364
 20
-6.5548341539171
 30
0.0
 10
3.272335476345485
 20
-6.549186706542968
 30
0.0
 10
3.272866143120659
 20
-6.543483310275607
 30
0.0
 10
3.273904588487412
 20
-6.534992641872829
 30
0.0
 10
3.267367892795138
 20
-6.537890116373697
 30
0.0
 10
3.26312764485677
 20
-6.539302402072482
 30
0.0
 10
3.259357028537326
 20
-6.541514078776041
 30
0.0
 10
3.223172505696614
 20
-6.562739902072482
 30
0.0
 10
3.1859130859375
 20
-6.564659966362846
 30
0.0
 10
3.149733649359808
 20
-6.543621487087673
 30
0.0
 10
3.112516615125867
 20
-6.521979437934027
 30
0.0
 10
3.093352423773871
 20
-6.488192240397134
 30
0.0
 10
3.091852823893229
 20
-6.444720798068575
 30
0.0
 10
3.091072930230034
 20
-6.422108968098958
 30
0.0
 10
3.09672376844618
 20
-6.401278177897134
 30
0.0
 10
3.107509189181857
 20
-6.381595187717013
 30
0.0
 10
3.109264797634548
 20
-6.378392537434895
 30
0.0
 10
3.110272725423176
 20
-6.374781290690103
 30
0.0
 10
3.113156636555989
 20
-6.367486741807725
 30
0.0
 10
3.050792270236545
 20
-6.390561421712239
 30
0.0
 10
3.001354641384548
 20
-6.376422458224825
 30
0.0
 10
2.96907975938585
 20
-6.322330050998263
 30
0.0
 10
2.937479654947916
 20
-6.26937018500434
 30
0.0
 10
2.949485778808593
 20
-6.21849399142795
 30
0.0
 10
2.991299099392361
 20
-6.169902377658419
 30
0.0
 10
2.929421318901909
 20
-6.170051574707031
 30
0.0
 10
2.886280483669704
 20
-6.145534091525607
 30
0.0
 10
2.868721856011284
 20
-6.088495042588975
 30
0.0
 10
2.851354810926649
 20
-6.032080756293402
 30
0.0
 10
2.871314154730902
 20
-5.986367967393662
 30
0.0
 10
2.920558505588107
 20
-5.948867797851562
 30
0.0
 10
2.860527038574218
 20
-5.929473876953125
 30
0.0
 10
2.82733154296875
 20
-5.890680948893228
 30
0.0
 10
2.827511257595486
 20
-5.831044514973958
 30
0.0
 10
2.827690124511718
 20
-5.771943834092881
 30
0.0
 10
2.86045667860243
 20
-5.733307732476128
 30
0.0
 10
2.919491238064236
 20
-5.714774237738715
 30
0.0
 10
2.913780212402343
 20
-5.70933363172743
 30
0.0
 10
2.910209655761718
 20
-5.705561319986978
 30
0.0
 10
2.906266106499565
 20
-5.702229817708333
 30
0.0
 10
2.844451056586371
 20
-5.649996439615884
 30
0.0
 10
2.849205864800346
 20
-5.555313958062066
 30
0.0
 10
2.915969848632812
 20
-5.511163499620225
 30
0.0
 10
2.933094448513454
 20
-5.49983893500434
 30
0.0
 10
2.952051798502603
 20
-5.494273715549044
 30
0.0
 10
2.972583346896701
 20
-5.493850708007812
 30
0.0
 10
2.977423773871527
 20
-5.493750678168402
 30
0.0
 10
2.982249789767795
 20
-5.492987738715277
 30
0.0
 10
2.990392896864149
 20
-5.492216322157117
 30
0.0
 10
2.949572245279947
 20
-5.444265577528211
 30
0.0
 10
2.937291463216145
 20
-5.393124050564235
 30
0.0
 10
2.969468858506944
 20
-5.339931064181857
 30
0.0
 10
3.002408345540364
 20
-5.285476684570312
 30
0.0
 10
3.052547030978732
 20
-5.273837619357638
 30
0.0
 10
3.111889309353298
 20
-5.295867919921875
 30
0.0
 10
3.112405565049912
 20
-5.295003255208333
 30
0.0
 10
3.112921820746527
 20
-5.294138590494791
 30
0.0
 10
3.113438076443141
 20
-5.293274773491753
 30
0.0
 10
3.111174689398871
 20
-5.288271586100259
 30
0.0
 10
3.10913594563802
 20
-5.283151414659287
 30
0.0
 10
3.106612311469183
 20
-5.278283013237847
 30
0.0
 10
3.077911376953125
 20
-5.222921583387586
 30
0.0
 10
3.092117309570312
 20
-5.1570315890842
 30
0.0
 10
3.140979342990451
 20
-5.123983595106336
 30
0.0
 10
3.178313361273871
 20
-5.098733690049912
 30
0.0
 10
3.21732669406467
 20
-5.098865932888454
 30
0.0
 10
3.256682501898871
 20
-5.119908650716145
 30
0.0
 10
3.260477701822916
 20
-5.121938069661458
 30
0.0
 10
3.264188978407117
 20
-5.124131944444443
 30
0.0
 10
3.268041822645399
 20
-5.126041836208766
 30
0.0
 10
3.268957349989149
 20
-5.126495361328125
 30
0.0
 10
3.270287407769096
 20
-5.126108805338541
 30
0.0
 10
3.273433261447482
 20
-5.126108805338541
 30
0.0
 10
3.272800869411891
 20
-5.120168897840711
 30
0.0
 10
3.272508409288194
 20
-5.114579942491318
 30
0.0
 10
3.271576775444878
 20
-5.109100341796875
 30
0.0
 10
3.261127048068576
 20
-5.047643025716145
 30
0.0
 10
3.298778110080295
 20
-4.988877190483941
 30
0.0
 10
3.358055114746093
 20
-4.975801255967881
 30
0.0
 10
3.396848042805989
 20
-4.967243618435329
 30
0.0
 10
3.430091010199652
 20
-4.979265001085068
 30
0.0
 10
3.457865397135416
 20
-5.00692155626085
 30
0.0
 10
3.462445576985676
 20
-5.011482238769531
 30
0.0
 10
3.46545664469401
 20
-5.017618815104166
 30
0.0
 10
3.469192504882812
 20
-5.023027208116318
 30
0.0
 10
3.470898098415798
 20
-5.021893819173176
 30
0.0
 10
3.472604539659287
 20
-5.020760430230034
 30
0.0
 10
3.474310133192274
 20
-5.019627888997395
 30
0.0
 10
3.474806043836805
 20
-5.015207078721787
 30
0.0
 10
3.475574069552951
 20
-5.010797288682725
 30
0.0
 10
3.475755479600694
 20
-5.006363762749566
 30
0.0
 10
3.477962917751735
 20
-4.952429877387152
 30
0.0
 10
3.510983784993489
 20
-4.908950805664062
 30
0.0
 10
3.560176425509982
 20
-4.895339118109808
 30
0.0
 10
3.604326036241319
 20
-4.883123609754774
 30
0.0
 10
3.652864244249131
 20
-4.903160942925347
 30
0.0
 10
3.679016960991753
 20
-4.944305419921875
 30
0.0
 10
3.681629604763454
 20
-4.948416815863715
 30
0.0
 10
3.6847169664171
 20
-4.952227274576822
 30
0.0
 10
3.689100477430555
 20
-4.958265516493055
 30
0.0
 10
3.692101372612846
 20
-4.951490614149305
 30
0.0
 10
3.694474962022569
 20
-4.947157118055555
 30
0.0
 10
3.695994059244791
 20
-4.942542182074652
 30
0.0
 10
3.711798773871527
 20
-4.894543965657551
 30
0.0
 10
3.7533204820421
 20
-4.86324734157986
 30
0.0
 10
3.801461113823784
 20
-4.863221062554253
 30
0.0
 10
3.848480224609375
 20
-4.863194783528645
 30
0.0
 10
3.890504625108506
 20
-4.895001729329426
 30
0.0
 10
3.906010097927516
 20
-4.942203097873263
 30
0.0
 10
3.907541063096788
 20
-4.946862114800347
 30
0.0
 10
3.909808688693576
 20
-4.951279534233941
 30
0.0
 10
3.91270022922092
 20
-4.958080715603298
 30
0.0
 10
3.916486104329426
 20
-4.953383551703558
 30
0.0
 10
3.919037712944878
 20
-4.95070563422309
 30
0.0
 10
3.921038309733072
 20
-4.947664896647134
 30
0.0
 10
3.950386047363281
 20
-4.903043958875867
 30
0.0
 10
3.995618184407551
 20
-4.882966783311631
 30
0.0
 10
4.040387471516926
 20
-4.894782172309027
 30
0.0
 10
4.089313083224825
 20
-4.907694498697916
 30
0.0
 10
4.123020595974391
 20
-4.950570000542534
 30
0.0
 10
4.126030815972222
 20
-5.003622266981336
 30
0.0
 10
4.126332600911458
 20
-5.008927239312066
 30
0.0
 10
4.127015007866753
 20
-5.014211018880208
 30
0.0
 10
4.127791510687933
 20
-5.022349887424044
 30
0.0
 10
4.13257344563802
 20
-5.01817660861545
 30
0.0
 10
4.135548909505208
 20
-5.015985276963975
 30
0.0
 10
4.13804456922743
 20
-5.013341267903645
 30
0.0
 10
4.175633748372395
 20
-4.973514133029513
 30
0.0
 10
4.221810234917534
 20
-4.9626710679796
 30
0.0
 10
4.266851637098524
 20
-4.983183966742621
 30
0.0
 10
4.310731675889757
 20
-5.003167046440972
 30
0.0
 10
4.336786905924478
 20
-5.05209011501736
 30
0.0
 10
4.331046210394965
 20
-5.103782653808593
 30
0.0
 10
4.330248514811197
 20
-5.110960218641492
 30
0.0
 10
4.329294840494791
 20
-5.118120829264322
 30
0.0
 10
4.328104654947916
 20
-5.1278076171875
 30
0.0
 10
4.333628336588541
 20
-5.125667148166232
 30
0.0
 10
4.337048000759548
 20
-5.125016954210068
 30
0.0
 10
4.339686075846353
 20
-5.123219807942708
 30
0.0
 10
4.379910786946614
 20
-5.095818413628472
 30
0.0
 10
4.436508178710937
 20
-5.09963650173611
 30
0.0
 10
4.471680535210503
 20
-5.132069905598958
 30
0.0
 10
4.509523179796006
 20
-5.166965060763888
 30
0.0
 10
4.520816379123263
 20
-5.220922682020399
 30
0.0
 10
4.499682108561197
 20
-5.269146389431423
 30
0.0
 10
4.496164109971787
 20
-5.277172512478298
 30
0.0
 10
4.492317199707031
 20
-5.285055372450086
 30
0.0
 10
4.486781650119357
 20
-5.296965705023871
 30
0.0
 10
4.548901028103298
 20
-5.273907979329426
 30
0.0
 10
4.599185519748263
 20
-5.28513929578993
 30
0.0
 10
4.632295396592881
 20
-5.339413960774739
 30
0.0
 10
4.66476101345486
 20
-5.392633226182725
 30
0.0
 10
4.652813381618923
 20
-5.443784925672742
 30
0.0
 10
4.611014472113715
 20
-5.492687649197048
 30
0.0
 10
4.672922770182291
 20
-5.492901272243923
 30
0.0
 10
4.716156853569878
 20
-5.517723931206597
 30
0.0
 10
4.733660380045572
 20
-5.575251261393228
 30
0.0
 10
4.750883314344617
 20
-5.631855434841579
 30
0.0
 10
4.72955322265625
 20
-5.677097744411891
 30
0.0
 10
4.68184577094184
 20
-5.71426052517361
 30
0.0
 10
4.741268581814235
 20
-5.733373006184895
 30
0.0
 10
4.774506462944878
 20
-5.771761576334634
 30
0.0
 10
4.774430168999566
 20
-5.831580268012152
 30
0.0
 10
4.774353875054253
 20
-5.891320122612847
 30
0.0
 10
4.740994771321614
 20
-5.929673936631943
 30
0.0
 10
4.682186550564235
 20
-5.948557535807291
 30
0.0
 10
4.688346015082465
 20
-5.954118516710068
 30
0.0
 10
4.691918267144097
 20
-5.957460191514756
 30
0.0
 10
4.695613437228732
 20
-5.960661994086371
 30
0.0
 10
4.733238220214843
 20
-5.993267483181423
 30
0.0
 10
4.747064378526475
 20
-6.034220377604166
 30
0.0
 10
4.735119289822048
 20
-6.082284715440537
 30
0.0
 10
4.723564995659722
 20
-6.128774854871961
 30
0.0
 10
4.693127950032551
 20
-6.157380845811631
 30
0.0
 10
4.645922342936197
 20
-6.167223612467447
 30
0.0
 10
4.639088100857204
 20
-6.168648613823784
 30
0.0
 10
4.631868998209634
 20
-6.168126424153645
 30
0.0
 10
4.624880472819009
 20
-6.168952941894531
 30
0.0
 10
4.621626959906683
 20
-6.169336954752603
 30
0.0
 10
4.618498908148871
 20
-6.170792473687066
 30
0.0
 10
4.615314059787325
 20
-6.171762254503037
 30
0.0
 10
4.616600884331597
 20
-6.174814012315537
 30
0.0
 10
4.617224799262152
 20
-6.178434583875867
 30
0.0
 10
4.619278801812066
 20
-6.180827670627169
 30
0.0
 10
4.63555908203125
 20
-6.199802822536891
 30
0.0
 10
4.64539082845052
 20
-6.221499972873263
 30
0.0
 10
4.649105495876735
 20
-6.24627685546875
 30
0.0
 10
4.659274631076388
 20
-6.314105563693575
 30
0.0
 10
4.6042972140842
 20
-6.379936218261718
 30
0.0
 10
4.537885030110676
 20
-6.37830098470052
 30
0.0
 10
4.526718139648437
 20
-6.378026326497395
 30
0.0
 10
4.515620761447482
 20
-6.374337938096787
 30
0.0
 10
4.504527621799044
 20
-6.37205335828993
 30
0.0
  0
SPLINE
  5
91
330
70
100
AcDbEntity
  8
Lid
100
AcDbSpline
210
0.0
220
0.0
230
1.0
 70
     9
 71
     3
 72
    68
 73
    64
 74
     0
 42
0.0000000001
 43
0.0000000001
 40
0.0
 40
0.0
 40
0.0
 40
0.0
 40
1.0
 40
1.0
 40
1.0
 40
2.0
 40
2.0
 40
2.0
 40
3.0
 40
3.0
 40
3.0
 40
4.0
 40
4.0
 40
4.0
 40
5.0
 40
5.0
 40
5.0
 40
6.0
 40
6.0
 40
6.0
 40
7.0
 40
7.0
 40
7.0
 40
8.0
 40
8.0
 40
8.0
 40
9.0
 40
9.0
 40
9.0
 40
10.0
 40
10.0
 40
10.0
 40
11.0
 40
11.0
 40
11.0
 40
12.0
 40
12.0
 40
12.0
 40
13.0
 40
13.0
 40
13.0
 40
14.0
 40
14.0
 40
14.0
 40
15.0
 40
15.0
 40
15.0
 40
16.0
 40
16.0
 40
16.0
 40
17.0
 40
17.0
 40
17.0
 40
18.0
 40
18.0
 40
18.0
 40
19.0
 40
19.0
 40
19.0
 40
20.0
 40
20.0
 40
20.0
 40
21.0
 40
21.0
 40
21.0
 40
21.0
 10
2.985366821289062
 20
-6.572603013780381
 30
0.0
 10
2.944301181369357
 20
-6.60917494032118
 30
0.0
 10
2.946549309624565
 20
-6.697479248046875
 30
0.0
 10
3.018283420138888
 20
-6.730929056803384
 30
0.0
 10
3.032463921440971
 20
-6.737541198730468
 30
0.0
 10
3.046991136338975
 20
-6.738171047634548
 30
0.0
 10
3.061704847547742
 20
-6.732487148708766
 30
0.0
 10
3.064508226182725
 20
-6.731404622395833
 30
0.0
 10
3.067451477050781
 20
-6.730684916178384
 30
0.0
 10
3.072185940212673
 20
-6.729225158691406
 30
0.0
 10
3.072140163845486
 20
-6.746587965223524
 30
0.0
 10
3.06791517469618
 20
-6.761209275987412
 30
0.0
 10
3.059599134657117
 20
-6.774670918782551
 30
0.0
 10
3.0377443101671
 20
-6.810049268934461
 30
0.0
 10
2.99424574110243
 20
-6.829021877712673
 30
0.0
 10
2.951905144585503
 20
-6.822113037109375
 30
0.0
 10
2.849600050184461
 20
-6.805419074164496
 30
0.0
 10
2.805313958062065
 20
-6.725687662760416
 30
0.0
 10
2.806561787923176
 20
-6.6363525390625
 30
0.0
 10
2.806709289550781
 20
-6.625784979926215
 30
0.0
 10
2.804615444607204
 20
-6.621500651041666
 30
0.0
 10
2.793713887532551
 20
-6.619009229871961
 30
0.0
 10
2.728247748480902
 20
-6.60404798719618
 30
0.0
 10
2.66353776719835
 20
-6.544918484157985
 30
0.0
 10
2.660683525933159
 20
-6.465917799207899
 30
0.0
 10
2.659501817491319
 20
-6.43318854437934
 30
0.0
 10
2.660296969943576
 20
-6.401460435655381
 30
0.0
 10
2.677647060818142
 20
-6.372606065538193
 30
0.0
 10
2.696168687608506
 20
-6.34180196126302
 30
0.0
 10
2.722139146592881
 20
-6.322369893391926
 30
0.0
 10
2.759629991319444
 20
-6.322239345974391
 30
0.0
 10
2.764954460991753
 20
-6.322220696343315
 30
0.0
 10
2.770284016927083
 20
-6.323437160915798
 30
0.0
 10
2.776461283365885
 20
-6.32418484157986
 30
0.0
 10
2.775778028700086
 20
-6.327184889051649
 30
0.0
 10
2.775758531358506
 20
-6.329149034288193
 30
0.0
 10
2.774922688802083
 20
-6.330661349826388
 30
0.0
 10
2.754977756076388
 20
-6.366750929090711
 30
0.0
 10
2.759684244791666
 20
-6.405631171332465
 30
0.0
 10
2.787834167480468
 20
-6.436561584472656
 30
0.0
 10
2.817255655924478
 20
-6.468888176812065
 30
0.0
 10
2.861692640516492
 20
-6.4769532945421
 30
0.0
 10
2.898599412706163
 20
-6.454149034288193
 30
0.0
 10
2.928163316514756
 20
-6.435881720648871
 30
0.0
 10
2.956531948513454
 20
-6.415645175509982
 30
0.0
 10
2.984912448459201
 20
-6.395521375868055
 30
0.0
 10
2.993417527940538
 20
-6.401530795627169
 30
0.0
 10
3.002926296657986
 20
-6.405977037217881
 30
0.0
 10
3.013695610894096
 20
-6.409048292371961
 30
0.0
 10
3.026898701985676
 20
-6.412812974717881
 30
0.0
 10
3.040272182888454
 20
-6.416368272569443
 30
0.0
 10
3.053827073838975
 20
-6.417484707302516
 30
0.0
 10
3.052567376030815
 20
-6.421589321560329
 30
0.0
 10
3.051192389594183
 20
-6.425670199924044
 30
0.0
 10
3.050264994303385
 20
-6.429580688476562
 30
0.0
 10
3.047659132215711
 20
-6.440561082628037
 30
0.0
 10
3.046634250217013
 20
-6.451446533203125
 30
0.0
 10
3.047908359103732
 20
-6.462665981716579
 30
0.0
 10
3.049519856770833
 20
-6.476864284939235
 30
0.0
 10
3.052988688151041
 20
-6.491149054633246
 30
0.0
 10
3.059605068630642
 20
-6.50381130642361
 30
0.0
 10
3.03487565782335
 20
-6.526763068305121
 30
0.0
 10
3.010555691189236
 20
-6.550170050726996
 30
0.0
 10
2.985366821289062
 20
-6.572603013780381
 30
0.0
  0
SPLINE
  5
92
330
70
100
AcDbEntity
  8
Lid
100
AcDbSpline
210
0.0
220
0.0
230
1.0
 70
     9
 71
     3
 72
    59
 73
    55
 74
     0
 42
0.0000000001
 43
0.0000000001
 40
0.0
 40
0.0
 40
0.0
 40
0.0
 40
1.0
 40
1.0
 40
1.0
 40
2.0
 40
2.0
 40
2.0
 40
3.0
 40
3.0
 40
3.0
 40
4.0
 40
4.0
 40
4.0
 40
5.0
 40
5.0
 40
5.0
 40
6.0
 40
6.0
 40
6.0
 40
7.0
 40
7.0
 40
7.0
 40
8.0
 40
8.0
 40
8.0
 40
9.0
 40
9.0
 40
9.0
 40
10.0
 40
10.0
 40
10.0
 40
11.0
 40
11.0
 40
11.0
 40
12.0
 40
12.0
 40
12.0
 40
13.0
 40
13.0
 40
13.0
 40
14.0
 40
14.0
 40
14.0
 40
15.0
 40
15.0
 40
15.0
 40
16.0
 40
16.0
 40
16.0
 40
17.0
 40
17.0
 40
17.0
 40
18.0
 40
18.0
 40
18.0
 40
18.0
 10
3.047502305772569
 20
-5.158634609646266
 30
0.0
 10
3.018716600206162
 20
-5.130875481499566
 30
0.0
 10
2.989907158745659
 20
-5.10313245985243
 30
0.0
 10
2.960892571343315
 20
-5.075611538357204
 30
0.0
 10
2.933013916015625
 20
-5.049168056911891
 30
0.0
 10
2.900531344943576
 20
-5.046917385525173
 30
0.0
 10
2.866967095269096
 20
-5.061249627007378
 30
0.0
 10
2.833591037326388
 20
-5.075502183702256
 30
0.0
 10
2.815555996365017
 20
-5.10333760579427
 30
0.0
 10
2.810982598198784
 20
-5.13843282063802
 30
0.0
 10
2.809263441297742
 20
-5.151624043782551
 30
0.0
 10
2.814659966362846
 20
-5.165742662217881
 30
0.0
 10
2.817127651638454
 20
-5.181442260742187
 30
0.0
 10
2.804133945041232
 20
-5.183046129014756
 30
0.0
 10
2.790282355414496
 20
-5.180576748318141
 30
0.0
 10
2.777517530653211
 20
-5.173685709635416
 30
0.0
 10
2.742557101779513
 20
-5.154813130696614
 30
0.0
 10
2.723525153266058
 20
-5.124203999837239
 30
0.0
 10
2.720848931206596
 20
-5.085584004720051
 30
0.0
 10
2.713348388671875
 20
-4.977334764268662
 30
0.0
 10
2.77897728814019
 20
-4.903756035698784
 30
0.0
 10
2.880510118272569
 20
-4.893630981445312
 30
0.0
 10
2.890780978732638
 20
-4.892606947157117
 30
0.0
 10
2.894205729166666
 20
-4.889756096733941
 30
0.0
 10
2.895517985026041
 20
-4.879340277777777
 30
0.0
 10
2.902614169650607
 20
-4.823043823242187
 30
0.0
 10
2.925745646158853
 20
-4.774082607693141
 30
0.0
 10
2.974984063042534
 20
-4.744143168131509
 30
0.0
 10
3.020360310872395
 20
-4.716552734375
 30
0.0
 10
3.070909288194444
 20
-4.708184983995225
 30
0.0
 10
3.120786031087239
 20
-4.734163920084634
 30
0.0
 10
3.154388427734375
 20
-4.751665751139322
 30
0.0
 10
3.172665913899739
 20
-4.781009250217013
 30
0.0
 10
3.173590766059027
 20
-4.819819132486978
 30
0.0
 10
3.173661973741319
 20
-4.82283952501085
 30
0.0
 10
3.173019409179687
 20
-4.825877719455294
 30
0.0
 10
3.172606574164496
 20
-4.829899258083766
 30
0.0
 10
3.169926113552516
 20
-4.829617818196614
 30
0.0
 10
3.168674045138888
 20
-4.829771253797742
 30
0.0
 10
3.167673746744791
 20
-4.829340616861978
 30
0.0
 10
3.125406053331162
 20
-4.811129252115884
 30
0.0
 10
3.080661349826388
 20
-4.825507269965277
 30
0.0
 10
3.058947245279947
 20
-4.866459316677516
 30
0.0
 10
3.040525648328992
 20
-4.901199340820312
 30
0.0
 10
3.03711446126302
 20
-4.937190585666232
 30
0.0
 10
3.062425401475694
 20
-4.970648023817274
 30
0.0
 10
3.086652119954426
 20
-5.002671135796441
 30
0.0
 10
3.111631605360242
 20
-5.034128824869791
 30
0.0
 10
3.136670430501301
 20
-5.065532260470919
 30
0.0
 10
3.115971035427516
 20
-5.071482340494791
 30
0.0
 10
3.099438985188801
 20
-5.085219489203558
 30
0.0
 10
3.085628085666232
 20
-5.101593017578125
 30
0.0
 10
3.070896572536892
 20
-5.119057549370659
 30
0.0
 10
3.056755913628471
 20
-5.137630038791232
 30
0.0
 10
3.047502305772569
 20
-5.158634609646266
 30
0.0
  0
SPLINE
  5
93
330
70
100
AcDbEntity
  8
Lid
100
AcDbSpline
210
0.0
220
0.0
230
1.0
 70
     9
 71
     3
 72
    68
 73
    64
 74
     0
 42
0.0000000001
 43
0.0000000001
 40
0.0
 40
0.0
 40
0.0
 40
0.0
 40
1.0
 40
1.0
 40
1.0
 40
2.0
 40
2.0
 40
2.0
 40
3.0
 40
3.0
 40
3.0
 40
4.0
 40
4.0
 40
4.0
 40
5.0
 40
5.0
 40
5.0
 40
6.0
 40
6.0
 40
6.0
 40
7.0
 40
7.0
 40
7.0
 40
8.0
 40
8.0
 40
8.0
 40
9.0
 40
9.0
 40
9.0
 40
10.0
 40
10.0
 40
10.0
 40
11.0
 40
11.0
 40
11.0
 40
12.0
 40
12.0
 40
12.0
 40
13.0
 40
13.0
 40
13.0
 40
14.0
 40
14.0
 40
14.0
 40
15.0
 40
15.0
 40
15.0
 40
16.0
 40
16.0
 40
16.0
 40
17.0
 40
17.0
 40
17.0
 40
18.0
 40
18.0
 40
18.0
 40
19.0
 40
19.0
 40
19.0
 40
20.0
 40
20.0
 40
20.0
 40
21.0
 40
21.0
 40
21.0
 40
21.0
 10
4.544258117675781
 20
-4.965361701117621
 30
0.0
 10
4.583813985188801
 20
-4.911454094780816
 30
0.0
 10
4.551894293891058
 20
-4.831508212619357
 30
0.0
 10
4.486571417914496
 20
-4.816109551323784
 30
0.0
 10
4.472646925184461
 20
-4.81282721625434
 30
0.0
 10
4.459326850043402
 20
-4.814168294270833
 30
0.0
 10
4.446633232964409
 20
-4.820982191297742
 30
0.0
 10
4.443667941623263
 20
-4.822574191623263
 30
0.0
 10
4.440565321180555
 20
-4.823911031087239
 30
0.0
 10
4.435443454318575
 20
-4.826361762152777
 30
0.0
 10
4.435443454318575
 20
-4.816382514105902
 30
0.0
 10
4.434358384874132
 20
-4.808277553982204
 30
0.0
 10
4.435619778103298
 20
-4.800557454427083
 30
0.0
 10
4.44364759657118
 20
-4.751443650987412
 30
0.0
 10
4.490473429361978
 20
-4.714829338921441
 30
0.0
 10
4.543827480740016
 20
-4.716385735405816
 30
0.0
 10
4.63009304470486
 20
-4.718902587890625
 30
0.0
 10
4.680994669596353
 20
-4.763834635416666
 30
0.0
 10
4.705697801378037
 20
-4.846354166666666
 30
0.0
 10
4.708936055501301
 20
-4.857170104980468
 30
0.0
 10
4.710926479763454
 20
-4.868599785698784
 30
0.0
 10
4.711624145507812
 20
-4.879860772026909
 30
0.0
 10
4.712222629123263
 20
-4.889537387424044
 30
0.0
 10
4.715929667154947
 20
-4.891946580674912
 30
0.0
 10
4.725162082248263
 20
-4.892889234754774
 30
0.0
 10
4.784640842013888
 20
-4.898963928222656
 30
0.0
 10
4.833934360080294
 20
-4.925018310546875
 30
0.0
 10
4.862005445692274
 20
-4.978383382161458
 30
0.0
 10
4.887993706597222
 20
-5.027789645724825
 30
0.0
 10
4.896724277072482
 20
-5.081592983669704
 30
0.0
 10
4.86794704861111
 20
-5.133979797363281
 30
0.0
 10
4.853031582302516
 20
-5.1611328125
 30
0.0
 10
4.829766167534722
 20
-5.179617987738715
 30
0.0
 10
4.796908060709634
 20
-5.181983947753906
 30
0.0
 10
4.79285176595052
 20
-5.182276407877603
 30
0.0
 10
4.788756476508246
 20
-5.182023790147568
 30
0.0
 10
4.783578660753037
 20
-5.182023790147568
 30
0.0
 10
4.784379747178818
 20
-5.178172641330294
 30
0.0
 10
4.784263610839843
 20
-5.176036410861544
 30
0.0
 10
4.785206264919704
 20
-5.174591912163628
 30
0.0
 10
4.810699462890625
 20
-5.135541280110676
 30
0.0
 10
4.772003173828125
 20
-5.070114135742187
 30
0.0
 10
4.730712042914496
 20
-5.057525634765625
 30
0.0
 10
4.699284023708766
 20
-5.047943962944878
 30
0.0
 10
4.67003207736545
 20
-5.049258761935763
 30
0.0
 10
4.644855923122829
 20
-5.072520785861544
 30
0.0
 10
4.609909057617187
 20
-5.104811774359808
 30
0.0
 10
4.575397067599825
 20
-5.137574089898003
 30
0.0
 10
4.540728251139322
 20
-5.170166863335503
 30
0.0
 10
4.539004007975259
 20
-5.165467156304253
 30
0.0
 10
4.536981370713975
 20
-5.160847134060329
 30
0.0
 10
4.534598456488715
 20
-5.156322055392794
 30
0.0
 10
4.527572631835937
 20
-5.142980787489149
 30
0.0
 10
4.519091288248697
 20
-5.129853990342881
 30
0.0
 10
4.509233262803818
 20
-5.118426005045572
 30
0.0
 10
4.499198913574218
 20
-5.106793721516926
 30
0.0
 10
4.486129760742187
 20
-5.098276774088541
 30
0.0
 10
4.472477383083766
 20
-5.091451856825086
 30
0.0
 10
4.465543111165364
 20
-5.087985568576388
 30
0.0
 10
4.458009507921006
 20
-5.084474351671006
 30
0.0
 10
4.45023939344618
 20
-5.082000732421875
 30
0.0
 10
4.481882731119791
 20
-5.043351915147568
 30
0.0
 10
4.514744228786891
 20
-5.005583021375867
 30
0.0
 10
4.544258117675781
 20
-4.965361701117621
 30
0.0
  0
SPLINE
  5
94
330
70
100
AcDbEntity
  8
Lid
100
AcDbSpline
210
0.0
220
0.0
230
1.0
 70
     9
 71
     3
 72
   470
 73
   466
 74
     0
 42
0.0000000001
 43
0.0000000001
 40
0.0
 40
0.0
 40
0.0
 40
0.0
 40
1.0
 40
1.0
 40
1.0
 40
2.0
 40
2.0
 40
2.0
 40
3.0
 40
3.0
 40
3.0
 40
4.0
 40
4.0
 40
4.0
 40
5.0
 40
5.0
 40
5.0
 40
6.0
 40
6.0
 40
6.0
 40
7.0
 40
7.0
 40
7.0
 40
8.0
 40
8.0
 40
8.0
 40
9.0
 40
9.0
 40
9.0
 40
10.0
 40
10.0
 40
10.0
 40
11.0
 40
11.0
 40
11.0
 40
12.0
 40
12.0
 40
12.0
 40
13.0
 40
13.0
 40
13.0
 40
14.0
 40
14.0
 40
14.0
 40
15.0
 40
15.0
 40
15.0
 40
16.0
 40
16.0
 40
16.0
 40
17.0
 40
17.0
 40
17.0
 40
18.0
 40
18.0
 40
18.0
 40
19.0
 40
19.0
 40
19.0
 40
20.0
 40
20.0
 40
20.0
 40
21.0
 40
21.0
 40
21.0
 40
22.0
 40
22.0
 40
22.0
 40
23.0
 40
23.0
 40
23.0
 40
24.0
 40
24.0
 40
24.0
 40
25.0
 40
25.0
 40
25.0
 40
26.0
 40
26.0
 40
26.0
 40
27.0
 40
27.0
 40
27.0
 40
28.0
 40
28.0
 40
28.0
 40
29.0
 40
29.0
 40
29.0
 40
30.0
 40
30.0
 40
30.0
 40
31.0
 40
31.0
 40
31.0
 40
32.0
 40
32.0
 40
32.0
 40
33.0
 40
33.0
 40
33.0
 40
34.0
 40
34.0
 40
34.0
 40
35.0
 40
35.0
 40
35.0
 40
36.0
 40
36.0
 40
36.0
 40
37.0
 40
37.0
 40
37.0
 40
38.0
 40
38.0
 40
38.0
 40
39.0
 40
39.0
 40
39.0
 40
40.0
 40
40.0
 40
40.0
 40
41.0
 40
41.0
 40
41.0
 40
42.0
 40
42.0
 40
42.0
 40
43.0
 40
43.0
 40
43.0
 40
44.0
 40
44.0
 40
44.0
 40
45.0
 40
45.0
 40
45.0
 40
46.0
 40
46.0
 40
46.0
 40
47.0
 40
47.0
 40
47.0
 40
48.0
 40
48.0
 40
48.0
 40
49.0
 40
49.0
 40
49.0
 40
50.0
 40
50.0
 40
50.0
 40
51.0
 40
51.0
 40
51.0
 40
52.0
 40
52.0
 40
52.0
 40
53.0
 40
53.0
 40
53.0
 40
54.0
 40
54.0
 40
54.0
 40
55.0
 40
55.0
 40
55.0
 40
56.0
 40
56.0
 40
56.0
 40
57.0
 40
57.0
 40
57.0
 40
58.0
 40
58.0
 40
58.0
 40
59.0
 40
59.0
 40
59.0
 40
60.0
 40
60.0
 40
60.0
 40
61.0
 40
61.0
 40
61.0
 40
62.0
 40
62.0
 40
62.0
 40
63.0
 40
63.0
 40
63.0
 40
64.0
 40
64.0
 40
64.0
 40
65.0
 40
65.0
 40
65.0
 40
66.0
 40
66.0
 40
66.0
 40
67.0
 40
67.0
 40
67.0
 40
68.0
 40
68.0
 40
68.0
 40
69.0
 40
69.0
 40
69.0
 40
70.0
 40
70.0
 40
70.0
 40
71.0
 40
71.0
 40
71.0
 40
72.0
 40
72.0
 40
72.0
 40
73.0
 40
73.0
 40
73.0
 40
74.0
 40
74.0
 40
74.0
 40
75.0
 40
75.0
 40
75.0
 40
76.0
 40
76.0
 40
76.0
 40
77.0
 40
77.0
 40
77.0
 40
78.0
 40
78.0
 40
78.0
 40
79.0
 40
79.0
 40
79.0
 40
80.0
 40
80.0
 40
80.0
 40
81.0
 40
81.0
 40
81.0
 40
82.0
 40
82.0
 40
82.0
 40
83.0
 40
83.0
 40
83.0
 40
84.0
 40
84.0
 40
84.0
 40
85.0
 40
85.0
 40
85.0
 40
86.0
 40
86.0
 40
86.0
 40
87.0
 40
87.0
 40
87.0
 40
88.0
 40
88.0
 40
88.0
 40
89.0
 40
89.0
 40
89.0
 40
90.0
 40
90.0
 40
90.0
 40
91.0
 40
91.0
 40
91.0
 40
92.0
 40
92.0
 40
92.0
 40
93.0
 40
93.0
 40
93.0
 40
94.0
 40
94.0
 40
94.0
 40
95.0
 40
95.0
 40
95.0
 40
96.0
 40
96.0
 40
96.0
 40
97.0
 40
97.0
 40
97.0
 40
98.0
 40
98.0
 40
98.0
 40
99.0
 40
99.0
 40
99.0
 40
100.0
 40
100.0
 40
100.0
 40
101.0
 40
101.0
 40
101.0
 40
102.0
 40
102.0
 40
102.0
 40
103.0
 40
103.0
 40
103.0
 40
104.0
 40
104.0
 40
104.0
 40
105.0
 40
105.0
 40
105.0
 40
106.0
 40
106.0
 40
106.0
 40
107.0
 40
107.0
 40
107.0
 40
108.0
 40
108.0
 40
108.0
 40
109.0
 40
109.0
 40
109.0
 40
110.0
 40
110.0
 40
110.0
 40
111.0
 40
111.0
 40
111.0
 40
112.0
 40
112.0
 40
112.0
 40
113.0
 40
113.0
 40
113.0
 40
114.0
 40
114.0
 40
114.0
 40
115.0
 40
115.0
 40
115.0
 40
116.0
 40
116.0
 40
116.0
 40
117.0
 40
117.0
 40
117.0
 40
118.0
 40
118.0
 40
118.0
 40
119.0
 40
119.0
 40
119.0
 40
120.0
 40
120.0
 40
120.0
 40
121.0
 40
121.0
 40
121.0
 40
122.0
 40
122.0
 40
122.0
 40
123.0
 40
123.0
 40
123.0
 40
124.0
 40
124.0
 40
124.0
 40
125.0
 40
125.0
 40
125.0
 40
126.0
 40
126.0
 40
126.0
 40
127.0
 40
127.0
 40
127.0
 40
128.0
 40
128.0
 40
128.0
 40
129.0
 40
129.0
 40
129.0
 40
130.0
 40
130.0
 40
130.0
 40
131.0
 40
131.0
 40
131.0
 40
132.0
 40
132.0
 40
132.0
 40
133.0
 40
133.0
 40
133.0
 40
134.0
 40
134.0
 40
134.0
 40
135.0
 40
135.0
 40
135.0
 40
136.0
 40
136.0
 40
136.0
 40
137.0
 40
137.0
 40
137.0
 40
138.0
 40
138.0
 40
138.0
 40
139.0
 40
139.0
 40
139.0
 40
140.0
 40
140.0
 40
140.0
 40
141.0
 40
141.0
 40
141.0
 40
142.0
 40
142.0
 40
142.0
 40
143.0
 40
143.0
 40
143.0
 40
144.0
 40
144.0
 40
144.0
 40
145.0
 40
145.0
 40
145.0
 40
146.0
 40
146.0
 40
146.0
 40
147.0
 40
147.0
 40
147.0
 40
148.0
 40
148.0
 40
148.0
 40
149.0
 40
149.0
 40
149.0
 40
150.0
 40
150.0
 40
150.0
 40
151.0
 40
151.0
 40
151.0
 40
152.0
 40
152.0
 40
152.0
 40
153.0
 40
153.0
 40
153.0
 40
154.0
 40
154.0
 40
154.0
 40
155.0
 40
155.0
 40
155.0
 40
155.0
 10
4.968679640028211
 20
-6.423109266493055
 30
0.0
 10
4.968679640028211
 20
-6.423109266493055
 30
0.0
 10
4.968679640028211
 20
-6.423109266493055
 30
0.0
 10
4.968679640028211
 20
-6.423095703125
 30
0.0
 10
4.9610841539171
 20
-6.385810004340277
 30
0.0
 10
4.9403322007921
 20
-6.354844835069443
 30
0.0
 10
4.908688863118489
 20
-6.333550347222221
 30
0.0
 10
4.880558437771266
 20
-6.314615885416666
 30
0.0
 10
4.850040859646266
 20
-6.308648003472221
 30
0.0
 10
4.818058437771266
 20
-6.315877278645833
 30
0.0
 10
4.818058437771266
 20
-6.315877278645833
 30
0.0
 10
4.773245069715711
 20
-6.32595486111111
 30
0.0
 10
4.773245069715711
 20
-6.32595486111111
 30
0.0
 10
4.773245069715711
 20
-6.32595486111111
 30
0.0
 10
4.795177035861544
 20
-6.366319444444443
 30
0.0
 10
4.795177035861544
 20
-6.366319444444443
 30
0.0
 10
4.796370612250433
 20
-6.368516710069443
 30
0.0
 10
4.797550625271266
 20
-6.370469835069443
 30
0.0
 10
4.798662821451822
 20
-6.372273763020833
 30
0.0
 10
4.798662821451822
 20
-6.372273763020833
 30
0.0
 10
4.798757765028211
 20
-6.372422960069443
 30
0.0
 10
4.798757765028211
 20
-6.372422960069443
 30
0.0
 10
4.799598693847656
 20
-6.375596788194443
 30
0.0
 10
4.8005616929796
 20
-6.378797743055555
 30
0.0
 10
4.8015382554796
 20
-6.382012261284721
 30
0.0
 10
4.802935282389322
 20
-6.386569552951388
 30
0.0
 10
4.805024041069878
 20
-6.39345974392361
 30
0.0
 10
4.804942660861544
 20
-6.395711263020833
 30
0.0
 10
4.802284240722656
 20
-6.420613606770833
 30
0.0
 10
4.788178337944878
 20
-6.440755208333333
 30
0.0
 10
4.767195807562933
 20
-6.449625651041666
 30
0.0
 10
4.749332851833766
 20
-6.4571533203125
 30
0.0
 10
4.730194939507378
 20
-6.454508463541666
 30
0.0
 10
4.714664883083766
 20
-6.442342122395833
 30
0.0
 10
4.690223693847656
 20
-6.423190646701388
 30
0.0
 10
4.6655519273546
 20
-6.404771592881943
 30
0.0
 10
4.642534891764322
 20
-6.387736002604166
 30
0.0
 10
4.642534891764322
 20
-6.387736002604166
 30
0.0
 10
4.639063517252603
 20
-6.385147942437065
 30
0.0
 10
4.639063517252603
 20
-6.385147942437065
 30
0.0
 10
4.64130147298177
 20
-6.382908291286891
 30
0.0
 10
4.643589443630641
 20
-6.380736456976996
 30
0.0
 10
4.645708719889322
 20
-6.378336588541666
 30
0.0
 10
4.675860087076822
 20
-6.344184027777777
 30
0.0
 10
4.689382765028211
 20
-6.299546983506943
 30
0.0
 10
4.682845221625433
 20
-6.25588650173611
 30
0.0
 10
4.680485195583766
 20
-6.240207248263888
 30
0.0
 10
4.676104227701822
 20
-6.225355360243055
 30
0.0
 10
4.669756571451822
 20
-6.21145290798611
 30
0.0
 10
4.720402187771266
 20
-6.19546169704861
 30
0.0
 10
4.755056593153211
 20
-6.15835232204861
 30
0.0
 10
4.7682130601671
 20
-6.105428059895833
 30
0.0
 10
4.780487908257378
 20
-6.056043836805555
 30
0.0
 10
4.771156311035156
 20
-6.01101345486111
 30
0.0
 10
4.741249084472656
 20
-5.973497178819443
 30
0.0
 10
4.784963819715711
 20
-5.944959852430555
 30
0.0
 10
4.808482699924044
 20
-5.901177300347222
 30
0.0
 10
4.808550516764322
 20
-5.846381293402777
 30
0.0
 10
4.808631896972656
 20
-5.791395399305555
 30
0.0
 10
4.784977383083766
 20
-5.747450086805555
 30
0.0
 10
4.740910000271266
 20
-5.718804253472222
 30
0.0
 10
4.780257331000433
 20
-5.668551974826388
 30
0.0
 10
4.777653164333766
 20
-5.617268880208333
 30
0.0
 10
4.766273498535156
 20
-5.579901801215277
 30
0.0
 10
4.754758199055989
 20
-5.54201931423611
 30
0.0
 10
4.728567335340711
 20
-5.498426649305555
 30
0.0
 10
4.669525994194878
 20
-5.480767144097222
 30
0.0
 10
4.6979005601671
 20
-5.421373155381943
 30
0.0
 10
4.6825197007921
 20
-5.370829264322916
 30
0.0
 10
4.661333719889322
 20
-5.336093478732638
 30
0.0
 10
4.632999844021266
 20
-5.28963894314236
 30
0.0
 10
4.591997782389322
 20
-5.265780978732638
 30
0.0
 10
4.542491488986544
 20
-5.265780978732638
 30
0.0
 10
4.542043897840711
 20
-5.265780978732638
 30
0.0
 10
4.541609870062933
 20
-5.265780978732638
 30
0.0
 10
4.541175842285156
 20
-5.265780978732638
 30
0.0
 10
4.543907165527343
 20
-5.252691480848524
 30
0.0
 10
4.544910854763454
 20
-5.239516364203558
 30
0.0
 10
4.544276767306857
 20
-5.226526896158853
 30
0.0
 10
4.544276767306857
 20
-5.226526896158853
 30
0.0
 10
4.591468811035156
 20
-5.18212890625
 30
0.0
 10
4.591468811035156
 20
-5.18212890625
 30
0.0
 10
4.616832309299044
 20
-5.158216688368055
 30
0.0
 10
4.642209370930989
 20
-5.134297688802083
 30
0.0
 10
4.667817009819878
 20
-5.110636393229166
 30
0.0
 10
4.677623324924044
 20
-5.101576063368055
 30
0.0
 10
4.690739101833766
 20
-5.094455295138888
 30
0.0
 10
4.719981723361544
 20
-5.103352864583333
 30
0.0
 10
4.731456332736544
 20
-5.106852213541666
 30
0.0
 10
4.747664557562933
 20
-5.122443305121527
 30
0.0
 10
4.754948086208766
 20
-5.142476399739583
 30
0.0
 10
4.758840772840711
 20
-5.1531982421875
 30
0.0
 10
4.7590577867296
 20
-5.162828233506943
 30
0.0
 10
4.755599127875433
 20
-5.168138292100693
 30
0.0
 10
4.750743442111544
 20
-5.175523546006943
 30
0.0
 10
4.749712626139322
 20
-5.18267822265625
 30
0.0
 10
4.749224344889322
 20
-5.186116536458333
 30
0.0
 10
4.749224344889322
 20
-5.186116536458333
 30
0.0
 10
4.740313212076822
 20
-5.229363335503472
 30
0.0
 10
4.740313212076822
 20
-5.229363335503472
 30
0.0
 10
4.740313212076822
 20
-5.229363335503472
 30
0.0
 10
4.787215338812933
 20
-5.229410807291666
 30
0.0
 10
4.787215338812933
 20
-5.229410807291666
 30
0.0
 10
4.791392856174044
 20
-5.2294921875
 30
0.0
 10
4.795095655653211
 20
-5.229505750868055
 30
0.0
 10
4.798798455132378
 20
-5.229234483506943
 30
0.0
 10
4.840939839680989
 20
-5.2261962890625
 30
0.0
 10
4.876096089680989
 20
-5.20278591579861
 30
0.0
 10
4.897783915201822
 20
-5.163309733072916
 30
0.0
 10
4.929033915201822
 20
-5.106431749131943
 30
0.0
 10
4.927080790201822
 20
-5.041259765625
 30
0.0
 10
4.892141554090711
 20
-4.974833170572916
 30
0.0
 10
4.862763298882378
 20
-4.91900634765625
 30
0.0
 10
4.811873541937933
 20
-4.88406032986111
 30
0.0
 10
4.7437989976671
 20
-4.873033311631943
 30
0.0
 10
4.742524041069878
 20
-4.864881727430555
 30
0.0
 10
4.740706549750433
 20
-4.856845431857638
 30
0.0
 10
4.738360087076822
 20
-4.849005805121527
 30
0.0
 10
4.708493550618489
 20
-4.749240451388888
 30
0.0
 10
4.643172370062933
 20
-4.697184244791666
 30
0.0
 10
4.544227600097656
 20
-4.694288465711805
 30
0.0
 10
4.473955790201822
 20
-4.692274305555555
 30
0.0
 10
4.4116456773546
 20
-4.740919325086805
 30
0.0
 10
4.400754292805989
 20
-4.807569715711805
 30
0.0
 10
4.399343702528211
 20
-4.816175672743055
 30
0.0
 10
4.399642096625433
 20
-4.824022081163193
 30
0.0
 10
4.399913363986544
 20
-4.830946180555555
 30
0.0
 10
4.400008307562933
 20
-4.833475748697916
 30
0.0
 10
4.400116814507378
 20
-4.836140950520833
 30
0.0
 10
4.400116814507378
 20
-4.838975694444443
 30
0.0
 10
4.400116814507378
 20
-4.838975694444443
 30
0.0
 10
4.400116814507378
 20
-4.894036187065972
 30
0.0
 10
4.400116814507378
 20
-4.894036187065972
 30
0.0
 10
4.400116814507378
 20
-4.894036187065972
 30
0.0
 10
4.454139709472656
 20
-4.868272569444443
 30
0.0
 10
4.454139709472656
 20
-4.868272569444443
 30
0.0
 10
4.457462734646266
 20
-4.866719563802083
 30
0.0
 10
4.460026211208766
 20
-4.865498860677083
 30
0.0
 10
4.462454054090711
 20
-4.864189995659722
 30
0.0
 10
4.467296176486544
 20
-4.861592610677083
 30
0.0
 10
4.4719484117296
 20
-4.861104329427083
 30
0.0
 10
4.478011237250433
 20
-4.86251491970486
 30
0.0
 10
4.498179965549044
 20
-4.86727566189236
 30
0.0
 10
4.514727274576822
 20
-4.88232421875
 30
0.0
 10
4.522268507215711
 20
-4.90277099609375
 30
0.0
 10
4.529389275444878
 20
-4.92208523220486
 30
0.0
 10
4.526974995930989
 20
-4.942009819878472
 30
0.0
 10
4.515663146972656
 20
-4.957431369357638
 30
0.0
 10
4.494612799750433
 20
-4.986117892795138
 30
0.0
 10
4.4710939195421
 20
-5.014390733506943
 30
0.0
 10
4.448334587944878
 20
-5.041734483506943
 30
0.0
 10
4.439789666069878
 20
-5.052008734809027
 30
0.0
 10
4.431231180826822
 20
-5.06228298611111
 30
0.0
 10
4.422767639160156
 20
-5.072618272569443
 30
0.0
 10
4.422767639160156
 20
-5.072618272569443
 30
0.0
 10
4.411832173665364
 20
-5.085976494683159
 30
0.0
 10
4.411832173665364
 20
-5.085976494683159
 30
0.0
 10
4.396291097005208
 20
-5.08466084798177
 30
0.0
 10
4.380530463324652
 20
-5.085581461588541
 30
0.0
 10
4.365299648708766
 20
-5.089213053385416
 30
0.0
 10
4.3603761461046
 20
-5.035407172309027
 30
0.0
 10
4.328814188639322
 20
-4.98828125
 30
0.0
 10
4.280637105305989
 20
-4.966349283854166
 30
0.0
 10
4.236800299750433
 20
-4.94637722439236
 30
0.0
 10
4.191647847493489
 20
-4.948886447482638
 30
0.0
 10
4.151608784993489
 20
-4.972405327690972
 30
0.0
 10
4.135454813639322
 20
-4.925021701388888
 30
0.0
 10
4.098074171278211
 20
-4.889017740885416
 30
0.0
 10
4.048649258083766
 20
-4.8759765625
 30
0.0
 10
4.00289323594835
 20
-4.863911946614583
 30
0.0
 10
3.956581115722656
 20
-4.87649197048611
 30
0.0
 10
3.920550028483072
 20
-4.909091525607638
 30
0.0
 10
3.893857320149739
 20
-4.868577745225693
 30
0.0
 10
3.849464416503906
 20
-4.84326171875
 30
0.0
 10
3.800921122233072
 20
-4.84326171875
 30
0.0
 10
3.800893995496961
 20
-4.84326171875
 30
0.0
 10
3.80086686876085
 20
-4.84326171875
 30
0.0
 10
3.800839742024739
 20
-4.84326171875
 30
0.0
 10
3.751279195149739
 20
-4.84328884548611
 30
0.0
 10
3.707293192545572
 20
-4.867994520399305
 30
0.0
 10
3.680580139160156
 20
-4.90863037109375
 30
0.0
 10
3.644867791069878
 20
-4.877061631944443
 30
0.0
 10
3.5957277086046
 20
-4.86410183376736
 30
0.0
 10
3.5503175523546
 20
-4.876634385850693
 30
0.0
 10
3.501970926920572
 20
-4.8900146484375
 30
0.0
 10
3.465526156955295
 20
-4.925408257378472
 30
0.0
 10
3.449412875705295
 20
-4.971815321180555
 30
0.0
 10
3.41927507188585
 20
-4.954074435763888
 30
0.0
 10
3.385515848795572
 20
-4.948825412326388
 30
0.0
 10
3.349973042805989
 20
-4.956651475694443
 30
0.0
 10
3.286076015896266
 20
-4.970750596788193
 30
0.0
 10
3.240971035427516
 20
-5.025363498263888
 30
0.0
 10
3.235145568847656
 20
-5.089192708333333
 30
0.0
 10
3.217796325683593
 20
-5.084648132324218
 30
0.0
 10
3.2005861070421
 20
-5.08364020453559
 30
0.0
 10
3.183688693576388
 20
-5.085756937662759
 30
0.0
 10
3.183688693576388
 20
-5.085756937662759
 30
0.0
 10
3.160357157389322
 20
-5.056498209635416
 30
0.0
 10
3.160357157389322
 20
-5.056498209635416
 30
0.0
 10
3.13521745469835
 20
-5.024970160590277
 30
0.0
 10
3.110667758517795
 20
-4.99404568142361
 30
0.0
 10
3.086653815375433
 20
-4.962314181857638
 30
0.0
 10
3.076800028483072
 20
-4.949286566840277
 30
0.0
 10
3.06783464219835
 20
-4.92989773220486
 30
0.0
 10
3.086158752441406
 20
-4.895338270399305
 30
0.0
 10
3.099057515462239
 20
-4.871012369791666
 30
0.0
 10
3.124312506781683
 20
-4.862582736545138
 30
0.0
 10
3.15035417344835
 20
-4.873786078559027
 30
0.0
 10
3.156688266330295
 20
-4.876546223958333
 30
0.0
 10
3.162127176920572
 20
-4.876851399739583
 30
0.0
 10
3.165477328830295
 20
-4.87704128689236
 30
0.0
 10
3.165477328830295
 20
-4.87704128689236
 30
0.0
 10
3.200118170844183
 20
-4.880730523003472
 30
0.0
 10
3.200118170844183
 20
-4.880730523003472
 30
0.0
 10
3.200118170844183
 20
-4.880730523003472
 30
0.0
 10
3.203685336642795
 20
-4.8460693359375
 30
0.0
 10
3.203685336642795
 20
-4.8460693359375
 30
0.0
 10
3.203685336642795
 20
-4.8460693359375
 30
0.0
 10
3.204024420844183
 20
-4.843343098958333
 30
0.0
 10
3.204024420844183
 20
-4.843343098958333
 30
0.0
 10
3.204594082302516
 20
-4.839063856336805
 30
0.0
 10
3.204933166503906
 20
-4.835306803385416
 30
0.0
 10
3.204845004611545
 20
-4.83160400390625
 30
0.0
 10
3.203624301486545
 20
-4.78042263454861
 30
0.0
 10
3.178240458170572
 20
-4.739359537760416
 30
0.0
 10
3.133366054958766
 20
-4.715983072916666
 30
0.0
 10
3.076427035861545
 20
-4.686326768663193
 30
0.0
 10
3.014232211642795
 20
-4.690165201822916
 30
0.0
 10
2.953488667805989
 20
-4.727084689670138
 30
0.0
 10
2.902782016330295
 20
-4.757921006944443
 30
0.0
 10
2.871308220757378
 20
-4.806979709201388
 30
0.0
 10
2.859731886121961
 20
-4.87344021267361
 30
0.0
 10
2.745073954264322
 20
-4.891011555989583
 30
0.0
 10
2.674442715115017
 20
-4.980692545572916
 30
0.0
 10
2.682750278049045
 20
-5.100592719184027
 30
0.0
 10
2.686269972059461
 20
-5.151421440972222
 30
0.0
 10
2.712833828396267
 20
-5.192708333333333
 30
0.0
 10
2.757565816243489
 20
-5.216851128472222
 30
0.0
 10
2.776412116156683
 20
-5.227030436197916
 30
0.0
 10
2.7972657945421
 20
-5.231085883246527
 30
0.0
 10
2.817916022406683
 20
-5.228522406684027
 30
0.0
 10
2.817916022406683
 20
-5.228522406684027
 30
0.0
 10
2.853546990288628
 20
-5.224127875434027
 30
0.0
 10
2.853546990288628
 20
-5.224127875434027
 30
0.0
 10
2.853546990288628
 20
-5.224127875434027
 30
0.0
 10
2.847972446017795
 20
-5.188666449652777
 30
0.0
 10
2.847972446017795
 20
-5.188666449652777
 30
0.0
 10
2.847056918674045
 20
-5.182847764756943
 30
0.0
 10
2.845815870496961
 20
-5.17721218532986
 30
0.0
 10
2.844588385687933
 20
-5.171746148003472
 30
0.0
 10
2.843252393934461
 20
-5.165791829427083
 30
0.0
 10
2.841584099663628
 20
-5.15838623046875
 30
0.0
 10
2.841957092285156
 20
-5.155531141493055
 30
0.0
 10
2.84517839219835
 20
-5.13079833984375
 30
0.0
 10
2.856686909993489
 20
-5.11452907986111
 30
0.0
 10
2.877147250705295
 20
-5.105794270833333
 30
0.0
 10
2.906532287597656
 20
-5.093234592013888
 30
0.0
 10
2.922136942545572
 20
-5.10260009765625
 30
0.0
 10
2.933536953396267
 20
-5.113410101996527
 30
0.0
 10
2.962481180826822
 20
-5.140875922309027
 30
0.0
 10
2.991221957736545
 20
-5.16854519314236
 30
0.0
 10
3.019942389594183
 20
-5.196241590711805
 30
0.0
 10
3.019942389594183
 20
-5.196241590711805
 30
0.0
 10
3.055770026312933
 20
-5.230794270833333
 30
0.0
 10
3.055770026312933
 20
-5.230794270833333
 30
0.0
 10
3.055770026312933
 20
-5.230794270833333
 30
0.0
 10
3.056913587782117
 20
-5.228196038140191
 30
0.0
 10
3.056913587782117
 20
-5.228196038140191
 30
0.0
 10
3.056464301215277
 20
-5.240473429361978
 30
0.0
 10
3.057354397243923
 20
-5.252916971842447
 30
0.0
 10
3.059811909993489
 20
-5.26528591579861
 30
0.0
 10
3.009186638726128
 20
-5.264560275607638
 30
0.0
 10
2.968082851833767
 20
-5.288899739583333
 30
0.0
 10
2.939158969455295
 20
-5.336717393663193
 30
0.0
 10
2.918251037597656
 20
-5.37127685546875
 30
0.0
 10
2.903066847059461
 20
-5.421502007378472
 30
0.0
 10
2.930926005045572
 20
-5.480380588107638
 30
0.0
 10
2.918705410427517
 20
-5.484225802951388
 30
0.0
 10
2.907101949055989
 20
-5.489759657118055
 30
0.0
 10
2.896217346191406
 20
-5.496961805555555
 30
0.0
 10
2.855506896972656
 20
-5.52389187282986
 30
0.0
 10
2.83052995469835
 20
-5.567070855034722
 30
0.0
 10
2.827688429090711
 20
-5.615437825520833
 30
0.0
 10
2.825477600097656
 20
-5.653157552083333
 30
0.0
 10
2.836904737684461
 20
-5.689439561631943
 30
0.0
 10
2.859630160861545
 20
-5.7188720703125
 30
0.0
 10
2.815922207302517
 20
-5.747083875868055
 30
0.0
 10
2.792355855305989
 20
-5.790757921006943
 30
0.0
 10
2.792193094889322
 20
-5.845703125
 30
0.0
 10
2.792023552788628
 20
-5.900770399305555
 30
0.0
 10
2.815711975097656
 20
-5.94482421875
 30
0.0
 10
2.859955681694878
 20
-5.9736328125
 30
0.0
 10
2.820391337076822
 20
-6.023722330729166
 30
0.0
 10
2.823259989420572
 20
-6.075547960069443
 30
0.0
 10
2.834938049316406
 20
-6.113471137152777
 30
0.0
 10
2.846507602267795
 20
-6.151055230034722
 30
0.0
 10
2.87264421251085
 20
-6.1942138671875
 30
0.0
 10
2.931312561035156
 20
-6.211561414930555
 30
0.0
 10
2.903263515896267
 20
-6.270236545138888
 30
0.0
 10
2.918061150444878
 20
-6.320353190104166
 30
0.0
 10
2.938663906521267
 20
-6.35488552517361
 30
0.0
 10
2.945323520236545
 20
-6.366047329372829
 30
0.0
 10
2.952736748589409
 20
-6.375814649793836
 30
0.0
 10
2.960713704427083
 20
-6.384441799587673
 30
0.0
 10
2.934377882215711
 20
-6.403128729926215
 30
0.0
 10
2.907149420844183
 20
-6.422434488932291
 30
0.0
 10
2.879751417371961
 20
-6.439371744791666
 30
0.0
 10
2.857805887858072
 20
-6.452921549479166
 30
0.0
 10
2.831581115722656
 20
-6.448459201388888
 30
0.0
 10
2.812911139594183
 20
-6.427951388888888
 30
0.0
 10
2.794790479871961
 20
-6.408040364583333
 30
0.0
 10
2.791948954264322
 20
-6.385308159722221
 30
0.0
 10
2.804698520236545
 20
-6.362250434027777
 30
0.0
 10
2.808096143934461
 20
-6.35610622829861
 30
0.0
 10
2.809038798014322
 20
-6.3505859375
 30
0.0
 10
2.809710184733072
 20
-6.3466796875
 30
0.0
 10
2.809710184733072
 20
-6.3466796875
 30
0.0
 10
2.818302578396267
 20
-6.309095594618055
 30
0.0
 10
2.818302578396267
 20
-6.309095594618055
 30
0.0
 10
2.818302578396267
 20
-6.309095594618055
 30
0.0
 10
2.780026753743489
 20
-6.30447048611111
 30
0.0
 10
2.780026753743489
 20
-6.30447048611111
 30
0.0
 10
2.778372022840711
 20
-6.304280598958333
 30
0.0
 10
2.776791890462239
 20
-6.304036458333333
 30
0.0
 10
2.775259229871961
 20
-6.303792317708333
 30
0.0
 10
2.770545959472656
 20
-6.303073459201388
 30
0.0
 10
2.764849344889322
 20
-6.302056206597221
 30
0.0
 10
2.758901807996961
 20
-6.30227322048611
 30
0.0
 10
2.726349724663628
 20
-6.30239529079861
 30
0.0
 10
2.680559794108072
 20
-6.314141167534721
 30
0.0
 10
2.647288852267795
 20
-6.369479709201388
 30
0.0
 10
2.624678717719183
 20
-6.407077365451388
 30
0.0
 10
2.624129401312933
 20
-6.447238498263888
 30
0.0
 10
2.625384012858072
 20
-6.481920030381943
 30
0.0
 10
2.628734164767795
 20
-6.574503580729166
 30
0.0
 10
2.698951721191406
 20
-6.641303168402777
 30
0.0
 10
2.771346198187933
 20
-6.663831922743055
 30
0.0
 10
2.7746827867296
 20
-6.775078667534721
 30
0.0
 10
2.840560065375433
 20
-6.853976779513888
 30
0.0
 10
2.945716857910156
 20
-6.871148003472221
 30
0.0
 10
2.953366597493489
 20
-6.872395833333333
 30
0.0
 10
2.961036682128906
 20
-6.872992621527777
 30
0.0
 10
2.9686525132921
 20
-6.872992621527777
 30
0.0
 10
3.017100863986545
 20
-6.872992621527777
 30
0.0
 10
3.063385857476128
 20
-6.84841579861111
 30
0.0
 10
3.088539123535156
 20
-6.807685004340277
 30
0.0
 10
3.10042741563585
 20
-6.788438585069443
 30
0.0
 10
3.106239318847656
 20
-6.767632378472221
 30
0.0
 10
3.106307135687933
 20
-6.744086371527777
 30
0.0
 10
3.106307135687933
 20
-6.744086371527777
 30
0.0
 10
3.106435987684461
 20
-6.696994357638888
 30
0.0
 10
3.106435987684461
 20
-6.696994357638888
 30
0.0
 10
3.106435987684461
 20
-6.696994357638888
 30
0.0
 10
3.057587517632378
 20
-6.711927625868055
 30
0.0
 10
3.057587517632378
 20
-6.711927625868055
 30
0.0
 10
3.054027133517795
 20
-6.712972005208333
 30
0.0
 10
3.051260206434461
 20
-6.713826497395833
 30
0.0
 10
3.048601786295572
 20
-6.714857313368055
 30
0.0
 10
3.042830573187933
 20
-6.717095269097221
 30
0.0
 10
3.038117302788628
 20
-6.716905381944443
 30
0.0
 10
3.0323732164171
 20
-6.714219835069443
 30
0.0
 10
3.0323732164171
 20
-6.714219835069443
 30
0.0
 10
3.032359653049045
 20
-6.714219835069443
 30
0.0
 10
3.032359653049045
 20
-6.714219835069443
 30
0.0
 10
3.002927144368489
 20
-6.700493706597221
 30
0.0
 10
2.995277404785156
 20
-6.676283094618055
 30
0.0
 10
2.993337843153211
 20
-6.663072374131943
 30
0.0
 10
2.990475972493489
 20
-6.64358181423611
 30
0.0
 10
2.996315002441406
 20
-6.623575846354166
 30
0.0
 10
3.007857428656683
 20
-6.613294813368055
 30
0.0
 10
3.025238884819878
 20
-6.597819010416666
 30
0.0
 10
3.042206658257378
 20
-6.581882052951388
 30
0.0
 10
3.059181213378906
 20
-6.56594509548611
 30
0.0
 10
3.06698015001085
 20
-6.55862087673611
 30
0.0
 10
3.074785868326822
 20
-6.55129665798611
 30
0.0
 10
3.082625495062933
 20
-6.544013129340277
 30
0.0
 10
3.082625495062933
 20
-6.544013129340277
 30
0.0
 10
3.082908630371093
 20
-6.5437503390842
 30
0.0
 10
3.082908630371093
 20
-6.5437503390842
 30
0.0
 10
3.095147026909721
 20
-6.561431884765625
 30
0.0
 10
3.111302693684895
 20
-6.576554192437065
 30
0.0
 10
3.131670633951822
 20
-6.588392469618055
 30
0.0
 10
3.165009392632378
 20
-6.6077880859375
 30
0.0
 10
3.200260586208766
 20
-6.61282009548611
 30
0.0
 10
3.235430399576822
 20
-6.603556315104166
 30
0.0
 10
3.240530225965711
 20
-6.655232747395833
 30
0.0
 10
3.271183437771266
 20
-6.7020263671875
 30
0.0
 10
3.317699008517795
 20
-6.72475857204861
 30
0.0
 10
3.361773173014322
 20
-6.746256510416666
 30
0.0
 10
3.408736334906683
 20
-6.744004991319443
 30
0.0
 10
3.449663798014322
 20
-6.719984266493055
 30
0.0
 10
3.465017530653211
 20
-6.767415364583333
 30
0.0
 10
3.4969728257921
 20
-6.798787434895833
 30
0.0
 10
3.545156690809461
 20
-6.813585069444443
 30
0.0
 10
3.582571241590711
 20
-6.825086805555555
 30
0.0
 10
3.6329591539171
 20
-6.826673719618055
 30
0.0
 10
3.680268181694878
 20
-6.783311631944443
 30
0.0
 10
3.69820573594835
 20
-6.810980902777777
 30
0.0
 10
3.723555670844183
 20
-6.830810546875
 30
0.0
 10
3.754941304524739
 20
-6.841444227430555
 30
0.0
 10
3.770111931694878
 20
-6.846571180555555
 30
0.0
 10
3.785506354437933
 20
-6.84902615017361
 30
0.0
 10
3.800636291503906
 20
-6.84902615017361
 30
0.0
 10
3.848196241590711
 20
-6.84902615017361
 30
0.0
 10
3.893138461642795
 20
-6.824842664930555
 30
0.0
 10
3.920204162597656
 20
-6.784016927083333
 30
0.0
 10
3.9629152086046
 20
-6.822686089409721
 30
0.0
 10
4.023692660861544
 20
-6.831949869791666
 30
0.0
 10
4.077017042371961
 20
-6.805419921875
 30
0.0
 10
4.113285488552516
 20
-6.787367078993055
 30
0.0
 10
4.138431972927516
 20
-6.758368598090277
 30
0.0
 10
4.151195102267794
 20
-6.720377604166666
 30
0.0
 10
4.181258307562933
 20
-6.738091362847221
 30
0.0
 10
4.214536031087239
 20
-6.743584526909721
 30
0.0
 10
4.249210781521266
 20
-6.7362060546875
 30
0.0
 10
4.314450581868489
 20
-6.722330729166666
 30
0.0
 10
4.3595216539171
 20
-6.668443467881943
 30
0.0
 10
4.365435282389322
 20
-6.603352864583333
 30
0.0
 10
4.399085998535156
 20
-6.612060546875
 30
0.0
 10
4.433197869194878
 20
-6.607774522569443
 30
0.0
 10
4.465709262424044
 20
-6.590549045138888
 30
0.0
 10
4.486897786458333
 20
-6.579338073730468
 30
0.0
 10
4.50413852267795
 20
-6.563452826605902
 30
0.0
 10
4.517065260145399
 20
-6.54476081000434
 30
0.0
 10
4.540843539767794
 20
-6.568431430392794
 30
0.0
 10
4.562714470757378
 20
-6.590687221950954
 30
0.0
 10
4.583710564507378
 20
-6.612616644965277
 30
0.0
 10
4.594167921278211
 20
-6.62353515625
 30
0.0
 10
4.604801601833766
 20
-6.640462239583333
 30
0.0
 10
4.594059414333766
 20
-6.674736870659721
 30
0.0
 10
4.5849855211046
 20
-6.703653971354166
 30
0.0
 10
4.5592286851671
 20
-6.717502170138888
 30
0.0
 10
4.529769049750433
 20
-6.70901150173611
 30
0.0
 10
4.522377014160156
 20
-6.706976996527777
 30
0.0
 10
4.516232808430989
 20
-6.707750108506943
 30
0.0
 10
4.513506571451822
 20
-6.7081298828125
 30
0.0
 10
4.513506571451822
 20
-6.7081298828125
 30
0.0
 10
4.481266445583766
 20
-6.710435655381943
 30
0.0
 10
4.481266445583766
 20
-6.710435655381943
 30
0.0
 10
4.481266445583766
 20
-6.710435655381943
 30
0.0
 10
4.481266445583766
 20
-6.742757161458333
 30
0.0
 10
4.481266445583766
 20
-6.742757161458333
 30
0.0
 10
4.481266445583766
 20
-6.742757161458333
 30
0.0
 10
4.481212192111544
 20
-6.744913736979166
 30
0.0
 10
4.481212192111544
 20
-6.744913736979166
 30
0.0
 10
4.481117248535156
 20
-6.748006184895833
 30
0.0
 10
4.480968051486544
 20
-6.752237955729166
 30
0.0
 10
4.481578403049044
 20
-6.757175021701388
 30
0.0
 10
4.487546284993489
 20
-6.805501302083333
 30
0.0
 10
4.515351189507378
 20
-6.842420789930555
 30
0.0
 10
4.559866163465711
 20
-6.861151801215277
 30
0.0
 10
4.581865946451822
 20
-6.870402018229166
 30
0.0
 10
4.604055616590711
 20
-6.875
 30
0.0
 10
4.6261232164171
 20
-6.875
 30
0.0
 10
4.6670167711046
 20
-6.875
 30
0.0
 10
4.707530551486544
 20
-6.859225802951388
 30
0.0
 10
4.7457521226671
 20
-6.828016493055555
 30
0.0
 10
4.790945265028211
 20
-6.791110568576388
 30
0.0
 10
4.815711975097656
 20
-6.739325629340277
 30
0.0
 10
4.819509718153211
 20
-6.673475477430555
 30
0.0
 10
4.872962951660156
 20
-6.659288194444443
 30
0.0
 10
4.916053771972656
 20
-6.627617730034721
 30
0.0
 10
4.944767422146266
 20
-6.581190321180555
 30
0.0
 10
4.972789340549044
 20
-6.535861545138888
 30
0.0
 10
4.980832417805989
 20
-6.482666015625
 30
0.0
 10
4.968679640028211
 20
-6.423109266493055
 30
0.0
  0
HATCH
  5
95
330
70
100
AcDbEntity
  8
Lid
 62
   251
420
  6513507
440
 33554687
100
AcDbHatch
 10
0.0
 20
0.0
 30
0.0
210
0.0
220
0.0
230
1.0
  2
SOLID
 70
     1
 71
     1
 91
        6
 92
        1
 93
        1
 72
     4
 94
        3
 73
     0
 74
     0
 95
       74
 96
       70
 40
0.0
 40
0.0
 40
0.0
 40
0.0
 40
1.0
 40
1.0
 40
1.0
 40
2.0
 40
2.0
 40
2.0
 40
3.0
 40
3.0
 40
3.0
 40
4.0
 40
4.0
 40
4.0
 40
5.0
 40
5.0
 40
5.0
 40
6.0
 40
6.0
 40
6.0
 40
7.0
 40
7.0
 40
7.0
 40
8.0
 40
8.0
 40
8.0
 40
9.0
 40
9.0
 40
9.0
 40
10.0
 40
10.0
 40
10.0
 40
11.0
 40
11.0
 40
11.0
 40
12.0
 40
12.0
 40
12.0
 40
13.0
 40
13.0
 40
13.0
 40
14.0
 40
14.0
 40
14.0
 40
15.0
 40
15.0
 40
15.0
 40
16.0
 40
16.0
 40
16.0
 40
17.0
 40
17.0
 40
17.0
 40
18.0
 40
18.0
 40
18.0
 40
19.0
 40
19.0
 40
19.0
 40
20.0
 40
20.0
 40
20.0
 40
21.0
 40
21.0
 40
21.0
 40
22.0
 40
22.0
 40
22.0
 40
23.0
 40
23.0
 40
23.0
 40
23.0
 10
4.915825737847222
 20
-6.55031500922309
 10
4.888700697157117
 20
-6.594184027777777
 10
4.848255581325954
 20
-6.620574103461371
 10
4.797627766927083
 20
-6.630416870117187
 10
4.788035074869791
 20
-6.632280985514322
 10
4.785952250162759
 20
-6.636037190755208
 10
4.785892910427516
 20
-6.64512464735243
 10
4.785528394911024
 20
-6.701463487413193
 10
4.768480088975693
 20
-6.752503289116752
 10
4.724391513400607
 20
-6.788503011067708
 10
4.680747985839843
 20
-6.82414076063368
 10
4.629362318250867
 20
-6.839845445421006
 10
4.573928833007812
 20
-6.816530015733506
 10
4.541236877441406
 20
-6.802779303656683
 10
4.521127488878037
 20
-6.776668124728732
 10
4.516644795735676
 20
-6.740308125813801
 10
4.516237046983506
 20
-6.737003750271266
 10
4.516590542263454
 20
-6.733605278862846
 10
4.516590542263454
 20
-6.730144076877169
 10
4.518859015570746
 20
-6.729986402723524
 10
4.520089891221787
 20
-6.72958034939236
 10
4.521119859483506
 20
-6.729875352647568
 10
4.567965189615884
 20
-6.743295457628037
 10
4.61300065782335
 20
-6.719686720106336
 10
4.627789815266926
 20
-6.67250739203559
 10
4.638758341471353
 20
-6.637515597873263
 10
4.63623046875
 20
-6.604001363118489
 10
4.609390258789062
 20
-6.575975206163193
 10
4.586197747124566
 20
-6.551756964789496
 10
4.562652587890625
 20
-6.527871025933158
 10
4.538860744900173
 20
-6.504241943359375
 10
4.541959974500867
 20
-6.493464152018228
 10
4.544553968641492
 20
-6.482512580023871
 10
4.546341790093316
 20
-6.471055772569443
 10
4.5483644273546
 20
-6.458092583550346
 10
4.550099690755208
 20
-6.445277743869357
 10
4.549613104926215
 20
-6.432128058539496
 10
4.549373202853732
 20
-6.425657484266492
 10
4.548701816134982
 20
-6.41923353407118
 10
4.547846476236978
 20
-6.412818908691406
 10
4.551284790039062
 20
-6.41274685329861
 10
4.55473158094618
 20
-6.41258324517144
 10
4.558143615722656
 20
-6.412222120496961
 10
4.567347208658853
 20
-6.411246405707465
 10
4.57648213704427
 20
-6.409674750434027
 10
4.585627237955728
 20
-6.408271789550781
 10
4.597130669487847
 20
-6.406508551703558
 10
4.611398484971787
 20
-6.407790289984808
 10
4.622472127278645
 20
-6.403023613823783
 10
4.646455552842881
 20
-6.420782301161024
 10
4.670364379882812
 20
-6.4386478000217
 10
4.693843417697482
 20
-6.457059224446614
 10
4.750750223795572
 20
-6.501684400770399
 10
4.831930372450086
 20
-6.462961832682291
 10
4.840069240993923
 20
-6.386791653103298
 10
4.841390821668836
 20
-6.374420166015625
 10
4.835386488172742
 20
-6.36118910047743
 10
4.832287258572048
 20
-6.348472595214843
 10
4.831424289279513
 20
-6.344935099283853
 10
4.828832838270399
 20
-6.341820610894096
 10
4.826281229654947
 20
-6.337125990125867
 10
4.850678337944878
 20
-6.331634521484375
 10
4.870906405978732
 20
-6.336952209472656
 10
4.889912923177083
 20
-6.349743313259548
 10
4.914322747124566
 20
-6.366171095106336
 10
4.929507785373263
 20
-6.389205932617187
 10
4.935262891981336
 20
-6.417428758409287
 10
4.944713168674044
 20
-6.46377224392361
 10
4.941164652506509
 20
-6.509334988064235
 10
4.915825737847222
 20
-6.55031500922309
 97
        0
 97
        1
330
8F
 92
        1
 93
        1
 72
     4
 94
        3
 73
     0
 74
     0
 95
      269
 96
      265
 40
0.0
 40
0.0
 40
0.0
 40
0.0
 40
1.0
 40
1.0
 40
1.0
 40
2.0
 40
2.0
 40
2.0
 40
3.0
 40
3.0
 40
3.0
 40
4.0
 40
4.0
 40
4.0
 40
5.0
 40
5.0
 40
5.0
 40
6.0
 40
6.0
 40
6.0
 40
7.0
 40
7.0
 40
7.0
 40
8.0
 40
8.0
 40
8.0
 40
9.0
 40
9.0
 40
9.0
 40
10.0
 40
10.0
 40
10.0
 40
11.0
 40
11.0
 40
11.0
 40
12.0
 40
12.0
 40
12.0
 40
13.0
 40
13.0
 40
13.0
 40
14.0
 40
14.0
 40
14.0
 40
15.0
 40
15.0
 40
15.0
 40
16.0
 40
16.0
 40
16.0
 40
17.0
 40
17.0
 40
17.0
 40
18.0
 40
18.0
 40
18.0
 40
19.0
 40
19.0
 40
19.0
 40
20.0
 40
20.0
 40
20.0
 40
21.0
 40
21.0
 40
21.0
 40
22.0
 40
22.0
 40
22.0
 40
23.0
 40
23.0
 40
23.0
 40
24.0
 40
24.0
 40
24.0
 40
25.0
 40
25.0
 40
25.0
 40
26.0
 40
26.0
 40
26.0
 40
27.0
 40
27.0
 40
27.0
 40
28.0
 40
28.0
 40
28.0
 40
29.0
 40
29.0
 40
29.0
 40
30.0
 40
30.0
 40
30.0
 40
31.0
 40
31.0
 40
31.0
 40
32.0
 40
32.0
 40
32.0
 40
33.0
 40
33.0
 40
33.0
 40
34.0
 40
34.0
 40
34.0
 40
35.0
 40
35.0
 40
35.0
 40
36.0
 40
36.0
 40
36.0
 40
37.0
 40
37.0
 40
37.0
 40
38.0
 40
38.0
 40
38.0
 40
39.0
 40
39.0
 40
39.0
 40
40.0
 40
40.0
 40
40.0
 40
41.0
 40
41.0
 40
41.0
 40
42.0
 40
42.0
 40
42.0
 40
43.0
 40
43.0
 40
43.0
 40
44.0
 40
44.0
 40
44.0
 40
45.0
 40
45.0
 40
45.0
 40
46.0
 40
46.0
 40
46.0
 40
47.0
 40
47.0
 40
47.0
 40
48.0
 40
48.0
 40
48.0
 40
49.0
 40
49.0
 40
49.0
 40
50.0
 40
50.0
 40
50.0
 40
51.0
 40
51.0
 40
51.0
 40
52.0
 40
52.0
 40
52.0
 40
53.0
 40
53.0
 40
53.0
 40
54.0
 40
54.0
 40
54.0
 40
55.0
 40
55.0
 40
55.0
 40
56.0
 40
56.0
 40
56.0
 40
57.0
 40
57.0
 40
57.0
 40
58.0
 40
58.0
 40
58.0
 40
59.0
 40
59.0
 40
59.0
 40
60.0
 40
60.0
 40
60.0
 40
61.0
 40
61.0
 40
61.0
 40
62.0
 40
62.0
 40
62.0
 40
63.0
 40
63.0
 40
63.0
 40
64.0
 40
64.0
 40
64.0
 40
65.0
 40
65.0
 40
65.0
 40
66.0
 40
66.0
 40
66.0
 40
67.0
 40
67.0
 40
67.0
 40
68.0
 40
68.0
 40
68.0
 40
69.0
 40
69.0
 40
69.0
 40
70.0
 40
70.0
 40
70.0
 40
71.0
 40
71.0
 40
71.0
 40
72.0
 40
72.0
 40
72.0
 40
73.0
 40
73.0
 40
73.0
 40
74.0
 40
74.0
 40
74.0
 40
75.0
 40
75.0
 40
75.0
 40
76.0
 40
76.0
 40
76.0
 40
77.0
 40
77.0
 40
77.0
 40
78.0
 40
78.0
 40
78.0
 40
79.0
 40
79.0
 40
79.0
 40
80.0
 40
80.0
 40
80.0
 40
81.0
 40
81.0
 40
81.0
 40
82.0
 40
82.0
 40
82.0
 40
83.0
 40
83.0
 40
83.0
 40
84.0
 40
84.0
 40
84.0
 40
85.0
 40
85.0
 40
85.0
 40
86.0
 40
86.0
 40
86.0
 40
87.0
 40
87.0
 40
87.0
 40
88.0
 40
88.0
 40
88.0
 40
88.0
 10
4.504527621799044
 20
-6.37205335828993
 10
4.500503540039062
 20
-6.371225145128037
 10
4.496584574381509
 20
-6.369890001085068
 10
4.489228990342881
 20
-6.367842780219183
 10
4.4922120836046
 20
-6.375233120388454
 10
4.493624369303384
 20
-6.379787021213107
 10
4.495792812771266
 20
-6.383946736653645
 10
4.52655029296875
 20
-6.442949083116318
 10
4.506395128038193
 20
-6.515299479166666
 10
4.450067308213975
 20
-6.545099046495225
 10
4.416964213053384
 20
-6.562611897786458
 10
4.383156670464409
 20
-6.562568664550781
 10
4.349648369683159
 20
-6.545287238226996
 10
4.344097561306423
 20
-6.54242451985677
 10
4.338537428114149
 20
-6.539578755696614
 10
4.332927280002169
 20
-6.536835564507377
 10
4.332384745279947
 20
-6.536571078830294
 10
4.331455654568141
 20
-6.53709750705295
 10
4.328831142849391
 20
-6.537654452853732
 10
4.329283820258246
 20
-6.54256608751085
 10
4.329461839463975
 20
-6.547755771213107
 10
4.330276489257812
 20
-6.552842881944443
 10
4.340485466851128
 20
-6.616569519042968
 10
4.303132798936632
 20
-6.674617343478732
 10
4.242590162489149
 20
-6.687482198079426
 10
4.203588697645399
 20
-6.695769415961371
 10
4.170832316080728
 20
-6.682579040527343
 10
4.143098619249132
 20
-6.655092027452256
 10
4.13948737250434
 20
-6.651512993706596
 10
4.135943094889322
 20
-6.647861904568141
 10
4.132219950358072
 20
-6.644403245713975
 10
4.131497701009114
 20
-6.643732706705728
 10
4.130086263020833
 20
-6.643804762098524
 10
4.12746344672309
 20
-6.643156263563367
 10
4.126953972710503
 20
-6.648859659830728
 10
4.126485188802083
 20
-6.654097663031683
 10
4.126017252604166
 20
-6.659335666232638
 10
4.122050815158419
 20
-6.703792148166232
 10
4.1031985812717
 20
-6.739150153266058
 10
4.062145657009548
 20
-6.759576585557725
 10
4.014732360839843
 20
-6.783167521158853
 10
3.959540473090277
 20
-6.768788655598958
 10
3.928138732910156
 20
-6.7257080078125
 10
3.923595004611545
 20
-6.719476487901475
 10
3.919271681043836
 20
-6.713083902994791
 10
3.912621392144096
 20
-6.703590393066406
 10
3.909109327528211
 20
-6.712771097819009
 10
3.906634012858072
 20
-6.718989902072482
 10
3.90434095594618
 20
-6.725275675455728
 10
3.883326212565103
 20
-6.782871670193141
 10
3.823506673177083
 20
-6.813036600748697
 10
3.766679551866319
 20
-6.793790181477864
 10
3.732147216796875
 20
-6.782094319661458
 10
3.709728664822048
 20
-6.757453070746527
 10
3.697009616427951
 20
-6.723623487684461
 10
3.694880167643229
 20
-6.717959933810763
 10
3.69263203938802
 20
-6.712340460883246
 10
3.689270867241753
 20
-6.70369635687934
 10
3.656899346245659
 20
-6.755089653862846
 10
3.61544460720486
 20
-6.783906724717881
 10
3.55595228407118
 20
-6.765634324815537
 10
3.497420416937933
 20
-6.747657775878906
 10
3.476949055989583
 20
-6.701087103949652
 10
3.474593268500433
 20
-6.641089545355902
 10
3.469559563530815
 20
-6.645228915744357
 10
3.466221279568141
 20
-6.647421095106336
 10
3.463556077745225
 20
-6.650248209635416
 10
3.425951639811197
 20
-6.690153333875867
 10
3.378319634331596
 20
-6.700651380750867
 10
3.333527459038628
 20
-6.678782992892794
 10
3.288876851399739
 20
-6.656983269585502
 10
3.263426886664496
 20
-6.606113857693141
 10
3.271451314290364
 20
-6.5548341539171
 10
3.272335476345485
 20
-6.549186706542968
 10
3.272866143120659
 20
-6.543483310275607
 10
3.273904588487412
 20
-6.534992641872829
 10
3.267367892795138
 20
-6.537890116373697
 10
3.26312764485677
 20
-6.539302402072482
 10
3.259357028537326
 20
-6.541514078776041
 10
3.223172505696614
 20
-6.562739902072482
 10
3.1859130859375
 20
-6.564659966362846
 10
3.149733649359808
 20
-6.543621487087673
 10
3.112516615125867
 20
-6.521979437934027
 10
3.093352423773871
 20
-6.488192240397134
 10
3.091852823893229
 20
-6.444720798068575
 10
3.091072930230034
 20
-6.422108968098958
 10
3.09672376844618
 20
-6.401278177897134
 10
3.107509189181857
 20
-6.381595187717013
 10
3.109264797634548
 20
-6.378392537434895
 10
3.110272725423176
 20
-6.374781290690103
 10
3.113156636555989
 20
-6.367486741807725
 10
3.050792270236545
 20
-6.390561421712239
 10
3.001354641384548
 20
-6.376422458224825
 10
2.96907975938585
 20
-6.322330050998263
 10
2.937479654947916
 20
-6.26937018500434
 10
2.949485778808593
 20
-6.21849399142795
 10
2.991299099392361
 20
-6.169902377658419
 10
2.929421318901909
 20
-6.170051574707031
 10
2.886280483669704
 20
-6.145534091525607
 10
2.868721856011284
 20
-6.088495042588975
 10
2.851354810926649
 20
-6.032080756293402
 10
2.871314154730902
 20
-5.986367967393662
 10
2.920558505588107
 20
-5.948867797851562
 10
2.860527038574218
 20
-5.929473876953125
 10
2.82733154296875
 20
-5.890680948893228
 10
2.827511257595486
 20
-5.831044514973958
 10
2.827690124511718
 20
-5.771943834092881
 10
2.86045667860243
 20
-5.733307732476128
 10
2.919491238064236
 20
-5.714774237738715
 10
2.913780212402343
 20
-5.70933363172743
 10
2.910209655761718
 20
-5.705561319986978
 10
2.906266106499565
 20
-5.702229817708333
 10
2.844451056586371
 20
-5.649996439615884
 10
2.849205864800346
 20
-5.555313958062066
 10
2.915969848632812
 20
-5.511163499620225
 10
2.933094448513454
 20
-5.49983893500434
 10
2.952051798502603
 20
-5.494273715549044
 10
2.972583346896701
 20
-5.493850708007812
 10
2.977423773871527
 20
-5.493750678168402
 10
2.982249789767795
 20
-5.492987738715277
 10
2.990392896864149
 20
-5.492216322157117
 10
2.949572245279947
 20
-5.444265577528211
 10
2.937291463216145
 20
-5.393124050564235
 10
2.969468858506944
 20
-5.339931064181857
 10
3.002408345540364
 20
-5.285476684570312
 10
3.052547030978732
 20
-5.273837619357638
 10
3.111889309353298
 20
-5.295867919921875
 10
3.112405565049912
 20
-5.295003255208333
 10
3.112921820746527
 20
-5.294138590494791
 10
3.113438076443141
 20
-5.293274773491753
 10
3.111174689398871
 20
-5.288271586100259
 10
3.10913594563802
 20
-5.283151414659287
 10
3.106612311469183
 20
-5.278283013237847
 10
3.077911376953125
 20
-5.222921583387586
 10
3.092117309570312
 20
-5.1570315890842
 10
3.140979342990451
 20
-5.123983595106336
 10
3.178313361273871
 20
-5.098733690049912
 10
3.21732669406467
 20
-5.098865932888454
 10
3.256682501898871
 20
-5.119908650716145
 10
3.260477701822916
 20
-5.121938069661458
 10
3.264188978407117
 20
-5.124131944444443
 10
3.268041822645399
 20
-5.126041836208766
 10
3.268957349989149
 20
-5.126495361328125
 10
3.270287407769096
 20
-5.126108805338541
 10
3.273433261447482
 20
-5.126108805338541
 10
3.272800869411891
 20
-5.120168897840711
 10
3.272508409288194
 20
-5.114579942491318
 10
3.271576775444878
 20
-5.109100341796875
 10
3.261127048068576
 20
-5.047643025716145
 10
3.298778110080295
 20
-4.988877190483941
 10
3.358055114746093
 20
-4.975801255967881
 10
3.396848042805989
 20
-4.967243618435329
 10
3.430091010199652
 20
-4.979265001085068
 10
3.457865397135416
 20
-5.00692155626085
 10
3.462445576985676
 20
-5.011482238769531
 10
3.46545664469401
 20
-5.017618815104166
 10
3.469192504882812
 20
-5.023027208116318
 10
3.470898098415798
 20
-5.021893819173176
 10
3.472604539659287
 20
-5.020760430230034
 10
3.474310133192274
 20
-5.019627888997395
 10
3.474806043836805
 20
-5.015207078721787
 10
3.475574069552951
 20
-5.010797288682725
 10
3.475755479600694
 20
-5.006363762749566
 10
3.477962917751735
 20
-4.952429877387152
 10
3.510983784993489
 20
-4.908950805664062
 10
3.560176425509982
 20
-4.895339118109808
 10
3.604326036241319
 20
-4.883123609754774
 10
3.652864244249131
 20
-4.903160942925347
 10
3.679016960991753
 20
-4.944305419921875
 10
3.681629604763454
 20
-4.948416815863715
 10
3.6847169664171
 20
-4.952227274576822
 10
3.689100477430555
 20
-4.958265516493055
 10
3.692101372612846
 20
-4.951490614149305
 10
3.694474962022569
 20
-4.947157118055555
 10
3.695994059244791
 20
-4.942542182074652
 10
3.711798773871527
 20
-4.894543965657551
 10
3.7533204820421
 20
-4.86324734157986
 10
3.801461113823784
 20
-4.863221062554253
 10
3.848480224609375
 20
-4.863194783528645
 10
3.890504625108506
 20
-4.895001729329426
 10
3.906010097927516
 20
-4.942203097873263
 10
3.907541063096788
 20
-4.946862114800347
 10
3.909808688693576
 20
-4.951279534233941
 10
3.91270022922092
 20
-4.958080715603298
 10
3.916486104329426
 20
-4.953383551703558
 10
3.919037712944878
 20
-4.95070563422309
 10
3.921038309733072
 20
-4.947664896647134
 10
3.950386047363281
 20
-4.903043958875867
 10
3.995618184407551
 20
-4.882966783311631
 10
4.040387471516926
 20
-4.894782172309027
 10
4.089313083224825
 20
-4.907694498697916
 10
4.123020595974391
 20
-4.950570000542534
 10
4.126030815972222
 20
-5.003622266981336
 10
4.126332600911458
 20
-5.008927239312066
 10
4.127015007866753
 20
-5.014211018880208
 10
4.127791510687933
 20
-5.022349887424044
 10
4.13257344563802
 20
-5.01817660861545
 10
4.135548909505208
 20
-5.015985276963975
 10
4.13804456922743
 20
-5.013341267903645
 10
4.175633748372395
 20
-4.973514133029513
 10
4.221810234917534
 20
-4.9626710679796
 10
4.266851637098524
 20
-4.983183966742621
 10
4.310731675889757
 20
-5.003167046440972
 10
4.336786905924478
 20
-5.05209011501736
 10
4.331046210394965
 20
-5.103782653808593
 10
4.330248514811197
 20
-5.110960218641492
 10
4.329294840494791
 20
-5.118120829264322
 10
4.328104654947916
 20
-5.1278076171875
 10
4.333628336588541
 20
-5.125667148166232
 10
4.337048000759548
 20
-5.125016954210068
 10
4.339686075846353
 20
-5.123219807942708
 10
4.379910786946614
 20
-5.095818413628472
 10
4.436508178710937
 20
-5.09963650173611
 10
4.471680535210503
 20
-5.132069905598958
 10
4.509523179796006
 20
-5.166965060763888
 10
4.520816379123263
 20
-5.220922682020399
 10
4.499682108561197
 20
-5.269146389431423
 10
4.496164109971787
 20
-5.277172512478298
 10
4.492317199707031
 20
-5.285055372450086
 10
4.486781650119357
 20
-5.296965705023871
 10
4.548901028103298
 20
-5.273907979329426
 10
4.599185519748263
 20
-5.28513929578993
 10
4.632295396592881
 20
-5.339413960774739
 10
4.66476101345486
 20
-5.392633226182725
 10
4.652813381618923
 20
-5.443784925672742
 10
4.611014472113715
 20
-5.492687649197048
 10
4.672922770182291
 20
-5.492901272243923
 10
4.716156853569878
 20
-5.517723931206597
 10
4.733660380045572
 20
-5.575251261393228
 10
4.750883314344617
 20
-5.631855434841579
 10
4.72955322265625
 20
-5.677097744411891
 10
4.68184577094184
 20
-5.71426052517361
 10
4.741268581814235
 20
-5.733373006184895
 10
4.774506462944878
 20
-5.771761576334634
 10
4.774430168999566
 20
-5.831580268012152
 10
4.774353875054253
 20
-5.891320122612847
 10
4.740994771321614
 20
-5.929673936631943
 10
4.682186550564235
 20
-5.948557535807291
 10
4.688346015082465
 20
-5.954118516710068
 10
4.691918267144097
 20
-5.957460191514756
 10
4.695613437228732
 20
-5.960661994086371
 10
4.733238220214843
 20
-5.993267483181423
 10
4.747064378526475
 20
-6.034220377604166
 10
4.735119289822048
 20
-6.082284715440537
 10
4.723564995659722
 20
-6.128774854871961
 10
4.693127950032551
 20
-6.157380845811631
 10
4.645922342936197
 20
-6.167223612467447
 10
4.639088100857204
 20
-6.168648613823784
 10
4.631868998209634
 20
-6.168126424153645
 10
4.624880472819009
 20
-6.168952941894531
 10
4.621626959906683
 20
-6.169336954752603
 10
4.618498908148871
 20
-6.170792473687066
 10
4.615314059787325
 20
-6.171762254503037
 10
4.616600884331597
 20
-6.174814012315537
 10
4.617224799262152
 20
-6.178434583875867
 10
4.619278801812066
 20
-6.180827670627169
 10
4.63555908203125
 20
-6.199802822536891
 10
4.64539082845052
 20
-6.221499972873263
 10
4.649105495876735
 20
-6.24627685546875
 10
4.659274631076388
 20
-6.314105563693575
 10
4.6042972140842
 20
-6.379936218261718
 10
4.537885030110676
 20
-6.37830098470052
 10
4.526718139648437
 20
-6.378026326497395
 10
4.515620761447482
 20
-6.374337938096787
 10
4.504527621799044
 20
-6.37205335828993
 97
        0
 97
        1
330
90
 92
        1
 93
        1
 72
     4
 94
        3
 73
     0
 74
     0
 95
       68
 96
       64
 40
0.0
 40
0.0
 40
0.0
 40
0.0
 40
1.0
 40
1.0
 40
1.0
 40
2.0
 40
2.0
 40
2.0
 40
3.0
 40
3.0
 40
3.0
 40
4.0
 40
4.0
 40
4.0
 40
5.0
 40
5.0
 40
5.0
 40
6.0
 40
6.0
 40
6.0
 40
7.0
 40
7.0
 40
7.0
 40
8.0
 40
8.0
 40
8.0
 40
9.0
 40
9.0
 40
9.0
 40
10.0
 40
10.0
 40
10.0
 40
11.0
 40
11.0
 40
11.0
 40
12.0
 40
12.0
 40
12.0
 40
13.0
 40
13.0
 40
13.0
 40
14.0
 40
14.0
 40
14.0
 40
15.0
 40
15.0
 40
15.0
 40
16.0
 40
16.0
 40
16.0
 40
17.0
 40
17.0
 40
17.0
 40
18.0
 40
18.0
 40
18.0
 40
19.0
 40
19.0
 40
19.0
 40
20.0
 40
20.0
 40
20.0
 40
21.0
 40
21.0
 40
21.0
 40
21.0
 10
2.985366821289062
 20
-6.572603013780381
 10
2.944301181369357
 20
-6.60917494032118
 10
2.946549309624565
 20
-6.697479248046875
 10
3.018283420138888
 20
-6.730929056803384
 10
3.032463921440971
 20
-6.737541198730468
 10
3.046991136338975
 20
-6.738171047634548
 10
3.061704847547742
 20
-6.732487148708766
 10
3.064508226182725
 20
-6.731404622395833
 10
3.067451477050781
 20
-6.730684916178384
 10
3.072185940212673
 20
-6.729225158691406
 10
3.072140163845486
 20
-6.746587965223524
 10
3.06791517469618
 20
-6.761209275987412
 10
3.059599134657117
 20
-6.774670918782551
 10
3.0377443101671
 20
-6.810049268934461
 10
2.99424574110243
 20
-6.829021877712673
 10
2.951905144585503
 20
-6.822113037109375
 10
2.849600050184461
 20
-6.805419074164496
 10
2.805313958062065
 20
-6.725687662760416
 10
2.806561787923176
 20
-6.6363525390625
 10
2.806709289550781
 20
-6.625784979926215
 10
2.804615444607204
 20
-6.621500651041666
 10
2.793713887532551
 20
-6.619009229871961
 10
2.728247748480902
 20
-6.60404798719618
 10
2.66353776719835
 20
-6.544918484157985
 10
2.660683525933159
 20
-6.465917799207899
 10
2.659501817491319
 20
-6.43318854437934
 10
2.660296969943576
 20
-6.401460435655381
 10
2.677647060818142
 20
-6.372606065538193
 10
2.696168687608506
 20
-6.34180196126302
 10
2.722139146592881
 20
-6.322369893391926
 10
2.759629991319444
 20
-6.322239345974391
 10
2.764954460991753
 20
-6.322220696343315
 10
2.770284016927083
 20
-6.323437160915798
 10
2.776461283365885
 20
-6.32418484157986
 10
2.775778028700086
 20
-6.327184889051649
 10
2.775758531358506
 20
-6.329149034288193
 10
2.774922688802083
 20
-6.330661349826388
 10
2.754977756076388
 20
-6.366750929090711
 10
2.759684244791666
 20
-6.405631171332465
 10
2.787834167480468
 20
-6.436561584472656
 10
2.817255655924478
 20
-6.468888176812065
 10
2.861692640516492
 20
-6.4769532945421
 10
2.898599412706163
 20
-6.454149034288193
 10
2.928163316514756
 20
-6.435881720648871
 10
2.956531948513454
 20
-6.415645175509982
 10
2.984912448459201
 20
-6.395521375868055
 10
2.993417527940538
 20
-6.401530795627169
 10
3.002926296657986
 20
-6.405977037217881
 10
3.013695610894096
 20
-6.409048292371961
 10
3.026898701985676
 20
-6.412812974717881
 10
3.040272182888454
 20
-6.416368272569443
 10
3.053827073838975
 20
-6.417484707302516
 10
3.052567376030815
 20
-6.421589321560329
 10
3.051192389594183
 20
-6.425670199924044
 10
3.050264994303385
 20
-6.429580688476562
 10
3.047659132215711
 20
-6.440561082628037
 10
3.046634250217013
 20
-6.451446533203125
 10
3.047908359103732
 20
-6.462665981716579
 10
3.049519856770833
 20
-6.476864284939235
 10
3.052988688151041
 20
-6.491149054633246
 10
3.059605068630642
 20
-6.50381130642361
 10
3.03487565782335
 20
-6.526763068305121
 10
3.010555691189236
 20
-6.550170050726996
 10
2.985366821289062
 20
-6.572603013780381
 97
        0
 97
        1
330
91
 92
        1
 93
        1
 72
     4
 94
        3
 73
     0
 74
     0
 95
       59
 96
       55
 40
0.0
 40
0.0
 40
0.0
 40
0.0
 40
1.0
 40
1.0
 40
1.0
 40
2.0
 40
2.0
 40
2.0
 40
3.0
 40
3.0
 40
3.0
 40
4.0
 40
4.0
 40
4.0
 40
5.0
 40
5.0
 40
5.0
 40
6.0
 40
6.0
 40
6.0
 40
7.0
 40
7.0
 40
7.0
 40
8.0
 40
8.0
 40
8.0
 40
9.0
 40
9.0
 40
9.0
 40
10.0
 40
10.0
 40
10.0
 40
11.0
 40
11.0
 40
11.0
 40
12.0
 40
12.0
 40
12.0
 40
13.0
 40
13.0
 40
13.0
 40
14.0
 40
14.0
 40
14.0
 40
15.0
 40
15.0
 40
15.0
 40
16.0
 40
16.0
 40
16.0
 40
17.0
 40
17.0
 40
17.0
 40
18.0
 40
18.0
 40
18.0
 40
18.0
 10
3.047502305772569
 20
-5.158634609646266
 10
3.018716600206162
 20
-5.130875481499566
 10
2.989907158745659
 20
-5.10313245985243
 10
2.960892571343315
 20
-5.075611538357204
 10
2.933013916015625
 20
-5.049168056911891
 10
2.900531344943576
 20
-5.046917385525173
 10
2.866967095269096
 20
-5.061249627007378
 10
2.833591037326388
 20
-5.075502183702256
 10
2.815555996365017
 20
-5.10333760579427
 10
2.810982598198784
 20
-5.13843282063802
 10
2.809263441297742
 20
-5.151624043782551
 10
2.814659966362846
 20
-5.165742662217881
 10
2.817127651638454
 20
-5.181442260742187
 10
2.804133945041232
 20
-5.183046129014756
 10
2.790282355414496
 20
-5.180576748318141
 10
2.777517530653211
 20
-5.173685709635416
 10
2.742557101779513
 20
-5.154813130696614
 10
2.723525153266058
 20
-5.124203999837239
 10
2.720848931206596
 20
-5.085584004720051
 10
2.713348388671875
 20
-4.977334764268662
 10
2.77897728814019
 20
-4.903756035698784
 10
2.880510118272569
 20
-4.893630981445312
 10
2.890780978732638
 20
-4.892606947157117
 10
2.894205729166666
 20
-4.889756096733941
 10
2.895517985026041
 20
-4.879340277777777
 10
2.902614169650607
 20
-4.823043823242187
 10
2.925745646158853
 20
-4.774082607693141
 10
2.974984063042534
 20
-4.744143168131509
 10
3.020360310872395
 20
-4.716552734375
 10
3.070909288194444
 20
-4.708184983995225
 10
3.120786031087239
 20
-4.734163920084634
 10
3.154388427734375
 20
-4.751665751139322
 10
3.172665913899739
 20
-4.781009250217013
 10
3.173590766059027
 20
-4.819819132486978
 10
3.173661973741319
 20
-4.82283952501085
 10
3.173019409179687
 20
-4.825877719455294
 10
3.172606574164496
 20
-4.829899258083766
 10
3.169926113552516
 20
-4.829617818196614
 10
3.168674045138888
 20
-4.829771253797742
 10
3.167673746744791
 20
-4.829340616861978
 10
3.125406053331162
 20
-4.811129252115884
 10
3.080661349826388
 20
-4.825507269965277
 10
3.058947245279947
 20
-4.866459316677516
 10
3.040525648328992
 20
-4.901199340820312
 10
3.03711446126302
 20
-4.937190585666232
 10
3.062425401475694
 20
-4.970648023817274
 10
3.086652119954426
 20
-5.002671135796441
 10
3.111631605360242
 20
-5.034128824869791
 10
3.136670430501301
 20
-5.065532260470919
 10
3.115971035427516
 20
-5.071482340494791
 10
3.099438985188801
 20
-5.085219489203558
 10
3.085628085666232
 20
-5.101593017578125
 10
3.070896572536892
 20
-5.119057549370659
 10
3.056755913628471
 20
-5.137630038791232
 10
3.047502305772569
 20
-5.158634609646266
 97
        0
 97
        1
330
92
 92
        1
 93
        1
 72
     4
 94
        3
 73
     0
 74
     0
 95
       68
 96
       64
 40
0.0
 40
0.0
 40
0.0
 40
0.0
 40
1.0
 40
1.0
 40
1.0
 40
2.0
 40
2.0
 40
2.0
 40
3.0
 40
3.0
 40
3.0
 40
4.0
 40
4.0
 40
4.0
 40
5.0
 40
5.0
 40
5.0
 40
6.0
 40
6.0
 40
6.0
 40
7.0
 40
7.0
 40
7.0
 40
8.0
 40
8.0
 40
8.0
 40
9.0
 40
9.0
 40
9.0
 40
10.0
 40
10.0
 40
10.0
 40
11.0
 40
11.0
 40
11.0
 40
12.0
 40
12.0
 40
12.0
 40
13.0
 40
13.0
 40
13.0
 40
14.0
 40
14.0
 40
14.0
 40
15.0
 40
15.0
 40
15.0
 40
16.0
 40
16.0
 40
16.0
 40
17.0
 40
17.0
 40
17.0
 40
18.0
 40
18.0
 40
18.0
 40
19.0
 40
19.0
 40
19.0
 40
20.0
 40
20.0
 40
20.0
 40
21.0
 40
21.0
 40
21.0
 40
21.0
 10
4.544258117675781
 20
-4.965361701117621
 10
4.583813985188801
 20
-4.911454094780816
 10
4.551894293891058
 20
-4.831508212619357
 10
4.486571417914496
 20
-4.816109551323784
 10
4.472646925184461
 20
-4.81282721625434
 10
4.459326850043402
 20
-4.814168294270833
 10
4.446633232964409
 20
-4.820982191297742
 10
4.443667941623263
 20
-4.822574191623263
 10
4.440565321180555
 20
-4.823911031087239
 10
4.435443454318575
 20
-4.826361762152777
 10
4.435443454318575
 20
-4.816382514105902
 10
4.434358384874132
 20
-4.808277553982204
 10
4.435619778103298
 20
-4.800557454427083
 10
4.44364759657118
 20
-4.751443650987412
 10
4.490473429361978
 20
-4.714829338921441
 10
4.543827480740016
 20
-4.716385735405816
 10
4.63009304470486
 20
-4.718902587890625
 10
4.680994669596353
 20
-4.763834635416666
 10
4.705697801378037
 20
-4.846354166666666
 10
4.708936055501301
 20
-4.857170104980468
 10
4.710926479763454
 20
-4.868599785698784
 10
4.711624145507812
 20
-4.879860772026909
 10
4.712222629123263
 20
-4.889537387424044
 10
4.715929667154947
 20
-4.891946580674912
 10
4.725162082248263
 20
-4.892889234754774
 10
4.784640842013888
 20
-4.898963928222656
 10
4.833934360080294
 20
-4.925018310546875
 10
4.862005445692274
 20
-4.978383382161458
 10
4.887993706597222
 20
-5.027789645724825
 10
4.896724277072482
 20
-5.081592983669704
 10
4.86794704861111
 20
-5.133979797363281
 10
4.853031582302516
 20
-5.1611328125
 10
4.829766167534722
 20
-5.179617987738715
 10
4.796908060709634
 20
-5.181983947753906
 10
4.79285176595052
 20
-5.182276407877603
 10
4.788756476508246
 20
-5.182023790147568
 10
4.783578660753037
 20
-5.182023790147568
 10
4.784379747178818
 20
-5.178172641330294
 10
4.784263610839843
 20
-5.176036410861544
 10
4.785206264919704
 20
-5.174591912163628
 10
4.810699462890625
 20
-5.135541280110676
 10
4.772003173828125
 20
-5.070114135742187
 10
4.730712042914496
 20
-5.057525634765625
 10
4.699284023708766
 20
-5.047943962944878
 10
4.67003207736545
 20
-5.049258761935763
 10
4.644855923122829
 20
-5.072520785861544
 10
4.609909057617187
 20
-5.104811774359808
 10
4.575397067599825
 20
-5.137574089898003
 10
4.540728251139322
 20
-5.170166863335503
 10
4.539004007975259
 20
-5.165467156304253
 10
4.536981370713975
 20
-5.160847134060329
 10
4.534598456488715
 20
-5.156322055392794
 10
4.527572631835937
 20
-5.142980787489149
 10
4.519091288248697
 20
-5.129853990342881
 10
4.509233262803818
 20
-5.118426005045572
 10
4.499198913574218
 20
-5.106793721516926
 10
4.486129760742187
 20
-5.098276774088541
 10
4.472477383083766
 20
-5.091451856825086
 10
4.465543111165364
 20
-5.087985568576388
 10
4.458009507921006
 20
-5.084474351671006
 10
4.45023939344618
 20
-5.082000732421875
 10
4.481882731119791
 20
-5.043351915147568
 10
4.514744228786891
 20
-5.005583021375867
 10
4.544258117675781
 20
-4.965361701117621
 97
        0
 97
        1
330
93
 92
        1
 93
        1
 72
     4
 94
        3
 73
     0
 74
     0
 95
      470
 96
      466
 40
0.0
 40
0.0
 40
0.0
 40
0.0
 40
1.0
 40
1.0
 40
1.0
 40
2.0
 40
2.0
 40
2.0
 40
3.0
 40
3.0
 40
3.0
 40
4.0
 40
4.0
 40
4.0
 40
5.0
 40
5.0
 40
5.0
 40
6.0
 40
6.0
 40
6.0
 40
7.0
 40
7.0
 40
7.0
 40
8.0
 40
8.0
 40
8.0
 40
9.0
 40
9.0
 40
9.0
 40
10.0
 40
10.0
 40
10.0
 40
11.0
 40
11.0
 40
11.0
 40
12.0
 40
12.0
 40
12.0
 40
13.0
 40
13.0
 40
13.0
 40
14.0
 40
14.0
 40
14.0
 40
15.0
 40
15.0
 40
15.0
 40
16.0
 40
16.0
 40
16.0
 40
17.0
 40
17.0
 40
17.0
 40
18.0
 40
18.0
 40
18.0
 40
19.0
 40
19.0
 40
19.0
 40
20.0
 40
20.0
 40
20.0
 40
21.0
 40
21.0
 40
21.0
 40
22.0
 40
22.0
 40
22.0
 40
23.0
 40
23.0
 40
23.0
 40
24.0
 40
24.0
 40
24.0
 40
25.0
 40
25.0
 40
25.0
 40
26.0
 40
26.0
 40
26.0
 40
27.0
 40
27.0
 40
27.0
 40
28.0
 40
28.0
 40
28.0
 40
29.0
 40
29.0
 40
29.0
 40
30.0
 40
30.0
 40
30.0
 40
31.0
 40
31.0
 40
31.0
 40
32.0
 40
32.0
 40
32.0
 40
33.0
 40
33.0
 40
33.0
 40
34.0
 40
34.0
 40
34.0
 40
35.0
 40
35.0
 40
35.0
 40
36.0
 40
36.0
 40
36.0
 40
37.0
 40
37.0
 40
37.0
 40
38.0
 40
38.0
 40
38.0
 40
39.0
 40
39.0
 40
39.0
 40
40.0
 40
40.0
 40
40.0
 40
41.0
 40
41.0
 40
41.0
 40
42.0
 40
42.0
 40
42.0
 40
43.0
 40
43.0
 40
43.0
 40
44.0
 40
44.0
 40
44.0
 40
45.0
 40
45.0
 40
45.0
 40
46.0
 40
46.0
 40
46.0
 40
47.0
 40
47.0
 40
47.0
 40
48.0
 40
48.0
 40
48.0
 40
49.0
 40
49.0
 40
49.0
 40
50.0
 40
50.0
 40
50.0
 40
51.0
 40
51.0
 40
51.0
 40
52.0
 40
52.0
 40
52.0
 40
53.0
 40
53.0
 40
53.0
 40
54.0
 40
54.0
 40
54.0
 40
55.0
 40
55.0
 40
55.0
 40
56.0
 40
56.0
 40
56.0
 40
57.0
 40
57.0
 40
57.0
 40
58.0
 40
58.0
 40
58.0
 40
59.0
 40
59.0
 40
59.0
 40
60.0
 40
60.0
 40
60.0
 40
61.0
 40
61.0
 40
61.0
 40
62.0
 40
62.0
 40
62.0
 40
63.0
 40
63.0
 40
63.0
 40
64.0
 40
64.0
 40
64.0
 40
65.0
 40
65.0
 40
65.0
 40
66.0
 40
66.0
 40
66.0
 40
67.0
 40
67.0
 40
67.0
 40
68.0
 40
68.0
 40
68.0
 40
69.0
 40
69.0
 40
69.0
 40
70.0
 40
70.0
 40
70.0
 40
71.0
 40
71.0
 40
71.0
 40
72.0
 40
72.0
 40
72.0
 40
73.0
 40
73.0
 40
73.0
 40
74.0
 40
74.0
 40
74.0
 40
75.0
 40
75.0
 40
75.0
 40
76.0
 40
76.0
 40
76.0
 40
77.0
 40
77.0
 40
77.0
 40
78.0
 40
78.0
 40
78.0
 40
79.0
 40
79.0
 40
79.0
 40
80.0
 40
80.0
 40
80.0
 40
81.0
 40
81.0
 40
81.0
 40
82.0
 40
82.0
 40
82.0
 40
83.0
 40
83.0
 40
83.0
 40
84.0
 40
84.0
 40
84.0
 40
85.0
 40
85.0
 40
85.0
 40
86.0
 40
86.0
 40
86.0
 40
87.0
 40
87.0
 40
87.0
 40
88.0
 40
88.0
 40
88.0
 40
89.0
 40
89.0
 40
89.0
 40
90.0
 40
90.0
 40
90.0
 40
91.0
 40
91.0
 40
91.0
 40
92.0
 40
92.0
 40
92.0
 40
93.0
 40
93.0
 40
93.0
 40
94.0
 40
94.0
 40
94.0
 40
95.0
 40
95.0
 40
95.0
 40
96.0
 40
96.0
 40
96.0
 40
97.0
 40
97.0
 40
97.0
 40
98.0
 40
98.0
 40
98.0
 40
99.0
 40
99.0
 40
99.0
 40
100.0
 40
100.0
 40
100.0
 40
101.0
 40
101.0
 40
101.0
 40
102.0
 40
102.0
 40
102.0
 40
103.0
 40
103.0
 40
103.0
 40
104.0
 40
104.0
 40
104.0
 40
105.0
 40
105.0
 40
105.0
 40
106.0
 40
106.0
 40
106.0
 40
107.0
 40
107.0
 40
107.0
 40
108.0
 40
108.0
 40
108.0
 40
109.0
 40
109.0
 40
109.0
 40
110.0
 40
110.0
 40
110.0
 40
111.0
 40
111.0
 40
111.0
 40
112.0
 40
112.0
 40
112.0
 40
113.0
 40
113.0
 40
113.0
 40
114.0
 40
114.0
 40
114.0
 40
115.0
 40
115.0
 40
115.0
 40
116.0
 40
116.0
 40
116.0
 40
117.0
 40
117.0
 40
117.0
 40
118.0
 40
118.0
 40
118.0
 40
119.0
 40
119.0
 40
119.0
 40
120.0
 40
120.0
 40
120.0
 40
121.0
 40
121.0
 40
121.0
 40
122.0
 40
122.0
 40
122.0
 40
123.0
 40
123.0
 40
123.0
 40
124.0
 40
124.0
 40
124.0
 40
125.0
 40
125.0
 40
125.0
 40
126.0
 40
126.0
 40
126.0
 40
127.0
 40
127.0
 40
127.0
 40
128.0
 40
128.0
 40
128.0
 40
129.0
 40
129.0
 40
129.0
 40
130.0
 40
130.0
 40
130.0
 40
131.0
 40
131.0
 40
131.0
 40
132.0
 40
132.0
 40
132.0
 40
133.0
 40
133.0
 40
133.0
 40
134.0
 40
134.0
 40
134.0
 40
135.0
 40
135.0
 40
135.0
 40
136.0
 40
136.0
 40
136.0
 40
137.0
 40
137.0
 40
137.0
 40
138.0
 40
138.0
 40
138.0
 40
139.0
 40
139.0
 40
139.0
 40
140.0
 40
140.0
 40
140.0
 40
141.0
 40
141.0
 40
141.0
 40
142.0
 40
142.0
 40
142.0
 40
143.0
 40
143.0
 40
143.0
 40
144.0
 40
144.0
 40
144.0
 40
145.0
 40
145.0
 40
145.0
 40
146.0
 40
146.0
 40
146.0
 40
147.0
 40
147.0
 40
147.0
 40
148.0
 40
148.0
 40
148.0
 40
149.0
 40
149.0
 40
149.0
 40
150.0
 40
150.0
 40
150.0
 40
151.0
 40
151.0
 40
151.0
 40
152.0
 40
152.0
 40
152.0
 40
153.0
 40
153.0
 40
153.0
 40
154.0
 40
154.0
 40
154.0
 40
155.0
 40
155.0
 40
155.0
 40
155.0
 10
4.968679640028211
 20
-6.423109266493055
 10
4.968679640028211
 20
-6.423109266493055
 10
4.968679640028211
 20
-6.423109266493055
 10
4.968679640028211
 20
-6.423095703125
 10
4.9610841539171
 20
-6.385810004340277
 10
4.9403322007921
 20
-6.354844835069443
 10
4.908688863118489
 20
-6.333550347222221
 10
4.880558437771266
 20
-6.314615885416666
 10
4.850040859646266
 20
-6.308648003472221
 10
4.818058437771266
 20
-6.315877278645833
 10
4.818058437771266
 20
-6.315877278645833
 10
4.773245069715711
 20
-6.32595486111111
 10
4.773245069715711
 20
-6.32595486111111
 10
4.773245069715711
 20
-6.32595486111111
 10
4.795177035861544
 20
-6.366319444444443
 10
4.795177035861544
 20
-6.366319444444443
 10
4.796370612250433
 20
-6.368516710069443
 10
4.797550625271266
 20
-6.370469835069443
 10
4.798662821451822
 20
-6.372273763020833
 10
4.798662821451822
 20
-6.372273763020833
 10
4.798757765028211
 20
-6.372422960069443
 10
4.798757765028211
 20
-6.372422960069443
 10
4.799598693847656
 20
-6.375596788194443
 10
4.8005616929796
 20
-6.378797743055555
 10
4.8015382554796
 20
-6.382012261284721
 10
4.802935282389322
 20
-6.386569552951388
 10
4.805024041069878
 20
-6.39345974392361
 10
4.804942660861544
 20
-6.395711263020833
 10
4.802284240722656
 20
-6.420613606770833
 10
4.788178337944878
 20
-6.440755208333333
 10
4.767195807562933
 20
-6.449625651041666
 10
4.749332851833766
 20
-6.4571533203125
 10
4.730194939507378
 20
-6.454508463541666
 10
4.714664883083766
 20
-6.442342122395833
 10
4.690223693847656
 20
-6.423190646701388
 10
4.6655519273546
 20
-6.404771592881943
 10
4.642534891764322
 20
-6.387736002604166
 10
4.642534891764322
 20
-6.387736002604166
 10
4.639063517252603
 20
-6.385147942437065
 10
4.639063517252603
 20
-6.385147942437065
 10
4.64130147298177
 20
-6.382908291286891
 10
4.643589443630641
 20
-6.380736456976996
 10
4.645708719889322
 20
-6.378336588541666
 10
4.675860087076822
 20
-6.344184027777777
 10
4.689382765028211
 20
-6.299546983506943
 10
4.682845221625433
 20
-6.25588650173611
 10
4.680485195583766
 20
-6.240207248263888
 10
4.676104227701822
 20
-6.225355360243055
 10
4.669756571451822
 20
-6.21145290798611
 10
4.720402187771266
 20
-6.19546169704861
 10
4.755056593153211
 20
-6.15835232204861
 10
4.7682130601671
 20
-6.105428059895833
 10
4.780487908257378
 20
-6.056043836805555
 10
4.771156311035156
 20
-6.01101345486111
 10
4.741249084472656
 20
-5.973497178819443
 10
4.784963819715711
 20
-5.944959852430555
 10
4.808482699924044
 20
-5.901177300347222
 10
4.808550516764322
 20
-5.846381293402777
 10
4.808631896972656
 20
-5.791395399305555
 10
4.784977383083766
 20
-5.747450086805555
 10
4.740910000271266
 20
-5.718804253472222
 10
4.780257331000433
 20
-5.668551974826388
 10
4.777653164333766
 20
-5.617268880208333
 10
4.766273498535156
 20
-5.579901801215277
 10
4.754758199055989
 20
-5.54201931423611
 10
4.728567335340711
 20
-5.498426649305555
 10
4.669525994194878
 20
-5.480767144097222
 10
4.6979005601671
 20
-5.421373155381943
 10
4.6825197007921
 20
-5.370829264322916
 10
4.661333719889322
 20
-5.336093478732638
 10
4.632999844021266
 20
-5.28963894314236
 10
4.591997782389322
 20
-5.265780978732638
 10
4.542491488986544
 20
-5.265780978732638
 10
4.542043897840711
 20
-5.265780978732638
 10
4.541609870062933
 20
-5.265780978732638
 10
4.541175842285156
 20
-5.265780978732638
 10
4.543907165527343
 20
-5.252691480848524
 10
4.544910854763454
 20
-5.239516364203558
 10
4.544276767306857
 20
-5.226526896158853
 10
4.544276767306857
 20
-5.226526896158853
 10
4.591468811035156
 20
-5.18212890625
 10
4.591468811035156
 20
-5.18212890625
 10
4.616832309299044
 20
-5.158216688368055
 10
4.642209370930989
 20
-5.134297688802083
 10
4.667817009819878
 20
-5.110636393229166
 10
4.677623324924044
 20
-5.101576063368055
 10
4.690739101833766
 20
-5.094455295138888
 10
4.719981723361544
 20
-5.103352864583333
 10
4.731456332736544
 20
-5.106852213541666
 10
4.747664557562933
 20
-5.122443305121527
 10
4.754948086208766
 20
-5.142476399739583
 10
4.758840772840711
 20
-5.1531982421875
 10
4.7590577867296
 20
-5.162828233506943
 10
4.755599127875433
 20
-5.168138292100693
 10
4.750743442111544
 20
-5.175523546006943
 10
4.749712626139322
 20
-5.18267822265625
 10
4.749224344889322
 20
-5.186116536458333
 10
4.749224344889322
 20
-5.186116536458333
 10
4.740313212076822
 20
-5.229363335503472
 10
4.740313212076822
 20
-5.229363335503472
 10
4.740313212076822
 20
-5.229363335503472
 10
4.787215338812933
 20
-5.229410807291666
 10
4.787215338812933
 20
-5.229410807291666
 10
4.791392856174044
 20
-5.2294921875
 10
4.795095655653211
 20
-5.229505750868055
 10
4.798798455132378
 20
-5.229234483506943
 10
4.840939839680989
 20
-5.2261962890625
 10
4.876096089680989
 20
-5.20278591579861
 10
4.897783915201822
 20
-5.163309733072916
 10
4.929033915201822
 20
-5.106431749131943
 10
4.927080790201822
 20
-5.041259765625
 10
4.892141554090711
 20
-4.974833170572916
 10
4.862763298882378
 20
-4.91900634765625
 10
4.811873541937933
 20
-4.88406032986111
 10
4.7437989976671
 20
-4.873033311631943
 10
4.742524041069878
 20
-4.864881727430555
 10
4.740706549750433
 20
-4.856845431857638
 10
4.738360087076822
 20
-4.849005805121527
 10
4.708493550618489
 20
-4.749240451388888
 10
4.643172370062933
 20
-4.697184244791666
 10
4.544227600097656
 20
-4.694288465711805
 10
4.473955790201822
 20
-4.692274305555555
 10
4.4116456773546
 20
-4.740919325086805
 10
4.400754292805989
 20
-4.807569715711805
 10
4.399343702528211
 20
-4.816175672743055
 10
4.399642096625433
 20
-4.824022081163193
 10
4.399913363986544
 20
-4.830946180555555
 10
4.400008307562933
 20
-4.833475748697916
 10
4.400116814507378
 20
-4.836140950520833
 10
4.400116814507378
 20
-4.838975694444443
 10
4.400116814507378
 20
-4.838975694444443
 10
4.400116814507378
 20
-4.894036187065972
 10
4.400116814507378
 20
-4.894036187065972
 10
4.400116814507378
 20
-4.894036187065972
 10
4.454139709472656
 20
-4.868272569444443
 10
4.454139709472656
 20
-4.868272569444443
 10
4.457462734646266
 20
-4.866719563802083
 10
4.460026211208766
 20
-4.865498860677083
 10
4.462454054090711
 20
-4.864189995659722
 10
4.467296176486544
 20
-4.861592610677083
 10
4.4719484117296
 20
-4.861104329427083
 10
4.478011237250433
 20
-4.86251491970486
 10
4.498179965549044
 20
-4.86727566189236
 10
4.514727274576822
 20
-4.88232421875
 10
4.522268507215711
 20
-4.90277099609375
 10
4.529389275444878
 20
-4.92208523220486
 10
4.526974995930989
 20
-4.942009819878472
 10
4.515663146972656
 20
-4.957431369357638
 10
4.494612799750433
 20
-4.986117892795138
 10
4.4710939195421
 20
-5.014390733506943
 10
4.448334587944878
 20
-5.041734483506943
 10
4.439789666069878
 20
-5.052008734809027
 10
4.431231180826822
 20
-5.06228298611111
 10
4.422767639160156
 20
-5.072618272569443
 10
4.422767639160156
 20
-5.072618272569443
 10
4.411832173665364
 20
-5.085976494683159
 10
4.411832173665364
 20
-5.085976494683159
 10
4.396291097005208
 20
-5.08466084798177
 10
4.380530463324652
 20
-5.085581461588541
 10
4.365299648708766
 20
-5.089213053385416
 10
4.3603761461046
 20
-5.035407172309027
 10
4.328814188639322
 20
-4.98828125
 10
4.280637105305989
 20
-4.966349283854166
 10
4.236800299750433
 20
-4.94637722439236
 10
4.191647847493489
 20
-4.948886447482638
 10
4.151608784993489
 20
-4.972405327690972
 10
4.135454813639322
 20
-4.925021701388888
 10
4.098074171278211
 20
-4.889017740885416
 10
4.048649258083766
 20
-4.8759765625
 10
4.00289323594835
 20
-4.863911946614583
 10
3.956581115722656
 20
-4.87649197048611
 10
3.920550028483072
 20
-4.909091525607638
 10
3.893857320149739
 20
-4.868577745225693
 10
3.849464416503906
 20
-4.84326171875
 10
3.800921122233072
 20
-4.84326171875
 10
3.800893995496961
 20
-4.84326171875
 10
3.80086686876085
 20
-4.84326171875
 10
3.800839742024739
 20
-4.84326171875
 10
3.751279195149739
 20
-4.84328884548611
 10
3.707293192545572
 20
-4.867994520399305
 10
3.680580139160156
 20
-4.90863037109375
 10
3.644867791069878
 20
-4.877061631944443
 10
3.5957277086046
 20
-4.86410183376736
 10
3.5503175523546
 20
-4.876634385850693
 10
3.501970926920572
 20
-4.8900146484375
 10
3.465526156955295
 20
-4.925408257378472
 10
3.449412875705295
 20
-4.971815321180555
 10
3.41927507188585
 20
-4.954074435763888
 10
3.385515848795572
 20
-4.948825412326388
 10
3.349973042805989
 20
-4.956651475694443
 10
3.286076015896266
 20
-4.970750596788193
 10
3.240971035427516
 20
-5.025363498263888
 10
3.235145568847656
 20
-5.089192708333333
 10
3.217796325683593
 20
-5.084648132324218
 10
3.2005861070421
 20
-5.08364020453559
 10
3.183688693576388
 20
-5.085756937662759
 10
3.183688693576388
 20
-5.085756937662759
 10
3.160357157389322
 20
-5.056498209635416
 10
3.160357157389322
 20
-5.056498209635416
 10
3.13521745469835
 20
-5.024970160590277
 10
3.110667758517795
 20
-4.99404568142361
 10
3.086653815375433
 20
-4.962314181857638
 10
3.076800028483072
 20
-4.949286566840277
 10
3.06783464219835
 20
-4.92989773220486
 10
3.086158752441406
 20
-4.895338270399305
 10
3.099057515462239
 20
-4.871012369791666
 10
3.124312506781683
 20
-4.862582736545138
 10
3.15035417344835
 20
-4.873786078559027
 10
3.156688266330295
 20
-4.876546223958333
 10
3.162127176920572
 20
-4.876851399739583
 10
3.165477328830295
 20
-4.87704128689236
 10
3.165477328830295
 20
-4.87704128689236
 10
3.200118170844183
 20
-4.880730523003472
 10
3.200118170844183
 20
-4.880730523003472
 10
3.200118170844183
 20
-4.880730523003472
 10
3.203685336642795
 20
-4.8460693359375
 10
3.203685336642795
 20
-4.8460693359375
 10
3.203685336642795
 20
-4.8460693359375
 10
3.204024420844183
 20
-4.843343098958333
 10
3.204024420844183
 20
-4.843343098958333
 10
3.204594082302516
 20
-4.839063856336805
 10
3.204933166503906
 20
-4.835306803385416
 10
3.204845004611545
 20
-4.83160400390625
 10
3.203624301486545
 20
-4.78042263454861
 10
3.178240458170572
 20
-4.739359537760416
 10
3.133366054958766
 20
-4.715983072916666
 10
3.076427035861545
 20
-4.686326768663193
 10
3.014232211642795
 20
-4.690165201822916
 10
2.953488667805989
 20
-4.727084689670138
 10
2.902782016330295
 20
-4.757921006944443
 10
2.871308220757378
 20
-4.806979709201388
 10
2.859731886121961
 20
-4.87344021267361
 10
2.745073954264322
 20
-4.891011555989583
 10
2.674442715115017
 20
-4.980692545572916
 10
2.682750278049045
 20
-5.100592719184027
 10
2.686269972059461
 20
-5.151421440972222
 10
2.712833828396267
 20
-5.192708333333333
 10
2.757565816243489
 20
-5.216851128472222
 10
2.776412116156683
 20
-5.227030436197916
 10
2.7972657945421
 20
-5.231085883246527
 10
2.817916022406683
 20
-5.228522406684027
 10
2.817916022406683
 20
-5.228522406684027
 10
2.853546990288628
 20
-5.224127875434027
 10
2.853546990288628
 20
-5.224127875434027
 10
2.853546990288628
 20
-5.224127875434027
 10
2.847972446017795
 20
-5.188666449652777
 10
2.847972446017795
 20
-5.188666449652777
 10
2.847056918674045
 20
-5.182847764756943
 10
2.845815870496961
 20
-5.17721218532986
 10
2.844588385687933
 20
-5.171746148003472
 10
2.843252393934461
 20
-5.165791829427083
 10
2.841584099663628
 20
-5.15838623046875
 10
2.841957092285156
 20
-5.155531141493055
 10
2.84517839219835
 20
-5.13079833984375
 10
2.856686909993489
 20
-5.11452907986111
 10
2.877147250705295
 20
-5.105794270833333
 10
2.906532287597656
 20
-5.093234592013888
 10
2.922136942545572
 20
-5.10260009765625
 10
2.933536953396267
 20
-5.113410101996527
 10
2.962481180826822
 20
-5.140875922309027
 10
2.991221957736545
 20
-5.16854519314236
 10
3.019942389594183
 20
-5.196241590711805
 10
3.019942389594183
 20
-5.196241590711805
 10
3.055770026312933
 20
-5.230794270833333
 10
3.055770026312933
 20
-5.230794270833333
 10
3.055770026312933
 20
-5.230794270833333
 10
3.056913587782117
 20
-5.228196038140191
 10
3.056913587782117
 20
-5.228196038140191
 10
3.056464301215277
 20
-5.240473429361978
 10
3.057354397243923
 20
-5.252916971842447
 10
3.059811909993489
 20
-5.26528591579861
 10
3.009186638726128
 20
-5.264560275607638
 10
2.968082851833767
 20
-5.288899739583333
 10
2.939158969455295
 20
-5.336717393663193
 10
2.918251037597656
 20
-5.37127685546875
 10
2.903066847059461
 20
-5.421502007378472
 10
2.930926005045572
 20
-5.480380588107638
 10
2.918705410427517
 20
-5.484225802951388
 10
2.907101949055989
 20
-5.489759657118055
 10
2.896217346191406
 20
-5.496961805555555
 10
2.855506896972656
 20
-5.52389187282986
 10
2.83052995469835
 20
-5.567070855034722
 10
2.827688429090711
 20
-5.615437825520833
 10
2.825477600097656
 20
-5.653157552083333
 10
2.836904737684461
 20
-5.689439561631943
 10
2.859630160861545
 20
-5.7188720703125
 10
2.815922207302517
 20
-5.747083875868055
 10
2.792355855305989
 20
-5.790757921006943
 10
2.792193094889322
 20
-5.845703125
 10
2.792023552788628
 20
-5.900770399305555
 10
2.815711975097656
 20
-5.94482421875
 10
2.859955681694878
 20
-5.9736328125
 10
2.820391337076822
 20
-6.023722330729166
 10
2.823259989420572
 20
-6.075547960069443
 10
2.834938049316406
 20
-6.113471137152777
 10
2.846507602267795
 20
-6.151055230034722
 10
2.87264421251085
 20
-6.1942138671875
 10
2.931312561035156
 20
-6.211561414930555
 10
2.903263515896267
 20
-6.270236545138888
 10
2.918061150444878
 20
-6.320353190104166
 10
2.938663906521267
 20
-6.35488552517361
 10
2.945323520236545
 20
-6.366047329372829
 10
2.952736748589409
 20
-6.375814649793836
 10
2.960713704427083
 20
-6.384441799587673
 10
2.934377882215711
 20
-6.403128729926215
 10
2.907149420844183
 20
-6.422434488932291
 10
2.879751417371961
 20
-6.439371744791666
 10
2.857805887858072
 20
-6.452921549479166
 10
2.831581115722656
 20
-6.448459201388888
 10
2.812911139594183
 20
-6.427951388888888
 10
2.794790479871961
 20
-6.408040364583333
 10
2.791948954264322
 20
-6.385308159722221
 10
2.804698520236545
 20
-6.362250434027777
 10
2.808096143934461
 20
-6.35610622829861
 10
2.809038798014322
 20
-6.3505859375
 10
2.809710184733072
 20
-6.3466796875
 10
2.809710184733072
 20
-6.3466796875
 10
2.818302578396267
 20
-6.309095594618055
 10
2.818302578396267
 20
-6.309095594618055
 10
2.818302578396267
 20
-6.309095594618055
 10
2.780026753743489
 20
-6.30447048611111
 10
2.780026753743489
 20
-6.30447048611111
 10
2.778372022840711
 20
-6.304280598958333
 10
2.776791890462239
 20
-6.304036458333333
 10
2.775259229871961
 20
-6.303792317708333
 10
2.770545959472656
 20
-6.303073459201388
 10
2.764849344889322
 20
-6.302056206597221
 10
2.758901807996961
 20
-6.30227322048611
 10
2.726349724663628
 20
-6.30239529079861
 10
2.680559794108072
 20
-6.314141167534721
 10
2.647288852267795
 20
-6.369479709201388
 10
2.624678717719183
 20
-6.407077365451388
 10
2.624129401312933
 20
-6.447238498263888
 10
2.625384012858072
 20
-6.481920030381943
 10
2.628734164767795
 20
-6.574503580729166
 10
2.698951721191406
 20
-6.641303168402777
 10
2.771346198187933
 20
-6.663831922743055
 10
2.7746827867296
 20
-6.775078667534721
 10
2.840560065375433
 20
-6.853976779513888
 10
2.945716857910156
 20
-6.871148003472221
 10
2.953366597493489
 20
-6.872395833333333
 10
2.961036682128906
 20
-6.872992621527777
 10
2.9686525132921
 20
-6.872992621527777
 10
3.017100863986545
 20
-6.872992621527777
 10
3.063385857476128
 20
-6.84841579861111
 10
3.088539123535156
 20
-6.807685004340277
 10
3.10042741563585
 20
-6.788438585069443
 10
3.106239318847656
 20
-6.767632378472221
 10
3.106307135687933
 20
-6.744086371527777
 10
3.106307135687933
 20
-6.744086371527777
 10
3.106435987684461
 20
-6.696994357638888
 10
3.106435987684461
 20
-6.696994357638888
 10
3.106435987684461
 20
-6.696994357638888
 10
3.057587517632378
 20
-6.711927625868055
 10
3.057587517632378
 20
-6.711927625868055
 10
3.054027133517795
 20
-6.712972005208333
 10
3.051260206434461
 20
-6.713826497395833
 10
3.048601786295572
 20
-6.714857313368055
 10
3.042830573187933
 20
-6.717095269097221
 10
3.038117302788628
 20
-6.716905381944443
 10
3.0323732164171
 20
-6.714219835069443
 10
3.0323732164171
 20
-6.714219835069443
 10
3.032359653049045
 20
-6.714219835069443
 10
3.032359653049045
 20
-6.714219835069443
 10
3.002927144368489
 20
-6.700493706597221
 10
2.995277404785156
 20
-6.676283094618055
 10
2.993337843153211
 20
-6.663072374131943
 10
2.990475972493489
 20
-6.64358181423611
 10
2.996315002441406
 20
-6.623575846354166
 10
3.007857428656683
 20
-6.613294813368055
 10
3.025238884819878
 20
-6.597819010416666
 10
3.042206658257378
 20
-6.581882052951388
 10
3.059181213378906
 20
-6.56594509548611
 10
3.06698015001085
 20
-6.55862087673611
 10
3.074785868326822
 20
-6.55129665798611
 10
3.082625495062933
 20
-6.544013129340277
 10
3.082625495062933
 20
-6.544013129340277
 10
3.082908630371093
 20
-6.5437503390842
 10
3.082908630371093
 20
-6.5437503390842
 10
3.095147026909721
 20
-6.561431884765625
 10
3.111302693684895
 20
-6.576554192437065
 10
3.131670633951822
 20
-6.588392469618055
 10
3.165009392632378
 20
-6.6077880859375
 10
3.200260586208766
 20
-6.61282009548611
 10
3.235430399576822
 20
-6.603556315104166
 10
3.240530225965711
 20
-6.655232747395833
 10
3.271183437771266
 20
-6.7020263671875
 10
3.317699008517795
 20
-6.72475857204861
 10
3.361773173014322
 20
-6.746256510416666
 10
3.408736334906683
 20
-6.744004991319443
 10
3.449663798014322
 20
-6.719984266493055
 10
3.465017530653211
 20
-6.767415364583333
 10
3.4969728257921
 20
-6.798787434895833
 10
3.545156690809461
 20
-6.813585069444443
 10
3.582571241590711
 20
-6.825086805555555
 10
3.6329591539171
 20
-6.826673719618055
 10
3.680268181694878
 20
-6.783311631944443
 10
3.69820573594835
 20
-6.810980902777777
 10
3.723555670844183
 20
-6.830810546875
 10
3.754941304524739
 20
-6.841444227430555
 10
3.770111931694878
 20
-6.846571180555555
 10
3.785506354437933
 20
-6.84902615017361
 10
3.800636291503906
 20
-6.84902615017361
 10
3.848196241590711
 20
-6.84902615017361
 10
3.893138461642795
 20
-6.824842664930555
 10
3.920204162597656
 20
-6.784016927083333
 10
3.9629152086046
 20
-6.822686089409721
 10
4.023692660861544
 20
-6.831949869791666
 10
4.077017042371961
 20
-6.805419921875
 10
4.113285488552516
 20
-6.787367078993055
 10
4.138431972927516
 20
-6.758368598090277
 10
4.151195102267794
 20
-6.720377604166666
 10
4.181258307562933
 20
-6.738091362847221
 10
4.214536031087239
 20
-6.743584526909721
 10
4.249210781521266
 20
-6.7362060546875
 10
4.314450581868489
 20
-6.722330729166666
 10
4.3595216539171
 20
-6.668443467881943
 10
4.365435282389322
 20
-6.603352864583333
 10
4.399085998535156
 20
-6.612060546875
 10
4.433197869194878
 20
-6.607774522569443
 10
4.465709262424044
 20
-6.590549045138888
 10
4.486897786458333
 20
-6.579338073730468
 10
4.50413852267795
 20
-6.563452826605902
 10
4.517065260145399
 20
-6.54476081000434
 10
4.540843539767794
 20
-6.568431430392794
 10
4.562714470757378
 20
-6.590687221950954
 10
4.583710564507378
 20
-6.612616644965277
 10
4.594167921278211
 20
-6.62353515625
 10
4.604801601833766
 20
-6.640462239583333
 10
4.594059414333766
 20
-6.674736870659721
 10
4.5849855211046
 20
-6.703653971354166
 10
4.5592286851671
 20
-6.717502170138888
 10
4.529769049750433
 20
-6.70901150173611
 10
4.522377014160156
 20
-6.706976996527777
 10
4.516232808430989
 20
-6.707750108506943
 10
4.513506571451822
 20
-6.7081298828125
 10
4.513506571451822
 20
-6.7081298828125
 10
4.481266445583766
 20
-6.710435655381943
 10
4.481266445583766
 20
-6.710435655381943
 10
4.481266445583766
 20
-6.710435655381943
 10
4.481266445583766
 20
-6.742757161458333
 10
4.481266445583766
 20
-6.742757161458333
 10
4.481266445583766
 20
-6.742757161458333
 10
4.481212192111544
 20
-6.744913736979166
 10
4.481212192111544
 20
-6.744913736979166
 10
4.481117248535156
 20
-6.748006184895833
 10
4.480968051486544
 20
-6.752237955729166
 10
4.481578403049044
 20
-6.757175021701388
 10
4.487546284993489
 20
-6.805501302083333
 10
4.515351189507378
 20
-6.842420789930555
 10
4.559866163465711
 20
-6.861151801215277
 10
4.581865946451822
 20
-6.870402018229166
 10
4.604055616590711
 20
-6.875
 10
4.6261232164171
 20
-6.875
 10
4.6670167711046
 20
-6.875
 10
4.707530551486544
 20
-6.859225802951388
 10
4.7457521226671
 20
-6.828016493055555
 10
4.790945265028211
 20
-6.791110568576388
 10
4.815711975097656
 20
-6.739325629340277
 10
4.819509718153211
 20
-6.673475477430555
 10
4.872962951660156
 20
-6.659288194444443
 10
4.916053771972656
 20
-6.627617730034721
 10
4.944767422146266
 20
-6.581190321180555
 10
4.972789340549044
 20
-6.535861545138888
 10
4.980832417805989
 20
-6.482666015625
 10
4.968679640028211
 20
-6.423109266493055
 97
        0
 97
        1
330
94
 75
     2
 76
     1
 98
        1
 10
0.0
 20
0.0
450
        0
451
        0
460
0.0
461
0.0
452
        0
462
0.0
453
        0
470

  0
ENDSEC
  0
SECTION
  2
OBJECTS
  0
DICTIONARY
  5
C
330
0
100
AcDbDictionary
281
     1
  3
ACAD_COLOR
350
63
  3
ACAD_DETAILVIEWSTYLE
350
6A
  3
ACAD_GROUP
350
D
  3
ACAD_LAYOUT
350
62
  3
ACAD_MATERIAL
350
10
  3
ACAD_MLEADERSTYLE
350
66
  3
ACAD_MLINESTYLE
350
5F
  3
ACAD_PLOTSETTINGS
350
61
  3
ACAD_PLOTSTYLENAME
350
E
  3
ACAD_SCALELIST
350
42
  3
ACAD_SECTIONVIEWSTYLE
350
68
  3
ACAD_TABLESTYLE
350
64
  3
ACAD_VISUALSTYLE
350
29
  3
ACDB_RECOMPOSE_DATA
350
9E
  3
AcDbVariableDictionary
350
96
  0
DICTIONARY
  5
63
102
{ACAD_REACTORS
330
C
102
}
330
C
100
AcDbDictionary
281
     1
  0
DICTIONARY
  5
6A
102
{ACAD_REACTORS
330
C
102
}
330
C
100
AcDbDictionary
281
     1
  3
Imperial24
350
6B
  0
DICTIONARY
  5
D
102
{ACAD_REACTORS
330
C
102
}
330
C
100
AcDbDictionary
281
     1
  0
DICTIONARY
  5
62
102
{ACAD_REACTORS
330
C
102
}
330
C
100
AcDbDictionary
281
     1
  3
Layout1
350
6F
  3
Layout2
350
77
  3
Model
350
73
  0
DICTIONARY
  5
10
102
{ACAD_REACTORS
330
C
102
}
330
C
100
AcDbDictionary
281
     1
  3
ByBlock
350
19
  3
ByLayer
350
11
  3
Global
350
21
  0
DICTIONARY
  5
66
102
{ACAD_REACTORS
330
C
102
}
330
C
100
AcDbDictionary
281
     1
  3
Standard
350
67
  0
DICTIONARY
  5
5F
102
{ACAD_REACTORS
330
C
102
}
330
C
100
AcDbDictionary
281
     1
  3
Standard
350
60
  0
DICTIONARY
  5
61
102
{ACAD_REACTORS
330
C
102
}
330
C
100
AcDbDictionary
281
     1
  0
ACDBDICTIONARYWDFLT
  5
E
102
{ACAD_REACTORS
330
C
102
}
330
C
100
AcDbDictionary
281
     1
  3
Normal
350
F
100
AcDbDictionaryWithDefault
340
F
  0
DICTIONARY
  5
42
102
{ACAD_REACTORS
330
C
102
}
330
C
100
AcDbDictionary
281
     1
  3
A0
350
43
  3
A1
350
44
  3
A2
350
45
  3
A3
350
46
  3
A4
350
47
  3
A5
350
48
  3
A6
350
49
  3
A7
350
4A
  3
A8
350
4B
  3
A9
350
4C
  3
B0
350
4D
  3
B1
350
4E
  3
B2
350
4F
  3
B3
350
50
  3
B4
350
51
  3
B5
350
52
  3
B6
350
53
  0
DICTIONARY
  5
68
102
{ACAD_REACTORS
330
C
102
}
330
C
100
AcDbDictionary
281
     1
  3
Imperial24
350
69
  0
DICTIONARY
  5
64
102
{ACAD_REACTORS
330
C
102
}
330
C
100
AcDbDictionary
281
     1
  3
Standard
350
65
  0
DICTIONARY
  5
29
102
{ACAD_REACTORS
330
C
102
}
330
C
100
AcDbDictionary
281
     1
  3
2dWireframe
350
2F
  3
Basic
350
2E
  3
Brighten
350
35
  3
ColorChange
350
39
  3
Conceptual
350
32
  3
Dim
350
34
  3
EdgeColorOff
350
41
  3
Facepattern
350
38
  3
Flat
350
2A
  3
FlatWithEdges
350
2B
  3
Gouraud
350
2C
  3
GouraudWithEdges
350
2D
  3
Hidden
350
31
  3
JitterOff
350
3F
  3
Linepattern
350
37
  3
OverhangOff
350
40
  3
Realistic
350
33
  3
Shaded
350
3E
  3
Shaded with edges
350
3D
  3
Shades of Gray
350
3A
  3
Sketchy
350
3B
  3
Thicken
350
36
  3
Wireframe
350
30
  3
X-Ray
350
3C
  0
XRECORD
  5
9E
102
{ACAD_REACTORS
330
C
102
}
330
C
100
AcDbXrecord
280
     1
 90
        1
330
65
  0
DICTIONARY
  5
96
102
{ACAD_REACTORS
330
C
102
}
330
C
100
AcDbDictionary
281
     1
  3
CANNOSCALE
350
9B
  3
CMLEADERSTYLE
350
98
  3
CTABLESTYLE
350
97
  3
CVIEWDETAILSTYLE
350
99
  3
CVIEWSECTIONSTYLE
350
9A
  0
ACDBDETAILVIEWSTYLE
  5
6B
102
{ACAD_REACTORS
330
6A
102
}
330
6A
100
AcDbModelDocViewStyle
 70
     0
  3
Imperial24
290
     1
300
Imperial24
 90
        0
100
AcDbDetailViewStyle
 70
     0
 71
     0
 90
        3
 71
     1
340
55
 62
   256
 40
0.24
340
0
 62
   256
 40
0.24
300

 40
0.36
280
     3
 71
     2
340
5D
 90
       25
 62
   256
 71
     3
340
55
 62
   256
 40
0.24
 90
        1
 40
0.75
 90
        1
300
%<\AcVar ViewType \f "%tc1">% %<\AcVar ViewDetailId>%\PSCALE %<\AcVar ViewScale \f "%sn">%
 71
     4
340
5D
 90
       25
 62
   256
340
5D
 90
       25
 62
   256
280
     0
  0
LAYOUT
  5
6F
102
{ACAD_REACTORS
330
62
102
}
330
62
100
AcDbPlotSettings
  1

  2

  4

  6

 40
0.0
 41
0.0
 42
0.0
 43
0.0
 44
0.0
 45
0.0
 46
0.0
 47
0.0
 48
0.0
 49
0.0
140
0.0
141
0.0
142
1.0
143
1.0
 70
   688
 72
     0
 73
     0
 74
     5
  7

 75
    16
147
1.0
 76
     0
 77
     2
 78
   300
148
0.0
149
0.0
100
AcDbLayout
  1
Layout1
 70
     1
 71
     1
 10
0.0
 20
0.0
 11
12.0
 21
9.0
 12
0.0
 22
0.0
 32
0.0
 14
0.0
 24
0.0
 34
0.0
 15
0.0
 25
0.0
 35
0.0
146
0.0
 13
0.0
 23
0.0
 33
0.0
 16
1.0
 26
0.0
 36
0.0
 17
0.0
 27
1.0
 37
0.0
 76
     0
330
6C
  0
LAYOUT
  5
77
102
{ACAD_REACTORS
330
62
102
}
330
62
100
AcDbPlotSettings
  1

  2

  4

  6

 40
0.0
 41
0.0
 42
0.0
 43
0.0
 44
0.0
 45
0.0
 46
0.0
 47
0.0
 48
0.0
 49
0.0
140
0.0
141
0.0
142
1.0
143
1.0
 70
   688
 72
     0
 73
     0
 74
     5
  7

 75
    16
147
1.0
 76
     0
 77
     2
 78
   300
148
0.0
149
0.0
100
AcDbLayout
  1
Layout2
 70
     1
 71
     2
 10
0.0
 20
0.0
 11
12.0
 21
9.0
 12
0.0
 22
0.0
 32
0.0
 14
0.0
 24
0.0
 34
0.0
 15
0.0
 25
0.0
 35
0.0
146
0.0
 13
0.0
 23
0.0
 33
0.0
 16
1.0
 26
0.0
 36
0.0
 17
0.0
 27
1.0
 37
0.0
 76
     0
330
74
  0
LAYOUT
  5
73
102
{ACAD_REACTORS
330
62
102
}
330
62
100
AcDbPlotSettings
  1

  2

  4

  6

 40
0.0
 41
0.0
 42
0.0
 43
0.0
 44
0.0
 45
0.0
 46
0.0
 47
0.0
 48
0.0
 49
0.0
140
0.0
141
0.0
142
1.0
143
1.0
 70
  1712
 72
     0
 73
     0
 74
     0
  7

 75
     0
147
1.0
 76
     0
 77
     2
 78
   300
148
0.0
149
0.0
100
AcDbLayout
  1
Model
 70
     1
 71
     0
 10
0.0
 20
0.0
 11
12.0
 21
9.0
 12
0.0
 22
0.0
 32
0.0
 14
0.0
 24
0.0
 34
0.0
 15
0.0
 25
0.0
 35
0.0
146
0.0
 13
0.0
 23
0.0
 33
0.0
 16
1.0
 26
0.0
 36
0.0
 17
0.0
 27
1.0
 37
0.0
 76
     0
330
70
  0
MATERIAL
  5
19
102
{ACAD_XDICTIONARY
360
1A
102
}
102
{ACAD_REACTORS
330
10
102
}
330
10
100
AcDbMaterial
  1
ByBlock
 72
     0
 43
0.0208333333333333
 43
0.0
 43
0.0
 43
0.0
 43
0.0
 43
0.0208333333333333
 43
0.0
 43
0.0
 43
0.0
 43
0.0
 43
1.0
 43
0.0
 43
0.0
 43
0.0
 43
0.0
 43
1.0
 77
     0
 47
0.0208333333333333
 47
0.0
 47
0.0
 47
0.0
 47
0.0
 47
0.0208333333333333
 47
0.0
 47
0.0
 47
0.0
 47
0.0
 47
1.0
 47
0.0
 47
0.0
 47
0.0
 47
0.0
 47
1.0
171
     0
 49
0.0208333333333333
 49
0.0
 49
0.0
 49
0.0
 49
0.0
 49
0.0208333333333333
 49
0.0
 49
0.0
 49
0.0
 49
0.0
 49
1.0
 49
0.0
 49
0.0
 49
0.0
 49
0.0
 49
1.0
175
     0
142
0.0208333333333333
142
0.0
142
0.0
142
0.0
142
0.0
142
0.0208333333333333
142
0.0
142
0.0
142
0.0
142
0.0
142
1.0
142
0.0
142
0.0
142
0.0
142
0.0
142
1.0
179
     0
144
0.0208333333333333
144
0.0
144
0.0
144
0.0
144
0.0
144
0.0208333333333333
144
0.0
144
0.0
144
0.0
144
0.0
144
1.0
144
0.0
144
0.0
144
0.0
144
0.0
144
1.0
147
0.0208333333333333
147
0.0
147
0.0
147
0.0
147
0.0
147
0.0208333333333333
147
0.0
147
0.0
147
0.0
147
0.0
147
1.0
147
0.0
147
0.0
147
0.0
147
0.0
147
1.0
  0
MATERIAL
  5
11
102
{ACAD_XDICTIONARY
360
12
102
}
102
{ACAD_REACTORS
330
10
102
}
330
10
100
AcDbMaterial
  1
ByLayer
 72
     0
 43
0.0208333333333333
 43
0.0
 43
0.0
 43
0.0
 43
0.0
 43
0.0208333333333333
 43
0.0
 43
0.0
 43
0.0
 43
0.0
 43
1.0
 43
0.0
 43
0.0
 43
0.0
 43
0.0
 43
1.0
 77
     0
 47
0.0208333333333333
 47
0.0
 47
0.0
 47
0.0
 47
0.0
 47
0.0208333333333333
 47
0.0
 47
0.0
 47
0.0
 47
0.0
 47
1.0
 47
0.0
 47
0.0
 47
0.0
 47
0.0
 47
1.0
171
     0
 49
0.0208333333333333
 49
0.0
 49
0.0
 49
0.0
 49
0.0
 49
0.0208333333333333
 49
0.0
 49
0.0
 49
0.0
 49
0.0
 49
1.0
 49
0.0
 49
0.0
 49
0.0
 49
0.0
 49
1.0
175
     0
142
0.0208333333333333
142
0.0
142
0.0
142
0.0
142
0.0
142
0.0208333333333333
142
0.0
142
0.0
142
0.0
142
0.0
142
1.0
142
0.0
142
0.0
142
0.0
142
0.0
142
1.0
179
     0
144
0.0208333333333333
144
0.0
144
0.0
144
0.0
144
0.0
144
0.0208333333333333
144
0.0
144
0.0
144
0.0
144
0.0
144
1.0
144
0.0
144
0.0
144
0.0
144
0.0
144
1.0
147
0.0208333333333333
147
0.0
147
0.0
147
0.0
147
0.0
147
0.0208333333333333
147
0.0
147
0.0
147
0.0
147
0.0
147
1.0
147
0.0
147
0.0
147
0.0
147
0.0
147
1.0
  0
MATERIAL
  5
21
102
{ACAD_XDICTIONARY
360
22
102
}
102
{ACAD_REACTORS
330
10
102
}
330
10
100
AcDbMaterial
  1
Global
 72
     0
 43
0.0208333333333333
 43
0.0
 43
0.0
 43
0.0
 43
0.0
 43
0.0208333333333333
 43
0.0
 43
0.0
 43
0.0
 43
0.0
 43
1.0
 43
0.0
 43
0.0
 43
0.0
 43
0.0
 43
1.0
 77
     0
 47
0.0208333333333333
 47
0.0
 47
0.0
 47
0.0
 47
0.0
 47
0.0208333333333333
 47
0.0
 47
0.0
 47
0.0
 47
0.0
 47
1.0
 47
0.0
 47
0.0
 47
0.0
 47
0.0
 47
1.0
171
     0
 49
0.0208333333333333
 49
0.0
 49
0.0
 49
0.0
 49
0.0
 49
0.0208333333333333
 49
0.0
 49
0.0
 49
0.0
 49
0.0
 49
1.0
 49
0.0
 49
0.0
 49
0.0
 49
0.0
 49
1.0
175
     0
142
0.0208333333333333
142
0.0
142
0.0
142
0.0
142
0.0
142
0.0208333333333333
142
0.0
142
0.0
142
0.0
142
0.0
142
1.0
142
0.0
142
0.0
142
0.0
142
0.0
142
1.0
179
     0
144
0.0208333333333333
144
0.0
144
0.0
144
0.0
144
0.0
144
0.0208333333333333
144
0.0
144
0.0
144
0.0
144
0.0
144
1.0
144
0.0
144
0.0
144
0.0
144
0.0
144
1.0
147
0.0208333333333333
147
0.0
147
0.0
147
0.0
147
0.0
147
0.0208333333333333
147
0.0
147
0.0
147
0.0
147
0.0
147
1.0
147
0.0
147
0.0
147
0.0
147
0.0
147
1.0
  0
MLEADERSTYLE
  5
67
102
{ACAD_REACTORS
330
66
102
}
330
66
100
AcDbMLeaderStyle
179
     2
170
     2
171
     1
172
     0
 90
        2
 40
0.0
 41
0.0
173
     1
 91
-1056964608
340
5B
 92
       -2
290
     1
 42
0.09
291
     1
 43
0.36
  3
Standard
 44
0.18
300

342
55
174
     1
178
     6
175
     1
176
     0
 93
-1056964608
 45
0.18
292
     0
297
     0
 46
0.18
 94
-1056964608
 47
1.0
 49
1.0
140
1.0
293
     1
141
0.0
294
     1
177
     0
142
1.0
295
     1
296
     0
143
0.125
271
     0
272
     9
273
     9
298
     1
  0
MLINESTYLE
  5
60
102
{ACAD_REACTORS
330
5F
102
}
330
5F
100
AcDbMlineStyle
  2
STANDARD
 70
     0
  3

 62
   256
 51
90.0
 52
90.0
 71
     2
 49
0.5
 62
   256
  6
BYLAYER
 49
-0.5
 62
   256
  6
BYLAYER
  0
ACDBPLACEHOLDER
  5
F
102
{ACAD_REACTORS
330
E
102
}
330
E
  0
SCALE
  5
43
102
{ACAD_REACTORS
330
42
102
}
330
42
100
AcDbScale
 70
     0
300
1:1
140
1.0
141
1.0
290
     1
  0
SCALE
  5
44
102
{ACAD_REACTORS
330
42
102
}
330
42
100
AcDbScale
 70
     0
300
1/128" = 1'-0"
140
0.0078125
141
12.0
290
     0
  0
SCALE
  5
45
102
{ACAD_REACTORS
330
42
102
}
330
42
100
AcDbScale
 70
     0
300
1/64" = 1'-0"
140
0.015625
141
12.0
290
     0
  0
SCALE
  5
46
102
{ACAD_REACTORS
330
42
102
}
330
42
100
AcDbScale
 70
     0
300
1/32" = 1'-0"
140
0.03125
141
12.0
290
     0
  0
SCALE
  5
47
102
{ACAD_REACTORS
330
42
102
}
330
42
100
AcDbScale
 70
     0
300
1/16" = 1'-0"
140
0.0625
141
12.0
290
     0
  0
SCALE
  5
48
102
{ACAD_REACTORS
330
42
102
}
330
42
100
AcDbScale
 70
     0
300
3/32" = 1'-0"
140
0.09375
141
12.0
290
     0
  0
SCALE
  5
49
102
{ACAD_REACTORS
330
42
102
}
330
42
100
AcDbScale
 70
     0
300
1/8" = 1'-0"
140
0.125
141
12.0
290
     0
  0
SCALE
  5
4A
102
{ACAD_REACTORS
330
42
102
}
330
42
100
AcDbScale
 70
     0
300
3/16" = 1'-0"
140
0.1875
141
12.0
290
     0
  0
SCALE
  5
4B
102
{ACAD_REACTORS
330
42
102
}
330
42
100
AcDbScale
 70
     0
300
1/4" = 1'-0"
140
0.25
141
12.0
290
     0
  0
SCALE
  5
4C
102
{ACAD_REACTORS
330
42
102
}
330
42
100
AcDbScale
 70
     0
300
3/8" = 1'-0"
140
0.375
141
12.0
290
     0
  0
SCALE
  5
4D
102
{ACAD_REACTORS
330
42
102
}
330
42
100
AcDbScale
 70
     0
300
1/2" = 1'-0"
140
0.5
141
12.0
290
     0
  0
SCALE
  5
4E
102
{ACAD_REACTORS
330
42
102
}
330
42
100
AcDbScale
 70
     0
300
3/4" = 1'-0"
140
0.75
141
12.0
290
     0
  0
SCALE
  5
4F
102
{ACAD_REACTORS
330
42
102
}
330
42
100
AcDbScale
 70
     0
300
1" = 1'-0"
140
1.0
141
12.0
290
     0
  0
SCALE
  5
50
102
{ACAD_REACTORS
330
42
102
}
330
42
100
AcDbScale
 70
     0
300
1-1/2" = 1'-0"
140
1.5
141
12.0
290
     0
  0
SCALE
  5
51
102
{ACAD_REACTORS
330
42
102
}
330
42
100
AcDbScale
 70
     0
300
3" = 1'-0"
140
3.0
141
12.0
290
     0
  0
SCALE
  5
52
102
{ACAD_REACTORS
330
42
102
}
330
42
100
AcDbScale
 70
     0
300
6" = 1'-0"
140
6.0
141
12.0
290
     0
  0
SCALE
  5
53
102
{ACAD_REACTORS
330
42
102
}
330
42
100
AcDbScale
 70
     0
300
1'-0" = 1'-0"
140
12.0
141
12.0
290
     0
  0
ACDBSECTIONVIEWSTYLE
  5
69
102
{ACAD_REACTORS
330
68
102
}
330
68
100
AcDbModelDocViewStyle
 70
     0
  3
Imperial24
290
     1
300
Imperial24
 90
        0
100
AcDbSectionViewStyle
 70
     0
 71
     0
 90
       78
 71
     1
340
55
 62
   256
 40
0.24
340
0
340
0
 62
   256
 40
0.24
300
I, O, Q, S, X, Z
 40
0.48
 90
        3
 40
0.18
 90
        1
 71
     2
340
5D
 90
       25
 62
   256
340
5D
 90
       50
 62
   256
 40
0.24
 40
0.0
 40
0.24
 71
     3
340
55
 62
   256
 40
0.24
 90
        1
 40
0.75
 90
        1
300
%<\AcVar ViewType \f "%tc1">% %<\AcVar ViewSectionStartId>%-%<\AcVar ViewSectionEndId>%\PSCALE %<\AcVar ViewScale \f "%sn">%
 71
     4
 62
   256
 62
   257
300
ANSI31
 40
1.0
 90
        0
290
     0
290
     0
 90
        6
 40
0.0
 40
1.570796326794896
 40
0.2617993877991494
 40
1.308996938995747
 40
-0.2617993877991494
 40
1.832595714594046
  0
TABLESTYLE
  5
65
102
{ACAD_XDICTIONARY
360
9C
102
}
102
{ACAD_REACTORS
330
64
102
}
330
64
100
AcDbTableStyle
280
     0
  3
Standard
 70
     0
 71
     0
 40
0.06
 41
0.06
280
     0
281
     0
  7
Standard
140
0.18
170
     2
 62
     0
 63
     7
283
     0
 90
      512
 91
        0
  1

274
    -2
284
     1
 64
     0
275
    -2
285
     1
 65
     0
276
    -2
286
     1
 66
     0
277
    -2
287
     1
 67
     0
278
    -2
288
     1
 68
     0
279
    -2
289
     1
 69
     0
  7
Standard
140
0.25
170
     5
 62
     0
 63
     7
283
     0
 90
      512
 91
        0
  1

274
    -2
284
     1
 64
     0
275
    -2
285
     1
 65
     0
276
    -2
286
     1
 66
     0
277
    -2
287
     1
 67
     0
278
    -2
288
     1
 68
     0
279
    -2
289
     1
 69
     0
  7
Standard
140
0.18
170
     5
 62
     0
 63
     7
283
     0
 90
      512
 91
        0
  1

274
    -2
284
     1
 64
     0
275
    -2
285
     1
 65
     0
276
    -2
286
     1
 66
     0
277
    -2
287
     1
 67
     0
278
    -2
288
     1
 68
     0
279
    -2
289
     1
 69
     0
  0
VISUALSTYLE
  5
2F
102
{ACAD_REACTORS
330
29
102
}
330
29
100
AcDbVisualStyle
  2
2dWireframe
 70
     4
177
     3
291
     0
 70
    58
 90
        0
176
     1
 90
        2
176
     1
 90
        0
176
     1
 90
        0
176
     1
 40
0.6
176
     1
 40
30.0
176
     1
 62
     7
420
 16777215
176
     1
 90
        1
176
     1
 90
        4
176
     1
 62
     7
176
     1
 62
   257
176
     1
 90
        1
176
     1
 90
        1
176
     1
 40
1.0
176
     1
 90
        0
176
     1
 62
   257
176
     1
 40
1.0
176
     1
 90
        1
176
     1
 90
        6
176
     1
 90
        2
176
     1
 62
     7
176
     1
 90
        5
176
     1
 90
        0
176
     1
 90
        0
176
     1
290
     0
176
     1
 90
        1
176
     1
 40
0.0
176
     1
 90
        0
176
     1
290
     1
176
     1
290
     1
176
     1
290
     0
176
     1
290
     0
176
     1
290
     0
176
     1
290
     0
176
     1
290
     0
176
     1
290
     0
176
     1
290
     0
176
     1
 90
       50
176
     1
 40
0.0
176
     1
 40
1.0
176
     1
 90
        0
176
     1
 62
    18
420
        0
176
     1
 90
       50
176
     1
 90
        3
176
     1
 62
     5
420
      255
176
     1
290
     0
176
     1
 90
       50
176
     1
 90
       50
176
     1
 90
       50
176
     1
290
     0
176
     1
 90
       50
176
     1
 62
   256
176
     0
 40
1.0
176
     0
 90
        2
176
     1
  1
strokes_ogs.tif
176
     1
290
     0
176
     1
 40
1.0
176
     1
 40
1.0
176
     1
  0
VISUALSTYLE
  5
2E
102
{ACAD_REACTORS
330
29
102
}
330
29
100
AcDbVisualStyle
  2
Basic
 70
     7
177
     3
291
     1
 70
    58
 90
        1
176
     1
 90
        0
176
     1
 90
        1
176
     1
 90
        0
176
     1
 40
0.6
176
     1
 40
30.0
176
     1
 62
     7
420
 16777215
176
     1
 90
        0
176
     1
 90
        4
176
     1
 62
     7
176
     1
 62
   257
176
     1
 90
        1
176
     1
 90
        1
176
     1
 40
1.0
176
     1
 90
        8
176
     1
 62
     7
176
     1
 40
1.0
176
     1
 90
        1
176
     1
 90
        6
176
     1
 90
        2
176
     1
 62
     7
176
     1
 90
        5
176
     1
 90
        0
176
     1
 90
        0
176
     1
290
     0
176
     1
 90
        1
176
     1
 40
0.0
176
     1
 90
        0
176
     1
290
     0
176
     1
290
     1
176
     1
290
     1
176
     1
290
     0
176
     1
290
     0
176
     1
290
     0
176
     1
290
     0
176
     1
290
     0
176
     1
290
     0
176
     1
 90
       50
176
     1
 40
0.0
176
     1
 40
1.0
176
     1
 90
        0
176
     1
 62
    18
420
        0
176
     1
 90
       50
176
     1
 90
        3
176
     1
 62
     5
420
      255
176
     1
290
     0
176
     1
 90
       50
176
     1
 90
       50
176
     1
 90
       50
176
     1
290
     0
176
     1
 90
       50
176
     1
 62
   256
176
     0
 40
1.0
176
     0
 90
        2
176
     1
  1
strokes_ogs.tif
176
     1
290
     0
176
     1
 40
1.0
176
     1
 40
1.0
176
     1
  0
VISUALSTYLE
  5
35
102
{ACAD_REACTORS
330
29
102
}
330
29
100
AcDbVisualStyle
  2
Brighten
 70
    12
177
     3
291
     1
 70
    58
 90
        2
176
     1
 90
        2
176
     1
 90
        0
176
     1
 90
        0
176
     1
 40
0.6
176
     1
 40
30.0
176
     1
 62
     7
420
 16777215
176
     1
 90
        1
176
     1
 90
        4
176
     1
 62
     7
176
     1
 62
   257
176
     1
 90
        1
176
     1
 90
        1
176
     1
 40
1.0
176
     1
 90
        8
176
     1
 62
     7
176
     1
 40
1.0
176
     1
 90
        1
176
     1
 90
        6
176
     1
 90
        2
176
     1
 62
     7
176
     1
 90
        5
176
     1
 90
        0
176
     1
 90
        0
176
     1
290
     0
176
     1
 90
        1
176
     1
 40
50.0
176
     1
 90
        0
176
     1
290
     0
176
     1
290
     1
176
     1
290
     1
176
     1
290
     0
176
     1
290
     0
176
     1
290
     0
176
     1
290
     0
176
     1
290
     0
176
     1
290
     0
176
     1
 90
       50
176
     1
 40
0.0
176
     1
 40
1.0
176
     1
 90
        0
176
     1
 62
    18
420
        0
176
     1
 90
       50
176
     1
 90
        3
176
     1
 62
     5
420
      255
176
     1
290
     0
176
     1
 90
       50
176
     1
 90
       50
176
     1
 90
       50
176
     1
290
     0
176
     1
 90
       50
176
     1
 62
   256
176
     0
 40
1.0
176
     0
 90
        2
176
     1
  1
strokes_ogs.tif
176
     1
290
     0
176
     1
 40
1.0
176
     1
 40
1.0
176
     1
  0
VISUALSTYLE
  5
39
102
{ACAD_REACTORS
330
29
102
}
330
29
100
AcDbVisualStyle
  2
ColorChange
 70
    16
177
     3
291
     1
 70
    58
 90
        2
176
     1
 90
        2
176
     1
 90
        3
176
     1
 90
        0
176
     1
 40
0.6
176
     1
 40
30.0
176
     1
 62
     8
420
  8421504
176
     1
 90
        1
176
     1
 90
        4
176
     1
 62
     7
176
     1
 62
   257
176
     1
 90
        1
176
     1
 90
        1
176
     1
 40
1.0
176
     1
 90
        8
176
     1
 62
     8
420
  8421504
176
     1
 40
1.0
176
     1
 90
        1
176
     1
 90
        6
176
     1
 90
        2
176
     1
 62
     7
176
     1
 90
        5
176
     1
 90
        0
176
     1
 90
        0
176
     1
290
     0
176
     1
 90
        1
176
     1
 40
0.0
176
     1
 90
        0
176
     1
290
     0
176
     1
290
     1
176
     1
290
     1
176
     1
290
     0
176
     1
290
     0
176
     1
290
     0
176
     1
290
     0
176
     1
290
     0
176
     1
290
     0
176
     1
 90
       50
176
     1
 40
0.0
176
     1
 40
1.0
176
     1
 90
        0
176
     1
 62
    18
420
        0
176
     1
 90
       50
176
     1
 90
        3
176
     1
 62
     5
420
      255
176
     1
290
     0
176
     1
 90
       50
176
     1
 90
       50
176
     1
 90
       50
176
     1
290
     0
176
     1
 90
       50
176
     1
 62
   256
176
     0
 40
1.0
176
     0
 90
        2
176
     1
  1
strokes_ogs.tif
176
     1
290
     0
176
     1
 40
1.0
176
     1
 40
1.0
176
     1
  0
VISUALSTYLE
  5
32
102
{ACAD_REACTORS
330
29
102
}
330
29
100
AcDbVisualStyle
  2
Conceptual
 70
     9
177
     3
291
     0
 70
    58
 90
        3
176
     1
 90
        2
176
     1
 90
        0
176
     1
 90
        0
176
     1
 40
0.6
176
     1
 40
30.0
176
     1
 62
     7
420
 16777215
176
     1
 90
        2
176
     1
 90
        2
176
     1
 62
     7
176
     1
 62
   257
176
     1
 90
        1
176
     1
 90
        1
176
     1
 40
179.0
176
     1
 90
        8
176
     1
 62
     7
176
     1
 40
1.0
176
     1
 90
        1
176
     1
 90
        6
176
     1
 90
        2
176
     1
 62
     7
176
     1
 90
        3
176
     1
 90
        0
176
     1
 90
        0
176
     1
290
     0
176
     1
 90
        1
176
     1
 40
0.0
176
     1
 90
        0
176
     1
290
     0
176
     1
290
     1
176
     1
290
     1
176
     1
290
     0
176
     1
290
     0
176
     1
290
     0
176
     1
290
     0
176
     1
290
     0
176
     1
290
     0
176
     1
 90
       50
176
     1
 40
0.0
176
     1
 40
1.0
176
     1
 90
        0
176
     1
 62
    18
420
        0
176
     1
 90
       50
176
     1
 90
        3
176
     1
 62
     5
420
      255
176
     1
290
     0
176
     1
 90
       50
176
     1
 90
       50
176
     1
 90
       50
176
     1
290
     0
176
     1
 90
       50
176
     1
 62
   256
176
     0
 40
1.0
176
     0
 90
        2
176
     1
  1
strokes_ogs.tif
176
     1
290
     0
176
     1
 40
1.0
176
     1
 40
1.0
176
     1
  0
VISUALSTYLE
  5
34
102
{ACAD_REACTORS
330
29
102
}
330
29
100
AcDbVisualStyle
  2
Dim
 70
    11
177
     3
291
     1
 70
    58
 90
        2
176
     1
 90
        2
176
     1
 90
        0
176
     1
 90
        0
176
     1
 40
0.6
176
     1
 40
30.0
176
     1
 62
     7
420
 16777215
176
     1
 90
        1
176
     1
 90
        4
176
     1
 62
     7
176
     1
 62
   257
176
     1
 90
        1
176
     1
 90
        1
176
     1
 40
1.0
176
     1
 90
        8
176
     1
 62
     7
176
     1
 40
1.0
176
     1
 90
        1
176
     1
 90
        6
176
     1
 90
        2
176
     1
 62
     7
176
     1
 90
        5
176
     1
 90
        0
176
     1
 90
        0
176
     1
290
     0
176
     1
 90
        1
176
     1
 40
-50.0
176
     1
 90
        0
176
     1
290
     0
176
     1
290
     1
176
     1
290
     1
176
     1
290
     0
176
     1
290
     0
176
     1
290
     0
176
     1
290
     0
176
     1
290
     0
176
     1
290
     0
176
     1
 90
       50
176
     1
 40
0.0
176
     1
 40
1.0
176
     1
 90
        0
176
     1
 62
    18
420
        0
176
     1
 90
       50
176
     1
 90
        3
176
     1
 62
     5
420
      255
176
     1
290
     0
176
     1
 90
       50
176
     1
 90
       50
176
     1
 90
       50
176
     1
290
     0
176
     1
 90
       50
176
     1
 62
   256
176
     0
 40
1.0
176
     0
 90
        2
176
     1
  1
strokes_ogs.tif
176
     1
290
     0
176
     1
 40
1.0
176
     1
 40
1.0
176
     1
  0
VISUALSTYLE
  5
41
102
{ACAD_REACTORS
330
29
102
}
330
29
100
AcDbVisualStyle
  2
EdgeColorOff
 70
    22
177
     3
291
     1
 70
    58
 90
        2
176
     0
 90
        2
176
     0
 90
        0
176
     0
 90
        0
176
     0
 40
0.6
176
     0
 40
30.0
176
     0
 62
     7
420
 16777215
176
     0
 90
        1
176
     0
 90
        4
176
     0
 62
     7
176
     0
 62
   257
176
     0
 90
        1
176
     0
 90
        1
176
     0
 40
1.0
176
     0
 90
        8
176
     2
 62
     7
176
     0
 40
1.0
176
     0
 90
        1
176
     0
 90
        6
176
     0
 90
        2
176
     0
 62
     7
176
     0
 90
        5
176
     0
 90
        0
176
     0
 90
        0
176
     0
290
     0
176
     0
 90
        1
176
     0
 40
0.0
176
     0
 90
        0
176
     0
290
     0
176
     0
290
     1
176
     0
290
     1
176
     0
290
     0
176
     0
290
     0
176
     0
290
     0
176
     0
290
     0
176
     0
290
     0
176
     0
290
     0
176
     0
 90
       50
176
     0
 40
0.0
176
     0
 40
1.0
176
     0
 90
        0
176
     0
 62
    18
420
        0
176
     0
 90
       50
176
     0
 90
        3
176
     0
 62
     5
420
      255
176
     0
290
     0
176
     0
 90
       50
176
     0
 90
       50
176
     0
 90
       50
176
     0
290
     0
176
     0
 90
       50
176
     0
 62
   256
176
     0
 40
1.0
176
     0
 90
        2
176
     0
  1
strokes_ogs.tif
176
     0
290
     0
176
     0
 40
1.0
176
     0
 40
1.0
176
     0
  0
VISUALSTYLE
  5
38
102
{ACAD_REACTORS
330
29
102
}
330
29
100
AcDbVisualStyle
  2
Facepattern
 70
    15
177
     3
291
     1
 70
    58
 90
        2
176
     1
 90
        2
176
     1
 90
        0
176
     1
 90
        0
176
     1
 40
0.6
176
     1
 40
30.0
176
     1
 62
     7
420
 16777215
176
     1
 90
        1
176
     1
 90
        4
176
     1
 62
     7
176
     1
 62
   257
176
     1
 90
        1
176
     1
 90
        1
176
     1
 40
1.0
176
     1
 90
        8
176
     1
 62
     7
176
     1
 40
1.0
176
     1
 90
        1
176
     1
 90
        6
176
     1
 90
        2
176
     1
 62
     7
176
     1
 90
        5
176
     1
 90
        0
176
     1
 90
        0
176
     1
290
     0
176
     1
 90
        1
176
     1
 40
0.0
176
     1
 90
        0
176
     1
290
     0
176
     1
290
     1
176
     1
290
     1
176
     1
290
     0
176
     1
290
     0
176
     1
290
     0
176
     1
290
     0
176
     1
290
     0
176
     1
290
     0
176
     1
 90
       50
176
     1
 40
0.0
176
     1
 40
1.0
176
     1
 90
        0
176
     1
 62
    18
420
        0
176
     1
 90
       50
176
     1
 90
        3
176
     1
 62
     5
420
      255
176
     1
290
     0
176
     1
 90
       50
176
     1
 90
       50
176
     1
 90
       50
176
     1
290
     0
176
     1
 90
       50
176
     1
 62
   256
176
     0
 40
1.0
176
     0
 90
        2
176
     1
  1
strokes_ogs.tif
176
     1
290
     0
176
     1
 40
1.0
176
     1
 40
1.0
176
     1
  0
VISUALSTYLE
  5
2A
102
{ACAD_REACTORS
330
29
102
}
330
29
100
AcDbVisualStyle
  2
Flat
 70
     0
177
     3
291
     1
 70
    58
 90
        2
176
     1
 90
        1
176
     1
 90
        1
176
     1
 90
        2
176
     1
 40
0.6
176
     1
 40
30.0
176
     1
 62
     7
420
 16777215
176
     1
 90
        0
176
     1
 90
        0
176
     1
 62
     7
176
     1
 62
   257
176
     1
 90
        1
176
     1
 90
        1
176
     1
 40
1.0
176
     1
 90
        8
176
     1
 62
     7
176
     1
 40
1.0
176
     1
 90
        1
176
     1
 90
        6
176
     1
 90
        2
176
     1
 62
     7
176
     1
 90
        5
176
     1
 90
        0
176
     1
 90
        0
176
     1
290
     0
176
     1
 90
       13
176
     1
 40
0.0
176
     1
 90
        0
176
     1
290
     0
176
     1
290
     1
176
     1
290
     1
176
     1
290
     0
176
     1
290
     0
176
     1
290
     0
176
     1
290
     0
176
     1
290
     0
176
     1
290
     0
176
     1
 90
       50
176
     1
 40
0.0
176
     1
 40
1.0
176
     1
 90
        0
176
     1
 62
    18
420
        0
176
     1
 90
       50
176
     1
 90
        3
176
     1
 62
     5
420
      255
176
     1
290
     0
176
     1
 90
       50
176
     1
 90
       50
176
     1
 90
       50
176
     1
290
     0
176
     1
 90
       50
176
     1
 62
   256
176
     0
 40
1.0
176
     0
 90
        2
176
     1
  1
strokes_ogs.tif
176
     1
290
     0
176
     1
 40
1.0
176
     1
 40
1.0
176
     1
  0
VISUALSTYLE
  5
2B
102
{ACAD_REACTORS
330
29
102
}
330
29
100
AcDbVisualStyle
  2
FlatWithEdges
 70
     1
177
     3
291
     1
 70
    58
 90
        2
176
     1
 90
        1
176
     1
 90
        1
176
     1
 90
        2
176
     1
 40
0.6
176
     1
 40
30.0
176
     1
 62
     7
420
 16777215
176
     1
 90
        1
176
     1
 90
        0
176
     1
 62
     7
176
     1
 62
   257
176
     1
 90
        1
176
     1
 90
        1
176
     1
 40
1.0
176
     1
 90
        0
176
     1
 62
   257
176
     1
 40
1.0
176
     1
 90
        1
176
     1
 90
        6
176
     1
 90
        2
176
     1
 62
     7
176
     1
 90
        5
176
     1
 90
        0
176
     1
 90
        0
176
     1
290
     0
176
     1
 90
       13
176
     1
 40
0.0
176
     1
 90
        0
176
     1
290
     0
176
     1
290
     1
176
     1
290
     1
176
     1
290
     0
176
     1
290
     0
176
     1
290
     0
176
     1
290
     0
176
     1
290
     0
176
     1
290
     0
176
     1
 90
       50
176
     1
 40
0.0
176
     1
 40
1.0
176
     1
 90
        0
176
     1
 62
    18
420
        0
176
     1
 90
       50
176
     1
 90
        3
176
     1
 62
     5
420
      255
176
     1
290
     0
176
     1
 90
       50
176
     1
 90
       50
176
     1
 90
       50
176
     1
290
     0
176
     1
 90
       50
176
     1
 62
   256
176
     0
 40
1.0
176
     0
 90
        2
176
     1
  1
strokes_ogs.tif
176
     1
290
     0
176
     1
 40
1.0
176
     1
 40
1.0
176
     1
  0
VISUALSTYLE
  5
2C
102
{ACAD_REACTORS
330
29
102
}
330
29
100
AcDbVisualStyle
  2
Gouraud
 70
     2
177
     3
291
     1
 70
    58
 90
        2
176
     1
 90
        2
176
     1
 90
        1
176
     1
 90
        2
176
     1
 40
0.6
176
     1
 40
30.0
176
     1
 62
     7
420
 16777215
176
     1
 90
        0
176
     1
 90
        0
176
     1
 62
     7
176
     1
 62
   257
176
     1
 90
        1
176
     1
 90
        1
176
     1
 40
1.0
176
     1
 90
        0
176
     1
 62
     7
176
     1
 40
1.0
176
     1
 90
        1
176
     1
 90
        6
176
     1
 90
        2
176
     1
 62
     7
176
     1
 90
        5
176
     1
 90
        0
176
     1
 90
        0
176
     1
290
     0
176
     1
 90
       13
176
     1
 40
0.0
176
     1
 90
        0
176
     1
290
     0
176
     1
290
     1
176
     1
290
     1
176
     1
290
     0
176
     1
290
     0
176
     1
290
     0
176
     1
290
     0
176
     1
290
     0
176
     1
290
     0
176
     1
 90
       50
176
     1
 40
0.0
176
     1
 40
1.0
176
     1
 90
        0
176
     1
 62
    18
420
        0
176
     1
 90
       50
176
     1
 90
        3
176
     1
 62
     5
420
      255
176
     1
290
     0
176
     1
 90
       50
176
     1
 90
       50
176
     1
 90
       50
176
     1
290
     0
176
     1
 90
       50
176
     1
 62
   256
176
     0
 40
1.0
176
     0
 90
        2
176
     1
  1
strokes_ogs.tif
176
     1
290
     0
176
     1
 40
1.0
176
     1
 40
1.0
176
     1
  0
VISUALSTYLE
  5
2D
102
{ACAD_REACTORS
330
29
102
}
330
29
100
AcDbVisualStyle
  2
GouraudWithEdges
 70
     3
177
     3
291
     1
 70
    58
 90
        2
176
     1
 90
        2
176
     1
 90
        1
176
     1
 90
        2
176
     1
 40
0.6
176
     1
 40
30.0
176
     1
 62
     7
420
 16777215
176
     1
 90
        1
176
     1
 90
        0
176
     1
 62
     7
176
     1
 62
   257
176
     1
 90
        1
176
     1
 90
        1
176
     1
 40
1.0
176
     1
 90
        0
176
     1
 62
   257
176
     1
 40
1.0
176
     1
 90
        1
176
     1
 90
        6
176
     1
 90
        2
176
     1
 62
     7
176
     1
 90
        5
176
     1
 90
        0
176
     1
 90
        0
176
     1
290
     0
176
     1
 90
       13
176
     1
 40
0.0
176
     1
 90
        0
176
     1
290
     0
176
     1
290
     1
176
     1
290
     1
176
     1
290
     0
176
     1
290
     0
176
     1
290
     0
176
     1
290
     0
176
     1
290
     0
176
     1
290
     0
176
     1
 90
       50
176
     1
 40
0.0
176
     1
 40
1.0
176
     1
 90
        0
176
     1
 62
    18
420
        0
176
     1
 90
       50
176
     1
 90
        3
176
     1
 62
     5
420
      255
176
     1
290
     0
176
     1
 90
       50
176
     1
 90
       50
176
     1
 90
       50
176
     1
290
     0
176
     1
 90
       50
176
     1
 62
   256
176
     0
 40
1.0
176
     0
 90
        2
176
     1
  1
strokes_ogs.tif
176
     1
290
     0
176
     1
 40
1.0
176
     1
 40
1.0
176
     1
  0
VISUALSTYLE
  5
31
102
{ACAD_REACTORS
330
29
102
}
330
29
100
AcDbVisualStyle
  2
Hidden
 70
     6
177
     3
291
     0
 70
    58
 90
        1
176
     1
 90
        2
176
     1
 90
        2
176
     1
 90
        0
176
     1
 40
0.6
176
     1
 40
30.0
176
     1
 62
     7
420
 16777215
176
     1
 90
        2
176
     1
 90
        2
176
     1
 62
     7
176
     1
 62
   257
176
     1
 90
        2
176
     1
 90
        1
176
     1
 40
40.0
176
     1
 90
        0
176
     1
 62
   257
176
     1
 40
1.0
176
     1
 90
        1
176
     1
 90
        6
176
     1
 90
        2
176
     1
 62
     7
176
     1
 90
        3
176
     1
 90
        0
176
     1
 90
        0
176
     1
290
     0
176
     1
 90
        1
176
     1
 40
0.0
176
     1
 90
        0
176
     1
290
     0
176
     1
290
     1
176
     1
290
     1
176
     1
290
     0
176
     1
290
     0
176
     1
290
     0
176
     1
290
     0
176
     1
290
     0
176
     1
290
     0
176
     1
 90
       50
176
     1
 40
0.0
176
     1
 40
1.0
176
     1
 90
        0
176
     1
 62
    18
420
        0
176
     1
 90
       50
176
     1
 90
        3
176
     1
 62
     5
420
      255
176
     1
290
     0
176
     1
 90
       50
176
     1
 90
       50
176
     1
 90
       50
176
     1
290
     0
176
     1
 90
       50
176
     1
 62
   256
176
     0
 40
1.0
176
     0
 90
        2
176
     1
  1
strokes_ogs.tif
176
     1
290
     0
176
     1
 40
1.0
176
     1
 40
1.0
176
     1
  0
VISUALSTYLE
  5
3F
102
{ACAD_REACTORS
330
29
102
}
330
29
100
AcDbVisualStyle
  2
JitterOff
 70
    20
177
     3
291
     1
 70
    58
 90
        2
176
     0
 90
        2
176
     0
 90
        0
176
     0
 90
        0
176
     0
 40
0.6
176
     0
 40
30.0
176
     0
 62
     7
420
 16777215
176
     0
 90
        1
176
     0
 90
        4
176
     0
 62
     7
176
     0
 62
   257
176
     0
 90
        1
176
     0
 90
        1
176
     0
 40
1.0
176
     0
 90
       10
176
     2
 62
     7
176
     0
 40
1.0
176
     0
 90
        1
176
     0
 90
        6
176
     0
 90
        2
176
     0
 62
     7
176
     0
 90
        5
176
     0
 90
        0
176
     0
 90
        0
176
     0
290
     0
176
     0
 90
        1
176
     0
 40
0.0
176
     0
 90
        0
176
     0
290
     0
176
     0
290
     1
176
     0
290
     1
176
     0
290
     0
176
     0
290
     0
176
     0
290
     0
176
     0
290
     0
176
     0
290
     0
176
     0
290
     0
176
     0
 90
       50
176
     0
 40
0.0
176
     0
 40
1.0
176
     0
 90
        0
176
     0
 62
    18
420
        0
176
     0
 90
       50
176
     0
 90
        3
176
     0
 62
     5
420
      255
176
     0
290
     0
176
     0
 90
       50
176
     0
 90
       50
176
     0
 90
       50
176
     0
290
     0
176
     0
 90
       50
176
     0
 62
   256
176
     0
 40
1.0
176
     0
 90
        2
176
     0
  1
strokes_ogs.tif
176
     0
290
     0
176
     0
 40
1.0
176
     0
 40
1.0
176
     0
  0
VISUALSTYLE
  5
37
102
{ACAD_REACTORS
330
29
102
}
330
29
100
AcDbVisualStyle
  2
Linepattern
 70
    14
177
     3
291
     1
 70
    58
 90
        2
176
     1
 90
        2
176
     1
 90
        0
176
     1
 90
        0
176
     1
 40
0.6
176
     1
 40
30.0
176
     1
 62
     7
420
 16777215
176
     1
 90
        1
176
     1
 90
        4
176
     1
 62
     7
176
     1
 62
   257
176
     1
 90
        7
176
     1
 90
        7
176
     1
 40
1.0
176
     1
 90
        8
176
     1
 62
     7
176
     1
 40
1.0
176
     1
 90
        1
176
     1
 90
        6
176
     1
 90
        2
176
     1
 62
     7
176
     1
 90
        5
176
     1
 90
        0
176
     1
 90
        0
176
     1
290
     0
176
     1
 90
        1
176
     1
 40
0.0
176
     1
 90
        0
176
     1
290
     0
176
     1
290
     1
176
     1
290
     1
176
     1
290
     0
176
     1
290
     0
176
     1
290
     0
176
     1
290
     0
176
     1
290
     0
176
     1
290
     0
176
     1
 90
       50
176
     1
 40
0.0
176
     1
 40
1.0
176
     1
 90
        0
176
     1
 62
    18
420
        0
176
     1
 90
       50
176
     1
 90
        3
176
     1
 62
     5
420
      255
176
     1
290
     0
176
     1
 90
       50
176
     1
 90
       50
176
     1
 90
       50
176
     1
290
     0
176
     1
 90
       50
176
     1
 62
   256
176
     0
 40
1.0
176
     0
 90
        2
176
     1
  1
strokes_ogs.tif
176
     1
290
     0
176
     1
 40
1.0
176
     1
 40
1.0
176
     1
  0
VISUALSTYLE
  5
40
102
{ACAD_REACTORS
330
29
102
}
330
29
100
AcDbVisualStyle
  2
OverhangOff
 70
    21
177
     3
291
     1
 70
    58
 90
        2
176
     0
 90
        2
176
     0
 90
        0
176
     0
 90
        0
176
     0
 40
0.6
176
     0
 40
30.0
176
     0
 62
     7
420
 16777215
176
     0
 90
        1
176
     0
 90
        4
176
     0
 62
     7
176
     0
 62
   257
176
     0
 90
        1
176
     0
 90
        1
176
     0
 40
1.0
176
     0
 90
        9
176
     2
 62
     7
176
     0
 40
1.0
176
     0
 90
        1
176
     0
 90
        6
176
     0
 90
        2
176
     0
 62
     7
176
     0
 90
        5
176
     0
 90
        0
176
     0
 90
        0
176
     0
290
     0
176
     0
 90
        1
176
     0
 40
0.0
176
     0
 90
        0
176
     0
290
     0
176
     0
290
     1
176
     0
290
     1
176
     0
290
     0
176
     0
290
     0
176
     0
290
     0
176
     0
290
     0
176
     0
290
     0
176
     0
290
     0
176
     0
 90
       50
176
     0
 40
0.0
176
     0
 40
1.0
176
     0
 90
        0
176
     0
 62
    18
420
        0
176
     0
 90
       50
176
     0
 90
        3
176
     0
 62
     5
420
      255
176
     0
290
     0
176
     0
 90
       50
176
     0
 90
       50
176
     0
 90
       50
176
     0
290
     0
176
     0
 90
       50
176
     0
 62
   256
176
     0
 40
1.0
176
     0
 90
        2
176
     0
  1
strokes_ogs.tif
176
     0
290
     0
176
     0
 40
1.0
176
     0
 40
1.0
176
     0
  0
VISUALSTYLE
  5
33
102
{ACAD_REACTORS
330
29
102
}
330
29
100
AcDbVisualStyle
  2
Realistic
 70
     8
177
     3
291
     0
 70
    58
 90
        2
176
     1
 90
        3
176
     1
 90
        0
176
     1
 90
        2
176
     1
 40
0.6
176
     1
 40
30.0
176
     1
 62
     7
420
 16777215
176
     1
 90
        0
176
     1
 90
        0
176
     1
 62
     7
176
     1
 62
   257
176
     1
 90
        1
176
     1
 90
        1
176
     1
 40
1.0
176
     1
 90
        8
176
     1
 62
   257
176
     1
 40
1.0
176
     1
 90
        1
176
     1
 90
        6
176
     1
 90
        2
176
     1
 62
     7
176
     1
 90
        3
176
     1
 90
        0
176
     1
 90
        0
176
     1
290
     0
176
     1
 90
       13
176
     1
 40
0.0
176
     1
 90
        0
176
     1
290
     0
176
     1
290
     1
176
     1
290
     1
176
     1
290
     0
176
     1
290
     0
176
     1
290
     0
176
     1
290
     0
176
     1
290
     0
176
     1
290
     0
176
     1
 90
       50
176
     1
 40
0.0
176
     1
 40
1.0
176
     1
 90
        0
176
     1
 62
    18
420
        0
176
     1
 90
       50
176
     1
 90
        3
176
     1
 62
     5
420
      255
176
     1
290
     0
176
     1
 90
       50
176
     1
 90
       50
176
     1
 90
       50
176
     1
290
     0
176
     1
 90
       50
176
     1
 62
   256
176
     0
 40
1.0
176
     0
 90
        2
176
     1
  1
strokes_ogs.tif
176
     1
290
     0
176
     1
 40
1.0
176
     1
 40
1.0
176
     1
  0
VISUALSTYLE
  5
3E
102
{ACAD_REACTORS
330
29
102
}
330
29
100
AcDbVisualStyle
  2
Shaded
 70
    27
177
     3
291
     0
 70
    58
 90
        2
176
     1
 90
        2
176
     1
 90
        1
176
     1
 90
        2
176
     1
 40
0.6
176
     1
 40
30.0
176
     1
 62
     7
420
 16777215
176
     1
 90
        0
176
     1
 90
        4
176
     1
 62
     7
176
     1
 62
   257
176
     1
 90
        1
176
     1
 90
        1
176
     1
 40
1.0
176
     1
 90
        8
176
     1
 62
   257
176
     1
 40
1.0
176
     1
 90
        1
176
     1
 90
        6
176
     1
 90
        2
176
     1
 62
     8
420
  7895160
176
     1
 90
        3
176
     1
 90
        0
176
     1
 90
        0
176
     1
290
     0
176
     1
 90
        5
176
     1
 40
0.0
176
     1
 90
        0
176
     1
290
     0
176
     1
290
     1
176
     1
290
     1
176
     1
290
     0
176
     1
290
     0
176
     1
290
     0
176
     1
290
     0
176
     1
290
     0
176
     1
290
     0
176
     1
 90
       50
176
     1
 40
0.0
176
     1
 40
1.0
176
     1
 90
        0
176
     1
 62
    18
420
        0
176
     1
 90
       50
176
     1
 90
        3
176
     1
 62
     5
420
      255
176
     1
290
     0
176
     1
 90
       50
176
     1
 90
       50
176
     1
 90
       50
176
     1
290
     0
176
     1
 90
       50
176
     1
 62
   256
176
     0
 40
1.0
176
     0
 90
        2
176
     1
  1
strokes_ogs.tif
176
     1
290
     0
176
     1
 40
1.0
176
     1
 40
1.0
176
     1
  0
VISUALSTYLE
  5
3D
102
{ACAD_REACTORS
330
29
102
}
330
29
100
AcDbVisualStyle
  2
Shaded with edges
 70
    26
177
     3
291
     0
 70
    58
 90
        2
176
     1
 90
        2
176
     1
 90
        1
176
     1
 90
        2
176
     1
 40
0.6
176
     1
 40
30.0
176
     1
 62
     7
420
 16777215
176
     1
 90
        1
176
     1
 90
        2
176
     1
 62
     7
176
     1
 62
   257
176
     1
 90
        2
176
     1
 90
        1
176
     1
 40
1.0
176
     1
 90
        8
176
     1
 62
   257
176
     1
 40
1.0
176
     1
 90
        1
176
     1
 90
        6
176
     1
 90
        2
176
     1
 62
     7
176
     1
 90
        3
176
     1
 90
        0
176
     1
 90
        0
176
     1
290
     0
176
     1
 90
        5
176
     1
 40
0.0
176
     1
 90
        0
176
     1
290
     0
176
     1
290
     1
176
     1
290
     1
176
     1
290
     0
176
     1
290
     0
176
     1
290
     0
176
     1
290
     0
176
     1
290
     0
176
     1
290
     0
176
     1
 90
       50
176
     1
 40
0.0
176
     1
 40
1.0
176
     1
 90
        0
176
     1
 62
    18
420
        0
176
     1
 90
       50
176
     1
 90
        3
176
     1
 62
     5
420
      255
176
     1
290
     0
176
     1
 90
       50
176
     1
 90
       50
176
     1
 90
       50
176
     1
290
     0
176
     1
 90
       50
176
     1
 62
   256
176
     0
 40
1.0
176
     0
 90
        2
176
     1
  1
strokes_ogs.tif
176
     1
290
     0
176
     1
 40
1.0
176
     1
 40
1.0
176
     1
  0
VISUALSTYLE
  5
3A
102
{ACAD_REACTORS
330
29
102
}
330
29
100
AcDbVisualStyle
  2
Shades of Gray
 70
    23
177
     3
291
     0
 70
    58
 90
        2
176
     1
 90
        2
176
     1
 90
        3
176
     1
 90
        0
176
     1
 40
0.6
176
     1
 40
30.0
176
     1
 62
     7
420
 16777215
176
     1
 90
        2
176
     1
 90
        2
176
     1
 62
     7
176
     1
 62
     7
176
     1
 90
        1
176
     1
 90
        1
176
     1
 40
40.0
176
     1
 90
        8
176
     1
 62
     7
176
     1
 40
1.0
176
     1
 90
        1
176
     1
 90
        6
176
     1
 90
        2
176
     1
 62
     7
176
     1
 90
        3
176
     1
 90
        0
176
     1
 90
        0
176
     1
290
     0
176
     1
 90
        1
176
     1
 40
0.0
176
     1
 90
        0
176
     1
290
     0
176
     1
290
     1
176
     1
290
     1
176
     1
290
     0
176
     1
290
     0
176
     1
290
     0
176
     1
290
     0
176
     1
290
     0
176
     1
290
     0
176
     1
 90
       50
176
     1
 40
0.0
176
     1
 40
1.0
176
     1
 90
        0
176
     1
 62
    18
420
        0
176
     1
 90
       50
176
     1
 90
        3
176
     1
 62
     5
420
      255
176
     1
290
     0
176
     1
 90
       50
176
     1
 90
       50
176
     1
 90
       50
176
     1
290
     0
176
     1
 90
       50
176
     1
 62
   256
176
     0
 40
1.0
176
     0
 90
        2
176
     1
  1
strokes_ogs.tif
176
     1
290
     0
176
     1
 40
1.0
176
     1
 40
1.0
176
     1
  0
VISUALSTYLE
  5
3B
102
{ACAD_REACTORS
330
29
102
}
330
29
100
AcDbVisualStyle
  2
Sketchy
 70
    24
177
     3
291
     0
 70
    58
 90
        1
176
     1
 90
        2
176
     1
 90
        2
176
     1
 90
        0
176
     1
 40
0.6
176
     1
 40
30.0
176
     1
 62
     7
420
 16777215
176
     1
 90
        2
176
     1
 90
        2
176
     1
 62
     7
176
     1
 62
     7
176
     1
 90
        1
176
     1
 90
        1
176
     1
 40
40.0
176
     1
 90
       11
176
     1
 62
     7
176
     1
 40
1.0
176
     1
 90
        1
176
     1
 90
        6
176
     1
 90
        2
176
     1
 62
     7
176
     1
 90
        6
176
     1
 90
        0
176
     1
 90
        0
176
     1
290
     0
176
     1
 90
        1
176
     1
 40
0.0
176
     1
 90
        0
176
     1
290
     0
176
     1
290
     1
176
     1
290
     1
176
     1
290
     0
176
     1
290
     0
176
     1
290
     0
176
     1
290
     0
176
     1
290
     0
176
     1
290
     0
176
     1
 90
       50
176
     1
 40
0.0
176
     1
 40
1.0
176
     1
 90
        0
176
     1
 62
    18
420
        0
176
     1
 90
       50
176
     1
 90
        3
176
     1
 62
     5
420
      255
176
     1
290
     0
176
     1
 90
       50
176
     1
 90
       50
176
     1
 90
       50
176
     1
290
     0
176
     1
 90
       50
176
     1
 62
   256
176
     0
 40
1.0
176
     0
 90
        2
176
     1
  1
strokes_ogs.tif
176
     1
290
     0
176
     1
 40
1.0
176
     1
 40
1.0
176
     1
  0
VISUALSTYLE
  5
36
102
{ACAD_REACTORS
330
29
102
}
330
29
100
AcDbVisualStyle
  2
Thicken
 70
    13
177
     3
291
     1
 70
    58
 90
        2
176
     1
 90
        2
176
     1
 90
        0
176
     1
 90
        0
176
     1
 40
0.6
176
     1
 40
30.0
176
     1
 62
     7
420
 16777215
176
     1
 90
        1
176
     1
 90
        4
176
     1
 62
     7
176
     1
 62
   257
176
     1
 90
        1
176
     1
 90
        1
176
     1
 40
1.0
176
     1
 90
       12
176
     1
 62
     7
176
     1
 40
1.0
176
     1
 90
        1
176
     1
 90
        6
176
     1
 90
        2
176
     1
 62
     7
176
     1
 90
        5
176
     1
 90
        0
176
     1
 90
        0
176
     1
290
     0
176
     1
 90
        1
176
     1
 40
0.0
176
     1
 90
        0
176
     1
290
     0
176
     1
290
     1
176
     1
290
     1
176
     1
290
     0
176
     1
290
     0
176
     1
290
     0
176
     1
290
     0
176
     1
290
     0
176
     1
290
     0
176
     1
 90
       50
176
     1
 40
0.0
176
     1
 40
1.0
176
     1
 90
        0
176
     1
 62
    18
420
        0
176
     1
 90
       50
176
     1
 90
        3
176
     1
 62
     5
420
      255
176
     1
290
     0
176
     1
 90
       50
176
     1
 90
       50
176
     1
 90
       50
176
     1
290
     0
176
     1
 90
       50
176
     1
 62
   256
176
     0
 40
1.0
176
     0
 90
        2
176
     1
  1
strokes_ogs.tif
176
     1
290
     0
176
     1
 40
1.0
176
     1
 40
1.0
176
     1
  0
VISUALSTYLE
  5
30
102
{ACAD_REACTORS
330
29
102
}
330
29
100
AcDbVisualStyle
  2
Wireframe
 70
     5
177
     3
291
     0
 70
    58
 90
        0
176
     1
 90
        2
176
     1
 90
        0
176
     1
 90
        0
176
     1
 40
0.6
176
     1
 40
30.0
176
     1
 62
     7
420
 16777215
176
     1
 90
        1
176
     1
 90
        4
176
     1
 62
     7
176
     1
 62
   257
176
     1
 90
        1
176
     1
 90
        1
176
     1
 40
1.0
176
     1
 90
        0
176
     1
 62
   257
176
     1
 40
1.0
176
     1
 90
        1
176
     1
 90
        6
176
     1
 90
        2
176
     1
 62
     7
176
     1
 90
        3
176
     1
 90
        0
176
     1
 90
        0
176
     1
290
     0
176
     1
 90
        1
176
     1
 40
0.0
176
     1
 90
        0
176
     1
290
     0
176
     1
290
     1
176
     1
290
     1
176
     1
290
     0
176
     1
290
     0
176
     1
290
     0
176
     1
290
     0
176
     1
290
     0
176
     1
290
     0
176
     1
 90
       50
176
     1
 40
0.0
176
     1
 40
1.0
176
     1
 90
        0
176
     1
 62
    18
420
        0
176
     1
 90
       50
176
     1
 90
        3
176
     1
 62
     5
420
      255
176
     1
290
     0
176
     1
 90
       50
176
     1
 90
       50
176
     1
 90
       50
176
     1
290
     0
176
     1
 90
       50
176
     1
 62
   256
176
     0
 40
1.0
176
     0
 90
        2
176
     1
  1
strokes_ogs.tif
176
     1
290
     0
176
     1
 40
1.0
176
     1
 40
1.0
176
     1
  0
VISUALSTYLE
  5
3C
102
{ACAD_REACTORS
330
29
102
}
330
29
100
AcDbVisualStyle
  2
X-Ray
 70
    25
177
     3
291
     0
 70
    58
 90
        2
176
     1
 90
        2
176
     1
 90
        1
176
     1
 90
        1
176
     1
 40
0.5
176
     1
 40
30.0
176
     1
 62
     7
420
 16777215
176
     1
 90
        1
176
     1
 90
        0
176
     1
 62
     7
176
     1
 62
   257
176
     1
 90
        1
176
     1
 90
        1
176
     1
 40
1.0
176
     1
 90
        8
176
     1
 62
     7
176
     1
 40
1.0
176
     1
 90
        1
176
     1
 90
        6
176
     1
 90
        2
176
     1
 62
     7
176
     1
 90
        3
176
     1
 90
        0
176
     1
 90
        0
176
     1
290
     0
176
     1
 90
       13
176
     1
 40
0.0
176
     1
 90
        0
176
     1
290
     0
176
     1
290
     1
176
     1
290
     1
176
     1
290
     0
176
     1
290
     0
176
     1
290
     0
176
     1
290
     0
176
     1
290
     0
176
     1
290
     0
176
     1
 90
       50
176
     1
 40
0.0
176
     1
 40
1.0
176
     1
 90
        0
176
     1
 62
    18
420
        0
176
     1
 90
       50
176
     1
 90
        3
176
     1
 62
     5
420
      255
176
     1
290
     0
176
     1
 90
       50
176
     1
 90
       50
176
     1
 90
       50
176
     1
290
     0
176
     1
 90
       50
176
     1
 62
   256
176
     0
 40
1.0
176
     0
 90
        2
176
     1
  1
strokes_ogs.tif
176
     1
290
     0
176
     1
 40
1.0
176
     1
 40
1.0
176
     1
  0
DICTIONARYVAR
  5
9B
102
{ACAD_REACTORS
330
96
102
}
330
96
100
DictionaryVariables
280
     0
  1
1:1
  0
DICTIONARYVAR
  5
98
102
{ACAD_REACTORS
330
96
102
}
330
96
100
DictionaryVariables
280
     0
  1
STANDARD
  0
DICTIONARYVAR
  5
97
102
{ACAD_REACTORS
330
96
102
}
330
96
100
DictionaryVariables
280
     0
  1
STANDARD
  0
DICTIONARYVAR
  5
99
102
{ACAD_REACTORS
330
96
102
}
330
96
100
DictionaryVariables
280
     0
  1
Imperial24
  0
DICTIONARYVAR
  5
9A
102
{ACAD_REACTORS
330
96
102
}
330
96
100
DictionaryVariables
280
     0
  1
Imperial24
  0
DICTIONARY
  5
1A
330
19
100
AcDbDictionary
280
     1
281
     1
  3
BUMPTILE
360
1C
  3
DIFFUSETILE
360
1B
  3
OPACITYTILE
360
1F
  3
REFLECTIONTILE
360
1E
  3
REFRACTIONTILE
360
20
  3
SPECULARTILE
360
1D
  0
DICTIONARY
  5
12
330
11
100
AcDbDictionary
280
     1
281
     1
  3
BUMPTILE
360
14
  3
DIFFUSETILE
360
13
  3
OPACITYTILE
360
17
  3
REFLECTIONTILE
360
16
  3
REFRACTIONTILE
360
18
  3
SPECULARTILE
360
15
  0
DICTIONARY
  5
22
330
21
100
AcDbDictionary
280
     1
281
     1
  3
BUMPTILE
360
24
  3
DIFFUSETILE
360
23
  3
OPACITYTILE
360
27
  3
REFLECTIONTILE
360
26
  3
REFRACTIONTILE
360
28
  3
SPECULARTILE
360
25
  0
DICTIONARY
  5
9C
330
65
100
AcDbDictionary
280
     1
281
     1
  3
ACAD_ROUNDTRIP_2008_TABLESTYLE_CELLSTYLEMAP
360
9D
  0
XRECORD
  5
1C
102
{ACAD_REACTORS
330
1A
102
}
330
1A
100
AcDbXrecord
280
     1
270
     1
271
     1
  0
XRECORD
  5
1B
102
{ACAD_REACTORS
330
1A
102
}
330
1A
100
AcDbXrecord
280
     1
270
     1
271
     1
  0
XRECORD
  5
1F
102
{ACAD_REACTORS
330
1A
102
}
330
1A
100
AcDbXrecord
280
     1
270
     1
271
     1
  0
XRECORD
  5
1E
102
{ACAD_REACTORS
330
1A
102
}
330
1A
100
AcDbXrecord
280
     1
270
     1
271
     1
  0
XRECORD
  5
20
102
{ACAD_REACTORS
330
1A
102
}
330
1A
100
AcDbXrecord
280
     1
270
     1
271
     1
  0
XRECORD
  5
1D
102
{ACAD_REACTORS
330
1A
102
}
330
1A
100
AcDbXrecord
280
     1
270
     1
271
     1
  0
XRECORD
  5
14
102
{ACAD_REACTORS
330
12
102
}
330
12
100
AcDbXrecord
280
     1
270
     1
271
     1
  0
XRECORD
  5
13
102
{ACAD_REACTORS
330
12
102
}
330
12
100
AcDbXrecord
280
     1
270
     1
271
     1
  0
XRECORD
  5
17
102
{ACAD_REACTORS
330
12
102
}
330
12
100
AcDbXrecord
280
     1
270
     1
271
     1
  0
XRECORD
  5
16
102
{ACAD_REACTORS
330
12
102
}
330
12
100
AcDbXrecord
280
     1
270
     1
271
     1
  0
XRECORD
  5
18
102
{ACAD_REACTORS
330
12
102
}
330
12
100
AcDbXrecord
280
     1
270
     1
271
     1
  0
XRECORD
  5
15
102
{ACAD_REACTORS
330
12
102
}
330
12
100
AcDbXrecord
280
     1
270
     1
271
     1
  0
XRECORD
  5
24
102
{ACAD_REACTORS
330
22
102
}
330
22
100
AcDbXrecord
280
     1
270
     1
271
     1
  0
XRECORD
  5
23
102
{ACAD_REACTORS
330
22
102
}
330
22
100
AcDbXrecord
280
     1
270
     1
271
     1
  0
XRECORD
  5
27
102
{ACAD_REACTORS
330
22
102
}
330
22
100
AcDbXrecord
280
     1
270
     1
271
     1
  0
XRECORD
  5
26
102
{ACAD_REACTORS
330
22
102
}
330
22
100
AcDbXrecord
280
     1
270
     1
271
     1
  0
XRECORD
  5
28
102
{ACAD_REACTORS
330
22
102
}
330
22
100
AcDbXrecord
280
     1
270
     1
271
     1
  0
XRECORD
  5
25
102
{ACAD_REACTORS
330
22
102
}
330
22
100
AcDbXrecord
280
     1
270
     1
271
     1
  0
CELLSTYLEMAP
  5
9D
102
{ACAD_REACTORS
330
9C
102
}
330
9C
100
AcDbCellStyleMap
 90
        3
300
CELLSTYLE
  1
TABLEFORMAT_BEGIN
 90
        5
170
     1
 91
        0
 92
    32768
 62
   257
 93
        1
300
CONTENTFORMAT
  1
CONTENTFORMAT_BEGIN
 90
        0
 91
        0
 92
      512
 93
        0
300

 40
0.0
140
1.0
 94
        5
 62
     0
340
55
144
0.25
309
CONTENTFORMAT_END
171
     0
 94
        0
309
TABLEFORMAT_END
  1
CELLSTYLE_BEGIN
 90
        1
 91
        1
300
_TITLE
309
CELLSTYLE_END
300
CELLSTYLE
  1
TABLEFORMAT_BEGIN
 90
        5
170
     1
 91
        0
 92
        0
 62
   257
 93
        1
300
CONTENTFORMAT
  1
CONTENTFORMAT_BEGIN
 90
        0
 91
        0
 92
      512
 93
        0
300

 40
0.0
140
1.0
 94
        5
 62
     0
340
55
144
0.18
309
CONTENTFORMAT_END
171
     0
 94
        0
309
TABLEFORMAT_END
  1
CELLSTYLE_BEGIN
 90
        2
 91
        1
300
_HEADER
309
CELLSTYLE_END
300
CELLSTYLE
  1
TABLEFORMAT_BEGIN
 90
        5
170
     1
 91
        0
 92
        0
 62
   257
 93
        1
300
CONTENTFORMAT
  1
CONTENTFORMAT_BEGIN
 90
        0
 91
        0
 92
      512
 93
        0
300

 40
0.0
140
1.0
 94
        2
 62
     0
340
55
144
0.18
309
CONTENTFORMAT_END
171
     0
 94
        0
309
TABLEFORMAT_END
  1
CELLSTYLE_BEGIN
 90
        3
 91
        2
300
_DATA
309
CELLSTYLE_END
  0
ENDSEC
  0
EOF
