  0
SECTION
  2
HEADER
  9
$ACADVER
  1
AC1032
  9
$ACADMAINTVER
 90
      228
  9
$DWGCODEPAGE
  3
ANSI_1252
  9
$REQUIREDVERSIONS
160
                 0
  9
$INSBASE
 10
0.0
 20
0.0
 30
0.0
  9
$EXTMIN
 10
1.000000000000000E+20
 20
1.000000000000000E+20
 30
1.000000000000000E+20
  9
$EXTMAX
 10
-1.000000000000000E+20
 20
-1.000000000000000E+20
 30
-1.000000000000000E+20
  9
$LIMMIN
 10
0.0
 20
0.0
  9
$LIMMAX
 10
12.0
 20
9.0
  9
$ORTHOMODE
 70
     0
  9
$REGENMODE
 70
     1
  9
$FILLMODE
 70
     1
  9
$QTEXTMODE
 70
     0
  9
$MIRRTEXT
 70
     0
  9
$LTSCALE
 40
1.0
  9
$ATTMODE
 70
     1
  9
$TEXTSIZE
 40
0.2
  9
$TRACEWID
 40
0.05
  9
$TEXTSTYLE
  7
Standard
  9
$CLAYER
  8
0
  9
$CELTYPE
  6
ByLayer
  9
$CECOLOR
 62
   256
  9
$CELTSCALE
 40
1.0
  9
$DISPSILH
 70
     0
  9
$DIMSCALE
 40
1.0
  9
$DIMASZ
 40
0.18
  9
$DIMEXO
 40
0.0625
  9
$DIMDLI
 40
0.38
  9
$DIMRND
 40
0.0
  9
$DIMDLE
 40
0.0
  9
$DIMEXE
 40
0.18
  9
$DIMTP
 40
0.0
  9
$DIMTM
 40
0.0
  9
$DIMTXT
 40
0.18
  9
$DIMCEN
 40
0.09
  9
$DIMTSZ
 40
0.0
  9
$DIMTOL
 70
     0
  9
$DIMLIM
 70
     0
  9
$DIMTIH
 70
     1
  9
$DIMTOH
 70
     1
  9
$DIMSE1
 70
     0
  9
$DIMSE2
 70
     0
  9
$DIMTAD
 70
     0
  9
$DIMZIN
 70
     0
  9
$DIMBLK
  1

  9
$DIMASO
 70
     1
  9
$DIMSHO
 70
     1
  9
$DIMPOST
  1

  9
$DIMAPOST
  1

  9
$DIMALT
 70
     0
  9
$DIMALTD
 70
     2
  9
$DIMALTF
 40
25.4
  9
$DIMLFAC
 40
1.0
  9
$DIMTOFL
 70
     0
  9
$DIMTVP
 40
0.0
  9
$DIMTIX
 70
     0
  9
$DIMSOXD
 70
     0
  9
$DIMSAH
 70
     0
  9
$DIMBLK1
  1

  9
$DIMBLK2
  1

  9
$DIMSTYLE
  2
Standard
  9
$DIMCLRD
 70
     0
  9
$DIMCLRE
 70
     0
  9
$DIMCLRT
 70
     0
  9
$DIMTFAC
 40
1.0
  9
$DIMGAP
 40
0.09
  9
$DIMJUST
 70
     0
  9
$DIMSD1
 70
     0
  9
$DIMSD2
 70
     0
  9
$DIMTOLJ
 70
     1
  9
$DIMTZIN
 70
     0
  9
$DIMALTZ
 70
     0
  9
$DIMALTTZ
 70
     0
  9
$DIMUPT
 70
     0
  9
$DIMDEC
 70
     4
  9
$DIMTDEC
 70
     4
  9
$DIMALTU
 70
     2
  9
$DIMALTTD
 70
     2
  9
$DIMTXSTY
  7
Standard
  9
$DIMAUNIT
 70
     0
  9
$DIMADEC
 70
     0
  9
$DIMALTRND
 40
0.0
  9
$DIMAZIN
 70
     0
  9
$DIMDSEP
 70
    46
  9
$DIMATFIT
 70
     3
  9
$DIMFRAC
 70
     0
  9
$DIMLDRBLK
  1

  9
$DIMLUNIT
 70
     2
  9
$DIMLWD
 70
    -2
  9
$DIMLWE
 70
    -2
  9
$DIMTMOVE
 70
     0
  9
$DIMFXL
 40
1.0
  9
$DIMFXLON
 70
     0
  9
$DIMJOGANG
 40
0.7853981633974483
  9
$DIMTFILL
 70
     0
  9
$DIMTFILLCLR
 70
     0
  9
$DIMARCSYM
 70
     0
  9
$DIMLTYPE
  6

  9
$DIMLTEX1
  6

  9
$DIMLTEX2
  6

  9
$DIMTXTDIRECTION
 70
     0
  9
$LUNITS
 70
     2
  9
$LUPREC
 70
     4
  9
$SKETCHINC
 40
0.1
  9
$FILLETRAD
 40
0.0
  9
$AUNITS
 70
     0
  9
$AUPREC
 70
     0
  9
$MENU
  1
.
  9
$ELEVATION
 40
0.0
  9
$PELEVATION
 40
0.0
  9
$THICKNESS
 40
0.0
  9
$LIMCHECK
 70
     0
  9
$CHAMFERA
 40
0.0
  9
$CHAMFERB
 40
0.0
  9
$CHAMFERC
 40
0.0
  9
$CHAMFERD
 40
0.0
  9
$SKPOLY
 70
     0
  9
$TDCREATE
 40
2460198.689375000
  9
$TDUCREATE
 40
2460198.981041667
  9
$TDUPDATE
 40
2460198.689375000
  9
$TDUUPDATE
 40
2460198.981041667
  9
$TDINDWG
 40
0.0000000000
  9
$TDUSRTIMER
 40
0.0000000000
  9
$USRTIMER
 70
     1
  9
$ANGBASE
 50
0.0
  9
$ANGDIR
 70
     0
  9
$PDMODE
 70
     0
  9
$PDSIZE
 40
0.0
  9
$PLINEWID
 40
0.0
  9
$SPLFRAME
 70
     0
  9
$SPLINETYPE
 70
     6
  9
$SPLINESEGS
 70
     8
  9
$HANDSEED
  5
BF
  9
$SURFTAB1
 70
     6
  9
$SURFTAB2
 70
     6
  9
$SURFTYPE
 70
     6
  9
$SURFU
 70
     6
  9
$SURFV
 70
     6
  9
$UCSBASE
  2

  9
$UCSNAME
  2

  9
$UCSORG
 10
0.0
 20
0.0
 30
0.0
  9
$UCSXDIR
 10
1.0
 20
0.0
 30
0.0
  9
$UCSYDIR
 10
0.0
 20
1.0
 30
0.0
  9
$UCSORTHOREF
  2

  9
$UCSORTHOVIEW
 70
     0
  9
$UCSORGTOP
 10
0.0
 20
0.0
 30
0.0
  9
$UCSORGBOTTOM
 10
0.0
 20
0.0
 30
0.0
  9
$UCSORGLEFT
 10
0.0
 20
0.0
 30
0.0
  9
$UCSORGRIGHT
 10
0.0
 20
0.0
 30
0.0
  9
$UCSORGFRONT
 10
0.0
 20
0.0
 30
0.0
  9
$UCSORGBACK
 10
0.0
 20
0.0
 30
0.0
  9
$PUCSBASE
  2

  9
$PUCSNAME
  2

  9
$PUCSORG
 10
0.0
 20
0.0
 30
0.0
  9
$PUCSXDIR
 10
1.0
 20
0.0
 30
0.0
  9
$PUCSYDIR
 10
0.0
 20
1.0
 30
0.0
  9
$PUCSORTHOREF
  2

  9
$PUCSORTHOVIEW
 70
     0
  9
$PUCSORGTOP
 10
0.0
 20
0.0
 30
0.0
  9
$PUCSORGBOTTOM
 10
0.0
 20
0.0
 30
0.0
  9
$PUCSORGLEFT
 10
0.0
 20
0.0
 30
0.0
  9
$PUCSORGRIGHT
 10
0.0
 20
0.0
 30
0.0
  9
$PUCSORGFRONT
 10
0.0
 20
0.0
 30
0.0
  9
$PUCSORGBACK
 10
0.0
 20
0.0
 30
0.0
  9
$USERI1
 70
     0
  9
$USERI2
 70
     0
  9
$USERI3
 70
     0
  9
$USERI4
 70
     0
  9
$USERI5
 70
     0
  9
$USERR1
 40
0.0
  9
$USERR2
 40
0.0
  9
$USERR3
 40
0.0
  9
$USERR4
 40
0.0
  9
$USERR5
 40
0.0
  9
$WORLDVIEW
 70
     1
  9
$SHADEDGE
 70
     3
  9
$SHADEDIF
 70
    70
  9
$TILEMODE
 70
     1
  9
$MAXACTVP
 70
    64
  9
$PINSBASE
 10
0.0
 20
0.0
 30
0.0
  9
$PLIMCHECK
 70
     0
  9
$PEXTMIN
 10
1.000000000000000E+20
 20
1.000000000000000E+20
 30
1.000000000000000E+20
  9
$PEXTMAX
 10
-1.000000000000000E+20
 20
-1.000000000000000E+20
 30
-1.000000000000000E+20
  9
$PLIMMIN
 10
0.0
 20
0.0
  9
$PLIMMAX
 10
12.0
 20
9.0
  9
$UNITMODE
 70
     0
  9
$VISRETAIN
 70
     1
  9
$PLINEGEN
 70
     0
  9
$PSLTSCALE
 70
     1
  9
$TREEDEPTH
 70
  3020
  9
$CMLSTYLE
  2
Standard
  9
$CMLJUST
 70
     0
  9
$CMLSCALE
 40
1.0
  9
$PROXYGRAPHICS
 70
     1
  9
$MEASUREMENT
 70
     0
  9
$CELWEIGHT
370
    -1
  9
$ENDCAPS
280
     0
  9
$JOINSTYLE
280
     0
  9
$LWDISPLAY
290
     1
  9
$INSUNITS
 70
     1
  9
$HYPERLINKBASE
  1

  9
$STYLESHEET
  1

  9
$XEDIT
290
     1
  9
$CEPSNTYPE
380
     0
  9
$PSTYLEMODE
290
     1
  9
$FINGERPRINTGUID
  2
{DE507A66-479D-0F46-9353-80379F28702D}
  9
$VERSIONGUID
  2
{5D5A4C17-3225-CC47-9F0B-6998CDF23237}
  9
$EXTNAMES
290
     1
  9
$PSVPSCALE
 40
0.0
  9
$OLESTARTUP
290
     0
  9
$SORTENTS
280
   127
  9
$INDEXCTL
280
     0
  9
$HIDETEXT
280
     1
  9
$XCLIPFRAME
280
     2
  9
$HALOGAP
280
     0
  9
$OBSCOLOR
 70
   257
  9
$OBSLTYPE
280
     0
  9
$INTERSECTIONDISPLAY
280
     0
  9
$INTERSECTIONCOLOR
 70
   257
  9
$DIMASSOC
280
     2
  9
$PROJECTNAME
  1

  9
$CAMERADISPLAY
290
     0
  9
$LENSLENGTH
 40
50.0
  9
$CAMERAHEIGHT
 40
0.0
  9
$STEPSPERSEC
 40
2.0
  9
$STEPSIZE
 40
6.0
  9
$3DDWFPREC
 40
2.0
  9
$PSOLWIDTH
 40
0.25
  9
$PSOLHEIGHT
 40
4.0
  9
$LOFTANG1
 40
1.570796326794896
  9
$LOFTANG2
 40
1.570796326794896
  9
$LOFTMAG1
 40
0.0
  9
$LOFTMAG2
 40
0.0
  9
$LOFTPARAM
 70
     7
  9
$LOFTNORMALS
280
     1
  9
$LATITUDE
 40
37.795
  9
$LONGITUDE
 40
-122.394
  9
$NORTHDIRECTION
 40
0.0
  9
$TIMEZONE
 70
 -8000
  9
$LIGHTGLYPHDISPLAY
280
     1
  9
$TILEMODELIGHTSYNCH
280
     1
  9
$CMATERIAL
347
11
  9
$SOLIDHIST
280
     0
  9
$SHOWHIST
280
     1
  9
$DWFFRAME
280
     2
  9
$DGNFRAME
280
     0
  9
$REALWORLDSCALE
290
     1
  9
$INTERFERECOLOR
 62
     1
  9
$INTERFEREOBJVS
345
33
  9
$INTERFEREVPVS
346
30
  9
$CSHADOW
280
     0
  9
$SHADOWPLANELOCATION
 40
0.0
  0
ENDSEC
  0
SECTION
  2
CLASSES
  0
CLASS
  1
ACDBDICTIONARYWDFLT
  2
AcDbDictionaryWithDefault
  3
ObjectDBX Classes
 90
        0
 91
        1
280
     0
281
     0
  0
CLASS
  1
MATERIAL
  2
AcDbMaterial
  3
ObjectDBX Classes
 90
     1153
 91
        3
280
     0
281
     0
  0
CLASS
  1
VISUALSTYLE
  2
AcDbVisualStyle
  3
ObjectDBX Classes
 90
     4095
 91
       24
280
     0
281
     0
  0
CLASS
  1
SCALE
  2
AcDbScale
  3
ObjectDBX Classes
 90
     1153
 91
       17
280
     0
281
     0
  0
CLASS
  1
TABLESTYLE
  2
AcDbTableStyle
  3
ObjectDBX Classes
 90
     4095
 91
        1
280
     0
281
     0
  0
CLASS
  1
MLEADERSTYLE
  2
AcDbMLeaderStyle
  3
ACDB_MLEADERSTYLE_CLASS
 90
     4095
 91
        1
280
     0
281
     0
  0
CLASS
  1
ACDBSECTIONVIEWSTYLE
  2
AcDbSectionViewStyle
  3
ObjectDBX Classes
 90
     1025
 91
        1
280
     0
281
     0
  0
CLASS
  1
ACDBDETAILVIEWSTYLE
  2
AcDbDetailViewStyle
  3
ObjectDBX Classes
 90
     1025
 91
        1
280
     0
281
     0
  0
CLASS
  1
DICTIONARYVAR
  2
AcDbDictionaryVar
  3
ObjectDBX Classes
 90
        0
 91
        5
280
     0
281
     0
  0
CLASS
  1
CELLSTYLEMAP
  2
AcDbCellStyleMap
  3
ObjectDBX Classes
 90
     1152
 91
        1
280
     0
281
     0
  0
ENDSEC
  0
SECTION
  2
TABLES
  0
TABLE
  2
VPORT
  5
8
330
0
100
AcDbSymbolTable
 70
     1
  0
VPORT
  5
57
330
8
100
AcDbSymbolTableRecord
100
AcDbViewportTableRecord
  2
*Active
 70
     0
 10
0.0
 20
0.0
 11
1.0
 21
1.0
 12
0.0
 22
0.0
 13
0.0
 23
0.0
 14
1.0
 24
1.0
 15
0.0
 25
0.0
 16
0.0
 26
0.0
 36
1.0
 17
0.9588254593173498
 27
-1.528872554494783
 37
0.0
 40
3.598333333333333
 41
0.7051968503937076
 42
50.0
 43
0.0
 44
0.0
 50
0.0
 51
0.0
 71
     0
 72
   100
 73
     1
 74
     1
 75
     0
 76
     0
 77
     0
 78
     0
281
     0
 65
     1
110
0.0
120
0.0
130
0.0
111
1.0
121
0.0
131
0.0
112
0.0
122
1.0
132
0.0
 79
     0
146
0.0
 60
     3
 61
     5
292
     1
282
     1
141
0.0
142
0.0
 63
   250
421
  3355443
  0
ENDTAB
  0
TABLE
  2
LTYPE
  5
5
330
0
100
AcDbSymbolTable
 70
     1
  0
LTYPE
  5
5B
330
5
100
AcDbSymbolTableRecord
100
AcDbLinetypeTableRecord
  2
ByBlock
 70
     0
  3

 72
    65
 73
     0
 40
0.0
  0
LTYPE
  5
5C
330
5
100
AcDbSymbolTableRecord
100
AcDbLinetypeTableRecord
  2
ByLayer
 70
     0
  3

 72
    65
 73
     0
 40
0.0
  0
LTYPE
  5
5D
330
5
100
AcDbSymbolTableRecord
100
AcDbLinetypeTableRecord
  2
Continuous
 70
     0
  3
Solid line
 72
    65
 73
     0
 40
0.0
  0
ENDTAB
  0
TABLE
  2
LAYER
  5
2
330
0
100
AcDbSymbolTable
 70
     3
  0
LAYER
  5
54
330
2
100
AcDbSymbolTableRecord
100
AcDbLayerTableRecord
  2
0
 70
     0
 62
     7
  6
Continuous
370
    -3
390
F
347
21
348
0
  0
LAYER
  5
78
330
2
100
AcDbSymbolTableRecord
100
AcDbLayerTableRecord
  2
White
 70
     1
 62
     7
  6
Continuous
370
     0
390
F
347
21
348
0
  0
LAYER
  5
79
330
2
100
AcDbSymbolTableRecord
100
AcDbLayerTableRecord
  2
Text
 70
     0
 62
     7
  6
Continuous
370
     0
390
F
347
21
348
0
  0
ENDTAB
  0
TABLE
  2
STYLE
  5
3
330
0
100
AcDbSymbolTable
 70
     2
  0
STYLE
  5
55
330
3
100
AcDbSymbolTableRecord
100
AcDbTextStyleTableRecord
  2
Standard
 70
     0
 40
0.0
 41
1.0
 50
0.0
 71
     0
 42
0.2
  3
txt
  4

  0
STYLE
  5
5A
330
3
100
AcDbSymbolTableRecord
100
AcDbTextStyleTableRecord
  2
Annotative
 70
     0
 40
0.0
 41
1.0
 50
0.0
 71
     0
 42
0.2
  3
txt
  4

1001
AcadAnnotative
1000
AnnotativeData
1002
{
1070
     1
1070
     1
1002
}
  0
ENDTAB
  0
TABLE
  2
VIEW
  5
6
330
0
100
AcDbSymbolTable
 70
     0
  0
ENDTAB
  0
TABLE
  2
UCS
  5
7
330
0
100
AcDbSymbolTable
 70
     0
  0
ENDTAB
  0
TABLE
  2
APPID
  5
9
330
0
100
AcDbSymbolTable
 70
     2
  0
APPID
  5
56
330
9
100
AcDbSymbolTableRecord
100
AcDbRegAppTableRecord
  2
ACAD
 70
     0
  0
APPID
  5
5E
330
9
100
AcDbSymbolTableRecord
100
AcDbRegAppTableRecord
  2
AcadAnnotative
 70
     0
  0
ENDTAB
  0
TABLE
  2
DIMSTYLE
  5
A
330
0
100
AcDbSymbolTable
 70
     2
100
AcDbDimStyleTable
 71
     0
  0
DIMSTYLE
105
58
330
A
100
AcDbSymbolTableRecord
100
AcDbDimStyleTableRecord
  2
Standard
 70
     0
340
55
  0
DIMSTYLE
105
59
330
A
100
AcDbSymbolTableRecord
100
AcDbDimStyleTableRecord
  2
Annotative
 70
     0
340
55
1001
AcadAnnotative
1000
AnnotativeData
1002
{
1070
     1
1070
     1
1002
}
  0
ENDTAB
  0
TABLE
  2
BLOCK_RECORD
  5
1
330
0
100
AcDbSymbolTable
 70
     3
  0
BLOCK_RECORD
  5
70
330
1
100
AcDbSymbolTableRecord
100
AcDbBlockTableRecord
  2
*Model_Space
340
73
 70
     0
280
     1
281
     0
  0
BLOCK_RECORD
  5
6C
330
1
100
AcDbSymbolTableRecord
100
AcDbBlockTableRecord
  2
*Paper_Space
340
6F
 70
     0
280
     1
281
     0
  0
BLOCK_RECORD
  5
74
330
1
100
AcDbSymbolTableRecord
100
AcDbBlockTableRecord
  2
*Paper_Space0
340
77
 70
     0
280
     1
281
     0
  0
BLOCK_RECORD
  5
8B
330
1
100
AcDbSymbolTableRecord
100
AcDbBlockTableRecord
  2
Block_0
340
0
102
{BLKREFS
331
8C
102
}
 70
     0
280
     1
281
     0
  0
BLOCK_RECORD
  5
AA
330
1
100
AcDbSymbolTableRecord
100
AcDbBlockTableRecord
  2
Block_1
340
0
102
{BLKREFS
331
AB
102
}
 70
     0
280
     1
281
     0
  0
ENDTAB
  0
ENDSEC
  0
SECTION
  2
BLOCKS
  0
BLOCK
  5
71
330
70
100
AcDbEntity
  8
0
100
AcDbBlockBegin
  2
*Model_Space
 70
     0
 10
0.0
 20
0.0
 30
0.0
  3
*Model_Space
  1

  0
ENDBLK
  5
72
330
70
100
AcDbEntity
  8
0
100
AcDbBlockEnd
  0
BLOCK
  5
6D
330
6C
100
AcDbEntity
 67
     1
  8
0
100
AcDbBlockBegin
  2
*Paper_Space
 70
     0
 10
0.0
 20
0.0
 30
0.0
  3
*Paper_Space
  1

  0
ENDBLK
  5
6E
330
6C
100
AcDbEntity
 67
     1
  8
0
100
AcDbBlockEnd
  0
BLOCK
  5
75
330
74
100
AcDbEntity
 67
     1
  8
0
100
AcDbBlockBegin
  2
*Paper_Space0
 70
     0
 10
0.0
 20
0.0
 30
0.0
  3
*Paper_Space0
  1

  0
ENDBLK
  5
76
330
74
100
AcDbEntity
 67
     1
  8
0
100
AcDbBlockEnd
  0
BLOCK
  5
8D
330
8B
100
AcDbEntity
  8
0
100
AcDbBlockBegin
  2
Block_0
 70
     0
 10
0.0
 20
0.0
 30
0.0
  3
Block_0
  1

  0
SPLINE
  5
8F
330
8B
100
AcDbEntity
  8
Text
100
AcDbSpline
210
0.0
220
0.0
230
1.0
 70
     9
 71
     3
 72
    35
 73
    31
 74
     0
 42
0.0000000001
 43
0.0000000001
 40
0.0
 40
0.0
 40
0.0
 40
0.0
 40
1.0
 40
1.0
 40
1.0
 40
2.0
 40
2.0
 40
2.0
 40
3.0
 40
3.0
 40
3.0
 40
4.0
 40
4.0
 40
4.0
 40
5.0
 40
5.0
 40
5.0
 40
6.0
 40
6.0
 40
6.0
 40
7.0
 40
7.0
 40
7.0
 40
8.0
 40
8.0
 40
8.0
 40
9.0
 40
9.0
 40
9.0
 40
10.0
 40
10.0
 40
10.0
 40
10.0
 10
-0.0615490134628216
 20
0.0756035382216851
 30
0.0
 10
-0.0580231826188538
 20
0.0755882583480343
 30
0.0
 10
-0.054894628489693
 20
0.0752750209382561
 30
0.0
 10
-0.052243570411987
 20
0.0746867458028646
 30
0.0
 10
-0.0497605909444019
 20
0.0741290304147495
 30
0.0
 10
-0.047728367749389
 20
0.0733803166060878
 30
0.0
 10
-0.0462042003531325
 20
0.0724558842504545
 30
0.0
 10
-0.0450123702086861
 20
0.0717377301890439
 30
0.0
 10
-0.0441566972844814
 20
0.070927896885779
 30
0.0
 10
-0.0435913419595535
 20
0.070003464530171
 30
0.0
 10
-0.0431138459080861
 20
0.0692165510373444
 30
0.0
 10
-0.0428922877402127
 20
0.0683379583026635
 30
0.0
 10
-0.0428922877402127
 20
0.0672301674632713
 30
0.0
 10
-0.0428922877402127
 20
0.0658244190878021
 30
0.0
 10
-0.043152045592213
 20
0.0646631486906447
 30
0.0
 10
-0.043683021201433
 20
0.0636775968404335
 30
0.0
 10
-0.0442369166211165
 20
0.0626462053692699
 30
0.0
 10
-0.0450696697348702
 20
0.0617599726977763
 30
0.0
 10
-0.0462309401320151
 20
0.0609654192681369
 30
0.0
 10
-0.0476214086338713
 20
0.0600104271652274
 30
0.0
 10
-0.0494588134398681
 20
0.0592540734197024
 30
0.0
 10
-0.0516858550238718
 20
0.058711637905238
 30
0.0
 10
-0.0542337739544792
 20
0.058100442959383
 30
0.0
 10
-0.0572706488417478
 20
0.05778720554963
 30
0.0
 10
-0.0607200803174869
 20
0.05778720554963
 30
0.0
 10
-0.0607200803174869
 20
0.05778720554963
 30
0.0
 10
-0.0615490134628216
 20
0.05778720554963
 30
0.0
 10
-0.0615490134628216
 20
0.05778720554963
 30
0.0
 10
-0.0615490134628216
 20
0.05778720554963
 30
0.0
 10
-0.0615490134628216
 20
0.0756035382216851
 30
0.0
 10
-0.0615490134628216
 20
0.0756035382216851
 30
0.0
  0
SPLINE
  5
90
330
8B
100
AcDbEntity
  8
Text
100
AcDbSpline
210
0.0
220
0.0
230
1.0
 70
     9
 71
     3
 72
    38
 73
    34
 74
     0
 42
0.0000000001
 43
0.0000000001
 40
0.0
 40
0.0
 40
0.0
 40
0.0
 40
1.0
 40
1.0
 40
1.0
 40
2.0
 40
2.0
 40
2.0
 40
3.0
 40
3.0
 40
3.0
 40
4.0
 40
4.0
 40
4.0
 40
5.0
 40
5.0
 40
5.0
 40
6.0
 40
6.0
 40
6.0
 40
7.0
 40
7.0
 40
7.0
 40
8.0
 40
8.0
 40
8.0
 40
9.0
 40
9.0
 40
9.0
 40
10.0
 40
10.0
 40
10.0
 40
11.0
 40
11.0
 40
11.0
 40
11.0
 10
-0.0607239002858933
 20
0.0088916098802151
 30
0.0
 10
-0.0607239002858933
 20
0.0088916098802151
 30
0.0
 10
-0.0615490134628216
 20
0.0088992498170531
 30
0.0
 10
-0.0615490134628216
 20
0.0088992498170531
 30
0.0
 10
-0.0615490134628216
 20
0.0088992498170531
 30
0.0
 10
-0.0615490134628216
 20
0.0284651280216319
 30
0.0
 10
-0.0615490134628216
 20
0.0284651280216319
 30
0.0
 10
-0.0615490134628216
 20
0.0284651280216319
 30
0.0
 10
-0.0599560866351491
 20
0.0284651280216319
 30
0.0
 10
-0.0599560866351491
 20
0.0284651280216319
 30
0.0
 10
-0.0557655812875484
 20
0.0284651280216319
 30
0.0
 10
-0.0520372921177518
 20
0.0281366107382029
 30
0.0
 10
-0.0488705383044892
 20
0.0274795761713954
 30
0.0
 10
-0.0460170219009544
 20
0.0268913010360039
 30
0.0
 10
-0.043644821517306
 20
0.0260585479222755
 30
0.0
 10
-0.0418265165533537
 20
0.0250042366406484
 30
0.0
 10
-0.0403902084305704
 20
0.0241791234637327
 30
0.0
 10
-0.0393358971489432
 20
0.0232470511712614
 30
0.0
 10
-0.0386941424557866
 20
0.0222385795106119
 30
0.0
 10
-0.038170806783392
 20
0.0214134663336962
 30
0.0
 10
-0.0379263288050424
 20
0.0204584742307614
 30
0.0
 10
-0.0379263288050424
 20
0.0192513642126768
 30
0.0
 10
-0.0379263288050424
 20
0.017807416153068
 30
0.0
 10
-0.0382204663727382
 20
0.0166385058190978
 30
0.0
 10
-0.0388507611606631
 20
0.0155765546006579
 30
0.0
 10
-0.0395268955695277
 20
0.0144458439508021
 30
0.0
 10
-0.0405850268195612
 20
0.0134602921005656
 30
0.0
 10
-0.0420786344685287
 20
0.0125816993658848
 30
0.0
 10
-0.043965698863897
 20
0.0114662685896797
 30
0.0
 10
-0.0464372184262377
 20
0.0105800359181608
 30
0.0
 10
-0.0494206137557664
 20
0.0099382812250042
 30
0.0
 10
-0.0526828667793274
 20
0.0092430469740824
 30
0.0
 10
-0.0564837353489338
 20
0.0088916098802151
 30
0.0
 10
-0.0607239002858933
 20
0.0088916098802151
 30
0.0
  0
SPLINE
  5
91
330
8B
100
AcDbEntity
  8
Text
100
AcDbSpline
210
0.0
220
0.0
230
1.0
 70
     9
 71
     3
 72
    62
 73
    58
 74
     0
 42
0.0000000001
 43
0.0000000001
 40
0.0
 40
0.0
 40
0.0
 40
0.0
 40
1.0
 40
1.0
 40
1.0
 40
2.0
 40
2.0
 40
2.0
 40
3.0
 40
3.0
 40
3.0
 40
4.0
 40
4.0
 40
4.0
 40
5.0
 40
5.0
 40
5.0
 40
6.0
 40
6.0
 40
6.0
 40
7.0
 40
7.0
 40
7.0
 40
8.0
 40
8.0
 40
8.0
 40
9.0
 40
9.0
 40
9.0
 40
10.0
 40
10.0
 40
10.0
 40
11.0
 40
11.0
 40
11.0
 40
12.0
 40
12.0
 40
12.0
 40
13.0
 40
13.0
 40
13.0
 40
14.0
 40
14.0
 40
14.0
 40
15.0
 40
15.0
 40
15.0
 40
16.0
 40
16.0
 40
16.0
 40
17.0
 40
17.0
 40
17.0
 40
18.0
 40
18.0
 40
18.0
 40
19.0
 40
19.0
 40
19.0
 40
19.0
 10
-0.0050134809700795
 20
0.0193277635809055
 30
0.0
 10
-0.0050134809700795
 20
0.0239117256749069
 30
0.0
 10
-0.0059111735468049
 20
0.0281824503591553
 30
0.0
 10
-0.0076759989530046
 20
0.0320329785181204
 30
0.0
 10
-0.0093873448014392
 20
0.0357536277510917
 30
0.0
 10
-0.0117710050903068
 20
0.0390770002692433
 30
0.0
 10
-0.0147620403566609
 20
0.0418961369570702
 30
0.0
 10
-0.0162938476897302
 20
0.0433477249534917
 30
0.0
 10
-0.0179631738856314
 20
0.0446617940871066
 30
0.0
 10
-0.0197585590391327
 20
0.0458383443579149
 30
0.0
 10
-0.0191855637773668
 20
0.04639605974603
 30
0.0
 10
-0.0186316683576706
 20
0.0469690550077707
 30
0.0
 10
-0.018096872780019
 20
0.0475573301431622
 30
0.0
 10
-0.0156711928386181
 20
0.0502618677786207
 30
0.0
 10
-0.0137153690118718
 20
0.0534018818130133
 30
0.0
 10
-0.0122828808574948
 20
0.0568933329412984
 30
0.0
 10
-0.0108045530821654
 20
0.0604917431850885
 30
0.0
 10
-0.0100558392734785
 20
0.0645409097014635
 30
0.0
 10
-0.0100558392734785
 20
0.0689109535644295
 30
0.0
 10
-0.0100558392734785
 20
0.0746638259924011
 30
0.0
 10
-0.011438667838484
 20
0.0799659421477878
 30
0.0
 10
-0.0141661252844314
 20
0.0846721432309702
 30
0.0
 10
-0.0168324632357755
 20
0.0892790251354351
 30
0.0
 10
-0.0206944512999977
 20
0.0931983127258415
 30
0.0
 10
-0.0256489503299362
 20
0.096338326760234
 30
0.0
 10
-0.0302863919817027
 20
0.0992797024372168
 30
0.0
 10
-0.0359552251046075
 20
0.1015182039264649
 30
0.0
 10
-0.042498830993812
 20
0.1030079916070008
 30
0.0
 10
-0.0516056356872367
 20
0.1050936943597915
 30
0.0
 10
-0.0631992398166656
 20
0.1054374915168208
 30
0.0
 10
-0.0747546442619801
 20
0.1049179758128452
 30
0.0
 10
-0.0783186747900749
 20
0.1047651770763878
 30
0.0
 10
-0.0821119034228559
 20
0.1045512588453271
 30
0.0
 10
-0.0861419700971737
 20
0.1042991409301521
 30
0.0
 10
-0.0861419700971737
 20
0.1042991409301521
 30
0.0
 10
-0.0934686695107606
 20
0.1038331047839165
 30
0.0
 10
-0.0934686695107606
 20
0.1038331047839165
 30
0.0
 10
-0.0934686695107606
 20
0.1038331047839165
 30
0.0
 10
-0.0934686695107606
 20
-0.0195289551026387
 30
0.0
 10
-0.0934686695107606
 20
-0.0195289551026387
 30
0.0
 10
-0.0934686695107606
 20
-0.0195289551026387
 30
0.0
 10
-0.0762406119741096
 20
-0.0203846280268307
 30
0.0
 10
-0.0762406119741096
 20
-0.0203846280268307
 30
0.0
 10
-0.0727759006247197
 20
-0.020560346573777
 30
0.0
 10
-0.0691354707284088
 20
-0.0206596657524945
 30
0.0
 10
-0.065323142253558
 20
-0.0206596657524945
 30
0.0
 10
-0.0563347565808954
 20
-0.0206596657524945
 30
0.0
 10
-0.0482135037376818
 20
-0.019880392196506
 30
0.0
 10
-0.0411885818286035
 20
-0.0183371249581796
 30
0.0
 10
-0.0338275026993087
 20
-0.0167250982884626
 30
0.0
 10
-0.0274634353254568
 20
-0.0142726785681791
 30
0.0
 10
-0.0222644583172067
 20
-0.011033345355069
 30
0.0
 10
-0.0167293240886642
 20
-0.007595373784549
 30
0.0
 10
-0.012431859625508
 20
-0.0032635296057227
 30
0.0
 10
-0.0094981238853633
 20
0.0018170283817906
 30
0.0
 10
-0.0065223684926852
 20
0.0069739857375579
 30
0.0
 10
-0.0050134809700795
 20
0.0128720169651741
 30
0.0
 10
-0.0050134809700795
 20
0.0193277635809055
 30
0.0
  0
SPLINE
  5
92
330
8B
100
AcDbEntity
  8
Text
100
AcDbSpline
210
0.0
220
0.0
230
1.0
 70
     9
 71
     3
 72
    20
 73
    16
 74
     0
 42
0.0000000001
 43
0.0000000001
 40
0.0
 40
0.0
 40
0.0
 40
0.0
 40
1.0
 40
1.0
 40
1.0
 40
2.0
 40
2.0
 40
2.0
 40
3.0
 40
3.0
 40
3.0
 40
4.0
 40
4.0
 40
4.0
 40
5.0
 40
5.0
 40
5.0
 40
5.0
 10
0.049394329117389
 20
0.03349220645138
 30
0.0
 10
0.049394329117389
 20
0.03349220645138
 30
0.0
 10
0.0343054538913066
 20
0.03349220645138
 30
0.0
 10
0.0343054538913066
 20
0.03349220645138
 30
0.0
 10
0.0360015198660651
 20
0.0391457597006593
 30
0.0
 10
0.0377930850511221
 20
0.0447916730131258
 30
0.0
 10
0.0396648695728522
 20
0.0503764668309891
 30
0.0
 10
0.0403868436026566
 20
0.0525232890783324
 30
0.0
 10
0.041120277537718
 20
0.0546624713888883
 30
0.0
 10
0.041861351409567
 20
0.0567863738257681
 30
0.0
 10
0.0426062452498602
 20
0.0546548314520755
 30
0.0
 10
0.0433320392480583
 20
0.0525232890783324
 30
0.0
 10
0.0440425533726309
 20
0.0503917467046399
 30
0.0
 10
0.045906697957523
 20
0.0448145928235893
 30
0.0
 10
0.0476982631426053
 20
0.0391610395743101
 30
0.0
 10
0.049394329117389
 20
0.03349220645138
 30
0.0
  0
SPLINE
  5
93
330
8B
100
AcDbEntity
  8
Text
100
AcDbSpline
210
0.0
220
0.0
230
1.0
 70
     9
 71
     3
 72
    59
 73
    55
 74
     0
 42
0.0000000001
 43
0.0000000001
 40
0.0
 40
0.0
 40
0.0
 40
0.0
 40
1.0
 40
1.0
 40
1.0
 40
2.0
 40
2.0
 40
2.0
 40
3.0
 40
3.0
 40
3.0
 40
4.0
 40
4.0
 40
4.0
 40
5.0
 40
5.0
 40
5.0
 40
6.0
 40
6.0
 40
6.0
 40
7.0
 40
7.0
 40
7.0
 40
8.0
 40
8.0
 40
8.0
 40
9.0
 40
9.0
 40
9.0
 40
10.0
 40
10.0
 40
10.0
 40
11.0
 40
11.0
 40
11.0
 40
12.0
 40
12.0
 40
12.0
 40
13.0
 40
13.0
 40
13.0
 40
14.0
 40
14.0
 40
14.0
 40
15.0
 40
15.0
 40
15.0
 40
16.0
 40
16.0
 40
16.0
 40
17.0
 40
17.0
 40
17.0
 40
18.0
 40
18.0
 40
18.0
 40
18.0
 10
0.0794995001697695
 20
0.0445395550979508
 30
0.0
 10
0.0737466277418232
 20
0.0629900025263244
 30
0.0
 10
0.0671075226423075
 20
0.0814633697651617
 30
0.0
 10
0.0597731832919206
 20
0.099447781047325
 30
0.0
 10
0.0597731832919206
 20
0.099447781047325
 30
0.0
 10
0.0577867997178474
 20
0.1043144208038029
 30
0.0
 10
0.0577867997178474
 20
0.1043144208038029
 30
0.0
 10
0.0577867997178474
 20
0.1043144208038029
 30
0.0
 10
0.0263981192791284
 20
0.1043144208038029
 30
0.0
 10
0.0263981192791284
 20
0.1043144208038029
 30
0.0
 10
0.0263981192791284
 20
0.1043144208038029
 30
0.0
 10
0.024419375641868
 20
0.0994248612368615
 30
0.0
 10
0.024419375641868
 20
0.0994248612368615
 30
0.0
 10
0.0171499757544527
 20
0.0814404499547234
 30
0.0
 10
0.0105337904654258
 20
0.0629823625894864
 30
0.0
 10
0.0047465383217589
 20
0.0445548349716016
 30
0.0
 10
-0.0010598136639778
 20
0.0260738277959263
 30
0.0
 10
-0.0058997136415731
 20
0.0075546209361366
 30
0.0
 10
-0.009647102653427
 20
-0.0104832699037919
 30
0.0
 10
-0.009647102653427
 20
-0.0104832699037919
 30
0.0
 10
-0.0116029264801985
 20
-0.0198956720701315
 30
0.0
 10
-0.0116029264801985
 20
-0.0198956720701315
 30
0.0
 10
-0.0116029264801985
 20
-0.0198956720701315
 30
0.0
 10
0.0214054205650756
 20
-0.0198956720701315
 30
0.0
 10
0.0214054205650756
 20
-0.0198956720701315
 30
0.0
 10
0.0214054205650756
 20
-0.0198956720701315
 30
0.0
 10
0.0226469102988555
 20
-0.0135850842540701
 30
0.0
 10
0.0226469102988555
 20
-0.0135850842540701
 30
0.0
 10
0.0234032640443805
 20
-0.0097651158424065
 30
0.0
 10
0.0242054574108326
 20
-0.0058916678729525
 30
0.0
 10
0.0250573103666056
 20
-0.0019647403457586
 30
0.0
 10
0.0254736869234951
 20
-0.0000471162031014
 30
0.0
 10
0.0259168032592419
 20
0.0018705079395558
 30
0.0
 10
0.0263828394054776
 20
0.0037881320822129
 30
0.0
 10
0.0263828394054776
 20
0.0037881320822129
 30
0.0
 10
0.0574086228450723
 20
0.0037881320822129
 30
0.0
 10
0.0574086228450723
 20
0.0037881320822129
 30
0.0
 10
0.0578784789597269
 20
0.0018705079395558
 30
0.0
 10
0.0583215952954738
 20
-0.0000547561399142
 30
0.0
 10
0.0587417918207317
 20
-0.0019723802825966
 30
0.0
 10
0.059597464744949
 20
-0.0058993078097905
 30
0.0
 10
0.0604034780798202
 20
-0.0097651158424065
 30
0.0
 10
0.0611598318253452
 20
-0.0135850842540701
 30
0.0
 10
0.0611598318253452
 20
-0.0135850842540701
 30
0.0
 10
0.0624013215591251
 20
-0.0198956720701315
 30
0.0
 10
0.0624013215591251
 20
-0.0198956720701315
 30
0.0
 10
0.0624013215591251
 20
-0.0198956720701315
 30
0.0
 10
0.0957954854139618
 20
-0.0198956720701315
 30
0.0
 10
0.0957954854139618
 20
-0.0198956720701315
 30
0.0
 10
0.0957954854139618
 20
-0.0198956720701315
 30
0.0
 10
0.0938358416187965
 20
-0.0104756299669791
 30
0.0
 10
0.0938358416187965
 20
-0.0104756299669791
 30
0.0
 10
0.0900884526069427
 20
0.0075317011256731
 30
0.0
 10
0.0852638325029981
 20
0.0260432680486247
 30
0.0
 10
0.0794995001697695
 20
0.0445395550979508
 30
0.0
  0
SPLINE
  5
94
330
8B
100
AcDbEntity
  8
Text
100
AcDbSpline
210
0.0
220
0.0
230
1.0
 70
     9
 71
     3
 72
    35
 73
    31
 74
     0
 42
0.0000000001
 43
0.0000000001
 40
0.0
 40
0.0
 40
0.0
 40
0.0
 40
1.0
 40
1.0
 40
1.0
 40
2.0
 40
2.0
 40
2.0
 40
3.0
 40
3.0
 40
3.0
 40
4.0
 40
4.0
 40
4.0
 40
5.0
 40
5.0
 40
5.0
 40
6.0
 40
6.0
 40
6.0
 40
7.0
 40
7.0
 40
7.0
 40
8.0
 40
8.0
 40
8.0
 40
9.0
 40
9.0
 40
9.0
 40
10.0
 40
10.0
 40
10.0
 40
10.0
 10
0.1283034165973302
 20
0.0756035382216851
 30
0.0
 10
0.1318292474413106
 20
0.0755882583480343
 30
0.0
 10
0.1349578015704461
 20
0.0752750209382561
 30
0.0
 10
0.1376088596481395
 20
0.0746867458028646
 30
0.0
 10
0.1400918391157499
 20
0.0741290304147495
 30
0.0
 10
0.1421240623107501
 20
0.0733803166060878
 30
0.0
 10
0.1436482297070067
 20
0.0724558842504545
 30
0.0
 10
0.1448400598514404
 20
0.0717377301890439
 30
0.0
 10
0.1456957327756577
 20
0.070927896885779
 30
0.0
 10
0.1462610881005857
 20
0.070003464530171
 30
0.0
 10
0.1467385841520531
 20
0.0692165510373444
 30
0.0
 10
0.1469601423199265
 20
0.0683379583026635
 30
0.0
 10
0.1469601423199265
 20
0.0672301674632713
 30
0.0
 10
0.1469601423199265
 20
0.0658244190878021
 30
0.0
 10
0.1467003844679387
 20
0.0646631486906447
 30
0.0
 10
0.1461694088587061
 20
0.0636775968404335
 30
0.0
 10
0.14561551343901
 20
0.0626462053692699
 30
0.0
 10
0.1447827603252815
 20
0.0617599726977763
 30
0.0
 10
0.1436214899281241
 20
0.0609654192681369
 30
0.0
 10
0.1422310214262552
 20
0.0600104271652274
 30
0.0
 10
0.1403936166202458
 20
0.0592540734197024
 30
0.0
 10
0.1381665750362294
 20
0.058711637905238
 30
0.0
 10
0.1356186561056474
 20
0.058100442959383
 30
0.0
 10
0.1325817812183661
 20
0.05778720554963
 30
0.0
 10
0.1291323497426396
 20
0.05778720554963
 30
0.0
 10
0.1291323497426396
 20
0.05778720554963
 30
0.0
 10
0.1283034165973302
 20
0.05778720554963
 30
0.0
 10
0.1283034165973302
 20
0.05778720554963
 30
0.0
 10
0.1283034165973302
 20
0.05778720554963
 30
0.0
 10
0.1283034165973302
 20
0.0756035382216851
 30
0.0
 10
0.1283034165973302
 20
0.0756035382216851
 30
0.0
  0
SPLINE
  5
95
330
8B
100
AcDbEntity
  8
Text
100
AcDbSpline
210
0.0
220
0.0
230
1.0
 70
     9
 71
     3
 72
    38
 73
    34
 74
     0
 42
0.0000000001
 43
0.0000000001
 40
0.0
 40
0.0
 40
0.0
 40
0.0
 40
1.0
 40
1.0
 40
1.0
 40
2.0
 40
2.0
 40
2.0
 40
3.0
 40
3.0
 40
3.0
 40
4.0
 40
4.0
 40
4.0
 40
5.0
 40
5.0
 40
5.0
 40
6.0
 40
6.0
 40
6.0
 40
7.0
 40
7.0
 40
7.0
 40
8.0
 40
8.0
 40
8.0
 40
9.0
 40
9.0
 40
9.0
 40
10.0
 40
10.0
 40
10.0
 40
11.0
 40
11.0
 40
11.0
 40
11.0
 10
0.1291285297742459
 20
0.0088916098802151
 30
0.0
 10
0.1291285297742459
 20
0.0088916098802151
 30
0.0
 10
0.1283034165973302
 20
0.0088992498170531
 30
0.0
 10
0.1283034165973302
 20
0.0088992498170531
 30
0.0
 10
0.1283034165973302
 20
0.0088992498170531
 30
0.0
 10
0.1283034165973302
 20
0.0284651280216319
 30
0.0
 10
0.1283034165973302
 20
0.0284651280216319
 30
0.0
 10
0.1283034165973302
 20
0.0284651280216319
 30
0.0
 10
0.1298963434249774
 20
0.0284651280216319
 30
0.0
 10
0.1298963434249774
 20
0.0284651280216319
 30
0.0
 10
0.1340868487726033
 20
0.0284651280216319
 30
0.0
 10
0.1378151379423874
 20
0.0281366107382029
 30
0.0
 10
0.1409818917556372
 20
0.0274795761713954
 30
0.0
 10
0.1438354081591847
 20
0.0268913010360039
 30
0.0
 10
0.1462076085428205
 20
0.0260585479222755
 30
0.0
 10
0.1480259135067854
 20
0.0250042366406484
 30
0.0
 10
0.1494622216295561
 20
0.0241791234637327
 30
0.0
 10
0.1505165329112085
 20
0.0232470511712614
 30
0.0
 10
0.1511582876043652
 20
0.0222385795106119
 30
0.0
 10
0.1516816232767597
 20
0.0214134663336962
 30
0.0
 10
0.1519261012550967
 20
0.0204584742307614
 30
0.0
 10
0.1519261012550967
 20
0.0192513642126768
 30
0.0
 10
0.1519261012550967
 20
0.017807416153068
 30
0.0
 10
0.1516319636874136
 20
0.0166385058190978
 30
0.0
 10
0.1510016688994634
 20
0.0155765546006579
 30
0.0
 10
0.1503255344906115
 20
0.0144458439508021
 30
0.0
 10
0.1492674032405906
 20
0.0134602921005656
 30
0.0
 10
0.1477737955916104
 20
0.0125816993658848
 30
0.0
 10
0.1458867311962295
 20
0.0114662685896797
 30
0.0
 10
0.1434152116339015
 20
0.0105800359181608
 30
0.0
 10
0.1404318163043854
 20
0.0099382812250042
 30
0.0
 10
0.1371695632807864
 20
0.0092430469740824
 30
0.0
 10
0.1333686947111927
 20
0.0088916098802151
 30
0.0
 10
0.1291285297742459
 20
0.0088916098802151
 30
0.0
  0
SPLINE
  5
96
330
8B
100
AcDbEntity
  8
Text
100
AcDbSpline
210
0.0
220
0.0
230
1.0
 70
     9
 71
     3
 72
    62
 73
    58
 74
     0
 42
0.0000000001
 43
0.0000000001
 40
0.0
 40
0.0
 40
0.0
 40
0.0
 40
1.0
 40
1.0
 40
1.0
 40
2.0
 40
2.0
 40
2.0
 40
3.0
 40
3.0
 40
3.0
 40
4.0
 40
4.0
 40
4.0
 40
5.0
 40
5.0
 40
5.0
 40
6.0
 40
6.0
 40
6.0
 40
7.0
 40
7.0
 40
7.0
 40
8.0
 40
8.0
 40
8.0
 40
9.0
 40
9.0
 40
9.0
 40
10.0
 40
10.0
 40
10.0
 40
11.0
 40
11.0
 40
11.0
 40
12.0
 40
12.0
 40
12.0
 40
13.0
 40
13.0
 40
13.0
 40
14.0
 40
14.0
 40
14.0
 40
15.0
 40
15.0
 40
15.0
 40
16.0
 40
16.0
 40
16.0
 40
17.0
 40
17.0
 40
17.0
 40
18.0
 40
18.0
 40
18.0
 40
19.0
 40
19.0
 40
19.0
 40
19.0
 10
0.1750903897034909
 20
0.0418961369570702
 30
0.0
 10
0.1735585823703963
 20
0.0433477249534917
 30
0.0
 10
0.1718892561745204
 20
0.0446617940871066
 30
0.0
 10
0.1700938710209938
 20
0.0458383443579149
 30
0.0
 10
0.1706668662827597
 20
0.04639605974603
 30
0.0
 10
0.1712207617024559
 20
0.0469690550077707
 30
0.0
 10
0.1717555572800822
 20
0.0475573301431622
 30
0.0
 10
0.1741812372215337
 20
0.0502618677786207
 30
0.0
 10
0.17613706104828
 20
0.0534018818130133
 30
0.0
 10
0.1775695492026822
 20
0.0568933329412984
 30
0.0
 10
0.1790478769779611
 20
0.0604917431850885
 30
0.0
 10
0.1797965907866733
 20
0.0645409097014635
 30
0.0
 10
0.1797965907866733
 20
0.0689109535644295
 30
0.0
 10
0.1797965907866733
 20
0.0746638259924011
 30
0.0
 10
0.1784137622216424
 20
0.0799659421477878
 30
0.0
 10
0.1756863047757204
 20
0.0846721432309702
 30
0.0
 10
0.173019966824351
 20
0.0892790251354351
 30
0.0
 10
0.169157978760154
 20
0.0931983127258415
 30
0.0
 10
0.1642034797302156
 20
0.096338326760234
 30
0.0
 10
0.1595660380784491
 20
0.0992797024372168
 30
0.0
 10
0.153897204955519
 20
0.1015182039264649
 30
0.0
 10
0.1473535990663271
 20
0.1030079916070008
 30
0.0
 10
0.1382467943729024
 20
0.1050936943597915
 30
0.0
 10
0.1266570102118925
 20
0.1054374915168208
 30
0.0
 10
0.115097785798159
 20
0.1049179758128452
 30
0.0
 10
0.1115337552700642
 20
0.1047651770763878
 30
0.0
 10
0.1077405266372832
 20
0.1045512588453271
 30
0.0
 10
0.103710459962978
 20
0.1042991409301521
 30
0.0
 10
0.103710459962978
 20
0.1042991409301521
 30
0.0
 10
0.0963837605493786
 20
0.1038331047839165
 30
0.0
 10
0.0963837605493786
 20
0.1038331047839165
 30
0.0
 10
0.0963837605493786
 20
0.1038331047839165
 30
0.0
 10
0.0963837605493786
 20
-0.0195289551026387
 30
0.0
 10
0.0963837605493786
 20
-0.0195289551026387
 30
0.0
 10
0.0963837605493786
 20
-0.0195289551026387
 30
0.0
 10
0.1136118180860169
 20
-0.0203846280268307
 30
0.0
 10
0.1136118180860169
 20
-0.0203846280268307
 30
0.0
 10
0.1170765294353941
 20
-0.020560346573777
 30
0.0
 10
0.120716959331743
 20
-0.0206596657524945
 30
0.0
 10
0.1245292878065938
 20
-0.0206596657524945
 30
0.0
 10
0.1335176734792564
 20
-0.0206596657524945
 30
0.0
 10
0.14163892632247
 20
-0.019880392196506
 30
0.0
 10
0.1486638482315483
 20
-0.0183371249581796
 30
0.0
 10
0.1560249273608178
 20
-0.0167250982884626
 30
0.0
 10
0.1623889947346697
 20
-0.0142726785681791
 30
0.0
 10
0.1675879717429704
 20
-0.011033345355069
 30
0.0
 10
0.1731231059714875
 20
-0.007595373784549
 30
0.0
 10
0.1774205704346185
 20
-0.0032635296057227
 30
0.0
 10
0.1803543061747885
 20
0.0018170283817906
 30
0.0
 10
0.1833300615674665
 20
0.0069739857375579
 30
0.0
 10
0.1848389490900722
 20
0.0128720169651741
 30
0.0
 10
0.1848389490900722
 20
0.0193277635809055
 30
0.0
 10
0.1848389490900722
 20
0.0239117256749069
 30
0.0
 10
0.1839412565133216
 20
0.0281824503591553
 30
0.0
 10
0.1821764311071471
 20
0.0320329785181204
 30
0.0
 10
0.1804650852587125
 20
0.0357536277510917
 30
0.0
 10
0.1780814249698197
 20
0.0390770002692433
 30
0.0
 10
0.1750903897034909
 20
0.0418961369570702
 30
0.0
  0
SPLINE
  5
97
330
8B
100
AcDbEntity
  8
Text
100
AcDbSpline
210
0.0
220
0.0
230
1.0
 70
     9
 71
     3
 72
    80
 73
    76
 74
     0
 42
0.0000000001
 43
0.0000000001
 40
0.0
 40
0.0
 40
0.0
 40
0.0
 40
1.0
 40
1.0
 40
1.0
 40
2.0
 40
2.0
 40
2.0
 40
3.0
 40
3.0
 40
3.0
 40
4.0
 40
4.0
 40
4.0
 40
5.0
 40
5.0
 40
5.0
 40
6.0
 40
6.0
 40
6.0
 40
7.0
 40
7.0
 40
7.0
 40
8.0
 40
8.0
 40
8.0
 40
9.0
 40
9.0
 40
9.0
 40
10.0
 40
10.0
 40
10.0
 40
11.0
 40
11.0
 40
11.0
 40
12.0
 40
12.0
 40
12.0
 40
13.0
 40
13.0
 40
13.0
 40
14.0
 40
14.0
 40
14.0
 40
15.0
 40
15.0
 40
15.0
 40
16.0
 40
16.0
 40
16.0
 40
17.0
 40
17.0
 40
17.0
 40
18.0
 40
18.0
 40
18.0
 40
19.0
 40
19.0
 40
19.0
 40
20.0
 40
20.0
 40
20.0
 40
21.0
 40
21.0
 40
21.0
 40
22.0
 40
22.0
 40
22.0
 40
23.0
 40
23.0
 40
23.0
 40
24.0
 40
24.0
 40
24.0
 40
25.0
 40
25.0
 40
25.0
 40
25.0
 10
0.243024707936671
 20
0.0989970247747654
 30
0.0
 10
0.2413821215196524
 20
0.0941303850182875
 30
0.0
 10
0.2396554957975923
 20
0.0894012641246415
 30
0.0
 10
0.2378448307704401
 20
0.0848173020306149
 30
0.0
 10
0.236041805680126
 20
0.0802562597470771
 30
0.0
 10
0.2341050816954243
 20
0.0757868967054189
 30
0.0
 10
0.2320422987531225
 20
0.0714168528424529
 30
0.0
 10
0.229948956063519
 20
0.0669933294217471
 30
0.0
 10
0.2277371943531787
 20
0.062585085874692
 30
0.0
 10
0.2253917337484002
 20
0.0581768423276117
 30
0.0
 10
0.2251319758964124
 20
0.0576878863709125
 30
0.0
 10
0.2248645781075866
 20
0.0571912904774005
 30
0.0
 10
0.2245971803187609
 20
0.0566946945838633
 30
0.0
 10
0.2243221425931223
 20
0.0571989304142133
 30
0.0
 10
0.2240471048674837
 20
0.0577031662445633
 30
0.0
 10
0.2237758871102389
 20
0.0582150420117513
 30
0.0
 10
0.221422786568673
 20
0.0625927258115048
 30
0.0
 10
0.2192186647951201
 20
0.0669856894849343
 30
0.0
 10
0.217163521789631
 20
0.0713786531583638
 30
0.0
 10
0.2151121987525863
 20
0.0757716168317933
 30
0.0
 10
0.213186934673091
 20
0.0802409798734516
 30
0.0
 10
0.2113800896143832
 20
0.0848173020306149
 30
0.0
 10
0.2096076242713707
 20
0.0893019449459239
 30
0.0
 10
0.2079306581386567
 20
0.09403106583957
 30
0.0
 10
0.2063988508055622
 20
0.0988518659751208
 30
0.0
 10
0.2063988508055622
 20
0.0988518659751208
 30
0.0
 10
0.2046684051150578
 20
0.1043144208038029
 30
0.0
 10
0.2046684051150578
 20
0.1043144208038029
 30
0.0
 10
0.2046684051150578
 20
0.1043144208038029
 30
0.0
 10
0.1707050659668994
 20
0.1043144208038029
 30
0.0
 10
0.1707050659668994
 20
0.1043144208038029
 30
0.0
 10
0.1707050659668994
 20
0.1043144208038029
 30
0.0
 10
0.1740016987061431
 20
0.0940921853341732
 30
0.0
 10
0.1740016987061431
 20
0.0940921853341732
 30
0.0
 10
0.176075941553702
 20
0.0876517185920926
 30
0.0
 10
0.1783717425691091
 20
0.0812570914709391
 30
0.0
 10
0.1808203423209736
 20
0.0750763825808463
 30
0.0
 10
0.1832918618833522
 20
0.0688498340698263
 30
0.0
 10
0.1860154993608805
 20
0.062653845306108
 30
0.0
 10
0.1889186753537236
 20
0.0566412150261234
 30
0.0
 10
0.1918447711570808
 20
0.0505827451252117
 30
0.0
 10
0.1950344447808447
 20
0.0445013554138364
 30
0.0
 10
0.1983960169830854
 20
0.038549844628455
 30
0.0
 10
0.2014099720599284
 20
0.0332171687257667
 30
0.0
 10
0.2046645851466388
 20
0.0278157333916372
 30
0.0
 10
0.2080796369066951
 20
0.0224524977416473
 30
0.0
 10
0.2080796369066951
 20
0.0224524977416473
 30
0.0
 10
0.2080796369066951
 20
-0.0198956720701315
 30
0.0
 10
0.2080796369066951
 20
-0.0198956720701315
 30
0.0
 10
0.2080796369066951
 20
-0.0198956720701315
 30
0.0
 10
0.2406868872687306
 20
-0.0198956720701315
 30
0.0
 10
0.2406868872687306
 20
-0.0198956720701315
 30
0.0
 10
0.2406868872687306
 20
-0.0198956720701315
 30
0.0
 10
0.2406868872687306
 20
0.0224601376784853
 30
0.0
 10
0.2406868872687306
 20
0.0224601376784853
 30
0.0
 10
0.2441133989340187
 20
0.027831013265288
 30
0.0
 10
0.2473565521155226
 20
0.0332477284730178
 30
0.0
 10
0.2503437674134324
 20
0.0385727644389186
 30
0.0
 10
0.2536976996788856
 20
0.0445548349716016
 30
0.0
 10
0.2568797333658368
 20
0.0506285847461641
 30
0.0
 10
0.2597981892323307
 20
0.0566259351524726
 30
0.0
 10
0.2627510248145705
 20
0.0626844050534096
 30
0.0
 10
0.2655014020709561
 20
0.0688880337539407
 30
0.0
 10
0.2679729216333095
 20
0.0750534627703827
 30
0.0
 10
0.2704635410377073
 20
0.0812723713445899
 30
0.0
 10
0.2727746219267652
 20
0.0876746384025561
 30
0.0
 10
0.2748412248375112
 20
0.0940921853341732
 30
0.0
 10
0.2748412248375112
 20
0.0940921853341732
 30
0.0
 10
0.2781378575767551
 20
0.1043144208038029
 30
0.0
 10
0.2781378575767551
 20
0.1043144208038029
 30
0.0
 10
0.2781378575767551
 20
0.1043144208038029
 30
0.0
 10
0.2448200930901723
 20
0.1043144208038029
 30
0.0
 10
0.2448200930901723
 20
0.1043144208038029
 30
0.0
 10
0.2448200930901723
 20
0.1043144208038029
 30
0.0
 10
0.243024707936671
 20
0.0989970247747654
 30
0.0
 10
0.243024707936671
 20
0.0989970247747654
 30
0.0
  0
SPLINE
  5
98
330
8B
100
AcDbEntity
  8
Text
100
AcDbSpline
210
0.0
220
0.0
230
1.0
 70
     9
 71
     3
 72
   134
 73
   130
 74
     0
 42
0.0000000001
 43
0.0000000001
 40
0.0
 40
0.0
 40
0.0
 40
0.0
 40
1.0
 40
1.0
 40
1.0
 40
2.0
 40
2.0
 40
2.0
 40
3.0
 40
3.0
 40
3.0
 40
4.0
 40
4.0
 40
4.0
 40
5.0
 40
5.0
 40
5.0
 40
6.0
 40
6.0
 40
6.0
 40
7.0
 40
7.0
 40
7.0
 40
8.0
 40
8.0
 40
8.0
 40
9.0
 40
9.0
 40
9.0
 40
10.0
 40
10.0
 40
10.0
 40
11.0
 40
11.0
 40
11.0
 40
12.0
 40
12.0
 40
12.0
 40
13.0
 40
13.0
 40
13.0
 40
14.0
 40
14.0
 40
14.0
 40
15.0
 40
15.0
 40
15.0
 40
16.0
 40
16.0
 40
16.0
 40
17.0
 40
17.0
 40
17.0
 40
18.0
 40
18.0
 40
18.0
 40
19.0
 40
19.0
 40
19.0
 40
20.0
 40
20.0
 40
20.0
 40
21.0
 40
21.0
 40
21.0
 40
22.0
 40
22.0
 40
22.0
 40
23.0
 40
23.0
 40
23.0
 40
24.0
 40
24.0
 40
24.0
 40
25.0
 40
25.0
 40
25.0
 40
26.0
 40
26.0
 40
26.0
 40
27.0
 40
27.0
 40
27.0
 40
28.0
 40
28.0
 40
28.0
 40
29.0
 40
29.0
 40
29.0
 40
30.0
 40
30.0
 40
30.0
 40
31.0
 40
31.0
 40
31.0
 40
32.0
 40
32.0
 40
32.0
 40
33.0
 40
33.0
 40
33.0
 40
34.0
 40
34.0
 40
34.0
 40
35.0
 40
35.0
 40
35.0
 40
36.0
 40
36.0
 40
36.0
 40
37.0
 40
37.0
 40
37.0
 40
38.0
 40
38.0
 40
38.0
 40
39.0
 40
39.0
 40
39.0
 40
40.0
 40
40.0
 40
40.0
 40
41.0
 40
41.0
 40
41.0
 40
42.0
 40
42.0
 40
42.0
 40
43.0
 40
43.0
 40
43.0
 40
43.0
 10
0.3853529109872069
 20
0.0426219309552936
 30
0.0
 10
0.3825796139203072
 20
0.0455098270745111
 30
0.0
 10
0.3793784803913367
 20
0.0480462860998614
 30
0.0
 10
0.3758335497052863
 20
0.0501549086631157
 30
0.0
 10
0.3726706158604303
 20
0.0520343331216332
 30
0.0
 10
0.3694503824894153
 20
0.0537533189069058
 30
0.0
 10
0.3661766695606098
 20
0.0553118660188577
 30
0.0
 10
0.3630710352419126
 20
0.0567863738257681
 30
0.0
 10
0.3600341603546313
 20
0.0581997621381005
 30
0.0
 10
0.3570584049619279
 20
0.059536751082179
 30
0.0
 10
0.3545907053679937
 20
0.060652181858384
 30
0.0
 10
0.3523598438155835
 20
0.061897491560583
 30
0.0
 10
0.3504231198308565
 20
0.0632344805046614
 30
0.0
 10
0.348895132466181
 20
0.0642964317231013
 30
0.0
 10
0.3476765625428646
 20
0.0654577021202588
 30
0.0
 10
0.3468132496818346
 20
0.066703011822483
 30
0.0
 10
0.3465152921457073
 20
0.067130848284579
 30
0.0
 10
0.3461180154309128
 20
0.0678795620932659
 30
0.0
 10
0.3461180154309128
 20
0.0694457491420306
 30
0.0
 10
0.3461180154309128
 20
0.070362541560851
 30
0.0
 10
0.346278454104183
 20
0.071118895306376
 30
0.0
 10
0.346606971387612
 20
0.0717453701258819
 30
0.0
 10
0.3469966081655937
 20
0.0725017238714069
 30
0.0
 10
0.3475199438379882
 20
0.0731205587540747
 30
0.0
 10
0.3482037181836782
 20
0.073655354331701
 30
0.0
 10
0.3490020915817114
 20
0.0742665492775814
 30
0.0
 10
0.3500220231476431
 20
0.0747631451710933
 30
0.0
 10
0.3512253131973087
 20
0.0751145822649859
 30
0.0
 10
0.3551942603770612
 20
0.0762911325357689
 30
0.0
 10
0.3605574960270259
 20
0.0758327363263713
 30
0.0
 10
0.365152918026259
 20
0.0743353087089721
 30
0.0
 10
0.3682127127240291
 20
0.0733497568587862
 30
0.0
 10
0.3712916072638184
 20
0.0718599691782502
 30
0.0
 10
0.3743017423722171
 20
0.0699117852882662
 30
0.0
 10
0.3743017423722171
 20
0.0699117852882662
 30
0.0
 10
0.3829768906351521
 20
0.0642811518494505
 30
0.0
 10
0.3829768906351521
 20
0.0642811518494505
 30
0.0
 10
0.3829768906351521
 20
0.0642811518494505
 30
0.0
 10
0.3919652763078147
 20
0.0933587513991117
 30
0.0
 10
0.3919652763078147
 20
0.0933587513991117
 30
0.0
 10
0.3919652763078147
 20
0.0933587513991117
 30
0.0
 10
0.387079536709267
 20
0.0965980846122218
 30
0.0
 10
0.387079536709267
 20
0.0965980846122218
 30
0.0
 10
0.3825605140782373
 20
0.0995852999101317
 30
0.0
 10
0.3777129741638545
 20
0.1019002007676338
 30
0.0
 10
0.3726629759236175
 20
0.1034663878164237
 30
0.0
 10
0.3625782593167944
 20
0.1065911219771654
 30
0.0
 10
0.3496782259905886
 20
0.1066522414717433
 30
0.0
 10
0.3396278890994861
 20
0.1034511079427729
 30
0.0
 10
0.3343907124070711
 20
0.1017856017152654
 30
0.0
 10
0.3297876504709999
 20
0.099272062500404
 30
0.0
 10
0.3259447622488727
 20
0.0959716097926907
 30
0.0
 10
0.3220407545321172
 20
0.0926253174640756
 30
0.0
 10
0.3189580400238836
 20
0.0885226713899606
 30
0.0
 10
0.3167844779976576
 20
0.0837859105594766
 30
0.0
 10
0.3146109159714317
 20
0.0790567896658053
 30
0.0
 10
0.3135107650688522
 20
0.0736935540158154
 30
0.0
 10
0.3135107650688522
 20
0.0678413624091516
 30
0.0
 10
0.3135107650688522
 20
0.0624704868223489
 30
0.0
 10
0.3144466573297171
 20
0.0576573266236361
 30
0.0
 10
0.3162955220409836
 20
0.0535317607390324
 30
0.0
 10
0.318075627320809
 20
0.0495513536540481
 30
0.0
 10
0.3204822074201906
 20
0.0460140629048359
 30
0.0
 10
0.3234503228760306
 20
0.0430115677332752
 30
0.0
 10
0.3262465397533687
 20
0.0401847911086356
 30
0.0
 10
0.3294400333455516
 20
0.037717091514676
 30
0.0
 10
0.3329505843158813
 20
0.035677228382863
 30
0.0
 10
0.3360676785398103
 20
0.0338589234189233
 30
0.0
 10
0.339249712226711
 20
0.0321781373177651
 30
0.0
 10
0.3425005053450276
 20
0.0306348700794388
 30
0.0
 10
0.3425005053450276
 20
0.0306348700794388
 30
0.0
 10
0.3515691103543632
 20
0.0263717853320284
 30
0.0
 10
0.3515691103543632
 20
0.0263717853320284
 30
0.0
 10
0.3540750096324119
 20
0.0252028749980582
 30
0.0
 10
0.356309691153241
 20
0.0239270055485577
 30
0.0
 10
0.3582120354222474
 20
0.0225747367308284
 30
0.0
 10
0.3597247429132722
 20
0.0215051455755505
 30
0.0
 10
0.3608860133104295
 20
0.0203362352415803
 30
0.0
 10
0.3617607860767167
 20
0.0190145261711273
 30
0.0
 10
0.3621045832337459
 20
0.0185026504039898
 30
0.0
 10
0.3625591594747246
 20
0.0176087777956582
 30
0.0
 10
0.3625591594747246
 20
0.0158897920103856
 30
0.0
 10
0.3625591594747246
 20
0.0147361615500662
 30
0.0
 10
0.3623758009909908
 20
0.0137735295103438
 30
0.0
 10
0.3620090840234474
 20
0.0130477355121204
 30
0.0
 10
0.3616270871822786
 20
0.0122761018929446
 30
0.0
 10
0.3610922916046522
 20
0.0116496270734388
 30
0.0
 10
0.3603359378591524
 20
0.0110766318116981
 30
0.0
 10
0.3594038655667064
 20
0.0103661176871255
 30
0.0
 10
0.3582082154538284
 20
0.0098007623621975
 30
0.0
 10
0.3567795472678957
 20
0.009380565836889
 30
0.0
 10
0.3523713037207901
 20
0.0081123363242265
 30
0.0
 10
0.3461332953045636
 20
0.0085554526599733
 30
0.0
 10
0.34062108088651
 20
0.0103966774344271
 30
0.0
 10
0.3370341305479517
 20
0.0115961475156989
 30
0.0
 10
0.3335961589774317
 20
0.0133074933641082
 30
0.0
 10
0.330395025448436
 20
0.0154848753587531
 30
0.0
 10
0.330395025448436
 20
0.0154848753587531
 30
0.0
 10
0.3213951798705415
 20
0.021604464754268
 30
0.0
 10
0.3213951798705415
 20
0.021604464754268
 30
0.0
 10
0.3213951798705415
 20
0.021604464754268
 30
0.0
 10
0.3130943885120132
 20
-0.0080308501835083
 30
0.0
 10
0.3130943885120132
 20
-0.0080308501835083
 30
0.0
 10
0.3130943885120132
 20
-0.0080308501835083
 30
0.0
 10
0.317506452027462
 20
-0.0112243437756408
 30
0.0
 10
0.317506452027462
 20
-0.0112243437756408
 30
0.0
 10
0.3220636743425808
 20
-0.0145247964833288
 30
0.0
 10
0.3272359115719988
 20
-0.0170688954455171
 30
0.0
 10
0.3328818248844401
 20
-0.0187955211675773
 30
0.0
 10
0.3384475188602588
 20
-0.0204839472055483
 30
0.0
 10
0.3446129478767009
 20
-0.0213472600666036
 30
0.0
 10
0.3512062133552389
 20
-0.0213472600666036
 30
0.0
 10
0.3571195244565059
 20
-0.0213472600666036
 30
0.0
 10
0.3627425179585089
 20
-0.0205221468896879
 30
0.0
 10
0.3679223951247144
 20
-0.018887200409482
 30
0.0
 10
0.3732932707115424
 20
-0.0171911344346983
 30
0.0
 10
0.3780453114156772
 20
-0.014654675409348
 30
0.0
 10
0.3820524582794936
 20
-0.0113389428280092
 30
0.0
 10
0.3861627442904718
 20
-0.0079468108784416
 30
0.0
 10
0.3894097174403694
 20
-0.0037601254992599
 30
0.0
 10
0.3917016984873827
 20
0.0010835944467544
 30
0.0
 10
0.394001319471234
 20
0.0059425942663943
 30
0.0
 10
0.3951664098367852
 20
0.0114127890319146
 30
0.0
 10
0.3951664098367852
 20
0.0173413800068324
 30
0.0
 10
0.3951664098367852
 20
0.0228421345196289
 30
0.0
 10
0.3942381575127582
 20
0.0277469739602212
 30
0.0
 10
0.3924122126119553
 20
0.0319336593394029
 30
0.0
 10
0.3906435672373618
 20
0.0359828258558031
 30
0.0
 10
0.388267546885307
 20
0.0395735961627553
 30
0.0
 10
0.3853529109872069
 20
0.0426219309552936
 30
0.0
  0
LWPOLYLINE
  5
99
330
8B
100
AcDbEntity
  8
Text
100
AcDbPolyline
 90
       12
 70
     1
 43
0.0
 10
0.466003904062859
 20
0.0580928030225449
 10
0.4336716914264622
 20
0.0580928030225449
 10
0.4336716914264622
 20
0.1043144208038029
 10
0.4010644410644014
 20
0.1043144208038029
 10
0.4010644410644014
 20
-0.0198956720701315
 10
0.4336716914264622
 20
-0.0198956720701315
 10
0.4336716914264622
 20
0.0281595305486917
 10
0.466003904062859
 20
0.0281595305486917
 10
0.466003904062859
 20
-0.0198956720701315
 10
0.4986111544248691
 20
-0.0198956720701315
 10
0.4986111544248691
 20
0.1043144208038029
 10
0.466003904062859
 20
0.1043144208038029
  0
SPLINE
  5
9A
330
8B
100
AcDbEntity
  8
Text
100
AcDbSpline
210
0.0
220
0.0
230
1.0
 70
     9
 71
     3
 72
    50
 73
    46
 74
     0
 42
0.0000000001
 43
0.0000000001
 40
0.0
 40
0.0
 40
0.0
 40
0.0
 40
1.0
 40
1.0
 40
1.0
 40
2.0
 40
2.0
 40
2.0
 40
3.0
 40
3.0
 40
3.0
 40
4.0
 40
4.0
 40
4.0
 40
5.0
 40
5.0
 40
5.0
 40
6.0
 40
6.0
 40
6.0
 40
7.0
 40
7.0
 40
7.0
 40
8.0
 40
8.0
 40
8.0
 40
9.0
 40
9.0
 40
9.0
 40
10.0
 40
10.0
 40
10.0
 40
11.0
 40
11.0
 40
11.0
 40
12.0
 40
12.0
 40
12.0
 40
13.0
 40
13.0
 40
13.0
 40
14.0
 40
14.0
 40
14.0
 40
15.0
 40
15.0
 40
15.0
 40
15.0
 10
0.5387972221156537
 20
0.0425531715238776
 30
0.0
 10
0.5387972221156537
 20
0.0481150455312774
 30
0.0
 10
0.5396185153241757
 20
0.0530428047823332
 30
0.0
 10
0.5412420018991498
 20
0.0572065703510513
 30
0.0
 10
0.5428463886320288
 20
0.0613244962988423
 30
0.0
 10
0.544955011195283
 20
0.0647777477429877
 30
0.0
 10
0.5474991101574461
 20
0.0674670055047955
 30
0.0
 10
0.5500355691828469
 20
0.0701409833929776
 30
0.0
 10
0.5528394259969975
 20
0.072104447156562
 30
0.0
 10
0.5560672993048507
 20
0.073471995847942
 30
0.0
 10
0.5593295523284243
 20
0.0748548244129729
 30
0.0
 10
0.5625688855415345
 20
0.0755271388534311
 30
0.0
 10
0.5659648374594958
 20
0.0755271388534311
 30
0.0
 10
0.5696167272610511
 20
0.0755271388534311
 30
0.0
 10
0.5730126791790377
 20
0.0748701042866237
 30
0.0
 10
0.5763398716655831
 20
0.0735101955320564
 30
0.0
 10
0.5795868448155312
 20
0.0721884864616287
 30
0.0
 10
0.582394521598101
 20
0.070247942508508
 30
0.0
 10
0.5849309806234512
 20
0.067573964620351
 30
0.0
 10
0.5874674396488015
 20
0.0648999867321689
 30
0.0
 10
0.5895455024647541
 20
0.0614238154775345
 30
0.0
 10
0.5911040495767313
 20
0.0572371300983529
 30
0.0
 10
0.5927046163412166
 20
0.0529511255404537
 30
0.0
 10
0.5935144496445066
 20
0.0478018081214992
 30
0.0
 10
0.5935144496445066
 20
0.0419419765780226
 30
0.0
 10
0.5935144496445066
 20
0.0363189830760196
 30
0.0
 10
0.5927007963727722
 20
0.0313530241408494
 30
0.0
 10
0.5910925896714995
 20
0.0271816186353186
 30
0.0
 10
0.5895149427174525
 20
0.0230789725611531
 30
0.0
 10
0.5874292399646871
 20
0.0196333610538457
 30
0.0
 10
0.5848889609709178
 20
0.0169517432288255
 30
0.0
 10
0.5823601418824057
 20
0.0142854052774813
 30
0.0
 10
0.5795753849102994
 20
0.0123372213875478
 30
0.0
 10
0.5763780713497227
 20
0.0109925925066313
 30
0.0
 10
0.569563247703286
 20
0.0081352561346901
 30
0.0
 10
0.5624695663628169
 20
0.0084026539235159
 30
0.0
 10
0.5560138197470855
 20
0.0110002324434441
 30
0.0
 10
0.5527439267866991
 20
0.012314301577059
 30
0.0
 10
0.5499400699725231
 20
0.0142472055933922
 30
0.0
 10
0.5474418106313124
 20
0.0168982636710856
 30
0.0
 10
0.5449091715743558
 20
0.0195875214328933
 30
0.0
 10
0.5428196488531714
 20
0.0230866124979912
 30
0.0
 10
0.5412343619623118
 20
0.0272809378140108
 30
0.0
 10
0.5396185153241757
 20
0.0315745823087228
 30
0.0
 10
0.5387972221156537
 20
0.0367086198540265
 30
0.0
 10
0.5387972221156537
 20
0.0425531715238776
 30
0.0
  0
SPLINE
  5
9B
330
8B
100
AcDbEntity
  8
Text
100
AcDbSpline
210
0.0
220
0.0
230
1.0
 70
     9
 71
     3
 72
    74
 73
    70
 74
     0
 42
0.0000000001
 43
0.0000000001
 40
0.0
 40
0.0
 40
0.0
 40
0.0
 40
1.0
 40
1.0
 40
1.0
 40
2.0
 40
2.0
 40
2.0
 40
3.0
 40
3.0
 40
3.0
 40
4.0
 40
4.0
 40
4.0
 40
5.0
 40
5.0
 40
5.0
 40
6.0
 40
6.0
 40
6.0
 40
7.0
 40
7.0
 40
7.0
 40
8.0
 40
8.0
 40
8.0
 40
9.0
 40
9.0
 40
9.0
 40
10.0
 40
10.0
 40
10.0
 40
11.0
 40
11.0
 40
11.0
 40
12.0
 40
12.0
 40
12.0
 40
13.0
 40
13.0
 40
13.0
 40
14.0
 40
14.0
 40
14.0
 40
15.0
 40
15.0
 40
15.0
 40
16.0
 40
16.0
 40
16.0
 40
17.0
 40
17.0
 40
17.0
 40
18.0
 40
18.0
 40
18.0
 40
19.0
 40
19.0
 40
19.0
 40
20.0
 40
20.0
 40
20.0
 40
21.0
 40
21.0
 40
21.0
 40
22.0
 40
22.0
 40
22.0
 40
23.0
 40
23.0
 40
23.0
 40
23.0
 10
0.6180653866263003
 20
0.0769558070394143
 30
0.0
 10
0.6153761288644925
 20
0.0816620081225968
 30
0.0
 10
0.6121176958093379
 20
0.0858868931858928
 30
0.0
 10
0.6083855866711348
 20
0.0895005833033338
 30
0.0
 10
0.6046802173118142
 20
0.0930989935471239
 30
0.0
 10
0.6005431915219535
 20
0.0961396884028242
 30
0.0
 10
0.596089108353946
 20
0.0985539084389934
 30
0.0
 10
0.5916694049016339
 20
0.100952848601537
 30
0.0
 10
0.5869211841659433
 20
0.1027864334391274
 30
0.0
 10
0.5819743250727925
 20
0.1040088233308628
 30
0.0
 10
0.5720576870761028
 20
0.1064612430511463
 30
0.0
 10
0.5613312157761231
 20
0.1064154034302192
 30
0.0
 10
0.5513419983795984
 20
0.1040241032045136
 30
0.0
 10
0.5462423405500405
 20
0.1028017133127782
 30
0.0
 10
0.5413680608567498
 20
0.1009299287910481
 30
0.0
 10
0.5368566781625583
 20
0.0984698691339266
 30
0.0
 10
0.5323376555315286
 20
0.0960098094768051
 30
0.0
 10
0.5281242303734896
 20
0.0929079951265521
 30
0.0
 10
0.5243271817722644
 20
0.0892561053249968
 30
0.0
 10
0.5204957534553438
 20
0.0855660158393019
 30
0.0
 10
0.5171571010635413
 20
0.0812647314077518
 30
0.0
 10
0.5144067238071557
 20
0.0764668510827151
 30
0.0
 10
0.5116754463927893
 20
0.0716995305049295
 30
0.0
 10
0.509532444113865
 20
0.0663286549181268
 30
0.0
 10
0.5080388364648849
 20
0.0604993831219013
 30
0.0
 10
0.5065605086895807
 20
0.0547235908834662
 30
0.0
 10
0.5058079749124747
 20
0.0483748033832651
 30
0.0
 10
0.5058079749124747
 20
0.0416363791050824
 30
0.0
 10
0.5058079749124747
 20
0.034997274005592
 30
0.0
 10
0.5065452288159299
 20
0.028763085557734
 30
0.0
 10
0.5080044567491895
 20
0.0231095323084547
 30
0.0
 10
0.5094675046508428
 20
0.0174254193118739
 30
0.0
 10
0.511568487277259
 20
0.0121615028406015
 30
0.0
 10
0.5142462851338602
 20
0.0074629416942571
 30
0.0
 10
0.516943182832506
 20
0.0027414607374238
 30
0.0
 10
0.5202398155717749
 20
-0.0014987041995482
 30
0.0
 10
0.524044504109813
 20
-0.00512767419064
 30
0.0
 10
0.5277918931216669
 20
-0.0087031646239666
 30
0.0
 10
0.5319518387219912
 20
-0.0117285796059908
 30
0.0
 10
0.5364059218899734
 20
-0.0141122398948836
 30
0.0
 10
0.5408103454686347
 20
-0.0164806203101256
 30
0.0
 10
0.5455471062991188
 20
-0.0182912853372525
 30
0.0
 10
0.5504901454238002
 20
-0.0195136752289879
 30
0.0
 10
0.555410264738018
 20
-0.0207284251839105
 30
0.0
 10
0.5605137425360454
 20
-0.0213472600666036
 30
0.0
 10
0.5656592399865556
 20
-0.0213472600666036
 30
0.0
 10
0.5709422562998978
 20
-0.0213472600666036
 30
0.0
 10
0.5761603331502682
 20
-0.0207360651207233
 30
0.0
 10
0.5811721317063908
 20
-0.0195213151658007
 30
0.0
 10
0.5862450497570661
 20
-0.0182989252740905
 30
0.0
 10
0.5911040495767313
 20
-0.0164347806891733
 30
0.0
 10
0.5956077923340849
 20
-0.0139747210320517
 30
0.0
 10
0.600138274870321
 20
-0.0115070214381174
 30
0.0
 10
0.6043478800599916
 20
-0.0083975671510264
 30
0.0
 10
0.608122008850728
 20
-0.0047380374126331
 30
0.0
 10
0.6119305173571598
 20
-0.0010403079901506
 30
0.0
 10
0.6152424299700795
 20
0.0032609764413994
 30
0.0
 10
0.6179622474791888
 20
0.0080588567664614
 30
0.0
 10
0.6206553252094156
 20
0.0128108974705962
 30
0.0
 10
0.6227868675831334
 20
0.0181435733732845
 30
0.0
 10
0.6242995750741582
 20
0.0239117256749069
 30
0.0
 10
0.6258122825651577
 20
0.0296798779765292
 30
0.0
 10
0.6265800962159397
 20
0.0360286654767303
 30
0.0
 10
0.6265800962159397
 20
0.0427823696285891
 30
0.0
 10
0.6265800962159397
 20
0.049436754601705
 30
0.0
 10
0.6258237424704146
 20
0.0556862229232138
 30
0.0
 10
0.6243377747582725
 20
0.0613474161093058
 30
0.0
 10
0.6228441671092924
 20
0.0670238891690487
 30
0.0
 10
0.6207355445460382
 20
0.0722725257666955
 30
0.0
 10
0.6180653866263003
 20
0.0769558070394143
 30
0.0
  0
SPLINE
  5
9C
330
8B
100
AcDbEntity
  8
Text
100
AcDbSpline
210
0.0
220
0.0
230
1.0
 70
     9
 71
     3
 72
   107
 73
   103
 74
     0
 42
0.0000000001
 43
0.0000000001
 40
0.0
 40
0.0
 40
0.0
 40
0.0
 40
1.0
 40
1.0
 40
1.0
 40
2.0
 40
2.0
 40
2.0
 40
3.0
 40
3.0
 40
3.0
 40
4.0
 40
4.0
 40
4.0
 40
5.0
 40
5.0
 40
5.0
 40
6.0
 40
6.0
 40
6.0
 40
7.0
 40
7.0
 40
7.0
 40
8.0
 40
8.0
 40
8.0
 40
9.0
 40
9.0
 40
9.0
 40
10.0
 40
10.0
 40
10.0
 40
11.0
 40
11.0
 40
11.0
 40
12.0
 40
12.0
 40
12.0
 40
13.0
 40
13.0
 40
13.0
 40
14.0
 40
14.0
 40
14.0
 40
15.0
 40
15.0
 40
15.0
 40
16.0
 40
16.0
 40
16.0
 40
17.0
 40
17.0
 40
17.0
 40
18.0
 40
18.0
 40
18.0
 40
19.0
 40
19.0
 40
19.0
 40
20.0
 40
20.0
 40
20.0
 40
21.0
 40
21.0
 40
21.0
 40
22.0
 40
22.0
 40
22.0
 40
23.0
 40
23.0
 40
23.0
 40
24.0
 40
24.0
 40
24.0
 40
25.0
 40
25.0
 40
25.0
 40
26.0
 40
26.0
 40
26.0
 40
27.0
 40
27.0
 40
27.0
 40
28.0
 40
28.0
 40
28.0
 40
29.0
 40
29.0
 40
29.0
 40
30.0
 40
30.0
 40
30.0
 40
31.0
 40
31.0
 40
31.0
 40
32.0
 40
32.0
 40
32.0
 40
33.0
 40
33.0
 40
33.0
 40
34.0
 40
34.0
 40
34.0
 40
34.0
 10
0.7444528614949048
 20
0.0973697182313723
 30
0.0
 10
0.7435895486338748
 20
0.0897145015343691
 30
0.0
 10
0.7425352373522981
 20
0.0819676055955117
 30
0.0
 10
0.7413281273341631
 20
0.0743429486458101
 30
0.0
 10
0.740090457568777
 20
0.0665807728333018
 30
0.0
 10
0.7386694293196317
 20
0.0587651174630032
 30
0.0
 10
0.737103242270867
 20
0.0511251806396508
 30
0.0
 10
0.7360336511156144
 20
0.0459300235997944
 30
0.0
 10
0.734902940465708
 20
0.0407807061808651
 30
0.0
 10
0.7337111103212994
 20
0.0356619485092122
 30
0.0
 10
0.7337111103212994
 20
0.0356619485092122
 30
0.0
 10
0.7165900119001915
 20
0.1043144208038029
 30
0.0
 10
0.7165900119001915
 20
0.1043144208038029
 30
0.0
 10
0.7165900119001915
 20
0.1043144208038029
 30
0.0
 10
0.7011114998960768
 20
0.1043144208038029
 30
0.0
 10
0.7011114998960768
 20
0.1043144208038029
 30
0.0
 10
0.7011114998960768
 20
0.1043144208038029
 30
0.0
 10
0.700912861538667
 20
0.1050860544229787
 30
0.0
 10
0.700912861538667
 20
0.1050860544229787
 30
0.0
 10
0.700912861538667
 20
0.1050860544229787
 30
0.0
 10
0.7007218631180951
 20
0.1043144208038029
 30
0.0
 10
0.7007218631180951
 20
0.1043144208038029
 30
0.0
 10
0.7007218631180951
 20
0.1043144208038029
 30
0.0
 10
0.6860226246699691
 20
0.1043144208038029
 30
0.0
 10
0.6860226246699691
 20
0.1043144208038029
 30
0.0
 10
0.6860226246699691
 20
0.1043144208038029
 30
0.0
 10
0.6691154444798965
 20
0.0361356245922859
 30
0.0
 10
0.6691154444798965
 20
0.0361356245922859
 30
0.0
 10
0.6679465341459263
 20
0.0411474231483832
 30
0.0
 10
0.6668349233381403
 20
0.0462050613254329
 30
0.0
 10
0.6657882519933512
 20
0.0513085391234351
 30
0.0
 10
0.6642106050393042
 20
0.0589943155677146
 30
0.0
 10
0.662793396758578
 20
0.0667182916961338
 30
0.0
 10
0.6615404471195411
 20
0.0744728275718292
 30
0.0
 10
0.6602951374173674
 20
0.0821891637633851
 30
0.0
 10
0.6592637459462038
 20
0.0898749402076899
 30
0.0
 10
0.6584691925165645
 20
0.0973162386736072
 30
0.0
 10
0.6584691925165645
 20
0.0973162386736072
 30
0.0
 10
0.6577242986762713
 20
0.1043144208038029
 30
0.0
 10
0.6577242986762713
 20
0.1043144208038029
 30
0.0
 10
0.6577242986762713
 20
0.1043144208038029
 30
0.0
 10
0.6247044917257906
 20
0.1043144208038029
 30
0.0
 10
0.6247044917257906
 20
0.1043144208038029
 30
0.0
 10
0.6247044917257906
 20
0.1043144208038029
 30
0.0
 10
0.6256480239234936
 20
0.0956430925093123
 30
0.0
 10
0.6256480239234936
 20
0.0956430925093123
 30
0.0
 10
0.6276496873711671
 20
0.0772232048282149
 30
0.0
 10
0.630728581911007
 20
0.0585053596110154
 30
0.0
 10
0.6347930283010328
 20
0.0400014326248766
 30
0.0
 10
0.6388498347541952
 20
0.0215051455755505
 30
0.0
 10
0.6438501734050862
 20
0.0031616572627071
 30
0.0
 10
0.6496488854540354
 20
-0.0145095166097033
 30
0.0
 10
0.6496488854540354
 20
-0.0145095166097033
 30
0.0
 10
0.6514175308286287
 20
-0.0198956720701315
 30
0.0
 10
0.6514175308286287
 20
-0.0198956720701315
 30
0.0
 10
0.6514175308286287
 20
-0.0198956720701315
 30
0.0
 10
0.6686035687127338
 20
-0.0198956720701315
 30
0.0
 10
0.6686035687127338
 20
-0.0198956720701315
 30
0.0
 10
0.6686035687127338
 20
-0.0198956720701315
 30
0.0
 10
0.6686035687127338
 20
-0.0198956720701315
 30
0.0
 10
0.6686035687127338
 20
-0.0198956720701315
 30
0.0
 10
0.6686035687127338
 20
-0.0198956720701315
 30
0.0
 10
0.6713424860639129
 20
-0.0198956720701315
 30
0.0
 10
0.6713424860639129
 20
-0.0198956720701315
 30
0.0
 10
0.6713424860639129
 20
-0.0198956720701315
 30
0.0
 10
0.6858010665020958
 20
-0.0198956720701315
 30
0.0
 10
0.6858010665020958
 20
-0.0198956720701315
 30
0.0
 10
0.6858010665020958
 20
-0.0198956720701315
 30
0.0
 10
0.7009434212859686
 20
0.0406813870021476
 30
0.0
 10
0.7009434212859686
 20
0.0406813870021476
 30
0.0
 10
0.7009434212859686
 20
0.0406813870021476
 30
0.0
 10
0.7161392556275814
 20
-0.0198956720701315
 30
0.0
 10
0.7161392556275814
 20
-0.0198956720701315
 30
0.0
 10
0.7161392556275814
 20
-0.0198956720701315
 30
0.0
 10
0.7314420490847498
 20
-0.0198956720701315
 30
0.0
 10
0.7314420490847498
 20
-0.0198956720701315
 30
0.0
 10
0.7314420490847498
 20
-0.0198956720701315
 30
0.0
 10
0.7314420490847498
 20
-0.0198956720701315
 30
0.0
 10
0.7314420490847498
 20
-0.0198956720701315
 30
0.0
 10
0.7314420490847498
 20
-0.0198956720701315
 30
0.0
 10
0.7343452250776434
 20
-0.0198956720701315
 30
0.0
 10
0.7343452250776434
 20
-0.0198956720701315
 30
0.0
 10
0.7343452250776434
 20
-0.0198956720701315
 30
0.0
 10
0.7508322087424327
 20
-0.0198956720701315
 30
0.0
 10
0.7508322087424327
 20
-0.0198956720701315
 30
0.0
 10
0.7508322087424327
 20
-0.0198956720701315
 30
0.0
 10
0.7526046740854201
 20
-0.0145171565465413
 30
0.0
 10
0.7526046740854201
 20
-0.0145171565465413
 30
0.0
 10
0.7584033861343693
 20
0.0031005377681292
 30
0.0
 10
0.7634151846904666
 20
0.0214363861441345
 30
0.0
 10
0.7675025508909812
 20
0.0399937926880385
 30
0.0
 10
0.7715669972809817
 20
0.0584900797373646
 30
0.0
 10
0.7746764515680474
 20
0.0772079249545893
 30
0.0
 10
0.7767392345103746
 20
0.0956201726988234
 30
0.0
 10
0.7767392345103746
 20
0.0956201726988234
 30
0.0
 10
0.7777095064869349
 20
0.1043144208038029
 30
0.0
 10
0.7777095064869349
 20
0.1043144208038029
 30
0.0
 10
0.7777095064869349
 20
0.1043144208038029
 30
0.0
 10
0.7452397749877062
 20
0.1043144208038029
 30
0.0
 10
0.7452397749877062
 20
0.1043144208038029
 30
0.0
 10
0.7452397749877062
 20
0.1043144208038029
 30
0.0
 10
0.7444528614949048
 20
0.0973697182313723
 30
0.0
 10
0.7444528614949048
 20
0.0973697182313723
 30
0.0
  0
LWPOLYLINE
  5
9D
330
8B
100
AcDbEntity
  8
Text
100
AcDbPolyline
 90
       12
 70
     1
 43
0.0
 10
0.7818427123083767
 20
-0.0198956720701315
 10
0.8576156057222936
 20
-0.0198956720701315
 10
0.8576156057222936
 20
0.0098084022990356
 10
0.8144499626704373
 20
0.0098084022990356
 10
0.8144499626704373
 20
0.0281595305486917
 10
0.8540248354153415
 20
0.0281595305486917
 10
0.8540248354153415
 20
0.0580164036543415
 10
0.8144499626704373
 20
0.0580164036543415
 10
0.8144499626704373
 20
0.0746103464346359
 10
0.8576156057222936
 20
0.0746103464346359
 10
0.8576156057222936
 20
0.1043144208038029
 10
0.7818427123083767
 20
0.1043144208038029
  0
SPLINE
  5
9E
330
8B
100
AcDbEntity
  8
Text
100
AcDbSpline
210
0.0
220
0.0
230
1.0
 70
     9
 71
     3
 72
    32
 73
    28
 74
     0
 42
0.0000000001
 43
0.0000000001
 40
0.0
 40
0.0
 40
0.0
 40
0.0
 40
1.0
 40
1.0
 40
1.0
 40
2.0
 40
2.0
 40
2.0
 40
3.0
 40
3.0
 40
3.0
 40
4.0
 40
4.0
 40
4.0
 40
5.0
 40
5.0
 40
5.0
 40
6.0
 40
6.0
 40
6.0
 40
7.0
 40
7.0
 40
7.0
 40
8.0
 40
8.0
 40
8.0
 40
9.0
 40
9.0
 40
9.0
 40
9.0
 10
0.897343277203706
 20
0.0752826608750941
 30
0.0
 10
0.9008958478265689
 20
0.0751986215700526
 30
0.0
 10
0.9040969813555395
 20
0.0748089847920205
 30
0.0
 10
0.9068779183592772
 20
0.0741137505410987
 30
0.0
 10
0.9097428946679807
 20
0.0734032364165513
 30
0.0
 10
0.9121112750832732
 20
0.0724253245031529
 30
0.0
 10
0.9139143001735622
 20
0.0712105745482303
 30
0.0
 10
0.9154422875381872
 20
0.070179183077092
 30
0.0
 10
0.9165500783775794
 20
0.0690102727431218
 30
0.0
 10
0.9173064321231297
 20
0.0676350841149037
 30
0.0
 10
0.9180245861844898
 20
0.0663286549181268
 30
0.0
 10
0.9183683833415443
 20
0.0648006675534513
 30
0.0
 10
0.9183683833415443
 20
0.0629518028421848
 30
0.0
 10
0.9183683833415443
 20
0.0610418186363657
 30
0.0
 10
0.9180016663740262
 20
0.0593992322193471
 30
0.0
 10
0.9172453126285265
 20
0.0579323643492747
 30
0.0
 10
0.9165118786934902
 20
0.0564960562264787
 30
0.0
 10
0.915419367727774
 20
0.0552889462083941
 30
0.0
 10
0.9139143001735622
 20
0.054234634926767
 30
0.0
 10
0.9121418348305748
 20
0.0529969651613808
 30
0.0
 10
0.9098269339730475
 20
0.0519961334375189
 30
0.0
 10
0.9070307170957347
 20
0.0512703394393207
 30
0.0
 10
0.9042345002183713
 20
0.0505445454410973
 30
0.0
 10
0.9009798871316357
 20
0.0501396287894649
 30
0.0
 10
0.897343277203706
 20
0.0500785092948617
 30
0.0
 10
0.897343277203706
 20
0.0500785092948617
 30
0.0
 10
0.897343277203706
 20
0.0752826608750941
 30
0.0
 10
0.897343277203706
 20
0.0752826608750941
 30
0.0
  0
SPLINE
  5
9F
330
8B
100
AcDbEntity
  8
Text
100
AcDbSpline
210
0.0
220
0.0
230
1.0
 70
     9
 71
     3
 72
    71
 73
    67
 74
     0
 42
0.0000000001
 43
0.0000000001
 40
0.0
 40
0.0
 40
0.0
 40
0.0
 40
1.0
 40
1.0
 40
1.0
 40
2.0
 40
2.0
 40
2.0
 40
3.0
 40
3.0
 40
3.0
 40
4.0
 40
4.0
 40
4.0
 40
5.0
 40
5.0
 40
5.0
 40
6.0
 40
6.0
 40
6.0
 40
7.0
 40
7.0
 40
7.0
 40
8.0
 40
8.0
 40
8.0
 40
9.0
 40
9.0
 40
9.0
 40
10.0
 40
10.0
 40
10.0
 40
11.0
 40
11.0
 40
11.0
 40
12.0
 40
12.0
 40
12.0
 40
13.0
 40
13.0
 40
13.0
 40
14.0
 40
14.0
 40
14.0
 40
15.0
 40
15.0
 40
15.0
 40
16.0
 40
16.0
 40
16.0
 40
17.0
 40
17.0
 40
17.0
 40
18.0
 40
18.0
 40
18.0
 40
19.0
 40
19.0
 40
19.0
 40
20.0
 40
20.0
 40
20.0
 40
21.0
 40
21.0
 40
21.0
 40
22.0
 40
22.0
 40
22.0
 40
22.0
 10
0.9527175392992905
 20
-0.0085121662033695
 30
0.0
 10
0.9485614136674358
 20
-0.0003832734233432
 30
0.0
 10
0.9441913698044698
 20
0.0076692199884797
 30
0.0
 10
0.9397296466995991
 20
0.0154084759905244
 30
0.0
 10
0.9369105100118227
 20
0.0202827556838404
 30
0.0
 10
0.9340531736399068
 20
0.0250500762615755
 30
0.0
 10
0.9311805573943148
 20
0.0296493182292529
 30
0.0
 10
0.932273068360031
 20
0.0302757930487587
 30
0.0
 10
0.93331973970482
 20
0.0309251876787534
 30
0.0
 10
0.9343282113655201
 20
0.0316051420560244
 30
0.0
 10
0.9379266216093103
 20
0.0340422819026571
 30
0.0
 10
0.94105899570689
 20
0.0369301780218999
 30
0.0
 10
0.9436412943531927
 20
0.0402077109190992
 30
0.0
 10
0.9462235929994953
 20
0.0435081636268125
 30
0.0
 10
0.9482252564471687
 20
0.0471982531124569
 30
0.0
 10
0.9495851652017613
 20
0.0512092199447175
 30
0.0
 10
0.9509145142090018
 20
0.055166707219213
 30
0.0
 10
0.9515868286494853
 20
0.0594527117771122
 30
0.0
 10
0.9515868286494853
 20
0.063944994629234
 30
0.0
 10
0.9515868286494853
 20
0.0705153402973338
 30
0.0
 10
0.9500970409689493
 20
0.0765126907036423
 30
0.0
 10
0.9471556652919666
 20
0.0817766071749399
 30
0.0
 10
0.9442754091095366
 20
0.0869335645306819
 30
0.0
 10
0.9401192834776313
 20
0.0913647278882258
 30
0.0
 10
0.9348095273854065
 20
0.0949554981952032
 30
0.0
 10
0.9297595291451695
 20
0.0983629100184216
 30
0.0
 10
0.9235635403814512
 20
0.1009681284751625
 30
0.0
 10
0.91640491957796
 20
0.1026871142604098
 30
0.0
 10
0.9095824559947358
 20
0.1043220607406157
 30
0.0
 10
0.9018202801822022
 20
0.1051548138543694
 30
0.0
 10
0.8933399503082581
 20
0.1051548138543694
 30
0.0
 10
0.8902839755789575
 20
0.1051548138543694
 30
0.0
 10
0.8869147634398535
 20
0.1050784144861407
 30
0.0
 10
0.8832246739541586
 20
0.1049179758128452
 30
0.0
 10
0.8795957039631174
 20
0.1047651770763878
 30
0.0
 10
0.8758674147932827
 20
0.1045512588453271
 30
0.0
 10
0.8720398064448065
 20
0.1042991409301521
 30
0.0
 10
0.8720398064448065
 20
0.1042991409301521
 30
0.0
 10
0.8647360268416452
 20
0.1038101849734529
 30
0.0
 10
0.8647360268416452
 20
0.1038101849734529
 30
0.0
 10
0.8647360268416452
 20
0.1038101849734529
 30
0.0
 10
0.8647360268416452
 20
-0.0198956720701315
 30
0.0
 10
0.8647360268416452
 20
-0.0198956720701315
 30
0.0
 10
0.8647360268416452
 20
-0.0198956720701315
 30
0.0
 10
0.897343277203706
 20
-0.0198956720701315
 30
0.0
 10
0.897343277203706
 20
-0.0198956720701315
 30
0.0
 10
0.897343277203706
 20
-0.0198956720701315
 30
0.0
 10
0.897343277203706
 20
0.0205425135358029
 30
0.0
 10
0.897343277203706
 20
0.0205425135358029
 30
0.0
 10
0.8978475130340559
 20
0.0205577934094537
 30
0.0
 10
0.8983517488644059
 20
0.0205807132199172
 30
0.0
 10
0.8988483447578675
 20
0.0206036330304061
 30
0.0
 10
0.9023397958861778
 20
0.0152480373172289
 30
0.0
 10
0.9057548476462089
 20
0.0097702026148959
 30
0.0
 10
0.9090400204802966
 20
0.0042541682284233
 30
0.0
 10
0.9131350266175482
 20
-0.0026294148494041
 30
0.0
 10
0.9169091554083099
 20
-0.009352559253936
 30
0.0
 10
0.9202630876737378
 20
-0.0157166266277879
 30
0.0
 10
0.9202630876737378
 20
-0.0157166266277879
 30
0.0
 10
0.9224633894788969
 20
-0.0198956720701315
 30
0.0
 10
0.9224633894788969
 20
-0.0198956720701315
 30
0.0
 10
0.9224633894788969
 20
-0.0198956720701315
 30
0.0
 10
0.9585315312219158
 20
-0.0198956720701315
 30
0.0
 10
0.9585315312219158
 20
-0.0198956720701315
 30
0.0
 10
0.9585315312219158
 20
-0.0198956720701315
 30
0.0
 10
0.9527175392992905
 20
-0.0085121662033695
 30
0.0
 10
0.9527175392992905
 20
-0.0085121662033695
 30
0.0
  0
ENDBLK
  5
8E
330
8B
100
AcDbEntity
  8
0
100
AcDbBlockEnd
  0
BLOCK
  5
AC
330
AA
100
AcDbEntity
  8
0
100
AcDbBlockBegin
  2
Block_1
 70
     0
 10
0.0
 20
0.0
 30
0.0
  3
Block_1
  1

  0
SPLINE
  5
AE
330
AA
100
AcDbEntity
  8
Text
100
AcDbSpline
210
0.0
220
0.0
230
1.0
 70
     9
 71
     3
 72
   134
 73
   130
 74
     0
 42
0.0000000001
 43
0.0000000001
 40
0.0
 40
0.0
 40
0.0
 40
0.0
 40
1.0
 40
1.0
 40
1.0
 40
2.0
 40
2.0
 40
2.0
 40
3.0
 40
3.0
 40
3.0
 40
4.0
 40
4.0
 40
4.0
 40
5.0
 40
5.0
 40
5.0
 40
6.0
 40
6.0
 40
6.0
 40
7.0
 40
7.0
 40
7.0
 40
8.0
 40
8.0
 40
8.0
 40
9.0
 40
9.0
 40
9.0
 40
10.0
 40
10.0
 40
10.0
 40
11.0
 40
11.0
 40
11.0
 40
12.0
 40
12.0
 40
12.0
 40
13.0
 40
13.0
 40
13.0
 40
14.0
 40
14.0
 40
14.0
 40
15.0
 40
15.0
 40
15.0
 40
16.0
 40
16.0
 40
16.0
 40
17.0
 40
17.0
 40
17.0
 40
18.0
 40
18.0
 40
18.0
 40
19.0
 40
19.0
 40
19.0
 40
20.0
 40
20.0
 40
20.0
 40
21.0
 40
21.0
 40
21.0
 40
22.0
 40
22.0
 40
22.0
 40
23.0
 40
23.0
 40
23.0
 40
24.0
 40
24.0
 40
24.0
 40
25.0
 40
25.0
 40
25.0
 40
26.0
 40
26.0
 40
26.0
 40
27.0
 40
27.0
 40
27.0
 40
28.0
 40
28.0
 40
28.0
 40
29.0
 40
29.0
 40
29.0
 40
30.0
 40
30.0
 40
30.0
 40
31.0
 40
31.0
 40
31.0
 40
32.0
 40
32.0
 40
32.0
 40
33.0
 40
33.0
 40
33.0
 40
34.0
 40
34.0
 40
34.0
 40
35.0
 40
35.0
 40
35.0
 40
36.0
 40
36.0
 40
36.0
 40
37.0
 40
37.0
 40
37.0
 40
38.0
 40
38.0
 40
38.0
 40
39.0
 40
39.0
 40
39.0
 40
40.0
 40
40.0
 40
40.0
 40
41.0
 40
41.0
 40
41.0
 40
42.0
 40
42.0
 40
42.0
 40
43.0
 40
43.0
 40
43.0
 40
43.0
 10
1.452439184166299
 20
0.0396607311059193
 30
0.0
 10
1.449746855607271
 20
0.0424683482934193
 30
0.0
 10
1.446627280954493
 20
0.0449436629635582
 30
0.0
 10
1.443155058732271
 20
0.0470188582760582
 30
0.0
 10
1.440028702395466
 20
0.0488770396996693
 30
0.0
 10
1.436848092586438
 20
0.0505724607066137
 30
0.0
 10
1.43360644762116
 20
0.0521186846649471
 30
0.0
 10
1.430527563072549
 20
0.0535699650468915
 30
0.0
 10
1.427523277048243
 20
0.0549737736406415
 30
0.0
 10
1.42457324449616
 20
0.056302983710086
 30
0.0
 10
1.42207080308991
 20
0.0574355249427249
 30
0.0
 10
1.419826065676716
 20
0.058683354803836
 30
0.0
 10
1.417839032256576
 20
0.0600532549774471
 30
0.0
 10
1.416238554826021
 20
0.0611654511580026
 30
0.0
 10
1.414956816544771
 20
0.0623929359670304
 30
0.0
 10
1.414041289201021
 20
0.0637085826684193
 30
0.0
 10
1.413478409426716
 20
0.0645156030677249
 30
0.0
 10
1.413200360381576
 20
0.0655667640920304
 30
0.0
 10
1.413200360381576
 20
0.0669095375295304
 30
0.0
 10
1.413200360381576
 20
0.067960698553836
 30
0.0
 10
1.413390247534354
 20
0.0688355357934193
 30
0.0
 10
1.413790366891993
 20
0.0695950844045304
 30
0.0
 10
1.414231176353799
 20
0.0704427949080026
 30
0.0
 10
1.414821182864216
 20
0.0711413083628637
 30
0.0
 10
1.41560107652741
 20
0.0717516599253637
 30
0.0
 10
1.416482695451021
 20
0.0724298283281415
 30
0.0
 10
1.417581328263521
 20
0.072965581366336
 30
0.0
 10
1.418883411596854
 20
0.0733453556718915
 30
0.0
 10
1.422999893801716
 20
0.0745592771128637
 30
0.0
 10
1.428513402916299
 20
0.0740845592309193
 30
0.0
 10
1.433206328263521
 20
0.0725722436927249
 30
0.0
 10
1.436325902916299
 20
0.071561772772586
 30
0.0
 10
1.439452259253104
 20
0.0700494572343915
 30
0.0
 10
1.442497235381576
 20
0.0680692054982804
 30
0.0
 10
1.442497235381576
 20
0.0680692054982804
 30
0.0
 10
1.45020801012116
 20
0.0630711043698082
 30
0.0
 10
1.45020801012116
 20
0.0630711043698082
 30
0.0
 10
1.45020801012116
 20
0.0630711043698082
 30
0.0
 10
1.45863086168366
 20
0.0903334741614749
 30
0.0
 10
1.45863086168366
 20
0.0903334741614749
 30
0.0
 10
1.45863086168366
 20
0.0903334741614749
 30
0.0
 10
1.45429736558991
 20
0.0932089081892526
 30
0.0
 10
1.45429736558991
 20
0.0932089081892526
 30
0.0
 10
1.449896052655882
 20
0.0961250323211971
 30
0.0
 10
1.445148873836438
 20
0.0983833331024471
 30
0.0
 10
1.440177899444076
 20
0.0999363387448082
 30
0.0
 10
1.430344457603799
 20
0.1029813148732804
 30
0.0
 10
1.417703398576021
 20
0.1030423500295304
 30
0.0
 10
1.407822484947549
 20
0.0999159936927249
 30
0.0
 10
1.40272265855866
 20
0.0982883895260582
 30
0.0
 10
1.398246747100327
 20
0.0958469832760582
 30
0.0
 10
1.394516820885049
 20
0.0926460284149471
 30
0.0
 10
1.390739422881577
 20
0.0893976017656415
 30
0.0
 10
1.387748700225327
 20
0.0854235349253637
 30
0.0
 10
1.385626033124632
 20
0.0808187714705026
 30
0.0
 10
1.383523711076021
 20
0.0762275713836971
 30
0.0
 10
1.382452204999632
 20
0.0710056746823082
 30
0.0
 10
1.382452204999632
 20
0.0653158417830026
 30
0.0
 10
1.382452204999632
 20
0.0601075084496693
 30
0.0
 10
1.383360950659354
 20
0.0554349281545304
 30
0.0
 10
1.38514453355866
 20
0.0514269528941137
 30
0.0
 10
1.386880644669771
 20
0.0475546113142526
 30
0.0
 10
1.389220325659354
 20
0.0441162975121693
 30
0.0
 10
1.392088978003104
 20
0.041227300116336
 30
0.0
 10
1.394801651614216
 20
0.0384739364010582
 30
0.0
 10
1.397921226266993
 20
0.0360664385711971
 30
0.0
 10
1.401373103437132
 20
0.0340522784149471
 30
0.0
 10
1.404451987985743
 20
0.0322686955156415
 30
0.0
 10
1.407585126006576
 20
0.030607182928836
 30
0.0
 10
1.410792862551716
 20
0.029081304022586
 30
0.0
 10
1.410792862551716
 20
0.029081304022586
 30
0.0
 10
1.419798938940604
 20
0.0248495331892526
 30
0.0
 10
1.419798938940604
 20
0.0248495331892526
 30
0.0
 10
1.422328507082966
 20
0.0236695201684193
 30
0.0
 10
1.424586807864216
 20
0.0223810002031415
 30
0.0
 10
1.426533151180188
 20
0.0210043183455026
 30
0.0
 10
1.428126846926716
 20
0.0198717771128637
 30
0.0
 10
1.429354331735743
 20
0.0186375106198082
 30
0.0
 10
1.430276640763521
 20
0.0172472653941137
 30
0.0
 10
1.430907337378104
 20
0.0162978296302249
 30
0.0
 10
1.431212513159354
 20
0.0151245982934193
 30
0.0
 10
1.431212513159354
 20
0.0136733179114749
 30
0.0
 10
1.431212513159354
 20
0.0123915796302249
 30
0.0
 10
1.431002280954493
 20
0.0113268552378637
 30
0.0
 10
1.430568253176716
 20
0.0104723630503637
 30
0.0
 10
1.430141007082966
 20
0.0096043074948082
 30
0.0
 10
1.429523873836438
 20
0.0088718856198082
 30
0.0
 10
1.428655818280882
 20
0.0082208439531415
 30
0.0
 10
1.427645347360743
 20
0.0074477319739748
 30
0.0
 10
1.42640429918366
 20
0.0068577254635582
 30
0.0
 10
1.424858075225326
 20
0.0064033526336971
 30
0.0
 10
1.420334691978799
 20
0.0050877059323082
 30
0.0
 10
1.413932782256576
 20
0.0055488604461971
 30
0.0
 10
1.408310766197549
 20
0.0074206052378637
 30
0.0
 10
1.404662220190604
 20
0.0086413083628637
 30
0.0
 10
1.401169652916299
 20
0.0103774194739749
 30
0.0
 10
1.397934789635049
 20
0.0125814667830026
 30
0.0
 10
1.397934789635049
 20
0.0125814667830026
 30
0.0
 10
1.389945965850327
 20
0.0180135956892526
 30
0.0
 10
1.389945965850327
 20
0.0180135956892526
 30
0.0
 10
1.389945965850327
 20
0.0180135956892526
 30
0.0
 10
1.382167374270466
 20
-0.0097709637725529
 30
0.0
 10
1.382167374270466
 20
-0.0097709637725529
 30
0.0
 10
1.382167374270466
 20
-0.0097709637725529
 30
0.0
 10
1.386080405954493
 20
-0.0126057076961641
 30
0.0
 10
1.386080405954493
 20
-0.0126057076961641
 30
0.0
 10
1.390535972360743
 20
-0.0158337892933863
 30
0.0
 10
1.395595108645466
 20
-0.0183226673315807
 30
0.0
 10
1.401122181128104
 20
-0.0200113066544974
 30
0.0
 10
1.40656787340241
 20
-0.0216660375572752
 30
0.0
 10
1.412617135555188
 20
-0.0225069663767196
 30
0.0
 10
1.419093643801716
 20
-0.0225069663767196
 30
0.0
 10
1.424912328697549
 20
-0.0225069663767196
 30
0.0
 10
1.430425837812132
 20
-0.0216931642933863
 30
0.0
 10
1.435451065676716
 20
-0.0200994685468585
 30
0.0
 10
1.440672962378104
 20
-0.0184583010121363
 30
0.0
 10
1.445311634253104
 20
-0.0159897680260252
 30
0.0
 10
1.44923144762116
 20
-0.0127549047447752
 30
0.0
 10
1.453212296145466
 20
-0.0094590063072752
 30
0.0
 10
1.456365779218382
 20
-0.0053967775746363
 30
0.0
 10
1.458596953263521
 20
-0.0006902888593585
 30
0.0
 10
1.46082812730866
 20
0.0040297632239748
 30
0.0
 10
1.461960668541299
 20
0.0093466035017526
 30
0.0
 10
1.461960668541299
 20
0.0151178166093915
 30
0.0
 10
1.461960668541299
 20
0.0204550019392526
 30
0.0
 10
1.461065486249632
 20
0.0252157441267526
 30
0.0
 10
1.459288685034354
 20
0.0292983179114749
 30
0.0
 10
1.457559355607271
 20
0.0332384763316137
 30
0.0
 10
1.455260364721854
 20
0.0367242619218915
 30
0.0
 10
1.452439184166299
 20
0.0396607311059193
 30
0.0
  0
LWPOLYLINE
  5
AF
330
AA
100
AcDbEntity
  8
Text
100
AcDbPolyline
 90
       12
 70
     1
 43
0.0
 10
1.469488337812132
 20
-0.0210692493628307
 10
1.543144208037826
 20
-0.0210692493628307
 10
1.543144208037826
 20
0.0067966903073082
 10
1.500236493194076
 20
0.0067966903073082
 10
1.500236493194076
 20
0.026700932928836
 10
1.539577042239216
 20
0.026700932928836
 10
1.539577042239216
 20
0.054716069647586
 10
1.500236493194076
 20
0.054716069647586
 10
1.500236493194076
 20
0.0728774194739749
 10
1.543144208037826
 20
0.0728774194739749
 10
1.543144208037826
 20
0.1007365774600859
 10
1.469488337812132
 20
0.1007365774600859
  0
SPLINE
  5
B0
330
AA
100
AcDbEntity
  8
Text
100
AcDbSpline
210
0.0
220
0.0
230
1.0
 70
     9
 71
     3
 72
    32
 73
    28
 74
     0
 42
0.0000000001
 43
0.0000000001
 40
0.0
 40
0.0
 40
0.0
 40
0.0
 40
1.0
 40
1.0
 40
1.0
 40
2.0
 40
2.0
 40
2.0
 40
3.0
 40
3.0
 40
3.0
 40
4.0
 40
4.0
 40
4.0
 40
5.0
 40
5.0
 40
5.0
 40
6.0
 40
6.0
 40
6.0
 40
7.0
 40
7.0
 40
7.0
 40
8.0
 40
8.0
 40
8.0
 40
9.0
 40
9.0
 40
9.0
 40
9.0
 10
1.582633954131576
 20
0.0734742076684193
 30
0.0
 10
1.586458823923243
 20
0.0734063908281415
 30
0.0
 10
1.589903919409354
 20
0.072965581366336
 30
0.0
 10
1.592867515329493
 20
0.0721653426510582
 30
0.0
 10
1.595844674617688
 20
0.0713651039357804
 30
0.0
 10
1.598319989287826
 20
0.0702325627031415
 30
0.0
 10
1.600218860815604
 20
0.0688084090573082
 30
0.0
 10
1.60200244371491
 20
0.0674656356198082
 30
0.0
 10
1.603318090416299
 20
0.0659261933455026
 30
0.0
 10
1.604226836076021
 20
0.064115483710086
 30
0.0
 10
1.605135581735743
 20
0.062284429022586
 30
0.0
 10
1.605583172881576
 20
0.0601888886580026
 30
0.0
 10
1.605583172881576
 20
0.0577203556718915
 30
0.0
 10
1.605583172881576
 20
0.0551094073211971
 30
0.0
 10
1.605122018367688
 20
0.0528511065399471
 30
0.0
 10
1.604165800919771
 20
0.0508301646996693
 30
0.0
 10
1.603236710207966
 20
0.0488702580156415
 30
0.0
 10
1.601914281822549
 20
0.0472358721649471
 30
0.0
 10
1.600130698923243
 20
0.0458456269392526
 30
0.0
 10
1.598204700659354
 20
0.0443468747691137
 30
0.0
 10
1.595756512725326
 20
0.0431668617482804
 30
0.0
 10
1.59284717027741
 20
0.0423394962968915
 30
0.0
 10
1.58985644762116
 20
0.0414850041093915
 30
0.0
 10
1.586424915503104
 20
0.0410238495955026
 30
0.0
 10
1.582633954131576
 20
0.0409763778073082
 30
0.0
 10
1.582633954131576
 20
0.0409763778073082
 30
0.0
 10
1.582633954131576
 20
0.0734742076684193
 30
0.0
 10
1.582633954131576
 20
0.0734742076684193
 30
0.0
  0
SPLINE
  5
B1
330
AA
100
AcDbEntity
  8
Text
100
AcDbSpline
210
0.0
220
0.0
230
1.0
 70
     9
 71
     3
 72
    47
 73
    43
 74
     0
 42
0.0000000001
 43
0.0000000001
 40
0.0
 40
0.0
 40
0.0
 40
0.0
 40
1.0
 40
1.0
 40
1.0
 40
2.0
 40
2.0
 40
2.0
 40
3.0
 40
3.0
 40
3.0
 40
4.0
 40
4.0
 40
4.0
 40
5.0
 40
5.0
 40
5.0
 40
6.0
 40
6.0
 40
6.0
 40
7.0
 40
7.0
 40
7.0
 40
8.0
 40
8.0
 40
8.0
 40
9.0
 40
9.0
 40
9.0
 40
10.0
 40
10.0
 40
10.0
 40
11.0
 40
11.0
 40
11.0
 40
12.0
 40
12.0
 40
12.0
 40
13.0
 40
13.0
 40
13.0
 40
14.0
 40
14.0
 40
14.0
 40
14.0
 10
1.620367244062132
 20
0.0907403752031415
 30
0.0
 10
1.620367244062132
 20
0.0907403752031415
 30
0.0
 10
1.620360462378104
 20
0.0907403752031415
 30
0.0
 10
1.620360462378104
 20
0.0907403752031415
 30
0.0
 10
1.615321671145466
 20
0.0942871959496693
 30
0.0
 10
1.609191028784354
 20
0.0970269962968915
 30
0.0
 10
1.602138077395466
 20
0.0988783960364749
 30
0.0
 10
1.593043839114216
 20
0.1012655488142526
 30
0.0
 10
1.583257869062132
 20
0.1018352102725859
 30
0.0
 10
1.569647029218382
 20
0.1014215275468915
 30
0.0
 10
1.56617480699616
 20
0.1013198022864748
 30
0.0
 10
1.562363500572549
 20
0.1010824433455026
 30
0.0
 10
1.558206328263521
 20
0.1007094507239748
 30
0.0
 10
1.558206328263521
 20
0.1007094507239748
 30
0.0
 10
1.551885798749632
 20
0.1001397892656415
 30
0.0
 10
1.551885798749632
 20
0.1001397892656415
 30
0.0
 10
1.551885798749632
 20
0.1001397892656415
 30
0.0
 10
1.551885798749632
 20
-0.0210692493628307
 30
0.0
 10
1.551885798749632
 20
-0.0210692493628307
 30
0.0
 10
1.551885798749632
 20
-0.0210692493628307
 30
0.0
 10
1.582633954131576
 20
-0.0210692493628307
 30
0.0
 10
1.582633954131576
 20
-0.0210692493628307
 30
0.0
 10
1.582633954131576
 20
-0.0210692493628307
 30
0.0
 10
1.582633954131576
 20
0.0129883678246693
 30
0.0
 10
1.582633954131576
 20
0.0129883678246693
 30
0.0
 10
1.589415638159354
 20
0.0132799802378637
 30
0.0
 10
1.595702259253104
 20
0.0142022892656415
 30
0.0
 10
1.60139209215241
 20
0.0157417315399471
 30
0.0
 10
1.608682402482271
 20
0.0177152015920304
 30
0.0
 10
1.614982586944076
 20
0.0206720158281415
 30
0.0
 10
1.620102758385049
 20
0.0245172306718915
 30
0.0
 10
1.625406035294771
 20
0.0284912975121693
 30
0.0
 10
1.629556425919771
 20
0.0334012367482804
 30
0.0
 10
1.632431859947549
 20
0.0391046330156415
 30
0.0
 10
1.635320857343382
 20
0.044828374335086
 30
0.0
 10
1.636785701093382
 20
0.0513523543698082
 30
0.0
 10
1.636785701093382
 20
0.0584799042830026
 30
0.0
 10
1.636785701093382
 20
0.0652412432586971
 30
0.0
 10
1.635361547447549
 20
0.071439702460086
 30
0.0
 10
1.632560711944076
 20
0.0768786130503637
 30
0.0
 10
1.629746313072549
 20
0.0823514320607804
 30
0.0
 10
1.625643394235743
 20
0.0870104489878637
 30
0.0
 10
1.620367244062132
 20
0.0907403752031415
 30
0.0
  0
SPLINE
  5
B2
330
AA
100
AcDbEntity
  8
Text
100
AcDbSpline
210
0.0
220
0.0
230
1.0
 70
     9
 71
     3
 72
   107
 73
   103
 74
     0
 42
0.0000000001
 43
0.0000000001
 40
0.0
 40
0.0
 40
0.0
 40
0.0
 40
1.0
 40
1.0
 40
1.0
 40
2.0
 40
2.0
 40
2.0
 40
3.0
 40
3.0
 40
3.0
 40
4.0
 40
4.0
 40
4.0
 40
5.0
 40
5.0
 40
5.0
 40
6.0
 40
6.0
 40
6.0
 40
7.0
 40
7.0
 40
7.0
 40
8.0
 40
8.0
 40
8.0
 40
9.0
 40
9.0
 40
9.0
 40
10.0
 40
10.0
 40
10.0
 40
11.0
 40
11.0
 40
11.0
 40
12.0
 40
12.0
 40
12.0
 40
13.0
 40
13.0
 40
13.0
 40
14.0
 40
14.0
 40
14.0
 40
15.0
 40
15.0
 40
15.0
 40
16.0
 40
16.0
 40
16.0
 40
17.0
 40
17.0
 40
17.0
 40
18.0
 40
18.0
 40
18.0
 40
19.0
 40
19.0
 40
19.0
 40
20.0
 40
20.0
 40
20.0
 40
21.0
 40
21.0
 40
21.0
 40
22.0
 40
22.0
 40
22.0
 40
23.0
 40
23.0
 40
23.0
 40
24.0
 40
24.0
 40
24.0
 40
25.0
 40
25.0
 40
25.0
 40
26.0
 40
26.0
 40
26.0
 40
27.0
 40
27.0
 40
27.0
 40
28.0
 40
28.0
 40
28.0
 40
29.0
 40
29.0
 40
29.0
 40
30.0
 40
30.0
 40
30.0
 40
31.0
 40
31.0
 40
31.0
 40
32.0
 40
32.0
 40
32.0
 40
33.0
 40
33.0
 40
33.0
 40
34.0
 40
34.0
 40
34.0
 40
34.0
 10
1.714863229305188
 20
0.0107775388316137
 30
0.0
 10
1.717067276614216
 20
0.0130019311927249
 30
0.0
 10
1.719481556128104
 20
0.0152059785017526
 30
0.0
 10
1.722106067846854
 20
0.0173828990746693
 30
0.0
 10
1.722106067846854
 20
0.0173828990746693
 30
0.0
 10
1.730596736249632
 20
0.024503667303836
 30
0.0
 10
1.730596736249632
 20
0.024503667303836
 30
0.0
 10
1.733526423749632
 20
0.0269925453420304
 30
0.0
 10
1.736374731041299
 20
0.0295763669566137
 30
0.0
 10
1.73914843980866
 20
0.0322686955156415
 30
0.0
 10
1.742112035728799
 20
0.0351509112274471
 30
0.0
 10
1.744777237551716
 20
0.0383247393524471
 30
0.0
 10
1.747069446753104
 20
0.0417020179982804
 30
0.0
 10
1.749415909426716
 20
0.0451606768524471
 30
0.0
 10
1.751328344322549
 20
0.0489312931718915
 30
0.0
 10
1.752732152916299
 20
0.0528985783281415
 30
0.0
 10
1.754210560034354
 20
0.0570557506371693
 30
0.0
 10
1.75495654527741
 20
0.0616333873559193
 30
0.0
 10
1.75495654527741
 20
0.0665094181718915
 30
0.0
 10
1.75495654527741
 20
0.0718533851857804
 30
0.0
 10
1.75397998277741
 20
0.0768040145260582
 30
0.0
 10
1.752060766197549
 20
0.081205327460086
 30
0.0
 10
1.750114422881576
 20
0.0856948022864749
 30
0.0
 10
1.74726611558991
 20
0.0895807072343915
 30
0.0
 10
1.74360400621491
 20
0.0927613170434193
 30
0.0
 10
1.740036840416299
 20
0.0958605466441137
 30
0.0
 10
1.735723689374632
 20
0.0982612627899471
 30
0.0
 10
1.730779841718382
 20
0.0999024303246693
 30
0.0
 10
1.720207196319076
 20
0.1033610891788359
 30
0.0
 10
1.706223363853799
 20
0.1028931529809193
 30
0.0
 10
1.695650718454493
 20
0.0991428817135582
 30
0.0
 10
1.689811688506576
 20
0.0970812497691137
 30
0.0
 10
1.684494848228799
 20
0.0941379989010582
 30
0.0
 10
1.679856176353799
 20
0.0903877276336971
 30
0.0
 10
1.679856176353799
 20
0.0903877276336971
 30
0.0
 10
1.67628222887116
 20
0.0874987302378637
 30
0.0
 10
1.67628222887116
 20
0.0874987302378637
 30
0.0
 10
1.67628222887116
 20
0.0874987302378637
 30
0.0
 10
1.684074383819076
 20
0.060148198553836
 30
0.0
 10
1.684074383819076
 20
0.060148198553836
 30
0.0
 10
1.684074383819076
 20
0.060148198553836
 30
0.0
 10
1.692253094756576
 20
0.0668552840573082
 30
0.0
 10
1.692253094756576
 20
0.0668552840573082
 30
0.0
 10
1.69532519762116
 20
0.0693712888316137
 30
0.0
 10
1.698526152482271
 20
0.0712905054114749
 30
0.0
 10
1.701767797447549
 20
0.0725586803246693
 30
0.0
 10
1.706704863419771
 20
0.074491460272586
 30
0.0
 10
1.713140681562132
 20
0.0750611217309193
 30
0.0
 10
1.717528431128104
 20
0.0735623695607804
 30
0.0
 10
1.719061091718382
 20
0.0730401798906415
 30
0.0
 10
1.720281794843382
 20
0.0723620114878637
 30
0.0
 10
1.721258357343382
 20
0.0715143009843915
 30
0.0
 10
1.72218066637116
 20
0.070707280585086
 30
0.0
 10
1.722885961510049
 20
0.0697374997691137
 30
0.0
 10
1.72340136949616
 20
0.0685846134843915
 30
0.0
 10
1.723943904218382
 20
0.0673571286753637
 30
0.0
 10
1.724208389895466
 20
0.0659940101857804
 30
0.0
 10
1.724208389895466
 20
0.0644070961232804
 30
0.0
 10
1.724208389895466
 20
0.0623658092309193
 30
0.0
 10
1.72376758043366
 20
0.0605076278073082
 30
0.0
 10
1.722838489721854
 20
0.0587172632239749
 30
0.0
 10
1.721705948489216
 20
0.0564996525468915
 30
0.0
 10
1.720180069582966
 20
0.0543023869218915
 30
0.0
 10
1.718315106475326
 20
0.0522000648732804
 30
0.0
 10
1.716233129478799
 20
0.0498671655677249
 30
0.0
 10
1.713866321753104
 20
0.047574956366336
 30
0.0
 10
1.711207901614216
 20
0.0453098739010582
 30
0.0
 10
1.711207901614216
 20
0.0453098739010582
 30
0.0
 10
1.702310332169771
 20
0.0377143877899471
 30
0.0
 10
1.702310332169771
 20
0.0377143877899471
 30
0.0
 10
1.69917041246491
 20
0.0350356225989749
 30
0.0
 10
1.696091527916299
 20
0.0322483504635582
 30
0.0
 10
1.693080460207966
 20
0.0293390080156415
 30
0.0
 10
1.689879505346854
 20
0.0262533417830026
 30
0.0
 10
1.686983726266993
 20
0.0228964081892526
 30
0.0
 10
1.684467721492688
 20
0.0193699324948082
 30
0.0
 10
1.681863554826021
 20
0.015714604803836
 30
0.0
 10
1.679720542673243
 20
0.0116998478593915
 30
0.0
 10
1.678106501874632
 20
0.0074477319739748
 30
0.0
 10
1.676390735815604
 20
0.0029446937795304
 30
0.0
 10
1.675522680260049
 20
-0.0020127172447752
 30
0.0
 10
1.675522680260049
 20
-0.0072888674183863
 30
0.0
 10
1.675522680260049
 20
-0.0085027888593585
 30
0.0
 10
1.675570152048243
 20
-0.0097506187204696
 30
0.0
 10
1.675651532256576
 20
-0.0110459203697752
 30
0.0
 10
1.675739694148938
 20
-0.0123208769669974
 30
0.0
 10
1.675861764461438
 20
-0.0136365236683863
 30
0.0
 10
1.67603808824616
 20
-0.0150064238419974
 30
0.0
 10
1.67603808824616
 20
-0.0150064238419974
 30
0.0
 10
1.676817981909354
 20
-0.0210692493628307
 30
0.0
 10
1.676817981909354
 20
-0.0210692493628307
 30
0.0
 10
1.676817981909354
 20
-0.0210692493628307
 30
0.0
 10
1.755410918107271
 20
-0.0210692493628307
 30
0.0
 10
1.755410918107271
 20
-0.0210692493628307
 30
0.0
 10
1.755410918107271
 20
-0.0210692493628307
 30
0.0
 10
1.755410918107271
 20
0.0067966903073082
 30
0.0
 10
1.755410918107271
 20
0.0067966903073082
 30
0.0
 10
1.755410918107271
 20
0.0067966903073082
 30
0.0
 10
1.711370662030882
 20
0.0067966903073082
 30
0.0
 10
1.711370662030882
 20
0.0067966903073082
 30
0.0
 10
1.712435386423243
 20
0.0081733721649471
 30
0.0
 10
1.713601836076021
 20
0.0095025822343915
 30
0.0
 10
1.714863229305188
 20
0.0107775388316137
 30
0.0
  0
SPLINE
  5
B3
330
AA
100
AcDbEntity
  8
Text
100
AcDbSpline
210
0.0
220
0.0
230
1.0
 70
     9
 71
     3
 72
    53
 73
    49
 74
     0
 42
0.0000000001
 43
0.0000000001
 40
0.0
 40
0.0
 40
0.0
 40
0.0
 40
1.0
 40
1.0
 40
1.0
 40
2.0
 40
2.0
 40
2.0
 40
3.0
 40
3.0
 40
3.0
 40
4.0
 40
4.0
 40
4.0
 40
5.0
 40
5.0
 40
5.0
 40
6.0
 40
6.0
 40
6.0
 40
7.0
 40
7.0
 40
7.0
 40
8.0
 40
8.0
 40
8.0
 40
9.0
 40
9.0
 40
9.0
 40
10.0
 40
10.0
 40
10.0
 40
11.0
 40
11.0
 40
11.0
 40
12.0
 40
12.0
 40
12.0
 40
13.0
 40
13.0
 40
13.0
 40
14.0
 40
14.0
 40
14.0
 40
15.0
 40
15.0
 40
15.0
 40
16.0
 40
16.0
 40
16.0
 40
16.0
 10
1.799240941978799
 20
0.0727350041093915
 30
0.0
 10
1.800997398141993
 20
0.073698003241336
 30
0.0
 10
1.802760635989216
 20
0.0741659394392526
 30
0.0
 10
1.804625599096855
 20
0.0741659394392526
 30
0.0
 10
1.806612632516993
 20
0.0741659394392526
 30
0.0
 10
1.808470813940605
 20
0.0736912215573082
 30
0.0
 10
1.810288305260049
 20
0.0727146590573082
 30
0.0
 10
1.81208545152741
 20
0.0717516599253637
 30
0.0
 10
1.813774090850326
 20
0.0700765839705026
 30
0.0
 10
1.81532031480866
 20
0.0677233396128637
 30
0.0
 10
1.817076770971855
 20
0.0650581377899471
 30
0.0
 10
1.818514487985743
 20
0.0614435002031415
 30
0.0
 10
1.819606339114216
 20
0.0569675887448082
 30
0.0
 10
1.820759225398938
 20
0.0522814450816137
 30
0.0
 10
1.821342450225326
 20
0.0464288517656415
 30
0.0
 10
1.821342450225326
 20
0.0395725692135582
 30
0.0
 10
1.821342450225326
 20
0.0328587020260582
 30
0.0
 10
1.820772788766993
 20
0.0271146156545304
 30
0.0
 10
1.819640247534355
 20
0.0224962888316137
 30
0.0
 10
1.819640247534355
 20
0.0224962888316137
 30
0.0
 10
1.819640247534355
 20
0.022489507147586
 30
0.0
 10
1.819640247534355
 20
0.022489507147586
 30
0.0
 10
1.818568741457966
 20
0.018094975897586
 30
0.0
 10
1.817158151180188
 20
0.0145210284149471
 30
0.0
 10
1.815428821753105
 20
0.0118558265920304
 30
0.0
 10
1.813943632951021
 20
0.0095432723385582
 30
0.0
 10
1.812295683732271
 20
0.0078885414357804
 30
0.0
 10
1.810539227569076
 20
0.006925542303836
 30
0.0
 10
1.80695849840241
 20
0.0049656356198082
 30
0.0
 10
1.803140410294771
 20
0.005033452460086
 30
0.0
 10
1.79945117418366
 20
0.0069797957760582
 30
0.0
 10
1.797647246232271
 20
0.0079292315399471
 30
0.0
 10
1.795958606909354
 20
0.0095907441267526
 30
0.0
 10
1.794453073055188
 20
0.0119100800642526
 30
0.0
 10
1.792710180260049
 20
0.0145956269392526
 30
0.0
 10
1.79127246324616
 20
0.0182306095781415
 30
0.0
 10
1.790187393801716
 20
0.0227200844045304
 30
0.0
 10
1.789034507516993
 20
0.0274469181718915
 30
0.0
 10
1.788451282690604
 20
0.0333198565399471
 30
0.0
 10
1.788451282690604
 20
0.0401761390920304
 30
0.0
 10
1.788451282690604
 20
0.0469103513316137
 30
0.0
 10
1.789020944148938
 20
0.0526544377031415
 30
0.0
 10
1.790146703697549
 20
0.0572592011580026
 30
0.0
 10
1.791218209773938
 20
0.0616469507239749
 30
0.0
 10
1.792622018367688
 20
0.0652073348385582
 30
0.0
 10
1.79432422105866
 20
0.0678182831892526
 30
0.0
 10
1.795829754912826
 20
0.0701240557586971
 30
0.0
 10
1.797484485815604
 20
0.0717787866614749
 30
0.0
 10
1.799240941978799
 20
0.0727350041093915
 30
0.0
  0
SPLINE
  5
B4
330
AA
100
AcDbEntity
  8
Text
100
AcDbSpline
210
0.0
220
0.0
230
1.0
 70
     9
 71
     3
 72
    53
 73
    49
 74
     0
 42
0.0000000001
 43
0.0000000001
 40
0.0
 40
0.0
 40
0.0
 40
0.0
 40
1.0
 40
1.0
 40
1.0
 40
2.0
 40
2.0
 40
2.0
 40
3.0
 40
3.0
 40
3.0
 40
4.0
 40
4.0
 40
4.0
 40
5.0
 40
5.0
 40
5.0
 40
6.0
 40
6.0
 40
6.0
 40
7.0
 40
7.0
 40
7.0
 40
8.0
 40
8.0
 40
8.0
 40
9.0
 40
9.0
 40
9.0
 40
10.0
 40
10.0
 40
10.0
 40
11.0
 40
11.0
 40
11.0
 40
12.0
 40
12.0
 40
12.0
 40
13.0
 40
13.0
 40
13.0
 40
14.0
 40
14.0
 40
14.0
 40
15.0
 40
15.0
 40
15.0
 40
16.0
 40
16.0
 40
16.0
 40
16.0
 10
1.848726890329493
 20
0.0669163192135582
 30
0.0
 10
1.846434681128105
 20
0.0746203122691137
 30
0.0
 10
1.843172691110743
 20
0.0811578556718915
 30
0.0
 10
1.839035863853799
 20
0.0863526256371693
 30
0.0
 10
1.839035863853799
 20
0.0863526256371693
 30
0.0
 10
1.839029082169771
 20
0.0863594073211971
 30
0.0
 10
1.839029082169771
 20
0.0863594073211971
 30
0.0
 10
1.834763402916299
 20
0.091703374335086
 30
0.0
 10
1.829629668107271
 20
0.0957452580156415
 30
0.0
 10
1.823756729739216
 20
0.0983901147864749
 30
0.0
 10
1.812071888159355
 20
0.1036120114878637
 30
0.0
 10
1.798020238853799
 20
0.1034221243350859
 30
0.0
 10
1.786586319582966
 20
0.098356206366336
 30
0.0
 10
1.780604874270466
 20
0.0957045679114749
 30
0.0
 10
1.775369414201021
 20
0.0915609589705026
 30
0.0
 10
1.771029136423243
 20
0.0860474498559193
 30
0.0
 10
1.76685840074616
 20
0.0807441729461971
 30
0.0
 10
1.763548938940604
 20
0.0740845592309193
 30
0.0
 10
1.761188912898938
 20
0.0662584958628637
 30
0.0
 10
1.758869576961438
 20
0.0586019745955026
 30
0.0
 10
1.757696345624632
 20
0.0495212996823082
 30
0.0
 10
1.757696345624632
 20
0.0392673934323082
 30
0.0
 10
1.757696345624632
 20
0.0292372827552249
 30
0.0
 10
1.758842450225326
 20
0.0203261499427249
 30
0.0
 10
1.761100751006576
 20
0.0127713539357804
 30
0.0
 10
1.763426868628104
 20
0.0050402341441137
 30
0.0
 10
1.766702422013521
 20
-0.001497309258664
 30
0.0
 10
1.770846030954493
 20
-0.0066513891197752
 30
0.0
 10
1.775104928523938
 20
-0.0119750110815807
 30
0.0
 10
1.78022509996491
 20
-0.0160101130781085
 30
0.0
 10
1.786057348228799
 20
-0.0186346247968585
 30
0.0
 10
1.791774307864216
 20
-0.0212048830433863
 30
0.0
 10
1.797959203697549
 20
-0.0225069663767196
 30
0.0
 10
1.804435711944076
 20
-0.0225069663767196
 30
0.0
 10
1.811122452395466
 20
-0.0225069663767196
 30
0.0
 10
1.817449763593382
 20
-0.0211913196753307
 30
0.0
 10
1.823248103437132
 20
-0.0186074980607474
 30
0.0
 10
1.829202422013521
 20
-0.0159558596058863
 30
0.0
 10
1.83442431871491
 20
-0.0118393774010252
 30
0.0
 10
1.838764596492688
 20
-0.0063733400746363
 30
0.0
 10
1.842976022273938
 20
-0.0010768448489418
 30
0.0
 10
1.846299047447549
 20
0.0055692054982804
 30
0.0
 10
1.84864551012116
 20
0.0133884871823082
 30
0.0
 10
1.850930937638521
 20
0.0210043183455026
 30
0.0
 10
1.852090605607271
 20
0.0300985566267526
 30
0.0
 10
1.852090605607271
 20
0.0404067163489749
 30
0.0
 10
1.852090605607271
 20
0.050504643866336
 30
0.0
 10
1.850958064374632
 20
0.0594225583628637
 30
0.0
 10
1.848726890329493
 20
0.0669163192135582
 30
0.0
  0
SPLINE
  5
B5
330
AA
100
AcDbEntity
  8
Text
100
AcDbSpline
210
0.0
220
0.0
230
1.0
 70
     9
 71
     3
 72
   242
 73
   238
 74
     0
 42
0.0000000001
 43
0.0000000001
 40
0.0
 40
0.0
 40
0.0
 40
0.0
 40
1.0
 40
1.0
 40
1.0
 40
2.0
 40
2.0
 40
2.0
 40
3.0
 40
3.0
 40
3.0
 40
4.0
 40
4.0
 40
4.0
 40
5.0
 40
5.0
 40
5.0
 40
6.0
 40
6.0
 40
6.0
 40
7.0
 40
7.0
 40
7.0
 40
8.0
 40
8.0
 40
8.0
 40
9.0
 40
9.0
 40
9.0
 40
10.0
 40
10.0
 40
10.0
 40
11.0
 40
11.0
 40
11.0
 40
12.0
 40
12.0
 40
12.0
 40
13.0
 40
13.0
 40
13.0
 40
14.0
 40
14.0
 40
14.0
 40
15.0
 40
15.0
 40
15.0
 40
16.0
 40
16.0
 40
16.0
 40
17.0
 40
17.0
 40
17.0
 40
18.0
 40
18.0
 40
18.0
 40
19.0
 40
19.0
 40
19.0
 40
20.0
 40
20.0
 40
20.0
 40
21.0
 40
21.0
 40
21.0
 40
22.0
 40
22.0
 40
22.0
 40
23.0
 40
23.0
 40
23.0
 40
24.0
 40
24.0
 40
24.0
 40
25.0
 40
25.0
 40
25.0
 40
26.0
 40
26.0
 40
26.0
 40
27.0
 40
27.0
 40
27.0
 40
28.0
 40
28.0
 40
28.0
 40
29.0
 40
29.0
 40
29.0
 40
30.0
 40
30.0
 40
30.0
 40
31.0
 40
31.0
 40
31.0
 40
32.0
 40
32.0
 40
32.0
 40
33.0
 40
33.0
 40
33.0
 40
34.0
 40
34.0
 40
34.0
 40
35.0
 40
35.0
 40
35.0
 40
36.0
 40
36.0
 40
36.0
 40
37.0
 40
37.0
 40
37.0
 40
38.0
 40
38.0
 40
38.0
 40
39.0
 40
39.0
 40
39.0
 40
40.0
 40
40.0
 40
40.0
 40
41.0
 40
41.0
 40
41.0
 40
42.0
 40
42.0
 40
42.0
 40
43.0
 40
43.0
 40
43.0
 40
44.0
 40
44.0
 40
44.0
 40
45.0
 40
45.0
 40
45.0
 40
46.0
 40
46.0
 40
46.0
 40
47.0
 40
47.0
 40
47.0
 40
48.0
 40
48.0
 40
48.0
 40
49.0
 40
49.0
 40
49.0
 40
50.0
 40
50.0
 40
50.0
 40
51.0
 40
51.0
 40
51.0
 40
52.0
 40
52.0
 40
52.0
 40
53.0
 40
53.0
 40
53.0
 40
54.0
 40
54.0
 40
54.0
 40
55.0
 40
55.0
 40
55.0
 40
56.0
 40
56.0
 40
56.0
 40
57.0
 40
57.0
 40
57.0
 40
58.0
 40
58.0
 40
58.0
 40
59.0
 40
59.0
 40
59.0
 40
60.0
 40
60.0
 40
60.0
 40
61.0
 40
61.0
 40
61.0
 40
62.0
 40
62.0
 40
62.0
 40
63.0
 40
63.0
 40
63.0
 40
64.0
 40
64.0
 40
64.0
 40
65.0
 40
65.0
 40
65.0
 40
66.0
 40
66.0
 40
66.0
 40
67.0
 40
67.0
 40
67.0
 40
68.0
 40
68.0
 40
68.0
 40
69.0
 40
69.0
 40
69.0
 40
70.0
 40
70.0
 40
70.0
 40
71.0
 40
71.0
 40
71.0
 40
72.0
 40
72.0
 40
72.0
 40
73.0
 40
73.0
 40
73.0
 40
74.0
 40
74.0
 40
74.0
 40
75.0
 40
75.0
 40
75.0
 40
76.0
 40
76.0
 40
76.0
 40
77.0
 40
77.0
 40
77.0
 40
78.0
 40
78.0
 40
78.0
 40
79.0
 40
79.0
 40
79.0
 40
79.0
 10
2.005397354739216
 20
0.0370294377031415
 30
0.0
 10
2.005397354739216
 20
0.0370294377031415
 30
0.0
 10
2.005397354739216
 20
0.0370362193871693
 30
0.0
 10
2.005397354739216
 20
0.0370362193871693
 30
0.0
 10
2.003349286162827
 20
0.0395522241614749
 30
0.0
 10
2.000894316544771
 20
0.0417901798906415
 30
0.0
 10
1.998032445885049
 20
0.0437229598385582
 30
0.0
 10
1.999537979739216
 20
0.0451064233802249
 30
0.0
 10
2.000921443280882
 20
0.0466255206024471
 30
0.0
 10
2.002169273141993
 20
0.0482599064531415
 30
0.0
 10
2.004190214982271
 20
0.0509522350121693
 30
0.0
 10
2.005790692412827
 20
0.0539090492482804
 30
0.0
 10
2.006875761857271
 20
0.0570150605330026
 30
0.0
 10
2.008028648141993
 20
0.0602363604461971
 30
0.0
 10
2.008611872968382
 20
0.0637899628767526
 30
0.0
 10
2.008611872968382
 20
0.067594487616336
 30
0.0
 10
2.008611872968382
 20
0.0727350041093915
 30
0.0
 10
2.007662437204493
 20
0.0775160913489749
 30
0.0
 10
2.005790692412827
 20
0.0818021156545304
 30
0.0
 10
2.003905384253104
 20
0.0861356117482804
 30
0.0
 10
2.001138457169771
 20
0.0899130097517526
 30
0.0
 10
1.99757129137116
 20
0.0930393660885582
 30
0.0
 10
1.994071942412826
 20
0.0960775605330026
 30
0.0
 10
1.989840171579493
 20
0.098417241522586
 30
0.0
 10
1.985011612551716
 20
0.0999838105330026
 30
0.0
 10
1.974981501874632
 20
0.1032322371823082
 30
0.0
 10
1.961492732343382
 20
0.1029474064531415
 30
0.0
 10
1.951048938940605
 20
0.0992378252899471
 30
0.0
 10
1.945460831301716
 20
0.097257573553836
 30
0.0
 10
1.940252497968382
 20
0.0944092662621693
 30
0.0
 10
1.935579917673243
 20
0.0907675019392526
 30
0.0
 10
1.935579917673243
 20
0.0907675019392526
 30
0.0
 10
1.93189746324616
 20
0.0878988495955026
 30
0.0
 10
1.93189746324616
 20
0.0878988495955026
 30
0.0
 10
1.93189746324616
 20
0.0878988495955026
 30
0.0
 10
1.939553984513521
 20
0.060697514960086
 30
0.0
 10
1.939553984513521
 20
0.060697514960086
 30
0.0
 10
1.939553984513521
 20
0.060697514960086
 30
0.0
 10
1.947786948923243
 20
0.0675877059323082
 30
0.0
 10
1.947786948923243
 20
0.0675877059323082
 30
0.0
 10
1.950621692846855
 20
0.0699612953420304
 30
0.0
 10
1.953673450659355
 20
0.0717584416093915
 30
0.0
 10
1.956854060468382
 20
0.0729316729461971
 30
0.0
 10
1.961947105173243
 20
0.0748101994218915
 30
0.0
 10
1.968043839114216
 20
0.0753052623559193
 30
0.0
 10
1.972099286162826
 20
0.073942143866336
 30
0.0
 10
1.973428496232271
 20
0.0735081160885582
 30
0.0
 10
1.974527129044771
 20
0.0729113278941137
 30
0.0
 10
1.975395184600326
 20
0.0721449975989749
 30
0.0
 10
1.97614795152741
 20
0.0714939559323082
 30
0.0
 10
1.976724394669771
 20
0.0706801538489749
 30
0.0
 10
1.977144859079493
 20
0.069669682928836
 30
0.0
 10
1.977619576961438
 20
0.0685235783281415
 30
0.0
 10
1.977863717586438
 20
0.0671604598385582
 30
0.0
 10
1.977863717586438
 20
0.0656210175642526
 30
0.0
 10
1.977863717586438
 20
0.0640815752899471
 30
0.0
 10
1.977531415069076
 20
0.062711675116336
 30
0.0
 10
1.976846464982271
 20
0.0614231551510582
 30
0.0
 10
1.976134388159355
 20
0.0600803817135582
 30
0.0
 10
1.975103572187132
 20
0.0589207137448082
 30
0.0
 10
1.973686200225326
 20
0.0578831160885582
 30
0.0
 10
1.972126412898938
 20
0.0567437931718915
 30
0.0
 10
1.970119034426716
 20
0.055814702460086
 30
0.0
 10
1.967711536596855
 20
0.0551365340573082
 30
0.0
 10
1.965127714982271
 20
0.0544041121823082
 30
0.0
 10
1.962157337378105
 20
0.0540311195607804
 30
0.0
 10
1.958888565676716
 20
0.0540311195607804
 30
0.0
 10
1.958888565676716
 20
0.0540311195607804
 30
0.0
 10
1.942476890329493
 20
0.0540311195607804
 30
0.0
 10
1.942476890329493
 20
0.0540311195607804
 30
0.0
 10
1.942476890329493
 20
0.0540311195607804
 30
0.0
 10
1.942476890329493
 20
0.0270807072343915
 30
0.0
 10
1.942476890329493
 20
0.0270807072343915
 30
0.0
 10
1.942476890329493
 20
0.0270807072343915
 30
0.0
 10
1.960733183732271
 20
0.0270807072343915
 30
0.0
 10
1.960733183732271
 20
0.0270807072343915
 30
0.0
 10
1.964910701093382
 20
0.0270807072343915
 30
0.0
 10
1.96851855699616
 20
0.0267348413489749
 30
0.0
 10
1.971461807864216
 20
0.0260498912621693
 30
0.0
 10
1.974106664635049
 20
0.0254327580156415
 30
0.0
 10
1.976249676787826
 20
0.0245782658281415
 30
0.0
 10
1.977816245798243
 20
0.0235067597517526
 30
0.0
 10
1.979145455867688
 20
0.0226047957760582
 30
0.0
 10
1.980081328263521
 20
0.021573979803836
 30
0.0
 10
1.980684898141993
 20
0.0203668400468915
 30
0.0
 10
1.981342721492688
 20
0.0190511933455026
 30
0.0
 10
1.981661460641993
 20
0.0175320961232804
 30
0.0
 10
1.981661460641993
 20
0.0157213864878637
 30
0.0
 10
1.981661460641993
 20
0.0141073456892526
 30
0.0
 10
1.981369848228799
 20
0.0127103187795304
 30
0.0
 10
1.980766278350326
 20
0.0114285804982804
 30
0.0
 10
1.980162708471855
 20
0.0101468422170304
 30
0.0
 10
1.979328561336438
 20
0.0090821178246693
 30
0.0
 10
1.978216365155882
 20
0.0081598087968915
 30
0.0
 10
1.977009225398938
 20
0.0071629012448082
 30
0.0
 10
1.97547656480866
 20
0.0063626625295304
 30
0.0
 10
1.973686200225326
 20
0.0057794377031415
 30
0.0
 10
1.968491430260049
 20
0.0040907983802248
 30
0.0
 10
1.960977324357271
 20
0.0047079316267526
 30
0.0
 10
1.955063695885049
 20
0.0063830075816137
 30
0.0
 10
1.951347333037826
 20
0.0074273869218915
 30
0.0
 10
1.947868329131576
 20
0.0089193574080026
 30
0.0
 10
1.944721627742688
 20
0.0108114472517526
 30
0.0
 10
1.944721627742688
 20
0.0108114472517526
 30
0.0
 10
1.936915909426716
 20
0.0155111542830026
 30
0.0
 10
1.936915909426716
 20
0.0155111542830026
 30
0.0
 10
1.936915909426716
 20
0.0155111542830026
 30
0.0
 10
1.931300675051716
 20
-0.0044905750464245
 30
0.0
 10
1.931300675051716
 20
-0.0044905750464245
 30
0.0
 10
1.931300675051716
 20
-0.0044905750464245
 30
0.0
 10
1.931300675051716
 20
0.0067966903073082
 30
0.0
 10
1.931300675051716
 20
0.0067966903073082
 30
0.0
 10
1.931300675051716
 20
0.0067966903073082
 30
0.0
 10
1.887253637291299
 20
0.0067966903073082
 30
0.0
 10
1.887253637291299
 20
0.0067966903073082
 30
0.0
 10
1.88831836168366
 20
0.0081598087968915
 30
0.0
 10
1.889484811336438
 20
0.0094958005503637
 30
0.0
 10
1.890752986249632
 20
0.0107775388316137
 30
0.0
 10
1.89295703355866
 20
0.0130019311927249
 30
0.0
 10
1.895371313072549
 20
0.0152059785017526
 30
0.0
 10
1.897995824791299
 20
0.0173828990746693
 30
0.0
 10
1.897995824791299
 20
0.0173828990746693
 30
0.0
 10
1.906486493194076
 20
0.024503667303836
 30
0.0
 10
1.906486493194076
 20
0.024503667303836
 30
0.0
 10
1.909416180694076
 20
0.0269925453420304
 30
0.0
 10
1.912271269669771
 20
0.0295763669566137
 30
0.0
 10
1.915031415069076
 20
0.0322686955156415
 30
0.0
 10
1.918008574357271
 20
0.0351576929114749
 30
0.0
 10
1.920673776180188
 20
0.0383383027205026
 30
0.0
 10
1.922959203697549
 20
0.0417020179982804
 30
0.0
 10
1.92530566637116
 20
0.0451606768524471
 30
0.0
 10
1.927218101266993
 20
0.0489312931718915
 30
0.0
 10
1.928621909860743
 20
0.0528985783281415
 30
0.0
 10
1.930100316978799
 20
0.0570557506371693
 30
0.0
 10
1.930846302221855
 20
0.0616333873559193
 30
0.0
 10
1.930846302221855
 20
0.0665094181718915
 30
0.0
 10
1.930846302221855
 20
0.0718330401336971
 30
0.0
 10
1.929869739721855
 20
0.0767768877899471
 30
0.0
 10
1.927950523141993
 20
0.081205327460086
 30
0.0
 10
1.926004179826021
 20
0.0857015839705026
 30
0.0
 10
1.923149090850326
 20
0.0895874889184193
 30
0.0
 10
1.919493763159355
 20
0.0927545353593915
 30
0.0
 10
1.915933379044771
 20
0.0958605466441137
 30
0.0
 10
1.911620228003105
 20
0.0982612627899471
 30
0.0
 10
1.906669598662826
 20
0.0999024303246693
 30
0.0
 10
1.896103734947549
 20
0.1033678708628637
 30
0.0
 10
1.882113120798243
 20
0.1028863712968915
 30
0.0
 10
1.871540475398938
 20
0.0991428817135582
 30
0.0
 10
1.865701445451021
 20
0.0970812497691137
 30
0.0
 10
1.860384605173243
 20
0.0941379989010582
 30
0.0
 10
1.855745933298243
 20
0.0903877276336971
 30
0.0
 10
1.855745933298243
 20
0.0903877276336971
 30
0.0
 10
1.852171985815605
 20
0.0874987302378637
 30
0.0
 10
1.852171985815605
 20
0.0874987302378637
 30
0.0
 10
1.852171985815605
 20
0.0874987302378637
 30
0.0
 10
1.859964140763521
 20
0.060148198553836
 30
0.0
 10
1.859964140763521
 20
0.060148198553836
 30
0.0
 10
1.859964140763521
 20
0.060148198553836
 30
0.0
 10
1.868142851701021
 20
0.0668552840573082
 30
0.0
 10
1.868142851701021
 20
0.0668552840573082
 30
0.0
 10
1.871214954565605
 20
0.0693712888316137
 30
0.0
 10
1.874415909426716
 20
0.0712905054114749
 30
0.0
 10
1.877657554391993
 20
0.0725586803246693
 30
0.0
 10
1.882601402048243
 20
0.074491460272586
 30
0.0
 10
1.889037220190605
 20
0.0750611217309193
 30
0.0
 10
1.893418188072549
 20
0.0735623695607804
 30
0.0
 10
1.894950848662826
 20
0.0730401798906415
 30
0.0
 10
1.896171551787826
 20
0.0723620114878637
 30
0.0
 10
1.897148114287826
 20
0.0715143009843915
 30
0.0
 10
1.898070423315605
 20
0.070707280585086
 30
0.0
 10
1.898775718454493
 20
0.0697374997691137
 30
0.0
 10
1.899291126440605
 20
0.0685846134843915
 30
0.0
 10
1.899833661162826
 20
0.0673571286753637
 30
0.0
 10
1.90009814683991
 20
0.0659940101857804
 30
0.0
 10
1.90009814683991
 20
0.0644070961232804
 30
0.0
 10
1.90009814683991
 20
0.0623725909149471
 30
0.0
 10
1.899650555694076
 20
0.060514409491336
 30
0.0
 10
1.898728246666299
 20
0.0587172632239749
 30
0.0
 10
1.89759570543366
 20
0.0564996525468915
 30
0.0
 10
1.89606982652741
 20
0.0543023869218915
 30
0.0
 10
1.894204863419771
 20
0.0522000648732804
 30
0.0
 10
1.892122886423243
 20
0.0498671655677249
 30
0.0
 10
1.889756078697549
 20
0.047574956366336
 30
0.0
 10
1.88709765855866
 20
0.0453098739010582
 30
0.0
 10
1.88709765855866
 20
0.0453098739010582
 30
0.0
 10
1.878200089114216
 20
0.0377143877899471
 30
0.0
 10
1.878200089114216
 20
0.0377143877899471
 30
0.0
 10
1.875060169409355
 20
0.0350356225989749
 30
0.0
 10
1.871981284860743
 20
0.0322483504635582
 30
0.0
 10
1.86897021715241
 20
0.0293390080156415
 30
0.0
 10
1.865769262291299
 20
0.0262533417830026
 30
0.0
 10
1.862873483211438
 20
0.0228964081892526
 30
0.0
 10
1.860357478437132
 20
0.0193699324948082
 30
0.0
 10
1.857753311770466
 20
0.015714604803836
 30
0.0
 10
1.855610299617688
 20
0.0116998478593915
 30
0.0
 10
1.854003040503105
 20
0.0074612953420304
 30
0.0
 10
1.852280492760049
 20
0.0029718205156415
 30
0.0
 10
1.851412437204493
 20
-0.0019923721926918
 30
0.0
 10
1.851412437204493
 20
-0.0072888674183863
 30
0.0
 10
1.851412437204493
 20
-0.0085027888593585
 30
0.0
 10
1.851459908992688
 20
-0.0097506187204696
 30
0.0
 10
1.851541289201021
 20
-0.0110459203697752
 30
0.0
 10
1.851629451093382
 20
-0.0123208769669974
 30
0.0
 10
1.851751521405882
 20
-0.0136365236683863
 30
0.0
 10
1.851927845190605
 20
-0.0150064238419974
 30
0.0
 10
1.851927845190605
 20
-0.0150064238419974
 30
0.0
 10
1.852707738853799
 20
-0.0210692493628307
 30
0.0
 10
1.852707738853799
 20
-0.0210692493628307
 30
0.0
 10
1.852707738853799
 20
-0.0210692493628307
 30
0.0
 10
1.931300675051716
 20
-0.0210692493628307
 30
0.0
 10
1.931300675051716
 20
-0.0210692493628307
 30
0.0
 10
1.931300675051716
 20
-0.0210692493628307
 30
0.0
 10
1.931300675051716
 20
-0.0125065255672578
 30
0.0
 10
1.931300675051716
 20
-0.0125065255672578
 30
0.0
 10
1.931300675051716
 20
-0.0125065255672578
 30
0.0
 10
1.933918405086438
 20
-0.0140773331301918
 30
0.0
 10
1.933918405086438
 20
-0.0140773331301918
 30
0.0
 10
1.93855029527741
 20
-0.0168578235815807
 30
0.0
 10
1.943819663766993
 20
-0.0189804906822752
 30
0.0
 10
1.949556968454493
 20
-0.0204046443281085
 30
0.0
 10
1.955158639461438
 20
-0.0218016712378307
 30
0.0
 10
1.961140084773938
 20
-0.0225069663767196
 30
0.0
 10
1.967338543975326
 20
-0.0225069663767196
 30
0.0
 10
1.973631946753105
 20
-0.0225069663767196
 30
0.0
 10
1.979532011857271
 20
-0.0216592558732474
 30
0.0
 10
1.984869197187132
 20
-0.0199909616024141
 30
0.0
 10
1.99036914293366
 20
-0.0182751955433863
 30
0.0
 10
1.995218047013521
 20
-0.0157185006649141
 30
0.0
 10
1.99928027574616
 20
-0.0123954754913029
 30
0.0
 10
2.00343066637116
 20
-0.0089842884253307
 30
0.0
 10
2.006699438072549
 20
-0.0048135527482474
 30
0.0
 10
2.008978083905882
 20
-0.0000121204565807
 30
0.0
 10
2.011256729739216
 20
0.0048028752031415
 30
0.0
 10
2.012409616023938
 20
0.010221440741336
 30
0.0
 10
2.012409616023938
 20
0.0161011607934193
 30
0.0
 10
2.012409616023938
 20
0.0242391816267526
 30
0.0
 10
2.010049589982271
 20
0.031278569647586
 30
0.0
 10
2.005397354739216
 20
0.0370294377031415
 30
0.0
  0
ENDBLK
  5
AD
330
AA
100
AcDbEntity
  8
0
100
AcDbBlockEnd
  0
ENDSEC
  0
SECTION
  2
ENTITIES
  0
SPLINE
  5
7A
330
70
100
AcDbEntity
  8
Text
100
AcDbSpline
210
0.0
220
0.0
230
1.0
 70
    11
 71
     3
 72
   128
 73
   124
 74
     0
 42
0.0000000001
 43
0.0000000001
 40
0.0
 40
0.0
 40
0.0
 40
0.0
 40
1.0
 40
1.0
 40
1.0
 40
2.0
 40
2.0
 40
2.0
 40
3.0
 40
3.0
 40
3.0
 40
4.0
 40
4.0
 40
4.0
 40
5.0
 40
5.0
 40
5.0
 40
6.0
 40
6.0
 40
6.0
 40
7.0
 40
7.0
 40
7.0
 40
8.0
 40
8.0
 40
8.0
 40
9.0
 40
9.0
 40
9.0
 40
10.0
 40
10.0
 40
10.0
 40
11.0
 40
11.0
 40
11.0
 40
12.0
 40
12.0
 40
12.0
 40
13.0
 40
13.0
 40
13.0
 40
14.0
 40
14.0
 40
14.0
 40
15.0
 40
15.0
 40
15.0
 40
16.0
 40
16.0
 40
16.0
 40
17.0
 40
17.0
 40
17.0
 40
18.0
 40
18.0
 40
18.0
 40
19.0
 40
19.0
 40
19.0
 40
20.0
 40
20.0
 40
20.0
 40
21.0
 40
21.0
 40
21.0
 40
22.0
 40
22.0
 40
22.0
 40
23.0
 40
23.0
 40
23.0
 40
24.0
 40
24.0
 40
24.0
 40
25.0
 40
25.0
 40
25.0
 40
26.0
 40
26.0
 40
26.0
 40
27.0
 40
27.0
 40
27.0
 40
28.0
 40
28.0
 40
28.0
 40
29.0
 40
29.0
 40
29.0
 40
30.0
 40
30.0
 40
30.0
 40
31.0
 40
31.0
 40
31.0
 40
32.0
 40
32.0
 40
32.0
 40
33.0
 40
33.0
 40
33.0
 40
34.0
 40
34.0
 40
34.0
 40
35.0
 40
35.0
 40
35.0
 40
36.0
 40
36.0
 40
36.0
 40
37.0
 40
37.0
 40
37.0
 40
38.0
 40
38.0
 40
38.0
 40
39.0
 40
39.0
 40
39.0
 40
40.0
 40
40.0
 40
40.0
 40
41.0
 40
41.0
 40
41.0
 40
41.0
 10
0.9478920830620658
 20
-2.326816134982638
 30
0.0
 10
0.9478920830620658
 20
-2.326816134982638
 30
0.0
 10
0.5769933064778645
 20
-2.530104743109808
 30
0.0
 10
0.5769933064778645
 20
-2.530104743109808
 30
0.0
 10
0.5769933064778645
 20
-2.530104743109808
 30
0.0
 10
0.5759514702690973
 20
-2.530871921115451
 30
0.0
 10
0.5759514702690973
 20
-2.530871921115451
 30
0.0
 10
0.5759514702690973
 20
-2.530871921115451
 30
0.0
 10
0.5759785970052083
 20
-2.530871921115451
 30
0.0
 10
0.5759785970052083
 20
-2.530871921115451
 30
0.0
 10
0.5075039333767361
 20
-2.584739685058593
 30
0.0
 10
0.4625642564561633
 20
-2.670234680175781
 30
0.0
 10
0.4600982666015625
 20
-2.766991509331596
 30
0.0
 10
0.4600982666015625
 20
-2.766991509331596
 30
0.0
 10
0.4599583943684896
 20
-2.766991509331596
 30
0.0
 10
0.4599583943684896
 20
-2.766991509331596
 30
0.0
 10
0.4599583943684896
 20
-2.766991509331596
 30
0.0
 10
0.4599583943684896
 20
-2.771902296278211
 30
0.0
 10
0.4599583943684896
 20
-2.771902296278211
 30
0.0
 10
0.459946526421441
 20
-2.77305179172092
 30
0.0
 10
0.4598609076605903
 20
-2.774181789822048
 30
0.0
 10
0.4598609076605903
 20
-2.775333828396267
 30
0.0
 10
0.4598609076605903
 20
-2.77602301703559
 30
0.0
 10
0.4599541558159723
 20
-2.776685926649305
 30
0.0
 10
0.4599583943684896
 20
-2.777373419867621
 30
0.0
 10
0.4599583943684896
 20
-2.777373419867621
 30
0.0
 10
0.4599583943684896
 20
-2.823939005533853
 30
0.0
 10
0.4599583943684896
 20
-2.823939005533853
 30
0.0
 10
0.4599583943684896
 20
-2.861930847167968
 30
0.0
 10
0.4291593763563368
 20
-2.892729865180121
 30
0.0
 10
0.3911675347222222
 20
-2.892729865180121
 30
0.0
 10
0.3911675347222222
 20
-2.892729865180121
 30
0.0
 10
-0.0092230902777778
 20
-2.892729865180121
 30
0.0
 10
-0.0092230902777778
 20
-2.892729865180121
 30
0.0
 10
-0.0092230902777778
 20
-2.892729865180121
 30
0.0
 10
-0.0780139499240451
 20
-2.892729865180121
 30
0.0
 10
-0.0780139499240451
 20
-2.892729865180121
 30
0.0
 10
-0.1250169542100694
 20
-2.892729865180121
 30
0.0
 10
-0.1631206936306424
 20
-2.930833604600694
 30
0.0
 10
-0.1631206936306424
 20
-2.977836608886718
 30
0.0
 10
-0.1631206936306424
 20
-2.977836608886718
 30
0.0
 10
-0.1631206936306424
 20
-3.046627468532986
 30
0.0
 10
-0.1631206936306424
 20
-3.046627468532986
 30
0.0
 10
-0.1631206936306424
 20
-3.046627468532986
 30
0.0
 10
-0.1631206936306424
 20
-3.068620469835069
 30
0.0
 10
-0.1631206936306424
 20
-3.068620469835069
 30
0.0
 10
-0.1631206936306424
 20
-3.068620469835069
 30
0.0
 10
-0.1631206936306424
 20
-3.137411329481336
 30
0.0
 10
-0.1631206936306424
 20
-3.137411329481336
 30
0.0
 10
-0.1631206936306424
 20
-3.18441433376736
 30
0.0
 10
-0.1250169542100694
 20
-3.22251722547743
 30
0.0
 10
-0.0780139499240451
 20
-3.22251722547743
 30
0.0
 10
-0.0780139499240451
 20
-3.22251722547743
 30
0.0
 10
-0.0092239379882813
 20
-3.22251722547743
 30
0.0
 10
-0.0092239379882813
 20
-3.22251722547743
 30
0.0
 10
-0.0092239379882813
 20
-3.22251722547743
 30
0.0
 10
1.319412231445312
 20
-3.22251722547743
 30
0.0
 10
1.319412231445312
 20
-3.22251722547743
 30
0.0
 10
1.335870530870225
 20
-3.22251722547743
 30
0.0
 10
1.351336161295572
 20
-3.228959825303819
 30
0.0
 10
1.364253573947482
 20
-3.239159478081596
 30
0.0
 10
1.364769829644097
 20
-3.239567226833766
 30
0.0
 10
1.365373399522569
 20
-3.239859686957465
 30
0.0
 10
1.365899827745225
 20
-3.240255567762586
 30
0.0
 10
1.368522644042968
 20
-3.242229885525173
 30
0.0
 10
1.371253967285156
 20
-3.244048224555121
 30
0.0
 10
1.374099731445312
 20
-3.245713975694444
 30
0.0
 10
1.374927944607204
 20
-3.24619886610243
 30
0.0
 10
1.375717163085937
 20
-3.24672614203559
 30
0.0
 10
1.376563178168402
 20
-3.247183905707465
 30
0.0
 10
1.380172729492187
 20
-3.249136182996961
 30
0.0
 10
1.383925543891058
 20
-3.250838385687933
 30
0.0
 10
1.387825012207031
 20
-3.25225830078125
 30
0.0
 10
1.38865237765842
 20
-3.252560085720485
 30
0.0
 10
1.389512803819444
 20
-3.25277116563585
 30
0.0
 10
1.390352037217881
 20
-3.253047519259982
 30
0.0
 10
1.39358181423611
 20
-3.254110548231336
 30
0.0
 10
1.396890428331163
 20
-3.254973517523871
 30
0.0
 10
1.400278727213541
 20
-3.255644904242621
 30
0.0
 10
1.401444329155815
 20
-3.255876329210069
 30
0.0
 10
1.402598910861545
 20
-3.256106906467013
 30
0.0
 10
1.403782314724392
 20
-3.256290011935763
 30
0.0
 10
1.408036126030815
 20
-3.256947835286458
 30
0.0
 10
1.41235605875651
 20
-3.257403903537326
 30
0.0
 10
1.416796366373697
 20
-3.257403903537326
 30
0.0
 10
1.416796366373697
 20
-3.257403903537326
 30
0.0
 10
1.900605943467881
 20
-3.257403903537326
 30
0.0
 10
1.900605943467881
 20
-3.257403903537326
 30
0.0
 10
1.900605943467881
 20
-3.257403903537326
 30
0.0
 10
1.969396803114149
 20
-3.257403903537326
 30
0.0
 10
1.969396803114149
 20
-3.257403903537326
 30
0.0
 10
2.016399807400173
 20
-3.257403903537326
 30
0.0
 10
2.054503546820746
 20
-3.219300164116753
 30
0.0
 10
2.054503546820746
 20
-3.172297159830729
 30
0.0
 10
2.054503546820746
 20
-3.172297159830729
 30
0.0
 10
2.054503546820746
 20
-3.103506300184461
 30
0.0
 10
2.054503546820746
 20
-3.103506300184461
 30
0.0
 10
2.054503546820746
 20
-3.103506300184461
 30
0.0
 10
2.054503546820746
 20
-2.999793158637152
 30
0.0
 10
2.054503546820746
 20
-2.999793158637152
 30
0.0
 10
2.054503546820746
 20
-2.999793158637152
 30
0.0
 10
2.054503546820746
 20
-2.931002298990885
 30
0.0
 10
2.054503546820746
 20
-2.931002298990885
 30
0.0
 10
2.054503546820746
 20
-2.883999294704861
 30
0.0
 10
2.016399807400173
 20
-2.845895555284288
 30
0.0
 10
1.969396803114149
 20
-2.845895555284288
 30
0.0
 10
1.969396803114149
 20
-2.845895555284288
 30
0.0
 10
1.900605943467881
 20
-2.845895555284288
 30
0.0
 10
1.900605943467881
 20
-2.845895555284288
 30
0.0
 10
1.900605943467881
 20
-2.845895555284288
 30
0.0
 10
1.581469217936197
 20
-2.845895555284288
 30
0.0
 10
1.581469217936197
 20
-2.845895555284288
 30
0.0
 10
1.543477376302083
 20
-2.845895555284288
 30
0.0
 10
1.51267835828993
 20
-2.815096537272135
 30
0.0
 10
1.51267835828993
 20
-2.77710469563802
 30
0.0
 10
1.512681749131944
 20
-2.776510450575086
 30
0.0
 10
1.512733459472656
 20
-2.775928921169704
 30
0.0
 10
1.512733459472656
 20
-2.775333828396267
 30
0.0
 10
1.512733459472656
 20
-2.657332526312933
 30
0.0
 10
1.449357774522569
 20
-2.555104573567708
 30
0.0
 10
1.356790330674913
 20
-2.504670037163628
 30
0.0
 10
1.356790330674913
 20
-2.504670037163628
 30
0.0
 10
0.9478920830620658
 20
-2.326816134982638
 30
0.0
 10
0.9478920830620658
 20
-2.326816134982638
 30
0.0
  0
HATCH
  5
7B
330
70
100
AcDbEntity
  8
Text
 62
     4
420
    61172
440
 33554687
100
AcDbHatch
 10
0.0
 20
0.0
 30
0.0
210
0.0
220
0.0
230
1.0
  2
SOLID
 70
     1
 71
     1
 91
        1
 92
        1
 93
        1
 72
     4
 94
        3
 73
     0
 74
     0
 95
      128
 96
      124
 40
0.0
 40
0.0
 40
0.0
 40
0.0
 40
1.0
 40
1.0
 40
1.0
 40
2.0
 40
2.0
 40
2.0
 40
3.0
 40
3.0
 40
3.0
 40
4.0
 40
4.0
 40
4.0
 40
5.0
 40
5.0
 40
5.0
 40
6.0
 40
6.0
 40
6.0
 40
7.0
 40
7.0
 40
7.0
 40
8.0
 40
8.0
 40
8.0
 40
9.0
 40
9.0
 40
9.0
 40
10.0
 40
10.0
 40
10.0
 40
11.0
 40
11.0
 40
11.0
 40
12.0
 40
12.0
 40
12.0
 40
13.0
 40
13.0
 40
13.0
 40
14.0
 40
14.0
 40
14.0
 40
15.0
 40
15.0
 40
15.0
 40
16.0
 40
16.0
 40
16.0
 40
17.0
 40
17.0
 40
17.0
 40
18.0
 40
18.0
 40
18.0
 40
19.0
 40
19.0
 40
19.0
 40
20.0
 40
20.0
 40
20.0
 40
21.0
 40
21.0
 40
21.0
 40
22.0
 40
22.0
 40
22.0
 40
23.0
 40
23.0
 40
23.0
 40
24.0
 40
24.0
 40
24.0
 40
25.0
 40
25.0
 40
25.0
 40
26.0
 40
26.0
 40
26.0
 40
27.0
 40
27.0
 40
27.0
 40
28.0
 40
28.0
 40
28.0
 40
29.0
 40
29.0
 40
29.0
 40
30.0
 40
30.0
 40
30.0
 40
31.0
 40
31.0
 40
31.0
 40
32.0
 40
32.0
 40
32.0
 40
33.0
 40
33.0
 40
33.0
 40
34.0
 40
34.0
 40
34.0
 40
35.0
 40
35.0
 40
35.0
 40
36.0
 40
36.0
 40
36.0
 40
37.0
 40
37.0
 40
37.0
 40
38.0
 40
38.0
 40
38.0
 40
39.0
 40
39.0
 40
39.0
 40
40.0
 40
40.0
 40
40.0
 40
41.0
 40
41.0
 40
41.0
 40
41.0
 10
0.9478920830620658
 20
-2.326816134982638
 10
0.9478920830620658
 20
-2.326816134982638
 10
0.5769933064778645
 20
-2.530104743109808
 10
0.5769933064778645
 20
-2.530104743109808
 10
0.5769933064778645
 20
-2.530104743109808
 10
0.5759514702690973
 20
-2.530871921115451
 10
0.5759514702690973
 20
-2.530871921115451
 10
0.5759514702690973
 20
-2.530871921115451
 10
0.5759785970052083
 20
-2.530871921115451
 10
0.5759785970052083
 20
-2.530871921115451
 10
0.5075039333767361
 20
-2.584739685058593
 10
0.4625642564561633
 20
-2.670234680175781
 10
0.4600982666015625
 20
-2.766991509331596
 10
0.4600982666015625
 20
-2.766991509331596
 10
0.4599583943684896
 20
-2.766991509331596
 10
0.4599583943684896
 20
-2.766991509331596
 10
0.4599583943684896
 20
-2.766991509331596
 10
0.4599583943684896
 20
-2.771902296278211
 10
0.4599583943684896
 20
-2.771902296278211
 10
0.459946526421441
 20
-2.77305179172092
 10
0.4598609076605903
 20
-2.774181789822048
 10
0.4598609076605903
 20
-2.775333828396267
 10
0.4598609076605903
 20
-2.77602301703559
 10
0.4599541558159723
 20
-2.776685926649305
 10
0.4599583943684896
 20
-2.777373419867621
 10
0.4599583943684896
 20
-2.777373419867621
 10
0.4599583943684896
 20
-2.823939005533853
 10
0.4599583943684896
 20
-2.823939005533853
 10
0.4599583943684896
 20
-2.861930847167968
 10
0.4291593763563368
 20
-2.892729865180121
 10
0.3911675347222222
 20
-2.892729865180121
 10
0.3911675347222222
 20
-2.892729865180121
 10
-0.0092230902777778
 20
-2.892729865180121
 10
-0.0092230902777778
 20
-2.892729865180121
 10
-0.0092230902777778
 20
-2.892729865180121
 10
-0.0780139499240451
 20
-2.892729865180121
 10
-0.0780139499240451
 20
-2.892729865180121
 10
-0.1250169542100694
 20
-2.892729865180121
 10
-0.1631206936306424
 20
-2.930833604600694
 10
-0.1631206936306424
 20
-2.977836608886718
 10
-0.1631206936306424
 20
-2.977836608886718
 10
-0.1631206936306424
 20
-3.046627468532986
 10
-0.1631206936306424
 20
-3.046627468532986
 10
-0.1631206936306424
 20
-3.046627468532986
 10
-0.1631206936306424
 20
-3.068620469835069
 10
-0.1631206936306424
 20
-3.068620469835069
 10
-0.1631206936306424
 20
-3.068620469835069
 10
-0.1631206936306424
 20
-3.137411329481336
 10
-0.1631206936306424
 20
-3.137411329481336
 10
-0.1631206936306424
 20
-3.18441433376736
 10
-0.1250169542100694
 20
-3.22251722547743
 10
-0.0780139499240451
 20
-3.22251722547743
 10
-0.0780139499240451
 20
-3.22251722547743
 10
-0.0092239379882813
 20
-3.22251722547743
 10
-0.0092239379882813
 20
-3.22251722547743
 10
-0.0092239379882813
 20
-3.22251722547743
 10
1.319412231445312
 20
-3.22251722547743
 10
1.319412231445312
 20
-3.22251722547743
 10
1.335870530870225
 20
-3.22251722547743
 10
1.351336161295572
 20
-3.228959825303819
 10
1.364253573947482
 20
-3.239159478081596
 10
1.364769829644097
 20
-3.239567226833766
 10
1.365373399522569
 20
-3.239859686957465
 10
1.365899827745225
 20
-3.240255567762586
 10
1.368522644042968
 20
-3.242229885525173
 10
1.371253967285156
 20
-3.244048224555121
 10
1.374099731445312
 20
-3.245713975694444
 10
1.374927944607204
 20
-3.24619886610243
 10
1.375717163085937
 20
-3.24672614203559
 10
1.376563178168402
 20
-3.247183905707465
 10
1.380172729492187
 20
-3.249136182996961
 10
1.383925543891058
 20
-3.250838385687933
 10
1.387825012207031
 20
-3.25225830078125
 10
1.38865237765842
 20
-3.252560085720485
 10
1.389512803819444
 20
-3.25277116563585
 10
1.390352037217881
 20
-3.253047519259982
 10
1.39358181423611
 20
-3.254110548231336
 10
1.396890428331163
 20
-3.254973517523871
 10
1.400278727213541
 20
-3.255644904242621
 10
1.401444329155815
 20
-3.255876329210069
 10
1.402598910861545
 20
-3.256106906467013
 10
1.403782314724392
 20
-3.256290011935763
 10
1.408036126030815
 20
-3.256947835286458
 10
1.41235605875651
 20
-3.257403903537326
 10
1.416796366373697
 20
-3.257403903537326
 10
1.416796366373697
 20
-3.257403903537326
 10
1.900605943467881
 20
-3.257403903537326
 10
1.900605943467881
 20
-3.257403903537326
 10
1.900605943467881
 20
-3.257403903537326
 10
1.969396803114149
 20
-3.257403903537326
 10
1.969396803114149
 20
-3.257403903537326
 10
2.016399807400173
 20
-3.257403903537326
 10
2.054503546820746
 20
-3.219300164116753
 10
2.054503546820746
 20
-3.172297159830729
 10
2.054503546820746
 20
-3.172297159830729
 10
2.054503546820746
 20
-3.103506300184461
 10
2.054503546820746
 20
-3.103506300184461
 10
2.054503546820746
 20
-3.103506300184461
 10
2.054503546820746
 20
-2.999793158637152
 10
2.054503546820746
 20
-2.999793158637152
 10
2.054503546820746
 20
-2.999793158637152
 10
2.054503546820746
 20
-2.931002298990885
 10
2.054503546820746
 20
-2.931002298990885
 10
2.054503546820746
 20
-2.883999294704861
 10
2.016399807400173
 20
-2.845895555284288
 10
1.969396803114149
 20
-2.845895555284288
 10
1.969396803114149
 20
-2.845895555284288
 10
1.900605943467881
 20
-2.845895555284288
 10
1.900605943467881
 20
-2.845895555284288
 10
1.900605943467881
 20
-2.845895555284288
 10
1.581469217936197
 20
-2.845895555284288
 10
1.581469217936197
 20
-2.845895555284288
 10
1.543477376302083
 20
-2.845895555284288
 10
1.51267835828993
 20
-2.815096537272135
 10
1.51267835828993
 20
-2.77710469563802
 10
1.512681749131944
 20
-2.776510450575086
 10
1.512733459472656
 20
-2.775928921169704
 10
1.512733459472656
 20
-2.775333828396267
 10
1.512733459472656
 20
-2.657332526312933
 10
1.449357774522569
 20
-2.555104573567708
 10
1.356790330674913
 20
-2.504670037163628
 10
1.356790330674913
 20
-2.504670037163628
 10
0.9478920830620658
 20
-2.326816134982638
 10
0.9478920830620658
 20
-2.326816134982638
 97
        0
 97
        1
330
7A
 75
     2
 76
     1
 98
        1
 10
0.0
 20
0.0
450
        0
451
        0
460
0.0
461
0.0
452
        0
462
0.0
453
        0
470

  0
LWPOLYLINE
  5
7C
330
70
100
AcDbEntity
  8
Text
100
AcDbPolyline
 90
        1
 70
     0
 43
0.0
 10
0.9478920830620658
 20
-2.326816134982638
  0
HATCH
  5
7D
330
70
100
AcDbEntity
  8
Text
 62
     4
420
    61172
440
 33554687
100
AcDbHatch
 10
0.0
 20
0.0
 30
0.0
210
0.0
220
0.0
230
1.0
  2
SOLID
 70
     1
 71
     1
 91
        1
 92
        3
 72
     0
 73
     1
 93
        1
 10
0.9478920830620658
 20
-2.326816134982638
 97
        0
 75
     2
 76
     1
 98
        1
 10
0.0
 20
0.0
450
        0
451
        0
460
0.0
461
0.0
452
        0
462
0.0
453
        0
470

  0
LWPOLYLINE
  5
7E
330
70
100
AcDbEntity
  8
Text
 62
   250
420
  2301728
370
    35
100
AcDbPolyline
 90
        1
 70
     0
 43
0.0
 10
0.698709321870764
 20
-3.155161710197059
  0
SPLINE
  5
7F
330
70
100
AcDbEntity
  8
Text
100
AcDbSpline
210
0.0
220
0.0
230
1.0
 70
    11
 71
     3
 72
    17
 73
    13
 74
     0
 42
0.0000000001
 43
0.0000000001
 40
0.0
 40
0.0
 40
0.0
 40
0.0
 40
1.0
 40
1.0
 40
1.0
 40
2.0
 40
2.0
 40
2.0
 40
3.0
 40
3.0
 40
3.0
 40
4.0
 40
4.0
 40
4.0
 40
4.0
 10
1.233896951708377
 20
-2.821325222348327
 30
0.0
 10
1.219861018879277
 20
-2.821325222348327
 30
0.0
 10
1.208436694745109
 20
-2.809906753839034
 30
0.0
 10
1.208436694745109
 20
-2.795864965385059
 30
0.0
 10
1.208436694745109
 20
-2.781823176931084
 30
0.0
 10
1.219861018879277
 20
-2.770404708421816
 30
0.0
 10
1.233896951708377
 20
-2.770404708421816
 30
0.0
 10
1.247932884537476
 20
-2.770404708421816
 30
0.0
 10
1.259351353046743
 20
-2.781823176931084
 30
0.0
 10
1.259351353046743
 20
-2.795864965385059
 30
0.0
 10
1.259351353046743
 20
-2.809906753839034
 30
0.0
 10
1.247932884537476
 20
-2.821325222348327
 30
0.0
 10
1.233896951708377
 20
-2.821325222348327
 30
0.0
  0
SPLINE
  5
80
330
70
100
AcDbEntity
  8
Text
100
AcDbSpline
210
0.0
220
0.0
230
1.0
 70
     9
 71
     3
 72
    32
 73
    28
 74
     0
 42
0.0000000001
 43
0.0000000001
 40
0.0
 40
0.0
 40
0.0
 40
0.0
 40
1.0
 40
1.0
 40
1.0
 40
2.0
 40
2.0
 40
2.0
 40
3.0
 40
3.0
 40
3.0
 40
4.0
 40
4.0
 40
4.0
 40
5.0
 40
5.0
 40
5.0
 40
6.0
 40
6.0
 40
6.0
 40
7.0
 40
7.0
 40
7.0
 40
8.0
 40
8.0
 40
8.0
 40
9.0
 40
9.0
 40
9.0
 40
9.0
 10
1.116848866050935
 20
-2.553969101734613
 30
0.0
 10
1.09222596344504
 20
-2.513377910090361
 30
0.0
 10
1.059217806015895
 20
-2.476932500858689
 30
0.0
 10
1.021261645566078
 20
-2.448357051461091
 30
0.0
 10
1.020283756211685
 20
-2.447654376475914
 30
0.0
 10
1.0193585674812
 20
-2.446951701490711
 30
0.0
 10
1.018474368124821
 20
-2.446284160254789
 30
0.0
 10
1.018474368124821
 20
-2.446284160254789
 30
0.0
 10
1.025670931098122
 20
-2.436692646706988
 30
0.0
 10
1.025670931098122
 20
-2.436692646706988
 30
0.0
 10
1.026601975453483
 20
-2.437383610442439
 30
0.0
 10
1.027527164183993
 20
-2.438074574177865
 30
0.0
 10
1.028452352914478
 20
-2.438765537913291
 30
0.0
 10
1.032399044081279
 20
-2.441646505352562
 30
0.0
 10
1.037112822106893
 20
-2.444878810284434
 30
0.0
 10
1.042289194497773
 20
-2.448427318959602
 30
0.0
 10
1.054404482367367
 20
-2.456742306284316
 30
0.0
 10
1.069476860799618
 20
-2.467083339816326
 30
0.0
 10
1.083231723634627
 20
-2.478806300819188
 30
0.0
 10
1.109921661821974
 20
-2.50156125908946
 30
0.0
 10
1.12495890650497
 20
-2.525557609833589
 30
0.0
 10
1.127927708317353
 20
-2.550139523065354
 30
0.0
 10
1.127927708317353
 20
-2.550139523065354
 30
0.0
 10
1.131253703247239
 20
-2.577719516233931
 30
0.0
 10
1.131253703247239
 20
-2.577719516233931
 30
0.0
 10
1.131253703247239
 20
-2.577719516233931
 30
0.0
 10
1.116848866050935
 20
-2.553969101734613
 30
0.0
 10
1.116848866050935
 20
-2.553969101734613
 30
0.0
  0
SPLINE
  5
81
330
70
100
AcDbEntity
  8
Text
100
AcDbSpline
210
0.0
220
0.0
230
1.0
 70
     9
 71
     3
 72
    53
 73
    49
 74
     0
 42
0.0000000001
 43
0.0000000001
 40
0.0
 40
0.0
 40
0.0
 40
0.0
 40
1.0
 40
1.0
 40
1.0
 40
2.0
 40
2.0
 40
2.0
 40
3.0
 40
3.0
 40
3.0
 40
4.0
 40
4.0
 40
4.0
 40
5.0
 40
5.0
 40
5.0
 40
6.0
 40
6.0
 40
6.0
 40
7.0
 40
7.0
 40
7.0
 40
8.0
 40
8.0
 40
8.0
 40
9.0
 40
9.0
 40
9.0
 40
10.0
 40
10.0
 40
10.0
 40
11.0
 40
11.0
 40
11.0
 40
12.0
 40
12.0
 40
12.0
 40
13.0
 40
13.0
 40
13.0
 40
14.0
 40
14.0
 40
14.0
 40
15.0
 40
15.0
 40
15.0
 40
16.0
 40
16.0
 40
16.0
 40
16.0
 10
1.067907553332689
 20
-2.567788376443281
 30
0.0
 10
1.055505339844153
 20
-2.562869651546987
 30
0.0
 10
1.044526043200625
 20
-2.552774554259813
 30
0.0
 10
1.035268300270773
 20
-2.537784154575824
 30
0.0
 10
1.030987838486023
 20
-2.530874517221491
 30
0.0
 10
1.027410051686451
 20
-2.5235784086253
 30
0.0
 10
1.02394352175952
 20
-2.516528236273946
 30
0.0
 10
1.021378758063595
 20
-2.511305018884058
 30
0.0
 10
1.018819849992546
 20
-2.506093512743922
 30
0.0
 10
1.015974016302543
 20
-2.501034252850584
 30
0.0
 10
1.012975936365743
 20
-2.495705634212905
 30
0.0
 10
1.009667508310498
 20
-2.490540973071802
 30
0.0
 10
1.006364935880115
 20
-2.485399734430175
 30
0.0
 10
1.006364935880115
 20
-2.485399734430175
 30
0.0
 10
0.9921943236788592
 20
-2.463300606146049
 30
0.0
 10
0.9921943236788592
 20
-2.463300606146049
 30
0.0
 10
0.9911578780757078
 20
-2.463335739895329
 30
0.0
 10
0.9900862987233015
 20
-2.463277183646545
 30
0.0
 10
0.9890557087450259
 20
-2.462855578655434
 30
0.0
 10
0.9890557087450259
 20
-2.462855578655434
 30
0.0
 10
0.9857531363146437
 20
-2.461497073684085
 30
0.0
 10
0.9857531363146437
 20
-2.461497073684085
 30
0.0
 10
0.9857531363146437
 20
-2.461497073684085
 30
0.0
 10
0.9852378413255058
 20
-2.457772896262591
 30
0.0
 10
0.9852378413255058
 20
-2.457772896262591
 30
0.0
 10
0.9847928138348908
 20
-2.453591980100731
 30
0.0
 10
0.9884350125081102
 20
-2.451085772653565
 30
0.0
 10
0.9903966468417593
 20
-2.449738978931968
 30
0.0
 10
0.9903966468417593
 20
-2.449738978931968
 30
0.0
 10
0.9954968961092289
 20
-2.446225604006031
 30
0.0
 10
0.9954968961092289
 20
-2.446225604006031
 30
0.0
 10
0.9954968961092289
 20
-2.446225604006031
 30
0.0
 10
1.000157973510972
 20
-2.453498290102718
 30
0.0
 10
1.000157973510972
 20
-2.453498290102718
 30
0.0
 10
1.018093752507853
 20
-2.46717702981434
 30
0.0
 10
1.029055482276766
 20
-2.487109576894125
 30
0.0
 10
1.039677585802817
 20
-2.506409716487243
 30
0.0
 10
1.04408101571001
 20
-2.514408500068637
 30
0.0
 10
1.048624980614224
 20
-2.522676642394319
 30
0.0
 10
1.053555416760268
 20
-2.530230398485072
 30
0.0
 10
1.059955614750328
 20
-2.540067848277683
 30
0.0
 10
1.067491803966479
 20
-2.549413425580673
 30
0.0
 10
1.074782056937768
 20
-2.558454510390068
 30
0.0
 10
1.074782056937768
 20
-2.558454510390068
 30
0.0
 10
1.089087348511182
 20
-2.576185342516257
 30
0.0
 10
1.089087348511182
 20
-2.576185342516257
 30
0.0
 10
1.089087348511182
 20
-2.576185342516257
 30
0.0
 10
1.067907553332689
 20
-2.567788376443281
 30
0.0
 10
1.067907553332689
 20
-2.567788376443281
 30
0.0
  0
SPLINE
  5
82
330
70
100
AcDbEntity
  8
Text
100
AcDbSpline
210
0.0
220
0.0
230
1.0
 70
     9
 71
     3
 72
    92
 73
    88
 74
     0
 42
0.0000000001
 43
0.0000000001
 40
0.0
 40
0.0
 40
0.0
 40
0.0
 40
1.0
 40
1.0
 40
1.0
 40
2.0
 40
2.0
 40
2.0
 40
3.0
 40
3.0
 40
3.0
 40
4.0
 40
4.0
 40
4.0
 40
5.0
 40
5.0
 40
5.0
 40
6.0
 40
6.0
 40
6.0
 40
7.0
 40
7.0
 40
7.0
 40
8.0
 40
8.0
 40
8.0
 40
9.0
 40
9.0
 40
9.0
 40
10.0
 40
10.0
 40
10.0
 40
11.0
 40
11.0
 40
11.0
 40
12.0
 40
12.0
 40
12.0
 40
13.0
 40
13.0
 40
13.0
 40
14.0
 40
14.0
 40
14.0
 40
15.0
 40
15.0
 40
15.0
 40
16.0
 40
16.0
 40
16.0
 40
17.0
 40
17.0
 40
17.0
 40
18.0
 40
18.0
 40
18.0
 40
19.0
 40
19.0
 40
19.0
 40
20.0
 40
20.0
 40
20.0
 40
21.0
 40
21.0
 40
21.0
 40
22.0
 40
22.0
 40
22.0
 40
23.0
 40
23.0
 40
23.0
 40
24.0
 40
24.0
 40
24.0
 40
25.0
 40
25.0
 40
25.0
 40
26.0
 40
26.0
 40
26.0
 40
27.0
 40
27.0
 40
27.0
 40
28.0
 40
28.0
 40
28.0
 40
29.0
 40
29.0
 40
29.0
 40
29.0
 10
1.001926372223692
 20
-2.918364637802571
 30
0.0
 10
0.9945307180046004
 20
-2.924313952677165
 30
0.0
 10
0.9796574308181536
 20
-2.926984117620854
 30
0.0
 10
0.9665935317185585
 20
-2.924665290169741
 30
0.0
 10
0.9618504755685535
 20
-2.923833791437269
 30
0.0
 10
0.9567853600503388
 20
-2.922170793972327
 30
0.0
 10
0.952862091383041
 20
-2.919629452775906
 30
0.0
 10
0.9508770345498886
 20
-2.921222182742338
 30
0.0
 10
0.9483708271027227
 20
-2.922545553964432
 30
0.0
 10
0.9454137365400658
 20
-2.9235292989437
 30
0.0
 10
0.9414904678727806
 20
-2.92482924766629
 30
0.0
 10
0.9368352460959133
 20
-2.925496788902212
 30
0.0
 10
0.9320980455707841
 20
-2.925496788902212
 30
0.0
 10
0.9292346450061534
 20
-2.925496788902212
 30
0.0
 10
0.926341966317131
 20
-2.925262563907153
 30
0.0
 10
0.9235605445007625
 20
-2.92475898016778
 30
0.0
 10
0.9201467151977389
 20
-2.924149995180616
 30
0.0
 10
0.9176756414998282
 20
-2.923283362698889
 30
0.0
 10
0.915784274664702
 20
-2.922030258975306
 30
0.0
 10
0.913717239083275
 20
-2.920671754003933
 30
0.0
 10
0.9126280928562412
 20
-2.918997045289238
 30
0.0
 10
0.9119137066212992
 20
-2.9177088078164
 30
0.0
 10
0.9091966966785776
 20
-2.91277837167033
 30
0.0
 10
0.9084178985700013
 20
-2.907508309281436
 30
0.0
 10
0.9096651466687085
 20
-2.902449049388097
 30
0.0
 10
0.9102741316558597
 20
-2.899954553190683
 30
0.0
 10
0.9120893753676
 20
-2.897600591990314
 30
0.0
 10
0.9146541390635244
 20
-2.896183530770182
 30
0.0
 10
0.916428393401121
 20
-2.892318818351668
 30
0.0
 10
0.9204746301908244
 20
-2.892201705854126
 30
0.0
 10
0.9219970926587215
 20
-2.892166572104871
 30
0.0
 10
0.9219970926587215
 20
-2.892166572104871
 30
0.0
 10
0.9286315156438654
 20
-2.891967480859067
 30
0.0
 10
0.9286315156438654
 20
-2.891967480859067
 30
0.0
 10
0.9286315156438654
 20
-2.891967480859067
 30
0.0
 10
0.9288774518886762
 20
-2.898560914470079
 30
0.0
 10
0.9288774518886762
 20
-2.898560914470079
 30
0.0
 10
0.9288247512647936
 20
-2.899310434454264
 30
0.0
 10
0.9287954731404017
 20
-2.900059954438473
 30
0.0
 10
0.9287896175155259
 20
-2.900809474422658
 30
0.0
 10
0.9287896175155259
 20
-2.900809474422658
 30
0.0
 10
0.9337024867869558
 20
-2.906864190545017
 30
0.0
 10
0.9337024867869558
 20
-2.906864190545017
 30
0.0
 10
0.9351488261314671
 20
-2.906700233048468
 30
0.0
 10
0.9366361548501092
 20
-2.906372318055395
 30
0.0
 10
0.9376608892035088
 20
-2.905845311816493
 30
0.0
 10
0.9391892072962946
 20
-2.905072369332805
 30
0.0
 10
0.9401261072765439
 20
-2.90404177935453
 30
0.0
 10
0.9414260559991337
 20
-2.902601295634894
 30
0.0
 10
0.9422516991067292
 20
-2.901687818154136
 30
0.0
 10
0.9430831978392006
 20
-2.900786051923154
 30
0.0
 10
0.9440376646940775
 20
-2.899919419441428
 30
0.0
 10
0.9450506877977254
 20
-2.898994230710943
 30
0.0
 10
0.9466551290138971
 20
-2.89774112698736
 30
0.0
 10
0.9491144914620438
 20
-2.897132142000195
 30
0.0
 10
0.9528269576337859
 20
-2.89617181952043
 30
0.0
 10
0.9569024725478685
 20
-2.897167275749451
 30
0.0
 10
0.9592681449979888
 20
-2.89829155572574
 30
0.0
 10
0.9615459830749715
 20
-2.899380701952774
 30
0.0
 10
0.9629981780443586
 20
-2.900750918173899
 30
0.0
 10
0.9640580461470133
 20
-2.90174637440292
 30
0.0
 10
0.9670444148340619
 20
-2.904545363093903
 30
0.0
 10
0.9702532972664053
 20
-2.906220071808597
 30
0.0
 10
0.9739950415625267
 20
-2.907098415540076
 30
0.0
 10
0.9787849427115512
 20
-2.908210984266638
 30
0.0
 10
0.9839847376019228
 20
-2.907590288029723
 30
0.0
 10
0.9854544994459375
 20
-2.906665099299213
 30
0.0
 10
0.9854544994459375
 20
-2.906665099299213
 30
0.0
 10
0.9854486438210617
 20
-2.906665099299213
 30
0.0
 10
0.9854486438210617
 20
-2.906665099299213
 30
0.0
 10
0.9853256756986562
 20
-2.906665099299213
 30
0.0
 10
0.9852554082001335
 20
-2.905810178067238
 30
0.0
 10
0.9852085632011267
 20
-2.905224615579577
 30
0.0
 10
0.9849743382060674
 20
-2.902285091891548
 30
0.0
 10
0.984423909467662
 20
-2.895387165786966
 30
0.0
 10
0.9923172918012646
 20
-2.89199090335857
 30
0.0
 10
0.9923172918012646
 20
-2.89199090335857
 30
0.0
 10
0.9950928579927449
 20
-2.890808067133523
 30
0.0
 10
0.9950928579927449
 20
-2.890808067133523
 30
0.0
 10
0.9950928579927449
 20
-2.890808067133523
 30
0.0
 10
0.9976986110628129
 20
-2.89233052960142
 30
0.0
 10
0.9976986110628129
 20
-2.89233052960142
 30
0.0
 10
1.003759182810047
 20
-2.895855615777109
 30
0.0
 10
1.007319402734992
 20
-2.900750918173899
 30
0.0
 10
1.007723440851476
 20
-2.906102959311081
 30
0.0
 10
1.008074778344065
 20
-2.910717191713804
 30
0.0
 10
1.006013598387527
 20
-2.915073776621941
 30
0.0
 10
1.001926372223692
 20
-2.918364637802571
 30
0.0
  0
SPLINE
  5
83
330
70
100
AcDbEntity
  8
Text
100
AcDbSpline
210
0.0
220
0.0
230
1.0
 70
     9
 71
     3
 72
    41
 73
    37
 74
     0
 42
0.0000000001
 43
0.0000000001
 40
0.0
 40
0.0
 40
0.0
 40
0.0
 40
1.0
 40
1.0
 40
1.0
 40
2.0
 40
2.0
 40
2.0
 40
3.0
 40
3.0
 40
3.0
 40
4.0
 40
4.0
 40
4.0
 40
5.0
 40
5.0
 40
5.0
 40
6.0
 40
6.0
 40
6.0
 40
7.0
 40
7.0
 40
7.0
 40
8.0
 40
8.0
 40
8.0
 40
9.0
 40
9.0
 40
9.0
 40
10.0
 40
10.0
 40
10.0
 40
11.0
 40
11.0
 40
11.0
 40
12.0
 40
12.0
 40
12.0
 40
12.0
 10
0.9003312806154831
 20
-2.581221179910092
 30
0.0
 10
0.9170549452629124
 20
-2.564579494010937
 30
0.0
 10
0.9308273749725735
 20
-2.544342454437557
 30
0.0
 10
0.9401670966506747
 20
-2.522676642394319
 30
0.0
 10
0.9429309515924034
 20
-2.516258877529606
 30
0.0
 10
0.9462042458984063
 20
-2.507756510208865
 30
0.0
 10
0.9469947552567342
 20
-2.498949650394529
 30
0.0
 10
0.9474222158727217
 20
-2.494206594244511
 30
0.0
 10
0.9471528571284073
 20
-2.489381559346232
 30
0.0
 10
0.9468717871343288
 20
-2.484263743204135
 30
0.0
 10
0.946625850889518
 20
-2.479790045798431
 30
0.0
 10
0.9463857702695703
 20
-2.475328059642505
 30
0.0
 10
0.9465790058904985
 20
-2.470866073486579
 30
0.0
 10
0.947141145878643
 20
-2.457550382517284
 30
0.0
 10
0.9519837476515627
 20
-2.446998546489743
 30
0.0
 10
0.9602226118528657
 20
-2.441189766612195
 30
0.0
 10
0.9602226118528657
 20
-2.441189766612195
 30
0.0
 10
0.9602284674777415
 20
-2.441189766612195
 30
0.0
 10
0.9602284674777415
 20
-2.441189766612195
 30
0.0
 10
0.9629571886702276
 20
-2.439245699153187
 30
0.0
 10
0.9662948948498524
 20
-2.439081741656637
 30
0.0
 10
0.9689650597935672
 20
-2.440791584120587
 30
0.0
 10
0.9767647521291312
 20
-2.445722020266657
 30
0.0
 10
0.9736729821943173
 20
-2.464026703630755
 30
0.0
 10
0.9735383028221601
 20
-2.464799646114468
 30
0.0
 10
0.9735383028221601
 20
-2.464799646114468
 30
0.0
 10
0.9670971154579445
 20
-2.501760350335264
 30
0.0
 10
0.9670971154579445
 20
-2.501760350335264
 30
0.0
 10
0.9646845980088048
 20
-2.515556202544429
 30
0.0
 10
0.9621959574362664
 20
-2.529832215993463
 30
0.0
 10
0.9554795557028606
 20
-2.542937104467202
 30
0.0
 10
0.9447696178036469
 20
-2.563888530275511
 30
0.0
 10
0.9252703869647247
 20
-2.577942029979238
 30
0.0
 10
0.9080665610774
 20
-2.590332532218023
 30
0.0
 10
0.9080665610774
 20
-2.590332532218023
 30
0.0
 10
0.9003312806154831
 20
-2.581221179910092
 30
0.0
 10
0.9003312806154831
 20
-2.581221179910092
 30
0.0
  0
SPLINE
  5
84
330
70
100
AcDbEntity
  8
Text
100
AcDbSpline
210
0.0
220
0.0
230
1.0
 70
     9
 71
     3
 72
    20
 73
    16
 74
     0
 42
0.0000000001
 43
0.0000000001
 40
0.0
 40
0.0
 40
0.0
 40
0.0
 40
1.0
 40
1.0
 40
1.0
 40
2.0
 40
2.0
 40
2.0
 40
3.0
 40
3.0
 40
3.0
 40
4.0
 40
4.0
 40
4.0
 40
5.0
 40
5.0
 40
5.0
 40
5.0
 10
0.8337469701441856
 20
-2.562576870303145
 30
0.0
 10
0.8337469701441856
 20
-2.562576870303145
 30
0.0
 10
0.7834003074555716
 20
-2.588716379752086
 30
0.0
 10
0.7834003074555716
 20
-2.588716379752086
 30
0.0
 10
0.7834003074555716
 20
-2.588716379752086
 30
0.0
 10
0.9146190053142692
 20
-2.480527854532889
 30
0.0
 10
0.9146190053142692
 20
-2.480527854532889
 30
0.0
 10
0.9146190053142692
 20
-2.480527854532889
 30
0.0
 10
0.9143320796953149
 20
-2.493609320507099
 30
0.0
 10
0.9143320796953149
 20
-2.493609320507099
 30
0.0
 10
0.9142091115729094
 20
-2.49919558663934
 30
0.0
 10
0.9099403610378987
 20
-2.505461105257255
 30
0.0
 10
0.8995993275059138
 20
-2.515263421300611
 30
0.0
 10
0.8793212985584027
 20
-2.534505004644945
 30
0.0
 10
0.8571636140255172
 20
-2.55042059305942
 30
0.0
 10
0.8337469701441856
 20
-2.562576870303145
 30
0.0
  0
SPLINE
  5
85
330
70
100
AcDbEntity
  8
Text
100
AcDbSpline
210
0.0
220
0.0
230
1.0
 70
     9
 71
     3
 72
    53
 73
    49
 74
     0
 42
0.0000000001
 43
0.0000000001
 40
0.0
 40
0.0
 40
0.0
 40
0.0
 40
1.0
 40
1.0
 40
1.0
 40
2.0
 40
2.0
 40
2.0
 40
3.0
 40
3.0
 40
3.0
 40
4.0
 40
4.0
 40
4.0
 40
5.0
 40
5.0
 40
5.0
 40
6.0
 40
6.0
 40
6.0
 40
7.0
 40
7.0
 40
7.0
 40
8.0
 40
8.0
 40
8.0
 40
9.0
 40
9.0
 40
9.0
 40
10.0
 40
10.0
 40
10.0
 40
11.0
 40
11.0
 40
11.0
 40
12.0
 40
12.0
 40
12.0
 40
13.0
 40
13.0
 40
13.0
 40
14.0
 40
14.0
 40
14.0
 40
15.0
 40
15.0
 40
15.0
 40
16.0
 40
16.0
 40
16.0
 40
16.0
 10
0.7520375806167547
 20
-2.556381619183765
 30
0.0
 10
0.7520375806167547
 20
-2.556381619183765
 30
0.0
 10
0.7052921272272165
 20
-2.564755162757238
 30
0.0
 10
0.7052921272272165
 20
-2.564755162757238
 30
0.0
 10
0.7052921272272165
 20
-2.564755162757238
 30
0.0
 10
0.7484890719415615
 20
-2.545021706923257
 30
0.0
 10
0.7484890719415615
 20
-2.545021706923257
 30
0.0
 10
0.7679531690312161
 20
-2.536132868360633
 30
0.0
 10
0.7867555805098366
 20
-2.525510764834557
 30
0.0
 10
0.8043575888887566
 20
-2.513459888838623
 30
0.0
 10
0.8117649543576009
 20
-2.508388917695532
 30
0.0
 10
0.819049351704027
 20
-2.503025165308599
 30
0.0
 10
0.8263337490504657
 20
-2.497649701671914
 30
0.0
 10
0.8482513529634035
 20
-2.481511599512133
 30
0.0
 10
0.8708716318615314
 20
-2.464846491113474
 30
0.0
 10
0.8972160881811532
 20
-2.456063053798642
 30
0.0
 10
0.8991425887655344
 20
-2.454845083824314
 30
0.0
 10
0.9015668174644259
 20
-2.454528880080993
 30
0.0
 10
0.9030717130577082
 20
-2.454329788835189
 30
0.0
 10
0.9030717130577082
 20
-2.454329788835189
 30
0.0
 10
0.9045766086509779
 20
-2.46153220743334
 30
0.0
 10
0.9045766086509779
 20
-2.46153220743334
 30
0.0
 10
0.9045766086509779
 20
-2.46153220743334
 30
0.0
 10
0.9062688842403
 20
-2.461906967425445
 30
0.0
 10
0.9062688842403
 20
-2.461906967425445
 30
0.0
 10
0.9065206761099993
 20
-2.459096267484685
 30
0.0
 10
0.9047112880231351
 20
-2.457222467524186
 30
0.0
 10
0.903791954917526
 20
-2.456754017534068
 30
0.0
 10
0.9041023030359838
 20
-2.456906263780865
 30
0.0
 10
0.9045239080270953
 20
-2.457058510027662
 30
0.0
 10
0.9049396573933311
 20
-2.457222467524186
 30
0.0
 10
0.9049396573933311
 20
-2.457222467524186
 30
0.0
 10
0.9167680196439579
 20
-2.461813277427407
 30
0.0
 10
0.9167680196439579
 20
-2.461813277427407
 30
0.0
 10
0.9167680196439579
 20
-2.461813277427407
 30
0.0
 10
0.9057360223765346
 20
-2.468043662296066
 30
0.0
 10
0.9057360223765346
 20
-2.468043662296066
 30
0.0
 10
0.880703226029267
 20
-2.4821440069988
 30
0.0
 10
0.8548155084500244
 20
-2.496724512941429
 30
0.0
 10
0.8333604989023291
 20
-2.516258877529606
 30
0.0
 10
0.8313168858204182
 20
-2.518120966240353
 30
0.0
 10
0.829302550862874
 20
-2.520029899950107
 30
0.0
 10
0.8272940715302183
 20
-2.521938833659861
 30
0.0
 10
0.8214677247780425
 20
-2.527466543543343
 30
0.0
 10
0.815448142404951
 20
-2.533193344672604
 30
0.0
 10
0.8084565263023426
 20
-2.537866133324087
 30
0.0
 10
0.7912936897891616
 20
-2.549343158082137
 30
0.0
 10
0.7704359539788786
 20
-2.553079046753383
 30
0.0
 10
0.7520375806167547
 20
-2.556381619183765
 30
0.0
  0
SPLINE
  5
86
330
70
100
AcDbEntity
  8
Text
100
AcDbSpline
210
0.0
220
0.0
230
1.0
 70
    11
 71
     3
 72
    17
 73
    13
 74
     0
 42
0.0000000001
 43
0.0000000001
 40
0.0
 40
0.0
 40
0.0
 40
0.0
 40
1.0
 40
1.0
 40
1.0
 40
2.0
 40
2.0
 40
2.0
 40
3.0
 40
3.0
 40
3.0
 40
4.0
 40
4.0
 40
4.0
 40
4.0
 10
0.7314316366761583
 20
-2.821360356097582
 30
0.0
 10
0.7173488588480394
 20
-2.821360356097582
 30
0.0
 10
0.7058894009646287
 20
-2.809906753839034
 30
0.0
 10
0.7058894009646287
 20
-2.795818120386052
 30
0.0
 10
0.7058894009646287
 20
-2.78172948693307
 30
0.0
 10
0.7173488588480394
 20
-2.770275884674522
 30
0.0
 10
0.7314316366761583
 20
-2.770275884674522
 30
0.0
 10
0.7455144145042646
 20
-2.770275884674522
 30
0.0
 10
0.7569738723876879
 20
-2.78172948693307
 30
0.0
 10
0.7569738723876879
 20
-2.795818120386052
 30
0.0
 10
0.7569738723876879
 20
-2.809906753839034
 30
0.0
 10
0.7455144145042646
 20
-2.821360356097582
 30
0.0
 10
0.7314316366761583
 20
-2.821360356097582
 30
0.0
  0
SPLINE
  5
87
330
70
100
AcDbEntity
  8
Text
100
AcDbSpline
210
0.0
220
0.0
230
1.0
 70
     9
 71
     3
 72
    56
 73
    52
 74
     0
 42
0.0000000001
 43
0.0000000001
 40
0.0
 40
0.0
 40
0.0
 40
0.0
 40
1.0
 40
1.0
 40
1.0
 40
2.0
 40
2.0
 40
2.0
 40
3.0
 40
3.0
 40
3.0
 40
4.0
 40
4.0
 40
4.0
 40
5.0
 40
5.0
 40
5.0
 40
6.0
 40
6.0
 40
6.0
 40
7.0
 40
7.0
 40
7.0
 40
8.0
 40
8.0
 40
8.0
 40
9.0
 40
9.0
 40
9.0
 40
10.0
 40
10.0
 40
10.0
 40
11.0
 40
11.0
 40
11.0
 40
12.0
 40
12.0
 40
12.0
 40
13.0
 40
13.0
 40
13.0
 40
14.0
 40
14.0
 40
14.0
 40
15.0
 40
15.0
 40
15.0
 40
16.0
 40
16.0
 40
16.0
 40
17.0
 40
17.0
 40
17.0
 40
17.0
 10
1.320049296610906
 20
-2.541047933491401
 30
0.0
 10
1.320049296610906
 20
-2.541047933491401
 30
0.0
 10
1.223710360282489
 20
-2.48940644575196
 30
0.0
 10
1.223710360282489
 20
-2.48940644575196
 30
0.0
 10
1.218483483127076
 20
-2.486604529248527
 30
0.0
 10
1.177120080952186
 20
-2.467808705347907
 30
0.0
 10
1.171568948569225
 20
-2.465723370938727
 30
0.0
 10
1.171568948569225
 20
-2.465723370938727
 30
0.0
 10
1.117612293144197
 20
-2.448286052009456
 30
0.0
 10
1.117612293144197
 20
-2.448286052009456
 30
0.0
 10
1.117612293144197
 20
-2.448286052009456
 30
0.0
 10
0.9517012137512715
 20
-2.390045275034152
 30
0.0
 10
0.9517012137512715
 20
-2.390045275034152
 30
0.0
 10
0.9517012137512715
 20
-2.390045275034152
 30
0.0
 10
0.8254180757103943
 20
-2.442210841200044
 30
0.0
 10
0.8254180757103943
 20
-2.442210841200044
 30
0.0
 10
0.8254180757103943
 20
-2.442210841200044
 30
0.0
 10
0.7158527466920834
 20
-2.495512398591977
 30
0.0
 10
0.7158527466920834
 20
-2.495512398591977
 30
0.0
 10
0.7158527466920834
 20
-2.495512398591977
 30
0.0
 10
0.6287620379030916
 20
-2.554892826558898
 30
0.0
 10
0.6287620379030916
 20
-2.554892826558898
 30
0.0
 10
0.6249675929830876
 20
-2.557384394943861
 30
0.0
 10
0.6212353640773927
 20
-2.559960137936438
 30
0.0
 10
0.6175836500137595
 20
-2.562642746083029
 30
0.0
 10
0.6175836500137595
 20
-2.562642746083029
 30
0.0
 10
0.6166452861272849
 20
-2.563293452397424
 30
0.0
 10
0.6166452861272849
 20
-2.563293452397424
 30
0.0
 10
0.6166452861272849
 20
-2.563293452397424
 30
0.0
 10
0.6166687086267883
 20
-2.563293452397424
 30
0.0
 10
0.6166687086267883
 20
-2.563293452397424
 30
0.0
 10
0.5532113018395723
 20
-2.610344130233645
 30
0.0
 10
0.5120674855975773
 20
-2.68578360942451
 30
0.0
 10
0.5120674855975773
 20
-2.770849003959306
 30
0.0
 10
0.5120674855975773
 20
-2.913470067358881
 30
0.0
 10
0.6276846029258093
 20
-3.029087184687114
 30
0.0
 10
0.7703056663253721
 20
-3.029087184687114
 30
0.0
 10
0.7727957708041357
 20
-3.029087184687114
 30
0.0
 10
0.7752573291116076
 20
-3.028969340236471
 30
0.0
 10
0.7777313306219563
 20
-3.028899072737961
 30
0.0
 10
0.7777313306219563
 20
-3.028899072737961
 30
0.0
 10
1.194862624328127
 20
-3.028899072737961
 30
0.0
 10
1.194862624328127
 20
-3.028899072737961
 30
0.0
 10
1.197336625838488
 20
-3.028969340236471
 30
0.0
 10
1.199798184145998
 20
-3.029087184687114
 30
0.0
 10
1.202288288624711
 20
-3.029087184687114
 30
0.0
 10
1.344909352024286
 20
-3.029087184687114
 30
0.0
 10
1.460527201305618
 20
-2.913470067358881
 30
0.0
 10
1.460527201305618
 20
-2.770849003959306
 30
0.0
 10
1.460527201305618
 20
-2.670662922087027
 30
0.0
 10
1.403436322665432
 20
-2.583867922354304
 30
0.0
 10
1.320049296610906
 20
-2.541047933491401
 30
0.0
  0
HATCH
  5
88
330
70
100
AcDbEntity
  8
Text
 62
     7
420
 16315106
440
 33554687
100
AcDbHatch
 10
0.0
 20
0.0
 30
0.0
210
0.0
220
0.0
230
1.0
  2
SOLID
 70
     1
 71
     1
 91
        9
 92
        1
 93
        1
 72
     4
 94
        3
 73
     0
 74
     0
 95
       17
 96
       13
 40
0.0
 40
0.0
 40
0.0
 40
0.0
 40
1.0
 40
1.0
 40
1.0
 40
2.0
 40
2.0
 40
2.0
 40
3.0
 40
3.0
 40
3.0
 40
4.0
 40
4.0
 40
4.0
 40
4.0
 10
1.233896951708377
 20
-2.821325222348327
 10
1.219861018879277
 20
-2.821325222348327
 10
1.208436694745109
 20
-2.809906753839034
 10
1.208436694745109
 20
-2.795864965385059
 10
1.208436694745109
 20
-2.781823176931084
 10
1.219861018879277
 20
-2.770404708421816
 10
1.233896951708377
 20
-2.770404708421816
 10
1.247932884537476
 20
-2.770404708421816
 10
1.259351353046743
 20
-2.781823176931084
 10
1.259351353046743
 20
-2.795864965385059
 10
1.259351353046743
 20
-2.809906753839034
 10
1.247932884537476
 20
-2.821325222348327
 10
1.233896951708377
 20
-2.821325222348327
 97
        0
 97
        1
330
7F
 92
        1
 93
        1
 72
     4
 94
        3
 73
     0
 74
     0
 95
       32
 96
       28
 40
0.0
 40
0.0
 40
0.0
 40
0.0
 40
1.0
 40
1.0
 40
1.0
 40
2.0
 40
2.0
 40
2.0
 40
3.0
 40
3.0
 40
3.0
 40
4.0
 40
4.0
 40
4.0
 40
5.0
 40
5.0
 40
5.0
 40
6.0
 40
6.0
 40
6.0
 40
7.0
 40
7.0
 40
7.0
 40
8.0
 40
8.0
 40
8.0
 40
9.0
 40
9.0
 40
9.0
 40
9.0
 10
1.116848866050935
 20
-2.553969101734613
 10
1.09222596344504
 20
-2.513377910090361
 10
1.059217806015895
 20
-2.476932500858689
 10
1.021261645566078
 20
-2.448357051461091
 10
1.020283756211685
 20
-2.447654376475914
 10
1.0193585674812
 20
-2.446951701490711
 10
1.018474368124821
 20
-2.446284160254789
 10
1.018474368124821
 20
-2.446284160254789
 10
1.025670931098122
 20
-2.436692646706988
 10
1.025670931098122
 20
-2.436692646706988
 10
1.026601975453483
 20
-2.437383610442439
 10
1.027527164183993
 20
-2.438074574177865
 10
1.028452352914478
 20
-2.438765537913291
 10
1.032399044081279
 20
-2.441646505352562
 10
1.037112822106893
 20
-2.444878810284434
 10
1.042289194497773
 20
-2.448427318959602
 10
1.054404482367367
 20
-2.456742306284316
 10
1.069476860799618
 20
-2.467083339816326
 10
1.083231723634627
 20
-2.478806300819188
 10
1.109921661821974
 20
-2.50156125908946
 10
1.12495890650497
 20
-2.525557609833589
 10
1.127927708317353
 20
-2.550139523065354
 10
1.127927708317353
 20
-2.550139523065354
 10
1.131253703247239
 20
-2.577719516233931
 10
1.131253703247239
 20
-2.577719516233931
 10
1.131253703247239
 20
-2.577719516233931
 10
1.116848866050935
 20
-2.553969101734613
 10
1.116848866050935
 20
-2.553969101734613
 97
        0
 97
        1
330
80
 92
        1
 93
        1
 72
     4
 94
        3
 73
     0
 74
     0
 95
       53
 96
       49
 40
0.0
 40
0.0
 40
0.0
 40
0.0
 40
1.0
 40
1.0
 40
1.0
 40
2.0
 40
2.0
 40
2.0
 40
3.0
 40
3.0
 40
3.0
 40
4.0
 40
4.0
 40
4.0
 40
5.0
 40
5.0
 40
5.0
 40
6.0
 40
6.0
 40
6.0
 40
7.0
 40
7.0
 40
7.0
 40
8.0
 40
8.0
 40
8.0
 40
9.0
 40
9.0
 40
9.0
 40
10.0
 40
10.0
 40
10.0
 40
11.0
 40
11.0
 40
11.0
 40
12.0
 40
12.0
 40
12.0
 40
13.0
 40
13.0
 40
13.0
 40
14.0
 40
14.0
 40
14.0
 40
15.0
 40
15.0
 40
15.0
 40
16.0
 40
16.0
 40
16.0
 40
16.0
 10
1.067907553332689
 20
-2.567788376443281
 10
1.055505339844153
 20
-2.562869651546987
 10
1.044526043200625
 20
-2.552774554259813
 10
1.035268300270773
 20
-2.537784154575824
 10
1.030987838486023
 20
-2.530874517221491
 10
1.027410051686451
 20
-2.5235784086253
 10
1.02394352175952
 20
-2.516528236273946
 10
1.021378758063595
 20
-2.511305018884058
 10
1.018819849992546
 20
-2.506093512743922
 10
1.015974016302543
 20
-2.501034252850584
 10
1.012975936365743
 20
-2.495705634212905
 10
1.009667508310498
 20
-2.490540973071802
 10
1.006364935880115
 20
-2.485399734430175
 10
1.006364935880115
 20
-2.485399734430175
 10
0.9921943236788592
 20
-2.463300606146049
 10
0.9921943236788592
 20
-2.463300606146049
 10
0.9911578780757078
 20
-2.463335739895329
 10
0.9900862987233015
 20
-2.463277183646545
 10
0.9890557087450259
 20
-2.462855578655434
 10
0.9890557087450259
 20
-2.462855578655434
 10
0.9857531363146437
 20
-2.461497073684085
 10
0.9857531363146437
 20
-2.461497073684085
 10
0.9857531363146437
 20
-2.461497073684085
 10
0.9852378413255058
 20
-2.457772896262591
 10
0.9852378413255058
 20
-2.457772896262591
 10
0.9847928138348908
 20
-2.453591980100731
 10
0.9884350125081102
 20
-2.451085772653565
 10
0.9903966468417593
 20
-2.449738978931968
 10
0.9903966468417593
 20
-2.449738978931968
 10
0.9954968961092289
 20
-2.446225604006031
 10
0.9954968961092289
 20
-2.446225604006031
 10
0.9954968961092289
 20
-2.446225604006031
 10
1.000157973510972
 20
-2.453498290102718
 10
1.000157973510972
 20
-2.453498290102718
 10
1.018093752507853
 20
-2.46717702981434
 10
1.029055482276766
 20
-2.487109576894125
 10
1.039677585802817
 20
-2.506409716487243
 10
1.04408101571001
 20
-2.514408500068637
 10
1.048624980614224
 20
-2.522676642394319
 10
1.053555416760268
 20
-2.530230398485072
 10
1.059955614750328
 20
-2.540067848277683
 10
1.067491803966479
 20
-2.549413425580673
 10
1.074782056937768
 20
-2.558454510390068
 10
1.074782056937768
 20
-2.558454510390068
 10
1.089087348511182
 20
-2.576185342516257
 10
1.089087348511182
 20
-2.576185342516257
 10
1.089087348511182
 20
-2.576185342516257
 10
1.067907553332689
 20
-2.567788376443281
 10
1.067907553332689
 20
-2.567788376443281
 97
        0
 97
        1
330
81
 92
        1
 93
        1
 72
     4
 94
        3
 73
     0
 74
     0
 95
       92
 96
       88
 40
0.0
 40
0.0
 40
0.0
 40
0.0
 40
1.0
 40
1.0
 40
1.0
 40
2.0
 40
2.0
 40
2.0
 40
3.0
 40
3.0
 40
3.0
 40
4.0
 40
4.0
 40
4.0
 40
5.0
 40
5.0
 40
5.0
 40
6.0
 40
6.0
 40
6.0
 40
7.0
 40
7.0
 40
7.0
 40
8.0
 40
8.0
 40
8.0
 40
9.0
 40
9.0
 40
9.0
 40
10.0
 40
10.0
 40
10.0
 40
11.0
 40
11.0
 40
11.0
 40
12.0
 40
12.0
 40
12.0
 40
13.0
 40
13.0
 40
13.0
 40
14.0
 40
14.0
 40
14.0
 40
15.0
 40
15.0
 40
15.0
 40
16.0
 40
16.0
 40
16.0
 40
17.0
 40
17.0
 40
17.0
 40
18.0
 40
18.0
 40
18.0
 40
19.0
 40
19.0
 40
19.0
 40
20.0
 40
20.0
 40
20.0
 40
21.0
 40
21.0
 40
21.0
 40
22.0
 40
22.0
 40
22.0
 40
23.0
 40
23.0
 40
23.0
 40
24.0
 40
24.0
 40
24.0
 40
25.0
 40
25.0
 40
25.0
 40
26.0
 40
26.0
 40
26.0
 40
27.0
 40
27.0
 40
27.0
 40
28.0
 40
28.0
 40
28.0
 40
29.0
 40
29.0
 40
29.0
 40
29.0
 10
1.001926372223692
 20
-2.918364637802571
 10
0.9945307180046004
 20
-2.924313952677165
 10
0.9796574308181536
 20
-2.926984117620854
 10
0.9665935317185585
 20
-2.924665290169741
 10
0.9618504755685535
 20
-2.923833791437269
 10
0.9567853600503388
 20
-2.922170793972327
 10
0.952862091383041
 20
-2.919629452775906
 10
0.9508770345498886
 20
-2.921222182742338
 10
0.9483708271027227
 20
-2.922545553964432
 10
0.9454137365400658
 20
-2.9235292989437
 10
0.9414904678727806
 20
-2.92482924766629
 10
0.9368352460959133
 20
-2.925496788902212
 10
0.9320980455707841
 20
-2.925496788902212
 10
0.9292346450061534
 20
-2.925496788902212
 10
0.926341966317131
 20
-2.925262563907153
 10
0.9235605445007625
 20
-2.92475898016778
 10
0.9201467151977389
 20
-2.924149995180616
 10
0.9176756414998282
 20
-2.923283362698889
 10
0.915784274664702
 20
-2.922030258975306
 10
0.913717239083275
 20
-2.920671754003933
 10
0.9126280928562412
 20
-2.918997045289238
 10
0.9119137066212992
 20
-2.9177088078164
 10
0.9091966966785776
 20
-2.91277837167033
 10
0.9084178985700013
 20
-2.907508309281436
 10
0.9096651466687085
 20
-2.902449049388097
 10
0.9102741316558597
 20
-2.899954553190683
 10
0.9120893753676
 20
-2.897600591990314
 10
0.9146541390635244
 20
-2.896183530770182
 10
0.916428393401121
 20
-2.892318818351668
 10
0.9204746301908244
 20
-2.892201705854126
 10
0.9219970926587215
 20
-2.892166572104871
 10
0.9219970926587215
 20
-2.892166572104871
 10
0.9286315156438654
 20
-2.891967480859067
 10
0.9286315156438654
 20
-2.891967480859067
 10
0.9286315156438654
 20
-2.891967480859067
 10
0.9288774518886762
 20
-2.898560914470079
 10
0.9288774518886762
 20
-2.898560914470079
 10
0.9288247512647936
 20
-2.899310434454264
 10
0.9287954731404017
 20
-2.900059954438473
 10
0.9287896175155259
 20
-2.900809474422658
 10
0.9287896175155259
 20
-2.900809474422658
 10
0.9337024867869558
 20
-2.906864190545017
 10
0.9337024867869558
 20
-2.906864190545017
 10
0.9351488261314671
 20
-2.906700233048468
 10
0.9366361548501092
 20
-2.906372318055395
 10
0.9376608892035088
 20
-2.905845311816493
 10
0.9391892072962946
 20
-2.905072369332805
 10
0.9401261072765439
 20
-2.90404177935453
 10
0.9414260559991337
 20
-2.902601295634894
 10
0.9422516991067292
 20
-2.901687818154136
 10
0.9430831978392006
 20
-2.900786051923154
 10
0.9440376646940775
 20
-2.899919419441428
 10
0.9450506877977254
 20
-2.898994230710943
 10
0.9466551290138971
 20
-2.89774112698736
 10
0.9491144914620438
 20
-2.897132142000195
 10
0.9528269576337859
 20
-2.89617181952043
 10
0.9569024725478685
 20
-2.897167275749451
 10
0.9592681449979888
 20
-2.89829155572574
 10
0.9615459830749715
 20
-2.899380701952774
 10
0.9629981780443586
 20
-2.900750918173899
 10
0.9640580461470133
 20
-2.90174637440292
 10
0.9670444148340619
 20
-2.904545363093903
 10
0.9702532972664053
 20
-2.906220071808597
 10
0.9739950415625267
 20
-2.907098415540076
 10
0.9787849427115512
 20
-2.908210984266638
 10
0.9839847376019228
 20
-2.907590288029723
 10
0.9854544994459375
 20
-2.906665099299213
 10
0.9854544994459375
 20
-2.906665099299213
 10
0.9854486438210617
 20
-2.906665099299213
 10
0.9854486438210617
 20
-2.906665099299213
 10
0.9853256756986562
 20
-2.906665099299213
 10
0.9852554082001335
 20
-2.905810178067238
 10
0.9852085632011267
 20
-2.905224615579577
 10
0.9849743382060674
 20
-2.902285091891548
 10
0.984423909467662
 20
-2.895387165786966
 10
0.9923172918012646
 20
-2.89199090335857
 10
0.9923172918012646
 20
-2.89199090335857
 10
0.9950928579927449
 20
-2.890808067133523
 10
0.9950928579927449
 20
-2.890808067133523
 10
0.9950928579927449
 20
-2.890808067133523
 10
0.9976986110628129
 20
-2.89233052960142
 10
0.9976986110628129
 20
-2.89233052960142
 10
1.003759182810047
 20
-2.895855615777109
 10
1.007319402734992
 20
-2.900750918173899
 10
1.007723440851476
 20
-2.906102959311081
 10
1.008074778344065
 20
-2.910717191713804
 10
1.006013598387527
 20
-2.915073776621941
 10
1.001926372223692
 20
-2.918364637802571
 97
        0
 97
        1
330
82
 92
        1
 93
        1
 72
     4
 94
        3
 73
     0
 74
     0
 95
       41
 96
       37
 40
0.0
 40
0.0
 40
0.0
 40
0.0
 40
1.0
 40
1.0
 40
1.0
 40
2.0
 40
2.0
 40
2.0
 40
3.0
 40
3.0
 40
3.0
 40
4.0
 40
4.0
 40
4.0
 40
5.0
 40
5.0
 40
5.0
 40
6.0
 40
6.0
 40
6.0
 40
7.0
 40
7.0
 40
7.0
 40
8.0
 40
8.0
 40
8.0
 40
9.0
 40
9.0
 40
9.0
 40
10.0
 40
10.0
 40
10.0
 40
11.0
 40
11.0
 40
11.0
 40
12.0
 40
12.0
 40
12.0
 40
12.0
 10
0.9003312806154831
 20
-2.581221179910092
 10
0.9170549452629124
 20
-2.564579494010937
 10
0.9308273749725735
 20
-2.544342454437557
 10
0.9401670966506747
 20
-2.522676642394319
 10
0.9429309515924034
 20
-2.516258877529606
 10
0.9462042458984063
 20
-2.507756510208865
 10
0.9469947552567342
 20
-2.498949650394529
 10
0.9474222158727217
 20
-2.494206594244511
 10
0.9471528571284073
 20
-2.489381559346232
 10
0.9468717871343288
 20
-2.484263743204135
 10
0.946625850889518
 20
-2.479790045798431
 10
0.9463857702695703
 20
-2.475328059642505
 10
0.9465790058904985
 20
-2.470866073486579
 10
0.947141145878643
 20
-2.457550382517284
 10
0.9519837476515627
 20
-2.446998546489743
 10
0.9602226118528657
 20
-2.441189766612195
 10
0.9602226118528657
 20
-2.441189766612195
 10
0.9602284674777415
 20
-2.441189766612195
 10
0.9602284674777415
 20
-2.441189766612195
 10
0.9629571886702276
 20
-2.439245699153187
 10
0.9662948948498524
 20
-2.439081741656637
 10
0.9689650597935672
 20
-2.440791584120587
 10
0.9767647521291312
 20
-2.445722020266657
 10
0.9736729821943173
 20
-2.464026703630755
 10
0.9735383028221601
 20
-2.464799646114468
 10
0.9735383028221601
 20
-2.464799646114468
 10
0.9670971154579445
 20
-2.501760350335264
 10
0.9670971154579445
 20
-2.501760350335264
 10
0.9646845980088048
 20
-2.515556202544429
 10
0.9621959574362664
 20
-2.529832215993463
 10
0.9554795557028606
 20
-2.542937104467202
 10
0.9447696178036469
 20
-2.563888530275511
 10
0.9252703869647247
 20
-2.577942029979238
 10
0.9080665610774
 20
-2.590332532218023
 10
0.9080665610774
 20
-2.590332532218023
 10
0.9003312806154831
 20
-2.581221179910092
 10
0.9003312806154831
 20
-2.581221179910092
 97
        0
 97
        1
330
83
 92
        1
 93
        1
 72
     4
 94
        3
 73
     0
 74
     0
 95
       20
 96
       16
 40
0.0
 40
0.0
 40
0.0
 40
0.0
 40
1.0
 40
1.0
 40
1.0
 40
2.0
 40
2.0
 40
2.0
 40
3.0
 40
3.0
 40
3.0
 40
4.0
 40
4.0
 40
4.0
 40
5.0
 40
5.0
 40
5.0
 40
5.0
 10
0.8337469701441856
 20
-2.562576870303145
 10
0.8337469701441856
 20
-2.562576870303145
 10
0.7834003074555716
 20
-2.588716379752086
 10
0.7834003074555716
 20
-2.588716379752086
 10
0.7834003074555716
 20
-2.588716379752086
 10
0.9146190053142692
 20
-2.480527854532889
 10
0.9146190053142692
 20
-2.480527854532889
 10
0.9146190053142692
 20
-2.480527854532889
 10
0.9143320796953149
 20
-2.493609320507099
 10
0.9143320796953149
 20
-2.493609320507099
 10
0.9142091115729094
 20
-2.49919558663934
 10
0.9099403610378987
 20
-2.505461105257255
 10
0.8995993275059138
 20
-2.515263421300611
 10
0.8793212985584027
 20
-2.534505004644945
 10
0.8571636140255172
 20
-2.55042059305942
 10
0.8337469701441856
 20
-2.562576870303145
 97
        0
 97
        1
330
84
 92
        1
 93
        1
 72
     4
 94
        3
 73
     0
 74
     0
 95
       53
 96
       49
 40
0.0
 40
0.0
 40
0.0
 40
0.0
 40
1.0
 40
1.0
 40
1.0
 40
2.0
 40
2.0
 40
2.0
 40
3.0
 40
3.0
 40
3.0
 40
4.0
 40
4.0
 40
4.0
 40
5.0
 40
5.0
 40
5.0
 40
6.0
 40
6.0
 40
6.0
 40
7.0
 40
7.0
 40
7.0
 40
8.0
 40
8.0
 40
8.0
 40
9.0
 40
9.0
 40
9.0
 40
10.0
 40
10.0
 40
10.0
 40
11.0
 40
11.0
 40
11.0
 40
12.0
 40
12.0
 40
12.0
 40
13.0
 40
13.0
 40
13.0
 40
14.0
 40
14.0
 40
14.0
 40
15.0
 40
15.0
 40
15.0
 40
16.0
 40
16.0
 40
16.0
 40
16.0
 10
0.7520375806167547
 20
-2.556381619183765
 10
0.7520375806167547
 20
-2.556381619183765
 10
0.7052921272272165
 20
-2.564755162757238
 10
0.7052921272272165
 20
-2.564755162757238
 10
0.7052921272272165
 20
-2.564755162757238
 10
0.7484890719415615
 20
-2.545021706923257
 10
0.7484890719415615
 20
-2.545021706923257
 10
0.7679531690312161
 20
-2.536132868360633
 10
0.7867555805098366
 20
-2.525510764834557
 10
0.8043575888887566
 20
-2.513459888838623
 10
0.8117649543576009
 20
-2.508388917695532
 10
0.819049351704027
 20
-2.503025165308599
 10
0.8263337490504657
 20
-2.497649701671914
 10
0.8482513529634035
 20
-2.481511599512133
 10
0.8708716318615314
 20
-2.464846491113474
 10
0.8972160881811532
 20
-2.456063053798642
 10
0.8991425887655344
 20
-2.454845083824314
 10
0.9015668174644259
 20
-2.454528880080993
 10
0.9030717130577082
 20
-2.454329788835189
 10
0.9030717130577082
 20
-2.454329788835189
 10
0.9045766086509779
 20
-2.46153220743334
 10
0.9045766086509779
 20
-2.46153220743334
 10
0.9045766086509779
 20
-2.46153220743334
 10
0.9062688842403
 20
-2.461906967425445
 10
0.9062688842403
 20
-2.461906967425445
 10
0.9065206761099993
 20
-2.459096267484685
 10
0.9047112880231351
 20
-2.457222467524186
 10
0.903791954917526
 20
-2.456754017534068
 10
0.9041023030359838
 20
-2.456906263780865
 10
0.9045239080270953
 20
-2.457058510027662
 10
0.9049396573933311
 20
-2.457222467524186
 10
0.9049396573933311
 20
-2.457222467524186
 10
0.9167680196439579
 20
-2.461813277427407
 10
0.9167680196439579
 20
-2.461813277427407
 10
0.9167680196439579
 20
-2.461813277427407
 10
0.9057360223765346
 20
-2.468043662296066
 10
0.9057360223765346
 20
-2.468043662296066
 10
0.880703226029267
 20
-2.4821440069988
 10
0.8548155084500244
 20
-2.496724512941429
 10
0.8333604989023291
 20
-2.516258877529606
 10
0.8313168858204182
 20
-2.518120966240353
 10
0.829302550862874
 20
-2.520029899950107
 10
0.8272940715302183
 20
-2.521938833659861
 10
0.8214677247780425
 20
-2.527466543543343
 10
0.815448142404951
 20
-2.533193344672604
 10
0.8084565263023426
 20
-2.537866133324087
 10
0.7912936897891616
 20
-2.549343158082137
 10
0.7704359539788786
 20
-2.553079046753383
 10
0.7520375806167547
 20
-2.556381619183765
 97
        0
 97
        1
330
85
 92
        1
 93
        1
 72
     4
 94
        3
 73
     0
 74
     0
 95
       17
 96
       13
 40
0.0
 40
0.0
 40
0.0
 40
0.0
 40
1.0
 40
1.0
 40
1.0
 40
2.0
 40
2.0
 40
2.0
 40
3.0
 40
3.0
 40
3.0
 40
4.0
 40
4.0
 40
4.0
 40
4.0
 10
0.7314316366761583
 20
-2.821360356097582
 10
0.7173488588480394
 20
-2.821360356097582
 10
0.7058894009646287
 20
-2.809906753839034
 10
0.7058894009646287
 20
-2.795818120386052
 10
0.7058894009646287
 20
-2.78172948693307
 10
0.7173488588480394
 20
-2.770275884674522
 10
0.7314316366761583
 20
-2.770275884674522
 10
0.7455144145042646
 20
-2.770275884674522
 10
0.7569738723876879
 20
-2.78172948693307
 10
0.7569738723876879
 20
-2.795818120386052
 10
0.7569738723876879
 20
-2.809906753839034
 10
0.7455144145042646
 20
-2.821360356097582
 10
0.7314316366761583
 20
-2.821360356097582
 97
        0
 97
        1
330
86
 92
        1
 93
        1
 72
     4
 94
        3
 73
     0
 74
     0
 95
       56
 96
       52
 40
0.0
 40
0.0
 40
0.0
 40
0.0
 40
1.0
 40
1.0
 40
1.0
 40
2.0
 40
2.0
 40
2.0
 40
3.0
 40
3.0
 40
3.0
 40
4.0
 40
4.0
 40
4.0
 40
5.0
 40
5.0
 40
5.0
 40
6.0
 40
6.0
 40
6.0
 40
7.0
 40
7.0
 40
7.0
 40
8.0
 40
8.0
 40
8.0
 40
9.0
 40
9.0
 40
9.0
 40
10.0
 40
10.0
 40
10.0
 40
11.0
 40
11.0
 40
11.0
 40
12.0
 40
12.0
 40
12.0
 40
13.0
 40
13.0
 40
13.0
 40
14.0
 40
14.0
 40
14.0
 40
15.0
 40
15.0
 40
15.0
 40
16.0
 40
16.0
 40
16.0
 40
17.0
 40
17.0
 40
17.0
 40
17.0
 10
1.320049296610906
 20
-2.541047933491401
 10
1.320049296610906
 20
-2.541047933491401
 10
1.223710360282489
 20
-2.48940644575196
 10
1.223710360282489
 20
-2.48940644575196
 10
1.218483483127076
 20
-2.486604529248527
 10
1.177120080952186
 20
-2.467808705347907
 10
1.171568948569225
 20
-2.465723370938727
 10
1.171568948569225
 20
-2.465723370938727
 10
1.117612293144197
 20
-2.448286052009456
 10
1.117612293144197
 20
-2.448286052009456
 10
1.117612293144197
 20
-2.448286052009456
 10
0.9517012137512715
 20
-2.390045275034152
 10
0.9517012137512715
 20
-2.390045275034152
 10
0.9517012137512715
 20
-2.390045275034152
 10
0.8254180757103943
 20
-2.442210841200044
 10
0.8254180757103943
 20
-2.442210841200044
 10
0.8254180757103943
 20
-2.442210841200044
 10
0.7158527466920834
 20
-2.495512398591977
 10
0.7158527466920834
 20
-2.495512398591977
 10
0.7158527466920834
 20
-2.495512398591977
 10
0.6287620379030916
 20
-2.554892826558898
 10
0.6287620379030916
 20
-2.554892826558898
 10
0.6249675929830876
 20
-2.557384394943861
 10
0.6212353640773927
 20
-2.559960137936438
 10
0.6175836500137595
 20
-2.562642746083029
 10
0.6175836500137595
 20
-2.562642746083029
 10
0.6166452861272849
 20
-2.563293452397424
 10
0.6166452861272849
 20
-2.563293452397424
 10
0.6166452861272849
 20
-2.563293452397424
 10
0.6166687086267883
 20
-2.563293452397424
 10
0.6166687086267883
 20
-2.563293452397424
 10
0.5532113018395723
 20
-2.610344130233645
 10
0.5120674855975773
 20
-2.68578360942451
 10
0.5120674855975773
 20
-2.770849003959306
 10
0.5120674855975773
 20
-2.913470067358881
 10
0.6276846029258093
 20
-3.029087184687114
 10
0.7703056663253721
 20
-3.029087184687114
 10
0.7727957708041357
 20
-3.029087184687114
 10
0.7752573291116076
 20
-3.028969340236471
 10
0.7777313306219563
 20
-3.028899072737961
 10
0.7777313306219563
 20
-3.028899072737961
 10
1.194862624328127
 20
-3.028899072737961
 10
1.194862624328127
 20
-3.028899072737961
 10
1.197336625838488
 20
-3.028969340236471
 10
1.199798184145998
 20
-3.029087184687114
 10
1.202288288624711
 20
-3.029087184687114
 10
1.344909352024286
 20
-3.029087184687114
 10
1.460527201305618
 20
-2.913470067358881
 10
1.460527201305618
 20
-2.770849003959306
 10
1.460527201305618
 20
-2.670662922087027
 10
1.403436322665432
 20
-2.583867922354304
 10
1.320049296610906
 20
-2.541047933491401
 97
        0
 97
        1
330
87
 75
     2
 76
     1
 98
        1
 10
0.0
 20
0.0
450
        0
451
        0
460
0.0
461
0.0
452
        0
462
0.0
453
        0
470

  0
SPLINE
  5
89
330
70
100
AcDbEntity
  8
Text
100
AcDbSpline
210
0.0
220
0.0
230
1.0
 70
     9
 71
     3
 72
    29
 73
    25
 74
     0
 42
0.0000000001
 43
0.0000000001
 40
0.0
 40
0.0
 40
0.0
 40
0.0
 40
1.0
 40
1.0
 40
1.0
 40
2.0
 40
2.0
 40
2.0
 40
3.0
 40
3.0
 40
3.0
 40
4.0
 40
4.0
 40
4.0
 40
5.0
 40
5.0
 40
5.0
 40
6.0
 40
6.0
 40
6.0
 40
7.0
 40
7.0
 40
7.0
 40
8.0
 40
8.0
 40
8.0
 40
8.0
 10
0.9515366430259872
 20
-0.0669941337539007
 30
0.0
 10
0.9515366430259872
 20
-0.0669941337539007
 30
0.0
 10
-0.0972348666227213
 20
-0.0669941337539007
 30
0.0
 10
-0.0972348666227213
 20
-0.0669941337539007
 30
0.0
 10
-0.1233476207518404
 20
-0.0669941337539007
 30
0.0
 10
-0.1445161904997955
 20
-0.0458255640059456
 30
0.0
 10
-0.1445161904997955
 20
-0.0197128098768265
 30
0.0
 10
-0.1445161904997955
 20
-0.0197128098768265
 30
0.0
 10
-0.1445161904997955
 20
0.09849049981584
 30
0.0
 10
-0.1445161904997955
 20
0.09849049981584
 30
0.0
 10
-0.1445161904997955
 20
0.1246032539449591
 30
0.0
 10
-0.1233476207518404
 20
0.1457718236929142
 30
0.0
 10
-0.0972348666227213
 20
0.1457718236929142
 30
0.0
 10
-0.0972348666227213
 20
0.1457718236929142
 30
0.0
 10
0.9515366430259872
 20
0.1457718236929142
 30
0.0
 10
0.9515366430259872
 20
0.1457718236929142
 30
0.0
 10
0.9776493971551063
 20
0.1457718236929142
 30
0.0
 10
0.998817966903074
 20
0.1246032539449591
 30
0.0
 10
0.998817966903074
 20
0.0984904998158274
 30
0.0
 10
0.998817966903074
 20
0.0984904998158274
 30
0.0
 10
0.998817966903074
 20
-0.0197128098768139
 30
0.0
 10
0.998817966903074
 20
-0.0197128098768139
 30
0.0
 10
0.998817966903074
 20
-0.0458255640059456
 30
0.0
 10
0.9776493971551063
 20
-0.0669941337539007
 30
0.0
 10
0.9515366430259872
 20
-0.0669941337539007
 30
0.0
  0
HATCH
  5
8A
330
70
100
AcDbEntity
  8
Text
 62
     4
420
    63999
440
 33554687
100
AcDbHatch
 10
0.0
 20
0.0
 30
0.0
210
0.0
220
0.0
230
1.0
  2
SOLID
 70
     1
 71
     1
 91
        1
 92
        1
 93
        1
 72
     4
 94
        3
 73
     0
 74
     0
 95
       29
 96
       25
 40
0.0
 40
0.0
 40
0.0
 40
0.0
 40
1.0
 40
1.0
 40
1.0
 40
2.0
 40
2.0
 40
2.0
 40
3.0
 40
3.0
 40
3.0
 40
4.0
 40
4.0
 40
4.0
 40
5.0
 40
5.0
 40
5.0
 40
6.0
 40
6.0
 40
6.0
 40
7.0
 40
7.0
 40
7.0
 40
8.0
 40
8.0
 40
8.0
 40
8.0
 10
0.9515366430259872
 20
-0.0669941337539007
 10
0.9515366430259872
 20
-0.0669941337539007
 10
-0.0972348666227213
 20
-0.0669941337539007
 10
-0.0972348666227213
 20
-0.0669941337539007
 10
-0.1233476207518404
 20
-0.0669941337539007
 10
-0.1445161904997955
 20
-0.0458255640059456
 10
-0.1445161904997955
 20
-0.0197128098768265
 10
-0.1445161904997955
 20
-0.0197128098768265
 10
-0.1445161904997955
 20
0.09849049981584
 10
-0.1445161904997955
 20
0.09849049981584
 10
-0.1445161904997955
 20
0.1246032539449591
 10
-0.1233476207518404
 20
0.1457718236929142
 10
-0.0972348666227213
 20
0.1457718236929142
 10
-0.0972348666227213
 20
0.1457718236929142
 10
0.9515366430259872
 20
0.1457718236929142
 10
0.9515366430259872
 20
0.1457718236929142
 10
0.9776493971551063
 20
0.1457718236929142
 10
0.998817966903074
 20
0.1246032539449591
 10
0.998817966903074
 20
0.0984904998158274
 10
0.998817966903074
 20
0.0984904998158274
 10
0.998817966903074
 20
-0.0197128098768139
 10
0.998817966903074
 20
-0.0197128098768139
 10
0.998817966903074
 20
-0.0458255640059456
 10
0.9776493971551063
 20
-0.0669941337539007
 10
0.9515366430259872
 20
-0.0669941337539007
 97
        0
 97
        1
330
89
 75
     2
 76
     1
 98
        1
 10
0.0
 20
0.0
450
        0
451
        0
460
0.0
461
0.0
452
        0
462
0.0
453
        0
470

  0
INSERT
  5
8C
330
70
100
AcDbEntity
  8
Text
100
AcDbBlockReference
  2
Block_0
 10
0.0
 20
0.0
 30
0.0
  0
SPLINE
  5
A0
330
70
100
AcDbEntity
  8
Text
100
AcDbSpline
210
0.0
220
0.0
230
1.0
 70
     9
 71
     3
 72
    29
 73
    25
 74
     0
 42
0.0000000001
 43
0.0000000001
 40
0.0
 40
0.0
 40
0.0
 40
0.0
 40
1.0
 40
1.0
 40
1.0
 40
2.0
 40
2.0
 40
2.0
 40
3.0
 40
3.0
 40
3.0
 40
4.0
 40
4.0
 40
4.0
 40
5.0
 40
5.0
 40
5.0
 40
6.0
 40
6.0
 40
6.0
 40
7.0
 40
7.0
 40
7.0
 40
8.0
 40
8.0
 40
8.0
 40
8.0
 10
2.010047281323851
 20
-0.0669941337539007
 30
0.0
 10
2.010047281323851
 20
-0.0669941337539007
 30
0.0
 10
1.391843971631235
 20
-0.0669941337539007
 30
0.0
 10
1.391843971631235
 20
-0.0669941337539007
 30
0.0
 10
1.365731217502116
 20
-0.0669941337539007
 30
0.0
 10
1.344562647754148
 20
-0.0458255640059456
 30
0.0
 10
1.344562647754148
 20
-0.0197128098768265
 30
0.0
 10
1.344562647754148
 20
-0.0197128098768265
 30
0.0
 10
1.344562647754148
 20
0.09849049981584
 30
0.0
 10
1.344562647754148
 20
0.09849049981584
 30
0.0
 10
1.344562647754148
 20
0.1246032539449591
 30
0.0
 10
1.365731217502116
 20
0.1457718236929142
 30
0.0
 10
1.391843971631235
 20
0.1457718236929142
 30
0.0
 10
1.391843971631235
 20
0.1457718236929142
 30
0.0
 10
2.010047281323851
 20
0.1457718236929142
 30
0.0
 10
2.010047281323851
 20
0.1457718236929142
 30
0.0
 10
2.03616003545297
 20
0.1457718236929142
 30
0.0
 10
2.057328605200937
 20
0.1246032539449591
 30
0.0
 10
2.057328605200937
 20
0.0984904998158274
 30
0.0
 10
2.057328605200937
 20
0.0984904998158274
 30
0.0
 10
2.057328605200937
 20
-0.0197128098768139
 30
0.0
 10
2.057328605200937
 20
-0.0197128098768139
 30
0.0
 10
2.057328605200937
 20
-0.0458255640059456
 30
0.0
 10
2.03616003545297
 20
-0.0669941337539007
 30
0.0
 10
2.010047281323851
 20
-0.0669941337539007
 30
0.0
  0
HATCH
  5
A1
330
70
100
AcDbEntity
  8
Text
 62
     4
420
    63999
440
 33554687
100
AcDbHatch
 10
0.0
 20
0.0
 30
0.0
210
0.0
220
0.0
230
1.0
  2
SOLID
 70
     1
 71
     1
 91
        1
 92
        1
 93
        1
 72
     4
 94
        3
 73
     0
 74
     0
 95
       29
 96
       25
 40
0.0
 40
0.0
 40
0.0
 40
0.0
 40
1.0
 40
1.0
 40
1.0
 40
2.0
 40
2.0
 40
2.0
 40
3.0
 40
3.0
 40
3.0
 40
4.0
 40
4.0
 40
4.0
 40
5.0
 40
5.0
 40
5.0
 40
6.0
 40
6.0
 40
6.0
 40
7.0
 40
7.0
 40
7.0
 40
8.0
 40
8.0
 40
8.0
 40
8.0
 10
2.010047281323851
 20
-0.0669941337539007
 10
2.010047281323851
 20
-0.0669941337539007
 10
1.391843971631235
 20
-0.0669941337539007
 10
1.391843971631235
 20
-0.0669941337539007
 10
1.365731217502116
 20
-0.0669941337539007
 10
1.344562647754148
 20
-0.0458255640059456
 10
1.344562647754148
 20
-0.0197128098768265
 10
1.344562647754148
 20
-0.0197128098768265
 10
1.344562647754148
 20
0.09849049981584
 10
1.344562647754148
 20
0.09849049981584
 10
1.344562647754148
 20
0.1246032539449591
 10
1.365731217502116
 20
0.1457718236929142
 10
1.391843971631235
 20
0.1457718236929142
 10
1.391843971631235
 20
0.1457718236929142
 10
2.010047281323851
 20
0.1457718236929142
 10
2.010047281323851
 20
0.1457718236929142
 10
2.03616003545297
 20
0.1457718236929142
 10
2.057328605200937
 20
0.1246032539449591
 10
2.057328605200937
 20
0.0984904998158274
 10
2.057328605200937
 20
0.0984904998158274
 10
2.057328605200937
 20
-0.0197128098768139
 10
2.057328605200937
 20
-0.0197128098768139
 10
2.057328605200937
 20
-0.0458255640059456
 10
2.03616003545297
 20
-0.0669941337539007
 10
2.010047281323851
 20
-0.0669941337539007
 97
        0
 97
        1
330
A0
 75
     2
 76
     1
 98
        1
 10
0.0
 20
0.0
450
        0
451
        0
460
0.0
461
0.0
452
        0
462
0.0
453
        0
470

  0
SPLINE
  5
A2
330
70
100
AcDbEntity
  8
Text
100
AcDbSpline
210
0.0
220
0.0
230
1.0
 70
     9
 71
     3
 72
    17
 73
    13
 74
     0
 42
0.0000000001
 43
0.0000000001
 40
0.0
 40
0.0
 40
0.0
 40
0.0
 40
1.0
 40
1.0
 40
1.0
 40
2.0
 40
2.0
 40
2.0
 40
3.0
 40
3.0
 40
3.0
 40
4.0
 40
4.0
 40
4.0
 40
4.0
 10
0.3192951422768778
 20
-3.067712416305817
 30
0.0
 10
0.317088321646338
 20
-3.071195828242808
 30
0.0
 10
0.313268443783588
 20
-3.075777702466767
 30
0.0
 10
0.3071675248655134
 20
-3.081438246864409
 30
0.0
 10
0.3077612882638681
 20
-3.080161655557933
 30
0.0
 10
0.3083797918038221
 20
-3.078984024817878
 30
0.0
 10
0.30902798351369
 20
-3.077895458587565
 30
0.0
 10
0.30902798351369
 20
-3.077895458587565
 30
0.0
 10
0.3097256555067563
 20
-3.076480322488148
 30
0.0
 10
0.3097256555067563
 20
-3.076480322488148
 30
0.0
 10
0.3115267378150924
 20
-3.071947928547388
 30
0.0
 10
0.3155000045557395
 20
-3.069127552405234
 30
0.0
 10
0.3192951422768778
 20
-3.067712416305817
 30
0.0
  0
SPLINE
  5
A3
330
70
100
AcDbEntity
  8
Text
100
AcDbSpline
210
0.0
220
0.0
230
1.0
 70
     9
 71
     3
 72
    23
 73
    19
 74
     0
 42
0.0000000001
 43
0.0000000001
 40
0.0
 40
0.0
 40
0.0
 40
0.0
 40
1.0
 40
1.0
 40
1.0
 40
2.0
 40
2.0
 40
2.0
 40
3.0
 40
3.0
 40
3.0
 40
4.0
 40
4.0
 40
4.0
 40
5.0
 40
5.0
 40
5.0
 40
6.0
 40
6.0
 40
6.0
 40
6.0
 10
0.4613975675877606
 20
-3.07290784604139
 30
0.0
 10
0.4623080047985645
 20
-3.075639157673827
 30
0.0
 10
0.4630897932730579
 20
-3.079033505101076
 30
0.0
 10
0.4630897932730579
 20
-3.08113146910859
 30
0.0
 10
0.4626692108658972
 20
-3.0839122610242
 30
0.0
 10
0.455776607416687
 20
-3.09097804546463
 30
0.0
 10
0.4472709467352792
 20
-3.096351604219711
 30
0.0
 10
0.4472709467352792
 20
-3.096351604219711
 30
0.0
 10
0.4447227121506785
 20
-3.09711360058092
 30
0.0
 10
0.4447227121506785
 20
-3.09711360058092
 30
0.0
 10
0.4427088646245921
 20
-3.097954765395267
 30
0.0
 10
0.4407543934383461
 20
-3.098795930209613
 30
0.0
 10
0.4389087788751264
 20
-3.099656887137193
 30
0.0
 10
0.4392798809990887
 20
-3.099142292191976
 30
0.0
 10
0.439655931151391
 20
-3.098627697246734
 30
0.0
 10
0.4400319813036807
 20
-3.098113102301491
 30
0.0
 10
0.4510215522015339
 20
-3.082556501264636
 30
0.0
 10
0.457844883254274
 20
-3.075807390636681
 30
0.0
 10
0.4613975675877606
 20
-3.07290784604139
 30
0.0
  0
SPLINE
  5
A4
330
70
100
AcDbEntity
  8
Text
100
AcDbSpline
210
0.0
220
0.0
230
1.0
 70
     9
 71
     3
 72
    32
 73
    28
 74
     0
 42
0.0000000001
 43
0.0000000001
 40
0.0
 40
0.0
 40
0.0
 40
0.0
 40
1.0
 40
1.0
 40
1.0
 40
2.0
 40
2.0
 40
2.0
 40
3.0
 40
3.0
 40
3.0
 40
4.0
 40
4.0
 40
4.0
 40
5.0
 40
5.0
 40
5.0
 40
6.0
 40
6.0
 40
6.0
 40
7.0
 40
7.0
 40
7.0
 40
8.0
 40
8.0
 40
8.0
 40
9.0
 40
9.0
 40
9.0
 40
9.0
 10
0.5990814036092236
 20
-3.077024605603305
 30
0.0
 10
0.5990814036092236
 20
-3.077024605603305
 30
0.0
 10
0.5837524118750758
 20
-3.096846407051669
 30
0.0
 10
0.5837524118750758
 20
-3.096846407051669
 30
0.0
 10
0.579081473141375
 20
-3.103071026677753
 30
0.0
 10
0.5704521117519587
 20
-3.112155606672533
 30
0.0
 10
0.564425413258669
 20
-3.117845839240089
 30
0.0
 10
0.5600414601675034
 20
-3.121893326405521
 30
0.0
 10
0.5567955535898489
 20
-3.124525677471587
 30
0.0
 10
0.5544897723929126
 20
-3.126247591326798
 30
0.0
 10
0.5549746791682157
 20
-3.114975982814712
 30
0.0
 10
0.562248280798043
 20
-3.101002750840128
 30
0.0
 10
0.5761621364327994
 20
-3.085030515424452
 30
0.0
 10
0.576864756454155
 20
-3.08404090976051
 30
0.0
 10
0.5774585198525099
 20
-3.083061200153224
 30
0.0
 10
0.577992906911062
 20
-3.082081490545963
 30
0.0
 10
0.5781908280438302
 20
-3.081952841809652
 30
0.0
 10
0.5783887491765983
 20
-3.081824193073341
 30
0.0
 10
0.5785569821394776
 20
-3.081745024620229
 30
0.0
 10
0.5785569821394776
 20
-3.081745024620229
 30
0.0
 10
0.5808132830532157
 20
-3.080448641200493
 30
0.0
 10
0.5808132830532157
 20
-3.080448641200493
 30
0.0
 10
0.5891061785168733
 20
-3.074125061008013
 30
0.0
 10
0.5923916693211215
 20
-3.073630258176055
 30
0.0
 10
0.5932031459655036
 20
-3.073630258176055
 30
0.0
 10
0.5946677623481188
 20
-3.073630258176055
 30
0.0
 10
0.5964094683166397
 20
-3.073630258176055
 30
0.0
 10
0.5990814036092236
 20
-3.077024605603305
 30
0.0
  0
SPLINE
  5
A5
330
70
100
AcDbEntity
  8
Text
100
AcDbSpline
210
0.0
220
0.0
230
1.0
 70
     9
 71
     3
 72
   578
 73
   574
 74
     0
 42
0.0000000001
 43
0.0000000001
 40
0.0
 40
0.0
 40
0.0
 40
0.0
 40
1.0
 40
1.0
 40
1.0
 40
2.0
 40
2.0
 40
2.0
 40
3.0
 40
3.0
 40
3.0
 40
4.0
 40
4.0
 40
4.0
 40
5.0
 40
5.0
 40
5.0
 40
6.0
 40
6.0
 40
6.0
 40
7.0
 40
7.0
 40
7.0
 40
8.0
 40
8.0
 40
8.0
 40
9.0
 40
9.0
 40
9.0
 40
10.0
 40
10.0
 40
10.0
 40
11.0
 40
11.0
 40
11.0
 40
12.0
 40
12.0
 40
12.0
 40
13.0
 40
13.0
 40
13.0
 40
14.0
 40
14.0
 40
14.0
 40
15.0
 40
15.0
 40
15.0
 40
16.0
 40
16.0
 40
16.0
 40
17.0
 40
17.0
 40
17.0
 40
18.0
 40
18.0
 40
18.0
 40
19.0
 40
19.0
 40
19.0
 40
20.0
 40
20.0
 40
20.0
 40
21.0
 40
21.0
 40
21.0
 40
22.0
 40
22.0
 40
22.0
 40
23.0
 40
23.0
 40
23.0
 40
24.0
 40
24.0
 40
24.0
 40
25.0
 40
25.0
 40
25.0
 40
26.0
 40
26.0
 40
26.0
 40
27.0
 40
27.0
 40
27.0
 40
28.0
 40
28.0
 40
28.0
 40
29.0
 40
29.0
 40
29.0
 40
30.0
 40
30.0
 40
30.0
 40
31.0
 40
31.0
 40
31.0
 40
32.0
 40
32.0
 40
32.0
 40
33.0
 40
33.0
 40
33.0
 40
34.0
 40
34.0
 40
34.0
 40
35.0
 40
35.0
 40
35.0
 40
36.0
 40
36.0
 40
36.0
 40
37.0
 40
37.0
 40
37.0
 40
38.0
 40
38.0
 40
38.0
 40
39.0
 40
39.0
 40
39.0
 40
40.0
 40
40.0
 40
40.0
 40
41.0
 40
41.0
 40
41.0
 40
42.0
 40
42.0
 40
42.0
 40
43.0
 40
43.0
 40
43.0
 40
44.0
 40
44.0
 40
44.0
 40
45.0
 40
45.0
 40
45.0
 40
46.0
 40
46.0
 40
46.0
 40
47.0
 40
47.0
 40
47.0
 40
48.0
 40
48.0
 40
48.0
 40
49.0
 40
49.0
 40
49.0
 40
50.0
 40
50.0
 40
50.0
 40
51.0
 40
51.0
 40
51.0
 40
52.0
 40
52.0
 40
52.0
 40
53.0
 40
53.0
 40
53.0
 40
54.0
 40
54.0
 40
54.0
 40
55.0
 40
55.0
 40
55.0
 40
56.0
 40
56.0
 40
56.0
 40
57.0
 40
57.0
 40
57.0
 40
58.0
 40
58.0
 40
58.0
 40
59.0
 40
59.0
 40
59.0
 40
60.0
 40
60.0
 40
60.0
 40
61.0
 40
61.0
 40
61.0
 40
62.0
 40
62.0
 40
62.0
 40
63.0
 40
63.0
 40
63.0
 40
64.0
 40
64.0
 40
64.0
 40
65.0
 40
65.0
 40
65.0
 40
66.0
 40
66.0
 40
66.0
 40
67.0
 40
67.0
 40
67.0
 40
68.0
 40
68.0
 40
68.0
 40
69.0
 40
69.0
 40
69.0
 40
70.0
 40
70.0
 40
70.0
 40
71.0
 40
71.0
 40
71.0
 40
72.0
 40
72.0
 40
72.0
 40
73.0
 40
73.0
 40
73.0
 40
74.0
 40
74.0
 40
74.0
 40
75.0
 40
75.0
 40
75.0
 40
76.0
 40
76.0
 40
76.0
 40
77.0
 40
77.0
 40
77.0
 40
78.0
 40
78.0
 40
78.0
 40
79.0
 40
79.0
 40
79.0
 40
80.0
 40
80.0
 40
80.0
 40
81.0
 40
81.0
 40
81.0
 40
82.0
 40
82.0
 40
82.0
 40
83.0
 40
83.0
 40
83.0
 40
84.0
 40
84.0
 40
84.0
 40
85.0
 40
85.0
 40
85.0
 40
86.0
 40
86.0
 40
86.0
 40
87.0
 40
87.0
 40
87.0
 40
88.0
 40
88.0
 40
88.0
 40
89.0
 40
89.0
 40
89.0
 40
90.0
 40
90.0
 40
90.0
 40
91.0
 40
91.0
 40
91.0
 40
92.0
 40
92.0
 40
92.0
 40
93.0
 40
93.0
 40
93.0
 40
94.0
 40
94.0
 40
94.0
 40
95.0
 40
95.0
 40
95.0
 40
96.0
 40
96.0
 40
96.0
 40
97.0
 40
97.0
 40
97.0
 40
98.0
 40
98.0
 40
98.0
 40
99.0
 40
99.0
 40
99.0
 40
100.0
 40
100.0
 40
100.0
 40
101.0
 40
101.0
 40
101.0
 40
102.0
 40
102.0
 40
102.0
 40
103.0
 40
103.0
 40
103.0
 40
104.0
 40
104.0
 40
104.0
 40
105.0
 40
105.0
 40
105.0
 40
106.0
 40
106.0
 40
106.0
 40
107.0
 40
107.0
 40
107.0
 40
108.0
 40
108.0
 40
108.0
 40
109.0
 40
109.0
 40
109.0
 40
110.0
 40
110.0
 40
110.0
 40
111.0
 40
111.0
 40
111.0
 40
112.0
 40
112.0
 40
112.0
 40
113.0
 40
113.0
 40
113.0
 40
114.0
 40
114.0
 40
114.0
 40
115.0
 40
115.0
 40
115.0
 40
116.0
 40
116.0
 40
116.0
 40
117.0
 40
117.0
 40
117.0
 40
118.0
 40
118.0
 40
118.0
 40
119.0
 40
119.0
 40
119.0
 40
120.0
 40
120.0
 40
120.0
 40
121.0
 40
121.0
 40
121.0
 40
122.0
 40
122.0
 40
122.0
 40
123.0
 40
123.0
 40
123.0
 40
124.0
 40
124.0
 40
124.0
 40
125.0
 40
125.0
 40
125.0
 40
126.0
 40
126.0
 40
126.0
 40
127.0
 40
127.0
 40
127.0
 40
128.0
 40
128.0
 40
128.0
 40
129.0
 40
129.0
 40
129.0
 40
130.0
 40
130.0
 40
130.0
 40
131.0
 40
131.0
 40
131.0
 40
132.0
 40
132.0
 40
132.0
 40
133.0
 40
133.0
 40
133.0
 40
134.0
 40
134.0
 40
134.0
 40
135.0
 40
135.0
 40
135.0
 40
136.0
 40
136.0
 40
136.0
 40
137.0
 40
137.0
 40
137.0
 40
138.0
 40
138.0
 40
138.0
 40
139.0
 40
139.0
 40
139.0
 40
140.0
 40
140.0
 40
140.0
 40
141.0
 40
141.0
 40
141.0
 40
142.0
 40
142.0
 40
142.0
 40
143.0
 40
143.0
 40
143.0
 40
144.0
 40
144.0
 40
144.0
 40
145.0
 40
145.0
 40
145.0
 40
146.0
 40
146.0
 40
146.0
 40
147.0
 40
147.0
 40
147.0
 40
148.0
 40
148.0
 40
148.0
 40
149.0
 40
149.0
 40
149.0
 40
150.0
 40
150.0
 40
150.0
 40
151.0
 40
151.0
 40
151.0
 40
152.0
 40
152.0
 40
152.0
 40
153.0
 40
153.0
 40
153.0
 40
154.0
 40
154.0
 40
154.0
 40
155.0
 40
155.0
 40
155.0
 40
156.0
 40
156.0
 40
156.0
 40
157.0
 40
157.0
 40
157.0
 40
158.0
 40
158.0
 40
158.0
 40
159.0
 40
159.0
 40
159.0
 40
160.0
 40
160.0
 40
160.0
 40
161.0
 40
161.0
 40
161.0
 40
162.0
 40
162.0
 40
162.0
 40
163.0
 40
163.0
 40
163.0
 40
164.0
 40
164.0
 40
164.0
 40
165.0
 40
165.0
 40
165.0
 40
166.0
 40
166.0
 40
166.0
 40
167.0
 40
167.0
 40
167.0
 40
168.0
 40
168.0
 40
168.0
 40
169.0
 40
169.0
 40
169.0
 40
170.0
 40
170.0
 40
170.0
 40
171.0
 40
171.0
 40
171.0
 40
172.0
 40
172.0
 40
172.0
 40
173.0
 40
173.0
 40
173.0
 40
174.0
 40
174.0
 40
174.0
 40
175.0
 40
175.0
 40
175.0
 40
176.0
 40
176.0
 40
176.0
 40
177.0
 40
177.0
 40
177.0
 40
178.0
 40
178.0
 40
178.0
 40
179.0
 40
179.0
 40
179.0
 40
180.0
 40
180.0
 40
180.0
 40
181.0
 40
181.0
 40
181.0
 40
182.0
 40
182.0
 40
182.0
 40
183.0
 40
183.0
 40
183.0
 40
184.0
 40
184.0
 40
184.0
 40
185.0
 40
185.0
 40
185.0
 40
186.0
 40
186.0
 40
186.0
 40
187.0
 40
187.0
 40
187.0
 40
188.0
 40
188.0
 40
188.0
 40
189.0
 40
189.0
 40
189.0
 40
190.0
 40
190.0
 40
190.0
 40
191.0
 40
191.0
 40
191.0
 40
191.0
 10
-0.0864382319028133
 20
-3.158122789761717
 30
0.0
 10
-0.0780117396745178
 20
-3.157588402703216
 30
0.0
 10
-0.0707381380446906
 20
-3.151571600266556
 30
0.0
 10
-0.0678089052794727
 20
-3.142694837461173
 30
0.0
 10
-0.0612280276144096
 20
-3.130334662718799
 30
0.0
 10
-0.0510598294175932
 20
-3.114075441660538
 30
0.0
 10
-0.0420643139325421
 20
-3.099686575307133
 30
0.0
 10
-0.0420643139325421
 20
-3.099686575307133
 30
0.0
 10
-0.0292588166413958
 20
-3.078934544534705
 30
0.0
 10
-0.0292588166413958
 20
-3.078934544534705
 30
0.0
 10
-0.0136873715195962
 20
-3.054807958448261
 30
0.0
 10
0.0055010823038578
 20
-3.02988968783072
 30
0.0
 10
0.0276880412889871
 20
-3.004981313269809
 30
0.0
 10
0.03553066617557
 20
-2.996401432163591
 30
0.0
 10
0.0439324182622664
 20
-2.987871031340571
 30
0.0
 10
0.0520966649896258
 20
-2.983348533456465
 30
0.0
 10
0.0505182439556696
 20
-2.991502884127157
 30
0.0
 10
0.0472377011797612
 20
-2.999973908610349
 30
0.0
 10
0.0443035203862413
 20
-3.007198029956978
 30
0.0
 10
0.0410130815537034
 20
-3.014659656662943
 30
0.0
 10
0.0369606463599439
 20
-3.02313068114611
 30
0.0
 10
0.0330121197608959
 20
-3.031383992383249
 30
0.0
 10
0.0330121197608959
 20
-3.031383992383249
 30
0.0
 10
0.0200037533086414
 20
-3.057707503043552
 30
0.0
 10
0.0200037533086414
 20
-3.057707503043552
 30
0.0
 10
0.0079305642087775
 20
-3.080606978106718
 30
0.0
 10
-0.0020644529968321
 20
-3.100883998160472
 30
0.0
 10
-0.0020644529968321
 20
-3.117133323162079
 30
0.0
 10
-0.0020644529968321
 20
-3.12281365967298
 30
0.0
 10
-0.0020397128552203
 20
-3.12590122934441
 30
0.0
 10
-0.0014508974851929
 20
-3.128355451390966
 30
0.0
 10
-0.0014508974851929
 20
-3.128355451390966
 30
0.0
 10
-0.0009758867665065
 20
-3.129839859886841
 30
0.0
 10
-0.0009758867665065
 20
-3.129839859886841
 30
0.0
 10
-0.0006987971806135
 20
-3.130512791738308
 30
0.0
 10
-0.000377175339837
 20
-3.132155537140407
 30
0.0
 10
-0.000377175339837
 20
-3.134530590733826
 30
0.0
 10
-0.000377175339837
 20
-3.138469221276232
 30
0.0
 10
-0.000332643084966
 20
-3.141230221078583
 30
0.0
 10
0.0002017439735609
 20
-3.143476625935691
 30
0.0
 10
0.0020720986783671
 20
-3.151878378022375
 30
0.0
 10
0.0176039595736231
 20
-3.174144505460617
 30
0.0
 10
0.0303154443267002
 20
-3.174144505460617
 30
0.0
 10
0.0381432251283261
 20
-3.174144505460617
 30
0.0
 10
0.0502708425396905
 20
-3.167286538209635
 30
0.0
 10
0.058420245182093
 20
-3.160755140827733
 30
0.0
 10
0.0619531374022826
 20
-3.157776427779354
 30
0.0
 10
0.0743430003145957
 20
-3.146534507437182
 30
0.0
 10
0.0781628781773331
 20
-3.142754213801026
 30
0.0
 10
0.0836106573572251
 20
-3.138340572539921
 30
0.0
 10
0.0876531964943423
 20
-3.134669135526766
 30
0.0
 10
0.0907011819392286
 20
-3.131403436835828
 30
0.0
 10
0.0961501981261993
 20
-3.126485715189674
 30
0.0
 10
0.1021898851938153
 20
-3.120160279486576
 30
0.0
 10
0.1081596813614346
 20
-3.113161293428497
 30
0.0
 10
0.1086148999668366
 20
-3.112641131951401
 30
0.0
 10
0.1091653681173865
 20
-3.112030668957483
 30
0.0
 10
0.109548221808609
 20
-3.111581635387462
 30
0.0
 10
0.1062083026928854
 20
-3.120300061286646
 30
0.0
 10
0.1015225198742023
 20
-3.129077863525632
 30
0.0
 10
0.097000021990084
 20
-3.137281694479522
 30
0.0
 10
0.0965497514130094
 20
-3.138221819860266
 30
0.0
 10
0.0943280866975
 20
-3.143110471840019
 30
0.0
 10
0.0943280866975
 20
-3.14732619196833
 30
0.0
 10
0.0943280866975
 20
-3.158587904423761
 30
0.0
 10
0.1039074695242637
 20
-3.168107910910697
 30
0.0
 10
0.1152483504328075
 20
-3.168107910910697
 30
0.0
 10
0.1205180005931905
 20
-3.168107910910697
 30
0.0
 10
0.1278212903929317
 20
-3.166099011412926
 30
0.0
 10
0.132422956730175
 20
-3.157044119588059
 30
0.0
 10
0.1365743524903312
 20
-3.149948646977716
 30
0.0
 10
0.1404189704946677
 20
-3.144743321185488
 30
0.0
 10
0.1440508232812539
 20
-3.141259909248471
 30
0.0
 10
0.1506465450312993
 20
-3.135134250188836
 30
0.0
 10
0.153857815410725
 20
-3.131551877685422
 30
0.0
 10
0.1561982328059028
 20
-3.128929422676012
 30
0.0
 10
0.1561982328059028
 20
-3.128929422676012
 30
0.0
 10
0.1588800641551289
 20
-3.125960605684263
 30
0.0
 10
0.1588800641551289
 20
-3.125960605684263
 30
0.0
 10
0.1618241410052911
 20
-3.122299064727763
 30
0.0
 10
0.174055667011367
 20
-3.110225875627899
 30
0.0
 10
0.1866978793679739
 20
-3.09948865417434
 30
0.0
 10
0.19136387007336
 20
-3.09535210249914
 30
0.0
 10
0.1948967622935748
 20
-3.09300673707566
 30
0.0
 10
0.1974400488498481
 20
-3.091680665485985
 30
0.0
 10
0.1972619198303391
 20
-3.092254636771081
 30
0.0
 10
0.1970541026409162
 20
-3.09287808833935
 30
0.0
 10
0.1968264933382215
 20
-3.093551020190817
 30
0.0
 10
0.1968264933382215
 20
-3.093551020190817
 30
0.0
 10
0.1922495671425774
 20
-3.105277847308292
 30
0.0
 10
0.1922495671425774
 20
-3.105277847308292
 30
0.0
 10
0.187959626589481
 20
-3.115144215777591
 30
0.0
 10
0.1839913078771487
 20
-3.125822060891298
 30
0.0
 10
0.1839913078771487
 20
-3.137024397006901
 30
0.0
 10
0.1839913078771487
 20
-3.147415256478097
 30
0.0
 10
0.1874945119274243
 20
-3.156836302398611
 30
0.0
 10
0.1938527283181328
 20
-3.163535932743393
 30
0.0
 10
0.1986523157881568
 20
-3.168592817686026
 30
0.0
 10
0.2038823817219837
 20
-3.170948079166135
 30
0.0
 10
0.2103049224808349
 20
-3.170948079166135
 30
0.0
 10
0.2137685423045544
 20
-3.170948079166135
 30
0.0
 10
0.2176329524221753
 20
-3.170116810408469
 30
0.0
 10
0.2217942442389611
 20
-3.16846416894969
 30
0.0
 10
0.2217942442389611
 20
-3.16846416894969
 30
0.0
 10
0.2219971134000818
 20
-3.168385000496578
 30
0.0
 10
0.2219971134000818
 20
-3.168385000496578
 30
0.0
 10
0.2341890551795889
 20
-3.163239051044178
 30
0.0
 10
0.2492755935260852
 20
-3.155668567715186
 30
0.0
 10
0.2638970172105246
 20
-3.147415256478097
 30
0.0
 10
0.2660840457277926
 20
-3.151066901377943
 30
0.0
 10
0.2687114487655056
 20
-3.153827901180294
 30
0.0
 10
0.2719721994281295
 20
-3.157034223531404
 30
0.0
 10
0.2801314981271742
 20
-3.165050029409182
 30
0.0
 10
0.290705434646169
 20
-3.165980258733245
 30
0.0
 10
0.2979493481060823
 20
-3.165980258733245
 30
0.0
 10
0.3195474917211843
 20
-3.165980258733245
 30
0.0
 10
0.3436889218925469
 20
-3.150720539395579
 30
0.0
 10
0.3604379977544264
 20
-3.137667640688454
 30
0.0
 10
0.3604379977544264
 20
-3.137667640688454
 30
0.0
 10
0.3636096839073085
 20
-3.134985809339216
 30
0.0
 10
0.3636096839073085
 20
-3.134985809339216
 30
0.0
 10
0.368294848222427
 20
-3.131234585369409
 30
0.0
 10
0.3721815244674897
 20
-3.127860648558983
 30
0.0
 10
0.3756321557168829
 20
-3.124539284549452
 30
0.0
 10
0.3755659758380969
 20
-3.12476194582382
 30
0.0
 10
0.3755164955549111
 20
-3.124986462608831
 30
0.0
 10
0.3754503156761378
 20
-3.125208505379684
 30
0.0
 10
0.3744013336723684
 20
-3.128751293656528
 30
0.0
 10
0.3732335989889558
 20
-3.132680028142279
 30
0.0
 10
0.3728624968649809
 20
-3.136866060100676
 30
0.0
 10
0.3718976313426512
 20
-3.13896402410819
 30
0.0
 10
0.3710614145566322
 20
-3.14173491996717
 30
0.0
 10
0.3710614145566322
 20
-3.146257417851302
 30
0.0
 10
0.3710614145566322
 20
-3.156757133945499
 30
0.0
 10
0.3800222938434545
 20
-3.165624000694252
 30
0.0
 10
0.3906308665606906
 20
-3.165624000694252
 30
0.0
 10
0.3988248014579767
 20
-3.165624000694252
 30
0.0
 10
0.4080182380758086
 20
-3.159735846993902
 30
0.0
 10
0.410324019272745
 20
-3.14661367589032
 30
0.0
 10
0.4113433131065752
 20
-3.142783901970915
 30
0.0
 10
0.411966764674844
 20
-3.140982819662591
 30
0.0
 10
0.4122141660908357
 20
-3.140329679924409
 30
0.0
 10
0.4122141660908357
 20
-3.140329679924409
 30
0.0
 10
0.4152225673091531
 20
-3.13556967668094
 30
0.0
 10
0.4152225673091531
 20
-3.13556967668094
 30
0.0
 10
0.4182606566973972
 20
-3.13074040104099
 30
0.0
 10
0.4213432783405122
 20
-3.125851749061236
 30
0.0
 10
0.4244902243517825
 20
-3.120982889194717
 30
0.0
 10
0.4260439052441522
 20
-3.127049171914576
 30
0.0
 10
0.431041413846957
 20
-3.130968010343697
 30
0.0
 10
0.4379290692678398
 20
-3.131165931476491
 30
0.0
 10
0.4379290692678398
 20
-3.131165931476491
 30
0.0
 10
0.4403832913143712
 20
-3.142120866176103
 30
0.0
 10
0.4403832913143712
 20
-3.142120866176103
 30
0.0
 10
0.4465980148837995
 20
-3.160032728693092
 30
0.0
 10
0.453540098616208
 20
-3.174857021538652
 30
0.0
 10
0.4755786167517676
 20
-3.174857021538652
 30
0.0
 10
0.4785276416302446
 20
-3.174857021538652
 30
0.0
 10
0.4866461190956417
 20
-3.17474878341914
 30
0.0
 10
0.5142072553394048
 20
-3.148271265377388
 30
0.0
 10
0.5142072553394048
 20
-3.148271265377388
 30
0.0
 10
0.5142771462394269
 20
-3.148474134538471
 30
0.0
 10
0.5142771462394269
 20
-3.148474134538471
 30
0.0
 10
0.5158506192450684
 20
-3.151789313512633
 30
0.0
 10
0.5191113699076924
 20
-3.155935761244462
 30
0.0
 10
0.5218624736533886
 20
-3.158112893705088
 30
0.0
 10
0.5218624736533886
 20
-3.158112893705088
 30
0.0
 10
0.5220851349277811
 20
-3.158291022724597
 30
0.0
 10
0.5220851349277811
 20
-3.158291022724597
 30
0.0
 10
0.5222038876074623
 20
-3.158439463574192
 30
0.0
 10
0.5223325363437476
 20
-3.158607696537046
 30
0.0
 10
0.5224710811366878
 20
-3.158795721613184
 30
0.0
 10
0.5256576113745395
 20
-3.166435477338684
 30
0.0
 10
0.5323522936909563
 20
-3.168107910910697
 30
0.0
 10
0.5375873076531232
 20
-3.168107910910697
 30
0.0
 10
0.5420850653956551
 20
-3.168107910910697
 30
0.0
 10
0.5472359628763697
 20
-3.166564126074995
 30
0.0
 10
0.5525600413482531
 20
-3.164832316163104
 30
0.0
 10
0.5525600413482531
 20
-3.164832316163104
 30
0.0
 10
0.5527282743111073
 20
-3.164782835879905
 30
0.0
 10
0.5527282743111073
 20
-3.164782835879905
 30
0.0
 10
0.559487280995692
 20
-3.163882294725756
 30
0.0
 10
0.5661671192271898
 20
-3.158469151744081
 30
0.0
 10
0.5756970217707551
 20
-3.149117378220049
 30
0.0
 10
0.5774585198525099
 20
-3.147672553950719
 30
0.0
 10
0.579130953424548
 20
-3.146039704605249
 30
0.0
 10
0.5807835948833019
 20
-3.144396959203125
 30
0.0
 10
0.5819909137932957
 20
-3.143199536349761
 30
0.0
 10
0.583188336646635
 20
-3.141992217439792
 30
0.0
 10
0.585068587408096
 20
-3.140408848377496
 30
0.0
 10
0.5863748668844614
 20
-3.139152049184328
 30
0.0
 10
0.5876712503041972
 20
-3.137885353934507
 30
0.0
 10
0.5889676337239331
 20
-3.136579074458141
 30
0.0
 10
0.5894228523293476
 20
-3.143169848179872
 30
0.0
 10
0.5910359095615326
 20
-3.14732619196833
 30
0.0
 10
0.5968152066388559
 20
-3.155866488847979
 30
0.0
 10
0.6029507617551468
 20
-3.163387491893798
 30
0.0
 10
0.6183391298291224
 20
-3.163852606555817
 30
0.0
 10
0.6184875706787427
 20
-3.163852606555817
 30
0.0
 10
0.6299669963802267
 20
-3.163852606555817
 30
0.0
 10
0.6448308734523304
 20
-3.152561205930472
 30
0.0
 10
0.6479382352370699
 20
-3.150097087827311
 30
0.0
 10
0.6569337507221082
 20
-3.142506812385034
 30
0.0
 10
0.6644052734847289
 20
-3.135322275264949
 30
0.0
 10
0.6724507675323946
 20
-3.126455408516221
 30
0.0
 10
0.6735492298193624
 20
-3.125139232983201
 30
0.0
 10
0.6746377960496753
 20
-3.12369440871387
 30
0.0
 10
0.6758154267897301
 20
-3.122130831764883
 30
0.0
 10
0.6771612904926644
 20
-3.120339645513189
 30
0.0
 10
0.6786358029319091
 20
-3.118370330241961
 30
0.0
 10
0.68066449454294
 20
-3.116015068761826
 30
0.0
 10
0.68066449454294
 20
-3.116015068761826
 30
0.0
 10
0.6841578025366112
 20
-3.111660803840575
 30
0.0
 10
0.6841578025366112
 20
-3.111660803840575
 30
0.0
 10
0.6866714009229452
 20
-3.108840427698421
 30
0.0
 10
0.687947992229422
 20
-3.105426288157862
 30
0.0
 10
0.687947992229422
 20
-3.101507449728741
 30
0.0
 10
0.687947992229422
 20
-3.092591102696815
 30
0.0
 10
0.6797837455020752
 20
-3.085683655162635
 30
0.0
 10
0.6727575452882144
 20
-3.085683655162635
 30
0.0
 10
0.6674631549862195
 20
-3.085683655162635
 30
0.0
 10
0.6630297216118556
 20
-3.08830611017202
 30
0.0
 10
0.6604270587157291
 20
-3.092917672565918
 30
0.0
 10
0.659496829391666
 20
-3.094134887532542
 30
0.0
 10
0.6583488868215252
 20
-3.09535210249914
 30
0.0
 10
0.6571613600247903
 20
-3.096618797748988
 30
0.0
 10
0.6559639371714513
 20
-3.097925077225353
 30
0.0
 10
0.6547269300915685
 20
-3.099261044871632
 30
0.0
 10
0.653094080746074
 20
-3.10124025619949
 30
0.0
 10
0.6472257191590086
 20
-3.109345126587009
 30
0.0
 10
0.6361223436098272
 20
-3.121062057647855
 30
0.0
 10
0.6303430465325038
 20
-3.125525179192133
 30
0.0
 10
0.630926913874229
 20
-3.118370330241961
 30
0.0
 10
0.6382400997306251
 20
-3.100062625459435
 30
0.0
 10
0.6407833862868984
 20
-3.093699461040412
 30
0.0
 10
0.6455433895303663
 20
-3.081012716428908
 30
0.0
 10
0.6472356152156636
 20
-3.076510010658087
 30
0.0
 10
0.6478392746706479
 20
-3.074174541291212
 30
0.0
 10
0.6494424358462033
 20
-3.070196326522262
 30
0.0
 10
0.6501945361507826
 20
-3.065624348354933
 30
0.0
 10
0.6501945361507826
 20
-3.059944011844006
 30
0.0
 10
0.6501945361507826
 20
-3.052423008798212
 30
0.0
 10
0.6450782748683221
 20
-3.044842629412591
 30
0.0
 10
0.6336483294500365
 20
-3.044842629412591
 30
0.0
 10
0.6336483294500365
 20
-3.044842629412591
 30
0.0
 10
0.630956602044143
 20
-3.044842629412591
 30
0.0
 10
0.630956602044143
 20
-3.044842629412591
 30
0.0
 10
0.6254444984960957
 20
-3.044842629412591
 30
0.0
 10
0.620684495252653
 20
-3.047435396252062
 30
0.0
 10
0.6179828717901298
 20
-3.051611532153805
 30
0.0
 10
0.6098582092893265
 20
-3.043476973596347
 30
0.0
 10
0.6008429016910037
 20
-3.039864912923045
 30
0.0
 10
0.5894921247258304
 20
-3.039864912923045
 30
0.0
 10
0.579635652313161
 20
-3.039864912923045
 30
0.0
 10
0.5696307390509219
 20
-3.042853522028079
 30
0.0
 10
0.5605461590561163
 20
-3.048504170369091
 30
0.0
 10
0.5605461590561163
 20
-3.048504170369091
 30
0.0
 10
0.5519860700631827
 20
-3.055560058752866
 30
0.0
 10
0.5519860700631827
 20
-3.055560058752866
 30
0.0
 10
0.5486609950323908
 20
-3.057895528119691
 30
0.0
 10
0.5462513052407429
 20
-3.059894531560833
 30
0.0
 10
0.5447916368864677
 20
-3.061448212453165
 30
0.0
 10
0.5333777725602051
 20
-3.072197185473997
 30
0.0
 10
0.5246376990371699
 20
-3.084841253341235
 30
0.0
 10
0.5190105538306776
 20
-3.097931262260746
 30
0.0
 10
0.5106224088218596
 20
-3.10761640919284
 30
0.0
 10
0.5028057610839546
 20
-3.115837558245882
 30
0.0
 10
0.4924909775481991
 20
-3.125812164834668
 30
0.0
 10
0.4886216194022508
 20
-3.129523186074366
 30
0.0
 10
0.4859249439680676
 20
-3.131977408120898
 30
0.0
 10
0.4839605767251796
 20
-3.133610257466367
 30
0.0
 10
0.4832678527604407
 20
-3.132195121366976
 30
0.0
 10
0.482594920908961
 20
-3.130057573132893
 30
0.0
 10
0.4819516772274079
 20
-3.127029379801292
 30
0.0
 10
0.4816894317264845
 20
-3.125663723985073
 30
0.0
 10
0.4814024460839366
 20
-3.124090250979457
 30
0.0
 10
0.4802149192872271
 20
-3.120874032571691
 30
0.0
 10
0.4793935465861776
 20
-3.117697398390519
 30
0.0
 10
0.4781664355629119
 20
-3.114896814361625
 30
0.0
 10
0.4764643138209597
 20
-3.11237331991861
 30
0.0
 10
0.4832728007887555
 20
-3.106099220009355
 30
0.0
 10
0.4898784185954179
 20
-3.098024037791724
 30
0.0
 10
0.493248025881068
 20
-3.088414966795046
 30
0.0
 10
0.4978051599634531
 20
-3.080943444032426
 30
0.0
 10
0.5012143514756468
 20
-3.074332878197461
 30
0.0
 10
0.5012143514756468
 20
-3.06527798637257
 30
0.0
 10
0.5012143514756468
 20
-3.046119220719042
 30
0.0
 10
0.4830847757126043
 20
-3.032769440312727
 30
0.0
 10
0.4668107105694112
 20
-3.032769440312727
 30
0.0
 10
0.4519270413840231
 20
-3.032769440312727
 30
0.0
 10
0.4408830421746567
 20
-3.04472387673291
 30
0.0
 10
0.4335154280067602
 20
-3.054204298993277
 30
0.0
 10
0.4335154280067602
 20
-3.054204298993277
 30
0.0
 10
0.4216945883512027
 20
-3.071423437545516
 30
0.0
 10
0.4216945883512027
 20
-3.071423437545516
 30
0.0
 10
0.4221646510415743
 20
-3.069770796086761
 30
0.0
 10
0.4226742979584893
 20
-3.068167634911206
 30
0.0
 10
0.4232284771302881
 20
-3.06660405796222
 30
0.0
 10
0.4264694356796402
 20
-3.062071664021459
 30
0.0
 10
0.4284931792623562
 20
-3.057351245004535
 30
0.0
 10
0.4320755517657441
 20
-3.048850532351454
 30
0.0
 10
0.4388494025352986
 20
-3.036836719591443
 30
0.0
 10
0.4712144557738612
 20
-2.962576710570727
 30
0.0
 10
0.4712144557738612
 20
-2.94487266524316
 30
0.0
 10
0.4712144557738612
 20
-2.936609457949417
 30
0.0
 10
0.4712144557738612
 20
-2.921240881988726
 30
0.0
 10
0.4499577261128202
 20
-2.921240881988726
 30
0.0
 10
0.439997345105452
 20
-2.921240881988726
 30
0.0
 10
0.4312591270930094
 20
-2.927623838521008
 30
0.0
 10
0.4259202045361564
 20
-2.93886575886318
 30
0.0
 10
0.4207247748005582
 20
-2.95017695160181
 30
0.0
 10
0.4174986603361756
 20
-2.960340201770274
 30
0.0
 10
0.4131097592166827
 20
-2.979221877837895
 30
0.0
 10
0.4113779493048165
 20
-2.986871529620025
 30
0.0
 10
0.4087357021821466
 20
-2.996005589898029
 30
0.0
 10
0.4063804407020118
 20
-3.002507299109993
 30
0.0
 10
0.4063804407020118
 20
-3.002507299109993
 30
0.0
 10
0.4058312095585406
 20
-3.004704223683877
 30
0.0
 10
0.4058312095585406
 20
-3.004704223683877
 30
0.0
 10
0.4032780269456124
 20
-3.01784618690077
 30
0.0
 10
0.4017144499966258
 20
-3.025911473061746
 30
0.0
 10
0.397226588310736
 20
-3.038994059938785
 30
0.0
 10
0.3963854234964022
 20
-3.040488364491314
 30
0.0
 10
0.3955986869935815
 20
-3.04222017440318
 30
0.0
 10
0.3947327820376611
 20
-3.044189489674383
 30
0.0
 10
0.3942973555455309
 20
-3.045188991394954
 30
0.0
 10
0.393827292855172
 20
-3.046277557625267
 30
0.0
 10
0.3932731136833732
 20
-3.047445292308692
 30
0.0
 10
0.3932731136833732
 20
-3.047445292308692
 30
0.0
 10
0.3922983521044014
 20
-3.049503672089662
 30
0.0
 10
0.3922983521044014
 20
-3.049503672089662
 30
0.0
 10
0.3922983521044014
 20
-3.049503672089662
 30
0.0
 10
0.3922983521044014
 20
-3.050710990999631
 30
0.0
 10
0.3922983521044014
 20
-3.050710990999631
 30
0.0
 10
0.3918282894140424
 20
-3.051581843983866
 30
0.0
 10
0.3908535278350831
 20
-3.053006876139938
 30
0.0
 10
0.3902300762668018
 20
-3.053917313350742
 30
0.0
 10
0.3891613021497733
 20
-3.055490786356383
 30
0.0
 10
0.3880578918344907
 20
-3.057093947531913
 30
0.0
 10
0.3872068309635273
 20
-3.058796069273865
 30
0.0
 10
0.3872068309635273
 20
-3.058796069273865
 30
0.0
 10
0.3815908188207686
 20
-3.066990004171151
 30
0.0
 10
0.3815908188207686
 20
-3.066990004171151
 30
0.0
 10
0.373565116886362
 20
-3.078736623401912
 30
0.0
 10
0.3699035759298491
 20
-3.084090390043709
 30
0.0
 10
0.3619619904768696
 20
-3.093570812304101
 30
0.0
 10
0.3619619904768696
 20
-3.093570812304101
 30
0.0
 10
0.3614003892626114
 20
-3.094420017664459
 30
0.0
 10
0.3614003892626114
 20
-3.094420017664459
 30
0.0
 10
0.3552580306073499
 20
-3.101114081477337
 30
0.0
 10
0.3493327666946142
 20
-3.1068649273918
 30
0.0
 10
0.3434910007597662
 20
-3.111739972293712
 30
0.0
 10
0.3287805125655723
 20
-3.123625136317413
 30
0.0
 10
0.3158661586513871
 20
-3.130443519341825
 30
0.0
 10
0.3080631179913603
 20
-3.130443519341825
 30
0.0
 10
0.3041442795622389
 20
-3.130443519341825
 30
0.0
 10
0.3032437384080645
 20
-3.129592458470849
 30
0.0
 10
0.3025559624716405
 20
-3.128137738144889
 30
0.0
 10
0.3025559624716405
 20
-3.128137738144889
 30
0.0
 10
0.3016653173741082
 20
-3.124278276055595
 30
0.0
 10
0.3016653173741082
 20
-3.124278276055595
 30
0.0
 10
0.3559550840968642
 20
-3.08861288792784
 30
0.0
 10
0.3559501360685493
 20
-3.070889050486989
 30
0.0
 10
0.3559501360685493
 20
-3.064921728333552
 30
0.0
 10
0.3559501360685493
 20
-3.049879722241939
 30
0.0
 10
0.3430654703242908
 20
-3.033125698351745
 30
0.0
 10
0.3245796365222304
 20
-3.033125698351745
 30
0.0
 10
0.2933872659954078
 20
-3.033125698351745
 30
0.0
 10
0.2564650786744727
 20
-3.078083483663729
 30
0.0
 10
0.2564650786744727
 20
-3.116064549045025
 30
0.0
 10
0.2564650786744727
 20
-3.116450495253957
 30
0.0
 10
0.2564650786744727
 20
-3.116836441462914
 30
0.0
 10
0.2564650786744727
 20
-3.11723228372845
 30
0.0
 10
0.2437931781479518
 20
-3.124594949868044
 30
0.0
 10
0.2336942523476308
 20
-3.129622146640788
 30
0.0
 10
0.2271826470790125
 20
-3.13249200306614
 30
0.0
 10
0.2280386559783159
 20
-3.129879444113385
 30
0.0
 10
0.2294735841910046
 20
-3.126029878080746
 30
0.0
 10
0.2316556646799578
 20
-3.120883928628346
 30
0.0
 10
0.2320465589172045
 20
-3.119785466341378
 30
0.0
 10
0.2325858940040335
 20
-3.118687004054436
 30
0.0
 10
0.2330757488076768
 20
-3.117647918107296
 30
0.0
 10
0.2339268096786529
 20
-3.115856731855627
 30
0.0
 10
0.2346838580115597
 20
-3.114164506170304
 30
0.0
 10
0.2348075587195303
 20
-3.113620223055148
 30
0.0
 10
0.2361583704507919
 20
-3.110423796760692
 30
0.0
 10
0.2367323417358749
 20
-3.10770238118491
 30
0.0
 10
0.2376031947201227
 20
-3.103585621622995
 30
0.0
 10
0.2376031947201227
 20
-3.103585621622995
 30
0.0
 10
0.2384987878459697
 20
-3.09946886206108
 30
0.0
 10
0.2384987878459697
 20
-3.09946886206108
 30
0.0
 10
0.2384987878459697
 20
-3.09946886206108
 30
0.0
 10
0.2393449006886309
 20
-3.097687571866016
 30
0.0
 10
0.2393449006886309
 20
-3.097687571866016
 30
0.0
 10
0.2393449006886309
 20
-3.097687571866016
 30
0.0
 10
0.2402256497295209
 20
-3.094797923327354
 30
0.0
 10
0.2402256497295209
 20
-3.094797923327354
 30
0.0
 10
0.2406115959384402
 20
-3.0921358840914
 30
0.0
 10
0.2407303486181212
 20
-3.089582701478497
 30
0.0
 10
0.2408243611561905
 20
-3.087069103092112
 30
0.0
 10
0.2408936335526606
 20
-3.085277916840418
 30
0.0
 10
0.2409381658075315
 20
-3.083526314815293
 30
0.0
 10
0.2411608270819241
 20
-3.082081490545963
 30
0.0
 10
0.2416754220271665
 20
-3.07936997102681
 30
0.0
 10
0.2416754220271665
 20
-3.076559490941285
 30
0.0
 10
0.2416754220271665
 20
-3.07451100721697
 30
0.0
 10
0.2416754220271665
 20
-3.06217062458783
 30
0.0
 10
0.2359159170631402
 20
-3.054718893938519
 30
0.0
 10
0.222298943127574
 20
-3.05013701971456
 30
0.0
 10
0.2190184003516657
 20
-3.049285958843584
 30
0.0
 10
0.2171529936751742
 20
-3.049107829824075
 30
0.0
 10
0.2153618074234803
 20
-3.049107829824075
 30
0.0
 10
0.2092608885053929
 20
-3.049107829824075
 30
0.0
 10
0.1980585523898021
 20
-3.051334442567899
 30
0.0
 10
0.1714480560869384
 20
-3.070483312164797
 30
0.0
 10
0.1668068055231389
 20
-3.073749010855736
 30
0.0
 10
0.1616163238158681
 20
-3.079063193271015
 30
0.0
 10
0.1560893761828639
 20
-3.085079995707625
 30
0.0
 10
0.156222972947502
 20
-3.084387271742899
 30
0.0
 10
0.1563714137970843
 20
-3.08363517143832
 30
0.0
 10
0.1565248026749941
 20
-3.082853382963826
 30
0.0
 10
0.1578261341230574
 20
-3.076173544732328
 30
0.0
 10
0.1587514154188183
 20
-3.071176036129549
 30
0.0
 10
0.1587514154188183
 20
-3.067761896589015
 30
0.0
 10
0.1587514154188183
 20
-3.054125130540164
 30
0.0
 10
0.1433580993165151
 20
-3.041289945079092
 30
0.0
 10
0.1314284030379314
 20
-3.041289945079092
 30
0.0
 10
0.1302804604677906
 20
-3.041289945079092
 30
0.0
 10
0.1272374230512191
 20
-3.041289945079092
 30
0.0
 10
0.1234769215283096
 20
-3.043279052463579
 30
0.0
 10
0.1141053558909814
 20
-3.048474482199177
 30
0.0
 10
0.1090039386934525
 20
-3.055500682413013
 30
0.0
 10
0.1052582812555127
 20
-3.061646133585958
 30
0.0
 10
0.1052582812555127
 20
-3.061646133585958
 30
0.0
 10
0.0962033894306337
 20
-3.077875666474281
 30
0.0
 10
0.0962033894306337
 20
-3.077875666474281
 30
0.0
 10
0.0938580240071411
 20
-3.081171053335158
 30
0.0
 10
0.0908793109587249
 20
-3.084901866688142
 30
0.0
 10
0.0881133631280591
 20
-3.088375382568503
 30
0.0
 10
0.0881133631280591
 20
-3.088375382568503
 30
0.0
 10
0.085988803468341
 20
-3.091125249307121
 30
0.0
 10
0.085988803468341
 20
-3.091125249307121
 30
0.0
 10
0.085988803468341
 20
-3.091125249307121
 30
0.0
 10
0.0704983823102591
 20
-3.107672693014971
 30
0.0
 10
0.0704983823102591
 20
-3.107672693014971
 30
0.0
 10
0.06548108159417
 20
-3.112957187260336
 30
0.0
 10
0.0483609036083155
 20
-3.129058071412322
 30
0.0
 10
0.0374356570786176
 20
-3.138132755350498
 30
0.0
 10
0.0378265513158643
 20
-3.135856662323476
 30
0.0
 10
0.0384945351390166
 20
-3.133560777183194
 30
0.0
 10
0.0391823110754406
 20
-3.13117582753312
 30
0.0
 10
0.0404094220987064
 20
-3.12694031529155
 30
0.0
 10
0.0417998180565241
 20
-3.122130831764883
 30
0.0
 10
0.0417998180565241
 20
-3.116777065123061
 30
0.0
 10
0.0417998180565241
 20
-3.110394108590753
 30
0.0
 10
0.0462926277707159
 20
-3.102754352865278
 30
0.0
 10
0.0506320486070232
 20
-3.09536199855577
 30
0.0
 10
0.0532891398146502
 20
-3.090849396728319
 30
0.0
 10
0.0560303475037169
 20
-3.086178457994593
 30
0.0
 10
0.0578908061518809
 20
-3.08156689560072
 30
0.0
 10
0.0624479402342533
 20
-3.070483312164797
 30
0.0
 10
0.0677175903946363
 20
-3.058786173217236
 30
0.0
 10
0.0731307333762869
 20
-3.047712485837943
 30
0.0
 10
0.0731307333762869
 20
-3.047712485837943
 30
0.0
 10
0.0901074185408612
 20
-3.012987223090931
 30
0.0
 10
0.0901074185408612
 20
-3.012987223090931
 30
0.0
 10
0.0946348644533196
 20
-3.00301199799858
 30
0.0
 10
0.0970791904431963
 20
-2.984536060253149
 30
0.0
 10
0.0970791904431963
 20
-2.972215469737344
 30
0.0
 10
0.0970791904431963
 20
-2.945397156245057
 30
0.0
 10
0.073214849857714
 20
-2.945397156245057
 30
0.0
 10
0.0653722249711311
 20
-2.945397156245057
 30
0.0
 10
0.050622152550381
 20
-2.945397156245057
 30
0.0
 10
0.0343431393788605
 20
-2.954432255956665
 30
0.0
 10
0.0172081173080617
 20
-2.972037340717836
 30
0.0
 10
0.0098405031401525
 20
-2.979152605441413
 30
0.0
 10
0.0031507688520378
 20
-2.98716841131919
 30
0.0
 10
-0.0101841674692954
 20
-3.003140646734891
 30
0.0
 10
-0.0101841674692954
 20
-3.003140646734891
 30
0.0
 10
-0.0168442135874961
 20
-3.011116868386125
 30
0.0
 10
-0.0168442135874961
 20
-3.011116868386125
 30
0.0
 10
-0.0181752332054733
 20
-3.012690341391766
 30
0.0
 10
-0.0207135717334445
 20
-3.015876871629567
 30
0.0
 10
-0.0238753618296591
 20
-3.019944150908309
 30
0.0
 10
-0.0227125751745613
 20
-3.017687849994545
 30
0.0
 10
-0.0215844247176923
 20
-3.015609678100316
 30
0.0
 10
-0.0205156506006511
 20
-3.013769011565424
 30
0.0
 10
-0.010035726619713
 20
-2.995124840857139
 30
0.0
 10
-0.0003375911132808
 20
-2.974640003613962
 30
0.0
 10
-0.0003375911132808
 20
-2.951265517832123
 30
0.0
 10
-0.0003375911132808
 20
-2.947792001951736
 30
0.0
 10
-0.0017279870710985
 20
-2.942665844612621
 30
0.0
 10
-0.0083385529060883
 20
-2.938004801935549
 30
0.0
 10
-0.0083385529060883
 20
-2.938004801935549
 30
0.0
 10
-0.009595352099268
 20
-2.937282389800909
 30
0.0
 10
-0.009595352099268
 20
-2.937282389800909
 30
0.0
 10
-0.0098922337984454
 20
-2.937074572611461
 30
0.0
 10
-0.0103969326870457
 20
-2.936589665836132
 30
0.0
 10
-0.0108373072074907
 20
-2.936144343287398
 30
0.0
 10
-0.0158100756687089
 20
-2.928356146712303
 30
0.0
 10
-0.0231776898365929
 20
-2.924081050244189
 30
0.0
 10
-0.0317080906595998
 20
-2.924081050244189
 30
0.0
 10
-0.0452656882553381
 20
-2.924081050244189
 30
0.0
 10
-0.0568094383249774
 20
-2.92652537623404
 30
0.0
 10
-0.0679474500724382
 20
-2.931750494139578
 30
0.0
 10
-0.0774724045876762
 20
-2.936104759060829
 30
0.0
 10
-0.0851022642565214
 20
-2.941171540060117
 30
0.0
 10
-0.0924847225093749
 20
-2.946070088096525
 30
0.0
 10
-0.0924847225093749
 20
-2.946070088096525
 30
0.0
 10
-0.0958543297950251
 20
-2.948306596896978
 30
0.0
 10
-0.0958543297950251
 20
-2.948306596896978
 30
0.0
 10
-0.0975416074520202
 20
-2.949494123693688
 30
0.0
 10
-0.0993525858169859
 20
-2.950543105697457
 30
0.0
 10
-0.1014851860227408
 20
-2.951532711361349
 30
0.0
 10
-0.105869139113919
 20
-2.95383849255831
 30
0.0
 10
-0.1108419075751246
 20
-2.956451051511066
 30
0.0
 10
-0.1162451545001457
 20
-2.961695961529862
 30
0.0
 10
-0.1188775055661735
 20
-2.964466857388843
 30
0.0
 10
-0.1199858639097707
 20
-2.967188272964626
 30
0.0
 10
-0.1205647832231686
 20
-2.969236756688941
 30
0.0
 10
-0.122311437219979
 20
-2.970839917864496
 30
0.0
 10
-0.125102125192244
 20
-2.973947279649185
 30
0.0
 10
-0.125102125192244
 20
-2.979320838404317
 30
0.0
 10
-0.125102125192244
 20
-2.981666203827797
 30
0.0
 10
-0.1244044531991777
 20
-2.993363342775359
 30
0.0
 10
-0.1105846101025034
 20
-2.993363342775359
 30
0.0
 10
-0.1058246068590481
 20
-2.993363342775359
 30
0.0
 10
-0.0988775750983122
 20
-2.992710203037151
 30
0.0
 10
-0.0934594840883342
 20
-2.987010074412991
 30
0.0
 10
-0.0917771544596791
 20
-2.985248576331211
 30
0.0
 10
-0.0815297878097631
 20
-2.975896802807129
 30
0.0
 10
-0.0792339026694562
 20
-2.9744024982546
 30
0.0
 10
-0.0792339026694562
 20
-2.9744024982546
 30
0.0
 10
-0.0606936405558827
 20
-2.962715255363693
 30
0.0
 10
-0.0606936405558827
 20
-2.962715255363693
 30
0.0
 10
-0.0568193343816195
 20
-2.960676667696007
 30
0.0
 10
-0.0514358795698955
 20
-2.958756832708003
 30
0.0
 10
-0.0446422366870694
 20
-2.956985438569568
 30
0.0
 10
-0.0455922581244295
 20
-2.962972552836314
 30
0.0
 10
-0.0481800769355863
 20
-2.969355509368597
 30
0.0
 10
-0.0533309744163009
 20
-2.978885411912187
 30
0.0
 10
-0.0545580854395667
 20
-2.981468282695004
 30
0.0
 10
-0.056027649850484
 20
-2.985149615764789
 30
0.0
 10
-0.0574526820065305
 20
-2.988751780381486
 30
0.0
 10
-0.058422495557175
 20
-2.991196106371363
 30
0.0
 10
-0.0593725169945477
 20
-2.993600848134696
 30
0.0
 10
-0.0600058646194586
 20
-2.995075360573915
 30
0.0
 10
-0.0600058646194586
 20
-2.995075360573915
 30
0.0
 10
-0.065488279997592
 20
-3.005961022877095
 30
0.0
 10
-0.065488279997592
 20
-3.005961022877095
 30
0.0
 10
-0.0685956417822935
 20
-3.011819488407506
 30
0.0
 10
-0.0719603010396289
 20
-3.018182652826529
 30
0.0
 10
-0.0742858743498497
 20
-3.023387978618757
 30
0.0
 10
-0.0849043431237407
 20
-3.046495270871319
 30
0.0
 10
-0.0957751613419254
 20
-3.073323480420235
 30
0.0
 10
-0.1013664333430724
 20
-3.090275425443223
 30
0.0
 10
-0.1028953740938303
 20
-3.095094805026544
 30
0.0
 10
-0.1040334206073415
 20
-3.100310026875402
 30
0.0
 10
-0.1051368309226114
 20
-3.10534711970475
 30
0.0
 10
-0.1056217376979399
 20
-3.107553940335315
 30
0.0
 10
-0.1061066444732559
 20
-3.109770657022484
 30
0.0
 10
-0.1066113433618688
 20
-3.111908205256566
 30
0.0
 10
-0.1066113433618688
 20
-3.111908205256566
 30
0.0
 10
-0.1109408681415213
 20
-3.129780483546988
 30
0.0
 10
-0.1109408681415213
 20
-3.129780483546988
 30
0.0
 10
-0.1109408681415213
 20
-3.129780483546988
 30
0.0
 10
-0.1109260240565643
 20
-3.136846267987392
 30
0.0
 10
-0.1109260240565643
 20
-3.136846267987392
 30
0.0
 10
-0.1104559613662054
 20
-3.145802199245887
 30
0.0
 10
-0.1039443560975997
 20
-3.153679460330699
 30
0.0
 10
-0.0954535395011362
 20
-3.156776926058783
 30
0.0
 10
-0.0954535395011362
 20
-3.156776926058783
 30
0.0
 10
-0.0864382319028133
 20
-3.158122789761717
 30
0.0
 10
-0.0864382319028133
 20
-3.158122789761717
 30
0.0
  0
SPLINE
  5
A6
330
70
100
AcDbEntity
  8
Text
100
AcDbSpline
210
0.0
220
0.0
230
1.0
 70
     9
 71
     3
 72
    35
 73
    31
 74
     0
 42
0.0000000001
 43
0.0000000001
 40
0.0
 40
0.0
 40
0.0
 40
0.0
 40
1.0
 40
1.0
 40
1.0
 40
2.0
 40
2.0
 40
2.0
 40
3.0
 40
3.0
 40
3.0
 40
4.0
 40
4.0
 40
4.0
 40
5.0
 40
5.0
 40
5.0
 40
6.0
 40
6.0
 40
6.0
 40
7.0
 40
7.0
 40
7.0
 40
8.0
 40
8.0
 40
8.0
 40
9.0
 40
9.0
 40
9.0
 40
10.0
 40
10.0
 40
10.0
 40
10.0
 10
1.691280647482042
 20
-3.035298794623006
 30
0.0
 10
1.691280647482042
 20
-3.035298794623006
 30
0.0
 10
1.675951655747894
 20
-3.055120596071345
 30
0.0
 10
1.675951655747894
 20
-3.055120596071345
 30
0.0
 10
1.671280717014193
 20
-3.061345215697429
 30
0.0
 10
1.662651355624777
 20
-3.070429795692234
 30
0.0
 10
1.656624657131512
 20
-3.076120028259765
 30
0.0
 10
1.652230807983692
 20
-3.080167515425222
 30
0.0
 10
1.648994797462693
 20
-3.082809762547892
 30
0.0
 10
1.646689016265731
 20
-3.084521780346474
 30
0.0
 10
1.647164026984405
 20
-3.073260067891042
 30
0.0
 10
1.654427732557627
 20
-3.059306628029743
 30
0.0
 10
1.667757720850633
 20
-3.044076596861991
 30
0.0
 10
1.667757720850633
 20
-3.044076596861991
 30
0.0
 10
1.668400964532161
 20
-3.043265120217584
 30
0.0
 10
1.668400964532161
 20
-3.043265120217584
 30
0.0
 10
1.669083792440308
 20
-3.042295306666927
 30
0.0
 10
1.669667659782008
 20
-3.041325493116295
 30
0.0
 10
1.67019215078388
 20
-3.040355679565638
 30
0.0
 10
1.670399967973303
 20
-3.040227030829328
 30
0.0
 10
1.670597889106097
 20
-3.040098382093017
 30
0.0
 10
1.67077601812558
 20
-3.04000931758325
 30
0.0
 10
1.67077601812558
 20
-3.04000931758325
 30
0.0
 10
1.673012526926084
 20
-3.038722830220169
 30
0.0
 10
1.673012526926084
 20
-3.038722830220169
 30
0.0
 10
1.681305422389742
 20
-3.032399250027714
 30
0.0
 10
1.68459091319394
 20
-3.031904447195731
 30
0.0
 10
1.685402389838372
 20
-3.031904447195731
 30
0.0
 10
1.686867006220962
 20
-3.031904447195731
 30
0.0
 10
1.688618608246113
 20
-3.031904447195731
 30
0.0
 10
1.691280647482042
 20
-3.035298794623006
 30
0.0
  0
SPLINE
  5
A7
330
70
100
AcDbEntity
  8
Text
100
AcDbSpline
210
0.0
220
0.0
230
1.0
 70
     9
 71
     3
 72
    17
 73
    13
 74
     0
 42
0.0000000001
 43
0.0000000001
 40
0.0
 40
0.0
 40
0.0
 40
0.0
 40
1.0
 40
1.0
 40
1.0
 40
2.0
 40
2.0
 40
2.0
 40
3.0
 40
3.0
 40
3.0
 40
4.0
 40
4.0
 40
4.0
 40
4.0
 10
1.944243647293786
 20
-3.11104321213957
 30
0.0
 10
1.94678693385006
 20
-3.108767119112573
 30
0.0
 10
1.949369804632902
 20
-3.106263416782844
 30
0.0
 10
1.952002155698942
 20
-3.103502416980493
 30
0.0
 10
1.951893299075916
 20
-3.103828986849571
 30
0.0
 10
1.95178444245289
 20
-3.10416545277533
 30
0.0
 10
1.951665689773183
 20
-3.104492022644434
 30
0.0
 10
1.951665689773183
 20
-3.104492022644434
 30
0.0
 10
1.95002294437111
 20
-3.109301506171075
 30
0.0
 10
1.95002294437111
 20
-3.109301506171075
 30
0.0
 10
1.948152589666253
 20
-3.109786412946403
 30
0.0
 10
1.946212962564989
 20
-3.110380176344758
 30
0.0
 10
1.944243647293786
 20
-3.11104321213957
 30
0.0
  0
SPLINE
  5
A8
330
70
100
AcDbEntity
  8
Text
100
AcDbSpline
210
0.0
220
0.0
230
1.0
 70
    11
 71
     3
 72
    26
 73
    22
 74
     0
 42
0.0000000001
 43
0.0000000001
 40
0.0
 40
0.0
 40
0.0
 40
0.0
 40
1.0
 40
1.0
 40
1.0
 40
2.0
 40
2.0
 40
2.0
 40
3.0
 40
3.0
 40
3.0
 40
4.0
 40
4.0
 40
4.0
 40
5.0
 40
5.0
 40
5.0
 40
6.0
 40
6.0
 40
6.0
 40
7.0
 40
7.0
 40
7.0
 40
7.0
 10
1.921730118439553
 20
-3.178890576458065
 30
0.0
 10
1.918072213881335
 20
-3.18400443246618
 30
0.0
 10
1.913041380710309
 20
-3.187638690527137
 30
0.0
 10
1.907677718011882
 20
-3.190290833706462
 30
0.0
 10
1.907400628425951
 20
-3.190231457366634
 30
0.0
 10
1.9071334348967
 20
-3.19018197708341
 30
0.0
 10
1.906895929537389
 20
-3.190132496800212
 30
0.0
 10
1.906876137424079
 20
-3.189410084665571
 30
0.0
 10
1.906876137424079
 20
-3.188400686888371
 30
0.0
 10
1.906876137424079
 20
-3.186926174449126
 30
0.0
 10
1.906876137424079
 20
-3.17933589900685
 30
0.0
 10
1.911388739251606
 20
-3.17023152689876
 30
0.0
 10
1.919434233299272
 20
-3.161750606358939
 30
0.0
 10
1.924837480224267
 20
-3.155763492092217
 30
0.0
 10
1.927529207630136
 20
-3.152784779043814
 30
0.0
 10
1.937474744552597
 20
-3.147579453251586
 30
0.0
 10
1.936979941720614
 20
-3.148865940614693
 30
0.0
 10
1.93650493100194
 20
-3.150053467411377
 30
0.0
 10
1.936049712396526
 20
-3.15114203364169
 30
0.0
 10
1.936049712396526
 20
-3.15114203364169
 30
0.0
 10
1.925388022997822
 20
-3.173776720449975
 30
0.0
 10
1.921730118439553
 20
-3.178890576458065
 30
0.0
  0
SPLINE
  5
A9
330
70
100
AcDbEntity
  8
Text
100
AcDbSpline
210
0.0
220
0.0
230
1.0
 70
     9
 71
     3
 72
   542
 73
   538
 74
     0
 42
0.0000000001
 43
0.0000000001
 40
0.0
 40
0.0
 40
0.0
 40
0.0
 40
1.0
 40
1.0
 40
1.0
 40
2.0
 40
2.0
 40
2.0
 40
3.0
 40
3.0
 40
3.0
 40
4.0
 40
4.0
 40
4.0
 40
5.0
 40
5.0
 40
5.0
 40
6.0
 40
6.0
 40
6.0
 40
7.0
 40
7.0
 40
7.0
 40
8.0
 40
8.0
 40
8.0
 40
9.0
 40
9.0
 40
9.0
 40
10.0
 40
10.0
 40
10.0
 40
11.0
 40
11.0
 40
11.0
 40
12.0
 40
12.0
 40
12.0
 40
13.0
 40
13.0
 40
13.0
 40
14.0
 40
14.0
 40
14.0
 40
15.0
 40
15.0
 40
15.0
 40
16.0
 40
16.0
 40
16.0
 40
17.0
 40
17.0
 40
17.0
 40
18.0
 40
18.0
 40
18.0
 40
19.0
 40
19.0
 40
19.0
 40
20.0
 40
20.0
 40
20.0
 40
21.0
 40
21.0
 40
21.0
 40
22.0
 40
22.0
 40
22.0
 40
23.0
 40
23.0
 40
23.0
 40
24.0
 40
24.0
 40
24.0
 40
25.0
 40
25.0
 40
25.0
 40
26.0
 40
26.0
 40
26.0
 40
27.0
 40
27.0
 40
27.0
 40
28.0
 40
28.0
 40
28.0
 40
29.0
 40
29.0
 40
29.0
 40
30.0
 40
30.0
 40
30.0
 40
31.0
 40
31.0
 40
31.0
 40
32.0
 40
32.0
 40
32.0
 40
33.0
 40
33.0
 40
33.0
 40
34.0
 40
34.0
 40
34.0
 40
35.0
 40
35.0
 40
35.0
 40
36.0
 40
36.0
 40
36.0
 40
37.0
 40
37.0
 40
37.0
 40
38.0
 40
38.0
 40
38.0
 40
39.0
 40
39.0
 40
39.0
 40
40.0
 40
40.0
 40
40.0
 40
41.0
 40
41.0
 40
41.0
 40
42.0
 40
42.0
 40
42.0
 40
43.0
 40
43.0
 40
43.0
 40
44.0
 40
44.0
 40
44.0
 40
45.0
 40
45.0
 40
45.0
 40
46.0
 40
46.0
 40
46.0
 40
47.0
 40
47.0
 40
47.0
 40
48.0
 40
48.0
 40
48.0
 40
49.0
 40
49.0
 40
49.0
 40
50.0
 40
50.0
 40
50.0
 40
51.0
 40
51.0
 40
51.0
 40
52.0
 40
52.0
 40
52.0
 40
53.0
 40
53.0
 40
53.0
 40
54.0
 40
54.0
 40
54.0
 40
55.0
 40
55.0
 40
55.0
 40
56.0
 40
56.0
 40
56.0
 40
57.0
 40
57.0
 40
57.0
 40
58.0
 40
58.0
 40
58.0
 40
59.0
 40
59.0
 40
59.0
 40
60.0
 40
60.0
 40
60.0
 40
61.0
 40
61.0
 40
61.0
 40
62.0
 40
62.0
 40
62.0
 40
63.0
 40
63.0
 40
63.0
 40
64.0
 40
64.0
 40
64.0
 40
65.0
 40
65.0
 40
65.0
 40
66.0
 40
66.0
 40
66.0
 40
67.0
 40
67.0
 40
67.0
 40
68.0
 40
68.0
 40
68.0
 40
69.0
 40
69.0
 40
69.0
 40
70.0
 40
70.0
 40
70.0
 40
71.0
 40
71.0
 40
71.0
 40
72.0
 40
72.0
 40
72.0
 40
73.0
 40
73.0
 40
73.0
 40
74.0
 40
74.0
 40
74.0
 40
75.0
 40
75.0
 40
75.0
 40
76.0
 40
76.0
 40
76.0
 40
77.0
 40
77.0
 40
77.0
 40
78.0
 40
78.0
 40
78.0
 40
79.0
 40
79.0
 40
79.0
 40
80.0
 40
80.0
 40
80.0
 40
81.0
 40
81.0
 40
81.0
 40
82.0
 40
82.0
 40
82.0
 40
83.0
 40
83.0
 40
83.0
 40
84.0
 40
84.0
 40
84.0
 40
85.0
 40
85.0
 40
85.0
 40
86.0
 40
86.0
 40
86.0
 40
87.0
 40
87.0
 40
87.0
 40
88.0
 40
88.0
 40
88.0
 40
89.0
 40
89.0
 40
89.0
 40
90.0
 40
90.0
 40
90.0
 40
91.0
 40
91.0
 40
91.0
 40
92.0
 40
92.0
 40
92.0
 40
93.0
 40
93.0
 40
93.0
 40
94.0
 40
94.0
 40
94.0
 40
95.0
 40
95.0
 40
95.0
 40
96.0
 40
96.0
 40
96.0
 40
97.0
 40
97.0
 40
97.0
 40
98.0
 40
98.0
 40
98.0
 40
99.0
 40
99.0
 40
99.0
 40
100.0
 40
100.0
 40
100.0
 40
101.0
 40
101.0
 40
101.0
 40
102.0
 40
102.0
 40
102.0
 40
103.0
 40
103.0
 40
103.0
 40
104.0
 40
104.0
 40
104.0
 40
105.0
 40
105.0
 40
105.0
 40
106.0
 40
106.0
 40
106.0
 40
107.0
 40
107.0
 40
107.0
 40
108.0
 40
108.0
 40
108.0
 40
109.0
 40
109.0
 40
109.0
 40
110.0
 40
110.0
 40
110.0
 40
111.0
 40
111.0
 40
111.0
 40
112.0
 40
112.0
 40
112.0
 40
113.0
 40
113.0
 40
113.0
 40
114.0
 40
114.0
 40
114.0
 40
115.0
 40
115.0
 40
115.0
 40
116.0
 40
116.0
 40
116.0
 40
117.0
 40
117.0
 40
117.0
 40
118.0
 40
118.0
 40
118.0
 40
119.0
 40
119.0
 40
119.0
 40
120.0
 40
120.0
 40
120.0
 40
121.0
 40
121.0
 40
121.0
 40
122.0
 40
122.0
 40
122.0
 40
123.0
 40
123.0
 40
123.0
 40
124.0
 40
124.0
 40
124.0
 40
125.0
 40
125.0
 40
125.0
 40
126.0
 40
126.0
 40
126.0
 40
127.0
 40
127.0
 40
127.0
 40
128.0
 40
128.0
 40
128.0
 40
129.0
 40
129.0
 40
129.0
 40
130.0
 40
130.0
 40
130.0
 40
131.0
 40
131.0
 40
131.0
 40
132.0
 40
132.0
 40
132.0
 40
133.0
 40
133.0
 40
133.0
 40
134.0
 40
134.0
 40
134.0
 40
135.0
 40
135.0
 40
135.0
 40
136.0
 40
136.0
 40
136.0
 40
137.0
 40
137.0
 40
137.0
 40
138.0
 40
138.0
 40
138.0
 40
139.0
 40
139.0
 40
139.0
 40
140.0
 40
140.0
 40
140.0
 40
141.0
 40
141.0
 40
141.0
 40
142.0
 40
142.0
 40
142.0
 40
143.0
 40
143.0
 40
143.0
 40
144.0
 40
144.0
 40
144.0
 40
145.0
 40
145.0
 40
145.0
 40
146.0
 40
146.0
 40
146.0
 40
147.0
 40
147.0
 40
147.0
 40
148.0
 40
148.0
 40
148.0
 40
149.0
 40
149.0
 40
149.0
 40
150.0
 40
150.0
 40
150.0
 40
151.0
 40
151.0
 40
151.0
 40
152.0
 40
152.0
 40
152.0
 40
153.0
 40
153.0
 40
153.0
 40
154.0
 40
154.0
 40
154.0
 40
155.0
 40
155.0
 40
155.0
 40
156.0
 40
156.0
 40
156.0
 40
157.0
 40
157.0
 40
157.0
 40
158.0
 40
158.0
 40
158.0
 40
159.0
 40
159.0
 40
159.0
 40
160.0
 40
160.0
 40
160.0
 40
161.0
 40
161.0
 40
161.0
 40
162.0
 40
162.0
 40
162.0
 40
163.0
 40
163.0
 40
163.0
 40
164.0
 40
164.0
 40
164.0
 40
165.0
 40
165.0
 40
165.0
 40
166.0
 40
166.0
 40
166.0
 40
167.0
 40
167.0
 40
167.0
 40
168.0
 40
168.0
 40
168.0
 40
169.0
 40
169.0
 40
169.0
 40
170.0
 40
170.0
 40
170.0
 40
171.0
 40
171.0
 40
171.0
 40
172.0
 40
172.0
 40
172.0
 40
173.0
 40
173.0
 40
173.0
 40
174.0
 40
174.0
 40
174.0
 40
175.0
 40
175.0
 40
175.0
 40
176.0
 40
176.0
 40
176.0
 40
177.0
 40
177.0
 40
177.0
 40
178.0
 40
178.0
 40
178.0
 40
179.0
 40
179.0
 40
179.0
 40
179.0
 10
2.006291922421673
 20
-2.996011449765294
 30
0.0
 10
1.99933499460432
 20
-2.996011449765294
 30
0.0
 10
1.993882267396126
 20
-2.996506252597252
 30
0.0
 10
1.989864468400583
 20
-2.998930786473869
 30
0.0
 10
1.981937727032573
 20
-3.003799646340363
 30
0.0
 10
1.979918931478171
 20
-3.011597738972088
 30
0.0
 10
1.979186623286876
 20
-3.014566555963811
 30
0.0
 10
1.978246497906159
 20
-3.017287971539619
 30
0.0
 10
1.977078763222708
 20
-3.019999491058772
 30
0.0
 10
1.970963000219676
 20
-3.028658540618077
 30
0.0
 10
1.967360835603029
 20
-3.034695135167996
 30
0.0
 10
1.963471685343822
 20
-3.040118174206301
 30
0.0
 10
1.959364821838511
 20
-3.045867783113685
 30
0.0
 10
1.957256961774343
 20
-3.04880691193552
 30
0.0
 10
1.955158997766855
 20
-3.05174604075738
 30
0.0
 10
1.953041241646057
 20
-3.05484350648544
 30
0.0
 10
1.948805729404461
 20
-3.061176982734549
 30
0.0
 10
1.944975955485081
 20
-3.066253659790466
 30
0.0
 10
1.938870088538679
 20
-3.072072541094333
 30
0.0
 10
1.935010626449411
 20
-3.075842938673885
 30
0.0
 10
1.931111580133574
 20
-3.079524271743669
 30
0.0
 10
1.927618272139903
 20
-3.082720698038125
 30
0.0
 10
1.927618272139903
 20
-3.082720698038125
 30
0.0
 10
1.932843390045415
 20
-3.069410501858378
 30
0.0
 10
1.932843390045415
 20
-3.069410501858378
 30
0.0
 10
1.934011124728865
 20
-3.066303140073664
 30
0.0
 10
1.935406468714998
 20
-3.062582222777336
 30
0.0
 10
1.936999733833873
 20
-3.058930577877466
 30
0.0
 10
1.936999733833873
 20
-3.058930577877466
 30
0.0
 10
1.950151593107395
 20
-3.029450225149225
 30
0.0
 10
1.950151593107395
 20
-3.029450225149225
 30
0.0
 10
1.950151593107395
 20
-3.029450225149225
 30
0.0
 10
1.950557331429611
 20
-3.028381451032171
 30
0.0
 10
1.950557331429611
 20
-3.028381451032171
 30
0.0
 10
1.951022446091656
 20
-3.026926730706211
 30
0.0
 10
1.952912592909772
 20
-3.021236498138654
 30
0.0
 10
1.954585026481784
 20
-3.016337950102246
 30
0.0
 10
1.954585026481784
 20
-3.016337950102246
 30
0.0
 10
1.955450979741347
 20
-3.013689567176697
 30
0.0
 10
1.955450979741347
 20
-3.013689567176697
 30
0.0
 10
1.955450979741347
 20
-3.013689567176697
 30
0.0
 10
1.958108022645344
 20
-3.004729875664452
 30
0.0
 10
1.958108022645344
 20
-3.004729875664452
 30
0.0
 10
1.958108022645344
 20
-3.001493865143402
 30
0.0
 10
1.958108022645344
 20
-2.994754650572126
 30
0.0
 10
1.950438578749956
 20
-2.988876392928432
 30
0.0
 10
1.950438578749956
 20
-2.988876392928432
 30
0.0
 10
1.946481699334147
 20
-2.987086113299154
 30
0.0
 10
1.946481699334147
 20
-2.987086113299154
 30
0.0
 10
1.946481699334147
 20
-2.987086113299154
 30
0.0
 10
1.945579614940091
 20
-2.986778428920893
 30
0.0
 10
1.945579614940091
 20
-2.986778428920893
 30
0.0
 10
1.942759238797937
 20
-2.985600798180838
 30
0.0
 10
1.939602396730025
 20
-2.985007034782483
 30
0.0
 10
1.936178361132811
 20
-2.985007034782483
 30
0.0
 10
1.927934945952352
 20
-2.985007034782483
 30
0.0
 10
1.921373860400586
 20
-2.989460260270132
 30
0.0
 10
1.917840968180346
 20
-2.997753155733789
 30
0.0
 10
1.917840968180346
 20
-2.997753155733789
 30
0.0
 10
1.917840968180346
 20
-2.997743259677159
 30
0.0
 10
1.917840968180346
 20
-2.997743259677159
 30
0.0
 10
1.915535186983434
 20
-3.00214700488161
 30
0.0
 10
1.891824235275862
 20
-3.035377963076118
 30
0.0
 10
1.888984067020398
 20
-3.039059296145902
 30
0.0
 10
1.888984067020398
 20
-3.039059296145902
 30
0.0
 10
1.883923471056505
 20
-3.045100220220622
 30
0.0
 10
1.883923471056505
 20
-3.045100220220622
 30
0.0
 10
1.882165065492421
 20
-3.046700288878456
 30
0.0
 10
1.880849508462966
 20
-3.048418491712431
 30
0.0
 10
1.880117200271671
 20
-3.04954911618347
 30
0.0
 10
1.880117200271671
 20
-3.04954911618347
 30
0.0
 10
1.875188964065298
 20
-3.055556022563476
 30
0.0
 10
1.875188964065298
 20
-3.055556022563476
 30
0.0
 10
1.868608086400222
 20
-3.063581724497882
 30
0.0
 10
1.862581387906958
 20
-3.070934494580847
 30
0.0
 10
1.856841675056203
 20
-3.077525268302552
 30
0.0
 10
1.854041091027309
 20
-3.080642526143896
 30
0.0
 10
1.851101962205449
 20
-3.083215500870108
 30
0.0
 10
1.848261793949985
 20
-3.085699411086554
 30
0.0
 10
1.84576798767691
 20
-3.087866647490525
 30
0.0
 10
1.843392934083491
 20
-3.089954715441409
 30
0.0
 10
1.841205905566236
 20
-3.092220912411776
 30
0.0
 10
1.839493887767654
 20
-3.09374490513422
 30
0.0
 10
1.8378412463089
 20
-3.09552619532931
 30
0.0
 10
1.836188604850146
 20
-3.097356965807547
 30
0.0
 10
1.834644820014419
 20
-3.099068983606128
 30
0.0
 10
1.832052053174948
 20
-3.101928943974876
 30
0.0
 10
1.831022863284513
 20
-3.102206033560757
 30
0.0
 10
1.829053548013259
 20
-3.102206033560757
 30
0.0
 10
1.82876656237075
 20
-3.10167164650223
 30
0.0
 10
1.828489472784819
 20
-3.100028901100131
 30
0.0
 10
1.828489472784819
 20
-3.100028901100131
 30
0.0
 10
1.827846229103291
 20
-3.096872059032218
 30
0.0
 10
1.827846229103291
 20
-3.096872059032218
 30
0.0
 10
1.828400408275102
 20
-3.094031890776755
 30
0.0
 10
1.829419702108907
 20
-3.091132346181464
 30
0.0
 10
1.830646813132185
 20
-3.088707812304872
 30
0.0
 10
1.830646813132185
 20
-3.088707812304872
 30
0.0
 10
1.841433514868968
 20
-3.070390211465665
 30
0.0
 10
1.841433514868968
 20
-3.070390211465665
 30
0.0
 10
1.847786783231311
 20
-3.059613405785562
 30
0.0
 10
1.854981216408027
 20
-3.047401671892758
 30
0.0
 10
1.854981216408027
 20
-3.032785196236646
 30
0.0
 10
1.854981216408027
 20
-3.014893125832915
 30
0.0
 10
1.838049063498323
 20
-3.014121233415077
 30
0.0
 10
1.830884318491547
 20
-3.013784767489318
 30
0.0
 10
1.824422193506127
 20
-3.01344830156361
 30
0.0
 10
1.821819530610026
 20
-3.013131627751135
 30
0.0
 10
1.81877154516514
 20
-3.012330047163358
 30
0.0
 10
1.81877154516514
 20
-3.012330047163358
 30
0.0
 10
1.816238154665496
 20
-3.011894620671253
 30
0.0
 10
1.816238154665496
 20
-3.011894620671253
 30
0.0
 10
1.816238154665496
 20
-3.011894620671253
 30
0.0
 10
1.813872997128706
 20
-3.008074742808503
 30
0.0
 10
1.813872997128706
 20
-3.008074742808503
 30
0.0
 10
1.813853205015448
 20
-3.00756014786326
 30
0.0
 10
1.813853205015448
 20
-3.006936696294991
 30
0.0
 10
1.813853205015448
 20
-3.006145011763869
 30
0.0
 10
1.813853205015448
 20
-3.006145011763869
 30
0.0
 10
1.813853205015448
 20
-3.000820933291934
 30
0.0
 10
1.813853205015448
 20
-3.000820933291934
 30
0.0
 10
1.813853205015448
 20
-2.994596313665877
 30
0.0
 10
1.813853205015448
 20
-2.980029318292963
 30
0.0
 10
1.793942339057315
 20
-2.980029318292963
 30
0.0
 10
1.780543078367802
 20
-2.980029318292963
 30
0.0
 10
1.769647520008043
 20
-2.989994647328633
 30
0.0
 10
1.769647520008043
 20
-3.002236069391351
 30
0.0
 10
1.769647520008043
 20
-3.005105925816754
 30
0.0
 10
1.770478788765735
 20
-3.008371624507693
 30
0.0
 10
1.772418415866998
 20
-3.013161315921074
 30
0.0
 10
1.772418415866998
 20
-3.013161315921074
 30
0.0
 10
1.772576752773273
 20
-3.013547262129981
 30
0.0
 10
1.772576752773273
 20
-3.013547262129981
 30
0.0
 10
1.772774673906067
 20
-3.014616036247035
 30
0.0
 10
1.773022075322008
 20
-3.016763480537722
 30
0.0
 10
1.773022075322008
 20
-3.018554666789441
 30
0.0
 10
1.773022075322008
 20
-3.018614043129268
 30
0.0
 10
1.77296269898218
 20
-3.02004897134197
 30
0.0
 10
1.771468394429651
 20
-3.024759494302214
 30
0.0
 10
1.771191304843771
 20
-3.025620451229845
 30
0.0
 10
1.770419412425907
 20
-3.027471013821367
 30
0.0
 10
1.770409516369277
 20
-3.027510598047936
 30
0.0
 10
1.770409516369277
 20
-3.027510598047936
 30
0.0
 10
1.769964193820492
 20
-3.028737709071189
 30
0.0
 10
1.769964193820492
 20
-3.028737709071189
 30
0.0
 10
1.769350638308853
 20
-3.029727314735105
 30
0.0
 10
1.768301656305109
 20
-3.030964321815013
 30
0.0
 10
1.766708391186183
 20
-3.032983117369414
 30
0.0
 10
1.762344230208302
 20
-3.038643661767057
 30
0.0
 10
1.758079029796767
 20
-3.043819299389345
 30
0.0
 10
1.753408091063066
 20
-3.049093897578055
 30
0.0
 10
1.753408091063066
 20
-3.049093897578055
 30
0.0
 10
1.746777733114792
 20
-3.057208664022229
 30
0.0
 10
1.746777733114792
 20
-3.057208664022229
 30
0.0
 10
1.746206235843879
 20
-3.05795952731973
 30
0.0
 10
1.7458128675925
 20
-3.058665858362347
 30
0.0
 10
1.745414551312756
 20
-3.059371570901425
 30
0.0
 10
1.745366308036636
 20
-3.059429710234199
 30
0.0
 10
1.745332290341922
 20
-3.059465583439507
 30
0.0
 10
1.745283428562263
 20
-3.059524341275795
 30
0.0
 10
1.739434859088482
 20
-3.067619315606684
 30
0.0
 10
1.728321587482671
 20
-3.079356038780815
 30
0.0
 10
1.722542290405347
 20
-3.083809264268438
 30
0.0
 10
1.723116261690418
 20
-3.076654415318292
 30
0.0
 10
1.730439343603469
 20
-3.058346710535741
 30
0.0
 10
1.732972734103112
 20
-3.051973650060088
 30
0.0
 10
1.737752529459839
 20
-3.039277009391955
 30
0.0
 10
1.739444755145162
 20
-3.034774303621134
 30
0.0
 10
1.740048414600121
 20
-3.032448730310887
 30
0.0
 10
1.741641679719047
 20
-3.028480411598593
 30
0.0
 10
1.742393780023601
 20
-3.023908433431238
 30
0.0
 10
1.742393780023601
 20
-3.018218200863707
 30
0.0
 10
1.742393780023601
 20
-3.010697197817888
 30
0.0
 10
1.737277518741166
 20
-3.003116818432267
 30
0.0
 10
1.725857469379484
 20
-3.003116818432267
 30
0.0
 10
1.725857469379484
 20
-3.003116818432267
 30
0.0
 10
1.723155845916986
 20
-3.003116818432267
 30
0.0
 10
1.723155845916986
 20
-3.003116818432267
 30
0.0
 10
1.717673430538853
 20
-3.003116818432267
 30
0.0
 10
1.712923323352015
 20
-3.005689793158454
 30
0.0
 10
1.710211803832887
 20
-3.009856033003567
 30
0.0
 10
1.702106933445343
 20
-3.001662098106306
 30
0.0
 10
1.693230170639986
 20
-2.998139101942721
 30
0.0
 10
1.681701264655278
 20
-2.998139101942721
 30
0.0
 10
1.671854688299264
 20
-2.998139101942721
 30
0.0
 10
1.661839878980395
 20
-3.001127711047754
 30
0.0
 10
1.652755298985564
 20
-3.006768463332112
 30
0.0
 10
1.652755298985564
 20
-3.006768463332112
 30
0.0
 10
1.644185313936026
 20
-3.013834247772542
 30
0.0
 10
1.644185313936026
 20
-3.013834247772542
 30
0.0
 10
1.64085034284858
 20
-3.016179613196022
 30
0.0
 10
1.638435705028642
 20
-3.018188512693793
 30
0.0
 10
1.637000776815941
 20
-3.019722401472866
 30
0.0
 10
1.629586774882555
 20
-3.026700976914121
 30
0.0
 10
1.623296593881226
 20
-3.034488554985652
 30
0.0
 10
1.618223009343005
 20
-3.042663316273193
 30
0.0
 10
1.615578288206178
 20
-3.042800624059054
 30
0.0
 10
1.613203853116298
 20
-3.043532932250375
 30
0.0
 10
1.610093398813887
 20
-3.045402668451641
 30
0.0
 10
1.610093398813887
 20
-3.045402668451641
 30
0.0
 10
1.576882232732689
 20
-3.082037870130029
 30
0.0
 10
1.576882232732689
 20
-3.082037870130029
 30
0.0
 10
1.577000985412344
 20
-3.081750884487493
 30
0.0
 10
1.577119738092
 20
-3.081454002788329
 30
0.0
 10
1.577238490771656
 20
-3.081167017145793
 30
0.0
 10
1.580741694822007
 20
-3.072042852924419
 30
0.0
 10
1.582374544167451
 20
-3.066946383755243
 30
0.0
 10
1.58418552253243
 20
-3.061325423584144
 30
0.0
 10
1.585699619198218
 20
-3.05659510851059
 30
0.0
 10
1.587342364600342
 20
-3.051478847228129
 30
0.0
 10
1.590469518498315
 20
-3.04293855034848
 30
0.0
 10
1.593646152679538
 20
-3.033992515146615
 30
0.0
 10
1.594348772700893
 20
-3.031765902402791
 30
0.0
 10
1.595754012743656
 20
-3.026560576610563
 30
0.0
 10
1.595754012743656
 20
-3.026560576610563
 30
0.0
 10
1.596110270782673
 20
-3.023908433431238
 30
0.0
 10
1.596110270782673
 20
-3.023908433431238
 30
0.0
 10
1.596110270782673
 20
-3.020256788531368
 30
0.0
 10
1.595486819214405
 20
-3.017189010973222
 30
0.0
 10
1.594992016382421
 20
-3.014724892870061
 30
0.0
 10
1.594734718909851
 20
-3.013468093676894
 30
0.0
 10
1.594427941154031
 20
-3.012300358993444
 30
0.0
 10
1.594427941154031
 20
-3.011122728253364
 30
0.0
 10
1.594427941154031
 20
-3.010796158384285
 30
0.0
 10
1.594526901720428
 20
-3.010380524005439
 30
0.0
 10
1.594714926796541
 20
-3.009598735530946
 30
0.0
 10
1.59502170455236
 20
-3.00831224816784
 30
0.0
 10
1.595437338931206
 20
-3.00655075008606
 30
0.0
 10
1.595437338931206
 20
-3.004373617625434
 30
0.0
 10
1.595437338931206
 20
-2.999188083946465
 30
0.0
 10
1.593547192113141
 20
-2.995496854820051
 30
0.0
 10
1.590766400197505
 20
-2.993151489396545
 30
0.0
 10
1.590766400197505
 20
-2.993151489396545
 30
0.0
 10
1.587441325166739
 20
-2.991122797785515
 30
0.0
 10
1.587441325166739
 20
-2.991122797785515
 30
0.0
 10
1.587441325166739
 20
-2.991122797785515
 30
0.0
 10
1.587441325166739
 20
-2.991122797785515
 30
0.0
 10
1.587441325166739
 20
-2.991122797785515
 30
0.0
 10
1.585600658631821
 20
-2.990350905367651
 30
0.0
 10
1.5835917591341
 20
-2.989974855215374
 30
0.0
 10
1.581592755692958
 20
-2.989974855215374
 30
0.0
 10
1.577565060640785
 20
-2.989974855215374
 30
0.0
 10
1.571370129184616
 20
-2.991548328221016
 30
0.0
 10
1.566738774677484
 20
-2.996456772314079
 30
0.0
 10
1.563849126138822
 20
-2.999910496081131
 30
0.0
 10
1.562790248078449
 20
-3.000830829348589
 30
0.0
 10
1.56186001875431
 20
-3.001652202049652
 30
0.0
 10
1.559781846860131
 20
-3.00346318041463
 30
0.0
 10
1.558228165967723
 20
-3.004957484967134
 30
0.0
 10
1.554279639368688
 20
-3.010360731892155
 30
0.0
 10
1.554279639368688
 20
-3.010360731892155
 30
0.0
 10
1.538594389595522
 20
-3.031162242947781
 30
0.0
 10
1.538594389595522
 20
-3.031162242947781
 30
0.0
 10
1.528480619710257
 20
-3.044462543070924
 30
0.0
 10
1.513201108259307
 20
-3.064561434105169
 30
0.0
 10
1.490331321366056
 20
-3.084393131610163
 30
0.0
 10
1.489064626116209
 20
-3.085719203199838
 30
0.0
 10
1.487431776770765
 20
-3.087015586619549
 30
0.0
 10
1.485462461499562
 20
-3.088321866095939
 30
0.0
 10
1.485462461499562
 20
-3.088321866095939
 30
0.0
 10
1.484126493853257
 20
-3.089103654570433
 30
0.0
 10
1.484126493853257
 20
-3.089103654570433
 30
0.0
 10
1.479227945816875
 20
-3.092013095222379
 30
0.0
 10
1.47700133307305
 20
-3.093467815548339
 30
0.0
 10
1.470638168654027
 20
-3.093141245679235
 30
0.0
 10
1.470638168654027
 20
-3.093141245679235
 30
0.0
 10
1.469618874820172
 20
-3.091884446486068
 30
0.0
 10
1.469618874820172
 20
-3.091884446486068
 30
0.0
 10
1.462652050946189
 20
-3.084531676403103
 30
0.0
 10
1.461612964999075
 20
-3.073725182553087
 30
0.0
 10
1.461612964999075
 20
-3.067945885475789
 30
0.0
 10
1.461612964999075
 20
-3.036021206757645
 30
0.0
 10
1.475170562594762
 20
-3.002631911656938
 30
0.0
 10
1.498891410358965
 20
-2.976219336486868
 30
0.0
 10
1.498891410358965
 20
-2.976219336486868
 30
0.0
 10
1.506768671443827
 20
-2.967204028888545
 30
0.0
 10
1.506768671443827
 20
-2.967204028888545
 30
0.0
 10
1.519950218887237
 20
-2.951528675171983
 30
0.0
 10
1.533161454500587
 20
-2.937001264025613
 30
0.0
 10
1.549915478390807
 20
-2.931528744704135
 30
0.0
 10
1.549915478390807
 20
-2.931528744704135
 30
0.0
 10
1.550885291941464
 20
-2.931202174835031
 30
0.0
 10
1.550885291941464
 20
-2.931202174835031
 30
0.0
 10
1.552894191439185
 20
-2.930529242983564
 30
0.0
 10
1.555872904487614
 20
-2.929539637319673
 30
0.0
 10
1.559009954442217
 20
-2.927570322048445
 30
0.0
 10
1.560870413090444
 20
-2.926620300611097
 30
0.0
 10
1.562622015115544
 20
-2.925670279173699
 30
0.0
 10
1.564294448687607
 20
-2.924759841962895
 30
0.0
 10
1.569747175895801
 20
-2.921810817084431
 30
0.0
 10
1.573685806438207
 20
-2.919673268850349
 30
0.0
 10
1.577208802601767
 20
-2.919673268850349
 30
0.0
 10
1.584304275212085
 20
-2.919673268850349
 30
0.0
 10
1.587233507977316
 20
-2.921147781289593
 30
0.0
 10
1.587639246299532
 20
-2.92182071314106
 30
0.0
 10
1.587560077846395
 20
-2.922849903031545
 30
0.0
 10
1.586610056409047
 20
-2.925818720023319
 30
0.0
 10
1.586105357520434
 20
-2.92741198514222
 30
0.0
 10
1.586105357520434
 20
-2.92741198514222
 30
0.0
 10
1.58594702061421
 20
-2.927886995860919
 30
0.0
 10
1.58594702061421
 20
-2.927886995860919
 30
0.0
 10
1.584977207063553
 20
-2.93005423226489
 30
0.0
 10
1.582582361356874
 20
-2.935754360889076
 30
0.0
 10
1.582582361356874
 20
-2.93973257565805
 30
0.0
 10
1.582582361356874
 20
-2.948342144934182
 30
0.0
 10
1.589113758738752
 20
-2.954833958089491
 30
0.0
 10
1.597772808298057
 20
-2.954833958089491
 30
0.0
 10
1.61618936970366
 20
-2.954833958089491
 30
0.0
 10
1.618020140181897
 20
-2.922295723859734
 30
0.0
 10
1.618020140181897
 20
-2.921969153990655
 30
0.0
 10
1.618020140181897
 20
-2.900187933327717
 30
0.0
 10
1.601622374330746
 20
-2.885551665558321
 30
0.0
 10
1.577208802601767
 20
-2.885551665558321
 30
0.0
 10
1.561355319865747
 20
-2.885551665558321
 30
0.0
 10
1.556971366774556
 20
-2.885789170917658
 30
0.0
 10
1.555150492352949
 20
-2.885878235427425
 30
0.0
 10
1.555150492352949
 20
-2.885878235427425
 30
0.0
 10
1.553913485273041
 20
-2.885937611767253
 30
0.0
 10
1.553913485273041
 20
-2.885937611767253
 30
0.0
 10
1.548688367367528
 20
-2.886303765862925
 30
0.0
 10
1.542760629440661
 20
-2.886719400241746
 30
0.0
 10
1.535754221340059
 20
-2.889322063137872
 30
0.0
 10
1.510845846779147
 20
-2.898080073263574
 30
0.0
 10
1.493547539773796
 20
-2.915279419702528
 30
0.0
 10
1.479900877668342
 20
-2.930954773419064
 30
0.0
 10
1.447619940911181
 20
-2.968154050325892
 30
0.0
 10
1.417753641974008
 20
-3.01049927668512
 30
0.0
 10
1.417753641974008
 20
-3.067945885475789
 30
0.0
 10
1.417753641974008
 20
-3.118890785054493
 30
0.0
 10
1.445254783374442
 20
-3.129578526224829
 30
0.0
 10
1.468332387457065
 20
-3.129578526224829
 30
0.0
 10
1.482750941980435
 20
-3.129578526224829
 30
0.0
 10
1.519485104225193
 20
-3.104551398984262
 30
0.0
 10
1.525363361868913
 20
-3.099543994324802
 30
0.0
 10
1.525472218491939
 20
-3.099464825871715
 30
0.0
 10
1.525571179058336
 20
-3.099385657418578
 30
0.0
 10
1.525670139624733
 20
-3.099296592908836
 30
0.0
 10
1.521523691892854
 20
-3.110439552684586
 30
0.0
 10
1.517436620500903
 20
-3.121275734704542
 30
0.0
 10
1.514319362659509
 20
-3.129439981431914
 30
0.0
 10
1.512904226560117
 20
-3.130330626529434
 30
0.0
 10
1.511301065384562
 20
-3.13133012824998
 30
0.0
 10
1.509539567302782
 20
-3.132428590536922
 30
0.0
 10
1.50106854281959
 20
-3.137683396612348
 30
0.0
 10
1.488263045528457
 20
-3.145639826150297
 30
0.0
 10
1.47522993893459
 20
-3.155882244771898
 30
0.0
 10
1.442513575685325
 20
-3.181552615694019
 30
0.0
 10
1.438317647670297
 20
-3.193170586188468
 30
0.0
 10
1.438317647670297
 20
-3.200424395705011
 30
0.0
 10
1.438317647670297
 20
-3.217297172274887
 30
0.0
 10
1.451390338490733
 20
-3.237910658254374
 30
0.0
 10
1.466650057828423
 20
-3.237910658254374
 30
0.0
 10
1.48962870134465
 20
-3.237910658254374
 30
0.0
 10
1.524512300997912
 20
-3.197069632504331
 30
0.0
 10
1.530390558641632
 20
-3.189083514796468
 30
0.0
 10
1.541276220944761
 20
-3.174476935196985
 30
0.0
 10
1.547708657760242
 20
-3.16024640574978
 30
0.0
 10
1.554665585577645
 20
-3.14114701643608
 30
0.0
 10
1.567114824829761
 20
-3.132171293064301
 30
0.0
 10
1.581939117675347
 20
-3.12001893551135
 30
0.0
 10
1.591607565011827
 20
-3.110815602836888
 30
0.0
 10
1.596157277051714
 20
-3.106500303638641
 30
0.0
 10
1.600380419222523
 20
-3.101943169556281
 30
0.0
 10
1.604674070796868
 20
-3.097436752764199
 30
0.0
 10
1.604923327723428
 20
-3.099897778349663
 30
0.0
 10
1.605249279089017
 20
-3.102374885027175
 30
0.0
 10
1.605729237836006
 20
-3.104571191097521
 30
0.0
 10
1.605729237836006
 20
-3.104571191097521
 30
0.0
 10
1.606491234197189
 20
-3.106778011728086
 30
0.0
 10
1.606491234197189
 20
-3.106778011728086
 30
0.0
 10
1.608074603259486
 20
-3.110083294645568
 30
0.0
 10
1.611320509837165
 20
-3.114209950264138
 30
0.0
 10
1.614041925412973
 20
-3.116377186668109
 30
0.0
 10
1.614041925412973
 20
-3.116377186668109
 30
0.0
 10
1.614299222885544
 20
-3.116575107800902
 30
0.0
 10
1.614299222885544
 20
-3.116575107800902
 30
0.0
 10
1.614408079508621
 20
-3.116723548650497
 30
0.0
 10
1.614536728244906
 20
-3.116881885556722
 30
0.0
 10
1.614665376981191
 20
-3.117060014576231
 30
0.0
 10
1.617851907219043
 20
-3.12470966635836
 30
0.0
 10
1.624551537563775
 20
-3.126382099930373
 30
0.0
 10
1.629786551525967
 20
-3.126382099930373
 30
0.0
 10
1.634279361240184
 20
-3.126382099930373
 30
0.0
 10
1.639415414635929
 20
-3.124838315094671
 30
0.0
 10
1.644719700994528
 20
-3.123126297296064
 30
0.0
 10
1.644719700994528
 20
-3.123126297296064
 30
0.0
 10
1.64493741424058
 20
-3.123057024899607
 30
0.0
 10
1.64493741424058
 20
-3.123057024899607
 30
0.0
 10
1.651686524868561
 20
-3.122156483745432
 30
0.0
 10
1.658356467043353
 20
-3.116753236820411
 30
0.0
 10
1.667886369586969
 20
-3.107401463296355
 30
0.0
 10
1.669647867668698
 20
-3.105956639027024
 30
0.0
 10
1.671330197297391
 20
-3.1043138936249
 30
0.0
 10
1.672992734812775
 20
-3.102671148222826
 30
0.0
 10
1.674190157666114
 20
-3.101473725369462
 30
0.0
 10
1.675377684462824
 20
-3.100276302516122
 30
0.0
 10
1.677287623394199
 20
-3.098673141340567
 30
0.0
 10
1.678584006813935
 20
-3.097416342147375
 30
0.0
 10
1.679870494177041
 20
-3.096159542954208
 30
0.0
 10
1.681166877596776
 20
-3.094863159534472
 30
0.0
 10
1.681622096202191
 20
-3.101444037199548
 30
0.0
 10
1.683235153434376
 20
-3.105600380988006
 30
0.0
 10
1.689004554455019
 20
-3.11412088575437
 30
0.0
 10
1.695130213514731
 20
-3.121651784856819
 30
0.0
 10
1.710538373701966
 20
-3.122126795575493
 30
0.0
 10
1.710686814551561
 20
-3.122126795575493
 30
0.0
 10
1.72216624025307
 20
-3.122126795575493
 30
0.0
 10
1.737030117325174
 20
-3.110835394950173
 30
0.0
 10
1.740137479109888
 20
-3.108371276846987
 30
0.0
 10
1.749083514311753
 20
-3.100830481687908
 30
0.0
 10
1.756555037074349
 20
-3.093645944567848
 30
0.0
 10
1.764669803518523
 20
-3.084719701479267
 30
0.0
 10
1.765748473692206
 20
-3.083413422002902
 30
0.0
 10
1.766837039922519
 20
-3.081978493790201
 30
0.0
 10
1.768004774605919
 20
-3.080424812897843
 30
0.0
 10
1.768905934263658
 20
-3.079227390044505
 30
0.0
 10
1.769932650139935
 20
-3.077899462944211
 30
0.0
 10
1.771063893114513
 20
-3.076489893376649
 30
0.0
 10
1.778836627101074
 20
-3.069929426328397
 30
0.0
 10
1.784372852287181
 20
-3.063043007914605
 30
0.0
 10
1.792081880409139
 20
-3.052963255724004
 30
0.0
 10
1.794615270908782
 20
-3.049796517599462
 30
0.0
 10
1.79674292308621
 20
-3.046966245400628
 30
0.0
 10
1.798603381734387
 20
-3.044284414051415
 30
0.0
 10
1.800592489118899
 20
-3.044917761676313
 30
0.0
 10
1.802670661013128
 20
-3.045303707885245
 30
0.0
 10
1.804491535434736
 20
-3.045630277754348
 30
0.0
 10
1.805827503081041
 20
-3.045847991000401
 30
0.0
 10
1.806985341707811
 20
-3.046045912133195
 30
0.0
 10
1.807965051315098
 20
-3.046233937209333
 30
0.0
 10
1.807618689332709
 20
-3.047668865422034
 30
0.0
 10
1.807203054953864
 20
-3.048866288275374
 30
0.0
 10
1.806846796914846
 20
-3.049816309712721
 30
0.0
 10
1.805827503081041
 20
-3.052230947532709
 30
0.0
 10
1.802106585784688
 20
-3.059177979293432
 30
0.0
 10
1.79937527415225
 20
-3.063512452101399
 30
0.0
 10
1.792705331977408
 20
-3.074843436953313
 30
0.0
 10
1.787183332372756
 20
-3.085392633330734
 30
0.0
 10
1.787183332372756
 20
-3.09991014842045
 30
0.0
 10
1.787183332372756
 20
-3.122374196991485
 30
0.0
 10
1.802175858181145
 20
-3.136327636852784
 30
0.0
 10
1.826302444267563
 20
-3.136327636852784
 30
0.0
 10
1.840899127810416
 20
-3.136327636852784
 30
0.0
 10
1.847994600420735
 20
-3.129984264547071
 30
0.0
 10
1.856980219849169
 20
-3.121958562612639
 30
0.0
 10
1.856980219849169
 20
-3.121958562612639
 30
0.0
 10
1.859375065555847
 20
-3.119811118321952
 30
0.0
 10
1.859375065555847
 20
-3.119811118321952
 30
0.0
 10
1.864837688820671
 20
-3.115312742075856
 30
0.0
 10
1.87746567559586
 20
-3.101450222234941
 30
0.0
 10
1.888689040831827
 20
-3.088122707956067
 30
0.0
 10
1.888643890073404
 20
-3.089588561345761
 30
0.0
 10
1.888627808981381
 20
-3.090776088142471
 30
0.0
 10
1.888627808981381
 20
-3.091389643654085
 30
0.0
 10
1.888627808981381
 20
-3.107876474015054
 30
0.0
 10
1.898434801110827
 20
-3.125669583852363
 30
0.0
 10
1.914268491733587
 20
-3.125669583852363
 30
0.0
 10
1.91449610103632
 20
-3.125669583852363
 30
0.0
 10
1.914852359075287
 20
-3.125669583852363
 30
0.0
 10
1.915307577680702
 20
-3.125649791739078
 30
0.0
 10
1.913476807202464
 20
-3.127015447555297
 30
0.0
 10
1.911725205177314
 20
-3.128410791541429
 30
0.0
 10
1.910042875548672
 20
-3.129865511867389
 30
0.0
 10
1.910042875548672
 20
-3.129865511867389
 30
0.0
 10
1.90214582235055
 20
-3.136594830382035
 30
0.0
 10
1.90214582235055
 20
-3.136594830382035
 30
0.0
 10
1.895545152572215
 20
-3.14218610238322
 30
0.0
 10
1.889300740832848
 20
-3.147460700571905
 30
0.0
 10
1.884689178438975
 20
-3.154180123029946
 30
0.0
 10
1.87778173090477
 20
-3.164185036292211
 30
0.0
 10
1.874130086004925
 20
-3.175139970991823
 30
0.0
 10
1.874130086004925
 20
-3.185867296388727
 30
0.0
 10
1.874130086004925
 20
-3.190686675972023
 30
0.0
 10
1.875030627159073
 20
-3.194635202571084
 30
0.0
 10
1.87691087792056
 20
-3.198563937056835
 30
0.0
 10
1.88512460493108
 20
-3.218751892600847
 30
0.0
 10
1.899008772395897
 20
-3.222987404842443
 30
0.0
 10
1.90921160679098
 20
-3.222987404842443
 30
0.0
 10
1.928449540897594
 20
-3.222987404842443
 30
0.0
 10
1.953377707571815
 20
-3.20311612311088
 30
0.0
 10
1.961264864713257
 20
-3.186470955843712
 30
0.0
 10
1.964817549046705
 20
-3.17858379870227
 30
0.0
 10
1.969755681309708
 20
-3.168410652477152
 30
0.0
 10
1.972952107604189
 20
-3.163185534571614
 30
0.0
 10
1.974881838648823
 20
-3.15980108320102
 30
0.0
 10
1.976475103767749
 20
-3.155733803922303
 30
0.0
 10
1.97994861964811
 20
-3.146817456890377
 30
0.0
 10
1.97994861964811
 20
-3.146817456890377
 30
0.0
 10
1.983600264547956
 20
-3.137406307026468
 30
0.0
 10
1.983600264547956
 20
-3.137406307026468
 30
0.0
 10
1.983679433001093
 20
-3.137139113497191
 30
0.0
 10
1.98378828962412
 20
-3.136871919967941
 30
0.0
 10
1.983916938360405
 20
-3.13660472643869
 30
0.0
 10
1.983916938360405
 20
-3.13660472643869
 30
0.0
 10
1.992130665370975
 20
-3.13704015293082
 30
0.0
 10
1.992130665370975
 20
-3.13704015293082
 30
0.0
 10
2.001373582272031
 20
-3.13704015293082
 30
0.0
 10
2.008340406146013
 20
-3.130093121170097
 30
0.0
 10
2.008340406146013
 20
-3.120869996382326
 30
0.0
 10
2.008340406146013
 20
-3.112488036408926
 30
0.0
 10
2.00196734567036
 20
-3.105857678460627
 30
0.0
 10
1.993674450206703
 20
-3.105422251968497
 30
0.0
 10
1.993872371339496
 20
-3.10474932011703
 30
0.0
 10
1.99406039641561
 20
-3.104076388265563
 30
0.0
 10
1.994258317548403
 20
-3.103403456414121
 30
0.0
 10
1.99581199844076
 20
-3.097980417375815
 30
0.0
 10
1.997583392579169
 20
-3.091825070146215
 30
0.0
 10
1.998493829789999
 20
-3.089519288949279
 30
0.0
 10
1.998493829789999
 20
-3.089519288949279
 30
0.0
 10
2.000324600268236
 20
-3.085006687121802
 30
0.0
 10
2.000324600268236
 20
-3.085006687121802
 30
0.0
 10
2.002056410180128
 20
-3.081642027864467
 30
0.0
 10
2.002907471051078
 20
-3.078504977909839
 30
0.0
 10
2.003422065996321
 20
-3.076525766581981
 30
0.0
 10
2.003422065996321
 20
-3.076525766581981
 30
0.0
 10
2.010062320001225
 20
-3.056921678379694
 30
0.0
 10
2.010062320001225
 20
-3.056921678379694
 30
0.0
 10
2.013387395032042
 20
-3.047965747121199
 30
0.0
 10
2.015891097361746
 20
-3.039158256712274
 30
0.0
 10
2.016712470062808
 20
-3.036268608173637
 30
0.0
 10
2.016712470062808
 20
-3.036268608173637
 30
0.0
 10
2.017078624158456
 20
-3.034131059939555
 30
0.0
 10
2.017078624158456
 20
-3.034131059939555
 30
0.0
 10
2.017207272894741
 20
-3.03207268015861
 30
0.0
 10
2.017969269255975
 20
-3.029618458112079
 30
0.0
 10
2.018770849843728
 20
-3.027025691272607
 30
0.0
 10
2.019186484222573
 20
-3.025650139399759
 30
0.0
 10
2.01960211860147
 20
-3.024294379640195
 30
0.0
 10
2.019988064810377
 20
-3.022790179031037
 30
0.0
 10
2.019988064810377
 20
-3.022790179031037
 30
0.0
 10
2.019988064810377
 20
-3.022790179031037
 30
0.0
 10
2.019988064810377
 20
-3.022790179031037
 30
0.0
 10
2.019988064810377
 20
-3.022790179031037
 30
0.0
 10
2.021818835288614
 20
-3.01182534827477
 30
0.0
 10
2.021818835288614
 20
-3.01182534827477
 30
0.0
 10
2.021818835288614
 20
-3.002661599826852
 30
0.0
 10
2.015287437906736
 20
-2.996011449765294
 30
0.0
 10
2.006291922421673
 20
-2.996011449765294
 30
0.0
  0
INSERT
  5
AB
330
70
100
AcDbEntity
  8
Text
100
AcDbBlockReference
  2
Block_1
 10
0.0
 20
0.0
 30
0.0
  0
ENDSEC
  0
SECTION
  2
OBJECTS
  0
DICTIONARY
  5
C
330
0
100
AcDbDictionary
281
     1
  3
ACAD_COLOR
350
63
  3
ACAD_DETAILVIEWSTYLE
350
6A
  3
ACAD_GROUP
350
D
  3
ACAD_LAYOUT
350
62
  3
ACAD_MATERIAL
350
10
  3
ACAD_MLEADERSTYLE
350
66
  3
ACAD_MLINESTYLE
350
5F
  3
ACAD_PLOTSETTINGS
350
61
  3
ACAD_PLOTSTYLENAME
350
E
  3
ACAD_SCALELIST
350
42
  3
ACAD_SECTIONVIEWSTYLE
350
68
  3
ACAD_TABLESTYLE
350
64
  3
ACAD_VISUALSTYLE
350
29
  3
ACDB_RECOMPOSE_DATA
350
BE
  3
AcDbVariableDictionary
350
B6
  0
DICTIONARY
  5
63
102
{ACAD_REACTORS
330
C
102
}
330
C
100
AcDbDictionary
281
     1
  0
DICTIONARY
  5
6A
102
{ACAD_REACTORS
330
C
102
}
330
C
100
AcDbDictionary
281
     1
  3
Imperial24
350
6B
  0
DICTIONARY
  5
D
102
{ACAD_REACTORS
330
C
102
}
330
C
100
AcDbDictionary
281
     1
  0
DICTIONARY
  5
62
102
{ACAD_REACTORS
330
C
102
}
330
C
100
AcDbDictionary
281
     1
  3
Layout1
350
6F
  3
Layout2
350
77
  3
Model
350
73
  0
DICTIONARY
  5
10
102
{ACAD_REACTORS
330
C
102
}
330
C
100
AcDbDictionary
281
     1
  3
ByBlock
350
19
  3
ByLayer
350
11
  3
Global
350
21
  0
DICTIONARY
  5
66
102
{ACAD_REACTORS
330
C
102
}
330
C
100
AcDbDictionary
281
     1
  3
Standard
350
67
  0
DICTIONARY
  5
5F
102
{ACAD_REACTORS
330
C
102
}
330
C
100
AcDbDictionary
281
     1
  3
Standard
350
60
  0
DICTIONARY
  5
61
102
{ACAD_REACTORS
330
C
102
}
330
C
100
AcDbDictionary
281
     1
  0
ACDBDICTIONARYWDFLT
  5
E
102
{ACAD_REACTORS
330
C
102
}
330
C
100
AcDbDictionary
281
     1
  3
Normal
350
F
100
AcDbDictionaryWithDefault
340
F
  0
DICTIONARY
  5
42
102
{ACAD_REACTORS
330
C
102
}
330
C
100
AcDbDictionary
281
     1
  3
A0
350
43
  3
A1
350
44
  3
A2
350
45
  3
A3
350
46
  3
A4
350
47
  3
A5
350
48
  3
A6
350
49
  3
A7
350
4A
  3
A8
350
4B
  3
A9
350
4C
  3
B0
350
4D
  3
B1
350
4E
  3
B2
350
4F
  3
B3
350
50
  3
B4
350
51
  3
B5
350
52
  3
B6
350
53
  0
DICTIONARY
  5
68
102
{ACAD_REACTORS
330
C
102
}
330
C
100
AcDbDictionary
281
     1
  3
Imperial24
350
69
  0
DICTIONARY
  5
64
102
{ACAD_REACTORS
330
C
102
}
330
C
100
AcDbDictionary
281
     1
  3
Standard
350
65
  0
DICTIONARY
  5
29
102
{ACAD_REACTORS
330
C
102
}
330
C
100
AcDbDictionary
281
     1
  3
2dWireframe
350
2F
  3
Basic
350
2E
  3
Brighten
350
35
  3
ColorChange
350
39
  3
Conceptual
350
32
  3
Dim
350
34
  3
EdgeColorOff
350
41
  3
Facepattern
350
38
  3
Flat
350
2A
  3
FlatWithEdges
350
2B
  3
Gouraud
350
2C
  3
GouraudWithEdges
350
2D
  3
Hidden
350
31
  3
JitterOff
350
3F
  3
Linepattern
350
37
  3
OverhangOff
350
40
  3
Realistic
350
33
  3
Shaded
350
3E
  3
Shaded with edges
350
3D
  3
Shades of Gray
350
3A
  3
Sketchy
350
3B
  3
Thicken
350
36
  3
Wireframe
350
30
  3
X-Ray
350
3C
  0
XRECORD
  5
BE
102
{ACAD_REACTORS
330
C
102
}
330
C
100
AcDbXrecord
280
     1
 90
        1
330
65
  0
DICTIONARY
  5
B6
102
{ACAD_REACTORS
330
C
102
}
330
C
100
AcDbDictionary
281
     1
  3
CANNOSCALE
350
BB
  3
CMLEADERSTYLE
350
B8
  3
CTABLESTYLE
350
B7
  3
CVIEWDETAILSTYLE
350
B9
  3
CVIEWSECTIONSTYLE
350
BA
  0
ACDBDETAILVIEWSTYLE
  5
6B
102
{ACAD_REACTORS
330
6A
102
}
330
6A
100
AcDbModelDocViewStyle
 70
     0
  3
Imperial24
290
     1
300
Imperial24
 90
        0
100
AcDbDetailViewStyle
 70
     0
 71
     0
 90
        3
 71
     1
340
55
 62
   256
 40
0.24
340
0
 62
   256
 40
0.24
300

 40
0.36
280
     3
 71
     2
340
5D
 90
       25
 62
   256
 71
     3
340
55
 62
   256
 40
0.24
 90
        1
 40
0.75
 90
        1
300
%<\AcVar ViewType \f "%tc1">% %<\AcVar ViewDetailId>%\PSCALE %<\AcVar ViewScale \f "%sn">%
 71
     4
340
5D
 90
       25
 62
   256
340
5D
 90
       25
 62
   256
280
     0
  0
LAYOUT
  5
6F
102
{ACAD_REACTORS
330
62
102
}
330
62
100
AcDbPlotSettings
  1

  2

  4

  6

 40
0.0
 41
0.0
 42
0.0
 43
0.0
 44
0.0
 45
0.0
 46
0.0
 47
0.0
 48
0.0
 49
0.0
140
0.0
141
0.0
142
1.0
143
1.0
 70
   688
 72
     0
 73
     0
 74
     5
  7

 75
    16
147
1.0
 76
     0
 77
     2
 78
   300
148
0.0
149
0.0
100
AcDbLayout
  1
Layout1
 70
     1
 71
     1
 10
0.0
 20
0.0
 11
12.0
 21
9.0
 12
0.0
 22
0.0
 32
0.0
 14
0.0
 24
0.0
 34
0.0
 15
0.0
 25
0.0
 35
0.0
146
0.0
 13
0.0
 23
0.0
 33
0.0
 16
1.0
 26
0.0
 36
0.0
 17
0.0
 27
1.0
 37
0.0
 76
     0
330
6C
  0
LAYOUT
  5
77
102
{ACAD_REACTORS
330
62
102
}
330
62
100
AcDbPlotSettings
  1

  2

  4

  6

 40
0.0
 41
0.0
 42
0.0
 43
0.0
 44
0.0
 45
0.0
 46
0.0
 47
0.0
 48
0.0
 49
0.0
140
0.0
141
0.0
142
1.0
143
1.0
 70
   688
 72
     0
 73
     0
 74
     5
  7

 75
    16
147
1.0
 76
     0
 77
     2
 78
   300
148
0.0
149
0.0
100
AcDbLayout
  1
Layout2
 70
     1
 71
     2
 10
0.0
 20
0.0
 11
12.0
 21
9.0
 12
0.0
 22
0.0
 32
0.0
 14
0.0
 24
0.0
 34
0.0
 15
0.0
 25
0.0
 35
0.0
146
0.0
 13
0.0
 23
0.0
 33
0.0
 16
1.0
 26
0.0
 36
0.0
 17
0.0
 27
1.0
 37
0.0
 76
     0
330
74
  0
LAYOUT
  5
73
102
{ACAD_REACTORS
330
62
102
}
330
62
100
AcDbPlotSettings
  1

  2

  4

  6

 40
0.0
 41
0.0
 42
0.0
 43
0.0
 44
0.0
 45
0.0
 46
0.0
 47
0.0
 48
0.0
 49
0.0
140
0.0
141
0.0
142
1.0
143
1.0
 70
  1712
 72
     0
 73
     0
 74
     0
  7

 75
     0
147
1.0
 76
     0
 77
     2
 78
   300
148
0.0
149
0.0
100
AcDbLayout
  1
Model
 70
     1
 71
     0
 10
0.0
 20
0.0
 11
12.0
 21
9.0
 12
0.0
 22
0.0
 32
0.0
 14
0.0
 24
0.0
 34
0.0
 15
0.0
 25
0.0
 35
0.0
146
0.0
 13
0.0
 23
0.0
 33
0.0
 16
1.0
 26
0.0
 36
0.0
 17
0.0
 27
1.0
 37
0.0
 76
     0
330
70
  0
MATERIAL
  5
19
102
{ACAD_XDICTIONARY
360
1A
102
}
102
{ACAD_REACTORS
330
10
102
}
330
10
100
AcDbMaterial
  1
ByBlock
 72
     0
 43
0.0208333333333333
 43
0.0
 43
0.0
 43
0.0
 43
0.0
 43
0.0208333333333333
 43
0.0
 43
0.0
 43
0.0
 43
0.0
 43
1.0
 43
0.0
 43
0.0
 43
0.0
 43
0.0
 43
1.0
 77
     0
 47
0.0208333333333333
 47
0.0
 47
0.0
 47
0.0
 47
0.0
 47
0.0208333333333333
 47
0.0
 47
0.0
 47
0.0
 47
0.0
 47
1.0
 47
0.0
 47
0.0
 47
0.0
 47
0.0
 47
1.0
171
     0
 49
0.0208333333333333
 49
0.0
 49
0.0
 49
0.0
 49
0.0
 49
0.0208333333333333
 49
0.0
 49
0.0
 49
0.0
 49
0.0
 49
1.0
 49
0.0
 49
0.0
 49
0.0
 49
0.0
 49
1.0
175
     0
142
0.0208333333333333
142
0.0
142
0.0
142
0.0
142
0.0
142
0.0208333333333333
142
0.0
142
0.0
142
0.0
142
0.0
142
1.0
142
0.0
142
0.0
142
0.0
142
0.0
142
1.0
179
     0
144
0.0208333333333333
144
0.0
144
0.0
144
0.0
144
0.0
144
0.0208333333333333
144
0.0
144
0.0
144
0.0
144
0.0
144
1.0
144
0.0
144
0.0
144
0.0
144
0.0
144
1.0
147
0.0208333333333333
147
0.0
147
0.0
147
0.0
147
0.0
147
0.0208333333333333
147
0.0
147
0.0
147
0.0
147
0.0
147
1.0
147
0.0
147
0.0
147
0.0
147
0.0
147
1.0
  0
MATERIAL
  5
11
102
{ACAD_XDICTIONARY
360
12
102
}
102
{ACAD_REACTORS
330
10
102
}
330
10
100
AcDbMaterial
  1
ByLayer
 72
     0
 43
0.0208333333333333
 43
0.0
 43
0.0
 43
0.0
 43
0.0
 43
0.0208333333333333
 43
0.0
 43
0.0
 43
0.0
 43
0.0
 43
1.0
 43
0.0
 43
0.0
 43
0.0
 43
0.0
 43
1.0
 77
     0
 47
0.0208333333333333
 47
0.0
 47
0.0
 47
0.0
 47
0.0
 47
0.0208333333333333
 47
0.0
 47
0.0
 47
0.0
 47
0.0
 47
1.0
 47
0.0
 47
0.0
 47
0.0
 47
0.0
 47
1.0
171
     0
 49
0.0208333333333333
 49
0.0
 49
0.0
 49
0.0
 49
0.0
 49
0.0208333333333333
 49
0.0
 49
0.0
 49
0.0
 49
0.0
 49
1.0
 49
0.0
 49
0.0
 49
0.0
 49
0.0
 49
1.0
175
     0
142
0.0208333333333333
142
0.0
142
0.0
142
0.0
142
0.0
142
0.0208333333333333
142
0.0
142
0.0
142
0.0
142
0.0
142
1.0
142
0.0
142
0.0
142
0.0
142
0.0
142
1.0
179
     0
144
0.0208333333333333
144
0.0
144
0.0
144
0.0
144
0.0
144
0.0208333333333333
144
0.0
144
0.0
144
0.0
144
0.0
144
1.0
144
0.0
144
0.0
144
0.0
144
0.0
144
1.0
147
0.0208333333333333
147
0.0
147
0.0
147
0.0
147
0.0
147
0.0208333333333333
147
0.0
147
0.0
147
0.0
147
0.0
147
1.0
147
0.0
147
0.0
147
0.0
147
0.0
147
1.0
  0
MATERIAL
  5
21
102
{ACAD_XDICTIONARY
360
22
102
}
102
{ACAD_REACTORS
330
10
102
}
330
10
100
AcDbMaterial
  1
Global
 72
     0
 43
0.0208333333333333
 43
0.0
 43
0.0
 43
0.0
 43
0.0
 43
0.0208333333333333
 43
0.0
 43
0.0
 43
0.0
 43
0.0
 43
1.0
 43
0.0
 43
0.0
 43
0.0
 43
0.0
 43
1.0
 77
     0
 47
0.0208333333333333
 47
0.0
 47
0.0
 47
0.0
 47
0.0
 47
0.0208333333333333
 47
0.0
 47
0.0
 47
0.0
 47
0.0
 47
1.0
 47
0.0
 47
0.0
 47
0.0
 47
0.0
 47
1.0
171
     0
 49
0.0208333333333333
 49
0.0
 49
0.0
 49
0.0
 49
0.0
 49
0.0208333333333333
 49
0.0
 49
0.0
 49
0.0
 49
0.0
 49
1.0
 49
0.0
 49
0.0
 49
0.0
 49
0.0
 49
1.0
175
     0
142
0.0208333333333333
142
0.0
142
0.0
142
0.0
142
0.0
142
0.0208333333333333
142
0.0
142
0.0
142
0.0
142
0.0
142
1.0
142
0.0
142
0.0
142
0.0
142
0.0
142
1.0
179
     0
144
0.0208333333333333
144
0.0
144
0.0
144
0.0
144
0.0
144
0.0208333333333333
144
0.0
144
0.0
144
0.0
144
0.0
144
1.0
144
0.0
144
0.0
144
0.0
144
0.0
144
1.0
147
0.0208333333333333
147
0.0
147
0.0
147
0.0
147
0.0
147
0.0208333333333333
147
0.0
147
0.0
147
0.0
147
0.0
147
1.0
147
0.0
147
0.0
147
0.0
147
0.0
147
1.0
  0
MLEADERSTYLE
  5
67
102
{ACAD_REACTORS
330
66
102
}
330
66
100
AcDbMLeaderStyle
179
     2
170
     2
171
     1
172
     0
 90
        2
 40
0.0
 41
0.0
173
     1
 91
-1056964608
340
5B
 92
       -2
290
     1
 42
0.09
291
     1
 43
0.36
  3
Standard
 44
0.18
300

342
55
174
     1
178
     6
175
     1
176
     0
 93
-1056964608
 45
0.18
292
     0
297
     0
 46
0.18
 94
-1056964608
 47
1.0
 49
1.0
140
1.0
293
     1
141
0.0
294
     1
177
     0
142
1.0
295
     1
296
     0
143
0.125
271
     0
272
     9
273
     9
298
     1
  0
MLINESTYLE
  5
60
102
{ACAD_REACTORS
330
5F
102
}
330
5F
100
AcDbMlineStyle
  2
STANDARD
 70
     0
  3

 62
   256
 51
90.0
 52
90.0
 71
     2
 49
0.5
 62
   256
  6
BYLAYER
 49
-0.5
 62
   256
  6
BYLAYER
  0
ACDBPLACEHOLDER
  5
F
102
{ACAD_REACTORS
330
E
102
}
330
E
  0
SCALE
  5
43
102
{ACAD_REACTORS
330
42
102
}
330
42
100
AcDbScale
 70
     0
300
1:1
140
1.0
141
1.0
290
     1
  0
SCALE
  5
44
102
{ACAD_REACTORS
330
42
102
}
330
42
100
AcDbScale
 70
     0
300
1/128" = 1'-0"
140
0.0078125
141
12.0
290
     0
  0
SCALE
  5
45
102
{ACAD_REACTORS
330
42
102
}
330
42
100
AcDbScale
 70
     0
300
1/64" = 1'-0"
140
0.015625
141
12.0
290
     0
  0
SCALE
  5
46
102
{ACAD_REACTORS
330
42
102
}
330
42
100
AcDbScale
 70
     0
300
1/32" = 1'-0"
140
0.03125
141
12.0
290
     0
  0
SCALE
  5
47
102
{ACAD_REACTORS
330
42
102
}
330
42
100
AcDbScale
 70
     0
300
1/16" = 1'-0"
140
0.0625
141
12.0
290
     0
  0
SCALE
  5
48
102
{ACAD_REACTORS
330
42
102
}
330
42
100
AcDbScale
 70
     0
300
3/32" = 1'-0"
140
0.09375
141
12.0
290
     0
  0
SCALE
  5
49
102
{ACAD_REACTORS
330
42
102
}
330
42
100
AcDbScale
 70
     0
300
1/8" = 1'-0"
140
0.125
141
12.0
290
     0
  0
SCALE
  5
4A
102
{ACAD_REACTORS
330
42
102
}
330
42
100
AcDbScale
 70
     0
300
3/16" = 1'-0"
140
0.1875
141
12.0
290
     0
  0
SCALE
  5
4B
102
{ACAD_REACTORS
330
42
102
}
330
42
100
AcDbScale
 70
     0
300
1/4" = 1'-0"
140
0.25
141
12.0
290
     0
  0
SCALE
  5
4C
102
{ACAD_REACTORS
330
42
102
}
330
42
100
AcDbScale
 70
     0
300
3/8" = 1'-0"
140
0.375
141
12.0
290
     0
  0
SCALE
  5
4D
102
{ACAD_REACTORS
330
42
102
}
330
42
100
AcDbScale
 70
     0
300
1/2" = 1'-0"
140
0.5
141
12.0
290
     0
  0
SCALE
  5
4E
102
{ACAD_REACTORS
330
42
102
}
330
42
100
AcDbScale
 70
     0
300
3/4" = 1'-0"
140
0.75
141
12.0
290
     0
  0
SCALE
  5
4F
102
{ACAD_REACTORS
330
42
102
}
330
42
100
AcDbScale
 70
     0
300
1" = 1'-0"
140
1.0
141
12.0
290
     0
  0
SCALE
  5
50
102
{ACAD_REACTORS
330
42
102
}
330
42
100
AcDbScale
 70
     0
300
1-1/2" = 1'-0"
140
1.5
141
12.0
290
     0
  0
SCALE
  5
51
102
{ACAD_REACTORS
330
42
102
}
330
42
100
AcDbScale
 70
     0
300
3" = 1'-0"
140
3.0
141
12.0
290
     0
  0
SCALE
  5
52
102
{ACAD_REACTORS
330
42
102
}
330
42
100
AcDbScale
 70
     0
300
6" = 1'-0"
140
6.0
141
12.0
290
     0
  0
SCALE
  5
53
102
{ACAD_REACTORS
330
42
102
}
330
42
100
AcDbScale
 70
     0
300
1'-0" = 1'-0"
140
12.0
141
12.0
290
     0
  0
ACDBSECTIONVIEWSTYLE
  5
69
102
{ACAD_REACTORS
330
68
102
}
330
68
100
AcDbModelDocViewStyle
 70
     0
  3
Imperial24
290
     1
300
Imperial24
 90
        0
100
AcDbSectionViewStyle
 70
     0
 71
     0
 90
       78
 71
     1
340
55
 62
   256
 40
0.24
340
0
340
0
 62
   256
 40
0.24
300
I, O, Q, S, X, Z
 40
0.48
 90
        3
 40
0.18
 90
        1
 71
     2
340
5D
 90
       25
 62
   256
340
5D
 90
       50
 62
   256
 40
0.24
 40
0.0
 40
0.24
 71
     3
340
55
 62
   256
 40
0.24
 90
        1
 40
0.75
 90
        1
300
%<\AcVar ViewType \f "%tc1">% %<\AcVar ViewSectionStartId>%-%<\AcVar ViewSectionEndId>%\PSCALE %<\AcVar ViewScale \f "%sn">%
 71
     4
 62
   256
 62
   257
300
ANSI31
 40
1.0
 90
        0
290
     0
290
     0
 90
        6
 40
0.0
 40
1.570796326794896
 40
0.2617993877991494
 40
1.308996938995747
 40
-0.2617993877991494
 40
1.832595714594046
  0
TABLESTYLE
  5
65
102
{ACAD_XDICTIONARY
360
BC
102
}
102
{ACAD_REACTORS
330
64
102
}
330
64
100
AcDbTableStyle
280
     0
  3
Standard
 70
     0
 71
     0
 40
0.06
 41
0.06
280
     0
281
     0
  7
Standard
140
0.18
170
     2
 62
     0
 63
     7
283
     0
 90
      512
 91
        0
  1

274
    -2
284
     1
 64
     0
275
    -2
285
     1
 65
     0
276
    -2
286
     1
 66
     0
277
    -2
287
     1
 67
     0
278
    -2
288
     1
 68
     0
279
    -2
289
     1
 69
     0
  7
Standard
140
0.25
170
     5
 62
     0
 63
     7
283
     0
 90
      512
 91
        0
  1

274
    -2
284
     1
 64
     0
275
    -2
285
     1
 65
     0
276
    -2
286
     1
 66
     0
277
    -2
287
     1
 67
     0
278
    -2
288
     1
 68
     0
279
    -2
289
     1
 69
     0
  7
Standard
140
0.18
170
     5
 62
     0
 63
     7
283
     0
 90
      512
 91
        0
  1

274
    -2
284
     1
 64
     0
275
    -2
285
     1
 65
     0
276
    -2
286
     1
 66
     0
277
    -2
287
     1
 67
     0
278
    -2
288
     1
 68
     0
279
    -2
289
     1
 69
     0
  0
VISUALSTYLE
  5
2F
102
{ACAD_REACTORS
330
29
102
}
330
29
100
AcDbVisualStyle
  2
2dWireframe
 70
     4
177
     3
291
     0
 70
    58
 90
        0
176
     1
 90
        2
176
     1
 90
        0
176
     1
 90
        0
176
     1
 40
0.6
176
     1
 40
30.0
176
     1
 62
     7
420
 16777215
176
     1
 90
        1
176
     1
 90
        4
176
     1
 62
     7
176
     1
 62
   257
176
     1
 90
        1
176
     1
 90
        1
176
     1
 40
1.0
176
     1
 90
        0
176
     1
 62
   257
176
     1
 40
1.0
176
     1
 90
        1
176
     1
 90
        6
176
     1
 90
        2
176
     1
 62
     7
176
     1
 90
        5
176
     1
 90
        0
176
     1
 90
        0
176
     1
290
     0
176
     1
 90
        1
176
     1
 40
0.0
176
     1
 90
        0
176
     1
290
     1
176
     1
290
     1
176
     1
290
     0
176
     1
290
     0
176
     1
290
     0
176
     1
290
     0
176
     1
290
     0
176
     1
290
     0
176
     1
290
     0
176
     1
 90
       50
176
     1
 40
0.0
176
     1
 40
1.0
176
     1
 90
        0
176
     1
 62
    18
420
        0
176
     1
 90
       50
176
     1
 90
        3
176
     1
 62
     5
420
      255
176
     1
290
     0
176
     1
 90
       50
176
     1
 90
       50
176
     1
 90
       50
176
     1
290
     0
176
     1
 90
       50
176
     1
 62
   256
176
     0
 40
1.0
176
     0
 90
        2
176
     1
  1
strokes_ogs.tif
176
     1
290
     0
176
     1
 40
1.0
176
     1
 40
1.0
176
     1
  0
VISUALSTYLE
  5
2E
102
{ACAD_REACTORS
330
29
102
}
330
29
100
AcDbVisualStyle
  2
Basic
 70
     7
177
     3
291
     1
 70
    58
 90
        1
176
     1
 90
        0
176
     1
 90
        1
176
     1
 90
        0
176
     1
 40
0.6
176
     1
 40
30.0
176
     1
 62
     7
420
 16777215
176
     1
 90
        0
176
     1
 90
        4
176
     1
 62
     7
176
     1
 62
   257
176
     1
 90
        1
176
     1
 90
        1
176
     1
 40
1.0
176
     1
 90
        8
176
     1
 62
     7
176
     1
 40
1.0
176
     1
 90
        1
176
     1
 90
        6
176
     1
 90
        2
176
     1
 62
     7
176
     1
 90
        5
176
     1
 90
        0
176
     1
 90
        0
176
     1
290
     0
176
     1
 90
        1
176
     1
 40
0.0
176
     1
 90
        0
176
     1
290
     0
176
     1
290
     1
176
     1
290
     1
176
     1
290
     0
176
     1
290
     0
176
     1
290
     0
176
     1
290
     0
176
     1
290
     0
176
     1
290
     0
176
     1
 90
       50
176
     1
 40
0.0
176
     1
 40
1.0
176
     1
 90
        0
176
     1
 62
    18
420
        0
176
     1
 90
       50
176
     1
 90
        3
176
     1
 62
     5
420
      255
176
     1
290
     0
176
     1
 90
       50
176
     1
 90
       50
176
     1
 90
       50
176
     1
290
     0
176
     1
 90
       50
176
     1
 62
   256
176
     0
 40
1.0
176
     0
 90
        2
176
     1
  1
strokes_ogs.tif
176
     1
290
     0
176
     1
 40
1.0
176
     1
 40
1.0
176
     1
  0
VISUALSTYLE
  5
35
102
{ACAD_REACTORS
330
29
102
}
330
29
100
AcDbVisualStyle
  2
Brighten
 70
    12
177
     3
291
     1
 70
    58
 90
        2
176
     1
 90
        2
176
     1
 90
        0
176
     1
 90
        0
176
     1
 40
0.6
176
     1
 40
30.0
176
     1
 62
     7
420
 16777215
176
     1
 90
        1
176
     1
 90
        4
176
     1
 62
     7
176
     1
 62
   257
176
     1
 90
        1
176
     1
 90
        1
176
     1
 40
1.0
176
     1
 90
        8
176
     1
 62
     7
176
     1
 40
1.0
176
     1
 90
        1
176
     1
 90
        6
176
     1
 90
        2
176
     1
 62
     7
176
     1
 90
        5
176
     1
 90
        0
176
     1
 90
        0
176
     1
290
     0
176
     1
 90
        1
176
     1
 40
50.0
176
     1
 90
        0
176
     1
290
     0
176
     1
290
     1
176
     1
290
     1
176
     1
290
     0
176
     1
290
     0
176
     1
290
     0
176
     1
290
     0
176
     1
290
     0
176
     1
290
     0
176
     1
 90
       50
176
     1
 40
0.0
176
     1
 40
1.0
176
     1
 90
        0
176
     1
 62
    18
420
        0
176
     1
 90
       50
176
     1
 90
        3
176
     1
 62
     5
420
      255
176
     1
290
     0
176
     1
 90
       50
176
     1
 90
       50
176
     1
 90
       50
176
     1
290
     0
176
     1
 90
       50
176
     1
 62
   256
176
     0
 40
1.0
176
     0
 90
        2
176
     1
  1
strokes_ogs.tif
176
     1
290
     0
176
     1
 40
1.0
176
     1
 40
1.0
176
     1
  0
VISUALSTYLE
  5
39
102
{ACAD_REACTORS
330
29
102
}
330
29
100
AcDbVisualStyle
  2
ColorChange
 70
    16
177
     3
291
     1
 70
    58
 90
        2
176
     1
 90
        2
176
     1
 90
        3
176
     1
 90
        0
176
     1
 40
0.6
176
     1
 40
30.0
176
     1
 62
     8
420
  8421504
176
     1
 90
        1
176
     1
 90
        4
176
     1
 62
     7
176
     1
 62
   257
176
     1
 90
        1
176
     1
 90
        1
176
     1
 40
1.0
176
     1
 90
        8
176
     1
 62
     8
420
  8421504
176
     1
 40
1.0
176
     1
 90
        1
176
     1
 90
        6
176
     1
 90
        2
176
     1
 62
     7
176
     1
 90
        5
176
     1
 90
        0
176
     1
 90
        0
176
     1
290
     0
176
     1
 90
        1
176
     1
 40
0.0
176
     1
 90
        0
176
     1
290
     0
176
     1
290
     1
176
     1
290
     1
176
     1
290
     0
176
     1
290
     0
176
     1
290
     0
176
     1
290
     0
176
     1
290
     0
176
     1
290
     0
176
     1
 90
       50
176
     1
 40
0.0
176
     1
 40
1.0
176
     1
 90
        0
176
     1
 62
    18
420
        0
176
     1
 90
       50
176
     1
 90
        3
176
     1
 62
     5
420
      255
176
     1
290
     0
176
     1
 90
       50
176
     1
 90
       50
176
     1
 90
       50
176
     1
290
     0
176
     1
 90
       50
176
     1
 62
   256
176
     0
 40
1.0
176
     0
 90
        2
176
     1
  1
strokes_ogs.tif
176
     1
290
     0
176
     1
 40
1.0
176
     1
 40
1.0
176
     1
  0
VISUALSTYLE
  5
32
102
{ACAD_REACTORS
330
29
102
}
330
29
100
AcDbVisualStyle
  2
Conceptual
 70
     9
177
     3
291
     0
 70
    58
 90
        3
176
     1
 90
        2
176
     1
 90
        0
176
     1
 90
        0
176
     1
 40
0.6
176
     1
 40
30.0
176
     1
 62
     7
420
 16777215
176
     1
 90
        2
176
     1
 90
        2
176
     1
 62
     7
176
     1
 62
   257
176
     1
 90
        1
176
     1
 90
        1
176
     1
 40
179.0
176
     1
 90
        8
176
     1
 62
     7
176
     1
 40
1.0
176
     1
 90
        1
176
     1
 90
        6
176
     1
 90
        2
176
     1
 62
     7
176
     1
 90
        3
176
     1
 90
        0
176
     1
 90
        0
176
     1
290
     0
176
     1
 90
        1
176
     1
 40
0.0
176
     1
 90
        0
176
     1
290
     0
176
     1
290
     1
176
     1
290
     1
176
     1
290
     0
176
     1
290
     0
176
     1
290
     0
176
     1
290
     0
176
     1
290
     0
176
     1
290
     0
176
     1
 90
       50
176
     1
 40
0.0
176
     1
 40
1.0
176
     1
 90
        0
176
     1
 62
    18
420
        0
176
     1
 90
       50
176
     1
 90
        3
176
     1
 62
     5
420
      255
176
     1
290
     0
176
     1
 90
       50
176
     1
 90
       50
176
     1
 90
       50
176
     1
290
     0
176
     1
 90
       50
176
     1
 62
   256
176
     0
 40
1.0
176
     0
 90
        2
176
     1
  1
strokes_ogs.tif
176
     1
290
     0
176
     1
 40
1.0
176
     1
 40
1.0
176
     1
  0
VISUALSTYLE
  5
34
102
{ACAD_REACTORS
330
29
102
}
330
29
100
AcDbVisualStyle
  2
Dim
 70
    11
177
     3
291
     1
 70
    58
 90
        2
176
     1
 90
        2
176
     1
 90
        0
176
     1
 90
        0
176
     1
 40
0.6
176
     1
 40
30.0
176
     1
 62
     7
420
 16777215
176
     1
 90
        1
176
     1
 90
        4
176
     1
 62
     7
176
     1
 62
   257
176
     1
 90
        1
176
     1
 90
        1
176
     1
 40
1.0
176
     1
 90
        8
176
     1
 62
     7
176
     1
 40
1.0
176
     1
 90
        1
176
     1
 90
        6
176
     1
 90
        2
176
     1
 62
     7
176
     1
 90
        5
176
     1
 90
        0
176
     1
 90
        0
176
     1
290
     0
176
     1
 90
        1
176
     1
 40
-50.0
176
     1
 90
        0
176
     1
290
     0
176
     1
290
     1
176
     1
290
     1
176
     1
290
     0
176
     1
290
     0
176
     1
290
     0
176
     1
290
     0
176
     1
290
     0
176
     1
290
     0
176
     1
 90
       50
176
     1
 40
0.0
176
     1
 40
1.0
176
     1
 90
        0
176
     1
 62
    18
420
        0
176
     1
 90
       50
176
     1
 90
        3
176
     1
 62
     5
420
      255
176
     1
290
     0
176
     1
 90
       50
176
     1
 90
       50
176
     1
 90
       50
176
     1
290
     0
176
     1
 90
       50
176
     1
 62
   256
176
     0
 40
1.0
176
     0
 90
        2
176
     1
  1
strokes_ogs.tif
176
     1
290
     0
176
     1
 40
1.0
176
     1
 40
1.0
176
     1
  0
VISUALSTYLE
  5
41
102
{ACAD_REACTORS
330
29
102
}
330
29
100
AcDbVisualStyle
  2
EdgeColorOff
 70
    22
177
     3
291
     1
 70
    58
 90
        2
176
     0
 90
        2
176
     0
 90
        0
176
     0
 90
        0
176
     0
 40
0.6
176
     0
 40
30.0
176
     0
 62
     7
420
 16777215
176
     0
 90
        1
176
     0
 90
        4
176
     0
 62
     7
176
     0
 62
   257
176
     0
 90
        1
176
     0
 90
        1
176
     0
 40
1.0
176
     0
 90
        8
176
     2
 62
     7
176
     0
 40
1.0
176
     0
 90
        1
176
     0
 90
        6
176
     0
 90
        2
176
     0
 62
     7
176
     0
 90
        5
176
     0
 90
        0
176
     0
 90
        0
176
     0
290
     0
176
     0
 90
        1
176
     0
 40
0.0
176
     0
 90
        0
176
     0
290
     0
176
     0
290
     1
176
     0
290
     1
176
     0
290
     0
176
     0
290
     0
176
     0
290
     0
176
     0
290
     0
176
     0
290
     0
176
     0
290
     0
176
     0
 90
       50
176
     0
 40
0.0
176
     0
 40
1.0
176
     0
 90
        0
176
     0
 62
    18
420
        0
176
     0
 90
       50
176
     0
 90
        3
176
     0
 62
     5
420
      255
176
     0
290
     0
176
     0
 90
       50
176
     0
 90
       50
176
     0
 90
       50
176
     0
290
     0
176
     0
 90
       50
176
     0
 62
   256
176
     0
 40
1.0
176
     0
 90
        2
176
     0
  1
strokes_ogs.tif
176
     0
290
     0
176
     0
 40
1.0
176
     0
 40
1.0
176
     0
  0
VISUALSTYLE
  5
38
102
{ACAD_REACTORS
330
29
102
}
330
29
100
AcDbVisualStyle
  2
Facepattern
 70
    15
177
     3
291
     1
 70
    58
 90
        2
176
     1
 90
        2
176
     1
 90
        0
176
     1
 90
        0
176
     1
 40
0.6
176
     1
 40
30.0
176
     1
 62
     7
420
 16777215
176
     1
 90
        1
176
     1
 90
        4
176
     1
 62
     7
176
     1
 62
   257
176
     1
 90
        1
176
     1
 90
        1
176
     1
 40
1.0
176
     1
 90
        8
176
     1
 62
     7
176
     1
 40
1.0
176
     1
 90
        1
176
     1
 90
        6
176
     1
 90
        2
176
     1
 62
     7
176
     1
 90
        5
176
     1
 90
        0
176
     1
 90
        0
176
     1
290
     0
176
     1
 90
        1
176
     1
 40
0.0
176
     1
 90
        0
176
     1
290
     0
176
     1
290
     1
176
     1
290
     1
176
     1
290
     0
176
     1
290
     0
176
     1
290
     0
176
     1
290
     0
176
     1
290
     0
176
     1
290
     0
176
     1
 90
       50
176
     1
 40
0.0
176
     1
 40
1.0
176
     1
 90
        0
176
     1
 62
    18
420
        0
176
     1
 90
       50
176
     1
 90
        3
176
     1
 62
     5
420
      255
176
     1
290
     0
176
     1
 90
       50
176
     1
 90
       50
176
     1
 90
       50
176
     1
290
     0
176
     1
 90
       50
176
     1
 62
   256
176
     0
 40
1.0
176
     0
 90
        2
176
     1
  1
strokes_ogs.tif
176
     1
290
     0
176
     1
 40
1.0
176
     1
 40
1.0
176
     1
  0
VISUALSTYLE
  5
2A
102
{ACAD_REACTORS
330
29
102
}
330
29
100
AcDbVisualStyle
  2
Flat
 70
     0
177
     3
291
     1
 70
    58
 90
        2
176
     1
 90
        1
176
     1
 90
        1
176
     1
 90
        2
176
     1
 40
0.6
176
     1
 40
30.0
176
     1
 62
     7
420
 16777215
176
     1
 90
        0
176
     1
 90
        0
176
     1
 62
     7
176
     1
 62
   257
176
     1
 90
        1
176
     1
 90
        1
176
     1
 40
1.0
176
     1
 90
        8
176
     1
 62
     7
176
     1
 40
1.0
176
     1
 90
        1
176
     1
 90
        6
176
     1
 90
        2
176
     1
 62
     7
176
     1
 90
        5
176
     1
 90
        0
176
     1
 90
        0
176
     1
290
     0
176
     1
 90
       13
176
     1
 40
0.0
176
     1
 90
        0
176
     1
290
     0
176
     1
290
     1
176
     1
290
     1
176
     1
290
     0
176
     1
290
     0
176
     1
290
     0
176
     1
290
     0
176
     1
290
     0
176
     1
290
     0
176
     1
 90
       50
176
     1
 40
0.0
176
     1
 40
1.0
176
     1
 90
        0
176
     1
 62
    18
420
        0
176
     1
 90
       50
176
     1
 90
        3
176
     1
 62
     5
420
      255
176
     1
290
     0
176
     1
 90
       50
176
     1
 90
       50
176
     1
 90
       50
176
     1
290
     0
176
     1
 90
       50
176
     1
 62
   256
176
     0
 40
1.0
176
     0
 90
        2
176
     1
  1
strokes_ogs.tif
176
     1
290
     0
176
     1
 40
1.0
176
     1
 40
1.0
176
     1
  0
VISUALSTYLE
  5
2B
102
{ACAD_REACTORS
330
29
102
}
330
29
100
AcDbVisualStyle
  2
FlatWithEdges
 70
     1
177
     3
291
     1
 70
    58
 90
        2
176
     1
 90
        1
176
     1
 90
        1
176
     1
 90
        2
176
     1
 40
0.6
176
     1
 40
30.0
176
     1
 62
     7
420
 16777215
176
     1
 90
        1
176
     1
 90
        0
176
     1
 62
     7
176
     1
 62
   257
176
     1
 90
        1
176
     1
 90
        1
176
     1
 40
1.0
176
     1
 90
        0
176
     1
 62
   257
176
     1
 40
1.0
176
     1
 90
        1
176
     1
 90
        6
176
     1
 90
        2
176
     1
 62
     7
176
     1
 90
        5
176
     1
 90
        0
176
     1
 90
        0
176
     1
290
     0
176
     1
 90
       13
176
     1
 40
0.0
176
     1
 90
        0
176
     1
290
     0
176
     1
290
     1
176
     1
290
     1
176
     1
290
     0
176
     1
290
     0
176
     1
290
     0
176
     1
290
     0
176
     1
290
     0
176
     1
290
     0
176
     1
 90
       50
176
     1
 40
0.0
176
     1
 40
1.0
176
     1
 90
        0
176
     1
 62
    18
420
        0
176
     1
 90
       50
176
     1
 90
        3
176
     1
 62
     5
420
      255
176
     1
290
     0
176
     1
 90
       50
176
     1
 90
       50
176
     1
 90
       50
176
     1
290
     0
176
     1
 90
       50
176
     1
 62
   256
176
     0
 40
1.0
176
     0
 90
        2
176
     1
  1
strokes_ogs.tif
176
     1
290
     0
176
     1
 40
1.0
176
     1
 40
1.0
176
     1
  0
VISUALSTYLE
  5
2C
102
{ACAD_REACTORS
330
29
102
}
330
29
100
AcDbVisualStyle
  2
Gouraud
 70
     2
177
     3
291
     1
 70
    58
 90
        2
176
     1
 90
        2
176
     1
 90
        1
176
     1
 90
        2
176
     1
 40
0.6
176
     1
 40
30.0
176
     1
 62
     7
420
 16777215
176
     1
 90
        0
176
     1
 90
        0
176
     1
 62
     7
176
     1
 62
   257
176
     1
 90
        1
176
     1
 90
        1
176
     1
 40
1.0
176
     1
 90
        0
176
     1
 62
     7
176
     1
 40
1.0
176
     1
 90
        1
176
     1
 90
        6
176
     1
 90
        2
176
     1
 62
     7
176
     1
 90
        5
176
     1
 90
        0
176
     1
 90
        0
176
     1
290
     0
176
     1
 90
       13
176
     1
 40
0.0
176
     1
 90
        0
176
     1
290
     0
176
     1
290
     1
176
     1
290
     1
176
     1
290
     0
176
     1
290
     0
176
     1
290
     0
176
     1
290
     0
176
     1
290
     0
176
     1
290
     0
176
     1
 90
       50
176
     1
 40
0.0
176
     1
 40
1.0
176
     1
 90
        0
176
     1
 62
    18
420
        0
176
     1
 90
       50
176
     1
 90
        3
176
     1
 62
     5
420
      255
176
     1
290
     0
176
     1
 90
       50
176
     1
 90
       50
176
     1
 90
       50
176
     1
290
     0
176
     1
 90
       50
176
     1
 62
   256
176
     0
 40
1.0
176
     0
 90
        2
176
     1
  1
strokes_ogs.tif
176
     1
290
     0
176
     1
 40
1.0
176
     1
 40
1.0
176
     1
  0
VISUALSTYLE
  5
2D
102
{ACAD_REACTORS
330
29
102
}
330
29
100
AcDbVisualStyle
  2
GouraudWithEdges
 70
     3
177
     3
291
     1
 70
    58
 90
        2
176
     1
 90
        2
176
     1
 90
        1
176
     1
 90
        2
176
     1
 40
0.6
176
     1
 40
30.0
176
     1
 62
     7
420
 16777215
176
     1
 90
        1
176
     1
 90
        0
176
     1
 62
     7
176
     1
 62
   257
176
     1
 90
        1
176
     1
 90
        1
176
     1
 40
1.0
176
     1
 90
        0
176
     1
 62
   257
176
     1
 40
1.0
176
     1
 90
        1
176
     1
 90
        6
176
     1
 90
        2
176
     1
 62
     7
176
     1
 90
        5
176
     1
 90
        0
176
     1
 90
        0
176
     1
290
     0
176
     1
 90
       13
176
     1
 40
0.0
176
     1
 90
        0
176
     1
290
     0
176
     1
290
     1
176
     1
290
     1
176
     1
290
     0
176
     1
290
     0
176
     1
290
     0
176
     1
290
     0
176
     1
290
     0
176
     1
290
     0
176
     1
 90
       50
176
     1
 40
0.0
176
     1
 40
1.0
176
     1
 90
        0
176
     1
 62
    18
420
        0
176
     1
 90
       50
176
     1
 90
        3
176
     1
 62
     5
420
      255
176
     1
290
     0
176
     1
 90
       50
176
     1
 90
       50
176
     1
 90
       50
176
     1
290
     0
176
     1
 90
       50
176
     1
 62
   256
176
     0
 40
1.0
176
     0
 90
        2
176
     1
  1
strokes_ogs.tif
176
     1
290
     0
176
     1
 40
1.0
176
     1
 40
1.0
176
     1
  0
VISUALSTYLE
  5
31
102
{ACAD_REACTORS
330
29
102
}
330
29
100
AcDbVisualStyle
  2
Hidden
 70
     6
177
     3
291
     0
 70
    58
 90
        1
176
     1
 90
        2
176
     1
 90
        2
176
     1
 90
        0
176
     1
 40
0.6
176
     1
 40
30.0
176
     1
 62
     7
420
 16777215
176
     1
 90
        2
176
     1
 90
        2
176
     1
 62
     7
176
     1
 62
   257
176
     1
 90
        2
176
     1
 90
        1
176
     1
 40
40.0
176
     1
 90
        0
176
     1
 62
   257
176
     1
 40
1.0
176
     1
 90
        1
176
     1
 90
        6
176
     1
 90
        2
176
     1
 62
     7
176
     1
 90
        3
176
     1
 90
        0
176
     1
 90
        0
176
     1
290
     0
176
     1
 90
        1
176
     1
 40
0.0
176
     1
 90
        0
176
     1
290
     0
176
     1
290
     1
176
     1
290
     1
176
     1
290
     0
176
     1
290
     0
176
     1
290
     0
176
     1
290
     0
176
     1
290
     0
176
     1
290
     0
176
     1
 90
       50
176
     1
 40
0.0
176
     1
 40
1.0
176
     1
 90
        0
176
     1
 62
    18
420
        0
176
     1
 90
       50
176
     1
 90
        3
176
     1
 62
     5
420
      255
176
     1
290
     0
176
     1
 90
       50
176
     1
 90
       50
176
     1
 90
       50
176
     1
290
     0
176
     1
 90
       50
176
     1
 62
   256
176
     0
 40
1.0
176
     0
 90
        2
176
     1
  1
strokes_ogs.tif
176
     1
290
     0
176
     1
 40
1.0
176
     1
 40
1.0
176
     1
  0
VISUALSTYLE
  5
3F
102
{ACAD_REACTORS
330
29
102
}
330
29
100
AcDbVisualStyle
  2
JitterOff
 70
    20
177
     3
291
     1
 70
    58
 90
        2
176
     0
 90
        2
176
     0
 90
        0
176
     0
 90
        0
176
     0
 40
0.6
176
     0
 40
30.0
176
     0
 62
     7
420
 16777215
176
     0
 90
        1
176
     0
 90
        4
176
     0
 62
     7
176
     0
 62
   257
176
     0
 90
        1
176
     0
 90
        1
176
     0
 40
1.0
176
     0
 90
       10
176
     2
 62
     7
176
     0
 40
1.0
176
     0
 90
        1
176
     0
 90
        6
176
     0
 90
        2
176
     0
 62
     7
176
     0
 90
        5
176
     0
 90
        0
176
     0
 90
        0
176
     0
290
     0
176
     0
 90
        1
176
     0
 40
0.0
176
     0
 90
        0
176
     0
290
     0
176
     0
290
     1
176
     0
290
     1
176
     0
290
     0
176
     0
290
     0
176
     0
290
     0
176
     0
290
     0
176
     0
290
     0
176
     0
290
     0
176
     0
 90
       50
176
     0
 40
0.0
176
     0
 40
1.0
176
     0
 90
        0
176
     0
 62
    18
420
        0
176
     0
 90
       50
176
     0
 90
        3
176
     0
 62
     5
420
      255
176
     0
290
     0
176
     0
 90
       50
176
     0
 90
       50
176
     0
 90
       50
176
     0
290
     0
176
     0
 90
       50
176
     0
 62
   256
176
     0
 40
1.0
176
     0
 90
        2
176
     0
  1
strokes_ogs.tif
176
     0
290
     0
176
     0
 40
1.0
176
     0
 40
1.0
176
     0
  0
VISUALSTYLE
  5
37
102
{ACAD_REACTORS
330
29
102
}
330
29
100
AcDbVisualStyle
  2
Linepattern
 70
    14
177
     3
291
     1
 70
    58
 90
        2
176
     1
 90
        2
176
     1
 90
        0
176
     1
 90
        0
176
     1
 40
0.6
176
     1
 40
30.0
176
     1
 62
     7
420
 16777215
176
     1
 90
        1
176
     1
 90
        4
176
     1
 62
     7
176
     1
 62
   257
176
     1
 90
        7
176
     1
 90
        7
176
     1
 40
1.0
176
     1
 90
        8
176
     1
 62
     7
176
     1
 40
1.0
176
     1
 90
        1
176
     1
 90
        6
176
     1
 90
        2
176
     1
 62
     7
176
     1
 90
        5
176
     1
 90
        0
176
     1
 90
        0
176
     1
290
     0
176
     1
 90
        1
176
     1
 40
0.0
176
     1
 90
        0
176
     1
290
     0
176
     1
290
     1
176
     1
290
     1
176
     1
290
     0
176
     1
290
     0
176
     1
290
     0
176
     1
290
     0
176
     1
290
     0
176
     1
290
     0
176
     1
 90
       50
176
     1
 40
0.0
176
     1
 40
1.0
176
     1
 90
        0
176
     1
 62
    18
420
        0
176
     1
 90
       50
176
     1
 90
        3
176
     1
 62
     5
420
      255
176
     1
290
     0
176
     1
 90
       50
176
     1
 90
       50
176
     1
 90
       50
176
     1
290
     0
176
     1
 90
       50
176
     1
 62
   256
176
     0
 40
1.0
176
     0
 90
        2
176
     1
  1
strokes_ogs.tif
176
     1
290
     0
176
     1
 40
1.0
176
     1
 40
1.0
176
     1
  0
VISUALSTYLE
  5
40
102
{ACAD_REACTORS
330
29
102
}
330
29
100
AcDbVisualStyle
  2
OverhangOff
 70
    21
177
     3
291
     1
 70
    58
 90
        2
176
     0
 90
        2
176
     0
 90
        0
176
     0
 90
        0
176
     0
 40
0.6
176
     0
 40
30.0
176
     0
 62
     7
420
 16777215
176
     0
 90
        1
176
     0
 90
        4
176
     0
 62
     7
176
     0
 62
   257
176
     0
 90
        1
176
     0
 90
        1
176
     0
 40
1.0
176
     0
 90
        9
176
     2
 62
     7
176
     0
 40
1.0
176
     0
 90
        1
176
     0
 90
        6
176
     0
 90
        2
176
     0
 62
     7
176
     0
 90
        5
176
     0
 90
        0
176
     0
 90
        0
176
     0
290
     0
176
     0
 90
        1
176
     0
 40
0.0
176
     0
 90
        0
176
     0
290
     0
176
     0
290
     1
176
     0
290
     1
176
     0
290
     0
176
     0
290
     0
176
     0
290
     0
176
     0
290
     0
176
     0
290
     0
176
     0
290
     0
176
     0
 90
       50
176
     0
 40
0.0
176
     0
 40
1.0
176
     0
 90
        0
176
     0
 62
    18
420
        0
176
     0
 90
       50
176
     0
 90
        3
176
     0
 62
     5
420
      255
176
     0
290
     0
176
     0
 90
       50
176
     0
 90
       50
176
     0
 90
       50
176
     0
290
     0
176
     0
 90
       50
176
     0
 62
   256
176
     0
 40
1.0
176
     0
 90
        2
176
     0
  1
strokes_ogs.tif
176
     0
290
     0
176
     0
 40
1.0
176
     0
 40
1.0
176
     0
  0
VISUALSTYLE
  5
33
102
{ACAD_REACTORS
330
29
102
}
330
29
100
AcDbVisualStyle
  2
Realistic
 70
     8
177
     3
291
     0
 70
    58
 90
        2
176
     1
 90
        3
176
     1
 90
        0
176
     1
 90
        2
176
     1
 40
0.6
176
     1
 40
30.0
176
     1
 62
     7
420
 16777215
176
     1
 90
        0
176
     1
 90
        0
176
     1
 62
     7
176
     1
 62
   257
176
     1
 90
        1
176
     1
 90
        1
176
     1
 40
1.0
176
     1
 90
        8
176
     1
 62
   257
176
     1
 40
1.0
176
     1
 90
        1
176
     1
 90
        6
176
     1
 90
        2
176
     1
 62
     7
176
     1
 90
        3
176
     1
 90
        0
176
     1
 90
        0
176
     1
290
     0
176
     1
 90
       13
176
     1
 40
0.0
176
     1
 90
        0
176
     1
290
     0
176
     1
290
     1
176
     1
290
     1
176
     1
290
     0
176
     1
290
     0
176
     1
290
     0
176
     1
290
     0
176
     1
290
     0
176
     1
290
     0
176
     1
 90
       50
176
     1
 40
0.0
176
     1
 40
1.0
176
     1
 90
        0
176
     1
 62
    18
420
        0
176
     1
 90
       50
176
     1
 90
        3
176
     1
 62
     5
420
      255
176
     1
290
     0
176
     1
 90
       50
176
     1
 90
       50
176
     1
 90
       50
176
     1
290
     0
176
     1
 90
       50
176
     1
 62
   256
176
     0
 40
1.0
176
     0
 90
        2
176
     1
  1
strokes_ogs.tif
176
     1
290
     0
176
     1
 40
1.0
176
     1
 40
1.0
176
     1
  0
VISUALSTYLE
  5
3E
102
{ACAD_REACTORS
330
29
102
}
330
29
100
AcDbVisualStyle
  2
Shaded
 70
    27
177
     3
291
     0
 70
    58
 90
        2
176
     1
 90
        2
176
     1
 90
        1
176
     1
 90
        2
176
     1
 40
0.6
176
     1
 40
30.0
176
     1
 62
     7
420
 16777215
176
     1
 90
        0
176
     1
 90
        4
176
     1
 62
     7
176
     1
 62
   257
176
     1
 90
        1
176
     1
 90
        1
176
     1
 40
1.0
176
     1
 90
        8
176
     1
 62
   257
176
     1
 40
1.0
176
     1
 90
        1
176
     1
 90
        6
176
     1
 90
        2
176
     1
 62
     8
420
  7895160
176
     1
 90
        3
176
     1
 90
        0
176
     1
 90
        0
176
     1
290
     0
176
     1
 90
        5
176
     1
 40
0.0
176
     1
 90
        0
176
     1
290
     0
176
     1
290
     1
176
     1
290
     1
176
     1
290
     0
176
     1
290
     0
176
     1
290
     0
176
     1
290
     0
176
     1
290
     0
176
     1
290
     0
176
     1
 90
       50
176
     1
 40
0.0
176
     1
 40
1.0
176
     1
 90
        0
176
     1
 62
    18
420
        0
176
     1
 90
       50
176
     1
 90
        3
176
     1
 62
     5
420
      255
176
     1
290
     0
176
     1
 90
       50
176
     1
 90
       50
176
     1
 90
       50
176
     1
290
     0
176
     1
 90
       50
176
     1
 62
   256
176
     0
 40
1.0
176
     0
 90
        2
176
     1
  1
strokes_ogs.tif
176
     1
290
     0
176
     1
 40
1.0
176
     1
 40
1.0
176
     1
  0
VISUALSTYLE
  5
3D
102
{ACAD_REACTORS
330
29
102
}
330
29
100
AcDbVisualStyle
  2
Shaded with edges
 70
    26
177
     3
291
     0
 70
    58
 90
        2
176
     1
 90
        2
176
     1
 90
        1
176
     1
 90
        2
176
     1
 40
0.6
176
     1
 40
30.0
176
     1
 62
     7
420
 16777215
176
     1
 90
        1
176
     1
 90
        2
176
     1
 62
     7
176
     1
 62
   257
176
     1
 90
        2
176
     1
 90
        1
176
     1
 40
1.0
176
     1
 90
        8
176
     1
 62
   257
176
     1
 40
1.0
176
     1
 90
        1
176
     1
 90
        6
176
     1
 90
        2
176
     1
 62
     7
176
     1
 90
        3
176
     1
 90
        0
176
     1
 90
        0
176
     1
290
     0
176
     1
 90
        5
176
     1
 40
0.0
176
     1
 90
        0
176
     1
290
     0
176
     1
290
     1
176
     1
290
     1
176
     1
290
     0
176
     1
290
     0
176
     1
290
     0
176
     1
290
     0
176
     1
290
     0
176
     1
290
     0
176
     1
 90
       50
176
     1
 40
0.0
176
     1
 40
1.0
176
     1
 90
        0
176
     1
 62
    18
420
        0
176
     1
 90
       50
176
     1
 90
        3
176
     1
 62
     5
420
      255
176
     1
290
     0
176
     1
 90
       50
176
     1
 90
       50
176
     1
 90
       50
176
     1
290
     0
176
     1
 90
       50
176
     1
 62
   256
176
     0
 40
1.0
176
     0
 90
        2
176
     1
  1
strokes_ogs.tif
176
     1
290
     0
176
     1
 40
1.0
176
     1
 40
1.0
176
     1
  0
VISUALSTYLE
  5
3A
102
{ACAD_REACTORS
330
29
102
}
330
29
100
AcDbVisualStyle
  2
Shades of Gray
 70
    23
177
     3
291
     0
 70
    58
 90
        2
176
     1
 90
        2
176
     1
 90
        3
176
     1
 90
        0
176
     1
 40
0.6
176
     1
 40
30.0
176
     1
 62
     7
420
 16777215
176
     1
 90
        2
176
     1
 90
        2
176
     1
 62
     7
176
     1
 62
     7
176
     1
 90
        1
176
     1
 90
        1
176
     1
 40
40.0
176
     1
 90
        8
176
     1
 62
     7
176
     1
 40
1.0
176
     1
 90
        1
176
     1
 90
        6
176
     1
 90
        2
176
     1
 62
     7
176
     1
 90
        3
176
     1
 90
        0
176
     1
 90
        0
176
     1
290
     0
176
     1
 90
        1
176
     1
 40
0.0
176
     1
 90
        0
176
     1
290
     0
176
     1
290
     1
176
     1
290
     1
176
     1
290
     0
176
     1
290
     0
176
     1
290
     0
176
     1
290
     0
176
     1
290
     0
176
     1
290
     0
176
     1
 90
       50
176
     1
 40
0.0
176
     1
 40
1.0
176
     1
 90
        0
176
     1
 62
    18
420
        0
176
     1
 90
       50
176
     1
 90
        3
176
     1
 62
     5
420
      255
176
     1
290
     0
176
     1
 90
       50
176
     1
 90
       50
176
     1
 90
       50
176
     1
290
     0
176
     1
 90
       50
176
     1
 62
   256
176
     0
 40
1.0
176
     0
 90
        2
176
     1
  1
strokes_ogs.tif
176
     1
290
     0
176
     1
 40
1.0
176
     1
 40
1.0
176
     1
  0
VISUALSTYLE
  5
3B
102
{ACAD_REACTORS
330
29
102
}
330
29
100
AcDbVisualStyle
  2
Sketchy
 70
    24
177
     3
291
     0
 70
    58
 90
        1
176
     1
 90
        2
176
     1
 90
        2
176
     1
 90
        0
176
     1
 40
0.6
176
     1
 40
30.0
176
     1
 62
     7
420
 16777215
176
     1
 90
        2
176
     1
 90
        2
176
     1
 62
     7
176
     1
 62
     7
176
     1
 90
        1
176
     1
 90
        1
176
     1
 40
40.0
176
     1
 90
       11
176
     1
 62
     7
176
     1
 40
1.0
176
     1
 90
        1
176
     1
 90
        6
176
     1
 90
        2
176
     1
 62
     7
176
     1
 90
        6
176
     1
 90
        0
176
     1
 90
        0
176
     1
290
     0
176
     1
 90
        1
176
     1
 40
0.0
176
     1
 90
        0
176
     1
290
     0
176
     1
290
     1
176
     1
290
     1
176
     1
290
     0
176
     1
290
     0
176
     1
290
     0
176
     1
290
     0
176
     1
290
     0
176
     1
290
     0
176
     1
 90
       50
176
     1
 40
0.0
176
     1
 40
1.0
176
     1
 90
        0
176
     1
 62
    18
420
        0
176
     1
 90
       50
176
     1
 90
        3
176
     1
 62
     5
420
      255
176
     1
290
     0
176
     1
 90
       50
176
     1
 90
       50
176
     1
 90
       50
176
     1
290
     0
176
     1
 90
       50
176
     1
 62
   256
176
     0
 40
1.0
176
     0
 90
        2
176
     1
  1
strokes_ogs.tif
176
     1
290
     0
176
     1
 40
1.0
176
     1
 40
1.0
176
     1
  0
VISUALSTYLE
  5
36
102
{ACAD_REACTORS
330
29
102
}
330
29
100
AcDbVisualStyle
  2
Thicken
 70
    13
177
     3
291
     1
 70
    58
 90
        2
176
     1
 90
        2
176
     1
 90
        0
176
     1
 90
        0
176
     1
 40
0.6
176
     1
 40
30.0
176
     1
 62
     7
420
 16777215
176
     1
 90
        1
176
     1
 90
        4
176
     1
 62
     7
176
     1
 62
   257
176
     1
 90
        1
176
     1
 90
        1
176
     1
 40
1.0
176
     1
 90
       12
176
     1
 62
     7
176
     1
 40
1.0
176
     1
 90
        1
176
     1
 90
        6
176
     1
 90
        2
176
     1
 62
     7
176
     1
 90
        5
176
     1
 90
        0
176
     1
 90
        0
176
     1
290
     0
176
     1
 90
        1
176
     1
 40
0.0
176
     1
 90
        0
176
     1
290
     0
176
     1
290
     1
176
     1
290
     1
176
     1
290
     0
176
     1
290
     0
176
     1
290
     0
176
     1
290
     0
176
     1
290
     0
176
     1
290
     0
176
     1
 90
       50
176
     1
 40
0.0
176
     1
 40
1.0
176
     1
 90
        0
176
     1
 62
    18
420
        0
176
     1
 90
       50
176
     1
 90
        3
176
     1
 62
     5
420
      255
176
     1
290
     0
176
     1
 90
       50
176
     1
 90
       50
176
     1
 90
       50
176
     1
290
     0
176
     1
 90
       50
176
     1
 62
   256
176
     0
 40
1.0
176
     0
 90
        2
176
     1
  1
strokes_ogs.tif
176
     1
290
     0
176
     1
 40
1.0
176
     1
 40
1.0
176
     1
  0
VISUALSTYLE
  5
30
102
{ACAD_REACTORS
330
29
102
}
330
29
100
AcDbVisualStyle
  2
Wireframe
 70
     5
177
     3
291
     0
 70
    58
 90
        0
176
     1
 90
        2
176
     1
 90
        0
176
     1
 90
        0
176
     1
 40
0.6
176
     1
 40
30.0
176
     1
 62
     7
420
 16777215
176
     1
 90
        1
176
     1
 90
        4
176
     1
 62
     7
176
     1
 62
   257
176
     1
 90
        1
176
     1
 90
        1
176
     1
 40
1.0
176
     1
 90
        0
176
     1
 62
   257
176
     1
 40
1.0
176
     1
 90
        1
176
     1
 90
        6
176
     1
 90
        2
176
     1
 62
     7
176
     1
 90
        3
176
     1
 90
        0
176
     1
 90
        0
176
     1
290
     0
176
     1
 90
        1
176
     1
 40
0.0
176
     1
 90
        0
176
     1
290
     0
176
     1
290
     1
176
     1
290
     1
176
     1
290
     0
176
     1
290
     0
176
     1
290
     0
176
     1
290
     0
176
     1
290
     0
176
     1
290
     0
176
     1
 90
       50
176
     1
 40
0.0
176
     1
 40
1.0
176
     1
 90
        0
176
     1
 62
    18
420
        0
176
     1
 90
       50
176
     1
 90
        3
176
     1
 62
     5
420
      255
176
     1
290
     0
176
     1
 90
       50
176
     1
 90
       50
176
     1
 90
       50
176
     1
290
     0
176
     1
 90
       50
176
     1
 62
   256
176
     0
 40
1.0
176
     0
 90
        2
176
     1
  1
strokes_ogs.tif
176
     1
290
     0
176
     1
 40
1.0
176
     1
 40
1.0
176
     1
  0
VISUALSTYLE
  5
3C
102
{ACAD_REACTORS
330
29
102
}
330
29
100
AcDbVisualStyle
  2
X-Ray
 70
    25
177
     3
291
     0
 70
    58
 90
        2
176
     1
 90
        2
176
     1
 90
        1
176
     1
 90
        1
176
     1
 40
0.5
176
     1
 40
30.0
176
     1
 62
     7
420
 16777215
176
     1
 90
        1
176
     1
 90
        0
176
     1
 62
     7
176
     1
 62
   257
176
     1
 90
        1
176
     1
 90
        1
176
     1
 40
1.0
176
     1
 90
        8
176
     1
 62
     7
176
     1
 40
1.0
176
     1
 90
        1
176
     1
 90
        6
176
     1
 90
        2
176
     1
 62
     7
176
     1
 90
        3
176
     1
 90
        0
176
     1
 90
        0
176
     1
290
     0
176
     1
 90
       13
176
     1
 40
0.0
176
     1
 90
        0
176
     1
290
     0
176
     1
290
     1
176
     1
290
     1
176
     1
290
     0
176
     1
290
     0
176
     1
290
     0
176
     1
290
     0
176
     1
290
     0
176
     1
290
     0
176
     1
 90
       50
176
     1
 40
0.0
176
     1
 40
1.0
176
     1
 90
        0
176
     1
 62
    18
420
        0
176
     1
 90
       50
176
     1
 90
        3
176
     1
 62
     5
420
      255
176
     1
290
     0
176
     1
 90
       50
176
     1
 90
       50
176
     1
 90
       50
176
     1
290
     0
176
     1
 90
       50
176
     1
 62
   256
176
     0
 40
1.0
176
     0
 90
        2
176
     1
  1
strokes_ogs.tif
176
     1
290
     0
176
     1
 40
1.0
176
     1
 40
1.0
176
     1
  0
DICTIONARYVAR
  5
BB
102
{ACAD_REACTORS
330
B6
102
}
330
B6
100
DictionaryVariables
280
     0
  1
1:1
  0
DICTIONARYVAR
  5
B8
102
{ACAD_REACTORS
330
B6
102
}
330
B6
100
DictionaryVariables
280
     0
  1
STANDARD
  0
DICTIONARYVAR
  5
B7
102
{ACAD_REACTORS
330
B6
102
}
330
B6
100
DictionaryVariables
280
     0
  1
STANDARD
  0
DICTIONARYVAR
  5
B9
102
{ACAD_REACTORS
330
B6
102
}
330
B6
100
DictionaryVariables
280
     0
  1
Imperial24
  0
DICTIONARYVAR
  5
BA
102
{ACAD_REACTORS
330
B6
102
}
330
B6
100
DictionaryVariables
280
     0
  1
Imperial24
  0
DICTIONARY
  5
1A
330
19
100
AcDbDictionary
280
     1
281
     1
  3
BUMPTILE
360
1C
  3
DIFFUSETILE
360
1B
  3
OPACITYTILE
360
1F
  3
REFLECTIONTILE
360
1E
  3
REFRACTIONTILE
360
20
  3
SPECULARTILE
360
1D
  0
DICTIONARY
  5
12
330
11
100
AcDbDictionary
280
     1
281
     1
  3
BUMPTILE
360
14
  3
DIFFUSETILE
360
13
  3
OPACITYTILE
360
17
  3
REFLECTIONTILE
360
16
  3
REFRACTIONTILE
360
18
  3
SPECULARTILE
360
15
  0
DICTIONARY
  5
22
330
21
100
AcDbDictionary
280
     1
281
     1
  3
BUMPTILE
360
24
  3
DIFFUSETILE
360
23
  3
OPACITYTILE
360
27
  3
REFLECTIONTILE
360
26
  3
REFRACTIONTILE
360
28
  3
SPECULARTILE
360
25
  0
DICTIONARY
  5
BC
330
65
100
AcDbDictionary
280
     1
281
     1
  3
ACAD_ROUNDTRIP_2008_TABLESTYLE_CELLSTYLEMAP
360
BD
  0
XRECORD
  5
1C
102
{ACAD_REACTORS
330
1A
102
}
330
1A
100
AcDbXrecord
280
     1
270
     1
271
     1
  0
XRECORD
  5
1B
102
{ACAD_REACTORS
330
1A
102
}
330
1A
100
AcDbXrecord
280
     1
270
     1
271
     1
  0
XRECORD
  5
1F
102
{ACAD_REACTORS
330
1A
102
}
330
1A
100
AcDbXrecord
280
     1
270
     1
271
     1
  0
XRECORD
  5
1E
102
{ACAD_REACTORS
330
1A
102
}
330
1A
100
AcDbXrecord
280
     1
270
     1
271
     1
  0
XRECORD
  5
20
102
{ACAD_REACTORS
330
1A
102
}
330
1A
100
AcDbXrecord
280
     1
270
     1
271
     1
  0
XRECORD
  5
1D
102
{ACAD_REACTORS
330
1A
102
}
330
1A
100
AcDbXrecord
280
     1
270
     1
271
     1
  0
XRECORD
  5
14
102
{ACAD_REACTORS
330
12
102
}
330
12
100
AcDbXrecord
280
     1
270
     1
271
     1
  0
XRECORD
  5
13
102
{ACAD_REACTORS
330
12
102
}
330
12
100
AcDbXrecord
280
     1
270
     1
271
     1
  0
XRECORD
  5
17
102
{ACAD_REACTORS
330
12
102
}
330
12
100
AcDbXrecord
280
     1
270
     1
271
     1
  0
XRECORD
  5
16
102
{ACAD_REACTORS
330
12
102
}
330
12
100
AcDbXrecord
280
     1
270
     1
271
     1
  0
XRECORD
  5
18
102
{ACAD_REACTORS
330
12
102
}
330
12
100
AcDbXrecord
280
     1
270
     1
271
     1
  0
XRECORD
  5
15
102
{ACAD_REACTORS
330
12
102
}
330
12
100
AcDbXrecord
280
     1
270
     1
271
     1
  0
XRECORD
  5
24
102
{ACAD_REACTORS
330
22
102
}
330
22
100
AcDbXrecord
280
     1
270
     1
271
     1
  0
XRECORD
  5
23
102
{ACAD_REACTORS
330
22
102
}
330
22
100
AcDbXrecord
280
     1
270
     1
271
     1
  0
XRECORD
  5
27
102
{ACAD_REACTORS
330
22
102
}
330
22
100
AcDbXrecord
280
     1
270
     1
271
     1
  0
XRECORD
  5
26
102
{ACAD_REACTORS
330
22
102
}
330
22
100
AcDbXrecord
280
     1
270
     1
271
     1
  0
XRECORD
  5
28
102
{ACAD_REACTORS
330
22
102
}
330
22
100
AcDbXrecord
280
     1
270
     1
271
     1
  0
XRECORD
  5
25
102
{ACAD_REACTORS
330
22
102
}
330
22
100
AcDbXrecord
280
     1
270
     1
271
     1
  0
CELLSTYLEMAP
  5
BD
102
{ACAD_REACTORS
330
BC
102
}
330
BC
100
AcDbCellStyleMap
 90
        3
300
CELLSTYLE
  1
TABLEFORMAT_BEGIN
 90
        5
170
     1
 91
        0
 92
    32768
 62
   257
 93
        1
300
CONTENTFORMAT
  1
CONTENTFORMAT_BEGIN
 90
        0
 91
        0
 92
      512
 93
        0
300

 40
0.0
140
1.0
 94
        5
 62
     0
340
55
144
0.25
309
CONTENTFORMAT_END
171
     0
 94
        0
309
TABLEFORMAT_END
  1
CELLSTYLE_BEGIN
 90
        1
 91
        1
300
_TITLE
309
CELLSTYLE_END
300
CELLSTYLE
  1
TABLEFORMAT_BEGIN
 90
        5
170
     1
 91
        0
 92
        0
 62
   257
 93
        1
300
CONTENTFORMAT
  1
CONTENTFORMAT_BEGIN
 90
        0
 91
        0
 92
      512
 93
        0
300

 40
0.0
140
1.0
 94
        5
 62
     0
340
55
144
0.18
309
CONTENTFORMAT_END
171
     0
 94
        0
309
TABLEFORMAT_END
  1
CELLSTYLE_BEGIN
 90
        2
 91
        1
300
_HEADER
309
CELLSTYLE_END
300
CELLSTYLE
  1
TABLEFORMAT_BEGIN
 90
        5
170
     1
 91
        0
 92
        0
 62
   257
 93
        1
300
CONTENTFORMAT
  1
CONTENTFORMAT_BEGIN
 90
        0
 91
        0
 92
      512
 93
        0
300

 40
0.0
140
1.0
 94
        2
 62
     0
340
55
144
0.18
309
CONTENTFORMAT_END
171
     0
 94
        0
309
TABLEFORMAT_END
  1
CELLSTYLE_BEGIN
 90
        3
 91
        2
300
_DATA
309
CELLSTYLE_END
  0
ENDSEC
  0
EOF
