  0
SECTION
  2
HEADER
  9
$ACADVER
  1
AC1032
  9
$ACADMAINTVER
 90
      228
  9
$DWGCODEPAGE
  3
ANSI_1252
  9
$REQUIREDVERSIONS
160
                 0
  9
$INSBASE
 10
0.0
 20
0.0
 30
0.0
  9
$EXTMIN
 10
1.000000000000000E+20
 20
1.000000000000000E+20
 30
1.000000000000000E+20
  9
$EXTMAX
 10
-1.000000000000000E+20
 20
-1.000000000000000E+20
 30
-1.000000000000000E+20
  9
$LIMMIN
 10
0.0
 20
0.0
  9
$LIMMAX
 10
12.0
 20
9.0
  9
$ORTHOMODE
 70
     0
  9
$REGENMODE
 70
     1
  9
$FILLMODE
 70
     1
  9
$QTEXTMODE
 70
     0
  9
$MIRRTEXT
 70
     0
  9
$LTSCALE
 40
1.0
  9
$ATTMODE
 70
     1
  9
$TEXTSIZE
 40
0.2
  9
$TRACEWID
 40
0.05
  9
$TEXTSTYLE
  7
Standard
  9
$CLAYER
  8
0
  9
$CELTYPE
  6
ByLayer
  9
$CECOLOR
 62
   256
  9
$CELTSCALE
 40
1.0
  9
$DISPSILH
 70
     0
  9
$DIMSCALE
 40
1.0
  9
$DIMASZ
 40
0.18
  9
$DIMEXO
 40
0.0625
  9
$DIMDLI
 40
0.38
  9
$DIMRND
 40
0.0
  9
$DIMDLE
 40
0.0
  9
$DIMEXE
 40
0.18
  9
$DIMTP
 40
0.0
  9
$DIMTM
 40
0.0
  9
$DIMTXT
 40
0.18
  9
$DIMCEN
 40
0.09
  9
$DIMTSZ
 40
0.0
  9
$DIMTOL
 70
     0
  9
$DIMLIM
 70
     0
  9
$DIMTIH
 70
     1
  9
$DIMTOH
 70
     1
  9
$DIMSE1
 70
     0
  9
$DIMSE2
 70
     0
  9
$DIMTAD
 70
     0
  9
$DIMZIN
 70
     0
  9
$DIMBLK
  1

  9
$DIMASO
 70
     1
  9
$DIMSHO
 70
     1
  9
$DIMPOST
  1

  9
$DIMAPOST
  1

  9
$DIMALT
 70
     0
  9
$DIMALTD
 70
     2
  9
$DIMALTF
 40
25.4
  9
$DIMLFAC
 40
1.0
  9
$DIMTOFL
 70
     0
  9
$DIMTVP
 40
0.0
  9
$DIMTIX
 70
     0
  9
$DIMSOXD
 70
     0
  9
$DIMSAH
 70
     0
  9
$DIMBLK1
  1

  9
$DIMBLK2
  1

  9
$DIMSTYLE
  2
Standard
  9
$DIMCLRD
 70
     0
  9
$DIMCLRE
 70
     0
  9
$DIMCLRT
 70
     0
  9
$DIMTFAC
 40
1.0
  9
$DIMGAP
 40
0.09
  9
$DIMJUST
 70
     0
  9
$DIMSD1
 70
     0
  9
$DIMSD2
 70
     0
  9
$DIMTOLJ
 70
     1
  9
$DIMTZIN
 70
     0
  9
$DIMALTZ
 70
     0
  9
$DIMALTTZ
 70
     0
  9
$DIMUPT
 70
     0
  9
$DIMDEC
 70
     4
  9
$DIMTDEC
 70
     4
  9
$DIMALTU
 70
     2
  9
$DIMALTTD
 70
     2
  9
$DIMTXSTY
  7
Standard
  9
$DIMAUNIT
 70
     0
  9
$DIMADEC
 70
     0
  9
$DIMALTRND
 40
0.0
  9
$DIMAZIN
 70
     0
  9
$DIMDSEP
 70
    46
  9
$DIMATFIT
 70
     3
  9
$DIMFRAC
 70
     0
  9
$DIMLDRBLK
  1

  9
$DIMLUNIT
 70
     2
  9
$DIMLWD
 70
    -2
  9
$DIMLWE
 70
    -2
  9
$DIMTMOVE
 70
     0
  9
$DIMFXL
 40
1.0
  9
$DIMFXLON
 70
     0
  9
$DIMJOGANG
 40
0.7853981633974483
  9
$DIMTFILL
 70
     0
  9
$DIMTFILLCLR
 70
     0
  9
$DIMARCSYM
 70
     0
  9
$DIMLTYPE
  6

  9
$DIMLTEX1
  6

  9
$DIMLTEX2
  6

  9
$DIMTXTDIRECTION
 70
     0
  9
$LUNITS
 70
     2
  9
$LUPREC
 70
     4
  9
$SKETCHINC
 40
0.1
  9
$FILLETRAD
 40
0.0
  9
$AUNITS
 70
     0
  9
$AUPREC
 70
     0
  9
$MENU
  1
.
  9
$ELEVATION
 40
0.0
  9
$PELEVATION
 40
0.0
  9
$THICKNESS
 40
0.0
  9
$LIMCHECK
 70
     0
  9
$CHAMFERA
 40
0.0
  9
$CHAMFERB
 40
0.0
  9
$CHAMFERC
 40
0.0
  9
$CHAMFERD
 40
0.0
  9
$SKPOLY
 70
     0
  9
$TDCREATE
 40
2460444.051331019
  9
$TDUCREATE
 40
2460444.342997685
  9
$TDUPDATE
 40
2460444.051331019
  9
$TDUUPDATE
 40
2460444.342997685
  9
$TDINDWG
 40
0.0000000000
  9
$TDUSRTIMER
 40
0.0000000000
  9
$USRTIMER
 70
     1
  9
$ANGBASE
 50
0.0
  9
$ANGDIR
 70
     0
  9
$PDMODE
 70
     0
  9
$PDSIZE
 40
0.0
  9
$PLINEWID
 40
0.0
  9
$SPLFRAME
 70
     0
  9
$SPLINETYPE
 70
     6
  9
$SPLINESEGS
 70
     8
  9
$HANDSEED
  5
BC
  9
$SURFTAB1
 70
     6
  9
$SURFTAB2
 70
     6
  9
$SURFTYPE
 70
     6
  9
$SURFU
 70
     6
  9
$SURFV
 70
     6
  9
$UCSBASE
  2

  9
$UCSNAME
  2

  9
$UCSORG
 10
0.0
 20
0.0
 30
0.0
  9
$UCSXDIR
 10
1.0
 20
0.0
 30
0.0
  9
$UCSYDIR
 10
0.0
 20
1.0
 30
0.0
  9
$UCSORTHOREF
  2

  9
$UCSORTHOVIEW
 70
     0
  9
$UCSORGTOP
 10
0.0
 20
0.0
 30
0.0
  9
$UCSORGBOTTOM
 10
0.0
 20
0.0
 30
0.0
  9
$UCSORGLEFT
 10
0.0
 20
0.0
 30
0.0
  9
$UCSORGRIGHT
 10
0.0
 20
0.0
 30
0.0
  9
$UCSORGFRONT
 10
0.0
 20
0.0
 30
0.0
  9
$UCSORGBACK
 10
0.0
 20
0.0
 30
0.0
  9
$PUCSBASE
  2

  9
$PUCSNAME
  2

  9
$PUCSORG
 10
0.0
 20
0.0
 30
0.0
  9
$PUCSXDIR
 10
1.0
 20
0.0
 30
0.0
  9
$PUCSYDIR
 10
0.0
 20
1.0
 30
0.0
  9
$PUCSORTHOREF
  2

  9
$PUCSORTHOVIEW
 70
     0
  9
$PUCSORGTOP
 10
0.0
 20
0.0
 30
0.0
  9
$PUCSORGBOTTOM
 10
0.0
 20
0.0
 30
0.0
  9
$PUCSORGLEFT
 10
0.0
 20
0.0
 30
0.0
  9
$PUCSORGRIGHT
 10
0.0
 20
0.0
 30
0.0
  9
$PUCSORGFRONT
 10
0.0
 20
0.0
 30
0.0
  9
$PUCSORGBACK
 10
0.0
 20
0.0
 30
0.0
  9
$USERI1
 70
     0
  9
$USERI2
 70
     0
  9
$USERI3
 70
     0
  9
$USERI4
 70
     0
  9
$USERI5
 70
     0
  9
$USERR1
 40
0.0
  9
$USERR2
 40
0.0
  9
$USERR3
 40
0.0
  9
$USERR4
 40
0.0
  9
$USERR5
 40
0.0
  9
$WORLDVIEW
 70
     1
  9
$SHADEDGE
 70
     3
  9
$SHADEDIF
 70
    70
  9
$TILEMODE
 70
     1
  9
$MAXACTVP
 70
    64
  9
$PINSBASE
 10
0.0
 20
0.0
 30
0.0
  9
$PLIMCHECK
 70
     0
  9
$PEXTMIN
 10
1.000000000000000E+20
 20
1.000000000000000E+20
 30
1.000000000000000E+20
  9
$PEXTMAX
 10
-1.000000000000000E+20
 20
-1.000000000000000E+20
 30
-1.000000000000000E+20
  9
$PLIMMIN
 10
0.0
 20
0.0
  9
$PLIMMAX
 10
12.0
 20
9.0
  9
$UNITMODE
 70
     0
  9
$VISRETAIN
 70
     1
  9
$PLINEGEN
 70
     0
  9
$PSLTSCALE
 70
     1
  9
$TREEDEPTH
 70
  3020
  9
$CMLSTYLE
  2
Standard
  9
$CMLJUST
 70
     0
  9
$CMLSCALE
 40
1.0
  9
$PROXYGRAPHICS
 70
     1
  9
$MEASUREMENT
 70
     0
  9
$CELWEIGHT
370
    -1
  9
$ENDCAPS
280
     0
  9
$JOINSTYLE
280
     0
  9
$LWDISPLAY
290
     1
  9
$INSUNITS
 70
     1
  9
$HYPERLINKBASE
  1

  9
$STYLESHEET
  1

  9
$XEDIT
290
     1
  9
$CEPSNTYPE
380
     0
  9
$PSTYLEMODE
290
     1
  9
$FINGERPRINTGUID
  2
{E0ABA132-EF9D-5440-A8F4-BCF880A19F10}
  9
$VERSIONGUID
  2
{C3AAE2C3-4857-7A4D-9DEB-E1B883889B69}
  9
$EXTNAMES
290
     1
  9
$PSVPSCALE
 40
0.0
  9
$OLESTARTUP
290
     0
  9
$SORTENTS
280
   127
  9
$INDEXCTL
280
     0
  9
$HIDETEXT
280
     1
  9
$XCLIPFRAME
280
     2
  9
$HALOGAP
280
     0
  9
$OBSCOLOR
 70
   257
  9
$OBSLTYPE
280
     0
  9
$INTERSECTIONDISPLAY
280
     0
  9
$INTERSECTIONCOLOR
 70
   257
  9
$DIMASSOC
280
     2
  9
$PROJECTNAME
  1

  9
$CAMERADISPLAY
290
     0
  9
$LENSLENGTH
 40
50.0
  9
$CAMERAHEIGHT
 40
0.0
  9
$STEPSPERSEC
 40
2.0
  9
$STEPSIZE
 40
6.0
  9
$3DDWFPREC
 40
2.0
  9
$PSOLWIDTH
 40
0.25
  9
$PSOLHEIGHT
 40
4.0
  9
$LOFTANG1
 40
1.570796326794896
  9
$LOFTANG2
 40
1.570796326794896
  9
$LOFTMAG1
 40
0.0
  9
$LOFTMAG2
 40
0.0
  9
$LOFTPARAM
 70
     7
  9
$LOFTNORMALS
280
     1
  9
$LATITUDE
 40
37.795
  9
$LONGITUDE
 40
-122.394
  9
$NORTHDIRECTION
 40
0.0
  9
$TIMEZONE
 70
 -8000
  9
$LIGHTGLYPHDISPLAY
280
     1
  9
$TILEMODELIGHTSYNCH
280
     1
  9
$CMATERIAL
347
11
  9
$SOLIDHIST
280
     0
  9
$SHOWHIST
280
     1
  9
$DWFFRAME
280
     2
  9
$DGNFRAME
280
     0
  9
$REALWORLDSCALE
290
     1
  9
$INTERFERECOLOR
 62
     1
  9
$INTERFEREOBJVS
345
33
  9
$INTERFEREVPVS
346
30
  9
$CSHADOW
280
     0
  9
$SHADOWPLANELOCATION
 40
0.0
  0
ENDSEC
  0
SECTION
  2
CLASSES
  0
CLASS
  1
ACDBDICTIONARYWDFLT
  2
AcDbDictionaryWithDefault
  3
ObjectDBX Classes
 90
        0
 91
        1
280
     0
281
     0
  0
CLASS
  1
MATERIAL
  2
AcDbMaterial
  3
ObjectDBX Classes
 90
     1153
 91
        3
280
     0
281
     0
  0
CLASS
  1
VISUALSTYLE
  2
AcDbVisualStyle
  3
ObjectDBX Classes
 90
     4095
 91
       24
280
     0
281
     0
  0
CLASS
  1
SCALE
  2
AcDbScale
  3
ObjectDBX Classes
 90
     1153
 91
       17
280
     0
281
     0
  0
CLASS
  1
TABLESTYLE
  2
AcDbTableStyle
  3
ObjectDBX Classes
 90
     4095
 91
        1
280
     0
281
     0
  0
CLASS
  1
MLEADERSTYLE
  2
AcDbMLeaderStyle
  3
ACDB_MLEADERSTYLE_CLASS
 90
     4095
 91
        1
280
     0
281
     0
  0
CLASS
  1
ACDBSECTIONVIEWSTYLE
  2
AcDbSectionViewStyle
  3
ObjectDBX Classes
 90
     1025
 91
        1
280
     0
281
     0
  0
CLASS
  1
ACDBDETAILVIEWSTYLE
  2
AcDbDetailViewStyle
  3
ObjectDBX Classes
 90
     1025
 91
        1
280
     0
281
     0
  0
CLASS
  1
DICTIONARYVAR
  2
AcDbDictionaryVar
  3
ObjectDBX Classes
 90
        0
 91
        5
280
     0
281
     0
  0
CLASS
  1
CELLSTYLEMAP
  2
AcDbCellStyleMap
  3
ObjectDBX Classes
 90
     1152
 91
        1
280
     0
281
     0
  0
ENDSEC
  0
SECTION
  2
TABLES
  0
TABLE
  2
VPORT
  5
8
330
0
100
AcDbSymbolTable
 70
     1
  0
VPORT
  5
57
330
8
100
AcDbSymbolTableRecord
100
AcDbViewportTableRecord
  2
*Active
 70
     0
 10
0.0
 20
0.0
 11
1.0
 21
1.0
 12
0.0
 22
0.0
 13
0.0
 23
0.0
 14
1.0
 24
1.0
 15
0.0
 25
0.0
 16
0.0
 26
0.0
 36
1.0
 17
1.133692387429865
 27
-2.472704803893015
 37
0.0
 40
5.49843197316956
 41
1.418102913245642
 42
50.0
 43
0.0
 44
0.0
 50
0.0
 51
0.0
 71
     0
 72
   100
 73
     1
 74
     1
 75
     0
 76
     0
 77
     0
 78
     0
281
     0
 65
     1
110
0.0
120
0.0
130
0.0
111
1.0
121
0.0
131
0.0
112
0.0
122
1.0
132
0.0
 79
     0
146
0.0
 60
     3
 61
     5
292
     1
282
     1
141
0.0
142
0.0
 63
   250
421
  3355443
  0
ENDTAB
  0
TABLE
  2
LTYPE
  5
5
330
0
100
AcDbSymbolTable
 70
     1
  0
LTYPE
  5
5B
330
5
100
AcDbSymbolTableRecord
100
AcDbLinetypeTableRecord
  2
ByBlock
 70
     0
  3

 72
    65
 73
     0
 40
0.0
  0
LTYPE
  5
5C
330
5
100
AcDbSymbolTableRecord
100
AcDbLinetypeTableRecord
  2
ByLayer
 70
     0
  3

 72
    65
 73
     0
 40
0.0
  0
LTYPE
  5
5D
330
5
100
AcDbSymbolTableRecord
100
AcDbLinetypeTableRecord
  2
Continuous
 70
     0
  3
Solid line
 72
    65
 73
     0
 40
0.0
  0
ENDTAB
  0
TABLE
  2
LAYER
  5
2
330
0
100
AcDbSymbolTable
 70
    12
  0
LAYER
  5
54
330
2
100
AcDbSymbolTableRecord
100
AcDbLayerTableRecord
  2
0
 70
     0
 62
     7
  6
Continuous
370
    -3
390
F
347
21
348
0
  0
LAYER
  5
78
330
2
100
AcDbSymbolTableRecord
100
AcDbLayerTableRecord
  2
Fonts
 70
     1
 62
     7
  6
Continuous
370
     0
390
F
347
21
348
0
  0
LAYER
  5
79
330
2
100
AcDbSymbolTableRecord
100
AcDbLayerTableRecord
  2
Green
 70
     5
 62
     7
  6
Continuous
370
     0
390
F
347
21
348
0
  0
LAYER
  5
7A
330
2
100
AcDbSymbolTableRecord
100
AcDbLayerTableRecord
  2
White
 70
     4
 62
     7
  6
Continuous
370
     0
390
F
347
21
348
0
  0
LAYER
  5
7B
330
2
100
AcDbSymbolTableRecord
100
AcDbLayerTableRecord
  2
Date
 70
     1
 62
     7
  6
Continuous
370
     0
390
F
347
21
348
0
  0
LAYER
  5
7C
330
2
100
AcDbSymbolTableRecord
100
AcDbLayerTableRecord
  2
Mr&Mrs with Date
 70
     1
 62
     7
  6
Continuous
370
     0
390
F
347
21
348
0
  0
LAYER
  5
7D
330
2
100
AcDbSymbolTableRecord
100
AcDbLayerTableRecord
  2
Cole Huber
 70
     1
 62
     7
  6
Continuous
370
     0
390
F
347
21
348
0
  0
LAYER
  5
7E
330
2
100
AcDbSymbolTableRecord
100
AcDbLayerTableRecord
  2
Inner Circle
 70
     1
 62
     7
  6
Continuous
370
     0
390
F
347
21
348
0
  0
LAYER
  5
7F
330
2
100
AcDbSymbolTableRecord
100
AcDbLayerTableRecord
  2
Bear With Balloons
 70
     0
 62
     7
  6
Continuous
370
     0
390
F
347
21
348
0
  0
LAYER
  5
B0
330
2
100
AcDbSymbolTableRecord
100
AcDbLayerTableRecord
  2
Milo's Baptism
 70
     1
 62
     7
  6
Continuous
370
     0
390
F
347
21
348
0
  0
LAYER
  5
B1
330
2
100
AcDbSymbolTableRecord
100
AcDbLayerTableRecord
  2
__Holidays
 70
     1
 62
     7
  6
Continuous
370
     0
390
F
347
21
348
0
  0
LAYER
  5
B2
330
2
100
AcDbSymbolTableRecord
100
AcDbLayerTableRecord
  2
_Birthday
 70
     1
 62
     7
  6
Continuous
370
     0
390
F
347
21
348
0
  0
ENDTAB
  0
TABLE
  2
STYLE
  5
3
330
0
100
AcDbSymbolTable
 70
     2
  0
STYLE
  5
55
330
3
100
AcDbSymbolTableRecord
100
AcDbTextStyleTableRecord
  2
Standard
 70
     0
 40
0.0
 41
1.0
 50
0.0
 71
     0
 42
0.2
  3
txt
  4

  0
STYLE
  5
5A
330
3
100
AcDbSymbolTableRecord
100
AcDbTextStyleTableRecord
  2
Annotative
 70
     0
 40
0.0
 41
1.0
 50
0.0
 71
     0
 42
0.2
  3
txt
  4

1001
AcadAnnotative
1000
AnnotativeData
1002
{
1070
     1
1070
     1
1002
}
  0
ENDTAB
  0
TABLE
  2
VIEW
  5
6
330
0
100
AcDbSymbolTable
 70
     0
  0
ENDTAB
  0
TABLE
  2
UCS
  5
7
330
0
100
AcDbSymbolTable
 70
     0
  0
ENDTAB
  0
TABLE
  2
APPID
  5
9
330
0
100
AcDbSymbolTable
 70
     2
  0
APPID
  5
56
330
9
100
AcDbSymbolTableRecord
100
AcDbRegAppTableRecord
  2
ACAD
 70
     0
  0
APPID
  5
5E
330
9
100
AcDbSymbolTableRecord
100
AcDbRegAppTableRecord
  2
AcadAnnotative
 70
     0
  0
ENDTAB
  0
TABLE
  2
DIMSTYLE
  5
A
330
0
100
AcDbSymbolTable
 70
     2
100
AcDbDimStyleTable
 71
     0
  0
DIMSTYLE
105
58
330
A
100
AcDbSymbolTableRecord
100
AcDbDimStyleTableRecord
  2
Standard
 70
     0
340
55
  0
DIMSTYLE
105
59
330
A
100
AcDbSymbolTableRecord
100
AcDbDimStyleTableRecord
  2
Annotative
 70
     0
340
55
1001
AcadAnnotative
1000
AnnotativeData
1002
{
1070
     1
1070
     1
1002
}
  0
ENDTAB
  0
TABLE
  2
BLOCK_RECORD
  5
1
330
0
100
AcDbSymbolTable
 70
     3
  0
BLOCK_RECORD
  5
70
330
1
100
AcDbSymbolTableRecord
100
AcDbBlockTableRecord
  2
*Model_Space
340
73
 70
     0
280
     1
281
     0
  0
BLOCK_RECORD
  5
6C
330
1
100
AcDbSymbolTableRecord
100
AcDbBlockTableRecord
  2
*Paper_Space
340
6F
 70
     0
280
     1
281
     0
  0
BLOCK_RECORD
  5
74
330
1
100
AcDbSymbolTableRecord
100
AcDbBlockTableRecord
  2
*Paper_Space0
340
77
 70
     0
280
     1
281
     0
  0
BLOCK_RECORD
  5
81
330
1
100
AcDbSymbolTableRecord
100
AcDbBlockTableRecord
  2
Block_0
340
0
102
{BLKREFS
331
82
102
}
 70
     0
280
     1
281
     0
  0
BLOCK_RECORD
  5
A2
330
1
100
AcDbSymbolTableRecord
100
AcDbBlockTableRecord
  2
Block_1
340
0
102
{BLKREFS
331
A3
102
}
 70
     0
280
     1
281
     0
  0
ENDTAB
  0
ENDSEC
  0
SECTION
  2
BLOCKS
  0
BLOCK
  5
71
330
70
100
AcDbEntity
  8
0
100
AcDbBlockBegin
  2
*Model_Space
 70
     0
 10
0.0
 20
0.0
 30
0.0
  3
*Model_Space
  1

  0
ENDBLK
  5
72
330
70
100
AcDbEntity
  8
0
100
AcDbBlockEnd
  0
BLOCK
  5
6D
330
6C
100
AcDbEntity
 67
     1
  8
0
100
AcDbBlockBegin
  2
*Paper_Space
 70
     0
 10
0.0
 20
0.0
 30
0.0
  3
*Paper_Space
  1

  0
ENDBLK
  5
6E
330
6C
100
AcDbEntity
 67
     1
  8
0
100
AcDbBlockEnd
  0
BLOCK
  5
75
330
74
100
AcDbEntity
 67
     1
  8
0
100
AcDbBlockBegin
  2
*Paper_Space0
 70
     0
 10
0.0
 20
0.0
 30
0.0
  3
*Paper_Space0
  1

  0
ENDBLK
  5
76
330
74
100
AcDbEntity
 67
     1
  8
0
100
AcDbBlockEnd
  0
BLOCK
  5
83
330
81
100
AcDbEntity
  8
0
100
AcDbBlockBegin
  2
Block_0
 70
     0
 10
0.0
 20
0.0
 30
0.0
  3
Block_0
  1

  0
SPLINE
  5
85
330
81
100
AcDbEntity
  8
Bear With Balloons
 62
    18
420
        0
370
     9
100
AcDbSpline
210
0.0
220
0.0
230
1.0
 70
     8
 71
     3
 72
    11
 73
     7
 74
     0
 42
0.0000000001
 43
0.0000000001
 40
0.0
 40
0.0
 40
0.0
 40
0.0
 40
1.0
 40
1.0
 40
1.0
 40
2.0
 40
2.0
 40
2.0
 40
2.0
 10
1.351027719066577
 20
-2.632770820882317
 30
0.0
 10
1.2832173688624
 20
-2.580098930052978
 30
0.0
 10
1.240838198423691
 20
-2.505139647593498
 30
0.0
 10
1.240838198423691
 20
-2.421963003496784
 30
0.0
 10
1.240838198423691
 20
-2.395710340998347
 30
0.0
 10
1.245059985964593
 20
-2.37027628713761
 30
0.0
 10
1.252970675304418
 20
-2.3461032376248
 30
0.0
  0
SPLINE
  5
86
330
81
100
AcDbEntity
  8
Bear With Balloons
 62
    18
420
        0
370
     9
100
AcDbSpline
210
0.0
220
0.0
230
1.0
 70
     8
 71
     3
 72
    17
 73
    13
 74
     0
 42
0.0000000001
 43
0.0000000001
 40
0.0
 40
0.0
 40
0.0
 40
0.0
 40
1.0
 40
1.0
 40
1.0
 40
2.0
 40
2.0
 40
2.0
 40
3.0
 40
3.0
 40
3.0
 40
4.0
 40
4.0
 40
4.0
 40
4.0
 10
1.354539269862041
 20
-2.208464686343581
 30
0.0
 10
1.41630512968393
 20
-2.161785124697618
 30
0.0
 10
1.498405735822213
 20
-2.133327789198119
 30
0.0
 10
1.588512433828883
 20
-2.133327789198119
 30
0.0
 10
1.780527611941554
 20
-2.133327789198119
 30
0.0
 10
1.9361866692341
 20
-2.262554176384405
 30
0.0
 10
1.9361866692341
 20
-2.421963003496784
 30
0.0
 10
1.9361866692341
 20
-2.581371830609188
 30
0.0
 10
1.780527611941554
 20
-2.71059821779545
 30
0.0
 10
1.588512433828883
 20
-2.71059821779545
 30
0.0
 10
1.584299774213225
 20
-2.71059821779545
 30
0.0
 10
1.580104613836333
 20
-2.710536017446277
 30
0.0
 10
1.575928212532971
 20
-2.710412662648448
 30
0.0
  0
SPLINE
  5
87
330
81
100
AcDbEntity
  8
Bear With Balloons
 62
    18
420
        0
370
     9
100
AcDbSpline
210
0.0
220
0.0
230
1.0
 70
     8
 71
     3
 72
     8
 73
     4
 74
     0
 42
0.0000000001
 43
0.0000000001
 40
0.0
 40
0.0
 40
0.0
 40
0.0
 40
1.0
 40
1.0
 40
1.0
 40
1.0
 10
1.33447965422695
 20
-2.224899250481485
 30
0.0
 10
1.340897034943559
 20
-2.219200079181316
 30
0.0
 10
1.347589427772264
 20
-2.213717030975304
 30
0.0
 10
1.354539269862041
 20
-2.208464686343581
 30
0.0
  0
SPLINE
  5
88
330
81
100
AcDbEntity
  8
Bear With Balloons
 62
    18
420
        0
370
     9
100
AcDbSpline
210
0.0
220
0.0
230
1.0
 70
     8
 71
     3
 72
     8
 73
     4
 74
     0
 42
0.0000000001
 43
0.0000000001
 40
0.0
 40
0.0
 40
0.0
 40
0.0
 40
1.0
 40
1.0
 40
1.0
 40
1.0
 10
1.252970675304418
 20
-2.3461032376248
 30
0.0
 10
1.26801710226904
 20
-2.300125193439169
 30
0.0
 10
1.296409039926225
 20
-2.258709143019384
 30
0.0
 10
1.33447965422695
 20
-2.224899250481485
 30
0.0
  0
SPLINE
  5
89
330
81
100
AcDbEntity
  8
Bear With Balloons
 62
    18
420
        0
370
     9
100
AcDbSpline
210
0.0
220
0.0
230
1.0
 70
     8
 71
     3
 72
    20
 73
    16
 74
     0
 42
0.0000000001
 43
0.0000000001
 40
0.0
 40
0.0
 40
0.0
 40
0.0
 40
1.0
 40
1.0
 40
1.0
 40
2.0
 40
2.0
 40
2.0
 40
3.0
 40
3.0
 40
3.0
 40
4.0
 40
4.0
 40
4.0
 40
5.0
 40
5.0
 40
5.0
 40
5.0
 10
1.782619901213416
 20
-2.182465618139025
 30
0.0
 10
1.782425962594793
 20
-2.179628835051314
 30
0.0
 10
1.782327402116329
 20
-2.176765849592053
 30
0.0
 10
1.782327402116329
 20
-2.1738798440996
 30
0.0
 10
1.782327402116329
 20
-2.105373571286337
 30
0.0
 10
1.837862709002516
 20
-2.049838264392671
 30
0.0
 10
1.906368981806559
 20
-2.049838264392671
 30
0.0
 10
1.974875254610575
 20
-2.049838264392671
 30
0.0
 10
2.030410561496814
 20
-2.105373571286337
 30
0.0
 10
2.030410561496814
 20
-2.1738798440996
 30
0.0
 10
2.030410561496814
 20
-2.242386116912863
 30
0.0
 10
1.974875254610575
 20
-2.297921423806554
 30
0.0
 10
1.906368981806559
 20
-2.297921423806554
 30
0.0
 10
1.905074006343182
 20
-2.297921423806554
 30
0.0
 10
1.903783665719503
 20
-2.297901579698848
 30
0.0
 10
1.902498247436622
 20
-2.29786217898446
 30
0.0
  0
SPLINE
  5
8A
330
81
100
AcDbEntity
  8
Bear With Balloons
 62
    18
420
        0
370
     9
100
AcDbSpline
210
0.0
220
0.0
230
1.0
 70
     8
 71
     3
 72
    14
 73
    10
 74
     0
 42
0.0000000001
 43
0.0000000001
 40
0.0
 40
0.0
 40
0.0
 40
0.0
 40
1.0
 40
1.0
 40
1.0
 40
2.0
 40
2.0
 40
2.0
 40
3.0
 40
3.0
 40
3.0
 40
3.0
 10
1.889657198130306
 20
-2.277621301015389
 30
0.0
 10
1.911054916865547
 20
-2.265249792967956
 30
0.0
 10
1.925452301763395
 20
-2.24211854444219
 30
0.0
 10
1.925452301763395
 20
-2.215624606498168
 30
0.0
 10
1.925452301763395
 20
-2.176101756800865
 30
0.0
 10
1.893412701633122
 20
-2.144062156672033
 30
0.0
 10
1.853889851934076
 20
-2.144062156672033
 30
0.0
 10
1.826956162280415
 20
-2.144062156672033
 30
0.0
 10
1.803497717657061
 20
-2.158941449430813
 30
0.0
 10
1.791286049840462
 20
-2.180928503172253
 30
0.0
  0
SPLINE
  5
8B
330
81
100
AcDbEntity
  8
Bear With Balloons
 62
    18
420
        0
370
     9
100
AcDbSpline
210
0.0
220
0.0
230
1.0
 70
     8
 71
     3
 72
     8
 73
     4
 74
     0
 42
0.0000000001
 43
0.0000000001
 40
0.0
 40
0.0
 40
0.0
 40
0.0
 40
1.0
 40
1.0
 40
1.0
 40
1.0
 10
1.791286049840462
 20
-2.180928503172253
 30
0.0
 10
1.790373974377997
 20
-2.182570690997105
 30
0.0
 10
1.789524638213783
 20
-2.184252528931791
 30
0.0
 10
1.788741279326586
 20
-2.18597077899762
 30
0.0
  0
SPLINE
  5
8C
330
81
100
AcDbEntity
  8
Bear With Balloons
 62
    18
420
        0
370
     9
100
AcDbSpline
210
0.0
220
0.0
230
1.0
 70
     8
 71
     3
 72
    17
 73
    13
 74
     0
 42
0.0000000001
 43
0.0000000001
 40
0.0
 40
0.0
 40
0.0
 40
0.0
 40
1.0
 40
1.0
 40
1.0
 40
2.0
 40
2.0
 40
2.0
 40
3.0
 40
3.0
 40
3.0
 40
4.0
 40
4.0
 40
4.0
 40
4.0
 10
1.248508084809069
 20
-2.361469571611627
 30
0.0
 10
1.189841972699367
 20
-2.375158397928594
 30
0.0
 10
1.128374408381457
 20
-2.344354129441879
 30
0.0
 10
1.105305163804915
 20
-2.286706406270089
 30
0.0
 10
1.07985291420189
 20
-2.223103793087577
 30
0.0
 10
1.110779894505513
 20
-2.15091056271227
 30
0.0
 10
1.17438250769659
 20
-2.125458313105835
 30
0.0
 10
1.237985120887666
 20
-2.100006063499373
 30
0.0
 10
1.310178351267141
 20
-2.130933043793245
 30
0.0
 10
1.335630600870192
 20
-2.194535656975757
 30
0.0
 10
1.338728377543222
 20
-2.20227668947915
 30
0.0
 10
1.34099099937594
 20
-2.210144976213263
 30
0.0
 10
1.342461201598679
 20
-2.218040759804327
 30
0.0
  0
SPLINE
  5
8D
330
81
100
AcDbEntity
  8
Bear With Balloons
 62
    18
420
        0
370
     9
100
AcDbSpline
210
0.0
220
0.0
230
1.0
 70
     8
 71
     3
 72
    14
 73
    10
 74
     0
 42
0.0000000001
 43
0.0000000001
 40
0.0
 40
0.0
 40
0.0
 40
0.0
 40
1.0
 40
1.0
 40
1.0
 40
2.0
 40
2.0
 40
2.0
 40
3.0
 40
3.0
 40
3.0
 40
3.0
 10
1.332539947768181
 20
-2.226636457867117
 30
0.0
 10
1.313094570515002
 20
-2.204463682192984
 30
0.0
 10
1.281073245042686
 20
-2.195813596845912
 30
0.0
 10
1.252134508817738
 20
-2.207394189226281
 30
0.0
 10
1.215440693517646
 20
-2.222078179382859
 30
0.0
 10
1.197598204884292
 20
-2.263728119986555
 30
0.0
 10
1.212282195041552
 20
-2.300421935288265
 30
0.0
 10
1.220210415429417
 20
-2.320233761056972
 30
0.0
 10
1.235999657440667
 20
-2.334550112566249
 30
0.0
 10
1.254625500192282
 20
-2.341218569639648
 30
0.0
  0
ELLIPSE
  5
8E
330
81
100
AcDbEntity
  8
Bear With Balloons
 62
    18
420
        0
370
     9
100
AcDbEllipse
 10
1.451297651110425
 20
-2.44061787072555
 30
0.0
 11
0.0
 21
0.0624183590150235
 31
0.0
210
0.0
220
0.0
230
1.0
 40
0.5294117647058109
 41
0.0
 42
6.283185307179585
  0
ELLIPSE
  5
8F
330
81
100
AcDbEntity
  8
Bear With Balloons
 62
    18
420
        0
370
     9
100
AcDbEllipse
 10
1.445956752660473
 20
-2.414709135211126
 30
0.0
 11
0.0
 21
0.0298485709867325
 31
0.0
210
0.0
220
0.0
230
1.0
 40
0.6078286829605517
 41
0.0
 42
6.283185307179586
  0
ELLIPSE
  5
90
330
81
100
AcDbEntity
  8
Bear With Balloons
 62
    18
420
        0
370
     9
100
AcDbEllipse
 10
1.720995403368299
 20
-2.431305878890757
 30
0.0
 11
0.0
 21
0.0624183590150235
 31
0.0
210
0.0
220
0.0
230
1.0
 40
0.5294117647058109
 41
0.0
 42
6.283185307179585
  0
ELLIPSE
  5
91
330
81
100
AcDbEntity
  8
Bear With Balloons
 62
    18
420
        0
370
     9
100
AcDbEllipse
 10
1.715654504918341
 20
-2.405397143376338
 30
0.0
 11
0.0
 21
0.0298485709867262
 31
0.0
210
0.0
220
0.0
230
1.0
 40
0.6078286829604688
 41
0.0
 42
6.283185307179586
  0
SPLINE
  5
92
330
81
100
AcDbEntity
  8
Bear With Balloons
 62
    18
420
        0
370
     9
100
AcDbSpline
210
0.0
220
0.0
230
1.0
 70
    11
 71
     3
 72
    35
 73
    31
 74
     0
 42
0.0000000001
 43
0.0000000001
 40
0.0
 40
0.0
 40
0.0
 40
0.0
 40
1.0
 40
1.0
 40
1.0
 40
2.0
 40
2.0
 40
2.0
 40
3.0
 40
3.0
 40
3.0
 40
4.0
 40
4.0
 40
4.0
 40
5.0
 40
5.0
 40
5.0
 40
6.0
 40
6.0
 40
6.0
 40
7.0
 40
7.0
 40
7.0
 40
8.0
 40
8.0
 40
8.0
 40
9.0
 40
9.0
 40
9.0
 40
10.0
 40
10.0
 40
10.0
 40
10.0
 10
1.634308539864125
 20
-2.566190081483202
 30
0.0
 10
1.629093659769043
 20
-2.566190081483202
 30
0.0
 10
1.624866442038612
 20
-2.570284432394373
 30
0.0
 10
1.624866442038612
 20
-2.575334512014074
 30
0.0
 10
1.624866442038612
 20
-2.576246331945387
 30
0.0
 10
1.62514586152977
 20
-2.577074326029383
 30
0.0
 10
1.625402471266549
 20
-2.577905171332657
 30
0.0
 10
1.624063538684443
 20
-2.596004711433023
 30
0.0
 10
1.609116876883212
 20
-2.610320683525666
 30
0.0
 10
1.590675190467158
 20
-2.610320683525666
 30
0.0
 10
1.572234074294935
 20
-2.610320683525666
 30
0.0
 10
1.55728855298144
 20
-2.596006422164615
 30
0.0
 10
1.555948479911648
 20
-2.577907452308105
 30
0.0
 10
1.556205659892283
 20
-2.57707603676095
 30
0.0
 10
1.556484509139535
 20
-2.576246902189268
 30
0.0
 10
1.556484509139535
 20
-2.575334512014074
 30
0.0
 10
1.556484509139535
 20
-2.570284432394373
 30
0.0
 10
1.552256721165273
 20
-2.566190081483202
 30
0.0
 10
1.547041841070191
 20
-2.566190081483202
 30
0.0
 10
1.541827531218965
 20
-2.566190081483202
 30
0.0
 10
1.537599743244653
 20
-2.570284432394373
 30
0.0
 10
1.537599743244653
 20
-2.575334512014074
 30
0.0
 10
1.537599743244653
 20
-2.604647327367527
 30
0.0
 10
1.56136237511368
 20
-2.628409959236553
 30
0.0
 10
1.590675190467158
 20
-2.628409959236553
 30
0.0
 10
1.619988005820636
 20
-2.628409959236553
 30
0.0
 10
1.643750637689638
 20
-2.604647327367527
 30
0.0
 10
1.643750637689638
 20
-2.575334512014074
 30
0.0
 10
1.643750637689638
 20
-2.570284432394373
 30
0.0
 10
1.639523419959207
 20
-2.566190081483202
 30
0.0
 10
1.634308539864125
 20
-2.566190081483202
 30
0.0
  0
SPLINE
  5
93
330
81
100
AcDbEntity
  8
Bear With Balloons
 62
    18
420
        0
370
     9
100
AcDbSpline
210
0.0
220
0.0
230
1.0
 70
     8
 71
     3
 72
    17
 73
    13
 74
     0
 42
0.0000000001
 43
0.0000000001
 40
0.0
 40
0.0
 40
0.0
 40
0.0
 40
1.0
 40
1.0
 40
1.0
 40
2.0
 40
2.0
 40
2.0
 40
3.0
 40
3.0
 40
3.0
 40
4.0
 40
4.0
 40
4.0
 40
4.0
 10
1.644567712650288
 20
-2.491451488834298
 30
0.0
 10
1.710509592990597
 20
-2.502643315903595
 30
0.0
 10
1.758473252165913
 20
-2.536717337889664
 30
0.0
 10
1.758473252165913
 20
-2.577014978120031
 30
0.0
 10
1.758473252165913
 20
-2.626418540241653
 30
0.0
 10
1.686384151876053
 20
-2.666468040402706
 30
0.0
 10
1.597457740057153
 20
-2.666468040402706
 30
0.0
 10
1.508531328238228
 20
-2.666468040402706
 30
0.0
 10
1.436442227948393
 20
-2.626418540241653
 30
0.0
 10
1.436442227948393
 20
-2.577014978120031
 30
0.0
 10
1.436442227948393
 20
-2.538349633888881
 30
0.0
 10
1.480598951363794
 20
-2.505413931519619
 30
0.0
 10
1.542425128452451
 20
-2.492923020868955
 30
0.0
  0
SPLINE
  5
94
330
81
100
AcDbEntity
  8
Bear With Balloons
 62
    18
420
        0
370
     9
100
AcDbSpline
210
0.0
220
0.0
230
1.0
 70
    11
 71
     3
 72
    23
 73
    19
 74
     0
 42
0.0000000001
 43
0.0000000001
 40
0.0
 40
0.0
 40
0.0
 40
0.0
 40
1.0
 40
1.0
 40
1.0
 40
2.0
 40
2.0
 40
2.0
 40
3.0
 40
3.0
 40
3.0
 40
4.0
 40
4.0
 40
4.0
 40
5.0
 40
5.0
 40
5.0
 40
6.0
 40
6.0
 40
6.0
 40
6.0
 10
1.590675190467158
 20
-2.467285888386666
 30
0.0
 10
1.590675190467158
 20
-2.467285888386666
 30
0.0
 10
1.630733967066311
 20
-2.465509782452322
 30
0.0
 10
1.641587917449921
 20
-2.479212963357693
 30
0.0
 10
1.652441867833507
 20
-2.492916144263037
 30
0.0
 10
1.631449903724564
 20
-2.519765018259148
 30
0.0
 10
1.631449903724564
 20
-2.519765018259148
 30
0.0
 10
1.631449903724564
 20
-2.519765018259148
 30
0.0
 10
1.60521033878831
 20
-2.544215521949733
 30
0.0
 10
1.593581440691574
 20
-2.544811875698314
 30
0.0
 10
1.581952542594838
 20
-2.545408229446846
 30
0.0
 10
1.554222093287206
 20
-2.514994188270748
 30
0.0
 10
1.554222093287206
 20
-2.514994188270748
 30
0.0
 10
1.554222093287206
 20
-2.514994188270748
 30
0.0
 10
1.535124278441319
 20
-2.493247206925515
 30
0.0
 10
1.544680433310405
 20
-2.480107493980514
 30
0.0
 10
1.556607508281406
 20
-2.463707765895353
 30
0.0
 10
1.590675190467158
 20
-2.467285888386666
 30
0.0
 10
1.590675190467158
 20
-2.467285888386666
 30
0.0
  0
SPLINE
  5
95
330
81
100
AcDbEntity
  8
Bear With Balloons
 62
    18
420
        0
370
     9
100
AcDbSpline
210
0.0
220
0.0
230
1.0
 70
    11
 71
     3
 72
    41
 73
    37
 74
     0
 42
0.0000000001
 43
0.0000000001
 40
0.0
 40
0.0
 40
0.0
 40
0.0
 40
1.0
 40
1.0
 40
1.0
 40
2.0
 40
2.0
 40
2.0
 40
3.0
 40
3.0
 40
3.0
 40
4.0
 40
4.0
 40
4.0
 40
5.0
 40
5.0
 40
5.0
 40
6.0
 40
6.0
 40
6.0
 40
7.0
 40
7.0
 40
7.0
 40
8.0
 40
8.0
 40
8.0
 40
9.0
 40
9.0
 40
9.0
 40
10.0
 40
10.0
 40
10.0
 40
11.0
 40
11.0
 40
11.0
 40
12.0
 40
12.0
 40
12.0
 40
12.0
 10
1.360506517299553
 20
-2.61279620303306
 30
0.0
 10
1.360506517299553
 20
-2.61279620303306
 30
0.0
 10
1.348270035839858
 20
-2.633469799649497
 30
0.0
 10
1.342461201598679
 20
-2.660504502917167
 30
0.0
 10
1.336652367357525
 20
-2.687539206184788
 30
0.0
 10
1.342461201598679
 20
-2.73524750606887
 30
0.0
 10
1.342461201598679
 20
-2.73524750606887
 30
0.0
 10
1.342461201598679
 20
-2.73524750606887
 30
0.0
 10
1.427813935069353
 20
-2.720139877772251
 30
0.0
 10
1.427813935069353
 20
-2.720139877772251
 30
0.0
 10
1.427813935069353
 20
-2.720139877772251
 30
0.0
 10
1.43121955826483
 20
-2.738428059394486
 30
0.0
 10
1.445956752660473
 20
-2.74001833605727
 30
0.0
 10
1.460693947056117
 20
-2.741608612720078
 30
0.0
 10
1.470619880781214
 20
-2.748764857702654
 30
0.0
 10
1.484342664706597
 20
-2.74001833605727
 30
0.0
 10
1.484342664706597
 20
-2.74001833605727
 30
0.0
 10
1.537599743244653
 20
-2.787527851358516
 30
0.0
 10
1.537599743244653
 20
-2.787527851358516
 30
0.0
 10
1.537599743244653
 20
-2.787527851358516
 30
0.0
 10
1.566447345132498
 20
-2.760691932673757
 30
0.0
 10
1.573007236366568
 20
-2.73743413648026
 30
0.0
 10
1.579567127600638
 20
-2.714176340286762
 30
0.0
 10
1.573007236366568
 20
-2.672431577888219
 30
0.0
 10
1.573007236366568
 20
-2.672431577888219
 30
0.0
 10
1.573007236366568
 20
-2.672431577888219
 30
0.0
 10
1.503233847786102
 20
-2.689725836596178
 30
0.0
 10
1.503233847786102
 20
-2.689725836596178
 30
0.0
 10
1.503233847786102
 20
-2.689725836596178
 30
0.0
 10
1.494288541557832
 20
-2.676009700379507
 30
0.0
 10
1.481765112838274
 20
-2.672431577888219
 30
0.0
 10
1.469241684118691
 20
-2.668853455396881
 30
0.0
 10
1.457473801449951
 20
-2.660504502917167
 30
0.0
 10
1.445956752660473
 20
-2.67064251664255
 30
0.0
 10
1.445956752660473
 20
-2.67064251664255
 30
0.0
 10
1.360506517299553
 20
-2.61279620303306
 30
0.0
 10
1.360506517299553
 20
-2.61279620303306
 30
0.0
  0
SPLINE
  5
96
330
81
100
AcDbEntity
  8
Bear With Balloons
 62
    18
420
        0
370
     9
100
AcDbSpline
210
0.0
220
0.0
230
1.0
 70
     8
 71
     3
 72
    11
 73
     7
 74
     0
 42
0.0000000001
 43
0.0000000001
 40
0.0
 40
0.0
 40
0.0
 40
0.0
 40
1.0
 40
1.0
 40
1.0
 40
2.0
 40
2.0
 40
2.0
 40
2.0
 10
1.568924621248344
 20
-2.747616821953745
 30
0.0
 10
1.568924621248344
 20
-2.747616821953745
 30
0.0
 10
1.703608707299205
 20
-2.745981873542783
 30
0.0
 10
1.797037461238864
 20
-2.69071975951043
 30
0.0
 10
1.797037461238864
 20
-2.69071975951043
 30
0.0
 10
1.779767531358301
 20
-2.663038482860378
 30
0.0
 10
1.779767531358301
 20
-2.663038482860378
 30
0.0
  0
SPLINE
  5
97
330
81
100
AcDbEntity
  8
Bear With Balloons
 62
    18
420
        0
370
     9
100
AcDbSpline
210
0.0
220
0.0
230
1.0
 70
     8
 71
     3
 72
    11
 73
     7
 74
     0
 42
0.0000000001
 43
0.0000000001
 40
0.0
 40
0.0
 40
0.0
 40
0.0
 40
1.0
 40
1.0
 40
1.0
 40
2.0
 40
2.0
 40
2.0
 40
2.0
 10
1.368577531286215
 20
-2.884409314738983
 30
0.0
 10
1.366406966169809
 20
-2.870872762028991
 30
0.0
 10
1.365277347288004
 20
-2.856968842216524
 30
0.0
 10
1.365277347288004
 20
-2.84278996539092
 30
0.0
 10
1.365277347288004
 20
-2.800752943937191
 30
0.0
 10
1.375206499224835
 20
-2.761132746426154
 30
0.0
 10
1.392754015683749
 20
-2.726337557097495
 30
0.0
  0
SPLINE
  5
98
330
81
100
AcDbEntity
  8
Bear With Balloons
 62
    18
420
        0
370
     9
100
AcDbSpline
210
0.0
220
0.0
230
1.0
 70
     8
 71
     3
 72
    11
 73
     7
 74
     0
 42
0.0000000001
 43
0.0000000001
 40
0.0
 40
0.0
 40
0.0
 40
0.0
 40
1.0
 40
1.0
 40
1.0
 40
2.0
 40
2.0
 40
2.0
 40
2.0
 10
1.813089296439051
 20
-2.970028660419883
 30
0.0
 10
1.771246733802652
 20
-3.043901497430472
 30
0.0
 10
1.694079847225919
 20
-3.093457324365165
 30
0.0
 10
1.605806692536867
 20
-3.093457324365165
 30
0.0
 10
1.524448712798984
 20
-3.093457324365165
 30
0.0
 10
1.452525065374857
 20
-3.051361623572195
 30
0.0
 10
1.40899642553965
 20
-2.986930066219429
 30
0.0
  0
SPLINE
  5
99
330
81
100
AcDbEntity
  8
Bear With Balloons
 62
    18
420
        0
370
     9
100
AcDbSpline
210
0.0
220
0.0
230
1.0
 70
     8
 71
     3
 72
    11
 73
     7
 74
     0
 42
0.0000000001
 43
0.0000000001
 40
0.0
 40
0.0
 40
0.0
 40
0.0
 40
1.0
 40
1.0
 40
1.0
 40
2.0
 40
2.0
 40
2.0
 40
2.0
 10
1.797035412648912
 20
-2.690721934782914
 30
0.0
 10
1.82796377952761
 20
-2.73289848207777
 30
0.0
 10
1.846336037785754
 20
-2.785608256658683
 30
0.0
 10
1.846336037785754
 20
-2.84278996539092
 30
0.0
 10
1.846336037785754
 20
-2.861125962846194
 30
0.0
 10
1.844446927278214
 20
-2.879002137797619
 30
0.0
 10
1.840860474998635
 20
-2.89621863869522
 30
0.0
  0
ELLIPSE
  5
9A
330
81
100
AcDbEntity
  8
Bear With Balloons
 62
    18
420
        0
370
     9
100
AcDbEllipse
 10
1.282915435304327
 20
-3.005106332973658
 30
0.0
 11
-0.0270426493554532
 21
0.1142116555331803
 31
0.0
210
0.0
220
0.0
230
0.9999999999999998
 40
0.6853242876614636
 41
0.0
 42
6.283185307179586
  0
ELLIPSE
  5
9B
330
81
100
AcDbEntity
  8
Bear With Balloons
 62
    18
420
        0
370
     9
100
AcDbEllipse
 10
1.286401535139052
 20
-2.99392358104825
 30
0.0
 11
-0.0400139777500121
 21
0.1689946344837711
 31
0.0
210
0.0
220
0.0
230
1.0
 40
0.7017682416308517
 41
0.0
 42
6.283185307179586
  0
ELLIPSE
  5
9C
330
81
100
AcDbEntity
  8
Bear With Balloons
 62
    18
420
        0
370
     9
100
AcDbEllipse
 10
1.938905593417321
 20
-3.002026433447225
 30
0.0
 11
0.0274906965247783
 21
0.1161039334786186
 31
0.0
210
0.0
220
0.0
230
0.9999999999999998
 40
0.6853242876613911
 41
0.0
 42
6.283185307179586
  0
ELLIPSE
  5
9D
330
81
100
AcDbEntity
  8
Bear With Balloons
 62
    18
420
        0
370
     9
100
AcDbEllipse
 10
1.93536173529339
 20
-2.990658403804407
 30
0.0
 11
0.0406769360728824
 21
0.1717945660515472
 31
0.0
210
0.0
220
0.0
230
1.0
 40
0.7017682416310037
 41
0.0
 42
6.283185307179586
  0
SPLINE
  5
9E
330
81
100
AcDbEntity
  8
Bear With Balloons
 62
    18
420
        0
370
     9
100
AcDbSpline
210
0.0
220
0.0
230
1.0
 70
     8
 71
     3
 72
     8
 73
     4
 74
     0
 42
0.0000000001
 43
0.0000000001
 40
0.0
 40
0.0
 40
0.0
 40
0.0
 40
1.0
 40
1.0
 40
1.0
 40
1.0
 10
1.314689822458073
 20
-3.165261925234188
 30
0.0
 10
1.397600601606275
 20
-3.165261925234188
 30
0.0
 10
1.46899095688271
 20
-3.125578026096895
 30
0.0
 10
1.501117625397329
 20
-3.068530863455356
 30
0.0
  0
SPLINE
  5
9F
330
81
100
AcDbEntity
  8
Bear With Balloons
 62
    18
420
        0
370
     9
100
AcDbSpline
210
0.0
220
0.0
230
1.0
 70
     8
 71
     3
 72
     8
 73
     4
 74
     0
 42
0.0000000001
 43
0.0000000001
 40
0.0
 40
0.0
 40
0.0
 40
0.0
 40
1.0
 40
1.0
 40
1.0
 40
1.0
 10
1.722206618494965
 20
-3.062181688684101
 30
0.0
 10
1.752617991611158
 20
-3.122386263091912
 30
0.0
 10
1.826045701398697
 20
-3.164835510535188
 30
0.0
 10
1.911796628768545
 20
-3.164835510535188
 30
0.0
  0
SPLINE
  5
A0
330
81
100
AcDbEntity
  8
Bear With Balloons
 62
    18
420
        0
370
     9
100
AcDbSpline
210
0.0
220
0.0
230
1.0
 70
     8
 71
     3
 72
    11
 73
     7
 74
     0
 42
0.0000000001
 43
0.0000000001
 40
0.0
 40
0.0
 40
0.0
 40
0.0
 40
1.0
 40
1.0
 40
1.0
 40
2.0
 40
2.0
 40
2.0
 40
2.0
 10
1.972161724110567
 20
-2.818050410309524
 30
0.0
 10
1.967824226213855
 20
-2.810389283856642
 30
0.0
 10
1.963161628580236
 20
-2.802763732927132
 30
0.0
 10
1.958175504953108
 20
-2.795206415237468
 30
0.0
 10
1.907941321509926
 20
-2.719067973523983
 30
0.0
 10
1.838420139420173
 20
-2.67039473920181
 30
0.0
 10
1.779681510216075
 20
-2.663805406613214
 30
0.0
  0
SPLINE
  5
A1
330
81
100
AcDbEntity
  8
Bear With Balloons
 62
    18
420
        0
370
     9
100
AcDbSpline
210
0.0
220
0.0
230
1.0
 70
     8
 71
     3
 72
    11
 73
     7
 74
     0
 42
0.0000000001
 43
0.0000000001
 40
0.0
 40
0.0
 40
0.0
 40
0.0
 40
1.0
 40
1.0
 40
1.0
 40
2.0
 40
2.0
 40
2.0
 40
2.0
 10
1.259698057363721
 20
-2.822857028457569
 30
0.0
 10
1.264777527517228
 20
-2.813578900536337
 30
0.0
 10
1.270332626947543
 20
-2.804342794828951
 30
0.0
 10
1.276360574960108
 20
-2.795206415237468
 30
0.0
 10
1.295650079211883
 20
-2.765969893520781
 30
0.0
 10
1.317783442647371
 20
-2.740783104149815
 30
0.0
 10
1.341058145714719
 20
-2.720473748625686
 30
0.0
  0
ENDBLK
  5
84
330
81
100
AcDbEntity
  8
0
100
AcDbBlockEnd
  0
BLOCK
  5
A4
330
A2
100
AcDbEntity
  8
0
100
AcDbBlockBegin
  2
Block_1
 70
     0
 10
0.0
 20
0.0
 30
0.0
  3
Block_1
  1

  0
SPLINE
  5
A6
330
A2
100
AcDbEntity
  8
Bear With Balloons
 62
    18
420
        0
370
     9
100
AcDbSpline
210
0.0
220
0.0
230
1.0
 70
     9
 71
     3
 72
    26
 73
    22
 74
     0
 42
0.0000000001
 43
0.0000000001
 40
0.0
 40
0.0
 40
0.0
 40
0.0
 40
1.0
 40
1.0
 40
1.0
 40
2.0
 40
2.0
 40
2.0
 40
3.0
 40
3.0
 40
3.0
 40
4.0
 40
4.0
 40
4.0
 40
5.0
 40
5.0
 40
5.0
 40
6.0
 40
6.0
 40
6.0
 40
7.0
 40
7.0
 40
7.0
 40
7.0
 10
-0.0815361870659722
 20
-2.998467339409721
 30
0.0
 10
-0.0815361870659722
 20
-2.998467339409721
 30
0.0
 10
-0.0815361870659722
 20
-3.016167534722221
 30
0.0
 10
-0.0815361870659722
 20
-3.016167534722221
 30
0.0
 10
-0.0815361870659722
 20
-3.032430013020833
 30
0.0
 10
-0.0806003146701389
 20
-3.043240017361111
 30
0.0
 10
-0.0787217881944444
 20
-3.048570421006944
 30
0.0
 10
-0.0768500434027778
 20
-3.053914388020833
 30
0.0
 10
-0.0730455186631944
 20
-3.056586371527777
 30
0.0
 10
-0.06732177734375
 20
-3.056586371527777
 30
0.0
 10
-0.0523139105902778
 20
-3.056586371527777
 30
0.0
 10
-0.0448133680555556
 20
-3.0455322265625
 30
0.0
 10
-0.0448133680555556
 20
-3.023423936631944
 30
0.0
 10
-0.0448133680555556
 20
-2.995863172743055
 30
0.0
 10
-0.0532023111979167
 20
-2.982082790798611
 30
0.0
 10
-0.0699869791666667
 20
-2.982082790798611
 30
0.0
 10
-0.0743272569444444
 20
-2.982082790798611
 30
0.0
 10
-0.0773383246527778
 20
-2.983262803819444
 30
0.0
 10
-0.0790201822916667
 20
-2.985622829861111
 30
0.0
 10
-0.0806952582465278
 20
-2.987982855902777
 30
0.0
 10
-0.0815361870659722
 20
-2.992268880208333
 30
0.0
 10
-0.0815361870659722
 20
-2.998467339409721
 30
0.0
  0
SPLINE
  5
A7
330
A2
100
AcDbEntity
  8
Bear With Balloons
 62
    18
420
        0
370
     9
100
AcDbSpline
210
0.0
220
0.0
230
1.0
 70
     9
 71
     3
 72
    32
 73
    28
 74
     0
 42
0.0000000001
 43
0.0000000001
 40
0.0
 40
0.0
 40
0.0
 40
0.0
 40
1.0
 40
1.0
 40
1.0
 40
2.0
 40
2.0
 40
2.0
 40
3.0
 40
3.0
 40
3.0
 40
4.0
 40
4.0
 40
4.0
 40
5.0
 40
5.0
 40
5.0
 40
6.0
 40
6.0
 40
6.0
 40
7.0
 40
7.0
 40
7.0
 40
8.0
 40
8.0
 40
8.0
 40
9.0
 40
9.0
 40
9.0
 40
9.0
 10
-0.0815361870659722
 20
-2.891181098090277
 30
0.0
 10
-0.0815361870659722
 20
-2.891181098090277
 30
0.0
 10
-0.0815361870659722
 20
-2.929551866319444
 30
0.0
 10
-0.0815361870659722
 20
-2.929551866319444
 30
0.0
 10
-0.0815361870659722
 20
-2.935641818576388
 30
0.0
 10
-0.0809190538194444
 20
-2.939927842881944
 30
0.0
 10
-0.0796847873263889
 20
-2.942409939236111
 30
0.0
 10
-0.0784505208333333
 20
-2.944892035590277
 30
0.0
 10
-0.0763007269965278
 20
-2.946126302083333
 30
0.0
 10
-0.0732421875
 20
-2.946126302083333
 30
0.0
 10
-0.0659383138020833
 20
-2.946126302083333
 30
0.0
 10
-0.0605604383680556
 20
-2.943305121527777
 30
0.0
 10
-0.0571017795138889
 20
-2.937662760416666
 30
0.0
 10
-0.05364990234375
 20
-2.9320068359375
 30
0.0
 10
-0.0519205729166667
 20
-2.923163519965277
 30
0.0
 10
-0.0519205729166667
 20
-2.911119249131944
 30
0.0
 10
-0.0519205729166667
 20
-2.899441189236111
 30
0.0
 10
-0.0536973741319445
 20
-2.890407986111111
 30
0.0
 10
-0.0572509765625
 20
-2.884006076388888
 30
0.0
 10
-0.0608045789930556
 20
-2.877617730034721
 30
0.0
 10
-0.0658365885416667
 20
-2.874416775173611
 30
0.0
 10
-0.0723537868923611
 20
-2.874416775173611
 30
0.0
 10
-0.0758124457465278
 20
-2.874416775173611
 30
0.0
 10
-0.0781995985243056
 20
-2.875623914930555
 30
0.0
 10
-0.0795355902777778
 20
-2.8780517578125
 30
0.0
 10
-0.0808648003472222
 20
-2.880479600694444
 30
0.0
 10
-0.0815361870659722
 20
-2.884847005208333
 30
0.0
 10
-0.0815361870659722
 20
-2.891181098090277
 30
0.0
  0
SPLINE
  5
A8
330
A2
100
AcDbEntity
  8
Bear With Balloons
 62
    18
420
        0
370
     9
100
AcDbSpline
210
0.0
220
0.0
230
1.0
 70
     9
 71
     3
 72
   101
 73
    97
 74
     0
 42
0.0000000001
 43
0.0000000001
 40
0.0
 40
0.0
 40
0.0
 40
0.0
 40
1.0
 40
1.0
 40
1.0
 40
2.0
 40
2.0
 40
2.0
 40
3.0
 40
3.0
 40
3.0
 40
4.0
 40
4.0
 40
4.0
 40
5.0
 40
5.0
 40
5.0
 40
6.0
 40
6.0
 40
6.0
 40
7.0
 40
7.0
 40
7.0
 40
8.0
 40
8.0
 40
8.0
 40
9.0
 40
9.0
 40
9.0
 40
10.0
 40
10.0
 40
10.0
 40
11.0
 40
11.0
 40
11.0
 40
12.0
 40
12.0
 40
12.0
 40
13.0
 40
13.0
 40
13.0
 40
14.0
 40
14.0
 40
14.0
 40
15.0
 40
15.0
 40
15.0
 40
16.0
 40
16.0
 40
16.0
 40
17.0
 40
17.0
 40
17.0
 40
18.0
 40
18.0
 40
18.0
 40
19.0
 40
19.0
 40
19.0
 40
20.0
 40
20.0
 40
20.0
 40
21.0
 40
21.0
 40
21.0
 40
22.0
 40
22.0
 40
22.0
 40
23.0
 40
23.0
 40
23.0
 40
24.0
 40
24.0
 40
24.0
 40
25.0
 40
25.0
 40
25.0
 40
26.0
 40
26.0
 40
26.0
 40
27.0
 40
27.0
 40
27.0
 40
28.0
 40
28.0
 40
28.0
 40
29.0
 40
29.0
 40
29.0
 40
30.0
 40
30.0
 40
30.0
 40
31.0
 40
31.0
 40
31.0
 40
32.0
 40
32.0
 40
32.0
 40
32.0
 10
-0.0917494032118056
 20
-3.093275282118055
 30
0.0
 10
-0.0917494032118056
 20
-3.093275282118055
 30
0.0
 10
-0.1115926106770833
 20
-3.093465169270833
 30
0.0
 10
-0.1115926106770833
 20
-3.093465169270833
 30
0.0
 10
-0.1255154079861111
 20
-3.093709309895833
 30
0.0
 10
-0.13568115234375
 20
-3.094089084201388
 30
0.0
 10
-0.1420966254340278
 20
-3.094577365451388
 30
0.0
 10
-0.1478203667534722
 20
-3.095201280381944
 30
0.0
 10
-0.1519232855902778
 20
-3.095513237847221
 30
0.0
 10
-0.1543850368923611
 20
-3.095513237847221
 30
0.0
 10
-0.1604071723090278
 20
-3.095513237847221
 30
0.0
 10
-0.1651950412326389
 20
-3.093587239583333
 30
0.0
 10
-0.1687486436631944
 20
-3.089735243055555
 30
0.0
 10
-0.1722073025173611
 20
-3.085896809895833
 30
0.0
 10
-0.1739298502604166
 20
-3.081298828125
 30
0.0
 10
-0.1739298502604166
 20
-3.075954861111111
 30
0.0
 10
-0.1739298502604166
 20
-3.072482638888888
 30
0.0
 10
-0.1732923719618056
 20
-3.069742838541666
 30
0.0
 10
-0.1720106336805556
 20
-3.067762586805555
 30
0.0
 10
-0.1707288953993056
 20
-3.065782335069444
 30
0.0
 10
-0.1676161024305556
 20
-3.062676323784721
 30
0.0
 10
-0.1626790364583333
 20
-3.058444552951388
 30
0.0
 10
-0.1598171657986111
 20
-3.055962456597221
 30
0.0
 10
-0.1578436957465278
 20
-3.052083333333333
 30
0.0
 10
-0.1567586263020833
 20
-3.046807183159721
 30
0.0
 10
-0.1556735568576389
 20
-3.041531032986111
 30
0.0
 10
-0.1544867621527778
 20
-3.030205620659721
 30
0.0
 10
-0.1532050238715278
 20
-3.0128173828125
 30
0.0
 10
-0.1513264973958333
 20
-2.985744900173611
 30
0.0
 10
-0.150390625
 20
-2.952406141493055
 30
0.0
 10
-0.150390625
 20
-2.912787543402777
 30
0.0
 10
-0.150390625
 20
-2.898261176215277
 30
0.0
 10
-0.1511569552951389
 20
-2.888604058159721
 30
0.0
 10
-0.1526828342013889
 20
-2.883829752604166
 30
0.0
 10
-0.1542154947916666
 20
-2.879041883680555
 30
0.0
 10
-0.1577962239583333
 20
-2.875108506944444
 30
0.0
 10
-0.1634182400173611
 20
-2.872002495659721
 30
0.0
 10
-0.1699354383680556
 20
-2.868516710069444
 30
0.0
 10
-0.1731906467013889
 20
-2.863430447048611
 30
0.0
 10
-0.1731906467013889
 20
-2.856730143229166
 30
0.0
 10
-0.1731906467013889
 20
-2.851264105902777
 30
0.0
 10
-0.1712443033854166
 20
-2.846788194444444
 30
0.0
 10
-0.1673448350694444
 20
-2.843315972222221
 30
0.0
 10
-0.1634453667534722
 20
-2.83984375
 30
0.0
 10
-0.1584337022569444
 20
-2.838094075520833
 30
0.0
 10
-0.1523166232638889
 20
-2.838094075520833
 30
0.0
 10
-0.1489596896701389
 20
-2.838094075520833
 30
0.0
 10
-0.1446668836805556
 20
-2.838283962673611
 30
0.0
 10
-0.1394314236111111
 20
-2.838663736979166
 30
0.0
 10
-0.1307440863715278
 20
-2.839152018229166
 30
0.0
 10
-0.1213650173611111
 20
-2.839396158854166
 30
0.0
 10
-0.1112942165798611
 20
-2.839396158854166
 30
0.0
 10
-0.1038953993055556
 20
-2.839396158854166
 30
0.0
 10
-0.0893351236979167
 20
-2.839029947916666
 30
0.0
 10
-0.0676133897569445
 20
-2.838283962673611
 30
0.0
 10
-0.0608045789930556
 20
-2.838039822048611
 30
0.0
 10
-0.0546332465277778
 20
-2.837917751736111
 30
0.0
 10
-0.0491061740451389
 20
-2.837917751736111
 30
0.0
 10
-0.0359768337673611
 20
-2.837917751736111
 30
0.0
 10
-0.025390625
 20
-2.839246961805555
 30
0.0
 10
-0.0173407660590278
 20
-2.8419189453125
 30
0.0
 10
-0.0092976888020833
 20
-2.844590928819444
 30
0.0
 10
-0.0023125542534722
 20
-2.849093967013888
 30
0.0
 10
0.0036078559027778
 20
-2.855414496527777
 30
0.0
 10
0.0132853190104167
 20
-2.865736219618055
 30
0.0
 10
0.0181206597222222
 20
-2.8795166015625
 30
0.0
 10
0.0181206597222222
 20
-2.896769205729166
 30
0.0
 10
0.0181206597222222
 20
-2.905341254340277
 30
0.0
 10
0.0166897243923611
 20
-2.9136962890625
 30
0.0
 10
0.0138278537326389
 20
-2.921820746527777
 30
0.0
 10
0.0109592013888889
 20
-2.929958767361111
 30
0.0
 10
0.0071139865451389
 20
-2.936442057291666
 30
0.0
 10
0.0022786458333333
 20
-2.9412841796875
 30
0.0
 10
-0.0011800130208333
 20
-2.944769965277777
 30
0.0
 10
-0.0029093424479167
 20
-2.947930230034721
 30
0.0
 10
-0.0029093424479167
 20
-2.950792100694444
 30
0.0
 10
-0.0029093424479167
 20
-2.953898111979166
 30
0.0
 10
-0.0008341471354167
 20
-2.956502278645833
 30
0.0
 10
0.0033094618055556
 20
-2.958604600694444
 30
0.0
 10
0.0114067925347222
 20
-2.962714301215277
 30
0.0
 10
0.0187581380208333
 20
-2.9696044921875
 30
0.0
 10
0.0253770616319445
 20
-2.979288736979166
 30
0.0
 10
0.0321858723958333
 20
-2.989339192708333
 30
0.0
 10
0.0355902777777778
 20
-3.001953125
 30
0.0
 10
0.0355902777777778
 20
-3.017103407118055
 30
0.0
 10
0.0355902777777778
 20
-3.034979926215277
 30
0.0
 10
0.0304090711805556
 20
-3.051310221354166
 30
0.0
 10
0.0200466579861111
 20
-3.066080729166666
 30
0.0
 10
0.0063205295138889
 20
-3.085584852430555
 30
0.0
 10
-0.0139634874131945
 20
-3.095323350694444
 30
0.0
 10
-0.0408121744791667
 20
-3.095323350694444
 30
0.0
 10
-0.0444675021701389
 20
-3.095323350694444
 30
0.0
 10
-0.0534532335069445
 20
-3.095011393229166
 30
0.0
 10
-0.0677625868055556
 20
-3.094401041666666
 30
0.0
 10
-0.0807969835069444
 20
-3.093777126736111
 30
0.0
 10
-0.0887925889756944
 20
-3.093397352430555
 30
0.0
 10
-0.0917494032118056
 20
-3.093275282118055
 30
0.0
  0
SPLINE
  5
A9
330
A2
100
AcDbEntity
  8
Bear With Balloons
 62
    18
420
        0
370
     9
100
AcDbSpline
210
0.0
220
0.0
230
1.0
 70
     9
 71
     3
 72
    26
 73
    22
 74
     0
 42
0.0000000001
 43
0.0000000001
 40
0.0
 40
0.0
 40
0.0
 40
0.0
 40
1.0
 40
1.0
 40
1.0
 40
2.0
 40
2.0
 40
2.0
 40
3.0
 40
3.0
 40
3.0
 40
4.0
 40
4.0
 40
4.0
 40
5.0
 40
5.0
 40
5.0
 40
6.0
 40
6.0
 40
6.0
 40
7.0
 40
7.0
 40
7.0
 40
7.0
 10
0.1198459201388889
 20
-3.015611436631944
 30
0.0
 10
0.1155056423611111
 20
-3.015611436631944
 30
0.0
 10
0.1117282443576389
 20
-3.017835828993055
 30
0.0
 10
0.1085205078125
 20
-3.022311740451388
 30
0.0
 10
0.1053127712673611
 20
-3.026787651909721
 30
0.0
 10
0.1037055121527778
 20
-3.032118055555555
 30
0.0
 10
0.1037055121527778
 20
-3.038330078125
 30
0.0
 10
0.1037055121527778
 20
-3.044297960069444
 30
0.0
 10
0.1048448350694444
 20
-3.049099392361111
 30
0.0
 10
0.10711669921875
 20
-3.052761501736111
 30
0.0
 10
0.1093817816840278
 20
-3.056437174479166
 30
0.0
 10
0.1123928493923611
 20
-3.058268229166666
 30
0.0
 10
0.1161431206597222
 20
-3.058268229166666
 30
0.0
 10
0.1240437825520833
 20
-3.058268229166666
 30
0.0
 10
0.12799072265625
 20
-3.049886067708333
 30
0.0
 10
0.12799072265625
 20
-3.033121744791666
 30
0.0
 10
0.12799072265625
 20
-3.026285807291666
 30
0.0
 10
0.1274210611979166
 20
-3.021687825520833
 30
0.0
 10
0.1262885199652778
 20
-3.019327799479166
 30
0.0
 10
0.1251559787326389
 20
-3.016981336805555
 30
0.0
 10
0.1230061848958333
 20
-3.015733506944444
 30
0.0
 10
0.1198459201388889
 20
-3.015611436631944
 30
0.0
  0
SPLINE
  5
AA
330
A2
100
AcDbEntity
  8
Bear With Balloons
 62
    18
420
        0
370
     9
100
AcDbSpline
210
0.0
220
0.0
230
1.0
 70
     9
 71
     3
 72
   101
 73
    97
 74
     0
 42
0.0000000001
 43
0.0000000001
 40
0.0
 40
0.0
 40
0.0
 40
0.0
 40
1.0
 40
1.0
 40
1.0
 40
2.0
 40
2.0
 40
2.0
 40
3.0
 40
3.0
 40
3.0
 40
4.0
 40
4.0
 40
4.0
 40
5.0
 40
5.0
 40
5.0
 40
6.0
 40
6.0
 40
6.0
 40
7.0
 40
7.0
 40
7.0
 40
8.0
 40
8.0
 40
8.0
 40
9.0
 40
9.0
 40
9.0
 40
10.0
 40
10.0
 40
10.0
 40
11.0
 40
11.0
 40
11.0
 40
12.0
 40
12.0
 40
12.0
 40
13.0
 40
13.0
 40
13.0
 40
14.0
 40
14.0
 40
14.0
 40
15.0
 40
15.0
 40
15.0
 40
16.0
 40
16.0
 40
16.0
 40
17.0
 40
17.0
 40
17.0
 40
18.0
 40
18.0
 40
18.0
 40
19.0
 40
19.0
 40
19.0
 40
20.0
 40
20.0
 40
20.0
 40
21.0
 40
21.0
 40
21.0
 40
22.0
 40
22.0
 40
22.0
 40
23.0
 40
23.0
 40
23.0
 40
24.0
 40
24.0
 40
24.0
 40
25.0
 40
25.0
 40
25.0
 40
26.0
 40
26.0
 40
26.0
 40
27.0
 40
27.0
 40
27.0
 40
28.0
 40
28.0
 40
28.0
 40
29.0
 40
29.0
 40
29.0
 40
30.0
 40
30.0
 40
30.0
 40
31.0
 40
31.0
 40
31.0
 40
32.0
 40
32.0
 40
32.0
 40
32.0
 10
0.1297675238715278
 20
-2.907755533854166
 30
0.0
 10
0.1469455295138889
 20
-2.907755533854166
 30
0.0
 10
0.1615058051215278
 20
-2.913221571180555
 30
0.0
 10
0.1734483506944444
 20
-2.924153645833333
 30
0.0
 10
0.1797688802083333
 20
-2.929985894097221
 30
0.0
 10
0.1841837565104166
 20
-2.936659071180555
 30
0.0
 10
0.18670654296875
 20
-2.944173177083333
 30
0.0
 10
0.1892225477430556
 20
-2.951687282986111
 30
0.0
 10
0.1904771592881944
 20
-2.962022569444444
 30
0.0
 10
0.1904771592881944
 20
-2.975192599826388
 30
0.0
 10
0.1904771592881944
 20
-2.975192599826388
 30
0.0
 10
0.190185546875
 20
-3.002943250868055
 30
0.0
 10
0.190185546875
 20
-3.002943250868055
 30
0.0
 10
0.190185546875
 20
-3.022189670138888
 30
0.0
 10
0.1912706163194444
 20
-3.03466796875
 30
0.0
 10
0.1934407552083333
 20
-3.040378146701388
 30
0.0
 10
0.1945258246527778
 20
-3.043117947048611
 30
0.0
 10
0.1955634223090278
 20
-3.044854058159721
 30
0.0
 10
0.1965535481770833
 20
-3.045600043402777
 30
0.0
 10
0.1975368923611111
 20
-3.046346028645833
 30
0.0
 10
0.1996120876736111
 20
-3.047024197048611
 30
0.0
 10
0.2027723524305555
 20
-3.047648111979166
 30
0.0
 10
0.2059258355034722
 20
-3.048272026909721
 30
0.0
 10
0.2075059678819444
 20
-3.050876193576388
 30
0.0
 10
0.2075059678819444
 20
-3.055474175347221
 30
0.0
 10
0.2075059678819444
 20
-3.061428493923611
 30
0.0
 10
0.2056070963541666
 20
-3.067640516493055
 30
0.0
 10
0.2018093532986111
 20
-3.0740966796875
 30
0.0
 10
0.1980048285590278
 20
-3.080552842881944
 30
0.0
 10
0.1930948893229166
 20
-3.085951063368055
 30
0.0
 10
0.18707275390625
 20
-3.090304904513888
 30
0.0
 10
0.1796671549479166
 20
-3.095757378472221
 30
0.0
 10
0.1719224717881944
 20
-3.098497178819444
 30
0.0
 10
0.1638251410590278
 20
-3.098497178819444
 30
0.0
 10
0.1534627278645833
 20
-3.098497178819444
 30
0.0
 10
0.145263671875
 20
-3.094021267361111
 30
0.0
 10
0.1392483181423611
 20
-3.0850830078125
 30
0.0
 10
0.1371731228298611
 20
-3.081854926215277
 30
0.0
 10
0.1352471245659722
 20
-3.080240885416666
 30
0.0
 10
0.1334703233506944
 20
-3.080240885416666
 30
0.0
 10
0.1314968532986111
 20
-3.080240885416666
 30
0.0
 10
0.1288791232638889
 20
-3.081800672743055
 30
0.0
 10
0.1256239149305556
 20
-3.084893120659721
 30
0.0
 10
0.1157497829861111
 20
-3.093953450520833
 30
0.0
 10
0.1045464409722222
 20
-3.098497178819444
 30
0.0
 10
0.0920071072048611
 20
-3.098497178819444
 30
0.0
 10
0.0790744357638889
 20
-3.098497178819444
 30
0.0
 10
0.0686170789930556
 20
-3.095011393229166
 30
0.0
 10
0.0606214735243056
 20
-3.088066948784721
 30
0.0
 10
0.0553860134548611
 20
-3.083468967013888
 30
0.0
 10
0.0512356228298611
 20
-3.077473958333333
 30
0.0
 10
0.0481770833333333
 20
-3.070095486111111
 30
0.0
 10
0.0451185438368056
 20
-3.062703450520833
 30
0.0
 10
0.0435926649305556
 20
-3.054972330729166
 30
0.0
 10
0.0435926649305556
 20
-3.046902126736111
 30
0.0
 10
0.0435926649305556
 20
-3.033989800347221
 30
0.0
 10
0.0477362738715278
 20
-3.022569444444444
 30
0.0
 10
0.0560302734375
 20
-3.012627495659721
 30
0.0
 10
0.0689561631944445
 20
-2.996975368923611
 30
0.0
 10
0.0883110894097222
 20
-2.989095052083333
 30
0.0
 10
0.11407470703125
 20
-2.988972981770833
 30
0.0
 10
0.1197984483506944
 20
-2.988972981770833
 30
0.0
 10
0.1233995225694444
 20
-2.988254123263888
 30
0.0
 10
0.1248847113715278
 20
-2.986829969618055
 30
0.0
 10
0.1263631184895833
 20
-2.985405815972221
 30
0.0
 10
0.1271023220486111
 20
-2.982082790798611
 30
0.0
 10
0.1271023220486111
 20
-2.976860894097221
 30
0.0
 10
0.1271023220486111
 20
-2.963704427083333
 30
0.0
 10
0.1260172526041666
 20
-2.954169379340277
 30
0.0
 10
0.1238471137152778
 20
-2.948269314236111
 30
0.0
 10
0.1216769748263889
 20
-2.9423828125
 30
0.0
 10
0.1181165907118056
 20
-2.939425998263888
 30
0.0
 10
0.1131863064236111
 20
-2.939425998263888
 30
0.0
 10
0.1102227105034722
 20
-2.939425998263888
 30
0.0
 10
0.1075778537326389
 20
-2.940538194444444
 30
0.0
 10
0.1052652994791666
 20
-2.942776150173611
 30
0.0
 10
0.1029391818576389
 20
-2.945014105902777
 30
0.0
 10
0.1000569661458333
 20
-2.949110243055555
 30
0.0
 10
0.0965983072916667
 20
-2.955078125
 30
0.0
 10
0.0878160264756944
 20
-2.970838758680555
 30
0.0
 10
0.0786336263020833
 20
-2.978732638888888
 30
0.0
 10
0.0690578884548611
 20
-2.978732638888888
 30
0.0
 10
0.0642225477430556
 20
-2.978732638888888
 30
0.0
 10
0.0602688259548611
 20
-2.9769287109375
 30
0.0
 10
0.0572102864583333
 20
-2.973320855034721
 30
0.0
 10
0.0541517469618056
 20
-2.9697265625
 30
0.0
 10
0.0526190863715278
 20
-2.965006510416666
 30
0.0
 10
0.0526190863715278
 20
-2.959174262152777
 30
0.0
 10
0.0526190863715278
 20
-2.953206380208333
 30
0.0
 10
0.0545247395833333
 20
-2.947252061631944
 30
0.0
 10
0.0583224826388889
 20
-2.9412841796875
 30
0.0
 10
0.0621202256944445
 20
-2.935329861111111
 30
0.0
 10
0.0672810872395833
 20
-2.930107964409721
 30
0.0
 10
0.0737982855902778
 20
-2.925645616319444
 30
0.0
 10
0.0916612413194444
 20
-2.913723415798611
 30
0.0
 10
0.1103176540798611
 20
-2.907755533854166
 30
0.0
 10
0.1297675238715278
 20
-2.907755533854166
 30
0.0
  0
SPLINE
  5
AB
330
A2
100
AcDbEntity
  8
Bear With Balloons
 62
    18
420
        0
370
     9
100
AcDbSpline
210
0.0
220
0.0
230
1.0
 70
     9
 71
     3
 72
    29
 73
    25
 74
     0
 42
0.0000000001
 43
0.0000000001
 40
0.0
 40
0.0
 40
0.0
 40
0.0
 40
1.0
 40
1.0
 40
1.0
 40
2.0
 40
2.0
 40
2.0
 40
3.0
 40
3.0
 40
3.0
 40
4.0
 40
4.0
 40
4.0
 40
5.0
 40
5.0
 40
5.0
 40
6.0
 40
6.0
 40
6.0
 40
7.0
 40
7.0
 40
7.0
 40
8.0
 40
8.0
 40
8.0
 40
8.0
 10
0.3104180230034722
 20
-2.964016384548611
 30
0.0
 10
0.3050876193576389
 20
-2.964016384548611
 30
0.0
 10
0.3012424045138889
 20
-2.96630859375
 30
0.0
 10
0.2988688151041666
 20
-2.970906575520833
 30
0.0
 10
0.2969970703125
 20
-2.974378797743055
 30
0.0
 10
0.2960611979166666
 20
-2.981458875868055
 30
0.0
 10
0.2960611979166666
 20
-2.992133246527777
 30
0.0
 10
0.2960611979166666
 20
-3.021321614583333
 30
0.0
 10
0.2968478732638889
 20
-3.041002061631944
 30
0.0
 10
0.2984280056423611
 20
-3.051188151041666
 30
0.0
 10
0.2998114691840277
 20
-3.060628255208333
 30
0.0
 10
0.3040025499131944
 20
-3.065334743923611
 30
0.0
 10
0.3110148111979166
 20
-3.065334743923611
 30
0.0
 10
0.3182169596354166
 20
-3.065334743923611
 30
0.0
 10
0.3236965603298611
 20
-3.061496310763888
 30
0.0
 10
0.3274468315972222
 20
-3.053792317708333
 30
0.0
 10
0.3311971028645833
 20
-3.046088324652777
 30
0.0
 10
0.3330756293402777
 20
-3.034912109375
 30
0.0
 10
0.3330756293402777
 20
-3.020263671875
 30
0.0
 10
0.3330756293402777
 20
-2.9986572265625
 30
0.0
 10
0.3299153645833333
 20
-2.982883029513888
 30
0.0
 10
0.3236016167534722
 20
-2.972954644097221
 30
0.0
 10
0.3199462890625
 20
-2.967244466145833
 30
0.0
 10
0.3155517578125
 20
-2.964260525173611
 30
0.0
 10
0.3104180230034722
 20
-2.964016384548611
 30
0.0
  0
SPLINE
  5
AC
330
A2
100
AcDbEntity
  8
Bear With Balloons
 62
    18
420
        0
370
     9
100
AcDbSpline
210
0.0
220
0.0
230
1.0
 70
     9
 71
     3
 72
    86
 73
    82
 74
     0
 42
0.0000000001
 43
0.0000000001
 40
0.0
 40
0.0
 40
0.0
 40
0.0
 40
1.0
 40
1.0
 40
1.0
 40
2.0
 40
2.0
 40
2.0
 40
3.0
 40
3.0
 40
3.0
 40
4.0
 40
4.0
 40
4.0
 40
5.0
 40
5.0
 40
5.0
 40
6.0
 40
6.0
 40
6.0
 40
7.0
 40
7.0
 40
7.0
 40
8.0
 40
8.0
 40
8.0
 40
9.0
 40
9.0
 40
9.0
 40
10.0
 40
10.0
 40
10.0
 40
11.0
 40
11.0
 40
11.0
 40
12.0
 40
12.0
 40
12.0
 40
13.0
 40
13.0
 40
13.0
 40
14.0
 40
14.0
 40
14.0
 40
15.0
 40
15.0
 40
15.0
 40
16.0
 40
16.0
 40
16.0
 40
17.0
 40
17.0
 40
17.0
 40
18.0
 40
18.0
 40
18.0
 40
19.0
 40
19.0
 40
19.0
 40
20.0
 40
20.0
 40
20.0
 40
21.0
 40
21.0
 40
21.0
 40
22.0
 40
22.0
 40
22.0
 40
23.0
 40
23.0
 40
23.0
 40
24.0
 40
24.0
 40
24.0
 40
25.0
 40
25.0
 40
25.0
 40
26.0
 40
26.0
 40
26.0
 40
27.0
 40
27.0
 40
27.0
 40
27.0
 10
0.2976888020833333
 20
-2.850396050347221
 30
0.0
 10
0.2976888020833333
 20
-2.850396050347221
 30
0.0
 10
0.2957628038194444
 20
-2.923027886284721
 30
0.0
 10
0.2957628038194444
 20
-2.923027886284721
 30
0.0
 10
0.2957628038194444
 20
-2.924777560763888
 30
0.0
 10
0.2957628038194444
 20
-2.926133897569444
 30
0.0
 10
0.2957628038194444
 20
-2.927137586805555
 30
0.0
 10
0.2957628038194444
 20
-2.929619683159721
 30
0.0
 10
0.2964002821180555
 20
-2.930853949652777
 30
0.0
 10
0.2976888020833333
 20
-2.930853949652777
 30
0.0
 10
0.2983737521701389
 20
-2.930853949652777
 30
0.0
 10
0.30035400390625
 20
-2.929185655381944
 30
0.0
 10
0.3036092122395833
 20
-2.925821940104166
 30
0.0
 10
0.3151584201388889
 20
-2.913913302951388
 30
0.0
 10
0.3278944227430555
 20
-2.907945421006944
 30
0.0
 10
0.3418104383680555
 20
-2.907945421006944
 30
0.0
 10
0.3556315104166666
 20
-2.907945421006944
 30
0.0
 10
0.3678249782986111
 20
-2.914225260416666
 30
0.0
 10
0.3783908420138889
 20
-2.9267578125
 30
0.0
 10
0.3916151258680555
 20
-2.942532009548611
 30
0.0
 10
0.3982272677951388
 20
-2.963080512152777
 30
0.0
 10
0.3982272677951388
 20
-2.988416883680555
 30
0.0
 10
0.3982272677951388
 20
-3.024549696180555
 30
0.0
 10
0.3875189887152777
 20
-3.053412543402777
 30
0.0
 10
0.3660956488715277
 20
-3.075018988715277
 30
0.0
 10
0.3506944444444444
 20
-3.090671115451388
 30
0.0
 10
0.3326348198784722
 20
-3.098497178819444
 30
0.0
 10
0.3119032118055555
 20
-3.098497178819444
 30
0.0
 10
0.3016357421875
 20
-3.098497178819444
 30
0.0
 10
0.2923787434895833
 20
-3.096842447916666
 30
0.0
 10
0.2841389973958333
 20
-3.093560112847221
 30
0.0
 10
0.2758924696180555
 20
-3.090264214409721
 30
0.0
 10
0.2668863932291666
 20
-3.084648980034721
 30
0.0
 10
0.2571139865451389
 20
-3.076700846354166
 30
0.0
 10
0.2556355794270833
 20
-3.075588650173611
 30
0.0
 10
0.2544487847222222
 20
-3.075018988715277
 30
0.0
 10
0.2535603841145833
 20
-3.075018988715277
 30
0.0
 10
0.2524753146701389
 20
-3.075018988715277
 30
0.0
 10
0.2494167751736111
 20
-3.076212565104166
 30
0.0
 10
0.2443779839409722
 20
-3.078559027777777
 30
0.0
 10
0.2418145073784722
 20
-3.079806857638888
 30
0.0
 10
0.2388034396701389
 20
-3.080430772569444
 30
0.0
 10
0.2353447808159722
 20
-3.080430772569444
 30
0.0
 10
0.2292277018229166
 20
-3.080430772569444
 30
0.0
 10
0.2261691623263889
 20
-3.077948676215277
 30
0.0
 10
0.2261691623263889
 20
-3.072970920138888
 30
0.0
 10
0.2261691623263889
 20
-3.071370442708333
 30
0.0
 10
0.2264133029513889
 20
-3.069498697916666
 30
0.0
 10
0.2269083658854166
 20
-3.0673828125
 30
0.0
 10
0.2288818359375
 20
-3.059312608506944
 30
0.0
 10
0.2302110460069444
 20
-3.04931640625
 30
0.0
 10
0.2309027777777778
 20
-3.037394205729166
 30
0.0
 10
0.2315945095486111
 20
-3.025485568576388
 30
0.0
 10
0.2319403754340278
 20
-3.006605360243055
 30
0.0
 10
0.2319403754340278
 20
-2.980780707465277
 30
0.0
 10
0.2319403754340278
 20
-2.980780707465277
 30
0.0
 10
0.2319403754340278
 20
-2.929361979166666
 30
0.0
 10
0.2319403754340278
 20
-2.929361979166666
 30
0.0
 10
0.2319403754340278
 20
-2.916585286458333
 30
0.0
 10
0.2315470377604166
 20
-2.9085693359375
 30
0.0
 10
0.2307535807291666
 20
-2.905341254340277
 30
0.0
 10
0.2299669053819444
 20
-2.902113172743055
 30
0.0
 10
0.2277425130208333
 20
-2.899563259548611
 30
0.0
 10
0.2240939670138889
 20
-2.897705078125
 30
0.0
 10
0.2189602322048611
 20
-2.894978841145833
 30
0.0
 10
0.2154066297743055
 20
-2.892266167534721
 30
0.0
 10
0.2134331597222222
 20
-2.889594184027777
 30
0.0
 10
0.2114596896701389
 20
-2.886935763888888
 30
0.0
 10
0.2104695638020833
 20
-2.883544921875
 30
0.0
 10
0.2104695638020833
 20
-2.879448784722221
 30
0.0
 10
0.2104695638020833
 20
-2.871134440104166
 30
0.0
 10
0.217529296875
 20
-2.862996419270833
 30
0.0
 10
0.2316419813368055
 20
-2.855048285590277
 30
0.0
 10
0.2393459743923611
 20
-2.850830078125
 30
0.0
 10
0.2489420572916666
 20
-2.847127278645833
 30
0.0
 10
0.2604437934027778
 20
-2.843967013888888
 30
0.0
 10
0.2719455295138889
 20
-2.840793185763888
 30
0.0
 10
0.2817925347222222
 20
-2.839219835069444
 30
0.0
 10
0.2899848090277777
 20
-2.839219835069444
 30
0.0
 10
0.2952202690972222
 20
-2.839219835069444
 30
0.0
 10
0.2977837456597222
 20
-2.842936197916666
 30
0.0
 10
0.2976888020833333
 20
-2.850396050347221
 30
0.0
  0
SPLINE
  5
AD
330
A2
100
AcDbEntity
  8
Bear With Balloons
 62
    18
420
        0
370
     9
100
AcDbSpline
210
0.0
220
0.0
230
1.0
 70
     9
 71
     3
 72
   125
 73
   121
 74
     0
 42
0.0000000001
 43
0.0000000001
 40
0.0
 40
0.0
 40
0.0
 40
0.0
 40
1.0
 40
1.0
 40
1.0
 40
2.0
 40
2.0
 40
2.0
 40
3.0
 40
3.0
 40
3.0
 40
4.0
 40
4.0
 40
4.0
 40
5.0
 40
5.0
 40
5.0
 40
6.0
 40
6.0
 40
6.0
 40
7.0
 40
7.0
 40
7.0
 40
8.0
 40
8.0
 40
8.0
 40
9.0
 40
9.0
 40
9.0
 40
10.0
 40
10.0
 40
10.0
 40
11.0
 40
11.0
 40
11.0
 40
12.0
 40
12.0
 40
12.0
 40
13.0
 40
13.0
 40
13.0
 40
14.0
 40
14.0
 40
14.0
 40
15.0
 40
15.0
 40
15.0
 40
16.0
 40
16.0
 40
16.0
 40
17.0
 40
17.0
 40
17.0
 40
18.0
 40
18.0
 40
18.0
 40
19.0
 40
19.0
 40
19.0
 40
20.0
 40
20.0
 40
20.0
 40
21.0
 40
21.0
 40
21.0
 40
22.0
 40
22.0
 40
22.0
 40
23.0
 40
23.0
 40
23.0
 40
24.0
 40
24.0
 40
24.0
 40
25.0
 40
25.0
 40
25.0
 40
26.0
 40
26.0
 40
26.0
 40
27.0
 40
27.0
 40
27.0
 40
28.0
 40
28.0
 40
28.0
 40
29.0
 40
29.0
 40
29.0
 40
30.0
 40
30.0
 40
30.0
 40
31.0
 40
31.0
 40
31.0
 40
32.0
 40
32.0
 40
32.0
 40
33.0
 40
33.0
 40
33.0
 40
34.0
 40
34.0
 40
34.0
 40
35.0
 40
35.0
 40
35.0
 40
36.0
 40
36.0
 40
36.0
 40
37.0
 40
37.0
 40
37.0
 40
38.0
 40
38.0
 40
38.0
 40
39.0
 40
39.0
 40
39.0
 40
40.0
 40
40.0
 40
40.0
 40
40.0
 10
0.5467461480034723
 20
-2.999593098958333
 30
0.0
 10
0.5467461480034723
 20
-2.999593098958333
 30
0.0
 10
0.5272013346354166
 20
-3.067206488715277
 30
0.0
 10
0.5272013346354166
 20
-3.067206488715277
 30
0.0
 10
0.5223659939236111
 20
-3.083970811631944
 30
0.0
 10
0.5175035264756945
 20
-3.09765625
 30
0.0
 10
0.5126139322916666
 20
-3.1082763671875
 30
0.0
 10
0.5077311197916666
 20
-3.118896484375
 30
0.0
 10
0.5021769205729166
 20
-3.1279296875
 30
0.0
 10
0.4959581163194445
 20
-3.1353759765625
 30
0.0
 10
0.4831203884548611
 20
-3.150770399305555
 30
0.0
 10
0.4676717122395833
 20
-3.15847439236111
 30
0.0
 10
0.4496120876736111
 20
-3.15847439236111
 30
0.0
 10
0.43499755859375
 20
-3.15847439236111
 30
0.0
 10
0.4231499565972223
 20
-3.153632269965277
 30
0.0
 10
0.4140692816840278
 20
-3.14394802517361
 30
0.0
 10
0.4070638020833333
 20
-3.136488172743055
 30
0.0
 10
0.4035576714409723
 20
-3.126993815104166
 30
0.0
 10
0.4035576714409723
 20
-3.115437825520833
 30
0.0
 10
0.4035576714409723
 20
-3.105875651041666
 30
0.0
 10
0.4059990776909723
 20
-3.097846137152777
 30
0.0
 10
0.410888671875
 20
-3.091322157118055
 30
0.0
 10
0.415771484375
 20
-3.084798177083333
 30
0.0
 10
0.4217732747395833
 20
-3.08154296875
 30
0.0
 10
0.4288804796006945
 20
-3.08154296875
 30
0.0
 10
0.4359876844618056
 20
-3.08154296875
 30
0.0
 10
0.44171142578125
 20
-3.084526909722221
 30
0.0
 10
0.4460584852430556
 20
-3.090481228298611
 30
0.0
 10
0.4481268988715278
 20
-3.093221028645833
 30
0.0
 10
0.4495103624131945
 20
-3.095635308159721
 30
0.0
 10
0.4502020941840278
 20
-3.097751193576388
 30
0.0
 10
0.4508938259548611
 20
-3.099853515625
 30
0.0
 10
0.4519246419270833
 20
-3.104519314236111
 30
0.0
 10
0.45330810546875
 20
-3.11172146267361
 30
0.0
 10
0.4543931749131945
 20
-3.1171875
 30
0.0
 10
0.4568617078993056
 20
-3.119913736979166
 30
0.0
 10
0.4607137044270833
 20
-3.119913736979166
 30
0.0
 10
0.4637722439236111
 20
-3.119913736979166
 30
0.0
 10
0.4663425021701389
 20
-3.118231879340277
 30
0.0
 10
0.4684176974826389
 20
-3.114881727430555
 30
0.0
 10
0.4704861111111111
 20
-3.111531575520833
 30
0.0
 10
0.4715237087673611
 20
-3.107367621527777
 30
0.0
 10
0.4715237087673611
 20
-3.102403428819444
 30
0.0
 10
0.4715237087673611
 20
-3.096571180555555
 30
0.0
 10
0.4689534505208333
 20
-3.086819118923611
 30
0.0
 10
0.4638264973958333
 20
-3.073160807291666
 30
0.0
 10
0.4638264973958333
 20
-3.073160807291666
 30
0.0
 10
0.4281412760416666
 20
-2.977606879340277
 30
0.0
 10
0.4281412760416666
 20
-2.977606879340277
 30
0.0
 10
0.4243842230902778
 20
-2.967678493923611
 30
0.0
 10
0.42156982421875
 20
-2.961466471354166
 30
0.0
 10
0.4196980794270833
 20
-2.958984375
 30
0.0
 10
0.4178195529513889
 20
-2.956502278645833
 30
0.0
 10
0.4136759440104166
 20
-2.953464084201388
 30
0.0
 10
0.4072604709201389
 20
-2.949856228298611
 30
0.0
 10
0.4052870008680556
 20
-2.948866102430555
 30
0.0
 10
0.4035780164930556
 20
-2.946912977430555
 30
0.0
 10
0.4021538628472223
 20
-2.943983289930555
 30
0.0
 10
0.4007161458333333
 20
-2.941067165798611
 30
0.0
 10
0.4000040690104166
 20
-2.938245985243055
 30
0.0
 10
0.4000040690104166
 20
-2.935519748263888
 30
0.0
 10
0.4000040690104166
 20
-2.924465603298611
 30
0.0
 10
0.4087388780381945
 20
-2.916951497395833
 30
0.0
 10
0.4262152777777778
 20
-2.912977430555555
 30
0.0
 10
0.4378594292534723
 20
-2.910373263888888
 30
0.0
 10
0.4511379665798611
 20
-2.909071180555555
 30
0.0
 10
0.4660441080729166
 20
-2.909071180555555
 30
0.0
 10
0.4765082465277778
 20
-2.909071180555555
 30
0.0
 10
0.4847547743055556
 20
-2.910427517361111
 30
0.0
 10
0.4907769097222223
 20
-2.913167317708333
 30
0.0
 10
0.4988674587673611
 20
-2.916761610243055
 30
0.0
 10
0.5029161241319445
 20
-2.922905815972221
 30
0.0
 10
0.5029161241319445
 20
-2.931599934895833
 30
0.0
 10
0.5029161241319445
 20
-2.934705946180555
 30
0.0
 10
0.5017835828993056
 20
-2.938368055555555
 30
0.0
 10
0.49951171875
 20
-2.942586263020833
 30
0.0
 10
0.4973347981770833
 20
-2.946573893229166
 30
0.0
 10
0.4962497287326389
 20
-2.950100368923611
 30
0.0
 10
0.4962497287326389
 20
-2.953206380208333
 30
0.0
 10
0.4962497287326389
 20
-2.956190321180555
 30
0.0
 10
0.4967719184027778
 20
-2.959296332465277
 30
0.0
 10
0.4978095160590278
 20
-2.9625244140625
 30
0.0
 10
0.4988471137152778
 20
-2.965752495659721
 30
0.0
 10
0.50103759765625
 20
-2.971218532986111
 30
0.0
 10
0.50439453125
 20
-2.978908962673611
 30
0.0
 10
0.5081448025173611
 20
-2.987603081597221
 30
0.0
 10
0.5114542643229166
 20
-2.991956922743055
 30
0.0
 10
0.5143161349826389
 20
-2.991956922743055
 30
0.0
 10
0.5173746744791666
 20
-2.991956922743055
 30
0.0
 10
0.5205349392361111
 20
-2.988132052951388
 30
0.0
 10
0.5237969292534723
 20
-2.980495876736111
 30
0.0
 10
0.5270521375868056
 20
-2.972859700520833
 30
0.0
 10
0.5286797417534723
 20
-2.965508355034721
 30
0.0
 10
0.5286797417534723
 20
-2.958428276909721
 30
0.0
 10
0.5286797417534723
 20
-2.952718098958333
 30
0.0
 10
0.5274454752604166
 20
-2.948052300347221
 30
0.0
 10
0.5249769422743056
 20
-2.9444580078125
 30
0.0
 10
0.5212266710069445
 20
-2.938869900173611
 30
0.0
 10
0.5193549262152778
 20
-2.93408203125
 30
0.0
 10
0.5193549262152778
 20
-2.930107964409721
 30
0.0
 10
0.5193549262152778
 20
-2.923773871527777
 30
0.0
 10
0.522705078125
 20
-2.918714735243055
 30
0.0
 10
0.5294189453125
 20
-2.914930555555555
 30
0.0
 10
0.5361328125
 20
-2.911146375868055
 30
0.0
 10
0.5451185438368056
 20
-2.909247504340277
 30
0.0
 10
0.5563693576388889
 20
-2.909247504340277
 30
0.0
 10
0.5772976345486111
 20
-2.909247504340277
 30
0.0
 10
0.5877617730034723
 20
-2.915581597222221
 30
0.0
 10
0.5877617730034723
 20
-2.928249782986111
 30
0.0
 10
0.5877617730034723
 20
-2.932847764756944
 30
0.0
 10
0.5867038302951389
 20
-2.936537000868055
 30
0.0
 10
0.5845811631944445
 20
-2.9393310546875
 30
0.0
 10
0.58245849609375
 20
-2.942125108506944
 30
0.0
 10
0.5785793728298611
 20
-2.944769965277777
 30
0.0
 10
0.5729573567708333
 20
-2.947252061631944
 30
0.0
 10
0.5682169596354166
 20
-2.949490017361111
 30
0.0
 10
0.5644666883680555
 20
-2.953206380208333
 30
0.0
 10
0.5616997612847223
 20
-2.958428276909721
 30
0.0
 10
0.5573594835069445
 20
-2.966742621527777
 30
0.0
 10
0.5523749457465278
 20
-2.98046875
 30
0.0
 10
0.5467461480034723
 20
-2.999593098958333
 30
0.0
  0
SPLINE
  5
AE
330
A2
100
AcDbEntity
  8
Bear With Balloons
 62
    18
420
        0
370
     9
100
AcDbSpline
210
0.0
220
0.0
230
1.0
 70
     9
 71
     3
 72
   197
 73
   193
 74
     0
 42
0.0000000001
 43
0.0000000001
 40
0.0
 40
0.0
 40
0.0
 40
0.0
 40
1.0
 40
1.0
 40
1.0
 40
2.0
 40
2.0
 40
2.0
 40
3.0
 40
3.0
 40
3.0
 40
4.0
 40
4.0
 40
4.0
 40
5.0
 40
5.0
 40
5.0
 40
6.0
 40
6.0
 40
6.0
 40
7.0
 40
7.0
 40
7.0
 40
8.0
 40
8.0
 40
8.0
 40
9.0
 40
9.0
 40
9.0
 40
10.0
 40
10.0
 40
10.0
 40
11.0
 40
11.0
 40
11.0
 40
12.0
 40
12.0
 40
12.0
 40
13.0
 40
13.0
 40
13.0
 40
14.0
 40
14.0
 40
14.0
 40
15.0
 40
15.0
 40
15.0
 40
16.0
 40
16.0
 40
16.0
 40
17.0
 40
17.0
 40
17.0
 40
18.0
 40
18.0
 40
18.0
 40
19.0
 40
19.0
 40
19.0
 40
20.0
 40
20.0
 40
20.0
 40
21.0
 40
21.0
 40
21.0
 40
22.0
 40
22.0
 40
22.0
 40
23.0
 40
23.0
 40
23.0
 40
24.0
 40
24.0
 40
24.0
 40
25.0
 40
25.0
 40
25.0
 40
26.0
 40
26.0
 40
26.0
 40
27.0
 40
27.0
 40
27.0
 40
28.0
 40
28.0
 40
28.0
 40
29.0
 40
29.0
 40
29.0
 40
30.0
 40
30.0
 40
30.0
 40
31.0
 40
31.0
 40
31.0
 40
32.0
 40
32.0
 40
32.0
 40
33.0
 40
33.0
 40
33.0
 40
34.0
 40
34.0
 40
34.0
 40
35.0
 40
35.0
 40
35.0
 40
36.0
 40
36.0
 40
36.0
 40
37.0
 40
37.0
 40
37.0
 40
38.0
 40
38.0
 40
38.0
 40
39.0
 40
39.0
 40
39.0
 40
40.0
 40
40.0
 40
40.0
 40
41.0
 40
41.0
 40
41.0
 40
42.0
 40
42.0
 40
42.0
 40
43.0
 40
43.0
 40
43.0
 40
44.0
 40
44.0
 40
44.0
 40
45.0
 40
45.0
 40
45.0
 40
46.0
 40
46.0
 40
46.0
 40
47.0
 40
47.0
 40
47.0
 40
48.0
 40
48.0
 40
48.0
 40
49.0
 40
49.0
 40
49.0
 40
50.0
 40
50.0
 40
50.0
 40
51.0
 40
51.0
 40
51.0
 40
52.0
 40
52.0
 40
52.0
 40
53.0
 40
53.0
 40
53.0
 40
54.0
 40
54.0
 40
54.0
 40
55.0
 40
55.0
 40
55.0
 40
56.0
 40
56.0
 40
56.0
 40
57.0
 40
57.0
 40
57.0
 40
58.0
 40
58.0
 40
58.0
 40
59.0
 40
59.0
 40
59.0
 40
60.0
 40
60.0
 40
60.0
 40
61.0
 40
61.0
 40
61.0
 40
62.0
 40
62.0
 40
62.0
 40
63.0
 40
63.0
 40
63.0
 40
64.0
 40
64.0
 40
64.0
 40
64.0
 10
0.8174302842881944
 20
-2.9444580078125
 30
0.0
 10
0.8174302842881944
 20
-2.9444580078125
 30
0.0
 10
0.8739963107638889
 20
-3.033677842881944
 30
0.0
 10
0.8739963107638889
 20
-3.033677842881944
 30
0.0
 10
0.8773532443576389
 20
-3.038886176215277
 30
0.0
 10
0.8799641927083332
 20
-3.042426215277777
 30
0.0
 10
0.8818427191840276
 20
-3.044297960069444
 30
0.0
 10
0.8837144639756944
 20
-3.046156141493055
 30
0.0
 10
0.886379665798611
 20
-3.047770182291666
 30
0.0
 10
0.8898383246527776
 20
-3.049140082465277
 30
0.0
 10
0.8952704535590276
 20
-3.051364474826388
 30
0.0
 10
0.8990953233506944
 20
-3.053914388020833
 30
0.0
 10
0.9013129340277776
 20
-3.056776258680555
 30
0.0
 10
0.9035373263888889
 20
-3.059624565972221
 30
0.0
 10
0.9046495225694444
 20
-3.063422309027777
 30
0.0
 10
0.9046495225694444
 20
-3.068128797743055
 30
0.0
 10
0.9046495225694444
 20
-3.072604709201388
 30
0.0
 10
0.903408474392361
 20
-3.076795789930555
 30
0.0
 10
0.9009467230902776
 20
-3.080702039930555
 30
0.0
 10
0.8984781901041666
 20
-3.084621853298611
 30
0.0
 10
0.8953179253472221
 20
-3.087510850694444
 30
0.0
 10
0.8914659288194444
 20
-3.089369032118055
 30
0.0
 10
0.8855455186631944
 20
-3.092230902777777
 30
0.0
 10
0.878139919704861
 20
-3.09423828125
 30
0.0
 10
0.8692559136284721
 20
-3.095418294270833
 30
0.0
 10
0.8603719075520832
 20
-3.096598307291666
 30
0.0
 10
0.8480292426215276
 20
-3.097195095486111
 30
0.0
 10
0.832241482204861
 20
-3.097195095486111
 30
0.0
 10
0.8153550889756944
 20
-3.097195095486111
 30
0.0
 10
0.8027208116319444
 20
-3.096015082465277
 30
0.0
 10
0.7943318684895833
 20
-3.093655056423611
 30
0.0
 10
0.7893948025173611
 20
-3.0921630859375
 30
0.0
 10
0.7854953342013889
 20
-3.089735243055555
 30
0.0
 10
0.7826334635416666
 20
-3.086385091145833
 30
0.0
 10
0.7797715928819445
 20
-3.083034939236111
 30
0.0
 10
0.7783406575520833
 20
-3.079250759548611
 30
0.0
 10
0.7783406575520833
 20
-3.075018988715277
 30
0.0
 10
0.7783406575520833
 20
-3.069688585069444
 30
0.0
 10
0.7803141276041666
 20
-3.065334743923611
 30
0.0
 10
0.7842610677083333
 20
-3.061984592013888
 30
0.0
 10
0.7882080078125
 20
-3.058756510416666
 30
0.0
 10
0.7901882595486111
 20
-3.0560302734375
 30
0.0
 10
0.7901882595486111
 20
-3.053792317708333
 30
0.0
 10
0.7901882595486111
 20
-3.047580295138888
 30
0.0
 10
0.7844577365451389
 20
-3.034979926215277
 30
0.0
 10
0.77301025390625
 20
-3.015977647569444
 30
0.0
 10
0.7715250651041666
 20
-3.013617621527777
 30
0.0
 10
0.7702433268229166
 20
-3.012437608506944
 30
0.0
 10
0.7691582573784723
 20
-3.012437608506944
 30
0.0
 10
0.7681681315104166
 20
-3.012437608506944
 30
0.0
 10
0.7670355902777778
 20
-3.013441297743055
 30
0.0
 10
0.7657538519965278
 20
-3.015421549479166
 30
0.0
 10
0.7610134548611111
 20
-3.022623697916666
 30
0.0
 10
0.7568427191840278
 20
-3.029825846354166
 30
0.0
 10
0.7532416449652778
 20
-3.037027994791666
 30
0.0
 10
0.7496337890625
 20
-3.044230143229166
 30
0.0
 10
0.7478366427951389
 20
-3.048882378472221
 30
0.0
 10
0.7478366427951389
 20
-3.050998263888888
 30
0.0
 10
0.7478366427951389
 20
-3.052978515625
 30
0.0
 10
0.7498575846354166
 20
-3.055962456597221
 30
0.0
 10
0.75390625
 20
-3.0599365234375
 30
0.0
 10
0.7578531901041666
 20
-3.063666449652777
 30
0.0
 10
0.75982666015625
 20
-3.068386501736111
 30
0.0
 10
0.75982666015625
 20
-3.0740966796875
 30
0.0
 10
0.75982666015625
 20
-3.082655164930555
 30
0.0
 10
0.7559814453125
 20
-3.088433159722221
 30
0.0
 10
0.7482774522569445
 20
-3.091417100694444
 30
0.0
 10
0.7382134331597223
 20
-3.095391167534721
 30
0.0
 10
0.7262166341145833
 20
-3.097371419270833
 30
0.0
 10
0.7123006184895833
 20
-3.097371419270833
 30
0.0
 10
0.6964992947048611
 20
-3.097371419270833
 30
0.0
 10
0.6843600802951389
 20
-3.095703125
 30
0.0
 10
0.6758694118923611
 20
-3.092352973090277
 30
0.0
 10
0.6724175347222223
 20
-3.090983072916666
 30
0.0
 10
0.6695014105902778
 20
-3.088433159722221
 30
0.0
 10
0.6671346028645833
 20
-3.084716796875
 30
0.0
 10
0.6647677951388889
 20
-3.080986870659721
 30
0.0
 10
0.6635810004340278
 20
-3.077080620659721
 30
0.0
 10
0.6635810004340278
 20
-3.072970920138888
 30
0.0
 10
0.6635810004340278
 20
-3.067518446180555
 30
0.0
 10
0.6650390625
 20
-3.063232421875
 30
0.0
 10
0.6679484049479166
 20
-3.060126410590277
 30
0.0
 10
0.6708577473958333
 20
-3.057020399305555
 30
0.0
 10
0.6750284830729166
 20
-3.055338541666666
 30
0.0
 10
0.6804606119791666
 20
-3.055094401041666
 30
0.0
 10
0.6869778103298611
 20
-3.054850260416666
 30
0.0
 10
0.6925048828125
 20
-3.052395290798611
 30
0.0
 10
0.6970486111111111
 20
-3.047743055555555
 30
0.0
 10
0.7015855577256945
 20
-3.043077256944444
 30
0.0
 10
0.7094862196180555
 20
-3.031806098090277
 30
0.0
 10
0.7207370334201389
 20
-3.013929578993055
 30
0.0
 10
0.7207370334201389
 20
-3.013929578993055
 30
0.0
 10
0.7436862521701389
 20
-2.977796766493055
 30
0.0
 10
0.7436862521701389
 20
-2.977796766493055
 30
0.0
 10
0.7449679904513889
 20
-2.975816514756944
 30
0.0
 10
0.7456122504340278
 20
-2.974256727430555
 30
0.0
 10
0.7456122504340278
 20
-2.97314453125
 30
0.0
 10
0.7456122504340278
 20
-2.972398546006944
 30
0.0
 10
0.7449679904513889
 20
-2.971028645833333
 30
0.0
 10
0.7436862521701389
 20
-2.969034830729166
 30
0.0
 10
0.7436862521701389
 20
-2.969034830729166
 30
0.0
 10
0.7057834201388889
 20
-2.908135308159721
 30
0.0
 10
0.7057834201388889
 20
-2.908135308159721
 30
0.0
 10
0.6998562282986111
 20
-2.898451063368055
 30
0.0
 10
0.6959567599826389
 20
-2.892550998263888
 30
0.0
 10
0.6940850151909723
 20
-2.890435112847221
 30
0.0
 10
0.6922064887152778
 20
-2.888332790798611
 30
0.0
 10
0.6891954210069445
 20
-2.886461046006944
 30
0.0
 10
0.6850518120659723
 20
-2.884847005208333
 30
0.0
 10
0.6791314019097223
 20
-2.882486979166666
 30
0.0
 10
0.6752794053819445
 20
-2.880316840277777
 30
0.0
 10
0.6735026041666666
 20
-2.878336588541666
 30
0.0
 10
0.6701456705729166
 20
-2.874484592013888
 30
0.0
 10
0.6684705946180555
 20
-2.869886610243055
 30
0.0
 10
0.6684705946180555
 20
-2.864542643229166
 30
0.0
 10
0.6684705946180555
 20
-2.853366427951388
 30
0.0
 10
0.67547607421875
 20
-2.845798068576388
 30
0.0
 10
0.6894938151041666
 20
-2.841824001736111
 30
0.0
 10
0.7043050130208333
 20
-2.837605794270833
 30
0.0
 10
0.7210354275173611
 20
-2.835489908854166
 30
0.0
 10
0.7396918402777778
 20
-2.835489908854166
 30
0.0
 10
0.7593315972222223
 20
-2.835489908854166
 30
0.0
 10
0.7726643880208333
 20
-2.837103949652777
 30
0.0
 10
0.7796698676215277
 20
-2.84033203125
 30
0.0
 10
0.7827284071180555
 20
-2.841701931423611
 30
0.0
 10
0.7851969401041666
 20
-2.844061957465277
 30
0.0
 10
0.7870754665798611
 20
-2.847412109375
 30
0.0
 10
0.7889472113715277
 20
-2.850762261284721
 30
0.0
 10
0.7898898654513889
 20
-2.854424370659721
 30
0.0
 10
0.7898898654513889
 20
-2.8583984375
 30
0.0
 10
0.7898898654513889
 20
-2.864610460069444
 30
0.0
 10
0.7880588107638889
 20
-2.869330512152777
 30
0.0
 10
0.7844102647569445
 20
-2.87255859375
 30
0.0
 10
0.7821384006076389
 20
-2.874538845486111
 30
0.0
 10
0.7807820638020833
 20
-2.8758544921875
 30
0.0
 10
0.7803412543402777
 20
-2.87646484375
 30
0.0
 10
0.7798936631944445
 20
-2.877088758680555
 30
0.0
 10
0.7796698676215277
 20
-2.878078884548611
 30
0.0
 10
0.7796698676215277
 20
-2.879448784722221
 30
0.0
 10
0.7796698676215277
 20
-2.882310655381944
 30
0.0
 10
0.781494140625
 20
-2.88671875
 30
0.0
 10
0.7851494683159723
 20
-2.892673068576388
 30
0.0
 10
0.7888047960069445
 20
-2.898627387152777
 30
0.0
 10
0.7915174696180555
 20
-2.901611328125
 30
0.0
 10
0.7932942708333333
 20
-2.901611328125
 30
0.0
 10
0.7948744032118055
 20
-2.901611328125
 30
0.0
 10
0.7977362738715277
 20
-2.898451063368055
 30
0.0
 10
0.8018798828125
 20
-2.892116970486111
 30
0.0
 10
0.8060302734375
 20
-2.885782877604166
 30
0.0
 10
0.80810546875
 20
-2.881374782986111
 30
0.0
 10
0.80810546875
 20
-2.878892686631944
 30
0.0
 10
0.80810546875
 20
-2.877400716145833
 30
0.0
 10
0.807827419704861
 20
-2.876288519965277
 30
0.0
 10
0.8072848849826389
 20
-2.875542534722221
 30
0.0
 10
0.8067423502604166
 20
-2.874796549479166
 30
0.0
 10
0.8048434787326389
 20
-2.872870551215277
 30
0.0
 10
0.8015882703993055
 20
-2.869764539930555
 30
0.0
 10
0.7986246744791666
 20
-2.867038302951388
 30
0.0
 10
0.7971462673611111
 20
-2.862942165798611
 30
0.0
 10
0.7971462673611111
 20
-2.857476128472221
 30
0.0
 10
0.7971462673611111
 20
-2.849650065104166
 30
0.0
 10
0.800991482204861
 20
-2.843994140625
 30
0.0
 10
0.8086954752604166
 20
-2.840521918402777
 30
0.0
 10
0.8163926866319444
 20
-2.837049696180555
 30
0.0
 10
0.8289320203993055
 20
-2.835300021701388
 30
0.0
 10
0.8463066948784721
 20
-2.835300021701388
 30
0.0
 10
0.8590426974826389
 20
-2.835300021701388
 30
0.0
 10
0.868862575954861
 20
-2.836602105034721
 30
0.0
 10
0.8757731119791666
 20
-2.839219835069444
 30
0.0
 10
0.88446044921875
 20
-2.842447916666666
 30
0.0
 10
0.8888007269965276
 20
-2.848904079861111
 30
0.0
 10
0.8888007269965276
 20
-2.858588324652777
 30
0.0
 10
0.8888007269965276
 20
-2.865044487847221
 30
0.0
 10
0.8865831163194444
 20
-2.869886610243055
 30
0.0
 10
0.88214111328125
 20
-2.873114691840277
 30
0.0
 10
0.8803643120659721
 20
-2.874362521701388
 30
0.0
 10
0.8757188585069444
 20
-2.875284830729166
 30
0.0
 10
0.8682183159722221
 20
-2.875908745659721
 30
0.0
 10
0.86328125
 20
-2.876410590277777
 30
0.0
 10
0.8582288953993055
 20
-2.879136827256944
 30
0.0
 10
0.8530409071180555
 20
-2.884101019965277
 30
0.0
 10
0.8478597005208332
 20
-2.889078776041666
 30
0.0
 10
0.8418104383680555
 20
-2.897081163194444
 30
0.0
 10
0.8349066840277776
 20
-2.908135308159721
 30
0.0
 10
0.8349066840277776
 20
-2.908135308159721
 30
0.0
 10
0.8174302842881944
 20
-2.935696072048611
 30
0.0
 10
0.8174302842881944
 20
-2.935696072048611
 30
0.0
 10
0.8161485460069444
 20
-2.937811957465277
 30
0.0
 10
0.8155042860243055
 20
-2.939358181423611
 30
0.0
 10
0.8155042860243055
 20
-2.940361870659721
 30
0.0
 10
0.8155042860243055
 20
-2.941107855902777
 30
0.0
 10
0.8161485460069444
 20
-2.942464192708333
 30
0.0
 10
0.8174302842881944
 20
-2.9444580078125
 30
0.0
  0
SPLINE
  5
AF
330
A2
100
AcDbEntity
  8
Bear With Balloons
 62
    18
420
        0
370
     9
100
AcDbSpline
210
0.0
220
0.0
230
1.0
 70
     9
 71
     3
 72
   113
 73
   109
 74
     0
 42
0.0000000001
 43
0.0000000001
 40
0.0
 40
0.0
 40
0.0
 40
0.0
 40
1.0
 40
1.0
 40
1.0
 40
2.0
 40
2.0
 40
2.0
 40
3.0
 40
3.0
 40
3.0
 40
4.0
 40
4.0
 40
4.0
 40
5.0
 40
5.0
 40
5.0
 40
6.0
 40
6.0
 40
6.0
 40
7.0
 40
7.0
 40
7.0
 40
8.0
 40
8.0
 40
8.0
 40
9.0
 40
9.0
 40
9.0
 40
10.0
 40
10.0
 40
10.0
 40
11.0
 40
11.0
 40
11.0
 40
12.0
 40
12.0
 40
12.0
 40
13.0
 40
13.0
 40
13.0
 40
14.0
 40
14.0
 40
14.0
 40
15.0
 40
15.0
 40
15.0
 40
16.0
 40
16.0
 40
16.0
 40
17.0
 40
17.0
 40
17.0
 40
18.0
 40
18.0
 40
18.0
 40
19.0
 40
19.0
 40
19.0
 40
20.0
 40
20.0
 40
20.0
 40
21.0
 40
21.0
 40
21.0
 40
22.0
 40
22.0
 40
22.0
 40
23.0
 40
23.0
 40
23.0
 40
24.0
 40
24.0
 40
24.0
 40
25.0
 40
25.0
 40
25.0
 40
26.0
 40
26.0
 40
26.0
 40
27.0
 40
27.0
 40
27.0
 40
28.0
 40
28.0
 40
28.0
 40
29.0
 40
29.0
 40
29.0
 40
30.0
 40
30.0
 40
30.0
 40
31.0
 40
31.0
 40
31.0
 40
32.0
 40
32.0
 40
32.0
 40
33.0
 40
33.0
 40
33.0
 40
34.0
 40
34.0
 40
34.0
 40
35.0
 40
35.0
 40
35.0
 40
36.0
 40
36.0
 40
36.0
 40
36.0
 10
0.9837171766493055
 20
-2.918565538194444
 30
0.0
 10
0.9837171766493055
 20
-2.918565538194444
 30
0.0
 10
0.9837171766493055
 20
-3.019517686631944
 30
0.0
 10
0.9837171766493055
 20
-3.019517686631944
 30
0.0
 10
0.9837171766493055
 20
-3.041124131944444
 30
0.0
 10
0.9893934461805555
 20
-3.051934136284721
 30
0.0
 10
1.000745985243055
 20
-3.051934136284721
 30
0.0
 10
1.003607855902777
 20
-3.051934136284721
 30
0.0
 10
1.006422254774305
 20
-3.0509033203125
 30
0.0
 10
1.009189181857638
 20
-3.048855251736111
 30
0.0
 10
1.011949327256944
 20
-3.046807183159721
 30
0.0
 10
1.013875325520833
 20
-3.044297960069444
 30
0.0
 10
1.014960394965277
 20
-3.041314019097221
 30
0.0
 10
1.017130533854166
 20
-3.035346137152777
 30
0.0
 10
1.018215603298611
 20
-3.022067599826388
 30
0.0
 10
1.018215603298611
 20
-3.001451280381944
 30
0.0
 10
1.018215603298611
 20
-2.981092664930555
 30
0.0
 10
1.017673068576388
 20
-2.967176649305555
 30
0.0
 10
1.016587999131944
 20
-2.959730360243055
 30
0.0
 10
1.016194661458333
 20
-2.956624348958333
 30
0.0
 10
1.0155029296875
 20
-2.954359266493055
 30
0.0
 10
1.014519585503472
 20
-2.952935112847221
 30
0.0
 10
1.013529459635416
 20
-2.951497395833333
 30
0.0
 10
1.011650933159722
 20
-2.949856228298611
 30
0.0
 10
1.008890787760416
 20
-2.947998046875
 30
0.0
 10
1.003261990017361
 20
-2.944268120659721
 30
0.0
 10
1.000447591145833
 20
-2.939548068576388
 30
0.0
 10
1.000447591145833
 20
-2.933837890625
 30
0.0
 10
1.000447591145833
 20
-2.926133897569444
 30
0.0
 10
1.005282931857638
 20
-2.920803493923611
 30
0.0
 10
1.014960394965277
 20
-2.917819552951388
 30
0.0
 10
1.0333251953125
 20
-2.912109375
 30
0.0
 10
1.051439073350694
 20
-2.909247504340277
 30
0.0
 10
1.069308810763888
 20
-2.909247504340277
 30
0.0
 10
1.079277886284722
 20
-2.909247504340277
 30
0.0
 10
1.084255642361111
 20
-2.9158935546875
 30
0.0
 10
1.084255642361111
 20
-2.929185655381944
 30
0.0
 10
1.084255642361111
 20
-2.930555555555555
 30
0.0
 10
1.084214952256944
 20
-2.933349609375
 30
0.0
 10
1.0841064453125
 20
-2.937567816840277
 30
0.0
 10
1.083916558159722
 20
-2.943522135416666
 30
0.0
 10
1.083767361111111
 20
-2.950792100694444
 30
0.0
 10
1.083672417534722
 20
-2.9593505859375
 30
0.0
 10
1.083672417534722
 20
-2.9593505859375
 30
0.0
 10
1.083672417534722
 20
-3.04150390625
 30
0.0
 10
1.083672417534722
 20
-3.04150390625
 30
0.0
 10
1.083672417534722
 20
-3.045722113715277
 30
0.0
 10
1.086534288194444
 20
-3.049574110243055
 30
0.0
 10
1.092258029513888
 20
-3.053046332465277
 30
0.0
 10
1.097086588541666
 20
-3.0560302734375
 30
0.0
 10
1.099514431423611
 20
-3.060370551215277
 30
0.0
 10
1.099514431423611
 20
-3.066080729166666
 30
0.0
 10
1.099514431423611
 20
-3.077256944444444
 30
0.0
 10
1.089002821180555
 20
-3.085896809895833
 30
0.0
 10
1.067966037326388
 20
-3.091973198784721
 30
0.0
 10
1.055623372395833
 20
-3.0955810546875
 30
0.0
 10
1.043687608506944
 20
-3.097371419270833
 30
0.0
 10
1.032138400607638
 20
-3.097371419270833
 30
0.0
 10
1.027398003472222
 20
-3.097371419270833
 30
0.0
 10
1.024163140190972
 20
-3.096693250868055
 30
0.0
 10
1.022440592447916
 20
-3.095323350694444
 30
0.0
 10
1.020711263020833
 20
-3.093953450520833
 30
0.0
 10
1.019700792100694
 20
-3.091295030381944
 30
0.0
 10
1.019402398003472
 20
-3.087320963541666
 30
0.0
 10
1.018907335069444
 20
-3.079616970486111
 30
0.0
 10
1.017035590277777
 20
-3.075764973958333
 30
0.0
 10
1.013773600260416
 20
-3.075764973958333
 30
0.0
 10
1.012593587239583
 20
-3.075764973958333
 30
0.0
 10
1.011501736111111
 20
-3.076117621527777
 30
0.0
 10
1.010518391927083
 20
-3.076795789930555
 30
0.0
 10
1.009528266059027
 20
-3.077473958333333
 30
0.0
 10
1.006523980034722
 20
-3.079996744791666
 30
0.0
 10
1.001485188802083
 20
-3.084337022569444
 30
0.0
 10
0.99151611328125
 20
-3.092909071180555
 30
0.0
 10
0.9808078342013889
 20
-3.097195095486111
 30
0.0
 10
0.9693535698784721
 20
-3.097195095486111
 30
0.0
 10
0.9503987630208332
 20
-3.097195095486111
 30
0.0
 10
0.9370252821180555
 20
-3.090304904513888
 30
0.0
 10
0.929226345486111
 20
-3.076510959201388
 30
0.0
 10
0.9226142035590276
 20
-3.064968532986111
 30
0.0
 10
0.9193047417534721
 20
-3.0455322265625
 30
0.0
 10
0.9193047417534721
 20
-3.018215603298611
 30
0.0
 10
0.9193047417534721
 20
-3.008029513888888
 30
0.0
 10
0.9193522135416666
 20
-2.999335394965277
 30
0.0
 10
0.9194539388020832
 20
-2.992133246527777
 30
0.0
 10
0.9194539388020832
 20
-2.9879150390625
 30
0.0
 10
0.9194539388020832
 20
-2.985066731770833
 30
0.0
 10
0.9194539388020832
 20
-2.983574761284721
 30
0.0
 10
0.9194539388020832
 20
-2.972886827256944
 30
0.0
 10
0.9186876085069444
 20
-2.965033637152777
 30
0.0
 10
0.9171549479166666
 20
-2.960001627604166
 30
0.0
 10
0.9156290690104166
 20
-2.954983181423611
 30
0.0
 10
0.9128350151909721
 20
-2.951036241319444
 30
0.0
 10
0.9087931315104166
 20
-2.948174370659721
 30
0.0
 10
0.9049411349826389
 20
-2.945692274305555
 30
0.0
 10
0.9024997287326389
 20
-2.943712022569444
 30
0.0
 10
0.9014621310763889
 20
-2.942220052083333
 30
0.0
 10
0.9004245334201389
 20
-2.940728081597221
 30
0.0
 10
0.8999091254340276
 20
-2.938680013020833
 30
0.0
 10
0.8999091254340276
 20
-2.936075846354166
 30
0.0
 10
0.8999091254340276
 20
-2.9266357421875
 30
0.0
 10
0.9055853949652776
 20
-2.920369466145833
 30
0.0
 10
0.9169379340277776
 20
-2.917263454861111
 30
0.0
 10
0.936279296875
 20
-2.911919487847221
 30
0.0
 10
0.9556342230902776
 20
-2.909247504340277
 30
0.0
 10
0.9749823676215276
 20
-2.909247504340277
 30
0.0
 10
0.9808078342013889
 20
-2.909247504340277
 30
0.0
 10
0.9837171766493055
 20
-2.912353515625
 30
0.0
 10
0.9837171766493055
 20
-2.918565538194444
 30
0.0
  0
ENDBLK
  5
A5
330
A2
100
AcDbEntity
  8
0
100
AcDbBlockEnd
  0
ENDSEC
  0
SECTION
  2
ENTITIES
  0
SPLINE
  5
80
330
70
100
AcDbEntity
  8
Bear With Balloons
 62
    18
420
        0
370
     9
100
AcDbSpline
210
0.0
220
0.0
230
1.0
 70
     9
 71
     3
 72
   314
 73
   310
 74
     0
 42
0.0000000001
 43
0.0000000001
 40
0.0
 40
0.0
 40
0.0
 40
0.0
 40
1.0
 40
1.0
 40
1.0
 40
2.0
 40
2.0
 40
2.0
 40
3.0
 40
3.0
 40
3.0
 40
4.0
 40
4.0
 40
4.0
 40
5.0
 40
5.0
 40
5.0
 40
6.0
 40
6.0
 40
6.0
 40
7.0
 40
7.0
 40
7.0
 40
8.0
 40
8.0
 40
8.0
 40
9.0
 40
9.0
 40
9.0
 40
10.0
 40
10.0
 40
10.0
 40
11.0
 40
11.0
 40
11.0
 40
12.0
 40
12.0
 40
12.0
 40
13.0
 40
13.0
 40
13.0
 40
14.0
 40
14.0
 40
14.0
 40
15.0
 40
15.0
 40
15.0
 40
16.0
 40
16.0
 40
16.0
 40
17.0
 40
17.0
 40
17.0
 40
18.0
 40
18.0
 40
18.0
 40
19.0
 40
19.0
 40
19.0
 40
20.0
 40
20.0
 40
20.0
 40
21.0
 40
21.0
 40
21.0
 40
22.0
 40
22.0
 40
22.0
 40
23.0
 40
23.0
 40
23.0
 40
24.0
 40
24.0
 40
24.0
 40
25.0
 40
25.0
 40
25.0
 40
26.0
 40
26.0
 40
26.0
 40
27.0
 40
27.0
 40
27.0
 40
28.0
 40
28.0
 40
28.0
 40
29.0
 40
29.0
 40
29.0
 40
30.0
 40
30.0
 40
30.0
 40
31.0
 40
31.0
 40
31.0
 40
32.0
 40
32.0
 40
32.0
 40
33.0
 40
33.0
 40
33.0
 40
34.0
 40
34.0
 40
34.0
 40
35.0
 40
35.0
 40
35.0
 40
36.0
 40
36.0
 40
36.0
 40
37.0
 40
37.0
 40
37.0
 40
38.0
 40
38.0
 40
38.0
 40
39.0
 40
39.0
 40
39.0
 40
40.0
 40
40.0
 40
40.0
 40
41.0
 40
41.0
 40
41.0
 40
42.0
 40
42.0
 40
42.0
 40
43.0
 40
43.0
 40
43.0
 40
44.0
 40
44.0
 40
44.0
 40
45.0
 40
45.0
 40
45.0
 40
46.0
 40
46.0
 40
46.0
 40
47.0
 40
47.0
 40
47.0
 40
48.0
 40
48.0
 40
48.0
 40
49.0
 40
49.0
 40
49.0
 40
50.0
 40
50.0
 40
50.0
 40
51.0
 40
51.0
 40
51.0
 40
52.0
 40
52.0
 40
52.0
 40
53.0
 40
53.0
 40
53.0
 40
54.0
 40
54.0
 40
54.0
 40
55.0
 40
55.0
 40
55.0
 40
56.0
 40
56.0
 40
56.0
 40
57.0
 40
57.0
 40
57.0
 40
58.0
 40
58.0
 40
58.0
 40
59.0
 40
59.0
 40
59.0
 40
60.0
 40
60.0
 40
60.0
 40
61.0
 40
61.0
 40
61.0
 40
62.0
 40
62.0
 40
62.0
 40
63.0
 40
63.0
 40
63.0
 40
64.0
 40
64.0
 40
64.0
 40
65.0
 40
65.0
 40
65.0
 40
66.0
 40
66.0
 40
66.0
 40
67.0
 40
67.0
 40
67.0
 40
68.0
 40
68.0
 40
68.0
 40
69.0
 40
69.0
 40
69.0
 40
70.0
 40
70.0
 40
70.0
 40
71.0
 40
71.0
 40
71.0
 40
72.0
 40
72.0
 40
72.0
 40
73.0
 40
73.0
 40
73.0
 40
74.0
 40
74.0
 40
74.0
 40
75.0
 40
75.0
 40
75.0
 40
76.0
 40
76.0
 40
76.0
 40
77.0
 40
77.0
 40
77.0
 40
78.0
 40
78.0
 40
78.0
 40
79.0
 40
79.0
 40
79.0
 40
80.0
 40
80.0
 40
80.0
 40
81.0
 40
81.0
 40
81.0
 40
82.0
 40
82.0
 40
82.0
 40
83.0
 40
83.0
 40
83.0
 40
84.0
 40
84.0
 40
84.0
 40
85.0
 40
85.0
 40
85.0
 40
86.0
 40
86.0
 40
86.0
 40
87.0
 40
87.0
 40
87.0
 40
88.0
 40
88.0
 40
88.0
 40
89.0
 40
89.0
 40
89.0
 40
90.0
 40
90.0
 40
90.0
 40
91.0
 40
91.0
 40
91.0
 40
92.0
 40
92.0
 40
92.0
 40
93.0
 40
93.0
 40
93.0
 40
94.0
 40
94.0
 40
94.0
 40
95.0
 40
95.0
 40
95.0
 40
96.0
 40
96.0
 40
96.0
 40
97.0
 40
97.0
 40
97.0
 40
98.0
 40
98.0
 40
98.0
 40
99.0
 40
99.0
 40
99.0
 40
100.0
 40
100.0
 40
100.0
 40
101.0
 40
101.0
 40
101.0
 40
102.0
 40
102.0
 40
102.0
 40
103.0
 40
103.0
 40
103.0
 40
103.0
 10
2.018106248643662
 20
-2.760181003146701
 30
0.0
 10
2.017422993977864
 20
-2.759128994411892
 30
0.0
 10
2.016831292046441
 20
-2.758015102810329
 30
0.0
 10
2.016140407986111
 20
-2.756971571180555
 30
0.0
 10
1.986847771538628
 20
-2.712561713324652
 30
0.0
 10
1.950934516059027
 20
-2.675089518229166
 30
0.0
 10
1.912428114149305
 20
-2.647237141927083
 30
0.0
 10
1.970648871527777
 20
-2.585660298665364
 30
0.0
 10
2.005628797743055
 20
-2.507264031304253
 30
0.0
 10
2.005628797743055
 20
-2.421956380208333
 30
0.0
 10
2.005628797743055
 20
-2.395623948838975
 30
0.0
 10
2.002204047309027
 20
-2.369977315266926
 30
0.0
 10
1.995889451768663
 20
-2.345247904459635
 30
0.0
 10
2.05760023328993
 20
-2.312880622016058
 30
0.0
 10
2.099853515625
 20
-2.248269822862412
 30
0.0
 10
2.099853515625
 20
-2.173882378472222
 30
0.0
 10
2.099853515625
 20
-2.067192925347222
 30
0.0
 10
2.0130615234375
 20
-1.980387369791666
 30
0.0
 10
1.9063720703125
 20
-1.980387369791666
 30
0.0
 10
1.831180148654513
 20
-1.980387369791666
 30
0.0
 10
1.766023423936631
 20
-2.023596021864149
 30
0.0
 10
1.73401133219401
 20
-2.086402045355902
 30
0.0
 10
1.68868425157335
 20
-2.071870591905381
 30
0.0
 10
1.639671325683593
 20
-2.063883463541666
 30
0.0
 10
1.588514539930555
 20
-2.063883463541666
 30
0.0
 10
1.51050313313802
 20
-2.063883463541666
 30
0.0
 10
1.434835645887586
 20
-2.082628038194444
 30
0.0
 10
1.369442409939235
 20
-2.117204454210069
 30
0.0
 10
1.350087483723958
 20
-2.093787299262152
 30
0.0
 10
1.325391133626302
 20
-2.075074937608506
 30
0.0
 10
1.29665798611111
 20
-2.062771267361111
 30
0.0
 10
1.2491455078125
 20
-2.042399088541666
 30
0.0
 10
1.196573893229166
 20
-2.041788736979166
 30
0.0
 10
1.14858669704861
 20
-2.060980902777777
 30
0.0
 10
1.100599500868055
 20
-2.080186631944444
 30
0.0
 10
1.062974717881944
 20
-2.116916232638888
 30
0.0
 10
1.042616102430555
 20
-2.1644287109375
 30
0.0
 10
1.022264268663194
 20
-2.211941189236111
 30
0.0
 10
1.021633572048611
 20
-2.2645263671875
 30
0.0
 10
1.04083251953125
 20
-2.3125
 30
0.0
 10
1.064079284667968
 20
-2.370601230197482
 30
0.0
 10
1.113894992404513
 20
-2.412059360080295
 30
0.0
 10
1.171568128797743
 20
-2.427413940429687
 30
0.0
 10
1.173071119520399
 20
-2.511858622233072
 30
0.0
 10
1.209293789333767
 20
-2.592886182996961
 30
0.0
 10
1.272786458333333
 20
-2.656110127766926
 30
0.0
 10
1.271085951063368
 20
-2.667803446451822
 30
0.0
 10
1.270447625054253
 20
-2.680246988932291
 30
0.0
 10
1.270423041449652
 20
-2.692114088270399
 30
0.0
 10
1.251510620117187
 20
-2.711657206217447
 30
0.0
 10
1.234029134114583
 20
-2.73327891031901
 30
0.0
 10
1.21841091579861
 20
-2.756944444444444
 30
0.0
 10
1.21733178032769
 20
-2.758580525716145
 30
0.0
 10
1.216319613986545
 20
-2.760286966959635
 30
0.0
 10
1.215257432725694
 20
-2.76194339328342
 30
0.0
 10
1.17157491048177
 20
-2.776993645562065
 30
0.0
 10
1.137397766113281
 20
-2.810071309407551
 30
0.0
 10
1.116165161132812
 20
-2.853811475965711
 30
0.0
 10
1.102171156141493
 20
-2.844572279188367
 30
0.0
 10
1.085719638400607
 20
-2.839803059895833
 30
0.0
 10
1.069308810763888
 20
-2.839803059895833
 30
0.0
 10
1.049485948350694
 20
-2.839803059895833
 30
0.0
 10
1.029364691840277
 20
-2.842325846354166
 30
0.0
 10
1.0093994140625
 20
-2.8472900390625
 30
0.0
 10
0.9991251627604166
 20
-2.842461480034721
 30
0.0
 10
0.9874810112847221
 20
-2.839803059895833
 30
0.0
 10
0.9749823676215276
 20
-2.839803059895833
 30
0.0
 10
0.9687762790256076
 20
-2.839803059895833
 30
0.0
 10
0.9625557793511283
 20
-2.84002939860026
 30
0.0
 10
0.9563335842556423
 20
-2.840446472167968
 30
0.0
 10
0.9504818386501735
 20
-2.809976365831163
 30
0.0
 10
0.9301698472764757
 20
-2.785354614257812
 30
0.0
 10
0.9003702799479166
 20
-2.774278428819444
 30
0.0
 10
0.8854098849826389
 20
-2.768608940972221
 30
0.0
 10
0.8677232530381944
 20
-2.765855577256944
 30
0.0
 10
0.8463066948784721
 20
-2.765855577256944
 30
0.0
 10
0.8256429036458332
 20
-2.765855577256944
 30
0.0
 10
0.8087700737847221
 20
-2.767822265625
 30
0.0
 10
0.7944403754340277
 20
-2.771986219618055
 30
0.0
 10
0.7801038953993055
 20
-2.767876519097221
 30
0.0
 10
0.7628038194444445
 20
-2.766045464409721
 30
0.0
 10
0.7396918402777778
 20
-2.766045464409721
 30
0.0
 10
0.7147081163194445
 20
-2.766045464409721
 30
0.0
 10
0.6914198133680555
 20
-2.769070095486111
 30
0.0
 10
0.6705525716145833
 20
-2.775010850694444
 30
0.0
 10
0.6325251261393229
 20
-2.78578864203559
 30
0.0
 10
0.6070285373263889
 20
-2.812814500596788
 30
0.0
 10
0.600679185655382
 20
-2.847407023111978
 30
0.0
 10
0.5881178114149305
 20
-2.842597961425781
 30
0.0
 10
0.573396470811632
 20
-2.839803059895833
 30
0.0
 10
0.5563693576388889
 20
-2.839803059895833
 30
0.0
 10
0.5401950412326389
 20
-2.839803059895833
 30
0.0
 10
0.5253363715277778
 20
-2.842176649305555
 30
0.0
 10
0.5120035807291666
 20
-2.846883138020833
 30
0.0
 10
0.4985555013020833
 20
-2.842013888888888
 30
0.0
 10
0.4834323459201389
 20
-2.839626736111111
 30
0.0
 10
0.4660441080729166
 20
-2.839626736111111
 30
0.0
 10
0.4461127387152778
 20
-2.839626736111111
 30
0.0
 10
0.4276123046875
 20
-2.841498480902777
 30
0.0
 10
0.4108140733506945
 20
-2.845255533854166
 30
0.0
 10
0.4040934244791666
 20
-2.846785651312933
 30
0.0
 10
0.3979280259874132
 20
-2.848726908365885
 30
0.0
 10
0.392165289984809
 20
-2.850939432779947
 30
0.0
 10
0.3840001424153646
 20
-2.846810234917534
 30
0.0
 10
0.3755840725368924
 20
-2.843338860405815
 30
0.0
 10
0.3667466905381944
 20
-2.84130859375
 30
0.0
 10
0.3645901150173611
 20
-2.817532009548611
 30
0.0
 10
0.3538004557291666
 20
-2.801730685763888
 30
0.0
 10
0.3445163302951389
 20
-2.792331271701388
 30
0.0
 10
0.3301595052083333
 20
-2.777791341145833
 30
0.0
 10
0.310791015625
 20
-2.769775390625
 30
0.0
 10
0.2899848090277777
 20
-2.769775390625
 30
0.0
 10
0.2753567165798611
 20
-2.769775390625
 30
0.0
 10
0.2596503363715278
 20
-2.772148980034721
 30
0.0
 10
0.2420450846354166
 20
-2.777004665798611
 30
0.0
 10
0.2252061631944444
 20
-2.781629774305555
 30
0.0
 10
0.2108968098958333
 20
-2.7872314453125
 30
0.0
 10
0.1975640190972222
 20
-2.794542100694444
 30
0.0
 10
0.1729541354709201
 20
-2.808403862847221
 30
0.0
 10
0.1588185628255208
 20
-2.824685838487413
 30
0.0
 10
0.1508356730143229
 20
-2.839978535970051
 30
0.0
 10
0.1439581976996528
 20
-2.838951958550346
 30
0.0
 10
0.1369518703884549
 20
-2.838311089409721
 30
0.0
 10
0.1297675238715278
 20
-2.838311089409721
 30
0.0
 10
0.1122216118706597
 20
-2.838311089409721
 30
0.0
 10
0.0951097276475694
 20
-2.841150919596353
 30
0.0
 10
0.0784352620442708
 20
-2.846696641710069
 30
0.0
 10
0.0718120998806424
 20
-2.829716152615017
 30
0.0
 10
0.0626534356011285
 20
-2.816865709092881
 30
0.0
 10
0.0542873806423611
 20
-2.807942708333333
 30
0.0
 10
0.0403917100694445
 20
-2.793104383680555
 30
0.0
 10
0.0236612955729167
 20
-2.782362196180555
 30
0.0
 10
0.0045369466145833
 20
-2.776014539930555
 30
0.0
 10
-0.0107421875
 20
-2.770941840277777
 30
0.0
 10
-0.0282931857638889
 20
-2.768473307291666
 30
0.0
 10
-0.0491061740451389
 20
-2.768473307291666
 30
0.0
 10
-0.0553792317708333
 20
-2.768473307291666
 30
0.0
 10
-0.0623779296875
 20
-2.768608940972221
 30
0.0
 10
-0.0699937608506944
 20
-2.768880208333333
 30
0.0
 10
-0.0905354817708333
 20
-2.769585503472221
 30
0.0
 10
-0.1043023003472222
 20
-2.769951714409721
 30
0.0
 10
-0.1112942165798611
 20
-2.769951714409721
 30
0.0
 10
-0.1199679904513889
 20
-2.769951714409721
 30
0.0
 10
-0.1280517578125
 20
-2.769748263888888
 30
0.0
 10
-0.1344061957465278
 20
-2.769395616319444
 30
0.0
 10
-0.1416829427083333
 20
-2.768866644965277
 30
0.0
 10
-0.1476508246527778
 20
-2.768649631076388
 30
0.0
 10
-0.1523166232638889
 20
-2.768649631076388
 30
0.0
 10
-0.1756049262152778
 20
-2.768649631076388
 30
0.0
 10
-0.1967705620659722
 20
-2.776529947916666
 30
0.0
 10
-0.2135281032986111
 20
-2.791449652777777
 30
0.0
 10
-0.2322998046875
 20
-2.808173285590277
 30
0.0
 10
-0.2426350911458333
 20
-2.831353081597221
 30
0.0
 10
-0.2426350911458333
 20
-2.856730143229166
 30
0.0
 10
-0.2426350911458333
 20
-2.879109700520833
 30
0.0
 10
-0.2343207465277778
 20
-2.899698893229166
 30
0.0
 10
-0.2198350694444444
 20
-2.915256076388888
 30
0.0
 10
-0.2198757595486111
 20
-2.952053493923611
 30
0.0
 10
-0.22076416015625
 20
-2.983235677083333
 30
0.0
 10
-0.2224595811631944
 20
-3.007717556423611
 30
0.0
 10
-0.2228664822048611
 20
-3.013170030381944
 30
0.0
 10
-0.2232259114583333
 20
-3.017537434895833
 30
0.0
 10
-0.2235310872395833
 20
-3.020982530381944
 30
0.0
 10
-0.2261013454861111
 20
-3.023993598090277
 30
0.0
 10
-0.2283189561631944
 20
-3.026950412326388
 30
0.0
 10
-0.2303059895833333
 20
-3.030029296875
 30
0.0
 10
-0.2388576931423611
 20
-3.043240017361111
 30
0.0
 10
-0.2433742947048611
 20
-3.059109157986111
 30
0.0
 10
-0.2433742947048611
 20
-3.075954861111111
 30
0.0
 10
-0.2433742947048611
 20
-3.098334418402777
 30
0.0
 10
-0.2351955837673611
 20
-3.119737413194444
 30
0.0
 10
-0.21978759765625
 20
-3.136827256944444
 30
0.0
 10
-0.2030504014756944
 20
-3.154961480034721
 30
0.0
 10
-0.1798231336805556
 20
-3.164957682291666
 30
0.0
 10
-0.1543850368923611
 20
-3.164957682291666
 30
0.0
 10
-0.1494818793402778
 20
-3.164957682291666
 30
0.0
 10
-0.1437310112847222
 20
-3.16457790798611
 30
0.0
 10
-0.1358642578125
 20
-3.163750542534721
 30
0.0
 10
-0.1302693684895833
 20
-3.163370768229166
 30
0.0
 10
-0.1218058268229166
 20
-3.163099500868055
 30
0.0
 10
-0.1109280056423611
 20
-3.162909613715277
 30
0.0
 10
-0.1109280056423611
 20
-3.162909613715277
 30
0.0
 10
-0.0929158528645833
 20
-3.162733289930555
 30
0.0
 10
-0.0929158528645833
 20
-3.162733289930555
 30
0.0
 10
-0.0891655815972222
 20
-3.162896050347221
 30
0.0
 10
-0.0818413628472222
 20
-3.163248697916666
 30
0.0
 10
-0.0707194010416667
 20
-3.163777669270833
 30
0.0
 10
-0.0548434787326389
 20
-3.16445583767361
 30
0.0
 10
-0.0448676215277778
 20
-3.164767795138888
 30
0.0
 10
-0.0408121744791667
 20
-3.164767795138888
 30
0.0
 10
-0.0160005357530382
 20
-3.164767795138888
 30
0.0
 10
0.0069046020507813
 20
-3.159439086914062
 30
0.0
 10
0.0269571940104167
 20
-3.149322509765625
 30
0.0
 10
0.0455661349826389
 20
-3.161476982964409
 30
0.0
 10
0.067732916937934
 20
-3.167941623263888
 30
0.0
 10
0.0920071072048611
 20
-3.167941623263888
 30
0.0
 10
0.1049058702256944
 20
-3.167941623263888
 30
0.0
 10
0.1174180772569444
 20
-3.1658935546875
 30
0.0
 10
0.1293606228298611
 20
-3.161851671006944
 30
0.0
 10
0.1401638454861111
 20
-3.165839301215277
 30
0.0
 10
0.1517673068576389
 20
-3.167941623263888
 30
0.0
 10
0.1638251410590278
 20
-3.167941623263888
 30
0.0
 10
0.185164557562934
 20
-3.167941623263888
 30
0.0
 10
0.2058910793728299
 20
-3.161150614420572
 30
0.0
 10
0.2238778008355035
 20
-3.149002922905815
 30
0.0
 10
0.2276246812608507
 20
-3.149518330891926
 30
0.0
 10
0.2314300537109375
 20
-3.149875217013888
 30
0.0
 10
0.2353447808159722
 20
-3.149875217013888
 30
0.0
 10
0.2372572157118055
 20
-3.149875217013888
 30
0.0
 10
0.2391560872395833
 20
-3.149820963541666
 30
0.0
 10
0.2410346137152778
 20
-3.149712456597221
 30
0.0
 10
0.246826171875
 20
-3.152967664930555
 30
0.0
 10
0.2526109483506944
 20
-3.155748155381944
 30
0.0
 10
0.2584364149305555
 20
-3.1580810546875
 30
0.0
 10
0.2748752170138889
 20
-3.164618598090277
 30
0.0
 10
0.2928670247395833
 20
-3.167941623263888
 30
0.0
 10
0.3119032118055555
 20
-3.167941623263888
 30
0.0
 10
0.3232048882378472
 20
-3.167941623263888
 30
0.0
 10
0.3341708713107639
 20
-3.166537814670138
 30
0.0
 10
0.3447969224717882
 20
-3.1640625
 30
0.0
 10
0.3495144314236111
 20
-3.174009535047742
 30
0.0
 10
0.3556925455729166
 20
-3.183226691351996
 30
0.0
 10
0.3634101019965277
 20
-3.191446940104166
 30
0.0
 10
0.3857828776041666
 20
-3.215304904513888
 30
0.0
 10
0.41558837890625
 20
-3.227918836805555
 30
0.0
 10
0.4496120876736111
 20
-3.227918836805555
 30
0.0
 10
0.4885999891493056
 20
-3.227918836805555
 30
0.0
 10
0.5230712890625
 20
-3.2113037109375
 30
0.0
 10
0.5492621527777778
 20
-3.179890950520833
 30
0.0
 10
0.5533701578776041
 20
-3.174971686469183
 30
0.0
 10
0.5572179158528645
 20
-3.169598049587673
 30
0.0
 10
0.5609046088324653
 20
-3.163979424370659
 30
0.0
 10
0.586411370171441
 20
-3.167366875542534
 30
0.0
 10
0.6120690239800348
 20
-3.167488945855034
 30
0.0
 10
0.637391832139757
 20
-3.159819708930121
 30
0.0
 10
0.6410412258572049
 20
-3.158714294433593
 30
0.0
 10
0.6445592244466145
 20
-3.15725368923611
 30
0.0
 10
0.6480865478515625
 20
-3.155824449327256
 30
0.0
 10
0.6488740709092883
 20
-3.156164381239149
 30
0.0
 10
0.6495844523111979
 20
-3.15663825141059
 30
0.0
 10
0.6503838433159723
 20
-3.156955295138888
 30
0.0
 10
0.6672024197048611
 20
-3.163587782118055
 30
0.0
 10
0.6874593098958333
 20
-3.166815863715277
 30
0.0
 10
0.7123006184895833
 20
-3.166815863715277
 30
0.0
 10
0.7328152126736111
 20
-3.166815863715277
 30
0.0
 10
0.7517293294270833
 20
-3.163831922743055
 30
0.0
 10
0.7682969835069445
 20
-3.158053927951388
 30
0.0
 10
0.7706434461805555
 20
-3.158949110243055
 30
0.0
 10
0.7730577256944445
 20
-3.159762912326388
 30
0.0
 10
0.7755262586805555
 20
-3.160508897569444
 30
0.0
 10
0.7904052734375
 20
-3.164686414930555
 30
0.0
 10
0.8084242078993055
 20
-3.166639539930555
 30
0.0
 10
0.832241482204861
 20
-3.166639539930555
 30
0.0
 10
0.8512369791666666
 20
-3.166639539930555
 30
0.0
 10
0.8663330078125
 20
-3.165866427951388
 30
0.0
 10
0.8783976236979166
 20
-3.164252387152777
 30
0.0
 10
0.892271253797743
 20
-3.162420484754774
 30
0.0
 10
0.9044537014431423
 20
-3.159154256184895
 30
0.0
 10
0.9155451456705728
 20
-3.154528299967447
 30
0.0
 10
0.9315049913194444
 20
-3.162307739257812
 30
0.0
 10
0.9496417575412326
 20
-3.166639539930555
 30
0.0
 10
0.9693535698784721
 20
-3.166639539930555
 30
0.0
 10
0.9803670247395832
 20
-3.166639539930555
 30
0.0
 10
0.9911838107638889
 20
-3.16506618923611
 30
0.0
 10
1.001627604166666
 20
-3.161973741319444
 30
0.0
 10
1.010898166232638
 20
-3.16518825954861
 30
0.0
 10
1.021097819010416
 20
-3.166815863715277
 30
0.0
 10
1.032138400607638
 20
-3.166815863715277
 30
0.0
 10
1.050252278645833
 20
-3.166815863715277
 30
0.0
 10
1.068861219618055
 20
-3.1640625
 30
0.0
 10
1.087239583333333
 20
-3.15869140625
 30
0.0
 10
1.110582139756944
 20
-3.151947869194878
 30
0.0
 10
1.12730238172743
 20
-3.142268710666232
 30
0.0
 10
1.139298333062065
 20
-3.131539238823784
 30
0.0
 10
1.179922315809461
 20
-3.195445590549045
 30
0.0
 10
1.241483052571614
 20
-3.234781901041666
 30
0.0
 10
1.305840386284722
 20
-3.234781901041666
 30
0.0
 10
1.30877939860026
 20
-3.234781901041666
 30
0.0
 10
1.311735365125868
 20
-3.234434339735242
 30
0.0
 10
1.314683702256944
 20
-3.234269036187065
 30
0.0
 10
1.314683702256944
 20
-3.234269036187065
 30
0.0
 10
1.314683702256944
 20
-3.234700520833333
 30
0.0
 10
1.314683702256944
 20
-3.234700520833333
 30
0.0
 10
1.3977296617296
 20
-3.234700520833333
 30
0.0
 10
1.473458184136284
 20
-3.203787061903211
 30
0.0
 10
1.524581061469183
 20
-3.151551140679253
 30
0.0
 10
1.550780402289496
 20
-3.158913506401909
 30
0.0
 10
1.578040228949652
 20
-3.162896050347221
 30
0.0
 10
1.605807834201388
 20
-3.162896050347221
 30
0.0
 10
1.637791951497395
 20
-3.162896050347221
 30
0.0
 10
1.669122483995225
 20
-3.157586839463975
 30
0.0
 10
1.698903401692708
 20
-3.147839864095051
 30
0.0
 10
1.750032212999131
 20
-3.201642354329426
 30
0.0
 10
1.827660454644097
 20
-3.23428005642361
 30
0.0
 10
1.911797417534722
 20
-3.23428005642361
 30
0.0
 10
1.911797417534722
 20
-3.23428005642361
 30
0.0
 10
1.911797417534722
 20
-3.234061347113715
 30
0.0
 10
1.911797417534722
 20
-3.234061347113715
 30
0.0
 10
1.912830776638454
 20
-3.234081692165798
 30
0.0
 10
1.913856506347656
 20
-3.234239366319444
 30
0.0
 10
1.914889865451388
 20
-3.234239366319444
 30
0.0
 10
1.957831488715277
 20
-3.234239366319444
 30
0.0
 10
2.001207139756944
 20
-3.216891818576388
 30
0.0
 10
2.0379638671875
 20
-3.18423122829861
 30
0.0
 10
2.079006618923611
 20
-3.147786458333333
 30
0.0
 10
2.109375
 20
-3.094862196180555
 30
0.0
 10
2.123494466145833
 20
-3.035210503472221
 30
0.0
 10
2.152531094021267
 20
-2.912572224934895
 30
0.0
 10
2.10669199625651
 20
-2.798123677571614
 30
0.0
 10
2.018106248643662
 20
-2.760181003146701
 30
0.0
  0
INSERT
  5
82
330
70
100
AcDbEntity
  8
Bear With Balloons
100
AcDbBlockReference
  2
Block_0
 10
0.0
 20
0.0
 30
0.0
  0
INSERT
  5
A3
330
70
100
AcDbEntity
  8
Bear With Balloons
100
AcDbBlockReference
  2
Block_1
 10
0.0
 20
0.0
 30
0.0
  0
ENDSEC
  0
SECTION
  2
OBJECTS
  0
DICTIONARY
  5
C
330
0
100
AcDbDictionary
281
     1
  3
ACAD_COLOR
350
63
  3
ACAD_DETAILVIEWSTYLE
350
6A
  3
ACAD_GROUP
350
D
  3
ACAD_LAYOUT
350
62
  3
ACAD_MATERIAL
350
10
  3
ACAD_MLEADERSTYLE
350
66
  3
ACAD_MLINESTYLE
350
5F
  3
ACAD_PLOTSETTINGS
350
61
  3
ACAD_PLOTSTYLENAME
350
E
  3
ACAD_SCALELIST
350
42
  3
ACAD_SECTIONVIEWSTYLE
350
68
  3
ACAD_TABLESTYLE
350
64
  3
ACAD_VISUALSTYLE
350
29
  3
ACDB_RECOMPOSE_DATA
350
BB
  3
AcDbVariableDictionary
350
B3
  0
DICTIONARY
  5
63
102
{ACAD_REACTORS
330
C
102
}
330
C
100
AcDbDictionary
281
     1
  0
DICTIONARY
  5
6A
102
{ACAD_REACTORS
330
C
102
}
330
C
100
AcDbDictionary
281
     1
  3
Imperial24
350
6B
  0
DICTIONARY
  5
D
102
{ACAD_REACTORS
330
C
102
}
330
C
100
AcDbDictionary
281
     1
  0
DICTIONARY
  5
62
102
{ACAD_REACTORS
330
C
102
}
330
C
100
AcDbDictionary
281
     1
  3
Layout1
350
6F
  3
Layout2
350
77
  3
Model
350
73
  0
DICTIONARY
  5
10
102
{ACAD_REACTORS
330
C
102
}
330
C
100
AcDbDictionary
281
     1
  3
ByBlock
350
19
  3
ByLayer
350
11
  3
Global
350
21
  0
DICTIONARY
  5
66
102
{ACAD_REACTORS
330
C
102
}
330
C
100
AcDbDictionary
281
     1
  3
Standard
350
67
  0
DICTIONARY
  5
5F
102
{ACAD_REACTORS
330
C
102
}
330
C
100
AcDbDictionary
281
     1
  3
Standard
350
60
  0
DICTIONARY
  5
61
102
{ACAD_REACTORS
330
C
102
}
330
C
100
AcDbDictionary
281
     1
  0
ACDBDICTIONARYWDFLT
  5
E
102
{ACAD_REACTORS
330
C
102
}
330
C
100
AcDbDictionary
281
     1
  3
Normal
350
F
100
AcDbDictionaryWithDefault
340
F
  0
DICTIONARY
  5
42
102
{ACAD_REACTORS
330
C
102
}
330
C
100
AcDbDictionary
281
     1
  3
A0
350
43
  3
A1
350
44
  3
A2
350
45
  3
A3
350
46
  3
A4
350
47
  3
A5
350
48
  3
A6
350
49
  3
A7
350
4A
  3
A8
350
4B
  3
A9
350
4C
  3
B0
350
4D
  3
B1
350
4E
  3
B2
350
4F
  3
B3
350
50
  3
B4
350
51
  3
B5
350
52
  3
B6
350
53
  0
DICTIONARY
  5
68
102
{ACAD_REACTORS
330
C
102
}
330
C
100
AcDbDictionary
281
     1
  3
Imperial24
350
69
  0
DICTIONARY
  5
64
102
{ACAD_REACTORS
330
C
102
}
330
C
100
AcDbDictionary
281
     1
  3
Standard
350
65
  0
DICTIONARY
  5
29
102
{ACAD_REACTORS
330
C
102
}
330
C
100
AcDbDictionary
281
     1
  3
2dWireframe
350
2F
  3
Basic
350
2E
  3
Brighten
350
35
  3
ColorChange
350
39
  3
Conceptual
350
32
  3
Dim
350
34
  3
EdgeColorOff
350
41
  3
Facepattern
350
38
  3
Flat
350
2A
  3
FlatWithEdges
350
2B
  3
Gouraud
350
2C
  3
GouraudWithEdges
350
2D
  3
Hidden
350
31
  3
JitterOff
350
3F
  3
Linepattern
350
37
  3
OverhangOff
350
40
  3
Realistic
350
33
  3
Shaded
350
3E
  3
Shaded with edges
350
3D
  3
Shades of Gray
350
3A
  3
Sketchy
350
3B
  3
Thicken
350
36
  3
Wireframe
350
30
  3
X-Ray
350
3C
  0
XRECORD
  5
BB
102
{ACAD_REACTORS
330
C
102
}
330
C
100
AcDbXrecord
280
     1
 90
        1
330
65
  0
DICTIONARY
  5
B3
102
{ACAD_REACTORS
330
C
102
}
330
C
100
AcDbDictionary
281
     1
  3
CANNOSCALE
350
B8
  3
CMLEADERSTYLE
350
B5
  3
CTABLESTYLE
350
B4
  3
CVIEWDETAILSTYLE
350
B6
  3
CVIEWSECTIONSTYLE
350
B7
  0
ACDBDETAILVIEWSTYLE
  5
6B
102
{ACAD_REACTORS
330
6A
102
}
330
6A
100
AcDbModelDocViewStyle
 70
     0
  3
Imperial24
290
     1
300
Imperial24
 90
        0
100
AcDbDetailViewStyle
 70
     0
 71
     0
 90
        3
 71
     1
340
55
 62
   256
 40
0.24
340
0
 62
   256
 40
0.24
300

 40
0.36
280
     3
 71
     2
340
5D
 90
       25
 62
   256
 71
     3
340
55
 62
   256
 40
0.24
 90
        1
 40
0.75
 90
        1
300
%<\AcVar ViewType \f "%tc1">% %<\AcVar ViewDetailId>%\PSCALE %<\AcVar ViewScale \f "%sn">%
 71
     4
340
5D
 90
       25
 62
   256
340
5D
 90
       25
 62
   256
280
     0
  0
LAYOUT
  5
6F
102
{ACAD_REACTORS
330
62
102
}
330
62
100
AcDbPlotSettings
  1

  2

  4

  6

 40
0.0
 41
0.0
 42
0.0
 43
0.0
 44
0.0
 45
0.0
 46
0.0
 47
0.0
 48
0.0
 49
0.0
140
0.0
141
0.0
142
1.0
143
1.0
 70
   688
 72
     0
 73
     0
 74
     5
  7

 75
    16
147
1.0
 76
     0
 77
     2
 78
   300
148
0.0
149
0.0
100
AcDbLayout
  1
Layout1
 70
     1
 71
     1
 10
0.0
 20
0.0
 11
12.0
 21
9.0
 12
0.0
 22
0.0
 32
0.0
 14
0.0
 24
0.0
 34
0.0
 15
0.0
 25
0.0
 35
0.0
146
0.0
 13
0.0
 23
0.0
 33
0.0
 16
1.0
 26
0.0
 36
0.0
 17
0.0
 27
1.0
 37
0.0
 76
     0
330
6C
  0
LAYOUT
  5
77
102
{ACAD_REACTORS
330
62
102
}
330
62
100
AcDbPlotSettings
  1

  2

  4

  6

 40
0.0
 41
0.0
 42
0.0
 43
0.0
 44
0.0
 45
0.0
 46
0.0
 47
0.0
 48
0.0
 49
0.0
140
0.0
141
0.0
142
1.0
143
1.0
 70
   688
 72
     0
 73
     0
 74
     5
  7

 75
    16
147
1.0
 76
     0
 77
     2
 78
   300
148
0.0
149
0.0
100
AcDbLayout
  1
Layout2
 70
     1
 71
     2
 10
0.0
 20
0.0
 11
12.0
 21
9.0
 12
0.0
 22
0.0
 32
0.0
 14
0.0
 24
0.0
 34
0.0
 15
0.0
 25
0.0
 35
0.0
146
0.0
 13
0.0
 23
0.0
 33
0.0
 16
1.0
 26
0.0
 36
0.0
 17
0.0
 27
1.0
 37
0.0
 76
     0
330
74
  0
LAYOUT
  5
73
102
{ACAD_REACTORS
330
62
102
}
330
62
100
AcDbPlotSettings
  1

  2

  4

  6

 40
0.0
 41
0.0
 42
0.0
 43
0.0
 44
0.0
 45
0.0
 46
0.0
 47
0.0
 48
0.0
 49
0.0
140
0.0
141
0.0
142
1.0
143
1.0
 70
  1712
 72
     0
 73
     0
 74
     0
  7

 75
     0
147
1.0
 76
     0
 77
     2
 78
   300
148
0.0
149
0.0
100
AcDbLayout
  1
Model
 70
     1
 71
     0
 10
0.0
 20
0.0
 11
12.0
 21
9.0
 12
0.0
 22
0.0
 32
0.0
 14
0.0
 24
0.0
 34
0.0
 15
0.0
 25
0.0
 35
0.0
146
0.0
 13
0.0
 23
0.0
 33
0.0
 16
1.0
 26
0.0
 36
0.0
 17
0.0
 27
1.0
 37
0.0
 76
     0
330
70
  0
MATERIAL
  5
19
102
{ACAD_XDICTIONARY
360
1A
102
}
102
{ACAD_REACTORS
330
10
102
}
330
10
100
AcDbMaterial
  1
ByBlock
 72
     0
 43
0.0208333333333333
 43
0.0
 43
0.0
 43
0.0
 43
0.0
 43
0.0208333333333333
 43
0.0
 43
0.0
 43
0.0
 43
0.0
 43
1.0
 43
0.0
 43
0.0
 43
0.0
 43
0.0
 43
1.0
 77
     0
 47
0.0208333333333333
 47
0.0
 47
0.0
 47
0.0
 47
0.0
 47
0.0208333333333333
 47
0.0
 47
0.0
 47
0.0
 47
0.0
 47
1.0
 47
0.0
 47
0.0
 47
0.0
 47
0.0
 47
1.0
171
     0
 49
0.0208333333333333
 49
0.0
 49
0.0
 49
0.0
 49
0.0
 49
0.0208333333333333
 49
0.0
 49
0.0
 49
0.0
 49
0.0
 49
1.0
 49
0.0
 49
0.0
 49
0.0
 49
0.0
 49
1.0
175
     0
142
0.0208333333333333
142
0.0
142
0.0
142
0.0
142
0.0
142
0.0208333333333333
142
0.0
142
0.0
142
0.0
142
0.0
142
1.0
142
0.0
142
0.0
142
0.0
142
0.0
142
1.0
179
     0
144
0.0208333333333333
144
0.0
144
0.0
144
0.0
144
0.0
144
0.0208333333333333
144
0.0
144
0.0
144
0.0
144
0.0
144
1.0
144
0.0
144
0.0
144
0.0
144
0.0
144
1.0
147
0.0208333333333333
147
0.0
147
0.0
147
0.0
147
0.0
147
0.0208333333333333
147
0.0
147
0.0
147
0.0
147
0.0
147
1.0
147
0.0
147
0.0
147
0.0
147
0.0
147
1.0
  0
MATERIAL
  5
11
102
{ACAD_XDICTIONARY
360
12
102
}
102
{ACAD_REACTORS
330
10
102
}
330
10
100
AcDbMaterial
  1
ByLayer
 72
     0
 43
0.0208333333333333
 43
0.0
 43
0.0
 43
0.0
 43
0.0
 43
0.0208333333333333
 43
0.0
 43
0.0
 43
0.0
 43
0.0
 43
1.0
 43
0.0
 43
0.0
 43
0.0
 43
0.0
 43
1.0
 77
     0
 47
0.0208333333333333
 47
0.0
 47
0.0
 47
0.0
 47
0.0
 47
0.0208333333333333
 47
0.0
 47
0.0
 47
0.0
 47
0.0
 47
1.0
 47
0.0
 47
0.0
 47
0.0
 47
0.0
 47
1.0
171
     0
 49
0.0208333333333333
 49
0.0
 49
0.0
 49
0.0
 49
0.0
 49
0.0208333333333333
 49
0.0
 49
0.0
 49
0.0
 49
0.0
 49
1.0
 49
0.0
 49
0.0
 49
0.0
 49
0.0
 49
1.0
175
     0
142
0.0208333333333333
142
0.0
142
0.0
142
0.0
142
0.0
142
0.0208333333333333
142
0.0
142
0.0
142
0.0
142
0.0
142
1.0
142
0.0
142
0.0
142
0.0
142
0.0
142
1.0
179
     0
144
0.0208333333333333
144
0.0
144
0.0
144
0.0
144
0.0
144
0.0208333333333333
144
0.0
144
0.0
144
0.0
144
0.0
144
1.0
144
0.0
144
0.0
144
0.0
144
0.0
144
1.0
147
0.0208333333333333
147
0.0
147
0.0
147
0.0
147
0.0
147
0.0208333333333333
147
0.0
147
0.0
147
0.0
147
0.0
147
1.0
147
0.0
147
0.0
147
0.0
147
0.0
147
1.0
  0
MATERIAL
  5
21
102
{ACAD_XDICTIONARY
360
22
102
}
102
{ACAD_REACTORS
330
10
102
}
330
10
100
AcDbMaterial
  1
Global
 72
     0
 43
0.0208333333333333
 43
0.0
 43
0.0
 43
0.0
 43
0.0
 43
0.0208333333333333
 43
0.0
 43
0.0
 43
0.0
 43
0.0
 43
1.0
 43
0.0
 43
0.0
 43
0.0
 43
0.0
 43
1.0
 77
     0
 47
0.0208333333333333
 47
0.0
 47
0.0
 47
0.0
 47
0.0
 47
0.0208333333333333
 47
0.0
 47
0.0
 47
0.0
 47
0.0
 47
1.0
 47
0.0
 47
0.0
 47
0.0
 47
0.0
 47
1.0
171
     0
 49
0.0208333333333333
 49
0.0
 49
0.0
 49
0.0
 49
0.0
 49
0.0208333333333333
 49
0.0
 49
0.0
 49
0.0
 49
0.0
 49
1.0
 49
0.0
 49
0.0
 49
0.0
 49
0.0
 49
1.0
175
     0
142
0.0208333333333333
142
0.0
142
0.0
142
0.0
142
0.0
142
0.0208333333333333
142
0.0
142
0.0
142
0.0
142
0.0
142
1.0
142
0.0
142
0.0
142
0.0
142
0.0
142
1.0
179
     0
144
0.0208333333333333
144
0.0
144
0.0
144
0.0
144
0.0
144
0.0208333333333333
144
0.0
144
0.0
144
0.0
144
0.0
144
1.0
144
0.0
144
0.0
144
0.0
144
0.0
144
1.0
147
0.0208333333333333
147
0.0
147
0.0
147
0.0
147
0.0
147
0.0208333333333333
147
0.0
147
0.0
147
0.0
147
0.0
147
1.0
147
0.0
147
0.0
147
0.0
147
0.0
147
1.0
  0
MLEADERSTYLE
  5
67
102
{ACAD_REACTORS
330
66
102
}
330
66
100
AcDbMLeaderStyle
179
     2
170
     2
171
     1
172
     0
 90
        2
 40
0.0
 41
0.0
173
     1
 91
-1056964608
340
5B
 92
       -2
290
     1
 42
0.09
291
     1
 43
0.36
  3
Standard
 44
0.18
300

342
55
174
     1
178
     6
175
     1
176
     0
 93
-1056964608
 45
0.18
292
     0
297
     0
 46
0.18
 94
-1056964608
 47
1.0
 49
1.0
140
1.0
293
     1
141
0.0
294
     1
177
     0
142
1.0
295
     1
296
     0
143
0.125
271
     0
272
     9
273
     9
298
     1
  0
MLINESTYLE
  5
60
102
{ACAD_REACTORS
330
5F
102
}
330
5F
100
AcDbMlineStyle
  2
STANDARD
 70
     0
  3

 62
   256
 51
90.0
 52
90.0
 71
     2
 49
0.5
 62
   256
  6
BYLAYER
 49
-0.5
 62
   256
  6
BYLAYER
  0
ACDBPLACEHOLDER
  5
F
102
{ACAD_REACTORS
330
E
102
}
330
E
  0
SCALE
  5
43
102
{ACAD_REACTORS
330
42
102
}
330
42
100
AcDbScale
 70
     0
300
1:1
140
1.0
141
1.0
290
     1
  0
SCALE
  5
44
102
{ACAD_REACTORS
330
42
102
}
330
42
100
AcDbScale
 70
     0
300
1/128" = 1'-0"
140
0.0078125
141
12.0
290
     0
  0
SCALE
  5
45
102
{ACAD_REACTORS
330
42
102
}
330
42
100
AcDbScale
 70
     0
300
1/64" = 1'-0"
140
0.015625
141
12.0
290
     0
  0
SCALE
  5
46
102
{ACAD_REACTORS
330
42
102
}
330
42
100
AcDbScale
 70
     0
300
1/32" = 1'-0"
140
0.03125
141
12.0
290
     0
  0
SCALE
  5
47
102
{ACAD_REACTORS
330
42
102
}
330
42
100
AcDbScale
 70
     0
300
1/16" = 1'-0"
140
0.0625
141
12.0
290
     0
  0
SCALE
  5
48
102
{ACAD_REACTORS
330
42
102
}
330
42
100
AcDbScale
 70
     0
300
3/32" = 1'-0"
140
0.09375
141
12.0
290
     0
  0
SCALE
  5
49
102
{ACAD_REACTORS
330
42
102
}
330
42
100
AcDbScale
 70
     0
300
1/8" = 1'-0"
140
0.125
141
12.0
290
     0
  0
SCALE
  5
4A
102
{ACAD_REACTORS
330
42
102
}
330
42
100
AcDbScale
 70
     0
300
3/16" = 1'-0"
140
0.1875
141
12.0
290
     0
  0
SCALE
  5
4B
102
{ACAD_REACTORS
330
42
102
}
330
42
100
AcDbScale
 70
     0
300
1/4" = 1'-0"
140
0.25
141
12.0
290
     0
  0
SCALE
  5
4C
102
{ACAD_REACTORS
330
42
102
}
330
42
100
AcDbScale
 70
     0
300
3/8" = 1'-0"
140
0.375
141
12.0
290
     0
  0
SCALE
  5
4D
102
{ACAD_REACTORS
330
42
102
}
330
42
100
AcDbScale
 70
     0
300
1/2" = 1'-0"
140
0.5
141
12.0
290
     0
  0
SCALE
  5
4E
102
{ACAD_REACTORS
330
42
102
}
330
42
100
AcDbScale
 70
     0
300
3/4" = 1'-0"
140
0.75
141
12.0
290
     0
  0
SCALE
  5
4F
102
{ACAD_REACTORS
330
42
102
}
330
42
100
AcDbScale
 70
     0
300
1" = 1'-0"
140
1.0
141
12.0
290
     0
  0
SCALE
  5
50
102
{ACAD_REACTORS
330
42
102
}
330
42
100
AcDbScale
 70
     0
300
1-1/2" = 1'-0"
140
1.5
141
12.0
290
     0
  0
SCALE
  5
51
102
{ACAD_REACTORS
330
42
102
}
330
42
100
AcDbScale
 70
     0
300
3" = 1'-0"
140
3.0
141
12.0
290
     0
  0
SCALE
  5
52
102
{ACAD_REACTORS
330
42
102
}
330
42
100
AcDbScale
 70
     0
300
6" = 1'-0"
140
6.0
141
12.0
290
     0
  0
SCALE
  5
53
102
{ACAD_REACTORS
330
42
102
}
330
42
100
AcDbScale
 70
     0
300
1'-0" = 1'-0"
140
12.0
141
12.0
290
     0
  0
ACDBSECTIONVIEWSTYLE
  5
69
102
{ACAD_REACTORS
330
68
102
}
330
68
100
AcDbModelDocViewStyle
 70
     0
  3
Imperial24
290
     1
300
Imperial24
 90
        0
100
AcDbSectionViewStyle
 70
     0
 71
     0
 90
       78
 71
     1
340
55
 62
   256
 40
0.24
340
0
340
0
 62
   256
 40
0.24
300
I, O, Q, S, X, Z
 40
0.48
 90
        3
 40
0.18
 90
        1
 71
     2
340
5D
 90
       25
 62
   256
340
5D
 90
       50
 62
   256
 40
0.24
 40
0.0
 40
0.24
 71
     3
340
55
 62
   256
 40
0.24
 90
        1
 40
0.75
 90
        1
300
%<\AcVar ViewType \f "%tc1">% %<\AcVar ViewSectionStartId>%-%<\AcVar ViewSectionEndId>%\PSCALE %<\AcVar ViewScale \f "%sn">%
 71
     4
 62
   256
 62
   257
300
ANSI31
 40
1.0
 90
        0
290
     0
290
     0
 90
        6
 40
0.0
 40
1.570796326794896
 40
0.2617993877991494
 40
1.308996938995747
 40
-0.2617993877991494
 40
1.832595714594046
  0
TABLESTYLE
  5
65
102
{ACAD_XDICTIONARY
360
B9
102
}
102
{ACAD_REACTORS
330
64
102
}
330
64
100
AcDbTableStyle
280
     0
  3
Standard
 70
     0
 71
     0
 40
0.06
 41
0.06
280
     0
281
     0
  7
Standard
140
0.18
170
     2
 62
     0
 63
     7
283
     0
 90
      512
 91
        0
  1

274
    -2
284
     1
 64
     0
275
    -2
285
     1
 65
     0
276
    -2
286
     1
 66
     0
277
    -2
287
     1
 67
     0
278
    -2
288
     1
 68
     0
279
    -2
289
     1
 69
     0
  7
Standard
140
0.25
170
     5
 62
     0
 63
     7
283
     0
 90
      512
 91
        0
  1

274
    -2
284
     1
 64
     0
275
    -2
285
     1
 65
     0
276
    -2
286
     1
 66
     0
277
    -2
287
     1
 67
     0
278
    -2
288
     1
 68
     0
279
    -2
289
     1
 69
     0
  7
Standard
140
0.18
170
     5
 62
     0
 63
     7
283
     0
 90
      512
 91
        0
  1

274
    -2
284
     1
 64
     0
275
    -2
285
     1
 65
     0
276
    -2
286
     1
 66
     0
277
    -2
287
     1
 67
     0
278
    -2
288
     1
 68
     0
279
    -2
289
     1
 69
     0
  0
VISUALSTYLE
  5
2F
102
{ACAD_REACTORS
330
29
102
}
330
29
100
AcDbVisualStyle
  2
2dWireframe
 70
     4
177
     3
291
     0
 70
    58
 90
        0
176
     1
 90
        2
176
     1
 90
        0
176
     1
 90
        0
176
     1
 40
0.6
176
     1
 40
30.0
176
     1
 62
     7
420
 16777215
176
     1
 90
        1
176
     1
 90
        4
176
     1
 62
     7
176
     1
 62
   257
176
     1
 90
        1
176
     1
 90
        1
176
     1
 40
1.0
176
     1
 90
        0
176
     1
 62
   257
176
     1
 40
1.0
176
     1
 90
        1
176
     1
 90
        6
176
     1
 90
        2
176
     1
 62
     7
176
     1
 90
        5
176
     1
 90
        0
176
     1
 90
        0
176
     1
290
     0
176
     1
 90
        1
176
     1
 40
0.0
176
     1
 90
        0
176
     1
290
     1
176
     1
290
     1
176
     1
290
     0
176
     1
290
     0
176
     1
290
     0
176
     1
290
     0
176
     1
290
     0
176
     1
290
     0
176
     1
290
     0
176
     1
 90
       50
176
     1
 40
0.0
176
     1
 40
1.0
176
     1
 90
        0
176
     1
 62
    18
420
        0
176
     1
 90
       50
176
     1
 90
        3
176
     1
 62
     5
420
      255
176
     1
290
     0
176
     1
 90
       50
176
     1
 90
       50
176
     1
 90
       50
176
     1
290
     0
176
     1
 90
       50
176
     1
 62
   256
176
     0
 40
1.0
176
     0
 90
        2
176
     1
  1
strokes_ogs.tif
176
     1
290
     0
176
     1
 40
1.0
176
     1
 40
1.0
176
     1
  0
VISUALSTYLE
  5
2E
102
{ACAD_REACTORS
330
29
102
}
330
29
100
AcDbVisualStyle
  2
Basic
 70
     7
177
     3
291
     1
 70
    58
 90
        1
176
     1
 90
        0
176
     1
 90
        1
176
     1
 90
        0
176
     1
 40
0.6
176
     1
 40
30.0
176
     1
 62
     7
420
 16777215
176
     1
 90
        0
176
     1
 90
        4
176
     1
 62
     7
176
     1
 62
   257
176
     1
 90
        1
176
     1
 90
        1
176
     1
 40
1.0
176
     1
 90
        8
176
     1
 62
     7
176
     1
 40
1.0
176
     1
 90
        1
176
     1
 90
        6
176
     1
 90
        2
176
     1
 62
     7
176
     1
 90
        5
176
     1
 90
        0
176
     1
 90
        0
176
     1
290
     0
176
     1
 90
        1
176
     1
 40
0.0
176
     1
 90
        0
176
     1
290
     0
176
     1
290
     1
176
     1
290
     1
176
     1
290
     0
176
     1
290
     0
176
     1
290
     0
176
     1
290
     0
176
     1
290
     0
176
     1
290
     0
176
     1
 90
       50
176
     1
 40
0.0
176
     1
 40
1.0
176
     1
 90
        0
176
     1
 62
    18
420
        0
176
     1
 90
       50
176
     1
 90
        3
176
     1
 62
     5
420
      255
176
     1
290
     0
176
     1
 90
       50
176
     1
 90
       50
176
     1
 90
       50
176
     1
290
     0
176
     1
 90
       50
176
     1
 62
   256
176
     0
 40
1.0
176
     0
 90
        2
176
     1
  1
strokes_ogs.tif
176
     1
290
     0
176
     1
 40
1.0
176
     1
 40
1.0
176
     1
  0
VISUALSTYLE
  5
35
102
{ACAD_REACTORS
330
29
102
}
330
29
100
AcDbVisualStyle
  2
Brighten
 70
    12
177
     3
291
     1
 70
    58
 90
        2
176
     1
 90
        2
176
     1
 90
        0
176
     1
 90
        0
176
     1
 40
0.6
176
     1
 40
30.0
176
     1
 62
     7
420
 16777215
176
     1
 90
        1
176
     1
 90
        4
176
     1
 62
     7
176
     1
 62
   257
176
     1
 90
        1
176
     1
 90
        1
176
     1
 40
1.0
176
     1
 90
        8
176
     1
 62
     7
176
     1
 40
1.0
176
     1
 90
        1
176
     1
 90
        6
176
     1
 90
        2
176
     1
 62
     7
176
     1
 90
        5
176
     1
 90
        0
176
     1
 90
        0
176
     1
290
     0
176
     1
 90
        1
176
     1
 40
50.0
176
     1
 90
        0
176
     1
290
     0
176
     1
290
     1
176
     1
290
     1
176
     1
290
     0
176
     1
290
     0
176
     1
290
     0
176
     1
290
     0
176
     1
290
     0
176
     1
290
     0
176
     1
 90
       50
176
     1
 40
0.0
176
     1
 40
1.0
176
     1
 90
        0
176
     1
 62
    18
420
        0
176
     1
 90
       50
176
     1
 90
        3
176
     1
 62
     5
420
      255
176
     1
290
     0
176
     1
 90
       50
176
     1
 90
       50
176
     1
 90
       50
176
     1
290
     0
176
     1
 90
       50
176
     1
 62
   256
176
     0
 40
1.0
176
     0
 90
        2
176
     1
  1
strokes_ogs.tif
176
     1
290
     0
176
     1
 40
1.0
176
     1
 40
1.0
176
     1
  0
VISUALSTYLE
  5
39
102
{ACAD_REACTORS
330
29
102
}
330
29
100
AcDbVisualStyle
  2
ColorChange
 70
    16
177
     3
291
     1
 70
    58
 90
        2
176
     1
 90
        2
176
     1
 90
        3
176
     1
 90
        0
176
     1
 40
0.6
176
     1
 40
30.0
176
     1
 62
     8
420
  8421504
176
     1
 90
        1
176
     1
 90
        4
176
     1
 62
     7
176
     1
 62
   257
176
     1
 90
        1
176
     1
 90
        1
176
     1
 40
1.0
176
     1
 90
        8
176
     1
 62
     8
420
  8421504
176
     1
 40
1.0
176
     1
 90
        1
176
     1
 90
        6
176
     1
 90
        2
176
     1
 62
     7
176
     1
 90
        5
176
     1
 90
        0
176
     1
 90
        0
176
     1
290
     0
176
     1
 90
        1
176
     1
 40
0.0
176
     1
 90
        0
176
     1
290
     0
176
     1
290
     1
176
     1
290
     1
176
     1
290
     0
176
     1
290
     0
176
     1
290
     0
176
     1
290
     0
176
     1
290
     0
176
     1
290
     0
176
     1
 90
       50
176
     1
 40
0.0
176
     1
 40
1.0
176
     1
 90
        0
176
     1
 62
    18
420
        0
176
     1
 90
       50
176
     1
 90
        3
176
     1
 62
     5
420
      255
176
     1
290
     0
176
     1
 90
       50
176
     1
 90
       50
176
     1
 90
       50
176
     1
290
     0
176
     1
 90
       50
176
     1
 62
   256
176
     0
 40
1.0
176
     0
 90
        2
176
     1
  1
strokes_ogs.tif
176
     1
290
     0
176
     1
 40
1.0
176
     1
 40
1.0
176
     1
  0
VISUALSTYLE
  5
32
102
{ACAD_REACTORS
330
29
102
}
330
29
100
AcDbVisualStyle
  2
Conceptual
 70
     9
177
     3
291
     0
 70
    58
 90
        3
176
     1
 90
        2
176
     1
 90
        0
176
     1
 90
        0
176
     1
 40
0.6
176
     1
 40
30.0
176
     1
 62
     7
420
 16777215
176
     1
 90
        2
176
     1
 90
        2
176
     1
 62
     7
176
     1
 62
   257
176
     1
 90
        1
176
     1
 90
        1
176
     1
 40
179.0
176
     1
 90
        8
176
     1
 62
     7
176
     1
 40
1.0
176
     1
 90
        1
176
     1
 90
        6
176
     1
 90
        2
176
     1
 62
     7
176
     1
 90
        3
176
     1
 90
        0
176
     1
 90
        0
176
     1
290
     0
176
     1
 90
        1
176
     1
 40
0.0
176
     1
 90
        0
176
     1
290
     0
176
     1
290
     1
176
     1
290
     1
176
     1
290
     0
176
     1
290
     0
176
     1
290
     0
176
     1
290
     0
176
     1
290
     0
176
     1
290
     0
176
     1
 90
       50
176
     1
 40
0.0
176
     1
 40
1.0
176
     1
 90
        0
176
     1
 62
    18
420
        0
176
     1
 90
       50
176
     1
 90
        3
176
     1
 62
     5
420
      255
176
     1
290
     0
176
     1
 90
       50
176
     1
 90
       50
176
     1
 90
       50
176
     1
290
     0
176
     1
 90
       50
176
     1
 62
   256
176
     0
 40
1.0
176
     0
 90
        2
176
     1
  1
strokes_ogs.tif
176
     1
290
     0
176
     1
 40
1.0
176
     1
 40
1.0
176
     1
  0
VISUALSTYLE
  5
34
102
{ACAD_REACTORS
330
29
102
}
330
29
100
AcDbVisualStyle
  2
Dim
 70
    11
177
     3
291
     1
 70
    58
 90
        2
176
     1
 90
        2
176
     1
 90
        0
176
     1
 90
        0
176
     1
 40
0.6
176
     1
 40
30.0
176
     1
 62
     7
420
 16777215
176
     1
 90
        1
176
     1
 90
        4
176
     1
 62
     7
176
     1
 62
   257
176
     1
 90
        1
176
     1
 90
        1
176
     1
 40
1.0
176
     1
 90
        8
176
     1
 62
     7
176
     1
 40
1.0
176
     1
 90
        1
176
     1
 90
        6
176
     1
 90
        2
176
     1
 62
     7
176
     1
 90
        5
176
     1
 90
        0
176
     1
 90
        0
176
     1
290
     0
176
     1
 90
        1
176
     1
 40
-50.0
176
     1
 90
        0
176
     1
290
     0
176
     1
290
     1
176
     1
290
     1
176
     1
290
     0
176
     1
290
     0
176
     1
290
     0
176
     1
290
     0
176
     1
290
     0
176
     1
290
     0
176
     1
 90
       50
176
     1
 40
0.0
176
     1
 40
1.0
176
     1
 90
        0
176
     1
 62
    18
420
        0
176
     1
 90
       50
176
     1
 90
        3
176
     1
 62
     5
420
      255
176
     1
290
     0
176
     1
 90
       50
176
     1
 90
       50
176
     1
 90
       50
176
     1
290
     0
176
     1
 90
       50
176
     1
 62
   256
176
     0
 40
1.0
176
     0
 90
        2
176
     1
  1
strokes_ogs.tif
176
     1
290
     0
176
     1
 40
1.0
176
     1
 40
1.0
176
     1
  0
VISUALSTYLE
  5
41
102
{ACAD_REACTORS
330
29
102
}
330
29
100
AcDbVisualStyle
  2
EdgeColorOff
 70
    22
177
     3
291
     1
 70
    58
 90
        2
176
     0
 90
        2
176
     0
 90
        0
176
     0
 90
        0
176
     0
 40
0.6
176
     0
 40
30.0
176
     0
 62
     7
420
 16777215
176
     0
 90
        1
176
     0
 90
        4
176
     0
 62
     7
176
     0
 62
   257
176
     0
 90
        1
176
     0
 90
        1
176
     0
 40
1.0
176
     0
 90
        8
176
     2
 62
     7
176
     0
 40
1.0
176
     0
 90
        1
176
     0
 90
        6
176
     0
 90
        2
176
     0
 62
     7
176
     0
 90
        5
176
     0
 90
        0
176
     0
 90
        0
176
     0
290
     0
176
     0
 90
        1
176
     0
 40
0.0
176
     0
 90
        0
176
     0
290
     0
176
     0
290
     1
176
     0
290
     1
176
     0
290
     0
176
     0
290
     0
176
     0
290
     0
176
     0
290
     0
176
     0
290
     0
176
     0
290
     0
176
     0
 90
       50
176
     0
 40
0.0
176
     0
 40
1.0
176
     0
 90
        0
176
     0
 62
    18
420
        0
176
     0
 90
       50
176
     0
 90
        3
176
     0
 62
     5
420
      255
176
     0
290
     0
176
     0
 90
       50
176
     0
 90
       50
176
     0
 90
       50
176
     0
290
     0
176
     0
 90
       50
176
     0
 62
   256
176
     0
 40
1.0
176
     0
 90
        2
176
     0
  1
strokes_ogs.tif
176
     0
290
     0
176
     0
 40
1.0
176
     0
 40
1.0
176
     0
  0
VISUALSTYLE
  5
38
102
{ACAD_REACTORS
330
29
102
}
330
29
100
AcDbVisualStyle
  2
Facepattern
 70
    15
177
     3
291
     1
 70
    58
 90
        2
176
     1
 90
        2
176
     1
 90
        0
176
     1
 90
        0
176
     1
 40
0.6
176
     1
 40
30.0
176
     1
 62
     7
420
 16777215
176
     1
 90
        1
176
     1
 90
        4
176
     1
 62
     7
176
     1
 62
   257
176
     1
 90
        1
176
     1
 90
        1
176
     1
 40
1.0
176
     1
 90
        8
176
     1
 62
     7
176
     1
 40
1.0
176
     1
 90
        1
176
     1
 90
        6
176
     1
 90
        2
176
     1
 62
     7
176
     1
 90
        5
176
     1
 90
        0
176
     1
 90
        0
176
     1
290
     0
176
     1
 90
        1
176
     1
 40
0.0
176
     1
 90
        0
176
     1
290
     0
176
     1
290
     1
176
     1
290
     1
176
     1
290
     0
176
     1
290
     0
176
     1
290
     0
176
     1
290
     0
176
     1
290
     0
176
     1
290
     0
176
     1
 90
       50
176
     1
 40
0.0
176
     1
 40
1.0
176
     1
 90
        0
176
     1
 62
    18
420
        0
176
     1
 90
       50
176
     1
 90
        3
176
     1
 62
     5
420
      255
176
     1
290
     0
176
     1
 90
       50
176
     1
 90
       50
176
     1
 90
       50
176
     1
290
     0
176
     1
 90
       50
176
     1
 62
   256
176
     0
 40
1.0
176
     0
 90
        2
176
     1
  1
strokes_ogs.tif
176
     1
290
     0
176
     1
 40
1.0
176
     1
 40
1.0
176
     1
  0
VISUALSTYLE
  5
2A
102
{ACAD_REACTORS
330
29
102
}
330
29
100
AcDbVisualStyle
  2
Flat
 70
     0
177
     3
291
     1
 70
    58
 90
        2
176
     1
 90
        1
176
     1
 90
        1
176
     1
 90
        2
176
     1
 40
0.6
176
     1
 40
30.0
176
     1
 62
     7
420
 16777215
176
     1
 90
        0
176
     1
 90
        0
176
     1
 62
     7
176
     1
 62
   257
176
     1
 90
        1
176
     1
 90
        1
176
     1
 40
1.0
176
     1
 90
        8
176
     1
 62
     7
176
     1
 40
1.0
176
     1
 90
        1
176
     1
 90
        6
176
     1
 90
        2
176
     1
 62
     7
176
     1
 90
        5
176
     1
 90
        0
176
     1
 90
        0
176
     1
290
     0
176
     1
 90
       13
176
     1
 40
0.0
176
     1
 90
        0
176
     1
290
     0
176
     1
290
     1
176
     1
290
     1
176
     1
290
     0
176
     1
290
     0
176
     1
290
     0
176
     1
290
     0
176
     1
290
     0
176
     1
290
     0
176
     1
 90
       50
176
     1
 40
0.0
176
     1
 40
1.0
176
     1
 90
        0
176
     1
 62
    18
420
        0
176
     1
 90
       50
176
     1
 90
        3
176
     1
 62
     5
420
      255
176
     1
290
     0
176
     1
 90
       50
176
     1
 90
       50
176
     1
 90
       50
176
     1
290
     0
176
     1
 90
       50
176
     1
 62
   256
176
     0
 40
1.0
176
     0
 90
        2
176
     1
  1
strokes_ogs.tif
176
     1
290
     0
176
     1
 40
1.0
176
     1
 40
1.0
176
     1
  0
VISUALSTYLE
  5
2B
102
{ACAD_REACTORS
330
29
102
}
330
29
100
AcDbVisualStyle
  2
FlatWithEdges
 70
     1
177
     3
291
     1
 70
    58
 90
        2
176
     1
 90
        1
176
     1
 90
        1
176
     1
 90
        2
176
     1
 40
0.6
176
     1
 40
30.0
176
     1
 62
     7
420
 16777215
176
     1
 90
        1
176
     1
 90
        0
176
     1
 62
     7
176
     1
 62
   257
176
     1
 90
        1
176
     1
 90
        1
176
     1
 40
1.0
176
     1
 90
        0
176
     1
 62
   257
176
     1
 40
1.0
176
     1
 90
        1
176
     1
 90
        6
176
     1
 90
        2
176
     1
 62
     7
176
     1
 90
        5
176
     1
 90
        0
176
     1
 90
        0
176
     1
290
     0
176
     1
 90
       13
176
     1
 40
0.0
176
     1
 90
        0
176
     1
290
     0
176
     1
290
     1
176
     1
290
     1
176
     1
290
     0
176
     1
290
     0
176
     1
290
     0
176
     1
290
     0
176
     1
290
     0
176
     1
290
     0
176
     1
 90
       50
176
     1
 40
0.0
176
     1
 40
1.0
176
     1
 90
        0
176
     1
 62
    18
420
        0
176
     1
 90
       50
176
     1
 90
        3
176
     1
 62
     5
420
      255
176
     1
290
     0
176
     1
 90
       50
176
     1
 90
       50
176
     1
 90
       50
176
     1
290
     0
176
     1
 90
       50
176
     1
 62
   256
176
     0
 40
1.0
176
     0
 90
        2
176
     1
  1
strokes_ogs.tif
176
     1
290
     0
176
     1
 40
1.0
176
     1
 40
1.0
176
     1
  0
VISUALSTYLE
  5
2C
102
{ACAD_REACTORS
330
29
102
}
330
29
100
AcDbVisualStyle
  2
Gouraud
 70
     2
177
     3
291
     1
 70
    58
 90
        2
176
     1
 90
        2
176
     1
 90
        1
176
     1
 90
        2
176
     1
 40
0.6
176
     1
 40
30.0
176
     1
 62
     7
420
 16777215
176
     1
 90
        0
176
     1
 90
        0
176
     1
 62
     7
176
     1
 62
   257
176
     1
 90
        1
176
     1
 90
        1
176
     1
 40
1.0
176
     1
 90
        0
176
     1
 62
     7
176
     1
 40
1.0
176
     1
 90
        1
176
     1
 90
        6
176
     1
 90
        2
176
     1
 62
     7
176
     1
 90
        5
176
     1
 90
        0
176
     1
 90
        0
176
     1
290
     0
176
     1
 90
       13
176
     1
 40
0.0
176
     1
 90
        0
176
     1
290
     0
176
     1
290
     1
176
     1
290
     1
176
     1
290
     0
176
     1
290
     0
176
     1
290
     0
176
     1
290
     0
176
     1
290
     0
176
     1
290
     0
176
     1
 90
       50
176
     1
 40
0.0
176
     1
 40
1.0
176
     1
 90
        0
176
     1
 62
    18
420
        0
176
     1
 90
       50
176
     1
 90
        3
176
     1
 62
     5
420
      255
176
     1
290
     0
176
     1
 90
       50
176
     1
 90
       50
176
     1
 90
       50
176
     1
290
     0
176
     1
 90
       50
176
     1
 62
   256
176
     0
 40
1.0
176
     0
 90
        2
176
     1
  1
strokes_ogs.tif
176
     1
290
     0
176
     1
 40
1.0
176
     1
 40
1.0
176
     1
  0
VISUALSTYLE
  5
2D
102
{ACAD_REACTORS
330
29
102
}
330
29
100
AcDbVisualStyle
  2
GouraudWithEdges
 70
     3
177
     3
291
     1
 70
    58
 90
        2
176
     1
 90
        2
176
     1
 90
        1
176
     1
 90
        2
176
     1
 40
0.6
176
     1
 40
30.0
176
     1
 62
     7
420
 16777215
176
     1
 90
        1
176
     1
 90
        0
176
     1
 62
     7
176
     1
 62
   257
176
     1
 90
        1
176
     1
 90
        1
176
     1
 40
1.0
176
     1
 90
        0
176
     1
 62
   257
176
     1
 40
1.0
176
     1
 90
        1
176
     1
 90
        6
176
     1
 90
        2
176
     1
 62
     7
176
     1
 90
        5
176
     1
 90
        0
176
     1
 90
        0
176
     1
290
     0
176
     1
 90
       13
176
     1
 40
0.0
176
     1
 90
        0
176
     1
290
     0
176
     1
290
     1
176
     1
290
     1
176
     1
290
     0
176
     1
290
     0
176
     1
290
     0
176
     1
290
     0
176
     1
290
     0
176
     1
290
     0
176
     1
 90
       50
176
     1
 40
0.0
176
     1
 40
1.0
176
     1
 90
        0
176
     1
 62
    18
420
        0
176
     1
 90
       50
176
     1
 90
        3
176
     1
 62
     5
420
      255
176
     1
290
     0
176
     1
 90
       50
176
     1
 90
       50
176
     1
 90
       50
176
     1
290
     0
176
     1
 90
       50
176
     1
 62
   256
176
     0
 40
1.0
176
     0
 90
        2
176
     1
  1
strokes_ogs.tif
176
     1
290
     0
176
     1
 40
1.0
176
     1
 40
1.0
176
     1
  0
VISUALSTYLE
  5
31
102
{ACAD_REACTORS
330
29
102
}
330
29
100
AcDbVisualStyle
  2
Hidden
 70
     6
177
     3
291
     0
 70
    58
 90
        1
176
     1
 90
        2
176
     1
 90
        2
176
     1
 90
        0
176
     1
 40
0.6
176
     1
 40
30.0
176
     1
 62
     7
420
 16777215
176
     1
 90
        2
176
     1
 90
        2
176
     1
 62
     7
176
     1
 62
   257
176
     1
 90
        2
176
     1
 90
        1
176
     1
 40
40.0
176
     1
 90
        0
176
     1
 62
   257
176
     1
 40
1.0
176
     1
 90
        1
176
     1
 90
        6
176
     1
 90
        2
176
     1
 62
     7
176
     1
 90
        3
176
     1
 90
        0
176
     1
 90
        0
176
     1
290
     0
176
     1
 90
        1
176
     1
 40
0.0
176
     1
 90
        0
176
     1
290
     0
176
     1
290
     1
176
     1
290
     1
176
     1
290
     0
176
     1
290
     0
176
     1
290
     0
176
     1
290
     0
176
     1
290
     0
176
     1
290
     0
176
     1
 90
       50
176
     1
 40
0.0
176
     1
 40
1.0
176
     1
 90
        0
176
     1
 62
    18
420
        0
176
     1
 90
       50
176
     1
 90
        3
176
     1
 62
     5
420
      255
176
     1
290
     0
176
     1
 90
       50
176
     1
 90
       50
176
     1
 90
       50
176
     1
290
     0
176
     1
 90
       50
176
     1
 62
   256
176
     0
 40
1.0
176
     0
 90
        2
176
     1
  1
strokes_ogs.tif
176
     1
290
     0
176
     1
 40
1.0
176
     1
 40
1.0
176
     1
  0
VISUALSTYLE
  5
3F
102
{ACAD_REACTORS
330
29
102
}
330
29
100
AcDbVisualStyle
  2
JitterOff
 70
    20
177
     3
291
     1
 70
    58
 90
        2
176
     0
 90
        2
176
     0
 90
        0
176
     0
 90
        0
176
     0
 40
0.6
176
     0
 40
30.0
176
     0
 62
     7
420
 16777215
176
     0
 90
        1
176
     0
 90
        4
176
     0
 62
     7
176
     0
 62
   257
176
     0
 90
        1
176
     0
 90
        1
176
     0
 40
1.0
176
     0
 90
       10
176
     2
 62
     7
176
     0
 40
1.0
176
     0
 90
        1
176
     0
 90
        6
176
     0
 90
        2
176
     0
 62
     7
176
     0
 90
        5
176
     0
 90
        0
176
     0
 90
        0
176
     0
290
     0
176
     0
 90
        1
176
     0
 40
0.0
176
     0
 90
        0
176
     0
290
     0
176
     0
290
     1
176
     0
290
     1
176
     0
290
     0
176
     0
290
     0
176
     0
290
     0
176
     0
290
     0
176
     0
290
     0
176
     0
290
     0
176
     0
 90
       50
176
     0
 40
0.0
176
     0
 40
1.0
176
     0
 90
        0
176
     0
 62
    18
420
        0
176
     0
 90
       50
176
     0
 90
        3
176
     0
 62
     5
420
      255
176
     0
290
     0
176
     0
 90
       50
176
     0
 90
       50
176
     0
 90
       50
176
     0
290
     0
176
     0
 90
       50
176
     0
 62
   256
176
     0
 40
1.0
176
     0
 90
        2
176
     0
  1
strokes_ogs.tif
176
     0
290
     0
176
     0
 40
1.0
176
     0
 40
1.0
176
     0
  0
VISUALSTYLE
  5
37
102
{ACAD_REACTORS
330
29
102
}
330
29
100
AcDbVisualStyle
  2
Linepattern
 70
    14
177
     3
291
     1
 70
    58
 90
        2
176
     1
 90
        2
176
     1
 90
        0
176
     1
 90
        0
176
     1
 40
0.6
176
     1
 40
30.0
176
     1
 62
     7
420
 16777215
176
     1
 90
        1
176
     1
 90
        4
176
     1
 62
     7
176
     1
 62
   257
176
     1
 90
        7
176
     1
 90
        7
176
     1
 40
1.0
176
     1
 90
        8
176
     1
 62
     7
176
     1
 40
1.0
176
     1
 90
        1
176
     1
 90
        6
176
     1
 90
        2
176
     1
 62
     7
176
     1
 90
        5
176
     1
 90
        0
176
     1
 90
        0
176
     1
290
     0
176
     1
 90
        1
176
     1
 40
0.0
176
     1
 90
        0
176
     1
290
     0
176
     1
290
     1
176
     1
290
     1
176
     1
290
     0
176
     1
290
     0
176
     1
290
     0
176
     1
290
     0
176
     1
290
     0
176
     1
290
     0
176
     1
 90
       50
176
     1
 40
0.0
176
     1
 40
1.0
176
     1
 90
        0
176
     1
 62
    18
420
        0
176
     1
 90
       50
176
     1
 90
        3
176
     1
 62
     5
420
      255
176
     1
290
     0
176
     1
 90
       50
176
     1
 90
       50
176
     1
 90
       50
176
     1
290
     0
176
     1
 90
       50
176
     1
 62
   256
176
     0
 40
1.0
176
     0
 90
        2
176
     1
  1
strokes_ogs.tif
176
     1
290
     0
176
     1
 40
1.0
176
     1
 40
1.0
176
     1
  0
VISUALSTYLE
  5
40
102
{ACAD_REACTORS
330
29
102
}
330
29
100
AcDbVisualStyle
  2
OverhangOff
 70
    21
177
     3
291
     1
 70
    58
 90
        2
176
     0
 90
        2
176
     0
 90
        0
176
     0
 90
        0
176
     0
 40
0.6
176
     0
 40
30.0
176
     0
 62
     7
420
 16777215
176
     0
 90
        1
176
     0
 90
        4
176
     0
 62
     7
176
     0
 62
   257
176
     0
 90
        1
176
     0
 90
        1
176
     0
 40
1.0
176
     0
 90
        9
176
     2
 62
     7
176
     0
 40
1.0
176
     0
 90
        1
176
     0
 90
        6
176
     0
 90
        2
176
     0
 62
     7
176
     0
 90
        5
176
     0
 90
        0
176
     0
 90
        0
176
     0
290
     0
176
     0
 90
        1
176
     0
 40
0.0
176
     0
 90
        0
176
     0
290
     0
176
     0
290
     1
176
     0
290
     1
176
     0
290
     0
176
     0
290
     0
176
     0
290
     0
176
     0
290
     0
176
     0
290
     0
176
     0
290
     0
176
     0
 90
       50
176
     0
 40
0.0
176
     0
 40
1.0
176
     0
 90
        0
176
     0
 62
    18
420
        0
176
     0
 90
       50
176
     0
 90
        3
176
     0
 62
     5
420
      255
176
     0
290
     0
176
     0
 90
       50
176
     0
 90
       50
176
     0
 90
       50
176
     0
290
     0
176
     0
 90
       50
176
     0
 62
   256
176
     0
 40
1.0
176
     0
 90
        2
176
     0
  1
strokes_ogs.tif
176
     0
290
     0
176
     0
 40
1.0
176
     0
 40
1.0
176
     0
  0
VISUALSTYLE
  5
33
102
{ACAD_REACTORS
330
29
102
}
330
29
100
AcDbVisualStyle
  2
Realistic
 70
     8
177
     3
291
     0
 70
    58
 90
        2
176
     1
 90
        3
176
     1
 90
        0
176
     1
 90
        2
176
     1
 40
0.6
176
     1
 40
30.0
176
     1
 62
     7
420
 16777215
176
     1
 90
        0
176
     1
 90
        0
176
     1
 62
     7
176
     1
 62
   257
176
     1
 90
        1
176
     1
 90
        1
176
     1
 40
1.0
176
     1
 90
        8
176
     1
 62
   257
176
     1
 40
1.0
176
     1
 90
        1
176
     1
 90
        6
176
     1
 90
        2
176
     1
 62
     7
176
     1
 90
        3
176
     1
 90
        0
176
     1
 90
        0
176
     1
290
     0
176
     1
 90
       13
176
     1
 40
0.0
176
     1
 90
        0
176
     1
290
     0
176
     1
290
     1
176
     1
290
     1
176
     1
290
     0
176
     1
290
     0
176
     1
290
     0
176
     1
290
     0
176
     1
290
     0
176
     1
290
     0
176
     1
 90
       50
176
     1
 40
0.0
176
     1
 40
1.0
176
     1
 90
        0
176
     1
 62
    18
420
        0
176
     1
 90
       50
176
     1
 90
        3
176
     1
 62
     5
420
      255
176
     1
290
     0
176
     1
 90
       50
176
     1
 90
       50
176
     1
 90
       50
176
     1
290
     0
176
     1
 90
       50
176
     1
 62
   256
176
     0
 40
1.0
176
     0
 90
        2
176
     1
  1
strokes_ogs.tif
176
     1
290
     0
176
     1
 40
1.0
176
     1
 40
1.0
176
     1
  0
VISUALSTYLE
  5
3E
102
{ACAD_REACTORS
330
29
102
}
330
29
100
AcDbVisualStyle
  2
Shaded
 70
    27
177
     3
291
     0
 70
    58
 90
        2
176
     1
 90
        2
176
     1
 90
        1
176
     1
 90
        2
176
     1
 40
0.6
176
     1
 40
30.0
176
     1
 62
     7
420
 16777215
176
     1
 90
        0
176
     1
 90
        4
176
     1
 62
     7
176
     1
 62
   257
176
     1
 90
        1
176
     1
 90
        1
176
     1
 40
1.0
176
     1
 90
        8
176
     1
 62
   257
176
     1
 40
1.0
176
     1
 90
        1
176
     1
 90
        6
176
     1
 90
        2
176
     1
 62
     8
420
  7895160
176
     1
 90
        3
176
     1
 90
        0
176
     1
 90
        0
176
     1
290
     0
176
     1
 90
        5
176
     1
 40
0.0
176
     1
 90
        0
176
     1
290
     0
176
     1
290
     1
176
     1
290
     1
176
     1
290
     0
176
     1
290
     0
176
     1
290
     0
176
     1
290
     0
176
     1
290
     0
176
     1
290
     0
176
     1
 90
       50
176
     1
 40
0.0
176
     1
 40
1.0
176
     1
 90
        0
176
     1
 62
    18
420
        0
176
     1
 90
       50
176
     1
 90
        3
176
     1
 62
     5
420
      255
176
     1
290
     0
176
     1
 90
       50
176
     1
 90
       50
176
     1
 90
       50
176
     1
290
     0
176
     1
 90
       50
176
     1
 62
   256
176
     0
 40
1.0
176
     0
 90
        2
176
     1
  1
strokes_ogs.tif
176
     1
290
     0
176
     1
 40
1.0
176
     1
 40
1.0
176
     1
  0
VISUALSTYLE
  5
3D
102
{ACAD_REACTORS
330
29
102
}
330
29
100
AcDbVisualStyle
  2
Shaded with edges
 70
    26
177
     3
291
     0
 70
    58
 90
        2
176
     1
 90
        2
176
     1
 90
        1
176
     1
 90
        2
176
     1
 40
0.6
176
     1
 40
30.0
176
     1
 62
     7
420
 16777215
176
     1
 90
        1
176
     1
 90
        2
176
     1
 62
     7
176
     1
 62
   257
176
     1
 90
        2
176
     1
 90
        1
176
     1
 40
1.0
176
     1
 90
        8
176
     1
 62
   257
176
     1
 40
1.0
176
     1
 90
        1
176
     1
 90
        6
176
     1
 90
        2
176
     1
 62
     7
176
     1
 90
        3
176
     1
 90
        0
176
     1
 90
        0
176
     1
290
     0
176
     1
 90
        5
176
     1
 40
0.0
176
     1
 90
        0
176
     1
290
     0
176
     1
290
     1
176
     1
290
     1
176
     1
290
     0
176
     1
290
     0
176
     1
290
     0
176
     1
290
     0
176
     1
290
     0
176
     1
290
     0
176
     1
 90
       50
176
     1
 40
0.0
176
     1
 40
1.0
176
     1
 90
        0
176
     1
 62
    18
420
        0
176
     1
 90
       50
176
     1
 90
        3
176
     1
 62
     5
420
      255
176
     1
290
     0
176
     1
 90
       50
176
     1
 90
       50
176
     1
 90
       50
176
     1
290
     0
176
     1
 90
       50
176
     1
 62
   256
176
     0
 40
1.0
176
     0
 90
        2
176
     1
  1
strokes_ogs.tif
176
     1
290
     0
176
     1
 40
1.0
176
     1
 40
1.0
176
     1
  0
VISUALSTYLE
  5
3A
102
{ACAD_REACTORS
330
29
102
}
330
29
100
AcDbVisualStyle
  2
Shades of Gray
 70
    23
177
     3
291
     0
 70
    58
 90
        2
176
     1
 90
        2
176
     1
 90
        3
176
     1
 90
        0
176
     1
 40
0.6
176
     1
 40
30.0
176
     1
 62
     7
420
 16777215
176
     1
 90
        2
176
     1
 90
        2
176
     1
 62
     7
176
     1
 62
     7
176
     1
 90
        1
176
     1
 90
        1
176
     1
 40
40.0
176
     1
 90
        8
176
     1
 62
     7
176
     1
 40
1.0
176
     1
 90
        1
176
     1
 90
        6
176
     1
 90
        2
176
     1
 62
     7
176
     1
 90
        3
176
     1
 90
        0
176
     1
 90
        0
176
     1
290
     0
176
     1
 90
        1
176
     1
 40
0.0
176
     1
 90
        0
176
     1
290
     0
176
     1
290
     1
176
     1
290
     1
176
     1
290
     0
176
     1
290
     0
176
     1
290
     0
176
     1
290
     0
176
     1
290
     0
176
     1
290
     0
176
     1
 90
       50
176
     1
 40
0.0
176
     1
 40
1.0
176
     1
 90
        0
176
     1
 62
    18
420
        0
176
     1
 90
       50
176
     1
 90
        3
176
     1
 62
     5
420
      255
176
     1
290
     0
176
     1
 90
       50
176
     1
 90
       50
176
     1
 90
       50
176
     1
290
     0
176
     1
 90
       50
176
     1
 62
   256
176
     0
 40
1.0
176
     0
 90
        2
176
     1
  1
strokes_ogs.tif
176
     1
290
     0
176
     1
 40
1.0
176
     1
 40
1.0
176
     1
  0
VISUALSTYLE
  5
3B
102
{ACAD_REACTORS
330
29
102
}
330
29
100
AcDbVisualStyle
  2
Sketchy
 70
    24
177
     3
291
     0
 70
    58
 90
        1
176
     1
 90
        2
176
     1
 90
        2
176
     1
 90
        0
176
     1
 40
0.6
176
     1
 40
30.0
176
     1
 62
     7
420
 16777215
176
     1
 90
        2
176
     1
 90
        2
176
     1
 62
     7
176
     1
 62
     7
176
     1
 90
        1
176
     1
 90
        1
176
     1
 40
40.0
176
     1
 90
       11
176
     1
 62
     7
176
     1
 40
1.0
176
     1
 90
        1
176
     1
 90
        6
176
     1
 90
        2
176
     1
 62
     7
176
     1
 90
        6
176
     1
 90
        0
176
     1
 90
        0
176
     1
290
     0
176
     1
 90
        1
176
     1
 40
0.0
176
     1
 90
        0
176
     1
290
     0
176
     1
290
     1
176
     1
290
     1
176
     1
290
     0
176
     1
290
     0
176
     1
290
     0
176
     1
290
     0
176
     1
290
     0
176
     1
290
     0
176
     1
 90
       50
176
     1
 40
0.0
176
     1
 40
1.0
176
     1
 90
        0
176
     1
 62
    18
420
        0
176
     1
 90
       50
176
     1
 90
        3
176
     1
 62
     5
420
      255
176
     1
290
     0
176
     1
 90
       50
176
     1
 90
       50
176
     1
 90
       50
176
     1
290
     0
176
     1
 90
       50
176
     1
 62
   256
176
     0
 40
1.0
176
     0
 90
        2
176
     1
  1
strokes_ogs.tif
176
     1
290
     0
176
     1
 40
1.0
176
     1
 40
1.0
176
     1
  0
VISUALSTYLE
  5
36
102
{ACAD_REACTORS
330
29
102
}
330
29
100
AcDbVisualStyle
  2
Thicken
 70
    13
177
     3
291
     1
 70
    58
 90
        2
176
     1
 90
        2
176
     1
 90
        0
176
     1
 90
        0
176
     1
 40
0.6
176
     1
 40
30.0
176
     1
 62
     7
420
 16777215
176
     1
 90
        1
176
     1
 90
        4
176
     1
 62
     7
176
     1
 62
   257
176
     1
 90
        1
176
     1
 90
        1
176
     1
 40
1.0
176
     1
 90
       12
176
     1
 62
     7
176
     1
 40
1.0
176
     1
 90
        1
176
     1
 90
        6
176
     1
 90
        2
176
     1
 62
     7
176
     1
 90
        5
176
     1
 90
        0
176
     1
 90
        0
176
     1
290
     0
176
     1
 90
        1
176
     1
 40
0.0
176
     1
 90
        0
176
     1
290
     0
176
     1
290
     1
176
     1
290
     1
176
     1
290
     0
176
     1
290
     0
176
     1
290
     0
176
     1
290
     0
176
     1
290
     0
176
     1
290
     0
176
     1
 90
       50
176
     1
 40
0.0
176
     1
 40
1.0
176
     1
 90
        0
176
     1
 62
    18
420
        0
176
     1
 90
       50
176
     1
 90
        3
176
     1
 62
     5
420
      255
176
     1
290
     0
176
     1
 90
       50
176
     1
 90
       50
176
     1
 90
       50
176
     1
290
     0
176
     1
 90
       50
176
     1
 62
   256
176
     0
 40
1.0
176
     0
 90
        2
176
     1
  1
strokes_ogs.tif
176
     1
290
     0
176
     1
 40
1.0
176
     1
 40
1.0
176
     1
  0
VISUALSTYLE
  5
30
102
{ACAD_REACTORS
330
29
102
}
330
29
100
AcDbVisualStyle
  2
Wireframe
 70
     5
177
     3
291
     0
 70
    58
 90
        0
176
     1
 90
        2
176
     1
 90
        0
176
     1
 90
        0
176
     1
 40
0.6
176
     1
 40
30.0
176
     1
 62
     7
420
 16777215
176
     1
 90
        1
176
     1
 90
        4
176
     1
 62
     7
176
     1
 62
   257
176
     1
 90
        1
176
     1
 90
        1
176
     1
 40
1.0
176
     1
 90
        0
176
     1
 62
   257
176
     1
 40
1.0
176
     1
 90
        1
176
     1
 90
        6
176
     1
 90
        2
176
     1
 62
     7
176
     1
 90
        3
176
     1
 90
        0
176
     1
 90
        0
176
     1
290
     0
176
     1
 90
        1
176
     1
 40
0.0
176
     1
 90
        0
176
     1
290
     0
176
     1
290
     1
176
     1
290
     1
176
     1
290
     0
176
     1
290
     0
176
     1
290
     0
176
     1
290
     0
176
     1
290
     0
176
     1
290
     0
176
     1
 90
       50
176
     1
 40
0.0
176
     1
 40
1.0
176
     1
 90
        0
176
     1
 62
    18
420
        0
176
     1
 90
       50
176
     1
 90
        3
176
     1
 62
     5
420
      255
176
     1
290
     0
176
     1
 90
       50
176
     1
 90
       50
176
     1
 90
       50
176
     1
290
     0
176
     1
 90
       50
176
     1
 62
   256
176
     0
 40
1.0
176
     0
 90
        2
176
     1
  1
strokes_ogs.tif
176
     1
290
     0
176
     1
 40
1.0
176
     1
 40
1.0
176
     1
  0
VISUALSTYLE
  5
3C
102
{ACAD_REACTORS
330
29
102
}
330
29
100
AcDbVisualStyle
  2
X-Ray
 70
    25
177
     3
291
     0
 70
    58
 90
        2
176
     1
 90
        2
176
     1
 90
        1
176
     1
 90
        1
176
     1
 40
0.5
176
     1
 40
30.0
176
     1
 62
     7
420
 16777215
176
     1
 90
        1
176
     1
 90
        0
176
     1
 62
     7
176
     1
 62
   257
176
     1
 90
        1
176
     1
 90
        1
176
     1
 40
1.0
176
     1
 90
        8
176
     1
 62
     7
176
     1
 40
1.0
176
     1
 90
        1
176
     1
 90
        6
176
     1
 90
        2
176
     1
 62
     7
176
     1
 90
        3
176
     1
 90
        0
176
     1
 90
        0
176
     1
290
     0
176
     1
 90
       13
176
     1
 40
0.0
176
     1
 90
        0
176
     1
290
     0
176
     1
290
     1
176
     1
290
     1
176
     1
290
     0
176
     1
290
     0
176
     1
290
     0
176
     1
290
     0
176
     1
290
     0
176
     1
290
     0
176
     1
 90
       50
176
     1
 40
0.0
176
     1
 40
1.0
176
     1
 90
        0
176
     1
 62
    18
420
        0
176
     1
 90
       50
176
     1
 90
        3
176
     1
 62
     5
420
      255
176
     1
290
     0
176
     1
 90
       50
176
     1
 90
       50
176
     1
 90
       50
176
     1
290
     0
176
     1
 90
       50
176
     1
 62
   256
176
     0
 40
1.0
176
     0
 90
        2
176
     1
  1
strokes_ogs.tif
176
     1
290
     0
176
     1
 40
1.0
176
     1
 40
1.0
176
     1
  0
DICTIONARYVAR
  5
B8
102
{ACAD_REACTORS
330
B3
102
}
330
B3
100
DictionaryVariables
280
     0
  1
1:1
  0
DICTIONARYVAR
  5
B5
102
{ACAD_REACTORS
330
B3
102
}
330
B3
100
DictionaryVariables
280
     0
  1
STANDARD
  0
DICTIONARYVAR
  5
B4
102
{ACAD_REACTORS
330
B3
102
}
330
B3
100
DictionaryVariables
280
     0
  1
STANDARD
  0
DICTIONARYVAR
  5
B6
102
{ACAD_REACTORS
330
B3
102
}
330
B3
100
DictionaryVariables
280
     0
  1
Imperial24
  0
DICTIONARYVAR
  5
B7
102
{ACAD_REACTORS
330
B3
102
}
330
B3
100
DictionaryVariables
280
     0
  1
Imperial24
  0
DICTIONARY
  5
1A
330
19
100
AcDbDictionary
280
     1
281
     1
  3
BUMPTILE
360
1C
  3
DIFFUSETILE
360
1B
  3
OPACITYTILE
360
1F
  3
REFLECTIONTILE
360
1E
  3
REFRACTIONTILE
360
20
  3
SPECULARTILE
360
1D
  0
DICTIONARY
  5
12
330
11
100
AcDbDictionary
280
     1
281
     1
  3
BUMPTILE
360
14
  3
DIFFUSETILE
360
13
  3
OPACITYTILE
360
17
  3
REFLECTIONTILE
360
16
  3
REFRACTIONTILE
360
18
  3
SPECULARTILE
360
15
  0
DICTIONARY
  5
22
330
21
100
AcDbDictionary
280
     1
281
     1
  3
BUMPTILE
360
24
  3
DIFFUSETILE
360
23
  3
OPACITYTILE
360
27
  3
REFLECTIONTILE
360
26
  3
REFRACTIONTILE
360
28
  3
SPECULARTILE
360
25
  0
DICTIONARY
  5
B9
330
65
100
AcDbDictionary
280
     1
281
     1
  3
ACAD_ROUNDTRIP_2008_TABLESTYLE_CELLSTYLEMAP
360
BA
  0
XRECORD
  5
1C
102
{ACAD_REACTORS
330
1A
102
}
330
1A
100
AcDbXrecord
280
     1
270
     1
271
     1
  0
XRECORD
  5
1B
102
{ACAD_REACTORS
330
1A
102
}
330
1A
100
AcDbXrecord
280
     1
270
     1
271
     1
  0
XRECORD
  5
1F
102
{ACAD_REACTORS
330
1A
102
}
330
1A
100
AcDbXrecord
280
     1
270
     1
271
     1
  0
XRECORD
  5
1E
102
{ACAD_REACTORS
330
1A
102
}
330
1A
100
AcDbXrecord
280
     1
270
     1
271
     1
  0
XRECORD
  5
20
102
{ACAD_REACTORS
330
1A
102
}
330
1A
100
AcDbXrecord
280
     1
270
     1
271
     1
  0
XRECORD
  5
1D
102
{ACAD_REACTORS
330
1A
102
}
330
1A
100
AcDbXrecord
280
     1
270
     1
271
     1
  0
XRECORD
  5
14
102
{ACAD_REACTORS
330
12
102
}
330
12
100
AcDbXrecord
280
     1
270
     1
271
     1
  0
XRECORD
  5
13
102
{ACAD_REACTORS
330
12
102
}
330
12
100
AcDbXrecord
280
     1
270
     1
271
     1
  0
XRECORD
  5
17
102
{ACAD_REACTORS
330
12
102
}
330
12
100
AcDbXrecord
280
     1
270
     1
271
     1
  0
XRECORD
  5
16
102
{ACAD_REACTORS
330
12
102
}
330
12
100
AcDbXrecord
280
     1
270
     1
271
     1
  0
XRECORD
  5
18
102
{ACAD_REACTORS
330
12
102
}
330
12
100
AcDbXrecord
280
     1
270
     1
271
     1
  0
XRECORD
  5
15
102
{ACAD_REACTORS
330
12
102
}
330
12
100
AcDbXrecord
280
     1
270
     1
271
     1
  0
XRECORD
  5
24
102
{ACAD_REACTORS
330
22
102
}
330
22
100
AcDbXrecord
280
     1
270
     1
271
     1
  0
XRECORD
  5
23
102
{ACAD_REACTORS
330
22
102
}
330
22
100
AcDbXrecord
280
     1
270
     1
271
     1
  0
XRECORD
  5
27
102
{ACAD_REACTORS
330
22
102
}
330
22
100
AcDbXrecord
280
     1
270
     1
271
     1
  0
XRECORD
  5
26
102
{ACAD_REACTORS
330
22
102
}
330
22
100
AcDbXrecord
280
     1
270
     1
271
     1
  0
XRECORD
  5
28
102
{ACAD_REACTORS
330
22
102
}
330
22
100
AcDbXrecord
280
     1
270
     1
271
     1
  0
XRECORD
  5
25
102
{ACAD_REACTORS
330
22
102
}
330
22
100
AcDbXrecord
280
     1
270
     1
271
     1
  0
CELLSTYLEMAP
  5
BA
102
{ACAD_REACTORS
330
B9
102
}
330
B9
100
AcDbCellStyleMap
 90
        3
300
CELLSTYLE
  1
TABLEFORMAT_BEGIN
 90
        5
170
     1
 91
        0
 92
    32768
 62
   257
 93
        1
300
CONTENTFORMAT
  1
CONTENTFORMAT_BEGIN
 90
        0
 91
        0
 92
      512
 93
        0
300

 40
0.0
140
1.0
 94
        5
 62
     0
340
55
144
0.25
309
CONTENTFORMAT_END
171
     0
 94
        0
309
TABLEFORMAT_END
  1
CELLSTYLE_BEGIN
 90
        1
 91
        1
300
_TITLE
309
CELLSTYLE_END
300
CELLSTYLE
  1
TABLEFORMAT_BEGIN
 90
        5
170
     1
 91
        0
 92
        0
 62
   257
 93
        1
300
CONTENTFORMAT
  1
CONTENTFORMAT_BEGIN
 90
        0
 91
        0
 92
      512
 93
        0
300

 40
0.0
140
1.0
 94
        5
 62
     0
340
55
144
0.18
309
CONTENTFORMAT_END
171
     0
 94
        0
309
TABLEFORMAT_END
  1
CELLSTYLE_BEGIN
 90
        2
 91
        1
300
_HEADER
309
CELLSTYLE_END
300
CELLSTYLE
  1
TABLEFORMAT_BEGIN
 90
        5
170
     1
 91
        0
 92
        0
 62
   257
 93
        1
300
CONTENTFORMAT
  1
CONTENTFORMAT_BEGIN
 90
        0
 91
        0
 92
      512
 93
        0
300

 40
0.0
140
1.0
 94
        2
 62
     0
340
55
144
0.18
309
CONTENTFORMAT_END
171
     0
 94
        0
309
TABLEFORMAT_END
  1
CELLSTYLE_BEGIN
 90
        3
 91
        2
300
_DATA
309
CELLSTYLE_END
  0
ENDSEC
  0
EOF
