  0
SECTION
  2
HEADER
  9
$ACADVER
  1
AC1032
  9
$ACADMAINTVER
 90
      228
  9
$DWGCODEPAGE
  3
ANSI_1252
  9
$REQUIREDVERSIONS
160
                 0
  9
$INSBASE
 10
0.0
 20
0.0
 30
0.0
  9
$EXTMIN
 10
1.000000000000000E+20
 20
1.000000000000000E+20
 30
1.000000000000000E+20
  9
$EXTMAX
 10
-1.000000000000000E+20
 20
-1.000000000000000E+20
 30
-1.000000000000000E+20
  9
$LIMMIN
 10
0.0
 20
0.0
  9
$LIMMAX
 10
12.0
 20
9.0
  9
$ORTHOMODE
 70
     0
  9
$REGENMODE
 70
     1
  9
$FILLMODE
 70
     1
  9
$QTEXTMODE
 70
     0
  9
$MIRRTEXT
 70
     0
  9
$LTSCALE
 40
1.0
  9
$ATTMODE
 70
     1
  9
$TEXTSIZE
 40
0.2
  9
$TRACEWID
 40
0.05
  9
$TEXTSTYLE
  7
Standard
  9
$CLAYER
  8
0
  9
$CELTYPE
  6
ByLayer
  9
$CECOLOR
 62
   256
  9
$CELTSCALE
 40
1.0
  9
$DISPSILH
 70
     0
  9
$DIMSCALE
 40
1.0
  9
$DIMASZ
 40
0.18
  9
$DIMEXO
 40
0.0625
  9
$DIMDLI
 40
0.38
  9
$DIMRND
 40
0.0
  9
$DIMDLE
 40
0.0
  9
$DIMEXE
 40
0.18
  9
$DIMTP
 40
0.0
  9
$DIMTM
 40
0.0
  9
$DIMTXT
 40
0.18
  9
$DIMCEN
 40
0.09
  9
$DIMTSZ
 40
0.0
  9
$DIMTOL
 70
     0
  9
$DIMLIM
 70
     0
  9
$DIMTIH
 70
     1
  9
$DIMTOH
 70
     1
  9
$DIMSE1
 70
     0
  9
$DIMSE2
 70
     0
  9
$DIMTAD
 70
     0
  9
$DIMZIN
 70
     0
  9
$DIMBLK
  1

  9
$DIMASO
 70
     1
  9
$DIMSHO
 70
     1
  9
$DIMPOST
  1

  9
$DIMAPOST
  1

  9
$DIMALT
 70
     0
  9
$DIMALTD
 70
     2
  9
$DIMALTF
 40
25.4
  9
$DIMLFAC
 40
1.0
  9
$DIMTOFL
 70
     0
  9
$DIMTVP
 40
0.0
  9
$DIMTIX
 70
     0
  9
$DIMSOXD
 70
     0
  9
$DIMSAH
 70
     0
  9
$DIMBLK1
  1

  9
$DIMBLK2
  1

  9
$DIMSTYLE
  2
Standard
  9
$DIMCLRD
 70
     0
  9
$DIMCLRE
 70
     0
  9
$DIMCLRT
 70
     0
  9
$DIMTFAC
 40
1.0
  9
$DIMGAP
 40
0.09
  9
$DIMJUST
 70
     0
  9
$DIMSD1
 70
     0
  9
$DIMSD2
 70
     0
  9
$DIMTOLJ
 70
     1
  9
$DIMTZIN
 70
     0
  9
$DIMALTZ
 70
     0
  9
$DIMALTTZ
 70
     0
  9
$DIMUPT
 70
     0
  9
$DIMDEC
 70
     4
  9
$DIMTDEC
 70
     4
  9
$DIMALTU
 70
     2
  9
$DIMALTTD
 70
     2
  9
$DIMTXSTY
  7
Standard
  9
$DIMAUNIT
 70
     0
  9
$DIMADEC
 70
     0
  9
$DIMALTRND
 40
0.0
  9
$DIMAZIN
 70
     0
  9
$DIMDSEP
 70
    46
  9
$DIMATFIT
 70
     3
  9
$DIMFRAC
 70
     0
  9
$DIMLDRBLK
  1

  9
$DIMLUNIT
 70
     2
  9
$DIMLWD
 70
    -2
  9
$DIMLWE
 70
    -2
  9
$DIMTMOVE
 70
     0
  9
$DIMFXL
 40
1.0
  9
$DIMFXLON
 70
     0
  9
$DIMJOGANG
 40
0.7853981633974483
  9
$DIMTFILL
 70
     0
  9
$DIMTFILLCLR
 70
     0
  9
$DIMARCSYM
 70
     0
  9
$DIMLTYPE
  6

  9
$DIMLTEX1
  6

  9
$DIMLTEX2
  6

  9
$DIMTXTDIRECTION
 70
     0
  9
$LUNITS
 70
     2
  9
$LUPREC
 70
     4
  9
$SKETCHINC
 40
0.1
  9
$FILLETRAD
 40
0.0
  9
$AUNITS
 70
     0
  9
$AUPREC
 70
     0
  9
$MENU
  1
.
  9
$ELEVATION
 40
0.0
  9
$PELEVATION
 40
0.0
  9
$THICKNESS
 40
0.0
  9
$LIMCHECK
 70
     0
  9
$CHAMFERA
 40
0.0
  9
$CHAMFERB
 40
0.0
  9
$CHAMFERC
 40
0.0
  9
$CHAMFERD
 40
0.0
  9
$SKPOLY
 70
     0
  9
$TDCREATE
 40
2460146.022337963
  9
$TDUCREATE
 40
2460146.314004630
  9
$TDUPDATE
 40
2460146.022337963
  9
$TDUUPDATE
 40
2460146.314004630
  9
$TDINDWG
 40
0.0000000000
  9
$TDUSRTIMER
 40
0.0000000000
  9
$USRTIMER
 70
     1
  9
$ANGBASE
 50
0.0
  9
$ANGDIR
 70
     0
  9
$PDMODE
 70
     0
  9
$PDSIZE
 40
0.0
  9
$PLINEWID
 40
0.0
  9
$SPLFRAME
 70
     0
  9
$SPLINETYPE
 70
     6
  9
$SPLINESEGS
 70
     8
  9
$HANDSEED
  5
D3
  9
$SURFTAB1
 70
     6
  9
$SURFTAB2
 70
     6
  9
$SURFTYPE
 70
     6
  9
$SURFU
 70
     6
  9
$SURFV
 70
     6
  9
$UCSBASE
  2

  9
$UCSNAME
  2

  9
$UCSORG
 10
0.0
 20
0.0
 30
0.0
  9
$UCSXDIR
 10
1.0
 20
0.0
 30
0.0
  9
$UCSYDIR
 10
0.0
 20
1.0
 30
0.0
  9
$UCSORTHOREF
  2

  9
$UCSORTHOVIEW
 70
     0
  9
$UCSORGTOP
 10
0.0
 20
0.0
 30
0.0
  9
$UCSORGBOTTOM
 10
0.0
 20
0.0
 30
0.0
  9
$UCSORGLEFT
 10
0.0
 20
0.0
 30
0.0
  9
$UCSORGRIGHT
 10
0.0
 20
0.0
 30
0.0
  9
$UCSORGFRONT
 10
0.0
 20
0.0
 30
0.0
  9
$UCSORGBACK
 10
0.0
 20
0.0
 30
0.0
  9
$PUCSBASE
  2

  9
$PUCSNAME
  2

  9
$PUCSORG
 10
0.0
 20
0.0
 30
0.0
  9
$PUCSXDIR
 10
1.0
 20
0.0
 30
0.0
  9
$PUCSYDIR
 10
0.0
 20
1.0
 30
0.0
  9
$PUCSORTHOREF
  2

  9
$PUCSORTHOVIEW
 70
     0
  9
$PUCSORGTOP
 10
0.0
 20
0.0
 30
0.0
  9
$PUCSORGBOTTOM
 10
0.0
 20
0.0
 30
0.0
  9
$PUCSORGLEFT
 10
0.0
 20
0.0
 30
0.0
  9
$PUCSORGRIGHT
 10
0.0
 20
0.0
 30
0.0
  9
$PUCSORGFRONT
 10
0.0
 20
0.0
 30
0.0
  9
$PUCSORGBACK
 10
0.0
 20
0.0
 30
0.0
  9
$USERI1
 70
     0
  9
$USERI2
 70
     0
  9
$USERI3
 70
     0
  9
$USERI4
 70
     0
  9
$USERI5
 70
     0
  9
$USERR1
 40
0.0
  9
$USERR2
 40
0.0
  9
$USERR3
 40
0.0
  9
$USERR4
 40
0.0
  9
$USERR5
 40
0.0
  9
$WORLDVIEW
 70
     1
  9
$SHADEDGE
 70
     3
  9
$SHADEDIF
 70
    70
  9
$TILEMODE
 70
     1
  9
$MAXACTVP
 70
    64
  9
$PINSBASE
 10
0.0
 20
0.0
 30
0.0
  9
$PLIMCHECK
 70
     0
  9
$PEXTMIN
 10
1.000000000000000E+20
 20
1.000000000000000E+20
 30
1.000000000000000E+20
  9
$PEXTMAX
 10
-1.000000000000000E+20
 20
-1.000000000000000E+20
 30
-1.000000000000000E+20
  9
$PLIMMIN
 10
0.0
 20
0.0
  9
$PLIMMAX
 10
12.0
 20
9.0
  9
$UNITMODE
 70
     0
  9
$VISRETAIN
 70
     1
  9
$PLINEGEN
 70
     0
  9
$PSLTSCALE
 70
     1
  9
$TREEDEPTH
 70
  3020
  9
$CMLSTYLE
  2
Standard
  9
$CMLJUST
 70
     0
  9
$CMLSCALE
 40
1.0
  9
$PROXYGRAPHICS
 70
     1
  9
$MEASUREMENT
 70
     0
  9
$CELWEIGHT
370
    -1
  9
$ENDCAPS
280
     0
  9
$JOINSTYLE
280
     0
  9
$LWDISPLAY
290
     1
  9
$INSUNITS
 70
     1
  9
$HYPERLINKBASE
  1

  9
$STYLESHEET
  1

  9
$XEDIT
290
     1
  9
$CEPSNTYPE
380
     0
  9
$PSTYLEMODE
290
     1
  9
$FINGERPRINTGUID
  2
{3722C5F4-BDA8-F74F-A7B4-AE38A1720C0E}
  9
$VERSIONGUID
  2
{E52BEBC0-80C0-0848-AE23-DEC2526A1691}
  9
$EXTNAMES
290
     1
  9
$PSVPSCALE
 40
0.0
  9
$OLESTARTUP
290
     0
  9
$SORTENTS
280
   127
  9
$INDEXCTL
280
     0
  9
$HIDETEXT
280
     1
  9
$XCLIPFRAME
280
     2
  9
$HALOGAP
280
     0
  9
$OBSCOLOR
 70
   257
  9
$OBSLTYPE
280
     0
  9
$INTERSECTIONDISPLAY
280
     0
  9
$INTERSECTIONCOLOR
 70
   257
  9
$DIMASSOC
280
     2
  9
$PROJECTNAME
  1

  9
$CAMERADISPLAY
290
     0
  9
$LENSLENGTH
 40
50.0
  9
$CAMERAHEIGHT
 40
0.0
  9
$STEPSPERSEC
 40
2.0
  9
$STEPSIZE
 40
6.0
  9
$3DDWFPREC
 40
2.0
  9
$PSOLWIDTH
 40
0.25
  9
$PSOLHEIGHT
 40
4.0
  9
$LOFTANG1
 40
1.570796326794896
  9
$LOFTANG2
 40
1.570796326794896
  9
$LOFTMAG1
 40
0.0
  9
$LOFTMAG2
 40
0.0
  9
$LOFTPARAM
 70
     7
  9
$LOFTNORMALS
280
     1
  9
$LATITUDE
 40
37.795
  9
$LONGITUDE
 40
-122.394
  9
$NORTHDIRECTION
 40
0.0
  9
$TIMEZONE
 70
 -8000
  9
$LIGHTGLYPHDISPLAY
280
     1
  9
$TILEMODELIGHTSYNCH
280
     1
  9
$CMATERIAL
347
11
  9
$SOLIDHIST
280
     0
  9
$SHOWHIST
280
     1
  9
$DWFFRAME
280
     2
  9
$DGNFRAME
280
     0
  9
$REALWORLDSCALE
290
     1
  9
$INTERFERECOLOR
 62
     1
  9
$INTERFEREOBJVS
345
33
  9
$INTERFEREVPVS
346
30
  9
$CSHADOW
280
     0
  9
$SHADOWPLANELOCATION
 40
0.0
  0
ENDSEC
  0
SECTION
  2
CLASSES
  0
CLASS
  1
ACDBDICTIONARYWDFLT
  2
AcDbDictionaryWithDefault
  3
ObjectDBX Classes
 90
        0
 91
        1
280
     0
281
     0
  0
CLASS
  1
MATERIAL
  2
AcDbMaterial
  3
ObjectDBX Classes
 90
     1153
 91
        3
280
     0
281
     0
  0
CLASS
  1
VISUALSTYLE
  2
AcDbVisualStyle
  3
ObjectDBX Classes
 90
     4095
 91
       24
280
     0
281
     0
  0
CLASS
  1
SCALE
  2
AcDbScale
  3
ObjectDBX Classes
 90
     1153
 91
       17
280
     0
281
     0
  0
CLASS
  1
TABLESTYLE
  2
AcDbTableStyle
  3
ObjectDBX Classes
 90
     4095
 91
        1
280
     0
281
     0
  0
CLASS
  1
MLEADERSTYLE
  2
AcDbMLeaderStyle
  3
ACDB_MLEADERSTYLE_CLASS
 90
     4095
 91
        1
280
     0
281
     0
  0
CLASS
  1
ACDBSECTIONVIEWSTYLE
  2
AcDbSectionViewStyle
  3
ObjectDBX Classes
 90
     1025
 91
        1
280
     0
281
     0
  0
CLASS
  1
ACDBDETAILVIEWSTYLE
  2
AcDbDetailViewStyle
  3
ObjectDBX Classes
 90
     1025
 91
        1
280
     0
281
     0
  0
CLASS
  1
DICTIONARYVAR
  2
AcDbDictionaryVar
  3
ObjectDBX Classes
 90
        0
 91
        5
280
     0
281
     0
  0
CLASS
  1
CELLSTYLEMAP
  2
AcDbCellStyleMap
  3
ObjectDBX Classes
 90
     1152
 91
        1
280
     0
281
     0
  0
ENDSEC
  0
SECTION
  2
TABLES
  0
TABLE
  2
VPORT
  5
8
330
0
100
AcDbSymbolTable
 70
     1
  0
VPORT
  5
57
330
8
100
AcDbSymbolTableRecord
100
AcDbViewportTableRecord
  2
*Active
 70
     0
 10
0.0
 20
0.0
 11
1.0
 21
1.0
 12
0.0
 22
0.0
 13
0.0
 23
0.0
 14
1.0
 24
1.0
 15
0.0
 25
0.0
 16
0.0
 26
0.0
 36
1.0
 17
0.9588254593173498
 27
-1.528872554494783
 37
0.0
 40
3.598333333333333
 41
0.7051968503937076
 42
50.0
 43
0.0
 44
0.0
 50
0.0
 51
0.0
 71
     0
 72
   100
 73
     1
 74
     1
 75
     0
 76
     0
 77
     0
 78
     0
281
     0
 65
     1
110
0.0
120
0.0
130
0.0
111
1.0
121
0.0
131
0.0
112
0.0
122
1.0
132
0.0
 79
     0
146
0.0
 60
     3
 61
     5
292
     1
282
     1
141
0.0
142
0.0
 63
   250
421
  3355443
  0
ENDTAB
  0
TABLE
  2
LTYPE
  5
5
330
0
100
AcDbSymbolTable
 70
     1
  0
LTYPE
  5
5B
330
5
100
AcDbSymbolTableRecord
100
AcDbLinetypeTableRecord
  2
ByBlock
 70
     0
  3

 72
    65
 73
     0
 40
0.0
  0
LTYPE
  5
5C
330
5
100
AcDbSymbolTableRecord
100
AcDbLinetypeTableRecord
  2
ByLayer
 70
     0
  3

 72
    65
 73
     0
 40
0.0
  0
LTYPE
  5
5D
330
5
100
AcDbSymbolTableRecord
100
AcDbLinetypeTableRecord
  2
Continuous
 70
     0
  3
Solid line
 72
    65
 73
     0
 40
0.0
  0
ENDTAB
  0
TABLE
  2
LAYER
  5
2
330
0
100
AcDbSymbolTable
 70
     3
  0
LAYER
  5
54
330
2
100
AcDbSymbolTableRecord
100
AcDbLayerTableRecord
  2
0
 70
     0
 62
     7
  6
Continuous
370
    -3
390
F
347
21
348
0
  0
LAYER
  5
78
330
2
100
AcDbSymbolTableRecord
100
AcDbLayerTableRecord
  2
White
 70
     4
 62
     7
  6
Continuous
370
     0
390
F
347
21
348
0
  0
LAYER
  5
7D
330
2
100
AcDbSymbolTableRecord
100
AcDbLayerTableRecord
  2
Text
 70
     0
 62
     7
  6
Continuous
370
     0
390
F
347
21
348
0
  0
ENDTAB
  0
TABLE
  2
STYLE
  5
3
330
0
100
AcDbSymbolTable
 70
     2
  0
STYLE
  5
55
330
3
100
AcDbSymbolTableRecord
100
AcDbTextStyleTableRecord
  2
Standard
 70
     0
 40
0.0
 41
1.0
 50
0.0
 71
     0
 42
0.2
  3
txt
  4

  0
STYLE
  5
5A
330
3
100
AcDbSymbolTableRecord
100
AcDbTextStyleTableRecord
  2
Annotative
 70
     0
 40
0.0
 41
1.0
 50
0.0
 71
     0
 42
0.2
  3
txt
  4

1001
AcadAnnotative
1000
AnnotativeData
1002
{
1070
     1
1070
     1
1002
}
  0
ENDTAB
  0
TABLE
  2
VIEW
  5
6
330
0
100
AcDbSymbolTable
 70
     0
  0
ENDTAB
  0
TABLE
  2
UCS
  5
7
330
0
100
AcDbSymbolTable
 70
     0
  0
ENDTAB
  0
TABLE
  2
APPID
  5
9
330
0
100
AcDbSymbolTable
 70
     2
  0
APPID
  5
56
330
9
100
AcDbSymbolTableRecord
100
AcDbRegAppTableRecord
  2
ACAD
 70
     0
  0
APPID
  5
5E
330
9
100
AcDbSymbolTableRecord
100
AcDbRegAppTableRecord
  2
AcadAnnotative
 70
     0
  0
ENDTAB
  0
TABLE
  2
DIMSTYLE
  5
A
330
0
100
AcDbSymbolTable
 70
     2
100
AcDbDimStyleTable
 71
     0
  0
DIMSTYLE
105
58
330
A
100
AcDbSymbolTableRecord
100
AcDbDimStyleTableRecord
  2
Standard
 70
     0
340
55
  0
DIMSTYLE
105
59
330
A
100
AcDbSymbolTableRecord
100
AcDbDimStyleTableRecord
  2
Annotative
 70
     0
340
55
1001
AcadAnnotative
1000
AnnotativeData
1002
{
1070
     1
1070
     1
1002
}
  0
ENDTAB
  0
TABLE
  2
BLOCK_RECORD
  5
1
330
0
100
AcDbSymbolTable
 70
     6
  0
BLOCK_RECORD
  5
70
330
1
100
AcDbSymbolTableRecord
100
AcDbBlockTableRecord
  2
*Model_Space
340
73
 70
     0
280
     1
281
     0
  0
BLOCK_RECORD
  5
6C
330
1
100
AcDbSymbolTableRecord
100
AcDbBlockTableRecord
  2
*Paper_Space
340
6F
 70
     0
280
     1
281
     0
  0
BLOCK_RECORD
  5
74
330
1
100
AcDbSymbolTableRecord
100
AcDbBlockTableRecord
  2
*Paper_Space0
340
77
 70
     0
280
     1
281
     0
  0
BLOCK_RECORD
  5
84
330
1
100
AcDbSymbolTableRecord
100
AcDbBlockTableRecord
  2
Block_0
340
0
102
{BLKREFS
331
85
102
}
 70
     0
280
     1
281
     0
  0
BLOCK_RECORD
  5
90
330
1
100
AcDbSymbolTableRecord
100
AcDbBlockTableRecord
  2
Block_1
340
0
102
{BLKREFS
331
91
102
}
 70
     0
280
     1
281
     0
  0
BLOCK_RECORD
  5
9E
330
1
100
AcDbSymbolTableRecord
100
AcDbBlockTableRecord
  2
Block_2
340
0
102
{BLKREFS
331
9F
102
}
 70
     0
280
     1
281
     0
  0
BLOCK_RECORD
  5
AD
330
1
100
AcDbSymbolTableRecord
100
AcDbBlockTableRecord
  2
Block_3
340
0
102
{BLKREFS
331
AE
102
}
 70
     0
280
     1
281
     0
  0
BLOCK_RECORD
  5
BF
330
1
100
AcDbSymbolTableRecord
100
AcDbBlockTableRecord
  2
Block_4
340
0
102
{BLKREFS
331
C0
102
}
 70
     0
280
     1
281
     0
  0
ENDTAB
  0
ENDSEC
  0
SECTION
  2
BLOCKS
  0
BLOCK
  5
71
330
70
100
AcDbEntity
  8
0
100
AcDbBlockBegin
  2
*Model_Space
 70
     0
 10
0.0
 20
0.0
 30
0.0
  3
*Model_Space
  1

  0
ENDBLK
  5
72
330
70
100
AcDbEntity
  8
0
100
AcDbBlockEnd
  0
BLOCK
  5
6D
330
6C
100
AcDbEntity
 67
     1
  8
0
100
AcDbBlockBegin
  2
*Paper_Space
 70
     0
 10
0.0
 20
0.0
 30
0.0
  3
*Paper_Space
  1

  0
ENDBLK
  5
6E
330
6C
100
AcDbEntity
 67
     1
  8
0
100
AcDbBlockEnd
  0
BLOCK
  5
75
330
74
100
AcDbEntity
 67
     1
  8
0
100
AcDbBlockBegin
  2
*Paper_Space0
 70
     0
 10
0.0
 20
0.0
 30
0.0
  3
*Paper_Space0
  1

  0
ENDBLK
  5
76
330
74
100
AcDbEntity
 67
     1
  8
0
100
AcDbBlockEnd
  0
BLOCK
  5
86
330
84
100
AcDbEntity
  8
0
100
AcDbBlockBegin
  2
Block_0
 70
     0
 10
0.0
 20
0.0
 30
0.0
  3
Block_0
  1

  0
LWPOLYLINE
  5
88
330
84
100
AcDbEntity
  8
Text
100
AcDbPolyline
 90
        3
 70
     1
 43
0.0
 10
1.832267457142809
 20
-2.543854886849278
 10
1.83211065667812
 20
-2.543854886849278
 10
1.832267457142809
 20
-2.543917015703275
  0
HATCH
  5
89
330
84
100
AcDbEntity
  8
Text
 62
     2
420
 16576033
440
 33554687
100
AcDbHatch
 10
0.0
 20
0.0
 30
0.0
210
0.0
220
0.0
230
1.0
  2
SOLID
 70
     1
 71
     1
 91
        1
 92
        1
 93
        3
 72
     1
 10
1.832267457142809
 20
-2.543854886849278
 11
1.83211065667812
 21
-2.543854886849278
 72
     1
 10
1.83211065667812
 20
-2.543854886849278
 11
1.832267457142809
 21
-2.543917015703275
 72
     1
 10
1.832267457142809
 20
-2.543917015703275
 11
1.832267457142809
 21
-2.543854886849278
 97
        1
330
88
 75
     2
 76
     1
 98
        1
 10
0.0
 20
0.0
450
        0
451
        0
460
0.0
461
0.0
452
        0
462
0.0
453
        0
470

  0
SPLINE
  5
8A
330
84
100
AcDbEntity
  8
Text
100
AcDbSpline
210
0.0
220
0.0
230
1.0
 70
    11
 71
     3
 72
    32
 73
    28
 74
     0
 42
0.0000000001
 43
0.0000000001
 40
0.0
 40
0.0
 40
0.0
 40
0.0
 40
1.0
 40
1.0
 40
1.0
 40
2.0
 40
2.0
 40
2.0
 40
3.0
 40
3.0
 40
3.0
 40
4.0
 40
4.0
 40
4.0
 40
5.0
 40
5.0
 40
5.0
 40
6.0
 40
6.0
 40
6.0
 40
7.0
 40
7.0
 40
7.0
 40
8.0
 40
8.0
 40
8.0
 40
9.0
 40
9.0
 40
9.0
 40
9.0
 10
1.8023891286002
 20
-3.088395061396163
 30
0.0
 10
1.8023891286002
 20
-3.031436215646206
 30
0.0
 10
1.815695608033138
 20
-2.985262643091017
 30
0.0
 10
1.83211065667812
 20
-2.985262643091017
 30
0.0
 10
1.815695608033138
 20
-2.985262643091017
 30
0.0
 10
1.8023891286002
 20
-2.932624711207735
 30
0.0
 10
1.8023891286002
 20
-2.867691183275281
 30
0.0
 10
1.8023891286002
 20
-2.802759134601223
 30
0.0
 10
1.815695608033138
 20
-2.750119723459546
 30
0.0
 10
1.83211065667812
 20
-2.750119723459546
 30
0.0
 10
1.815695608033138
 20
-2.750119723459546
 30
0.0
 10
1.8023891286002
 20
-2.703946150904357
 30
0.0
 10
1.8023891286002
 20
-2.6469873051544
 30
0.0
 10
1.8023891286002
 20
-2.590028459404518
 30
0.0
 10
1.815695608033138
 20
-2.543854886849278
 30
0.0
 10
1.83211065667812
 20
-2.543854886849278
 30
0.0
 10
1.83211065667812
 20
-2.543854886849278
 30
0.0
 10
0.1104778147247063
 20
-2.543854886849278
 30
0.0
 10
0.1104778147247063
 20
-2.543854886849278
 30
0.0
 10
0.1104778147247063
 20
-2.543854886849278
 30
0.0
 10
0.1104778147247063
 20
-3.191527479701284
 30
0.0
 10
0.1104778147247063
 20
-3.191527479701284
 30
0.0
 10
0.1104778147247063
 20
-3.191527479701284
 30
0.0
 10
1.83211065667812
 20
-3.191527479701284
 30
0.0
 10
1.83211065667812
 20
-3.191527479701284
 30
0.0
 10
1.815695608033138
 20
-3.191527479701284
 30
0.0
 10
1.8023891286002
 20
-3.145353907146045
 30
0.0
 10
1.8023891286002
 20
-3.088395061396163
 30
0.0
  0
HATCH
  5
8B
330
84
100
AcDbEntity
  8
Text
 62
     2
420
 16576033
440
 33554687
100
AcDbHatch
 10
0.0
 20
0.0
 30
0.0
210
0.0
220
0.0
230
1.0
  2
SOLID
 70
     1
 71
     1
 91
        1
 92
        1
 93
        1
 72
     4
 94
        3
 73
     0
 74
     0
 95
       32
 96
       28
 40
0.0
 40
0.0
 40
0.0
 40
0.0
 40
1.0
 40
1.0
 40
1.0
 40
2.0
 40
2.0
 40
2.0
 40
3.0
 40
3.0
 40
3.0
 40
4.0
 40
4.0
 40
4.0
 40
5.0
 40
5.0
 40
5.0
 40
6.0
 40
6.0
 40
6.0
 40
7.0
 40
7.0
 40
7.0
 40
8.0
 40
8.0
 40
8.0
 40
9.0
 40
9.0
 40
9.0
 40
9.0
 10
1.8023891286002
 20
-3.088395061396163
 10
1.8023891286002
 20
-3.031436215646206
 10
1.815695608033138
 20
-2.985262643091017
 10
1.83211065667812
 20
-2.985262643091017
 10
1.815695608033138
 20
-2.985262643091017
 10
1.8023891286002
 20
-2.932624711207735
 10
1.8023891286002
 20
-2.867691183275281
 10
1.8023891286002
 20
-2.802759134601223
 10
1.815695608033138
 20
-2.750119723459546
 10
1.83211065667812
 20
-2.750119723459546
 10
1.815695608033138
 20
-2.750119723459546
 10
1.8023891286002
 20
-2.703946150904357
 10
1.8023891286002
 20
-2.6469873051544
 10
1.8023891286002
 20
-2.590028459404518
 10
1.815695608033138
 20
-2.543854886849278
 10
1.83211065667812
 20
-2.543854886849278
 10
1.83211065667812
 20
-2.543854886849278
 10
0.1104778147247063
 20
-2.543854886849278
 10
0.1104778147247063
 20
-2.543854886849278
 10
0.1104778147247063
 20
-2.543854886849278
 10
0.1104778147247063
 20
-3.191527479701284
 10
0.1104778147247063
 20
-3.191527479701284
 10
0.1104778147247063
 20
-3.191527479701284
 10
1.83211065667812
 20
-3.191527479701284
 10
1.83211065667812
 20
-3.191527479701284
 10
1.815695608033138
 20
-3.191527479701284
 10
1.8023891286002
 20
-3.145353907146045
 10
1.8023891286002
 20
-3.088395061396163
 97
        0
 97
        1
330
8A
 75
     2
 76
     1
 98
        1
 10
0.0
 20
0.0
450
        0
451
        0
460
0.0
461
0.0
452
        0
462
0.0
453
        0
470

  0
LWPOLYLINE
  5
8C
330
84
100
AcDbEntity
  8
Text
100
AcDbPolyline
 90
        3
 70
     1
 43
0.0
 10
1.83211065667812
 20
-3.191527479701284
 10
1.832267457142809
 20
-3.191527479701284
 10
1.832267457142809
 20
-3.191494936015866
  0
HATCH
  5
8D
330
84
100
AcDbEntity
  8
Text
 62
     2
420
 16576033
440
 33554687
100
AcDbHatch
 10
0.0
 20
0.0
 30
0.0
210
0.0
220
0.0
230
1.0
  2
SOLID
 70
     1
 71
     1
 91
        1
 92
        1
 93
        3
 72
     1
 10
1.83211065667812
 20
-3.191527479701284
 11
1.832267457142809
 21
-3.191527479701284
 72
     1
 10
1.832267457142809
 20
-3.191527479701284
 11
1.832267457142809
 21
-3.191494936015866
 72
     1
 10
1.832267457142809
 20
-3.191494936015866
 11
1.83211065667812
 21
-3.191527479701284
 97
        1
330
8C
 75
     2
 76
     1
 98
        1
 10
0.0
 20
0.0
450
        0
451
        0
460
0.0
461
0.0
452
        0
462
0.0
453
        0
470

  0
ENDBLK
  5
87
330
84
100
AcDbEntity
  8
0
100
AcDbBlockEnd
  0
BLOCK
  5
92
330
90
100
AcDbEntity
  8
0
100
AcDbBlockBegin
  2
Block_1
 70
     0
 10
0.0
 20
0.0
 30
0.0
  3
Block_1
  1

  0
LWPOLYLINE
  5
94
330
90
100
AcDbEntity
  8
Text
100
AcDbPolyline
 90
        3
 70
     1
 43
0.0
 10
1.835242877084409
 20
-2.543887430534697
 10
1.835086076619745
 20
-2.543887430534697
 10
1.835242877084409
 20
-2.543949559388693
  0
HATCH
  5
95
330
90
100
AcDbEntity
  8
Text
 62
     2
420
 16576033
440
 33554687
100
AcDbHatch
 10
0.0
 20
0.0
 30
0.0
210
0.0
220
0.0
230
1.0
  2
SOLID
 70
     1
 71
     1
 91
        1
 92
        1
 93
        3
 72
     1
 10
1.835242877084409
 20
-2.543887430534697
 11
1.835086076619745
 21
-2.543887430534697
 72
     1
 10
1.835086076619745
 20
-2.543887430534697
 11
1.835242877084409
 21
-2.543949559388693
 72
     1
 10
1.835242877084409
 20
-2.543949559388693
 11
1.835242877084409
 21
-2.543887430534697
 97
        1
330
94
 75
     2
 76
     1
 98
        1
 10
0.0
 20
0.0
450
        0
451
        0
460
0.0
461
0.0
452
        0
462
0.0
453
        0
470

  0
SPLINE
  5
96
330
90
100
AcDbEntity
  8
Text
100
AcDbSpline
210
0.0
220
0.0
230
1.0
 70
    11
 71
     3
 72
    32
 73
    28
 74
     0
 42
0.0000000001
 43
0.0000000001
 40
0.0
 40
0.0
 40
0.0
 40
0.0
 40
1.0
 40
1.0
 40
1.0
 40
2.0
 40
2.0
 40
2.0
 40
3.0
 40
3.0
 40
3.0
 40
4.0
 40
4.0
 40
4.0
 40
5.0
 40
5.0
 40
5.0
 40
6.0
 40
6.0
 40
6.0
 40
7.0
 40
7.0
 40
7.0
 40
8.0
 40
8.0
 40
8.0
 40
9.0
 40
9.0
 40
9.0
 40
9.0
 10
1.805364548541825
 20
-3.088427605081581
 30
0.0
 10
1.805364548541825
 20
-3.031468759331624
 30
0.0
 10
1.818671027974763
 20
-2.985295186776435
 30
0.0
 10
1.835086076619745
 20
-2.985295186776435
 30
0.0
 10
1.818671027974763
 20
-2.985295186776435
 30
0.0
 10
1.805364548541825
 20
-2.932657254893153
 30
0.0
 10
1.805364548541825
 20
-2.867723726960699
 30
0.0
 10
1.805364548541825
 20
-2.802791678286641
 30
0.0
 10
1.818671027974763
 20
-2.750152267144964
 30
0.0
 10
1.835086076619745
 20
-2.750152267144964
 30
0.0
 10
1.818671027974763
 20
-2.750152267144964
 30
0.0
 10
1.805364548541825
 20
-2.703978694589775
 30
0.0
 10
1.805364548541825
 20
-2.647019848839818
 30
0.0
 10
1.805364548541825
 20
-2.590061003089936
 30
0.0
 10
1.818671027974763
 20
-2.543887430534697
 30
0.0
 10
1.835086076619745
 20
-2.543887430534697
 30
0.0
 10
1.835086076619745
 20
-2.543887430534697
 30
0.0
 10
0.1134532346663188
 20
-2.543887430534697
 30
0.0
 10
0.1134532346663188
 20
-2.543887430534697
 30
0.0
 10
0.1134532346663188
 20
-2.543887430534697
 30
0.0
 10
0.1134532346663188
 20
-3.191560023386702
 30
0.0
 10
0.1134532346663188
 20
-3.191560023386702
 30
0.0
 10
0.1134532346663188
 20
-3.191560023386702
 30
0.0
 10
1.835086076619745
 20
-3.191560023386702
 30
0.0
 10
1.835086076619745
 20
-3.191560023386702
 30
0.0
 10
1.818671027974763
 20
-3.191560023386702
 30
0.0
 10
1.805364548541825
 20
-3.145386450831463
 30
0.0
 10
1.805364548541825
 20
-3.088427605081581
 30
0.0
  0
HATCH
  5
97
330
90
100
AcDbEntity
  8
Text
 62
     2
420
 16576033
440
 33554687
100
AcDbHatch
 10
0.0
 20
0.0
 30
0.0
210
0.0
220
0.0
230
1.0
  2
SOLID
 70
     1
 71
     1
 91
        1
 92
        1
 93
        1
 72
     4
 94
        3
 73
     0
 74
     0
 95
       32
 96
       28
 40
0.0
 40
0.0
 40
0.0
 40
0.0
 40
1.0
 40
1.0
 40
1.0
 40
2.0
 40
2.0
 40
2.0
 40
3.0
 40
3.0
 40
3.0
 40
4.0
 40
4.0
 40
4.0
 40
5.0
 40
5.0
 40
5.0
 40
6.0
 40
6.0
 40
6.0
 40
7.0
 40
7.0
 40
7.0
 40
8.0
 40
8.0
 40
8.0
 40
9.0
 40
9.0
 40
9.0
 40
9.0
 10
1.805364548541825
 20
-3.088427605081581
 10
1.805364548541825
 20
-3.031468759331624
 10
1.818671027974763
 20
-2.985295186776435
 10
1.835086076619745
 20
-2.985295186776435
 10
1.818671027974763
 20
-2.985295186776435
 10
1.805364548541825
 20
-2.932657254893153
 10
1.805364548541825
 20
-2.867723726960699
 10
1.805364548541825
 20
-2.802791678286641
 10
1.818671027974763
 20
-2.750152267144964
 10
1.835086076619745
 20
-2.750152267144964
 10
1.818671027974763
 20
-2.750152267144964
 10
1.805364548541825
 20
-2.703978694589775
 10
1.805364548541825
 20
-2.647019848839818
 10
1.805364548541825
 20
-2.590061003089936
 10
1.818671027974763
 20
-2.543887430534697
 10
1.835086076619745
 20
-2.543887430534697
 10
1.835086076619745
 20
-2.543887430534697
 10
0.1134532346663188
 20
-2.543887430534697
 10
0.1134532346663188
 20
-2.543887430534697
 10
0.1134532346663188
 20
-2.543887430534697
 10
0.1134532346663188
 20
-3.191560023386702
 10
0.1134532346663188
 20
-3.191560023386702
 10
0.1134532346663188
 20
-3.191560023386702
 10
1.835086076619745
 20
-3.191560023386702
 10
1.835086076619745
 20
-3.191560023386702
 10
1.818671027974763
 20
-3.191560023386702
 10
1.805364548541825
 20
-3.145386450831463
 10
1.805364548541825
 20
-3.088427605081581
 97
        0
 97
        1
330
96
 75
     2
 76
     1
 98
        1
 10
0.0
 20
0.0
450
        0
451
        0
460
0.0
461
0.0
452
        0
462
0.0
453
        0
470

  0
LWPOLYLINE
  5
98
330
90
100
AcDbEntity
  8
Text
100
AcDbPolyline
 90
        3
 70
     1
 43
0.0
 10
1.835086076619745
 20
-3.191560023386702
 10
1.835242877084409
 20
-3.191560023386702
 10
1.835242877084409
 20
-3.191527479701284
  0
HATCH
  5
99
330
90
100
AcDbEntity
  8
Text
 62
     2
420
 16576033
440
 33554687
100
AcDbHatch
 10
0.0
 20
0.0
 30
0.0
210
0.0
220
0.0
230
1.0
  2
SOLID
 70
     1
 71
     1
 91
        1
 92
        1
 93
        3
 72
     1
 10
1.835086076619745
 20
-3.191560023386702
 11
1.835242877084409
 21
-3.191560023386702
 72
     1
 10
1.835242877084409
 20
-3.191560023386702
 11
1.835242877084409
 21
-3.191527479701284
 72
     1
 10
1.835242877084409
 20
-3.191527479701284
 11
1.835086076619745
 21
-3.191560023386702
 97
        1
330
98
 75
     2
 76
     1
 98
        1
 10
0.0
 20
0.0
450
        0
451
        0
460
0.0
461
0.0
452
        0
462
0.0
453
        0
470

  0
ENDBLK
  5
93
330
90
100
AcDbEntity
  8
0
100
AcDbBlockEnd
  0
BLOCK
  5
A0
330
9E
100
AcDbEntity
  8
0
100
AcDbBlockBegin
  2
Block_2
 70
     0
 10
0.0
 20
0.0
 30
0.0
  3
Block_2
  1

  0
SPLINE
  5
A2
330
9E
100
AcDbEntity
  8
Text
100
AcDbSpline
210
0.0
220
0.0
230
1.0
 70
     9
 71
     3
 72
    17
 73
    13
 74
     0
 42
0.0000000001
 43
0.0000000001
 40
0.0
 40
0.0
 40
0.0
 40
0.0
 40
1.0
 40
1.0
 40
1.0
 40
2.0
 40
2.0
 40
2.0
 40
3.0
 40
3.0
 40
3.0
 40
4.0
 40
4.0
 40
4.0
 40
4.0
 10
0.4507887378864427
 20
-2.707522257693881
 30
0.0
 10
0.4507887378864427
 20
-2.699542711813339
 30
0.0
 10
0.447576915101662
 20
-2.693408019158646
 30
0.0
 10
0.4411421559584344
 20
-2.689162634024442
 30
0.0
 10
0.4353297569395965
 20
-2.685317337541619
 30
0.0
 10
0.4277058454158704
 20
-2.683516938610359
 30
0.0
 10
0.4182704213872058
 20
-2.683716982936074
 30
0.0
 10
0.4182704213872058
 20
-2.683716982936074
 30
0.0
 10
0.4159365709207603
 20
-2.73054958229621
 30
0.0
 10
0.4159365709207603
 20
-2.73054958229621
 30
0.0
 10
0.4391750534224331
 20
-2.731371986746277
 30
0.0
 10
0.4507887378864427
 20
-2.723703620927936
 30
0.0
 10
0.4507887378864427
 20
-2.707522257693881
 30
0.0
  0
SPLINE
  5
A3
330
9E
100
AcDbEntity
  8
Text
100
AcDbSpline
210
0.0
220
0.0
230
1.0
 70
     9
 71
     3
 72
    17
 73
    13
 74
     0
 42
0.0000000001
 43
0.0000000001
 40
0.0
 40
0.0
 40
0.0
 40
0.0
 40
1.0
 40
1.0
 40
1.0
 40
2.0
 40
2.0
 40
2.0
 40
3.0
 40
3.0
 40
3.0
 40
4.0
 40
4.0
 40
4.0
 40
4.0
 10
0.4456542668602374
 20
-2.781427522464835
 30
0.0
 10
0.4456542668602374
 20
-2.769402635775779
 30
0.0
 10
0.4370412472816648
 20
-2.763379078857597
 30
0.0
 10
0.4198263216981862
 20
-2.763379078857597
 30
0.0
 10
0.4180592634878622
 20
-2.763379078857597
 30
0.0
 10
0.4162477509829614
 20
-2.763490214594083
 30
0.0
 10
0.4143806706097924
 20
-2.763690258919824
 30
0.0
 10
0.4143806706097924
 20
-2.763690258919824
 30
0.0
 10
0.4134471304232143
 20
-2.801809816538505
 30
0.0
 10
0.4134471304232143
 20
-2.801809816538505
 30
0.0
 10
0.434918554714563
 20
-2.802743356725108
 30
0.0
 10
0.4456542668602374
 20
-2.795941849651424
 30
0.0
 10
0.4456542668602374
 20
-2.781427522464835
 30
0.0
  0
SPLINE
  5
A4
330
9E
100
AcDbEntity
  8
Text
100
AcDbSpline
210
0.0
220
0.0
230
1.0
 70
     9
 71
     3
 72
    38
 73
    34
 74
     0
 42
0.0000000001
 43
0.0000000001
 40
0.0
 40
0.0
 40
0.0
 40
0.0
 40
1.0
 40
1.0
 40
1.0
 40
2.0
 40
2.0
 40
2.0
 40
3.0
 40
3.0
 40
3.0
 40
4.0
 40
4.0
 40
4.0
 40
5.0
 40
5.0
 40
5.0
 40
6.0
 40
6.0
 40
6.0
 40
7.0
 40
7.0
 40
7.0
 40
8.0
 40
8.0
 40
8.0
 40
9.0
 40
9.0
 40
9.0
 40
10.0
 40
10.0
 40
10.0
 40
11.0
 40
11.0
 40
11.0
 40
11.0
 10
0.5141138805428353
 20
-2.678271331847655
 30
0.0
 10
0.5141138805428353
 20
-2.696942135579269
 30
0.0
 10
0.5096573375092627
 20
-2.713079044518761
 30
0.0
 10
0.5007331378685018
 20
-2.726659831518771
 30
0.0
 10
0.4931647942130187
 20
-2.73806235808345
 30
0.0
 10
0.483718256610713
 20
-2.746153039700452
 30
0.0
 10
0.4724157522088919
 20
-2.75093187636988
 30
0.0
 10
0.4796729158021864
 20
-2.754043676991841
 30
0.0
 10
0.4855853369838693
 20
-2.759178148017983
 30
0.0
 10
0.4901530157539279
 20
-2.766335289448407
 30
0.0
 10
0.4947206945239992
 20
-2.773492430878882
 30
0.0
 10
0.496998977122189
 20
-2.781116342402633
 30
0.0
 10
0.496998977122189
 20
-2.789207024019686
 30
0.0
 10
0.496998977122189
 20
-2.809322592325745
 30
0.0
 10
0.4862632649765273
 20
-2.824059190985331
 30
0.0
 10
0.4647918406851533
 20
-2.833394592851163
 30
0.0
 10
0.4481992752260516
 20
-2.840662870018073
 30
0.0
 10
0.4264166708724891
 20
-2.844285895027926
 30
0.0
 10
0.3994440276245035
 20
-2.844285895027926
 30
0.0
 10
0.3762055451228434
 20
-2.844285895027926
 30
0.0
 10
0.3512666858527558
 20
-2.84237436036018
 30
0.0
 10
0.3246052226669715
 20
-2.838529063877356
 30
0.0
 10
0.3238828403797369
 20
-2.814368154762759
 30
0.0
 10
0.3223713943633457
 20
-2.774937195453351
 30
0.0
 10
0.3200931117651558
 20
-2.720280640243825
 30
0.0
 10
0.318537211454188
 20
-2.690918578661138
 30
0.0
 10
0.3162033609877173
 20
-2.650687442048946
 30
0.0
 10
0.3130915603657943
 20
-2.599542776112684
 30
0.0
 10
0.3327959264468442
 20
-2.595697479629885
 30
0.0
 10
0.3577458992905727
 20
-2.59378594496214
 30
0.0
 10
0.387930365323339
 20
-2.59378594496214
 30
0.0
 10
0.4720490042784605
 20
-2.59378594496214
 30
0.0
 10
0.5141138805428353
 20
-2.621947740590662
 30
0.0
 10
0.5141138805428353
 20
-2.678271331847655
 30
0.0
  0
HATCH
  5
A5
330
9E
100
AcDbEntity
  8
Text
 62
     4
420
    65535
440
 33554687
100
AcDbHatch
 10
0.0
 20
0.0
 30
0.0
210
0.0
220
0.0
230
1.0
  2
SOLID
 70
     1
 71
     1
 91
        3
 92
        1
 93
        1
 72
     4
 94
        3
 73
     0
 74
     0
 95
       17
 96
       13
 40
0.0
 40
0.0
 40
0.0
 40
0.0
 40
1.0
 40
1.0
 40
1.0
 40
2.0
 40
2.0
 40
2.0
 40
3.0
 40
3.0
 40
3.0
 40
4.0
 40
4.0
 40
4.0
 40
4.0
 10
0.4507887378864427
 20
-2.707522257693881
 10
0.4507887378864427
 20
-2.699542711813339
 10
0.447576915101662
 20
-2.693408019158646
 10
0.4411421559584344
 20
-2.689162634024442
 10
0.4353297569395965
 20
-2.685317337541619
 10
0.4277058454158704
 20
-2.683516938610359
 10
0.4182704213872058
 20
-2.683716982936074
 10
0.4182704213872058
 20
-2.683716982936074
 10
0.4159365709207603
 20
-2.73054958229621
 10
0.4159365709207603
 20
-2.73054958229621
 10
0.4391750534224331
 20
-2.731371986746277
 10
0.4507887378864427
 20
-2.723703620927936
 10
0.4507887378864427
 20
-2.707522257693881
 97
        0
 97
        1
330
A2
 92
        1
 93
        1
 72
     4
 94
        3
 73
     0
 74
     0
 95
       17
 96
       13
 40
0.0
 40
0.0
 40
0.0
 40
0.0
 40
1.0
 40
1.0
 40
1.0
 40
2.0
 40
2.0
 40
2.0
 40
3.0
 40
3.0
 40
3.0
 40
4.0
 40
4.0
 40
4.0
 40
4.0
 10
0.4456542668602374
 20
-2.781427522464835
 10
0.4456542668602374
 20
-2.769402635775779
 10
0.4370412472816648
 20
-2.763379078857597
 10
0.4198263216981862
 20
-2.763379078857597
 10
0.4180592634878622
 20
-2.763379078857597
 10
0.4162477509829614
 20
-2.763490214594083
 10
0.4143806706097924
 20
-2.763690258919824
 10
0.4143806706097924
 20
-2.763690258919824
 10
0.4134471304232143
 20
-2.801809816538505
 10
0.4134471304232143
 20
-2.801809816538505
 10
0.434918554714563
 20
-2.802743356725108
 10
0.4456542668602374
 20
-2.795941849651424
 10
0.4456542668602374
 20
-2.781427522464835
 97
        0
 97
        1
330
A3
 92
        1
 93
        1
 72
     4
 94
        3
 73
     0
 74
     0
 95
       38
 96
       34
 40
0.0
 40
0.0
 40
0.0
 40
0.0
 40
1.0
 40
1.0
 40
1.0
 40
2.0
 40
2.0
 40
2.0
 40
3.0
 40
3.0
 40
3.0
 40
4.0
 40
4.0
 40
4.0
 40
5.0
 40
5.0
 40
5.0
 40
6.0
 40
6.0
 40
6.0
 40
7.0
 40
7.0
 40
7.0
 40
8.0
 40
8.0
 40
8.0
 40
9.0
 40
9.0
 40
9.0
 40
10.0
 40
10.0
 40
10.0
 40
11.0
 40
11.0
 40
11.0
 40
11.0
 10
0.5141138805428353
 20
-2.678271331847655
 10
0.5141138805428353
 20
-2.696942135579269
 10
0.5096573375092627
 20
-2.713079044518761
 10
0.5007331378685018
 20
-2.726659831518771
 10
0.4931647942130187
 20
-2.73806235808345
 10
0.483718256610713
 20
-2.746153039700452
 10
0.4724157522088919
 20
-2.75093187636988
 10
0.4796729158021864
 20
-2.754043676991841
 10
0.4855853369838693
 20
-2.759178148017983
 10
0.4901530157539279
 20
-2.766335289448407
 10
0.4947206945239992
 20
-2.773492430878882
 10
0.496998977122189
 20
-2.781116342402633
 10
0.496998977122189
 20
-2.789207024019686
 10
0.496998977122189
 20
-2.809322592325745
 10
0.4862632649765273
 20
-2.824059190985331
 10
0.4647918406851533
 20
-2.833394592851163
 10
0.4481992752260516
 20
-2.840662870018073
 10
0.4264166708724891
 20
-2.844285895027926
 10
0.3994440276245035
 20
-2.844285895027926
 10
0.3762055451228434
 20
-2.844285895027926
 10
0.3512666858527558
 20
-2.84237436036018
 10
0.3246052226669715
 20
-2.838529063877356
 10
0.3238828403797369
 20
-2.814368154762759
 10
0.3223713943633457
 20
-2.774937195453351
 10
0.3200931117651558
 20
-2.720280640243825
 10
0.318537211454188
 20
-2.690918578661138
 10
0.3162033609877173
 20
-2.650687442048946
 10
0.3130915603657943
 20
-2.599542776112684
 10
0.3327959264468442
 20
-2.595697479629885
 10
0.3577458992905727
 20
-2.59378594496214
 10
0.387930365323339
 20
-2.59378594496214
 10
0.4720490042784605
 20
-2.59378594496214
 10
0.5141138805428353
 20
-2.621947740590662
 10
0.5141138805428353
 20
-2.678271331847655
 97
        0
 97
        1
330
A4
 75
     2
 76
     1
 98
        1
 10
0.0
 20
0.0
450
        0
451
        0
460
0.0
461
0.0
452
        0
462
0.0
453
        0
470

  0
SPLINE
  5
A6
330
9E
100
AcDbEntity
  8
Text
100
AcDbSpline
210
0.0
220
0.0
230
1.0
 70
     9
 71
     3
 72
    23
 73
    19
 74
     0
 42
0.0000000001
 43
0.0000000001
 40
0.0
 40
0.0
 40
0.0
 40
0.0
 40
1.0
 40
1.0
 40
1.0
 40
2.0
 40
2.0
 40
2.0
 40
3.0
 40
3.0
 40
3.0
 40
4.0
 40
4.0
 40
4.0
 40
5.0
 40
5.0
 40
5.0
 40
6.0
 40
6.0
 40
6.0
 40
6.0
 10
0.6164921210044997
 20
-2.787495533677605
 30
0.0
 10
0.6147250627942135
 20
-2.782005428294597
 30
0.0
 10
0.6116132621722651
 20
-2.773070115080195
 30
0.0
 10
0.6071567191386799
 20
-2.760734048328938
 30
0.0
 10
0.604456120741803
 20
-2.75388808696069
 30
0.0
 10
0.600366325638687
 20
-2.744441549358397
 30
0.0
 10
0.5948651066820628
 20
-2.732416662669341
 30
0.0
 10
0.5924756883473618
 20
-2.738440219587548
 30
0.0
 10
0.5887415276010112
 20
-2.748286845841195
 30
0.0
 10
0.5836626244430869
 20
-2.761978768577743
 30
0.0
 10
0.5808620038833397
 20
-2.76986940586908
 30
0.0
 10
0.5775390453620477
 20
-2.780605118014768
 30
0.0
 10
0.5737048624529027
 20
-2.794185905014753
 30
0.0
 10
0.5768166630748384
 20
-2.794185905014753
 30
0.0
 10
0.5838737823424304
 20
-2.793563544890401
 30
0.0
 10
0.5948651066820628
 20
-2.792318824641622
 30
0.0
 10
0.6014999101509552
 20
-2.791385284455044
 30
0.0
 10
0.6087126194496603
 20
-2.789784929849474
 30
0.0
 10
0.6164921210044997
 20
-2.787495533677605
 30
0.0
  0
SPLINE
  5
A7
330
9E
100
AcDbEntity
  8
Text
100
AcDbSpline
210
0.0
220
0.0
230
1.0
 70
     9
 71
     3
 72
    44
 73
    40
 74
     0
 42
0.0000000001
 43
0.0000000001
 40
0.0
 40
0.0
 40
0.0
 40
0.0
 40
1.0
 40
1.0
 40
1.0
 40
2.0
 40
2.0
 40
2.0
 40
3.0
 40
3.0
 40
3.0
 40
4.0
 40
4.0
 40
4.0
 40
5.0
 40
5.0
 40
5.0
 40
6.0
 40
6.0
 40
6.0
 40
7.0
 40
7.0
 40
7.0
 40
8.0
 40
8.0
 40
8.0
 40
9.0
 40
9.0
 40
9.0
 40
10.0
 40
10.0
 40
10.0
 40
11.0
 40
11.0
 40
11.0
 40
12.0
 40
12.0
 40
12.0
 40
13.0
 40
13.0
 40
13.0
 40
13.0
 10
0.714669430626562
 20
-2.838529063877356
 30
0.0
 10
0.714669430626562
 20
-2.838529063877356
 30
0.0
 10
0.6295616836166193
 20
-2.838529063877356
 30
0.0
 10
0.6295616836166193
 20
-2.838529063877356
 30
0.0
 10
0.6295616836166193
 20
-2.838529063877356
 30
0.0
 10
0.6238048524660624
 20
-2.817835589741484
 30
0.0
 10
0.6238048524660624
 20
-2.817835589741484
 30
0.0
 10
0.6214154341313613
 20
-2.818769129928038
 30
0.0
 10
0.6154585586550891
 20
-2.821925384844588
 30
0.0
 10
0.6059119988899258
 20
-2.827326581638342
 30
0.0
 10
0.5997884198088867
 20
-2.83126078671037
 30
0.0
 10
0.5929980263088939
 20
-2.836506393473099
 30
0.0
 10
0.5855297048162558
 20
-2.843041174779171
 30
0.0
 10
0.5855297048162558
 20
-2.843041174779171
 30
0.0
 10
0.5766610730437252
 20
-2.824214781016431
 30
0.0
 10
0.5766610730437252
 20
-2.824214781016431
 30
0.0
 10
0.5748940148334391
 20
-2.820480620270119
 30
0.0
 10
0.5723601200412657
 20
-2.81523501350744
 30
0.0
 10
0.5690371615199866
 20
-2.808500187875678
 30
0.0
 10
0.5690371615199866
 20
-2.808500187875678
 30
0.0
 10
0.5606352998407576
 20
-2.838529063877356
 30
0.0
 10
0.5606352998407576
 20
-2.838529063877356
 30
0.0
 10
0.5606352998407576
 20
-2.838529063877356
 30
0.0
 10
0.5155141908226899
 20
-2.838529063877356
 30
0.0
 10
0.5155141908226899
 20
-2.838529063877356
 30
0.0
 10
0.5221489942916075
 20
-2.812901163040982
 30
0.0
 10
0.5324179363440054
 20
-2.770647356024558
 30
0.0
 10
0.5463210169798585
 20
-2.71172318853347
 30
0.0
 10
0.554822900821945
 20
-2.67231445637137
 30
0.0
 10
0.5619355879577799
 20
-2.63490616746627
 30
0.0
 10
0.5676368512401192
 20
-2.599542776112684
 30
0.0
 10
0.5676368512401192
 20
-2.599542776112684
 30
0.0
 10
0.6611464599292782
 20
-2.599542776112684
 30
0.0
 10
0.6611464599292782
 20
-2.599542776112684
 30
0.0
 10
0.6640471026518703
 20
-2.615835275083276
 30
0.0
 10
0.6719821942378101
 20
-2.653732561228985
 30
0.0
 10
0.6849517346870723
 20
-2.713279088844425
 30
0.0
 10
0.6921088761175345
 20
-2.744397095063807
 30
0.0
 10
0.7020110702394883
 20
-2.78613967769234
 30
0.0
 10
0.714669430626562
 20
-2.838529063877356
 30
0.0
  0
HATCH
  5
A8
330
9E
100
AcDbEntity
  8
Text
 62
     4
420
    65535
440
 33554687
100
AcDbHatch
 10
0.0
 20
0.0
 30
0.0
210
0.0
220
0.0
230
1.0
  2
SOLID
 70
     1
 71
     1
 91
        2
 92
        1
 93
        1
 72
     4
 94
        3
 73
     0
 74
     0
 95
       23
 96
       19
 40
0.0
 40
0.0
 40
0.0
 40
0.0
 40
1.0
 40
1.0
 40
1.0
 40
2.0
 40
2.0
 40
2.0
 40
3.0
 40
3.0
 40
3.0
 40
4.0
 40
4.0
 40
4.0
 40
5.0
 40
5.0
 40
5.0
 40
6.0
 40
6.0
 40
6.0
 40
6.0
 10
0.6164921210044997
 20
-2.787495533677605
 10
0.6147250627942135
 20
-2.782005428294597
 10
0.6116132621722651
 20
-2.773070115080195
 10
0.6071567191386799
 20
-2.760734048328938
 10
0.604456120741803
 20
-2.75388808696069
 10
0.600366325638687
 20
-2.744441549358397
 10
0.5948651066820628
 20
-2.732416662669341
 10
0.5924756883473618
 20
-2.738440219587548
 10
0.5887415276010112
 20
-2.748286845841195
 10
0.5836626244430869
 20
-2.761978768577743
 10
0.5808620038833397
 20
-2.76986940586908
 10
0.5775390453620477
 20
-2.780605118014768
 10
0.5737048624529027
 20
-2.794185905014753
 10
0.5768166630748384
 20
-2.794185905014753
 10
0.5838737823424304
 20
-2.793563544890401
 10
0.5948651066820628
 20
-2.792318824641622
 10
0.6014999101509552
 20
-2.791385284455044
 10
0.6087126194496603
 20
-2.789784929849474
 10
0.6164921210044997
 20
-2.787495533677605
 97
        0
 97
        1
330
A6
 92
        1
 93
        1
 72
     4
 94
        3
 73
     0
 74
     0
 95
       44
 96
       40
 40
0.0
 40
0.0
 40
0.0
 40
0.0
 40
1.0
 40
1.0
 40
1.0
 40
2.0
 40
2.0
 40
2.0
 40
3.0
 40
3.0
 40
3.0
 40
4.0
 40
4.0
 40
4.0
 40
5.0
 40
5.0
 40
5.0
 40
6.0
 40
6.0
 40
6.0
 40
7.0
 40
7.0
 40
7.0
 40
8.0
 40
8.0
 40
8.0
 40
9.0
 40
9.0
 40
9.0
 40
10.0
 40
10.0
 40
10.0
 40
11.0
 40
11.0
 40
11.0
 40
12.0
 40
12.0
 40
12.0
 40
13.0
 40
13.0
 40
13.0
 40
13.0
 10
0.714669430626562
 20
-2.838529063877356
 10
0.714669430626562
 20
-2.838529063877356
 10
0.6295616836166193
 20
-2.838529063877356
 10
0.6295616836166193
 20
-2.838529063877356
 10
0.6295616836166193
 20
-2.838529063877356
 10
0.6238048524660624
 20
-2.817835589741484
 10
0.6238048524660624
 20
-2.817835589741484
 10
0.6214154341313613
 20
-2.818769129928038
 10
0.6154585586550891
 20
-2.821925384844588
 10
0.6059119988899258
 20
-2.827326581638342
 10
0.5997884198088867
 20
-2.83126078671037
 10
0.5929980263088939
 20
-2.836506393473099
 10
0.5855297048162558
 20
-2.843041174779171
 10
0.5855297048162558
 20
-2.843041174779171
 10
0.5766610730437252
 20
-2.824214781016431
 10
0.5766610730437252
 20
-2.824214781016431
 10
0.5748940148334391
 20
-2.820480620270119
 10
0.5723601200412657
 20
-2.81523501350744
 10
0.5690371615199866
 20
-2.808500187875678
 10
0.5690371615199866
 20
-2.808500187875678
 10
0.5606352998407576
 20
-2.838529063877356
 10
0.5606352998407576
 20
-2.838529063877356
 10
0.5606352998407576
 20
-2.838529063877356
 10
0.5155141908226899
 20
-2.838529063877356
 10
0.5155141908226899
 20
-2.838529063877356
 10
0.5221489942916075
 20
-2.812901163040982
 10
0.5324179363440054
 20
-2.770647356024558
 10
0.5463210169798585
 20
-2.71172318853347
 10
0.554822900821945
 20
-2.67231445637137
 10
0.5619355879577799
 20
-2.63490616746627
 10
0.5676368512401192
 20
-2.599542776112684
 10
0.5676368512401192
 20
-2.599542776112684
 10
0.6611464599292782
 20
-2.599542776112684
 10
0.6611464599292782
 20
-2.599542776112684
 10
0.6640471026518703
 20
-2.615835275083276
 10
0.6719821942378101
 20
-2.653732561228985
 10
0.6849517346870723
 20
-2.713279088844425
 10
0.6921088761175345
 20
-2.744397095063807
 10
0.7020110702394883
 20
-2.78613967769234
 10
0.714669430626562
 20
-2.838529063877356
 97
        0
 97
        1
330
A7
 75
     2
 76
     1
 98
        1
 10
0.0
 20
0.0
450
        0
451
        0
460
0.0
461
0.0
452
        0
462
0.0
453
        0
470

  0
SPLINE
  5
A9
330
9E
100
AcDbEntity
  8
Text
100
AcDbSpline
210
0.0
220
0.0
230
1.0
 70
     9
 71
     3
 72
    50
 73
    46
 74
     0
 42
0.0000000001
 43
0.0000000001
 40
0.0
 40
0.0
 40
0.0
 40
0.0
 40
1.0
 40
1.0
 40
1.0
 40
2.0
 40
2.0
 40
2.0
 40
3.0
 40
3.0
 40
3.0
 40
4.0
 40
4.0
 40
4.0
 40
5.0
 40
5.0
 40
5.0
 40
6.0
 40
6.0
 40
6.0
 40
7.0
 40
7.0
 40
7.0
 40
8.0
 40
8.0
 40
8.0
 40
9.0
 40
9.0
 40
9.0
 40
10.0
 40
10.0
 40
10.0
 40
11.0
 40
11.0
 40
11.0
 40
12.0
 40
12.0
 40
12.0
 40
13.0
 40
13.0
 40
13.0
 40
14.0
 40
14.0
 40
14.0
 40
15.0
 40
15.0
 40
15.0
 40
15.0
 10
0.8962429969165238
 20
-2.697408905672571
 30
0.0
 10
0.8905417336341844
 20
-2.695652961035901
 30
0.0
 10
0.8832290021726343
 20
-2.694763875143912
 30
0.0
 10
0.8743048025318859
 20
-2.694763875143912
 30
0.0
 10
0.8577122370727591
 20
-2.694763875143912
 30
0.0
 10
0.8442203586619395
 20
-2.699120396014627
 30
0.0
 10
0.8338513944467093
 20
-2.707833437756057
 30
0.0
 10
0.8221265742461884
 20
-2.717591155420576
 30
0.0
 10
0.8162697209327612
 20
-2.731638712513889
 30
0.0
 10
0.8162697209327612
 20
-2.749998336183276
 30
0.0
 10
0.8162697209327612
 20
-2.764312619044176
 30
0.0
 10
0.8209151947183574
 20
-2.776070779965619
 30
0.0
 10
0.8301950287159217
 20
-2.785228364653044
 30
0.0
 10
0.8394748627134857
 20
-2.794430403635033
 30
0.0
 10
0.8516442258599884
 20
-2.79900919597877
 30
0.0
 10
0.8666808910080968
 20
-2.79900919597877
 30
0.0
 10
0.8769498330605074
 20
-2.79900919597877
 30
0.0
 10
0.8866964371513478
 20
-2.796475301186622
 30
0.0
 10
0.89593181685431
 20
-2.791385284455044
 30
0.0
 10
0.8948982545048743
 20
-2.795630669589248
 30
0.0
 10
0.8931311962945756
 20
-2.803476852585946
 30
0.0
 10
0.8906417557970168
 20
-2.81487937915065
 30
0.0
 10
0.8891858776489065
 20
-2.822458836379786
 30
0.0
 10
0.8877855673690394
 20
-2.830327246523817
 30
0.0
 10
0.8864408249573898
 20
-2.838529063877356
 30
0.0
 10
0.8748271404934307
 20
-2.842996720484582
 30
0.0
 10
0.8599349518027185
 20
-2.845219435214529
 30
0.0
 10
0.8417864860326492
 20
-2.845219435214529
 30
0.0
 10
0.8089014216029555
 20
-2.845219435214529
 30
0.0
 10
0.7807951938426893
 20
-2.834172543006641
 30
0.0
 10
0.7574566891781716
 20
-2.812078758590915
 30
0.0
 10
0.7321510819776651
 20
-2.788006758065496
 30
0.0
 10
0.7194927215905662
 20
-2.75668870752045
 30
0.0
 10
0.7194927215905662
 20
-2.718102379808467
 30
0.0
 10
0.7194927215905662
 20
-2.68242780839268
 30
0.0
 10
0.730384023767341
 20
-2.653576971197884
 30
0.0
 10
0.7521666281209037
 20
-2.631594322518644
 30
0.0
 10
0.7754051106225512
 20
-2.608144682117628
 30
0.0
 10
0.8075011113231134
 20
-2.596430975490748
 30
0.0
 10
0.8484768573697843
 20
-2.596430975490748
 30
0.0
 10
0.8681812234508344
 20
-2.596430975490748
 30
0.0
 10
0.8824510520171441
 20
-2.597564560003017
 30
0.0
 10
0.8912641159213812
 20
-2.599853956174911
 30
0.0
 10
0.8912641159213812
 20
-2.599853956174911
 30
0.0
 10
0.8962429969165238
 20
-2.697408905672571
 30
0.0
 10
0.8962429969165238
 20
-2.697408905672571
 30
0.0
  0
HATCH
  5
AA
330
9E
100
AcDbEntity
  8
Text
 62
     4
420
    65535
440
 33554687
100
AcDbHatch
 10
0.0
 20
0.0
 30
0.0
210
0.0
220
0.0
230
1.0
  2
SOLID
 70
     1
 71
     1
 91
        1
 92
        1
 93
        1
 72
     4
 94
        3
 73
     0
 74
     0
 95
       50
 96
       46
 40
0.0
 40
0.0
 40
0.0
 40
0.0
 40
1.0
 40
1.0
 40
1.0
 40
2.0
 40
2.0
 40
2.0
 40
3.0
 40
3.0
 40
3.0
 40
4.0
 40
4.0
 40
4.0
 40
5.0
 40
5.0
 40
5.0
 40
6.0
 40
6.0
 40
6.0
 40
7.0
 40
7.0
 40
7.0
 40
8.0
 40
8.0
 40
8.0
 40
9.0
 40
9.0
 40
9.0
 40
10.0
 40
10.0
 40
10.0
 40
11.0
 40
11.0
 40
11.0
 40
12.0
 40
12.0
 40
12.0
 40
13.0
 40
13.0
 40
13.0
 40
14.0
 40
14.0
 40
14.0
 40
15.0
 40
15.0
 40
15.0
 40
15.0
 10
0.8962429969165238
 20
-2.697408905672571
 10
0.8905417336341844
 20
-2.695652961035901
 10
0.8832290021726343
 20
-2.694763875143912
 10
0.8743048025318859
 20
-2.694763875143912
 10
0.8577122370727591
 20
-2.694763875143912
 10
0.8442203586619395
 20
-2.699120396014627
 10
0.8338513944467093
 20
-2.707833437756057
 10
0.8221265742461884
 20
-2.717591155420576
 10
0.8162697209327612
 20
-2.731638712513889
 10
0.8162697209327612
 20
-2.749998336183276
 10
0.8162697209327612
 20
-2.764312619044176
 10
0.8209151947183574
 20
-2.776070779965619
 10
0.8301950287159217
 20
-2.785228364653044
 10
0.8394748627134857
 20
-2.794430403635033
 10
0.8516442258599884
 20
-2.79900919597877
 10
0.8666808910080968
 20
-2.79900919597877
 10
0.8769498330605074
 20
-2.79900919597877
 10
0.8866964371513478
 20
-2.796475301186622
 10
0.89593181685431
 20
-2.791385284455044
 10
0.8948982545048743
 20
-2.795630669589248
 10
0.8931311962945756
 20
-2.803476852585946
 10
0.8906417557970168
 20
-2.81487937915065
 10
0.8891858776489065
 20
-2.822458836379786
 10
0.8877855673690394
 20
-2.830327246523817
 10
0.8864408249573898
 20
-2.838529063877356
 10
0.8748271404934307
 20
-2.842996720484582
 10
0.8599349518027185
 20
-2.845219435214529
 10
0.8417864860326492
 20
-2.845219435214529
 10
0.8089014216029555
 20
-2.845219435214529
 10
0.7807951938426893
 20
-2.834172543006641
 10
0.7574566891781716
 20
-2.812078758590915
 10
0.7321510819776651
 20
-2.788006758065496
 10
0.7194927215905662
 20
-2.75668870752045
 10
0.7194927215905662
 20
-2.718102379808467
 10
0.7194927215905662
 20
-2.68242780839268
 10
0.730384023767341
 20
-2.653576971197884
 10
0.7521666281209037
 20
-2.631594322518644
 10
0.7754051106225512
 20
-2.608144682117628
 10
0.8075011113231134
 20
-2.596430975490748
 10
0.8484768573697843
 20
-2.596430975490748
 10
0.8681812234508344
 20
-2.596430975490748
 10
0.8824510520171441
 20
-2.597564560003017
 10
0.8912641159213812
 20
-2.599853956174911
 10
0.8912641159213812
 20
-2.599853956174911
 10
0.8962429969165238
 20
-2.697408905672571
 10
0.8962429969165238
 20
-2.697408905672571
 97
        0
 97
        1
330
A9
 75
     2
 76
     1
 98
        1
 10
0.0
 20
0.0
450
        0
451
        0
460
0.0
461
0.0
452
        0
462
0.0
453
        0
470

  0
SPLINE
  5
AB
330
9E
100
AcDbEntity
  8
Text
100
AcDbSpline
210
0.0
220
0.0
230
1.0
 70
     9
 71
     3
 72
    65
 73
    61
 74
     0
 42
0.0000000001
 43
0.0000000001
 40
0.0
 40
0.0
 40
0.0
 40
0.0
 40
1.0
 40
1.0
 40
1.0
 40
2.0
 40
2.0
 40
2.0
 40
3.0
 40
3.0
 40
3.0
 40
4.0
 40
4.0
 40
4.0
 40
5.0
 40
5.0
 40
5.0
 40
6.0
 40
6.0
 40
6.0
 40
7.0
 40
7.0
 40
7.0
 40
8.0
 40
8.0
 40
8.0
 40
9.0
 40
9.0
 40
9.0
 40
10.0
 40
10.0
 40
10.0
 40
11.0
 40
11.0
 40
11.0
 40
12.0
 40
12.0
 40
12.0
 40
13.0
 40
13.0
 40
13.0
 40
14.0
 40
14.0
 40
14.0
 40
15.0
 40
15.0
 40
15.0
 40
16.0
 40
16.0
 40
16.0
 40
17.0
 40
17.0
 40
17.0
 40
18.0
 40
18.0
 40
18.0
 40
19.0
 40
19.0
 40
19.0
 40
20.0
 40
20.0
 40
20.0
 40
20.0
 10
1.135996121262981
 20
-2.611989978600452
 30
0.0
 10
1.130305971554308
 20
-2.622570100715039
 30
0.0
 10
1.118636719222043
 20
-2.644863929456454
 30
0.0
 10
1.100988364266186
 20
-2.678893691972032
 30
0.0
 10
1.091341782338228
 20
-2.697675631440183
 30
0.0
 10
1.078072175400418
 20
-2.722725626446743
 30
0.0
 10
1.061157316305437
 20
-2.754043676991841
 30
0.0
 10
1.062624308027188
 20
-2.756333073163634
 30
0.0
 10
1.071026169706417
 20
-2.765912973649745
 30
0.0
 10
1.086362901343085
 20
-2.782827832744689
 30
0.0
 10
1.095387123146716
 20
-2.792474414672697
 30
0.0
 10
1.108212187138557
 20
-2.804766027129339
 30
0.0
 10
1.124793639024018
 20
-2.819702670114616
 30
0.0
 10
1.11785876906654
 20
-2.822703335000066
 30
0.0
 10
1.106500696796501
 20
-2.827593307405954
 30
0.0
 10
1.090719422213826
 20
-2.834328133037741
 30
0.0
 10
1.081917471883166
 20
-2.838262338109769
 30
0.0
 10
1.069514723690089
 20
-2.844019169260289
 30
0.0
 10
1.053533404781673
 20
-2.851598626489476
 30
0.0
 10
1.049599199709657
 20
-2.846819789820074
 30
0.0
 10
1.04150851809263
 20
-2.835683989023007
 30
0.0
 10
1.029261359930564
 20
-2.818146769803686
 30
0.0
 10
1.022415398562316
 20
-2.807766692014739
 30
0.0
 10
1.015836162961679
 20
-2.796719799806901
 30
0.0
 10
1.009501425981334
 20
-2.785006093180072
 30
0.0
 10
1.009501425981334
 20
-2.785006093180072
 30
0.0
 10
1.008879065856932
 20
-2.785006093180072
 30
0.0
 10
1.008879065856932
 20
-2.785006093180072
 30
0.0
 10
1.008879065856932
 20
-2.785006093180072
 30
0.0
 10
1.007323165545977
 20
-2.838529063877356
 30
0.0
 10
1.007323165545977
 20
-2.838529063877356
 30
0.0
 10
1.007323165545977
 20
-2.838529063877356
 30
0.0
 10
0.9212818783494185
 20
-2.838529063877356
 30
0.0
 10
0.9212818783494185
 20
-2.838529063877356
 30
0.0
 10
0.9212818783494185
 20
-2.838529063877356
 30
0.0
 10
0.9170809475098545
 20
-2.714212629031003
 30
0.0
 10
0.9170809475098545
 20
-2.714212629031003
 30
0.0
 10
0.9159473629975611
 20
-2.6870288278837
 30
0.0
 10
0.9135023767946044
 20
-2.648820361675739
 30
0.0
 10
0.9097682160482918
 20
-2.599542776112684
 30
0.0
 10
0.9097682160482918
 20
-2.599542776112684
 30
0.0
 10
1.018058877691651
 20
-2.599542776112684
 30
0.0
 10
1.018058877691651
 20
-2.599542776112684
 30
0.0
 10
1.018058877691651
 20
-2.599542776112684
 30
0.0
 10
1.011990866478868
 20
-2.704410457071945
 30
0.0
 10
1.011990866478868
 20
-2.704410457071945
 30
0.0
 10
1.011990866478868
 20
-2.704410457071945
 30
0.0
 10
1.013079996696546
 20
-2.704410457071945
 30
0.0
 10
1.013079996696546
 20
-2.704410457071945
 30
0.0
 10
1.017436517567261
 20
-2.692163298909867
 30
0.0
 10
1.024438068966598
 20
-2.672003276309194
 30
0.0
 10
1.034084650894606
 20
-2.643885934975287
 30
0.0
 10
1.038041083113916
 20
-2.631638776813259
 30
0.0
 10
1.043108872698212
 20
-2.614835053454776
 30
0.0
 10
1.049332473942083
 20
-2.593474764899939
 30
0.0
 10
1.049332473942083
 20
-2.593474764899939
 30
0.0
 10
1.09336445274246
 20
-2.603121346827947
 30
0.0
 10
1.09336445274246
 20
-2.603121346827947
 30
0.0
 10
1.107678735603384
 20
-2.606233147449857
 30
0.0
 10
1.121904109875079
 20
-2.609189358040667
 30
0.0
 10
1.135996121262981
 20
-2.611989978600452
 30
0.0
  0
HATCH
  5
AC
330
9E
100
AcDbEntity
  8
Text
 62
     4
420
    65535
440
 33554687
100
AcDbHatch
 10
0.0
 20
0.0
 30
0.0
210
0.0
220
0.0
230
1.0
  2
SOLID
 70
     1
 71
     1
 91
        1
 92
        1
 93
        1
 72
     4
 94
        3
 73
     0
 74
     0
 95
       65
 96
       61
 40
0.0
 40
0.0
 40
0.0
 40
0.0
 40
1.0
 40
1.0
 40
1.0
 40
2.0
 40
2.0
 40
2.0
 40
3.0
 40
3.0
 40
3.0
 40
4.0
 40
4.0
 40
4.0
 40
5.0
 40
5.0
 40
5.0
 40
6.0
 40
6.0
 40
6.0
 40
7.0
 40
7.0
 40
7.0
 40
8.0
 40
8.0
 40
8.0
 40
9.0
 40
9.0
 40
9.0
 40
10.0
 40
10.0
 40
10.0
 40
11.0
 40
11.0
 40
11.0
 40
12.0
 40
12.0
 40
12.0
 40
13.0
 40
13.0
 40
13.0
 40
14.0
 40
14.0
 40
14.0
 40
15.0
 40
15.0
 40
15.0
 40
16.0
 40
16.0
 40
16.0
 40
17.0
 40
17.0
 40
17.0
 40
18.0
 40
18.0
 40
18.0
 40
19.0
 40
19.0
 40
19.0
 40
20.0
 40
20.0
 40
20.0
 40
20.0
 10
1.135996121262981
 20
-2.611989978600452
 10
1.130305971554308
 20
-2.622570100715039
 10
1.118636719222043
 20
-2.644863929456454
 10
1.100988364266186
 20
-2.678893691972032
 10
1.091341782338228
 20
-2.697675631440183
 10
1.078072175400418
 20
-2.722725626446743
 10
1.061157316305437
 20
-2.754043676991841
 10
1.062624308027188
 20
-2.756333073163634
 10
1.071026169706417
 20
-2.765912973649745
 10
1.086362901343085
 20
-2.782827832744689
 10
1.095387123146716
 20
-2.792474414672697
 10
1.108212187138557
 20
-2.804766027129339
 10
1.124793639024018
 20
-2.819702670114616
 10
1.11785876906654
 20
-2.822703335000066
 10
1.106500696796501
 20
-2.827593307405954
 10
1.090719422213826
 20
-2.834328133037741
 10
1.081917471883166
 20
-2.838262338109769
 10
1.069514723690089
 20
-2.844019169260289
 10
1.053533404781673
 20
-2.851598626489476
 10
1.049599199709657
 20
-2.846819789820074
 10
1.04150851809263
 20
-2.835683989023007
 10
1.029261359930564
 20
-2.818146769803686
 10
1.022415398562316
 20
-2.807766692014739
 10
1.015836162961679
 20
-2.796719799806901
 10
1.009501425981334
 20
-2.785006093180072
 10
1.009501425981334
 20
-2.785006093180072
 10
1.008879065856932
 20
-2.785006093180072
 10
1.008879065856932
 20
-2.785006093180072
 10
1.008879065856932
 20
-2.785006093180072
 10
1.007323165545977
 20
-2.838529063877356
 10
1.007323165545977
 20
-2.838529063877356
 10
1.007323165545977
 20
-2.838529063877356
 10
0.9212818783494185
 20
-2.838529063877356
 10
0.9212818783494185
 20
-2.838529063877356
 10
0.9212818783494185
 20
-2.838529063877356
 10
0.9170809475098545
 20
-2.714212629031003
 10
0.9170809475098545
 20
-2.714212629031003
 10
0.9159473629975611
 20
-2.6870288278837
 10
0.9135023767946044
 20
-2.648820361675739
 10
0.9097682160482918
 20
-2.599542776112684
 10
0.9097682160482918
 20
-2.599542776112684
 10
1.018058877691651
 20
-2.599542776112684
 10
1.018058877691651
 20
-2.599542776112684
 10
1.018058877691651
 20
-2.599542776112684
 10
1.011990866478868
 20
-2.704410457071945
 10
1.011990866478868
 20
-2.704410457071945
 10
1.011990866478868
 20
-2.704410457071945
 10
1.013079996696546
 20
-2.704410457071945
 10
1.013079996696546
 20
-2.704410457071945
 10
1.017436517567261
 20
-2.692163298909867
 10
1.024438068966598
 20
-2.672003276309194
 10
1.034084650894606
 20
-2.643885934975287
 10
1.038041083113916
 20
-2.631638776813259
 10
1.043108872698212
 20
-2.614835053454776
 10
1.049332473942083
 20
-2.593474764899939
 10
1.049332473942083
 20
-2.593474764899939
 10
1.09336445274246
 20
-2.603121346827947
 10
1.09336445274246
 20
-2.603121346827947
 10
1.107678735603384
 20
-2.606233147449857
 10
1.121904109875079
 20
-2.609189358040667
 10
1.135996121262981
 20
-2.611989978600452
 97
        0
 97
        1
330
AB
 75
     2
 76
     1
 98
        1
 10
0.0
 20
0.0
450
        0
451
        0
460
0.0
461
0.0
452
        0
462
0.0
453
        0
470

  0
ENDBLK
  5
A1
330
9E
100
AcDbEntity
  8
0
100
AcDbBlockEnd
  0
BLOCK
  5
AF
330
AD
100
AcDbEntity
  8
0
100
AcDbBlockBegin
  2
Block_3
 70
     0
 10
0.0
 20
0.0
 30
0.0
  3
Block_3
  1

  0
SPLINE
  5
B1
330
AD
100
AcDbEntity
  8
Text
100
AcDbSpline
210
0.0
220
0.0
230
1.0
 70
     9
 71
     3
 72
    62
 73
    58
 74
     0
 42
0.0000000001
 43
0.0000000001
 40
0.0
 40
0.0
 40
0.0
 40
0.0
 40
1.0
 40
1.0
 40
1.0
 40
2.0
 40
2.0
 40
2.0
 40
3.0
 40
3.0
 40
3.0
 40
4.0
 40
4.0
 40
4.0
 40
5.0
 40
5.0
 40
5.0
 40
6.0
 40
6.0
 40
6.0
 40
7.0
 40
7.0
 40
7.0
 40
8.0
 40
8.0
 40
8.0
 40
9.0
 40
9.0
 40
9.0
 40
10.0
 40
10.0
 40
10.0
 40
11.0
 40
11.0
 40
11.0
 40
12.0
 40
12.0
 40
12.0
 40
13.0
 40
13.0
 40
13.0
 40
14.0
 40
14.0
 40
14.0
 40
15.0
 40
15.0
 40
15.0
 40
16.0
 40
16.0
 40
16.0
 40
17.0
 40
17.0
 40
17.0
 40
18.0
 40
18.0
 40
18.0
 40
19.0
 40
19.0
 40
19.0
 40
19.0
 10
0.5090877261877722
 20
-3.002033735494933
 30
0.0
 10
0.5014082467957906
 20
-3.000277790858288
 30
0.0
 10
0.4956069613506063
 20
-2.999388704966299
 30
0.0
 10
0.4916616427049247
 20
-2.999388704966299
 30
0.0
 10
0.4867827838726777
 20
-2.999388704966299
 30
0.0
 10
0.4823262408391303
 20
-3.001055741013715
 30
0.0
 10
0.4782809000306038
 20
-3.004367585961391
 30
0.0
 10
0.4734020411983693
 20
-3.008412926769879
 30
0.0
 10
0.4709681685690789
 20
-3.013658533532583
 30
0.0
 10
0.4709681685690789
 20
-3.02008217910217
 30
0.0
 10
0.4709681685690789
 20
-3.025061060097236
 30
0.0
 10
0.4754247116026136
 20
-3.034663187730656
 30
0.0
 10
0.4843489112433872
 20
-3.048866334855094
 30
0.0
 10
0.4932731108841609
 20
-3.063069481979431
 30
0.0
 10
0.4977296539177208
 20
-3.076139044591577
 30
0.0
 10
0.4977296539177208
 20
-3.088075022691479
 30
0.0
 10
0.4977296539177208
 20
-3.105389970437802
 30
0.0
 10
0.4911393047433927
 20
-3.119615344709497
 30
0.0
 10
0.4779697199684279
 20
-3.13070669121195
 30
0.0
 10
0.4654224953178402
 20
-3.141397949063022
 30
0.0
 10
0.4499079465027383
 20
-3.146732464414981
 30
0.0
 10
0.4314483006704803
 20
-3.146732464414981
 30
0.0
 10
0.4144334194126789
 20
-3.146732464414981
 30
0.0
 10
0.4018861947621038
 20
-3.14553219846074
 30
0.0
 10
0.3937955131450761
 20
-3.143153893699718
 30
0.0
 10
0.3928619729584852
 20
-3.138375057030316
 30
0.0
 10
0.3912505047792618
 20
-3.130595555475489
 30
0.0
 10
0.3889722221810592
 20
-3.119815389035188
 30
0.0
 10
0.3875163440329364
 20
-3.114014103590003
 30
0.0
 10
0.3854936736286668
 20
-3.106279056329766
 30
0.0
 10
0.3829042109682885
 20
-3.096632474401783
 30
0.0
 10
0.3943178511066081
 20
-3.099433094961518
 30
0.0
 10
0.4019862169249361
 20
-3.100833405241397
 30
0.0
 10
0.4059315355706178
 20
-3.100833405241397
 30
0.0
 10
0.4213905165174386
 20
-3.100833405241397
 30
0.0
 10
0.4291144502040348
 20
-3.094965438354291
 30
0.0
 10
0.4291144502040348
 20
-3.083251731727462
 30
0.0
 10
0.4291144502040348
 20
-3.074738734311747
 30
0.0
 10
0.4260026495820992
 20
-3.067114822787971
 30
0.0
 10
0.4197790483382025
 20
-3.060379997156259
 30
0.0
 10
0.4096101284486874
 20
-3.051466911089113
 30
0.0
 10
0.3994523221327881
 20
-3.042487143580122
 30
0.0
 10
0.3892834022432478
 20
-3.033462921776491
 30
0.0
 10
0.3695790361622105
 20
-3.016036838293631
 30
0.0
 10
0.3597212963348713
 20
-2.995343364157734
 30
0.0
 10
0.3597212963348713
 20
-2.971382499368903
 30
0.0
 10
0.3597212963348713
 20
-2.946376958656881
 30
0.0
 10
0.3690566982006658
 20
-2.927461656304987
 30
0.0
 10
0.3877275019322799
 20
-2.914592138018532
 30
0.0
 10
0.4040088873291931
 20
-2.903389655779569
 30
0.0
 10
0.4256914695199107
 20
-2.897788414660099
 30
0.0
 10
0.4527641349307285
 20
-2.897788414660099
 30
0.0
 10
0.4681119801410887
 20
-2.897788414660099
 30
0.0
 10
0.485338019298221
 20
-2.900011129390046
 30
0.0
 10
0.5044200252548686
 20
-2.904478785997273
 30
0.0
 10
0.5044200252548686
 20
-2.904478785997273
 30
0.0
 10
0.5090877261877722
 20
-3.002033735494933
 30
0.0
 10
0.5090877261877722
 20
-3.002033735494933
 30
0.0
  0
HATCH
  5
B2
330
AD
100
AcDbEntity
  8
Text
 62
   110
420
    65410
440
 33554687
100
AcDbHatch
 10
0.0
 20
0.0
 30
0.0
210
0.0
220
0.0
230
1.0
  2
SOLID
 70
     1
 71
     1
 91
        1
 92
        1
 93
        1
 72
     4
 94
        3
 73
     0
 74
     0
 95
       62
 96
       58
 40
0.0
 40
0.0
 40
0.0
 40
0.0
 40
1.0
 40
1.0
 40
1.0
 40
2.0
 40
2.0
 40
2.0
 40
3.0
 40
3.0
 40
3.0
 40
4.0
 40
4.0
 40
4.0
 40
5.0
 40
5.0
 40
5.0
 40
6.0
 40
6.0
 40
6.0
 40
7.0
 40
7.0
 40
7.0
 40
8.0
 40
8.0
 40
8.0
 40
9.0
 40
9.0
 40
9.0
 40
10.0
 40
10.0
 40
10.0
 40
11.0
 40
11.0
 40
11.0
 40
12.0
 40
12.0
 40
12.0
 40
13.0
 40
13.0
 40
13.0
 40
14.0
 40
14.0
 40
14.0
 40
15.0
 40
15.0
 40
15.0
 40
16.0
 40
16.0
 40
16.0
 40
17.0
 40
17.0
 40
17.0
 40
18.0
 40
18.0
 40
18.0
 40
19.0
 40
19.0
 40
19.0
 40
19.0
 10
0.5090877261877722
 20
-3.002033735494933
 10
0.5014082467957906
 20
-3.000277790858288
 10
0.4956069613506063
 20
-2.999388704966299
 10
0.4916616427049247
 20
-2.999388704966299
 10
0.4867827838726777
 20
-2.999388704966299
 10
0.4823262408391303
 20
-3.001055741013715
 10
0.4782809000306038
 20
-3.004367585961391
 10
0.4734020411983693
 20
-3.008412926769879
 10
0.4709681685690789
 20
-3.013658533532583
 10
0.4709681685690789
 20
-3.02008217910217
 10
0.4709681685690789
 20
-3.025061060097236
 10
0.4754247116026136
 20
-3.034663187730656
 10
0.4843489112433872
 20
-3.048866334855094
 10
0.4932731108841609
 20
-3.063069481979431
 10
0.4977296539177208
 20
-3.076139044591577
 10
0.4977296539177208
 20
-3.088075022691479
 10
0.4977296539177208
 20
-3.105389970437802
 10
0.4911393047433927
 20
-3.119615344709497
 10
0.4779697199684279
 20
-3.13070669121195
 10
0.4654224953178402
 20
-3.141397949063022
 10
0.4499079465027383
 20
-3.146732464414981
 10
0.4314483006704803
 20
-3.146732464414981
 10
0.4144334194126789
 20
-3.146732464414981
 10
0.4018861947621038
 20
-3.14553219846074
 10
0.3937955131450761
 20
-3.143153893699718
 10
0.3928619729584852
 20
-3.138375057030316
 10
0.3912505047792618
 20
-3.130595555475489
 10
0.3889722221810592
 20
-3.119815389035188
 10
0.3875163440329364
 20
-3.114014103590003
 10
0.3854936736286668
 20
-3.106279056329766
 10
0.3829042109682885
 20
-3.096632474401783
 10
0.3943178511066081
 20
-3.099433094961518
 10
0.4019862169249361
 20
-3.100833405241397
 10
0.4059315355706178
 20
-3.100833405241397
 10
0.4213905165174386
 20
-3.100833405241397
 10
0.4291144502040348
 20
-3.094965438354291
 10
0.4291144502040348
 20
-3.083251731727462
 10
0.4291144502040348
 20
-3.074738734311747
 10
0.4260026495820992
 20
-3.067114822787971
 10
0.4197790483382025
 20
-3.060379997156259
 10
0.4096101284486874
 20
-3.051466911089113
 10
0.3994523221327881
 20
-3.042487143580122
 10
0.3892834022432478
 20
-3.033462921776491
 10
0.3695790361622105
 20
-3.016036838293631
 10
0.3597212963348713
 20
-2.995343364157734
 10
0.3597212963348713
 20
-2.971382499368903
 10
0.3597212963348713
 20
-2.946376958656881
 10
0.3690566982006658
 20
-2.927461656304987
 10
0.3877275019322799
 20
-2.914592138018532
 10
0.4040088873291931
 20
-2.903389655779569
 10
0.4256914695199107
 20
-2.897788414660099
 10
0.4527641349307285
 20
-2.897788414660099
 10
0.4681119801410887
 20
-2.897788414660099
 10
0.485338019298221
 20
-2.900011129390046
 10
0.5044200252548686
 20
-2.904478785997273
 10
0.5044200252548686
 20
-2.904478785997273
 10
0.5090877261877722
 20
-3.002033735494933
 10
0.5090877261877722
 20
-3.002033735494933
 97
        0
 97
        1
330
B1
 75
     2
 76
     1
 98
        1
 10
0.0
 20
0.0
450
        0
451
        0
460
0.0
461
0.0
452
        0
462
0.0
453
        0
470

  0
SPLINE
  5
B3
330
AD
100
AcDbEntity
  8
Text
100
AcDbSpline
210
0.0
220
0.0
230
1.0
 70
     9
 71
     3
 72
    50
 73
    46
 74
     0
 42
0.0000000001
 43
0.0000000001
 40
0.0
 40
0.0
 40
0.0
 40
0.0
 40
1.0
 40
1.0
 40
1.0
 40
2.0
 40
2.0
 40
2.0
 40
3.0
 40
3.0
 40
3.0
 40
4.0
 40
4.0
 40
4.0
 40
5.0
 40
5.0
 40
5.0
 40
6.0
 40
6.0
 40
6.0
 40
7.0
 40
7.0
 40
7.0
 40
8.0
 40
8.0
 40
8.0
 40
9.0
 40
9.0
 40
9.0
 40
10.0
 40
10.0
 40
10.0
 40
11.0
 40
11.0
 40
11.0
 40
12.0
 40
12.0
 40
12.0
 40
13.0
 40
13.0
 40
13.0
 40
14.0
 40
14.0
 40
14.0
 40
15.0
 40
15.0
 40
15.0
 40
15.0
 10
0.6970404837526809
 20
-3.002033735494933
 30
0.0
 10
0.6913392204703415
 20
-3.000277790858288
 30
0.0
 10
0.6840264890087913
 20
-2.999388704966299
 30
0.0
 10
0.675102289368043
 20
-2.999388704966299
 30
0.0
 10
0.6585097239089288
 20
-2.999388704966299
 30
0.0
 10
0.6450178454980965
 20
-3.003745225837014
 30
0.0
 10
0.6346488812828662
 20
-3.012458267578419
 30
0.0
 10
0.6229240610823455
 20
-3.022215985242887
 30
0.0
 10
0.6170672077689308
 20
-3.03626354233625
 30
0.0
 10
0.6170672077689308
 20
-3.054623166005613
 30
0.0
 10
0.6170672077689308
 20
-3.068937448866538
 30
0.0
 10
0.6217126815545396
 20
-3.080695609788032
 30
0.0
 10
0.6309925155521038
 20
-3.089853194475406
 30
0.0
 10
0.640272349549668
 20
-3.099055233457395
 30
0.0
 10
0.6524417126961578
 20
-3.103634025801157
 30
0.0
 10
0.6674783778442917
 20
-3.103634025801157
 30
0.0
 10
0.6777473198966643
 20
-3.103634025801157
 30
0.0
 10
0.6874939239875049
 20
-3.101100131009009
 30
0.0
 10
0.6967293036904796
 20
-3.096010114277406
 30
0.0
 10
0.6956957413410566
 20
-3.10025549941161
 30
0.0
 10
0.6939286831307578
 20
-3.108101682408333
 30
0.0
 10
0.6914392426331865
 20
-3.119504208973012
 30
0.0
 10
0.6899833644850635
 20
-3.127083666202148
 30
0.0
 10
0.6885830542051963
 20
-3.134952076346179
 30
0.0
 10
0.687238311793572
 20
-3.143153893699718
 30
0.0
 10
0.6756246273295625
 20
-3.147621550306919
 30
0.0
 10
0.6607324386388756
 20
-3.149844265036891
 30
0.0
 10
0.6425839728687935
 20
-3.149844265036891
 30
0.0
 10
0.6096989084391251
 20
-3.149844265036891
 30
0.0
 10
0.5815926806788588
 20
-3.138797372829003
 30
0.0
 10
0.5582541760143537
 20
-3.116703588413252
 30
0.0
 10
0.5329485688138221
 20
-3.092631587887858
 30
0.0
 10
0.5202902084267482
 20
-3.061313537342786
 30
0.0
 10
0.5202902084267482
 20
-3.022727209630804
 30
0.0
 10
0.5202902084267482
 20
-2.987052638215042
 30
0.0
 10
0.5311815106035233
 20
-2.958201801020246
 30
0.0
 10
0.5529641149570605
 20
-2.936219152341007
 30
0.0
 10
0.5762025974587333
 20
-2.912769511939965
 30
0.0
 10
0.6082985981592703
 20
-2.90105580531311
 30
0.0
 10
0.6492743442059666
 20
-2.90105580531311
 30
0.0
 10
0.6689787102870165
 20
-2.90105580531311
 30
0.0
 10
0.6832485388533011
 20
-2.902189389825378
 30
0.0
 10
0.6920616027575635
 20
-2.904478785997273
 30
0.0
 10
0.6920616027575635
 20
-2.904478785997273
 30
0.0
 10
0.6970404837526809
 20
-3.002033735494933
 30
0.0
 10
0.6970404837526809
 20
-3.002033735494933
 30
0.0
  0
HATCH
  5
B4
330
AD
100
AcDbEntity
  8
Text
 62
   110
420
    65410
440
 33554687
100
AcDbHatch
 10
0.0
 20
0.0
 30
0.0
210
0.0
220
0.0
230
1.0
  2
SOLID
 70
     1
 71
     1
 91
        1
 92
        1
 93
        1
 72
     4
 94
        3
 73
     0
 74
     0
 95
       50
 96
       46
 40
0.0
 40
0.0
 40
0.0
 40
0.0
 40
1.0
 40
1.0
 40
1.0
 40
2.0
 40
2.0
 40
2.0
 40
3.0
 40
3.0
 40
3.0
 40
4.0
 40
4.0
 40
4.0
 40
5.0
 40
5.0
 40
5.0
 40
6.0
 40
6.0
 40
6.0
 40
7.0
 40
7.0
 40
7.0
 40
8.0
 40
8.0
 40
8.0
 40
9.0
 40
9.0
 40
9.0
 40
10.0
 40
10.0
 40
10.0
 40
11.0
 40
11.0
 40
11.0
 40
12.0
 40
12.0
 40
12.0
 40
13.0
 40
13.0
 40
13.0
 40
14.0
 40
14.0
 40
14.0
 40
15.0
 40
15.0
 40
15.0
 40
15.0
 10
0.6970404837526809
 20
-3.002033735494933
 10
0.6913392204703415
 20
-3.000277790858288
 10
0.6840264890087913
 20
-2.999388704966299
 10
0.675102289368043
 20
-2.999388704966299
 10
0.6585097239089288
 20
-2.999388704966299
 10
0.6450178454980965
 20
-3.003745225837014
 10
0.6346488812828662
 20
-3.012458267578419
 10
0.6229240610823455
 20
-3.022215985242887
 10
0.6170672077689308
 20
-3.03626354233625
 10
0.6170672077689308
 20
-3.054623166005613
 10
0.6170672077689308
 20
-3.068937448866538
 10
0.6217126815545396
 20
-3.080695609788032
 10
0.6309925155521038
 20
-3.089853194475406
 10
0.640272349549668
 20
-3.099055233457395
 10
0.6524417126961578
 20
-3.103634025801157
 10
0.6674783778442917
 20
-3.103634025801157
 10
0.6777473198966643
 20
-3.103634025801157
 10
0.6874939239875049
 20
-3.101100131009009
 10
0.6967293036904796
 20
-3.096010114277406
 10
0.6956957413410566
 20
-3.10025549941161
 10
0.6939286831307578
 20
-3.108101682408333
 10
0.6914392426331865
 20
-3.119504208973012
 10
0.6899833644850635
 20
-3.127083666202148
 10
0.6885830542051963
 20
-3.134952076346179
 10
0.687238311793572
 20
-3.143153893699718
 10
0.6756246273295625
 20
-3.147621550306919
 10
0.6607324386388756
 20
-3.149844265036891
 10
0.6425839728687935
 20
-3.149844265036891
 10
0.6096989084391251
 20
-3.149844265036891
 10
0.5815926806788588
 20
-3.138797372829003
 10
0.5582541760143537
 20
-3.116703588413252
 10
0.5329485688138221
 20
-3.092631587887858
 10
0.5202902084267482
 20
-3.061313537342786
 10
0.5202902084267482
 20
-3.022727209630804
 10
0.5202902084267482
 20
-2.987052638215042
 10
0.5311815106035233
 20
-2.958201801020246
 10
0.5529641149570605
 20
-2.936219152341007
 10
0.5762025974587333
 20
-2.912769511939965
 10
0.6082985981592703
 20
-2.90105580531311
 10
0.6492743442059666
 20
-2.90105580531311
 10
0.6689787102870165
 20
-2.90105580531311
 10
0.6832485388533011
 20
-2.902189389825378
 10
0.6920616027575635
 20
-2.904478785997273
 10
0.6920616027575635
 20
-2.904478785997273
 10
0.6970404837526809
 20
-3.002033735494933
 10
0.6970404837526809
 20
-3.002033735494933
 97
        0
 97
        1
330
B3
 75
     2
 76
     1
 98
        1
 10
0.0
 20
0.0
450
        0
451
        0
460
0.0
461
0.0
452
        0
462
0.0
453
        0
470

  0
SPLINE
  5
B5
330
AD
100
AcDbEntity
  8
Text
100
AcDbSpline
210
0.0
220
0.0
230
1.0
 70
     9
 71
     3
 72
    59
 73
    55
 74
     0
 42
0.0000000001
 43
0.0000000001
 40
0.0
 40
0.0
 40
0.0
 40
0.0
 40
1.0
 40
1.0
 40
1.0
 40
2.0
 40
2.0
 40
2.0
 40
3.0
 40
3.0
 40
3.0
 40
4.0
 40
4.0
 40
4.0
 40
5.0
 40
5.0
 40
5.0
 40
6.0
 40
6.0
 40
6.0
 40
7.0
 40
7.0
 40
7.0
 40
8.0
 40
8.0
 40
8.0
 40
9.0
 40
9.0
 40
9.0
 40
10.0
 40
10.0
 40
10.0
 40
11.0
 40
11.0
 40
11.0
 40
12.0
 40
12.0
 40
12.0
 40
13.0
 40
13.0
 40
13.0
 40
14.0
 40
14.0
 40
14.0
 40
15.0
 40
15.0
 40
15.0
 40
16.0
 40
16.0
 40
16.0
 40
17.0
 40
17.0
 40
17.0
 40
18.0
 40
18.0
 40
18.0
 40
18.0
 10
0.9456733534453102
 20
-2.904167605935046
 30
0.0
 10
0.9439062952349988
 20
-2.929684371034934
 30
0.0
 10
0.9415724447685533
 20
-2.971226909337751
 30
0.0
 10
0.9386718020459486
 20
-3.028795220843575
 30
0.0
 10
0.9378382840222279
 20
-3.056179066316619
 30
0.0
 10
0.9363935194477587
 20
-3.094298623935325
 30
0.0
 10
0.9343152811752588
 20
-3.143153893699718
 30
0.0
 10
0.9343152811752588
 20
-3.143153893699718
 30
0.0
 10
0.8549643653158984
 20
-3.143153893699718
 30
0.0
 10
0.8549643653158984
 20
-3.143153893699718
 30
0.0
 10
0.8549643653158984
 20
-3.143153893699718
 30
0.0
 10
0.85325287497383
 20
-3.090875643251163
 30
0.0
 10
0.85325287497383
 20
-3.090875643251163
 30
0.0
 10
0.8513857946006737
 20
-3.09149800337559
 30
0.0
 10
0.8475960659861053
 20
-3.093009449391956
 30
0.0
 10
0.8418948027037787
 20
-3.095387754152978
 30
0.0
 10
0.8351488634983752
 20
-3.098299510449249
 30
0.0
 10
0.830381140402614
 20
-3.100633360915708
 30
0.0
 10
0.8275805198428795
 20
-3.102389305552353
 30
0.0
 10
0.8275805198428795
 20
-3.102389305552353
 30
0.0
 10
0.8194898382258518
 20
-3.083251731727462
 30
0.0
 10
0.8194898382258518
 20
-3.083251731727462
 30
0.0
 10
0.8178339157520136
 20
-3.079095255182437
 30
0.0
 10
0.815077749486881
 20
-3.073249515442638
 30
0.0
 10
0.8112435665777233
 20
-3.065670058213552
 30
0.0
 10
0.8112435665777233
 20
-3.065670058213552
 30
0.0
 10
0.809687666266743
 20
-3.143153893699718
 30
0.0
 10
0.809687666266743
 20
-3.143153893699718
 30
0.0
 10
0.809687666266743
 20
-3.143153893699718
 30
0.0
 10
0.7220904787592543
 20
-3.143153893699718
 30
0.0
 10
0.7220904787592543
 20
-3.143153893699718
 30
0.0
 10
0.7220904787592543
 20
-3.143153893699718
 30
0.0
 10
0.7175783678574513
 20
-3.028795220843575
 30
0.0
 10
0.7175783678574513
 20
-3.028795220843575
 30
0.0
 10
0.7166448276708858
 20
-2.999033070609483
 30
0.0
 10
0.7143109772044278
 20
-2.957490532306665
 30
0.0
 10
0.7105768164580897
 20
-2.904167605935046
 30
0.0
 10
0.7105768164580897
 20
-2.904167605935046
 30
0.0
 10
0.8198010182880276
 20
-2.904167605935046
 30
0.0
 10
0.8198010182880276
 20
-2.904167605935046
 30
0.0
 10
0.8198010182880276
 20
-2.904167605935046
 30
0.0
 10
0.8124882868264901
 20
-3.051355775352602
 30
0.0
 10
0.8124882868264901
 20
-3.051355775352602
 30
0.0
 10
0.8200566304819732
 20
-3.05208927121349
 30
0.0
 10
0.8273249076489213
 20
-3.052289315539181
 30
0.0
 10
0.8342708911800148
 20
-3.051978135476979
 30
0.0
 10
0.8387274342135746
 20
-3.051866999740518
 30
0.0
 10
0.8447509911317562
 20
-3.051466911089113
 30
0.0
 10
0.8523193347872519
 20
-3.050733415228225
 30
0.0
 10
0.8523193347872519
 20
-3.050733415228225
 30
0.0
 10
0.8443842432013246
 20
-2.904167605935046
 30
0.0
 10
0.8443842432013246
 20
-2.904167605935046
 30
0.0
 10
0.8443842432013246
 20
-2.904167605935046
 30
0.0
 10
0.9456733534453102
 20
-2.904167605935046
 30
0.0
 10
0.9456733534453102
 20
-2.904167605935046
 30
0.0
  0
HATCH
  5
B6
330
AD
100
AcDbEntity
  8
Text
 62
   110
420
    65410
440
 33554687
100
AcDbHatch
 10
0.0
 20
0.0
 30
0.0
210
0.0
220
0.0
230
1.0
  2
SOLID
 70
     1
 71
     1
 91
        1
 92
        1
 93
        1
 72
     4
 94
        3
 73
     0
 74
     0
 95
       59
 96
       55
 40
0.0
 40
0.0
 40
0.0
 40
0.0
 40
1.0
 40
1.0
 40
1.0
 40
2.0
 40
2.0
 40
2.0
 40
3.0
 40
3.0
 40
3.0
 40
4.0
 40
4.0
 40
4.0
 40
5.0
 40
5.0
 40
5.0
 40
6.0
 40
6.0
 40
6.0
 40
7.0
 40
7.0
 40
7.0
 40
8.0
 40
8.0
 40
8.0
 40
9.0
 40
9.0
 40
9.0
 40
10.0
 40
10.0
 40
10.0
 40
11.0
 40
11.0
 40
11.0
 40
12.0
 40
12.0
 40
12.0
 40
13.0
 40
13.0
 40
13.0
 40
14.0
 40
14.0
 40
14.0
 40
15.0
 40
15.0
 40
15.0
 40
16.0
 40
16.0
 40
16.0
 40
17.0
 40
17.0
 40
17.0
 40
18.0
 40
18.0
 40
18.0
 40
18.0
 10
0.9456733534453102
 20
-2.904167605935046
 10
0.9439062952349988
 20
-2.929684371034934
 10
0.9415724447685533
 20
-2.971226909337751
 10
0.9386718020459486
 20
-3.028795220843575
 10
0.9378382840222279
 20
-3.056179066316619
 10
0.9363935194477587
 20
-3.094298623935325
 10
0.9343152811752588
 20
-3.143153893699718
 10
0.9343152811752588
 20
-3.143153893699718
 10
0.8549643653158984
 20
-3.143153893699718
 10
0.8549643653158984
 20
-3.143153893699718
 10
0.8549643653158984
 20
-3.143153893699718
 10
0.85325287497383
 20
-3.090875643251163
 10
0.85325287497383
 20
-3.090875643251163
 10
0.8513857946006737
 20
-3.09149800337559
 10
0.8475960659861053
 20
-3.093009449391956
 10
0.8418948027037787
 20
-3.095387754152978
 10
0.8351488634983752
 20
-3.098299510449249
 10
0.830381140402614
 20
-3.100633360915708
 10
0.8275805198428795
 20
-3.102389305552353
 10
0.8275805198428795
 20
-3.102389305552353
 10
0.8194898382258518
 20
-3.083251731727462
 10
0.8194898382258518
 20
-3.083251731727462
 10
0.8178339157520136
 20
-3.079095255182437
 10
0.815077749486881
 20
-3.073249515442638
 10
0.8112435665777233
 20
-3.065670058213552
 10
0.8112435665777233
 20
-3.065670058213552
 10
0.809687666266743
 20
-3.143153893699718
 10
0.809687666266743
 20
-3.143153893699718
 10
0.809687666266743
 20
-3.143153893699718
 10
0.7220904787592543
 20
-3.143153893699718
 10
0.7220904787592543
 20
-3.143153893699718
 10
0.7220904787592543
 20
-3.143153893699718
 10
0.7175783678574513
 20
-3.028795220843575
 10
0.7175783678574513
 20
-3.028795220843575
 10
0.7166448276708858
 20
-2.999033070609483
 10
0.7143109772044278
 20
-2.957490532306665
 10
0.7105768164580897
 20
-2.904167605935046
 10
0.7105768164580897
 20
-2.904167605935046
 10
0.8198010182880276
 20
-2.904167605935046
 10
0.8198010182880276
 20
-2.904167605935046
 10
0.8198010182880276
 20
-2.904167605935046
 10
0.8124882868264901
 20
-3.051355775352602
 10
0.8124882868264901
 20
-3.051355775352602
 10
0.8200566304819732
 20
-3.05208927121349
 10
0.8273249076489213
 20
-3.052289315539181
 10
0.8342708911800148
 20
-3.051978135476979
 10
0.8387274342135746
 20
-3.051866999740518
 10
0.8447509911317562
 20
-3.051466911089113
 10
0.8523193347872519
 20
-3.050733415228225
 10
0.8523193347872519
 20
-3.050733415228225
 10
0.8443842432013246
 20
-2.904167605935046
 10
0.8443842432013246
 20
-2.904167605935046
 10
0.8443842432013246
 20
-2.904167605935046
 10
0.9456733534453102
 20
-2.904167605935046
 10
0.9456733534453102
 20
-2.904167605935046
 97
        0
 97
        1
330
B5
 75
     2
 76
     1
 98
        1
 10
0.0
 20
0.0
450
        0
451
        0
460
0.0
461
0.0
452
        0
462
0.0
453
        0
470

  0
SPLINE
  5
B7
330
AD
100
AcDbEntity
  8
Text
100
AcDbSpline
210
0.0
220
0.0
230
1.0
 70
     9
 71
     3
 72
    23
 73
    19
 74
     0
 42
0.0000000001
 43
0.0000000001
 40
0.0
 40
0.0
 40
0.0
 40
0.0
 40
1.0
 40
1.0
 40
1.0
 40
2.0
 40
2.0
 40
2.0
 40
3.0
 40
3.0
 40
3.0
 40
4.0
 40
4.0
 40
4.0
 40
5.0
 40
5.0
 40
5.0
 40
6.0
 40
6.0
 40
6.0
 40
6.0
 10
1.092239162738451
 20
-3.045910124264234
 30
0.0
 10
1.092239162738451
 20
-3.01708151421672
 30
0.0
 10
1.082492558647623
 20
-3.002656095619335
 30
0.0
 10
1.062988236892313
 20
-3.002656095619335
 30
0.0
 10
1.044006253098473
 20
-3.002656095619335
 30
0.0
 10
1.034515261201578
 20
-3.017170422805924
 30
0.0
 10
1.034515261201578
 20
-3.046221304326435
 30
0.0
 10
1.034515261201578
 20
-3.057846102364085
 30
0.0
 10
1.037004701699136
 20
-3.068670723098951
 30
0.0
 10
1.041983582694254
 20
-3.078739620825672
 30
0.0
 10
1.04758482381371
 20
-3.090053238801121
 30
0.0
 10
1.054486353050239
 20
-3.095698934215205
 30
0.0
 10
1.062677056830087
 20
-3.095698934215205
 30
0.0
 10
1.07066771628427
 20
-3.095698934215205
 30
0.0
 10
1.077713721978271
 20
-3.089942103064585
 30
0.0
 10
1.083837301059273
 20
-3.078428440763471
 30
0.0
 10
1.089438542178767
 20
-3.06795945438537
 30
0.0
 10
1.092239162738451
 20
-3.057112606503197
 30
0.0
 10
1.092239162738451
 20
-3.045910124264234
 30
0.0
  0
SPLINE
  5
B8
330
AD
100
AcDbEntity
  8
Text
100
AcDbSpline
210
0.0
220
0.0
230
1.0
 70
     9
 71
     3
 72
    29
 73
    25
 74
     0
 42
0.0000000001
 43
0.0000000001
 40
0.0
 40
0.0
 40
0.0
 40
0.0
 40
1.0
 40
1.0
 40
1.0
 40
2.0
 40
2.0
 40
2.0
 40
3.0
 40
3.0
 40
3.0
 40
4.0
 40
4.0
 40
4.0
 40
5.0
 40
5.0
 40
5.0
 40
6.0
 40
6.0
 40
6.0
 40
7.0
 40
7.0
 40
7.0
 40
8.0
 40
8.0
 40
8.0
 40
8.0
 10
1.167077967696033
 20
-3.018526278791189
 30
0.0
 10
1.167077967696033
 20
-3.05513439039353
 30
0.0
 10
1.157631430093715
 20
-3.086096806581786
 30
0.0
 10
1.138760582036436
 20
-3.111413527355959
 30
0.0
 10
1.118945080218862
 20
-3.137863832642399
 30
0.0
 10
1.0935839051501
 20
-3.151088985285645
 30
0.0
 10
1.062677056830087
 20
-3.151088985285645
 30
0.0
 10
1.030836668323495
 20
-3.151088985285645
 30
0.0
 10
1.005053177456034
 20
-3.137752696905913
 30
0.0
 10
0.9853488113750092
 20
-3.111102347293783
 30
0.0
 10
0.9667780298062274
 20
-3.086007897992582
 30
0.0
 10
0.9574981958086633
 20
-3.05513439039353
 30
0.0
 10
0.9574981958086633
 20
-3.018526278791189
 30
0.0
 10
0.9574981958086633
 20
-2.979428726691316
 30
0.0
 10
0.9676115478299733
 20
-2.948710809123339
 30
0.0
 10
0.9878382518725427
 20
-2.926416980381898
 30
0.0
 10
1.006920257829202
 20
-2.905456780478415
 30
0.0
 10
1.031870230672931
 20
-2.894987794100365
 30
0.0
 10
1.062677056830087
 20
-2.894987794100365
 30
0.0
 10
1.092961545025723
 20
-2.894987794100365
 30
0.0
 10
1.117655905675494
 20
-2.905523461920337
 30
0.0
 10
1.136737911632154
 20
-2.926572570413024
 30
0.0
 10
1.156964615674749
 20
-2.94897753489095
 30
0.0
 10
1.167077967696033
 20
-2.979628771017031
 30
0.0
 10
1.167077967696033
 20
-3.018526278791189
 30
0.0
  0
HATCH
  5
B9
330
AD
100
AcDbEntity
  8
Text
 62
   110
420
    65410
440
 33554687
100
AcDbHatch
 10
0.0
 20
0.0
 30
0.0
210
0.0
220
0.0
230
1.0
  2
SOLID
 70
     1
 71
     1
 91
        2
 92
        1
 93
        1
 72
     4
 94
        3
 73
     0
 74
     0
 95
       23
 96
       19
 40
0.0
 40
0.0
 40
0.0
 40
0.0
 40
1.0
 40
1.0
 40
1.0
 40
2.0
 40
2.0
 40
2.0
 40
3.0
 40
3.0
 40
3.0
 40
4.0
 40
4.0
 40
4.0
 40
5.0
 40
5.0
 40
5.0
 40
6.0
 40
6.0
 40
6.0
 40
6.0
 10
1.092239162738451
 20
-3.045910124264234
 10
1.092239162738451
 20
-3.01708151421672
 10
1.082492558647623
 20
-3.002656095619335
 10
1.062988236892313
 20
-3.002656095619335
 10
1.044006253098473
 20
-3.002656095619335
 10
1.034515261201578
 20
-3.017170422805924
 10
1.034515261201578
 20
-3.046221304326435
 10
1.034515261201578
 20
-3.057846102364085
 10
1.037004701699136
 20
-3.068670723098951
 10
1.041983582694254
 20
-3.078739620825672
 10
1.04758482381371
 20
-3.090053238801121
 10
1.054486353050239
 20
-3.095698934215205
 10
1.062677056830087
 20
-3.095698934215205
 10
1.07066771628427
 20
-3.095698934215205
 10
1.077713721978271
 20
-3.089942103064585
 10
1.083837301059273
 20
-3.078428440763471
 10
1.089438542178767
 20
-3.06795945438537
 10
1.092239162738451
 20
-3.057112606503197
 10
1.092239162738451
 20
-3.045910124264234
 97
        0
 97
        1
330
B7
 92
        1
 93
        1
 72
     4
 94
        3
 73
     0
 74
     0
 95
       29
 96
       25
 40
0.0
 40
0.0
 40
0.0
 40
0.0
 40
1.0
 40
1.0
 40
1.0
 40
2.0
 40
2.0
 40
2.0
 40
3.0
 40
3.0
 40
3.0
 40
4.0
 40
4.0
 40
4.0
 40
5.0
 40
5.0
 40
5.0
 40
6.0
 40
6.0
 40
6.0
 40
7.0
 40
7.0
 40
7.0
 40
8.0
 40
8.0
 40
8.0
 40
8.0
 10
1.167077967696033
 20
-3.018526278791189
 10
1.167077967696033
 20
-3.05513439039353
 10
1.157631430093715
 20
-3.086096806581786
 10
1.138760582036436
 20
-3.111413527355959
 10
1.118945080218862
 20
-3.137863832642399
 10
1.0935839051501
 20
-3.151088985285645
 10
1.062677056830087
 20
-3.151088985285645
 10
1.030836668323495
 20
-3.151088985285645
 10
1.005053177456034
 20
-3.137752696905913
 10
0.9853488113750092
 20
-3.111102347293783
 10
0.9667780298062274
 20
-3.086007897992582
 10
0.9574981958086633
 20
-3.05513439039353
 10
0.9574981958086633
 20
-3.018526278791189
 10
0.9574981958086633
 20
-2.979428726691316
 10
0.9676115478299733
 20
-2.948710809123339
 10
0.9878382518725427
 20
-2.926416980381898
 10
1.006920257829202
 20
-2.905456780478415
 10
1.031870230672931
 20
-2.894987794100365
 10
1.062677056830087
 20
-2.894987794100365
 10
1.092961545025723
 20
-2.894987794100365
 10
1.117655905675494
 20
-2.905523461920337
 10
1.136737911632154
 20
-2.926572570413024
 10
1.156964615674749
 20
-2.94897753489095
 10
1.167077967696033
 20
-2.979628771017031
 10
1.167077967696033
 20
-3.018526278791189
 97
        0
 97
        1
330
B8
 75
     2
 76
     1
 98
        1
 10
0.0
 20
0.0
450
        0
451
        0
460
0.0
461
0.0
452
        0
462
0.0
453
        0
470

  0
SPLINE
  5
BA
330
AD
100
AcDbEntity
  8
Text
100
AcDbSpline
210
0.0
220
0.0
230
1.0
 70
     9
 71
     3
 72
    23
 73
    19
 74
     0
 42
0.0000000001
 43
0.0000000001
 40
0.0
 40
0.0
 40
0.0
 40
0.0
 40
1.0
 40
1.0
 40
1.0
 40
2.0
 40
2.0
 40
2.0
 40
3.0
 40
3.0
 40
3.0
 40
4.0
 40
4.0
 40
4.0
 40
5.0
 40
5.0
 40
5.0
 40
6.0
 40
6.0
 40
6.0
 40
6.0
 10
1.312710236802609
 20
-3.045910124264234
 30
0.0
 10
1.312710236802609
 20
-3.01708151421672
 30
0.0
 10
1.302952519138115
 20
-3.002656095619335
 30
0.0
 10
1.283459310956434
 20
-3.002656095619335
 30
0.0
 10
1.264477327162618
 20
-3.002656095619335
 30
0.0
 10
1.254986335265685
 20
-3.017170422805924
 30
0.0
 10
1.254986335265685
 20
-3.046221304326435
 30
0.0
 10
1.254986335265685
 20
-3.057846102364085
 30
0.0
 10
1.257475775763269
 20
-3.068670723098951
 30
0.0
 10
1.262454656758361
 20
-3.078739620825672
 30
0.0
 10
1.26805589787783
 20
-3.090053238801121
 30
0.0
 10
1.274946313540693
 20
-3.095698934215205
 30
0.0
 10
1.283148130894258
 20
-3.095698934215205
 30
0.0
 10
1.291127676774774
 20
-3.095698934215205
 30
0.0
 10
1.298173682468713
 20
-3.089942103064585
 30
0.0
 10
1.30430837512338
 20
-3.078428440763471
 30
0.0
 10
1.309909616242874
 20
-3.06795945438537
 30
0.0
 10
1.312710236802609
 20
-3.057112606503197
 30
0.0
 10
1.312710236802609
 20
-3.045910124264234
 30
0.0
  0
SPLINE
  5
BB
330
AD
100
AcDbEntity
  8
Text
100
AcDbSpline
210
0.0
220
0.0
230
1.0
 70
     9
 71
     3
 72
    29
 73
    25
 74
     0
 42
0.0000000001
 43
0.0000000001
 40
0.0
 40
0.0
 40
0.0
 40
0.0
 40
1.0
 40
1.0
 40
1.0
 40
2.0
 40
2.0
 40
2.0
 40
3.0
 40
3.0
 40
3.0
 40
4.0
 40
4.0
 40
4.0
 40
5.0
 40
5.0
 40
5.0
 40
6.0
 40
6.0
 40
6.0
 40
7.0
 40
7.0
 40
7.0
 40
8.0
 40
8.0
 40
8.0
 40
8.0
 10
1.387549041760141
 20
-3.018526278791189
 30
0.0
 10
1.387549041760141
 20
-3.05513439039353
 30
0.0
 10
1.378102504157873
 20
-3.086096806581786
 30
0.0
 10
1.359231656100569
 20
-3.111413527355959
 30
0.0
 10
1.339405040709354
 20
-3.137863832642399
 30
0.0
 10
1.314043865640592
 20
-3.151088985285645
 30
0.0
 10
1.283148130894258
 20
-3.151088985285645
 30
0.0
 10
1.251296628813987
 20
-3.151088985285645
 30
0.0
 10
1.225513137946513
 20
-3.137752696905913
 30
0.0
 10
1.205819885439142
 20
-3.111102347293783
 30
0.0
 10
1.187237990296681
 20
-3.086007897992582
 30
0.0
 10
1.177969269872796
 20
-3.05513439039353
 30
0.0
 10
1.177969269872796
 20
-3.018526278791189
 30
0.0
 10
1.177969269872796
 20
-2.979428726691316
 30
0.0
 10
1.188082621894055
 20
-2.948710809123339
 30
0.0
 10
1.20830932593665
 20
-2.926416980381898
 30
0.0
 10
1.227380218319669
 20
-2.905456780478415
 30
0.0
 10
1.252341304737051
 20
-2.894987794100365
 30
0.0
 10
1.283148130894258
 20
-2.894987794100365
 30
0.0
 10
1.313421505516165
 20
-2.894987794100365
 30
0.0
 10
1.338115866166036
 20
-2.905523461920337
 30
0.0
 10
1.357208985696287
 20
-2.926572570413024
 30
0.0
 10
1.377435689738881
 20
-2.94897753489095
 30
0.0
 10
1.387549041760141
 20
-2.979628771017031
 30
0.0
 10
1.387549041760141
 20
-3.018526278791189
 30
0.0
  0
HATCH
  5
BC
330
AD
100
AcDbEntity
  8
Text
 62
   110
420
    65410
440
 33554687
100
AcDbHatch
 10
0.0
 20
0.0
 30
0.0
210
0.0
220
0.0
230
1.0
  2
SOLID
 70
     1
 71
     1
 91
        2
 92
        1
 93
        1
 72
     4
 94
        3
 73
     0
 74
     0
 95
       23
 96
       19
 40
0.0
 40
0.0
 40
0.0
 40
0.0
 40
1.0
 40
1.0
 40
1.0
 40
2.0
 40
2.0
 40
2.0
 40
3.0
 40
3.0
 40
3.0
 40
4.0
 40
4.0
 40
4.0
 40
5.0
 40
5.0
 40
5.0
 40
6.0
 40
6.0
 40
6.0
 40
6.0
 10
1.312710236802609
 20
-3.045910124264234
 10
1.312710236802609
 20
-3.01708151421672
 10
1.302952519138115
 20
-3.002656095619335
 10
1.283459310956434
 20
-3.002656095619335
 10
1.264477327162618
 20
-3.002656095619335
 10
1.254986335265685
 20
-3.017170422805924
 10
1.254986335265685
 20
-3.046221304326435
 10
1.254986335265685
 20
-3.057846102364085
 10
1.257475775763269
 20
-3.068670723098951
 10
1.262454656758361
 20
-3.078739620825672
 10
1.26805589787783
 20
-3.090053238801121
 10
1.274946313540693
 20
-3.095698934215205
 10
1.283148130894258
 20
-3.095698934215205
 10
1.291127676774774
 20
-3.095698934215205
 10
1.298173682468713
 20
-3.089942103064585
 10
1.30430837512338
 20
-3.078428440763471
 10
1.309909616242874
 20
-3.06795945438537
 10
1.312710236802609
 20
-3.057112606503197
 10
1.312710236802609
 20
-3.045910124264234
 97
        0
 97
        1
330
BA
 92
        1
 93
        1
 72
     4
 94
        3
 73
     0
 74
     0
 95
       29
 96
       25
 40
0.0
 40
0.0
 40
0.0
 40
0.0
 40
1.0
 40
1.0
 40
1.0
 40
2.0
 40
2.0
 40
2.0
 40
3.0
 40
3.0
 40
3.0
 40
4.0
 40
4.0
 40
4.0
 40
5.0
 40
5.0
 40
5.0
 40
6.0
 40
6.0
 40
6.0
 40
7.0
 40
7.0
 40
7.0
 40
8.0
 40
8.0
 40
8.0
 40
8.0
 10
1.387549041760141
 20
-3.018526278791189
 10
1.387549041760141
 20
-3.05513439039353
 10
1.378102504157873
 20
-3.086096806581786
 10
1.359231656100569
 20
-3.111413527355959
 10
1.339405040709354
 20
-3.137863832642399
 10
1.314043865640592
 20
-3.151088985285645
 10
1.283148130894258
 20
-3.151088985285645
 10
1.251296628813987
 20
-3.151088985285645
 10
1.225513137946513
 20
-3.137752696905913
 10
1.205819885439142
 20
-3.111102347293783
 10
1.187237990296681
 20
-3.086007897992582
 10
1.177969269872796
 20
-3.05513439039353
 10
1.177969269872796
 20
-3.018526278791189
 10
1.177969269872796
 20
-2.979428726691316
 10
1.188082621894055
 20
-2.948710809123339
 10
1.20830932593665
 20
-2.926416980381898
 10
1.227380218319669
 20
-2.905456780478415
 10
1.252341304737051
 20
-2.894987794100365
 10
1.283148130894258
 20
-2.894987794100365
 10
1.313421505516165
 20
-2.894987794100365
 10
1.338115866166036
 20
-2.905523461920337
 10
1.357208985696287
 20
-2.926572570413024
 10
1.377435689738881
 20
-2.94897753489095
 10
1.387549041760141
 20
-2.979628771017031
 10
1.387549041760141
 20
-3.018526278791189
 97
        0
 97
        1
330
BB
 75
     2
 76
     1
 98
        1
 10
0.0
 20
0.0
450
        0
451
        0
460
0.0
461
0.0
452
        0
462
0.0
453
        0
470

  0
SPLINE
  5
BD
330
AD
100
AcDbEntity
  8
Text
100
AcDbSpline
210
0.0
220
0.0
230
1.0
 70
     9
 71
     3
 72
    32
 73
    28
 74
     0
 42
0.0000000001
 43
0.0000000001
 40
0.0
 40
0.0
 40
0.0
 40
0.0
 40
1.0
 40
1.0
 40
1.0
 40
2.0
 40
2.0
 40
2.0
 40
3.0
 40
3.0
 40
3.0
 40
4.0
 40
4.0
 40
4.0
 40
5.0
 40
5.0
 40
5.0
 40
6.0
 40
6.0
 40
6.0
 40
7.0
 40
7.0
 40
7.0
 40
8.0
 40
8.0
 40
8.0
 40
9.0
 40
9.0
 40
9.0
 40
9.0
 10
1.560876336401962
 20
-3.096010114277406
 30
0.0
 10
1.559831660478872
 20
-3.10016659082238
 30
0.0
 10
1.557920125811101
 20
-3.107990546671822
 30
0.0
 10
1.555119505251367
 20
-3.119504208973012
 30
0.0
 10
1.553652513529616
 20
-3.126239034604774
 30
0.0
 10
1.552407793280836
 20
-3.134129671896112
 30
0.0
 10
1.551385344505054
 20
-3.143153893699718
 30
0.0
 10
1.551385344505054
 20
-3.143153893699718
 30
0.0
 10
1.41057636636247
 20
-3.143153893699718
 30
0.0
 10
1.41057636636247
 20
-3.143153893699718
 30
0.0
 10
1.410042914827247
 20
-3.118770713112098
 30
0.0
 10
1.408753740283903
 20
-3.078628485089135
 30
0.0
 10
1.406686615585057
 20
-3.022727209630804
 30
0.0
 10
1.405330759599817
 20
-2.994098643909005
 30
0.0
 10
1.402885773396848
 20
-2.954578776010394
 30
0.0
 10
1.399373884123532
 20
-2.904167605935046
 30
0.0
 10
1.399373884123532
 20
-2.904167605935046
 30
0.0
 10
1.507353365704703
 20
-2.904167605935046
 30
0.0
 10
1.507353365704703
 20
-2.904167605935046
 30
0.0
 10
1.507353365704703
 20
-2.904167605935046
 30
0.0
 10
1.498484733932173
 20
-3.102389305552353
 30
0.0
 10
1.498484733932173
 20
-3.102389305552353
 30
0.0
 10
1.508531404511561
 20
-3.102389305552353
 30
0.0
 10
1.523623637527912
 20
-3.101300175334674
 30
0.0
 10
1.543761432981303
 20
-3.099121914899342
 30
0.0
 10
1.547895682379046
 20
-3.098699599100629
 30
0.0
 10
1.553608059235026
 20
-3.097677150324847
 30
0.0
 10
1.560876336401962
 20
-3.096010114277406
 30
0.0
  0
HATCH
  5
BE
330
AD
100
AcDbEntity
  8
Text
 62
   110
420
    65410
440
 33554687
100
AcDbHatch
 10
0.0
 20
0.0
 30
0.0
210
0.0
220
0.0
230
1.0
  2
SOLID
 70
     1
 71
     1
 91
        1
 92
        1
 93
        1
 72
     4
 94
        3
 73
     0
 74
     0
 95
       32
 96
       28
 40
0.0
 40
0.0
 40
0.0
 40
0.0
 40
1.0
 40
1.0
 40
1.0
 40
2.0
 40
2.0
 40
2.0
 40
3.0
 40
3.0
 40
3.0
 40
4.0
 40
4.0
 40
4.0
 40
5.0
 40
5.0
 40
5.0
 40
6.0
 40
6.0
 40
6.0
 40
7.0
 40
7.0
 40
7.0
 40
8.0
 40
8.0
 40
8.0
 40
9.0
 40
9.0
 40
9.0
 40
9.0
 10
1.560876336401962
 20
-3.096010114277406
 10
1.559831660478872
 20
-3.10016659082238
 10
1.557920125811101
 20
-3.107990546671822
 10
1.555119505251367
 20
-3.119504208973012
 10
1.553652513529616
 20
-3.126239034604774
 10
1.552407793280836
 20
-3.134129671896112
 10
1.551385344505054
 20
-3.143153893699718
 10
1.551385344505054
 20
-3.143153893699718
 10
1.41057636636247
 20
-3.143153893699718
 10
1.41057636636247
 20
-3.143153893699718
 10
1.410042914827247
 20
-3.118770713112098
 10
1.408753740283903
 20
-3.078628485089135
 10
1.406686615585057
 20
-3.022727209630804
 10
1.405330759599817
 20
-2.994098643909005
 10
1.402885773396848
 20
-2.954578776010394
 10
1.399373884123532
 20
-2.904167605935046
 10
1.399373884123532
 20
-2.904167605935046
 10
1.507353365704703
 20
-2.904167605935046
 10
1.507353365704703
 20
-2.904167605935046
 10
1.507353365704703
 20
-2.904167605935046
 10
1.498484733932173
 20
-3.102389305552353
 10
1.498484733932173
 20
-3.102389305552353
 10
1.508531404511561
 20
-3.102389305552353
 10
1.523623637527912
 20
-3.101300175334674
 10
1.543761432981303
 20
-3.099121914899342
 10
1.547895682379046
 20
-3.098699599100629
 10
1.553608059235026
 20
-3.097677150324847
 10
1.560876336401962
 20
-3.096010114277406
 97
        0
 97
        1
330
BD
 75
     2
 76
     1
 98
        1
 10
0.0
 20
0.0
450
        0
451
        0
460
0.0
461
0.0
452
        0
462
0.0
453
        0
470

  0
ENDBLK
  5
B0
330
AD
100
AcDbEntity
  8
0
100
AcDbBlockEnd
  0
BLOCK
  5
C1
330
BF
100
AcDbEntity
  8
0
100
AcDbBlockBegin
  2
Block_4
 70
     0
 10
0.0
 20
0.0
 30
0.0
  3
Block_4
  1

  0
SPLINE
  5
C3
330
BF
100
AcDbEntity
  8
Text
100
AcDbSpline
210
0.0
220
0.0
230
1.0
 70
    11
 71
     3
 72
    41
 73
    37
 74
     0
 42
0.0000000001
 43
0.0000000001
 40
0.0
 40
0.0
 40
0.0
 40
0.0
 40
1.0
 40
1.0
 40
1.0
 40
2.0
 40
2.0
 40
2.0
 40
3.0
 40
3.0
 40
3.0
 40
4.0
 40
4.0
 40
4.0
 40
5.0
 40
5.0
 40
5.0
 40
6.0
 40
6.0
 40
6.0
 40
7.0
 40
7.0
 40
7.0
 40
8.0
 40
8.0
 40
8.0
 40
9.0
 40
9.0
 40
9.0
 40
10.0
 40
10.0
 40
10.0
 40
11.0
 40
11.0
 40
11.0
 40
12.0
 40
12.0
 40
12.0
 40
12.0
 10
1.38743643733182
 20
-2.603198291108229
 30
0.0
 10
1.38743643733182
 20
-2.603198291108229
 30
0.0
 10
1.383039459271913
 20
-2.698567229026821
 30
0.0
 10
1.383039459271913
 20
-2.698567229026821
 30
0.0
 10
1.379097341011427
 20
-2.697960749294401
 30
0.0
 10
1.372772623802145
 20
-2.697202649628959
 30
0.0
 10
1.364086967634698
 20
-2.696292930030317
 30
0.0
 10
1.358736949995368
 20
-2.69598969016412
 30
0.0
 10
1.350029633837493
 20
-2.695686450297948
 30
0.0
 10
1.338008339141803
 20
-2.695383210431752
 30
0.0
 10
1.33740185940951
 20
-2.701339707803476
 30
0.0
 10
1.33634051987777
 20
-2.715743601447759
 30
0.0
 10
1.334824320546785
 20
-2.738594891364654
 30
0.0
 10
1.333719661034213
 20
-2.760731401596962
 30
0.0
 10
1.331900221837081
 20
-2.793221387260801
 30
0.0
 10
1.329366002955238
 20
-2.836086508346675
 30
0.0
 10
1.329366002955238
 20
-2.836086508346675
 30
0.0
 10
1.255981955335856
 20
-2.836086508346675
 30
0.0
 10
1.255981955335856
 20
-2.836086508346675
 30
0.0
 10
1.255180535689456
 20
-2.815661137359332
 30
0.0
 10
1.253664336358497
 20
-2.783582691513882
 30
0.0
 10
1.251433357342926
 20
-2.739807850829492
 30
0.0
 10
1.250415337792093
 20
-2.72464585751964
 30
0.0
 10
1.249353998260428
 20
-2.709830424056967
 30
0.0
 10
1.248249338747857
 20
-2.695383210431752
 30
0.0
 10
1.248249338747857
 20
-2.695383210431752
 30
0.0
 10
1.224293389318417
 20
-2.696292930030317
 30
0.0
 10
1.224293389318417
 20
-2.696292930030317
 30
0.0
 10
1.224293389318417
 20
-2.696292930030317
 30
0.0
 10
1.202611738885353
 20
-2.698567229026821
 30
0.0
 10
1.202611738885353
 20
-2.698567229026821
 30
0.0
 10
1.202611738885353
 20
-2.698567229026821
 30
0.0
 10
1.198821240557915
 20
-2.603198291108229
 30
0.0
 10
1.198821240557915
 20
-2.603198291108229
 30
0.0
 10
1.198821240557915
 20
-2.603198291108229
 30
0.0
 10
1.38743643733182
 20
-2.603198291108229
 30
0.0
 10
1.38743643733182
 20
-2.603198291108229
 30
0.0
  0
HATCH
  5
C4
330
BF
100
AcDbEntity
  8
Text
 62
   211
420
 16744447
440
 33554687
100
AcDbHatch
 10
0.0
 20
0.0
 30
0.0
210
0.0
220
0.0
230
1.0
  2
SOLID
 70
     1
 71
     1
 91
        1
 92
        1
 93
        1
 72
     4
 94
        3
 73
     0
 74
     0
 95
       41
 96
       37
 40
0.0
 40
0.0
 40
0.0
 40
0.0
 40
1.0
 40
1.0
 40
1.0
 40
2.0
 40
2.0
 40
2.0
 40
3.0
 40
3.0
 40
3.0
 40
4.0
 40
4.0
 40
4.0
 40
5.0
 40
5.0
 40
5.0
 40
6.0
 40
6.0
 40
6.0
 40
7.0
 40
7.0
 40
7.0
 40
8.0
 40
8.0
 40
8.0
 40
9.0
 40
9.0
 40
9.0
 40
10.0
 40
10.0
 40
10.0
 40
11.0
 40
11.0
 40
11.0
 40
12.0
 40
12.0
 40
12.0
 40
12.0
 10
1.38743643733182
 20
-2.603198291108229
 10
1.38743643733182
 20
-2.603198291108229
 10
1.383039459271913
 20
-2.698567229026821
 10
1.383039459271913
 20
-2.698567229026821
 10
1.379097341011427
 20
-2.697960749294401
 10
1.372772623802145
 20
-2.697202649628959
 10
1.364086967634698
 20
-2.696292930030317
 10
1.358736949995368
 20
-2.69598969016412
 10
1.350029633837493
 20
-2.695686450297948
 10
1.338008339141803
 20
-2.695383210431752
 10
1.33740185940951
 20
-2.701339707803476
 10
1.33634051987777
 20
-2.715743601447759
 10
1.334824320546785
 20
-2.738594891364654
 10
1.333719661034213
 20
-2.760731401596962
 10
1.331900221837081
 20
-2.793221387260801
 10
1.329366002955238
 20
-2.836086508346675
 10
1.329366002955238
 20
-2.836086508346675
 10
1.255981955335856
 20
-2.836086508346675
 10
1.255981955335856
 20
-2.836086508346675
 10
1.255180535689456
 20
-2.815661137359332
 10
1.253664336358497
 20
-2.783582691513882
 10
1.251433357342926
 20
-2.739807850829492
 10
1.250415337792093
 20
-2.72464585751964
 10
1.249353998260428
 20
-2.709830424056967
 10
1.248249338747857
 20
-2.695383210431752
 10
1.248249338747857
 20
-2.695383210431752
 10
1.224293389318417
 20
-2.696292930030317
 10
1.224293389318417
 20
-2.696292930030317
 10
1.224293389318417
 20
-2.696292930030317
 10
1.202611738885353
 20
-2.698567229026821
 10
1.202611738885353
 20
-2.698567229026821
 10
1.202611738885353
 20
-2.698567229026821
 10
1.198821240557915
 20
-2.603198291108229
 10
1.198821240557915
 20
-2.603198291108229
 10
1.198821240557915
 20
-2.603198291108229
 10
1.38743643733182
 20
-2.603198291108229
 10
1.38743643733182
 20
-2.603198291108229
 97
        0
 97
        1
330
C3
 75
     2
 76
     1
 98
        1
 10
0.0
 20
0.0
450
        0
451
        0
460
0.0
461
0.0
452
        0
462
0.0
453
        0
470

  0
SPLINE
  5
C5
330
BF
100
AcDbEntity
  8
Text
100
AcDbSpline
210
0.0
220
0.0
230
1.0
 70
     9
 71
     3
 72
    23
 73
    19
 74
     0
 42
0.0000000001
 43
0.0000000001
 40
0.0
 40
0.0
 40
0.0
 40
0.0
 40
1.0
 40
1.0
 40
1.0
 40
2.0
 40
2.0
 40
2.0
 40
3.0
 40
3.0
 40
3.0
 40
4.0
 40
4.0
 40
4.0
 40
5.0
 40
5.0
 40
5.0
 40
6.0
 40
6.0
 40
6.0
 40
6.0
 10
1.526775155848832
 20
-2.741324050160427
 30
0.0
 10
1.526775155848832
 20
-2.713231042556445
 30
0.0
 10
1.517266420044481
 20
-2.69917370875919
 30
0.0
 10
1.498270608426436
 20
-2.69917370875919
 30
0.0
 10
1.479772976588441
 20
-2.69917370875919
 30
0.0
 10
1.470524160669457
 20
-2.713317682518234
 30
0.0
 10
1.470524160669457
 20
-2.741627290026624
 30
0.0
 10
1.470524160669457
 20
-2.752955465028056
 30
0.0
 10
1.472950079599008
 20
-2.763503880373617
 30
0.0
 10
1.477801917458135
 20
-2.773315856044114
 30
0.0
 10
1.483260235049707
 20
-2.784340791179349
 30
0.0
 10
1.489974832086848
 20
-2.789842428751803
 30
0.0
 10
1.497967368560163
 20
-2.789842428751803
 30
0.0
 10
1.505743305129044
 20
-2.789842428751803
 30
0.0
 10
1.512631182089787
 20
-2.784232491227132
 30
0.0
 10
1.518587679461511
 20
-2.773012616177892
 30
0.0
 10
1.524045997053058
 20
-2.76281076067946
 30
0.0
 10
1.526775155848832
 20
-2.75224068534347
 30
0.0
 10
1.526775155848832
 20
-2.741324050160427
 30
0.0
  0
SPLINE
  5
C6
330
BF
100
AcDbEntity
  8
Text
100
AcDbSpline
210
0.0
220
0.0
230
1.0
 70
     9
 71
     3
 72
    29
 73
    25
 74
     0
 42
0.0000000001
 43
0.0000000001
 40
0.0
 40
0.0
 40
0.0
 40
0.0
 40
1.0
 40
1.0
 40
1.0
 40
2.0
 40
2.0
 40
2.0
 40
3.0
 40
3.0
 40
3.0
 40
4.0
 40
4.0
 40
4.0
 40
5.0
 40
5.0
 40
5.0
 40
6.0
 40
6.0
 40
6.0
 40
7.0
 40
7.0
 40
7.0
 40
8.0
 40
8.0
 40
8.0
 40
8.0
 10
1.599704343668892
 20
-2.714638941935188
 30
0.0
 10
1.599704343668892
 20
-2.750312946194096
 30
0.0
 10
1.59049884773084
 20
-2.780485312880601
 30
0.0
 10
1.572109515845088
 20
-2.805156041994678
 30
0.0
 10
1.552810464360719
 20
-2.830931430621325
 30
0.0
 10
1.528096415265811
 20
-2.843819124934649
 30
0.0
 10
1.497967368560163
 20
-2.843819124934649
 30
0.0
 10
1.466928602255949
 20
-2.843819124934649
 30
0.0
 10
1.44182467333303
 20
-2.830823130669108
 30
0.0
 10
1.422612261810551
 20
-2.80485280212848
 30
0.0
 10
1.404526169790945
 20
-2.780398672918813
 30
0.0
 10
1.395472293786017
 20
-2.750312946194096
 30
0.0
 10
1.395472293786017
 20
-2.714638941935188
 30
0.0
 10
1.395472293786017
 20
-2.676539018746729
 30
0.0
 10
1.40532758943737
 20
-2.646604911955137
 30
0.0
 10
1.425038180740077
 20
-2.624879941541166
 30
0.0
 10
1.443644112530238
 20
-2.604454570553873
 30
0.0
 10
1.467946621806832
 20
-2.594252715055391
 30
0.0
 10
1.497967368560163
 20
-2.594252715055391
 30
0.0
 10
1.527489935533367
 20
-2.594252715055391
 30
0.0
 10
1.551532524924621
 20
-2.604519550525183
 30
0.0
 10
1.570138456714807
 20
-2.62503156147429
 30
0.0
 10
1.589849048017539
 20
-2.646864831840376
 30
0.0
 10
1.599704343668892
 20
-2.676733958660709
 30
0.0
 10
1.599704343668892
 20
-2.714638941935188
 30
0.0
  0
HATCH
  5
C7
330
BF
100
AcDbEntity
  8
Text
 62
   211
420
 16744447
440
 33554687
100
AcDbHatch
 10
0.0
 20
0.0
 30
0.0
210
0.0
220
0.0
230
1.0
  2
SOLID
 70
     1
 71
     1
 91
        2
 92
        1
 93
        1
 72
     4
 94
        3
 73
     0
 74
     0
 95
       23
 96
       19
 40
0.0
 40
0.0
 40
0.0
 40
0.0
 40
1.0
 40
1.0
 40
1.0
 40
2.0
 40
2.0
 40
2.0
 40
3.0
 40
3.0
 40
3.0
 40
4.0
 40
4.0
 40
4.0
 40
5.0
 40
5.0
 40
5.0
 40
6.0
 40
6.0
 40
6.0
 40
6.0
 10
1.526775155848832
 20
-2.741324050160427
 10
1.526775155848832
 20
-2.713231042556445
 10
1.517266420044481
 20
-2.69917370875919
 10
1.498270608426436
 20
-2.69917370875919
 10
1.479772976588441
 20
-2.69917370875919
 10
1.470524160669457
 20
-2.713317682518234
 10
1.470524160669457
 20
-2.741627290026624
 10
1.470524160669457
 20
-2.752955465028056
 10
1.472950079599008
 20
-2.763503880373617
 10
1.477801917458135
 20
-2.773315856044114
 10
1.483260235049707
 20
-2.784340791179349
 10
1.489974832086848
 20
-2.789842428751803
 10
1.497967368560163
 20
-2.789842428751803
 10
1.505743305129044
 20
-2.789842428751803
 10
1.512631182089787
 20
-2.784232491227132
 10
1.518587679461511
 20
-2.773012616177892
 10
1.524045997053058
 20
-2.76281076067946
 10
1.526775155848832
 20
-2.75224068534347
 10
1.526775155848832
 20
-2.741324050160427
 97
        0
 97
        1
330
C5
 92
        1
 93
        1
 72
     4
 94
        3
 73
     0
 74
     0
 95
       29
 96
       25
 40
0.0
 40
0.0
 40
0.0
 40
0.0
 40
1.0
 40
1.0
 40
1.0
 40
2.0
 40
2.0
 40
2.0
 40
3.0
 40
3.0
 40
3.0
 40
4.0
 40
4.0
 40
4.0
 40
5.0
 40
5.0
 40
5.0
 40
6.0
 40
6.0
 40
6.0
 40
7.0
 40
7.0
 40
7.0
 40
8.0
 40
8.0
 40
8.0
 40
8.0
 10
1.599704343668892
 20
-2.714638941935188
 10
1.599704343668892
 20
-2.750312946194096
 10
1.59049884773084
 20
-2.780485312880601
 10
1.572109515845088
 20
-2.805156041994678
 10
1.552810464360719
 20
-2.830931430621325
 10
1.528096415265811
 20
-2.843819124934649
 10
1.497967368560163
 20
-2.843819124934649
 10
1.466928602255949
 20
-2.843819124934649
 10
1.44182467333303
 20
-2.830823130669108
 10
1.422612261810551
 20
-2.80485280212848
 10
1.404526169790945
 20
-2.780398672918813
 10
1.395472293786017
 20
-2.750312946194096
 10
1.395472293786017
 20
-2.714638941935188
 10
1.395472293786017
 20
-2.676539018746729
 10
1.40532758943737
 20
-2.646604911955137
 10
1.425038180740077
 20
-2.624879941541166
 10
1.443644112530238
 20
-2.604454570553873
 10
1.467946621806832
 20
-2.594252715055391
 10
1.497967368560163
 20
-2.594252715055391
 10
1.527489935533367
 20
-2.594252715055391
 10
1.551532524924621
 20
-2.604519550525183
 10
1.570138456714807
 20
-2.62503156147429
 10
1.589849048017539
 20
-2.646864831840376
 10
1.599704343668892
 20
-2.676733958660709
 10
1.599704343668892
 20
-2.714638941935188
 97
        0
 97
        1
330
C6
 75
     2
 76
     1
 98
        1
 10
0.0
 20
0.0
450
        0
451
        0
460
0.0
461
0.0
452
        0
462
0.0
453
        0
470

  0
ENDBLK
  5
C2
330
BF
100
AcDbEntity
  8
0
100
AcDbBlockEnd
  0
ENDSEC
  0
SECTION
  2
ENTITIES
  0
LWPOLYLINE
  5
79
330
70
100
AcDbEntity
  8
White
 62
    18
420
        0
370
    70
100
AcDbPolyline
 90
        4
 70
     1
 43
0.0
 10
2.188825459317361
 20
-3.278872554494783
 10
-0.271174540682662
 20
-3.278872554494783
 10
-0.271174540682662
 20
0.2211274455052161
 10
2.188825459317361
 20
0.2211274455052161
  0
HATCH
  5
7A
330
70
100
AcDbEntity
  8
White
 62
     7
420
 16053492
440
 33554687
100
AcDbHatch
 10
0.0
 20
0.0
 30
0.0
210
0.0
220
0.0
230
1.0
  2
SOLID
 70
     1
 71
     1
 91
        1
 92
        1
 93
        4
 72
     1
 10
2.188825459317361
 20
-3.278872554494783
 11
-0.271174540682662
 21
-3.278872554494783
 72
     1
 10
-0.271174540682662
 20
-3.278872554494783
 11
-0.271174540682662
 21
0.2211274455052159
 72
     1
 10
-0.271174540682662
 20
0.2211274455052161
 11
2.188825459317361
 21
0.2211274455052161
 72
     1
 10
2.188825459317361
 20
0.2211274455052161
 11
2.188825459317361
 21
-3.278872554494783
 97
        1
330
79
 75
     2
 76
     1
 98
        1
 10
0.0
 20
0.0
450
        0
451
        0
460
0.0
461
0.0
452
        0
462
0.0
453
        0
470

  0
LWPOLYLINE
  5
7B
330
70
100
AcDbEntity
  8
White
 62
    18
420
        0
370
    70
100
AcDbPolyline
 90
        4
 70
     1
 43
0.0
 10
2.038996062992004
 20
-2.57128390201251
 10
-0.1213451443572922
 20
-2.57128390201251
 10
-0.1213451443572922
 20
-0.1412839020125223
 10
2.038996062992004
 20
-0.1412839020125223
  0
HATCH
  5
7C
330
70
100
AcDbEntity
  8
White
 62
   254
420
 14540253
440
 33554687
100
AcDbHatch
 10
0.0
 20
0.0
 30
0.0
210
0.0
220
0.0
230
1.0
  2
SOLID
 70
     1
 71
     1
 91
        1
 92
        1
 93
        4
 72
     1
 10
2.038996062992004
 20
-2.57128390201251
 11
-0.1213451443572922
 21
-2.57128390201251
 72
     1
 10
-0.1213451443572922
 20
-2.57128390201251
 11
-0.1213451443572922
 21
-0.1412839020125225
 72
     1
 10
-0.1213451443572922
 20
-0.1412839020125223
 11
2.038996062992004
 21
-0.1412839020125223
 72
     1
 10
2.038996062992004
 20
-0.1412839020125223
 11
2.038996062992004
 21
-2.57128390201251
 97
        1
330
7B
 75
     2
 76
     1
 98
        1
 10
0.0
 20
0.0
450
        0
451
        0
460
0.0
461
0.0
452
        0
462
0.0
453
        0
470

  0
SPLINE
  5
7E
330
70
100
AcDbEntity
  8
Text
100
AcDbSpline
210
0.0
220
0.0
230
1.0
 70
    27
 71
     3
 72
    14
 73
    10
 74
     0
 42
0.0000000001
 43
0.0000000001
 40
0.0
 40
0.0
 40
0.0
 40
0.0
 40
1.0
 40
1.0
 40
1.0
 40
2.0
 40
2.0
 40
2.0
 40
3.0
 40
3.0
 40
3.0
 40
3.0
 10
0.0767653813885924
 20
-2.543009174508824
 30
0.0
 10
0.0767653813885924
 20
-2.543009174508824
 30
0.0
 10
0.0767653813885924
 20
-2.543009174508824
 30
0.0
 10
0.0767653813885924
 20
-2.543009174508824
 30
0.0
 10
0.0767653813885924
 20
-2.543009174508824
 30
0.0
 10
0.0767653813885924
 20
-2.543010022219327
 30
0.0
 10
0.0767653813885924
 20
-2.543010022219327
 30
0.0
 10
0.0767653813885924
 20
-2.543010022219327
 30
0.0
 10
0.0767653813885924
 20
-2.543009174508824
 30
0.0
 10
0.0767653813885924
 20
-2.543009174508824
 30
0.0
  0
SPLINE
  5
7F
330
70
100
AcDbEntity
  8
Text
100
AcDbSpline
210
0.0
220
0.0
230
1.0
 70
    25
 71
     3
 72
    14
 73
    10
 74
     0
 42
0.0000000001
 43
0.0000000001
 40
0.0
 40
0.0
 40
0.0
 40
0.0
 40
1.0
 40
1.0
 40
1.0
 40
2.0
 40
2.0
 40
2.0
 40
3.0
 40
3.0
 40
3.0
 40
3.0
 10
0.0767653813885924
 20
-3.190682887345196
 30
0.0
 10
0.0767653813885924
 20
-3.190684582766202
 30
0.0
 10
0.0767653813885924
 20
-3.190685430476706
 30
0.0
 10
0.0767653813885924
 20
-3.190687125897713
 30
0.0
 10
0.0767653813885924
 20
-3.190687125897713
 30
0.0
 10
0.0767653813885924
 20
-3.190687125897713
 30
0.0
 10
0.0767653813885924
 20
-3.190687125897713
 30
0.0
 10
0.0767653813885924
 20
-3.190685430476706
 30
0.0
 10
0.0767653813885924
 20
-3.190684582766202
 30
0.0
 10
0.0767653813885924
 20
-3.190682887345196
 30
0.0
  0
SPLINE
  5
80
330
70
100
AcDbEntity
  8
Text
100
AcDbSpline
210
0.0
220
0.0
230
1.0
 70
     9
 71
     3
 72
    14
 73
    10
 74
     0
 42
0.0000000001
 43
0.0000000001
 40
0.0
 40
0.0
 40
0.0
 40
0.0
 40
1.0
 40
1.0
 40
1.0
 40
2.0
 40
2.0
 40
2.0
 40
3.0
 40
3.0
 40
3.0
 40
3.0
 10
1.840350789917238
 20
-2.985733614341723
 30
0.0
 10
1.840352485338245
 20
-2.985733614341723
 30
0.0
 10
1.840353333048748
 20
-2.985734462052227
 30
0.0
 10
1.840355028469755
 20
-2.985734462052227
 30
0.0
 10
1.840353333048748
 20
-2.985734462052227
 30
0.0
 10
1.840352485338245
 20
-2.985735309762731
 30
0.0
 10
1.840350789917238
 20
-2.985735309762731
 30
0.0
 10
1.840350789917238
 20
-2.985735309762731
 30
0.0
 10
1.840350789917238
 20
-2.985733614341723
 30
0.0
 10
1.840350789917238
 20
-2.985733614341723
 30
0.0
  0
SPLINE
  5
81
330
70
100
AcDbEntity
  8
Text
100
AcDbSpline
210
0.0
220
0.0
230
1.0
 70
     9
 71
     3
 72
    14
 73
    10
 74
     0
 42
0.0000000001
 43
0.0000000001
 40
0.0
 40
0.0
 40
0.0
 40
0.0
 40
1.0
 40
1.0
 40
1.0
 40
2.0
 40
2.0
 40
2.0
 40
3.0
 40
3.0
 40
3.0
 40
3.0
 10
1.840355028469755
 20
-2.747960990643807
 30
0.0
 10
1.840353333048748
 20
-2.747960990643807
 30
0.0
 10
1.840352485338245
 20
-2.74796183835431
 30
0.0
 10
1.840350789917238
 20
-2.74796183835431
 30
0.0
 10
1.840350789917238
 20
-2.74796183835431
 30
0.0
 10
1.840350789917238
 20
-2.747960142933303
 30
0.0
 10
1.840350789917238
 20
-2.747960142933303
 30
0.0
 10
1.840352485338245
 20
-2.747960142933303
 30
0.0
 10
1.840353333048748
 20
-2.747960990643807
 30
0.0
 10
1.840355028469755
 20
-2.747960990643807
 30
0.0
  0
SPLINE
  5
82
330
70
100
AcDbEntity
  8
Text
100
AcDbSpline
210
0.0
220
0.0
230
1.0
 70
     8
 71
     3
 72
    65
 73
    61
 74
     0
 42
0.0000000001
 43
0.0000000001
 40
0.0
 40
0.0
 40
0.0
 40
0.0
 40
1.0
 40
1.0
 40
1.0
 40
2.0
 40
2.0
 40
2.0
 40
3.0
 40
3.0
 40
3.0
 40
4.0
 40
4.0
 40
4.0
 40
5.0
 40
5.0
 40
5.0
 40
6.0
 40
6.0
 40
6.0
 40
7.0
 40
7.0
 40
7.0
 40
8.0
 40
8.0
 40
8.0
 40
9.0
 40
9.0
 40
9.0
 40
10.0
 40
10.0
 40
10.0
 40
11.0
 40
11.0
 40
11.0
 40
12.0
 40
12.0
 40
12.0
 40
13.0
 40
13.0
 40
13.0
 40
14.0
 40
14.0
 40
14.0
 40
15.0
 40
15.0
 40
15.0
 40
16.0
 40
16.0
 40
16.0
 40
17.0
 40
17.0
 40
17.0
 40
18.0
 40
18.0
 40
18.0
 40
19.0
 40
19.0
 40
19.0
 40
20.0
 40
20.0
 40
20.0
 40
20.0
 10
1.840432170125571
 20
-2.515231396731046
 30
0.0
 10
1.840432170125571
 20
-2.515231396731046
 30
0.0
 10
0.1393959288061271
 20
-2.515231396731046
 30
0.0
 10
0.1393959288061271
 20
-2.515231396731046
 30
0.0
 10
0.1308035351429327
 20
-2.499972607668546
 30
0.0
 10
0.1153684222957104
 20
-2.489772954890768
 30
0.0
 10
0.0977835156116827
 20
-2.489772954890768
 30
0.0
 10
0.0902626280248771
 20
-2.489772954890768
 30
0.0
 10
0.0831350781116827
 20
-2.491644699682435
 30
0.0
 10
0.0767670768095993
 20
-2.494967724856046
 30
0.0
 10
0.070399075507516
 20
-2.491644699682435
 30
0.0
 10
0.0632715255943216
 20
-2.489772954890768
 30
0.0
 10
0.055750638007516
 20
-2.489772954890768
 30
0.0
 10
0.0382674565839049
 20
-2.489772954890768
 30
0.0
 10
0.0229069422609882
 20
-2.499850537356046
 30
0.0
 10
0.0142874218616827
 20
-2.515231396731046
 30
0.0
 10
0.0142874218616827
 20
-2.515231396731046
 30
0.0
 10
-0.1368356250133173
 20
-2.515231396731046
 30
0.0
 10
-0.1368356250133173
 20
-2.515231396731046
 30
0.0
 10
-0.1712255447181784
 20
-2.515231396731046
 30
0.0
 10
-0.1961889236244284
 20
-2.554890684925491
 30
0.0
 10
-0.1961889236244284
 20
-2.609523931453268
 30
0.0
 10
-0.1961889236244284
 20
-2.609523931453268
 30
0.0
 10
-0.1961889236244284
 20
-3.124158805585213
 30
0.0
 10
-0.1961889236244284
 20
-3.124158805585213
 30
0.0
 10
-0.1961889236244284
 20
-3.178805615481046
 30
0.0
 10
-0.1712255447181784
 20
-3.218464903675491
 30
0.0
 10
-0.1368356250133173
 20
-3.218464903675491
 30
0.0
 10
-0.1368356250133173
 20
-3.218464903675491
 30
0.0
 10
0.0141314431290438
 20
-3.218464903675491
 30
0.0
 10
0.0141314431290438
 20
-3.218464903675491
 30
0.0
 10
0.0227238367922382
 20
-3.233723692737991
 30
0.0
 10
0.0381657313234882
 20
-3.243923345515768
 30
0.0
 10
0.055750638007516
 20
-3.243923345515768
 30
0.0
 10
0.0632715255943216
 20
-3.243923345515768
 30
0.0
 10
0.070399075507516
 20
-3.242051600724102
 30
0.0
 10
0.0767670768095993
 20
-3.238728575550491
 30
0.0
 10
0.0831350781116827
 20
-3.242051600724102
 30
0.0
 10
0.0902626280248771
 20
-3.243923345515768
 30
0.0
 10
0.0977835156116827
 20
-3.243923345515768
 30
0.0
 10
0.1153684222957104
 20
-3.243923345515768
 30
0.0
 10
0.1308035351429327
 20
-3.233723692737991
 30
0.0
 10
0.1393959288061271
 20
-3.218464903675491
 30
0.0
 10
0.1393959288061271
 20
-3.218464903675491
 30
0.0
 10
1.840432170125571
 20
-3.218464903675491
 30
0.0
 10
1.840432170125571
 20
-3.218464903675491
 30
0.0
 10
1.840432170125571
 20
-3.218464903675491
 30
0.0
 10
1.868372708320015
 20
-3.191087245255352
 30
0.0
 10
1.868372708320015
 20
-3.191087245255352
 30
0.0
 10
1.868372708320015
 20
-3.191087245255352
 30
0.0
 10
1.868372708320015
 20
-3.191087245255352
 30
0.0
 10
1.868372708320015
 20
-3.191087245255352
 30
0.0
 10
1.868372708320015
 20
-3.191087245255352
 30
0.0
 10
2.100930217000571
 20
-2.945773388918546
 30
0.0
 10
2.100930217000571
 20
-2.945773388918546
 30
0.0
 10
2.100930217000571
 20
-2.945773388918546
 30
0.0
 10
2.178187161445015
 20
-2.867105854196324
 30
0.0
 10
2.178187161445015
 20
-2.867105854196324
 30
0.0
 10
2.178187161445015
 20
-2.867105854196324
 30
0.0
 10
1.868289632690675
 20
-2.542368305368199
 30
0.0
 10
1.868289632690675
 20
-2.542368305368199
 30
0.0
  0
HATCH
  5
83
330
70
100
AcDbEntity
  8
Text
 62
    18
420
        0
440
 33554687
100
AcDbHatch
 10
0.0
 20
0.0
 30
0.0
210
0.0
220
0.0
230
1.0
  2
SOLID
 70
     1
 71
     1
 91
        5
 92
        1
 93
        1
 72
     4
 94
        3
 73
     0
 74
     0
 95
       14
 96
       10
 40
0.0
 40
0.0
 40
0.0
 40
0.0
 40
1.0
 40
1.0
 40
1.0
 40
2.0
 40
2.0
 40
2.0
 40
3.0
 40
3.0
 40
3.0
 40
3.0
 10
0.0767653813885924
 20
-2.543009174508824
 10
0.0767653813885924
 20
-2.543009174508824
 10
0.0767653813885924
 20
-2.543009174508824
 10
0.0767653813885924
 20
-2.543009174508824
 10
0.0767653813885924
 20
-2.543009174508824
 10
0.0767653813885924
 20
-2.543010022219327
 10
0.0767653813885924
 20
-2.543010022219327
 10
0.0767653813885924
 20
-2.543010022219327
 10
0.0767653813885924
 20
-2.543009174508824
 10
0.0767653813885924
 20
-2.543009174508824
 97
        0
 97
        1
330
7E
 92
        1
 93
        1
 72
     4
 94
        3
 73
     0
 74
     0
 95
       14
 96
       10
 40
0.0
 40
0.0
 40
0.0
 40
0.0
 40
1.0
 40
1.0
 40
1.0
 40
2.0
 40
2.0
 40
2.0
 40
3.0
 40
3.0
 40
3.0
 40
3.0
 10
0.0767653813885924
 20
-3.190682887345196
 10
0.0767653813885924
 20
-3.190684582766202
 10
0.0767653813885924
 20
-3.190685430476706
 10
0.0767653813885924
 20
-3.190687125897713
 10
0.0767653813885924
 20
-3.190687125897713
 10
0.0767653813885924
 20
-3.190687125897713
 10
0.0767653813885924
 20
-3.190687125897713
 10
0.0767653813885924
 20
-3.190685430476706
 10
0.0767653813885924
 20
-3.190684582766202
 10
0.0767653813885924
 20
-3.190682887345196
 97
        0
 97
        1
330
7F
 92
        1
 93
        1
 72
     4
 94
        3
 73
     0
 74
     0
 95
       14
 96
       10
 40
0.0
 40
0.0
 40
0.0
 40
0.0
 40
1.0
 40
1.0
 40
1.0
 40
2.0
 40
2.0
 40
2.0
 40
3.0
 40
3.0
 40
3.0
 40
3.0
 10
1.840350789917238
 20
-2.985733614341723
 10
1.840352485338245
 20
-2.985733614341723
 10
1.840353333048748
 20
-2.985734462052227
 10
1.840355028469755
 20
-2.985734462052227
 10
1.840353333048748
 20
-2.985734462052227
 10
1.840352485338245
 20
-2.985735309762731
 10
1.840350789917238
 20
-2.985735309762731
 10
1.840350789917238
 20
-2.985735309762731
 10
1.840350789917238
 20
-2.985733614341723
 10
1.840350789917238
 20
-2.985733614341723
 97
        0
 97
        1
330
80
 92
        1
 93
        1
 72
     4
 94
        3
 73
     0
 74
     0
 95
       14
 96
       10
 40
0.0
 40
0.0
 40
0.0
 40
0.0
 40
1.0
 40
1.0
 40
1.0
 40
2.0
 40
2.0
 40
2.0
 40
3.0
 40
3.0
 40
3.0
 40
3.0
 10
1.840355028469755
 20
-2.747960990643807
 10
1.840353333048748
 20
-2.747960990643807
 10
1.840352485338245
 20
-2.74796183835431
 10
1.840350789917238
 20
-2.74796183835431
 10
1.840350789917238
 20
-2.74796183835431
 10
1.840350789917238
 20
-2.747960142933303
 10
1.840350789917238
 20
-2.747960142933303
 10
1.840352485338245
 20
-2.747960142933303
 10
1.840353333048748
 20
-2.747960990643807
 10
1.840355028469755
 20
-2.747960990643807
 97
        0
 97
        1
330
81
 92
        1
 93
        2
 72
     4
 94
        3
 73
     0
 74
     0
 95
       65
 96
       61
 40
0.0
 40
0.0
 40
0.0
 40
0.0
 40
1.0
 40
1.0
 40
1.0
 40
2.0
 40
2.0
 40
2.0
 40
3.0
 40
3.0
 40
3.0
 40
4.0
 40
4.0
 40
4.0
 40
5.0
 40
5.0
 40
5.0
 40
6.0
 40
6.0
 40
6.0
 40
7.0
 40
7.0
 40
7.0
 40
8.0
 40
8.0
 40
8.0
 40
9.0
 40
9.0
 40
9.0
 40
10.0
 40
10.0
 40
10.0
 40
11.0
 40
11.0
 40
11.0
 40
12.0
 40
12.0
 40
12.0
 40
13.0
 40
13.0
 40
13.0
 40
14.0
 40
14.0
 40
14.0
 40
15.0
 40
15.0
 40
15.0
 40
16.0
 40
16.0
 40
16.0
 40
17.0
 40
17.0
 40
17.0
 40
18.0
 40
18.0
 40
18.0
 40
19.0
 40
19.0
 40
19.0
 40
20.0
 40
20.0
 40
20.0
 40
20.0
 10
1.840432170125571
 20
-2.515231396731046
 10
1.840432170125571
 20
-2.515231396731046
 10
0.1393959288061271
 20
-2.515231396731046
 10
0.1393959288061271
 20
-2.515231396731046
 10
0.1308035351429327
 20
-2.499972607668546
 10
0.1153684222957104
 20
-2.489772954890768
 10
0.0977835156116827
 20
-2.489772954890768
 10
0.0902626280248771
 20
-2.489772954890768
 10
0.0831350781116827
 20
-2.491644699682435
 10
0.0767670768095993
 20
-2.494967724856046
 10
0.070399075507516
 20
-2.491644699682435
 10
0.0632715255943216
 20
-2.489772954890768
 10
0.055750638007516
 20
-2.489772954890768
 10
0.0382674565839049
 20
-2.489772954890768
 10
0.0229069422609882
 20
-2.499850537356046
 10
0.0142874218616827
 20
-2.515231396731046
 10
0.0142874218616827
 20
-2.515231396731046
 10
-0.1368356250133173
 20
-2.515231396731046
 10
-0.1368356250133173
 20
-2.515231396731046
 10
-0.1712255447181784
 20
-2.515231396731046
 10
-0.1961889236244284
 20
-2.554890684925491
 10
-0.1961889236244284
 20
-2.609523931453268
 10
-0.1961889236244284
 20
-2.609523931453268
 10
-0.1961889236244284
 20
-3.124158805585213
 10
-0.1961889236244284
 20
-3.124158805585213
 10
-0.1961889236244284
 20
-3.178805615481046
 10
-0.1712255447181784
 20
-3.218464903675491
 10
-0.1368356250133173
 20
-3.218464903675491
 10
-0.1368356250133173
 20
-3.218464903675491
 10
0.0141314431290438
 20
-3.218464903675491
 10
0.0141314431290438
 20
-3.218464903675491
 10
0.0227238367922382
 20
-3.233723692737991
 10
0.0381657313234882
 20
-3.243923345515768
 10
0.055750638007516
 20
-3.243923345515768
 10
0.0632715255943216
 20
-3.243923345515768
 10
0.070399075507516
 20
-3.242051600724102
 10
0.0767670768095993
 20
-3.238728575550491
 10
0.0831350781116827
 20
-3.242051600724102
 10
0.0902626280248771
 20
-3.243923345515768
 10
0.0977835156116827
 20
-3.243923345515768
 10
0.1153684222957104
 20
-3.243923345515768
 10
0.1308035351429327
 20
-3.233723692737991
 10
0.1393959288061271
 20
-3.218464903675491
 10
0.1393959288061271
 20
-3.218464903675491
 10
1.840432170125571
 20
-3.218464903675491
 10
1.840432170125571
 20
-3.218464903675491
 10
1.840432170125571
 20
-3.218464903675491
 10
1.868372708320015
 20
-3.191087245255352
 10
1.868372708320015
 20
-3.191087245255352
 10
1.868372708320015
 20
-3.191087245255352
 10
1.868372708320015
 20
-3.191087245255352
 10
1.868372708320015
 20
-3.191087245255352
 10
1.868372708320015
 20
-3.191087245255352
 10
2.100930217000571
 20
-2.945773388918546
 10
2.100930217000571
 20
-2.945773388918546
 10
2.100930217000571
 20
-2.945773388918546
 10
2.178187161445015
 20
-2.867105854196324
 10
2.178187161445015
 20
-2.867105854196324
 10
2.178187161445015
 20
-2.867105854196324
 10
1.868289632690675
 20
-2.542368305368199
 10
1.868289632690675
 20
-2.542368305368199
 97
        0
 72
     1
 10
1.868289632690675
 20
-2.542368305368199
 11
1.840432170125571
 21
-2.515231396731046
 97
        0
 75
     2
 76
     1
 98
        1
 10
0.0
 20
0.0
450
        0
451
        0
460
0.0
461
0.0
452
        0
462
0.0
453
        0
470

  0
INSERT
  5
85
330
70
100
AcDbEntity
  8
Text
100
AcDbBlockReference
  2
Block_0
 10
0.0
 20
0.0
 30
0.0
  0
LWPOLYLINE
  5
8E
330
70
100
AcDbEntity
  8
Text
100
AcDbPolyline
 90
        4
 70
     1
 43
0.0
 10
2.134160756501185
 20
-2.867717171652808
 10
2.075422428331194
 20
-2.927433597552534
 10
2.075422569083078
 20
-2.806262702854003
 10
2.134160756501185
 20
-2.867717171652808
  0
HATCH
  5
8F
330
70
100
AcDbEntity
  8
Text
 62
    18
420
        0
440
 33554687
100
AcDbHatch
 10
0.0
 20
0.0
 30
0.0
210
0.0
220
0.0
230
1.0
  2
SOLID
 70
     1
 71
     1
 91
        1
 92
        1
 93
        3
 72
     1
 10
2.134160756501185
 20
-2.867717171652808
 11
2.075422428331194
 21
-2.927433597552534
 72
     1
 10
2.075422428331194
 20
-2.927433597552534
 11
2.075422569083078
 21
-2.806262702854003
 72
     1
 10
2.075422569083078
 20
-2.806262702854003
 11
2.134160756501185
 21
-2.867717171652808
 97
        1
330
8E
 75
     2
 76
     1
 98
        1
 10
0.0
 20
0.0
450
        0
451
        0
460
0.0
461
0.0
452
        0
462
0.0
453
        0
470

  0
INSERT
  5
91
330
70
100
AcDbEntity
  8
Text
100
AcDbBlockReference
  2
Block_1
 10
0.0
 20
0.0
 30
0.0
  0
SPLINE
  5
9A
330
70
100
AcDbEntity
  8
Text
100
AcDbSpline
210
0.0
220
0.0
230
1.0
 70
     9
 71
     3
 72
    35
 73
    31
 74
     0
 42
0.0000000001
 43
0.0000000001
 40
0.0
 40
0.0
 40
0.0
 40
0.0
 40
1.0
 40
1.0
 40
1.0
 40
2.0
 40
2.0
 40
2.0
 40
3.0
 40
3.0
 40
3.0
 40
4.0
 40
4.0
 40
4.0
 40
5.0
 40
5.0
 40
5.0
 40
6.0
 40
6.0
 40
6.0
 40
7.0
 40
7.0
 40
7.0
 40
8.0
 40
8.0
 40
8.0
 40
9.0
 40
9.0
 40
9.0
 40
10.0
 40
10.0
 40
10.0
 40
10.0
 10
0.0924353747603593
 20
-2.518426434480993
 30
0.0
 10
0.0808285746136967
 20
-2.518426434480993
 30
0.0
 10
0.0714182946007264
 20
-2.529825599923115
 30
0.0
 10
0.0714182946007264
 20
-2.543887430534697
 30
0.0
 10
0.0714182946007264
 20
-2.529825599923115
 30
0.0
 10
0.0620080145877435
 20
-2.518426434480993
 30
0.0
 10
0.0504012144410682
 20
-2.518426434480993
 30
0.0
 10
0.0387932320984166
 20
-2.518426434480993
 30
0.0
 10
0.0293829520854337
 20
-2.529825599923115
 30
0.0
 10
0.0293829520854337
 20
-2.543887430534697
 30
0.0
 10
0.0293829520854337
 20
-2.543887430534697
 30
0.0
 10
0.0293829520854337
 20
-3.191560023386702
 30
0.0
 10
0.0293829520854337
 20
-3.191560023386702
 30
0.0
 10
0.0293829520854337
 20
-3.205621853998283
 30
0.0
 10
0.0387932320984166
 20
-3.217021019440405
 30
0.0
 10
0.0504012144410682
 20
-3.217021019440405
 30
0.0
 10
0.0620080145877435
 20
-3.217021019440405
 30
0.0
 10
0.0714182946007264
 20
-3.205621853998283
 30
0.0
 10
0.0714182946007264
 20
-3.191560023386702
 30
0.0
 10
0.0714182946007264
 20
-3.205621853998283
 30
0.0
 10
0.0808285746136967
 20
-3.217021019440405
 30
0.0
 10
0.0924353747603593
 20
-3.217021019440405
 30
0.0
 10
0.1040433571030108
 20
-3.217021019440405
 30
0.0
 10
0.1134536371160064
 20
-3.205621853998283
 30
0.0
 10
0.1134536371160064
 20
-3.191560023386702
 30
0.0
 10
0.1134536371160064
 20
-3.191560023386702
 30
0.0
 10
0.1134536371160064
 20
-2.543887430534697
 30
0.0
 10
0.1134536371160064
 20
-2.543887430534697
 30
0.0
 10
0.1134536371160064
 20
-2.529825599923115
 30
0.0
 10
0.1040433571030108
 20
-2.518426434480993
 30
0.0
 10
0.0924353747603593
 20
-2.518426434480993
 30
0.0
  0
HATCH
  5
9B
330
70
100
AcDbEntity
  8
Text
 62
    18
420
        0
440
 33554687
100
AcDbHatch
 10
0.0
 20
0.0
 30
0.0
210
0.0
220
0.0
230
1.0
  2
SOLID
 70
     1
 71
     1
 91
        1
 92
        1
 93
        1
 72
     4
 94
        3
 73
     0
 74
     0
 95
       35
 96
       31
 40
0.0
 40
0.0
 40
0.0
 40
0.0
 40
1.0
 40
1.0
 40
1.0
 40
2.0
 40
2.0
 40
2.0
 40
3.0
 40
3.0
 40
3.0
 40
4.0
 40
4.0
 40
4.0
 40
5.0
 40
5.0
 40
5.0
 40
6.0
 40
6.0
 40
6.0
 40
7.0
 40
7.0
 40
7.0
 40
8.0
 40
8.0
 40
8.0
 40
9.0
 40
9.0
 40
9.0
 40
10.0
 40
10.0
 40
10.0
 40
10.0
 10
0.0924353747603593
 20
-2.518426434480993
 10
0.0808285746136967
 20
-2.518426434480993
 10
0.0714182946007264
 20
-2.529825599923115
 10
0.0714182946007264
 20
-2.543887430534697
 10
0.0714182946007264
 20
-2.529825599923115
 10
0.0620080145877435
 20
-2.518426434480993
 10
0.0504012144410682
 20
-2.518426434480993
 10
0.0387932320984166
 20
-2.518426434480993
 10
0.0293829520854337
 20
-2.529825599923115
 10
0.0293829520854337
 20
-2.543887430534697
 10
0.0293829520854337
 20
-2.543887430534697
 10
0.0293829520854337
 20
-3.191560023386702
 10
0.0293829520854337
 20
-3.191560023386702
 10
0.0293829520854337
 20
-3.205621853998283
 10
0.0387932320984166
 20
-3.217021019440405
 10
0.0504012144410682
 20
-3.217021019440405
 10
0.0620080145877435
 20
-3.217021019440405
 10
0.0714182946007264
 20
-3.205621853998283
 10
0.0714182946007264
 20
-3.191560023386702
 10
0.0714182946007264
 20
-3.205621853998283
 10
0.0808285746136967
 20
-3.217021019440405
 10
0.0924353747603593
 20
-3.217021019440405
 10
0.1040433571030108
 20
-3.217021019440405
 10
0.1134536371160064
 20
-3.205621853998283
 10
0.1134536371160064
 20
-3.191560023386702
 10
0.1134536371160064
 20
-3.191560023386702
 10
0.1134536371160064
 20
-2.543887430534697
 10
0.1134536371160064
 20
-2.543887430534697
 10
0.1134536371160064
 20
-2.529825599923115
 10
0.1040433571030108
 20
-2.518426434480993
 10
0.0924353747603593
 20
-2.518426434480993
 97
        0
 97
        1
330
9A
 75
     2
 76
     1
 98
        1
 10
0.0
 20
0.0
450
        0
451
        0
460
0.0
461
0.0
452
        0
462
0.0
453
        0
470

  0
SPLINE
  5
9C
330
70
100
AcDbEntity
  8
Text
100
AcDbSpline
210
0.0
220
0.0
230
1.0
 70
     9
 71
     3
 72
    29
 73
    25
 74
     0
 42
0.0000000001
 43
0.0000000001
 40
0.0
 40
0.0
 40
0.0
 40
0.0
 40
1.0
 40
1.0
 40
1.0
 40
2.0
 40
2.0
 40
2.0
 40
3.0
 40
3.0
 40
3.0
 40
4.0
 40
4.0
 40
4.0
 40
5.0
 40
5.0
 40
5.0
 40
6.0
 40
6.0
 40
6.0
 40
7.0
 40
7.0
 40
7.0
 40
8.0
 40
8.0
 40
8.0
 40
8.0
 10
0.0293829520854337
 20
-2.544875575164244
 30
0.0
 10
0.0278537751544516
 20
-2.544396295433771
 30
0.0
 10
0.0263260024263193
 20
-2.543887430534697
 30
0.0
 10
0.0247329342645091
 20
-2.543887430534697
 30
0.0
 10
0.0247329342645091
 20
-2.543887430534697
 30
0.0
 10
-0.1421860657028194
 20
-2.543887430534697
 30
0.0
 10
-0.1421860657028194
 20
-2.543887430534697
 30
0.0
 10
-0.1596234570059652
 20
-2.543887430534697
 30
0.0
 10
-0.17375886524826
 20
-2.573669340455075
 30
0.0
 10
-0.17375886524826
 20
-2.610408202759824
 30
0.0
 10
-0.17375886524826
 20
-2.610408202759824
 30
0.0
 10
-0.17375886524826
 20
-3.125039251161574
 30
0.0
 10
-0.17375886524826
 20
-3.125039251161574
 30
0.0
 10
-0.17375886524826
 20
-3.161778113466324
 30
0.0
 10
-0.1596234570059652
 20
-3.191560023386702
 30
0.0
 10
-0.1421860657028194
 20
-3.191560023386702
 30
0.0
 10
-0.1421860657028194
 20
-3.191560023386702
 30
0.0
 10
0.0247329342645091
 20
-3.191560023386702
 30
0.0
 10
0.0247329342645091
 20
-3.191560023386702
 30
0.0
 10
0.0263260024263193
 20
-3.191560023386702
 30
0.0
 10
0.0278537751544516
 20
-3.191051158487627
 30
0.0
 10
0.0293829520854337
 20
-3.190571878757155
 30
0.0
 10
0.0293829520854337
 20
-3.190571878757155
 30
0.0
 10
0.0293829520854337
 20
-2.544875575164244
 30
0.0
 10
0.0293829520854337
 20
-2.544875575164244
 30
0.0
  0
HATCH
  5
9D
330
70
100
AcDbEntity
  8
Text
 62
     1
420
 16711680
440
 33554687
100
AcDbHatch
 10
0.0
 20
0.0
 30
0.0
210
0.0
220
0.0
230
1.0
  2
SOLID
 70
     1
 71
     1
 91
        1
 92
        1
 93
        1
 72
     4
 94
        3
 73
     0
 74
     0
 95
       29
 96
       25
 40
0.0
 40
0.0
 40
0.0
 40
0.0
 40
1.0
 40
1.0
 40
1.0
 40
2.0
 40
2.0
 40
2.0
 40
3.0
 40
3.0
 40
3.0
 40
4.0
 40
4.0
 40
4.0
 40
5.0
 40
5.0
 40
5.0
 40
6.0
 40
6.0
 40
6.0
 40
7.0
 40
7.0
 40
7.0
 40
8.0
 40
8.0
 40
8.0
 40
8.0
 10
0.0293829520854337
 20
-2.544875575164244
 10
0.0278537751544516
 20
-2.544396295433771
 10
0.0263260024263193
 20
-2.543887430534697
 10
0.0247329342645091
 20
-2.543887430534697
 10
0.0247329342645091
 20
-2.543887430534697
 10
-0.1421860657028194
 20
-2.543887430534697
 10
-0.1421860657028194
 20
-2.543887430534697
 10
-0.1596234570059652
 20
-2.543887430534697
 10
-0.17375886524826
 20
-2.573669340455075
 10
-0.17375886524826
 20
-2.610408202759824
 10
-0.17375886524826
 20
-2.610408202759824
 10
-0.17375886524826
 20
-3.125039251161574
 10
-0.17375886524826
 20
-3.125039251161574
 10
-0.17375886524826
 20
-3.161778113466324
 10
-0.1596234570059652
 20
-3.191560023386702
 10
-0.1421860657028194
 20
-3.191560023386702
 10
-0.1421860657028194
 20
-3.191560023386702
 10
0.0247329342645091
 20
-3.191560023386702
 10
0.0247329342645091
 20
-3.191560023386702
 10
0.0263260024263193
 20
-3.191560023386702
 10
0.0278537751544516
 20
-3.191051158487627
 10
0.0293829520854337
 20
-3.190571878757155
 10
0.0293829520854337
 20
-3.190571878757155
 10
0.0293829520854337
 20
-2.544875575164244
 10
0.0293829520854337
 20
-2.544875575164244
 97
        0
 97
        1
330
9C
 75
     2
 76
     1
 98
        1
 10
0.0
 20
0.0
450
        0
451
        0
460
0.0
461
0.0
452
        0
462
0.0
453
        0
470

  0
INSERT
  5
9F
330
70
100
AcDbEntity
  8
Text
100
AcDbBlockReference
  2
Block_2
 10
0.0
 20
0.0
 30
0.0
  0
INSERT
  5
AE
330
70
100
AcDbEntity
  8
Text
100
AcDbBlockReference
  2
Block_3
 10
0.0
 20
0.0
 30
0.0
  0
INSERT
  5
C0
330
70
100
AcDbEntity
  8
Text
100
AcDbBlockReference
  2
Block_4
 10
0.0
 20
0.0
 30
0.0
  0
SPLINE
  5
C8
330
70
100
AcDbEntity
  8
Text
100
AcDbSpline
210
0.0
220
0.0
230
1.0
 70
     9
 71
     3
 72
    38
 73
    34
 74
     0
 42
0.0000000001
 43
0.0000000001
 40
0.0
 40
0.0
 40
0.0
 40
0.0
 40
1.0
 40
1.0
 40
1.0
 40
2.0
 40
2.0
 40
2.0
 40
3.0
 40
3.0
 40
3.0
 40
4.0
 40
4.0
 40
4.0
 40
5.0
 40
5.0
 40
5.0
 40
6.0
 40
6.0
 40
6.0
 40
7.0
 40
7.0
 40
7.0
 40
8.0
 40
8.0
 40
8.0
 40
9.0
 40
9.0
 40
9.0
 40
10.0
 40
10.0
 40
10.0
 40
11.0
 40
11.0
 40
11.0
 40
11.0
 10
1.831133145812549
 20
-2.550149232227972
 30
0.0
 10
1.829926853766108
 20
-2.547554506187502
 30
0.0
 10
1.828656983431907
 20
-2.54551781339857
 30
0.0
 10
1.827352356967063
 20
-2.543887430534697
 30
0.0
 10
1.814654501335553
 20
-2.555753566173279
 30
0.0
 10
1.805286452561681
 20
-2.59626112275325
 30
0.0
 10
1.805286452561681
 20
-2.644552000260697
 30
0.0
 10
1.805286452561681
 20
-2.702148575123626
 30
0.0
 10
1.818592964334685
 20
-2.748838214360956
 30
0.0
 10
1.835008030523921
 20
-2.748838214360956
 30
0.0
 10
1.818592964334685
 20
-2.748838214360956
 30
0.0
 10
1.805286452561681
 20
-2.802066528932451
 30
0.0
 10
1.805286452561681
 20
-2.867725012751609
 30
0.0
 10
1.805286452561681
 20
-2.933385210958628
 30
0.0
 10
1.818592964334685
 20
-2.986611811142261
 30
0.0
 10
1.835008030523921
 20
-2.986611811142261
 30
0.0
 10
1.818592964334685
 20
-2.986611811142261
 30
0.0
 10
1.805286452561681
 20
-3.033302307573497
 30
0.0
 10
1.805286452561681
 20
-3.09089802524252
 30
0.0
 10
1.805286452561681
 20
-3.139186331168148
 30
0.0
 10
1.814652805914546
 20
-3.179691316166326
 30
0.0
 10
1.827349813835553
 20
-3.191560023386702
 30
0.0
 10
1.828672242220969
 20
-3.189907353480521
 30
0.0
 10
1.829957371344233
 20
-3.18783294415847
 30
0.0
 10
1.831178074469233
 20
-3.185191072451591
 30
0.0
 10
1.831178074469233
 20
-3.185191072451591
 30
0.0
 10
2.075422967861161
 20
-2.927542577099453
 30
0.0
 10
2.075422967861161
 20
-2.927542577099453
 30
0.0
 10
2.075422967861161
 20
-2.927542577099453
 30
0.0
 10
2.075422967861161
 20
-2.806166487522305
 30
0.0
 10
2.075422967861161
 20
-2.806166487522305
 30
0.0
 10
2.075422967861161
 20
-2.806166487522305
 30
0.0
 10
1.831133145812549
 20
-2.550149232227972
 30
0.0
 10
1.831133145812549
 20
-2.550149232227972
 30
0.0
  0
HATCH
  5
C9
330
70
100
AcDbEntity
  8
Text
 62
    33
420
 13016173
440
 33554687
100
AcDbHatch
 10
0.0
 20
0.0
 30
0.0
210
0.0
220
0.0
230
1.0
  2
SOLID
 70
     1
 71
     1
 91
        1
 92
        1
 93
        1
 72
     4
 94
        3
 73
     0
 74
     0
 95
       38
 96
       34
 40
0.0
 40
0.0
 40
0.0
 40
0.0
 40
1.0
 40
1.0
 40
1.0
 40
2.0
 40
2.0
 40
2.0
 40
3.0
 40
3.0
 40
3.0
 40
4.0
 40
4.0
 40
4.0
 40
5.0
 40
5.0
 40
5.0
 40
6.0
 40
6.0
 40
6.0
 40
7.0
 40
7.0
 40
7.0
 40
8.0
 40
8.0
 40
8.0
 40
9.0
 40
9.0
 40
9.0
 40
10.0
 40
10.0
 40
10.0
 40
11.0
 40
11.0
 40
11.0
 40
11.0
 10
1.831133145812549
 20
-2.550149232227972
 10
1.829926853766108
 20
-2.547554506187502
 10
1.828656983431907
 20
-2.54551781339857
 10
1.827352356967063
 20
-2.543887430534697
 10
1.814654501335553
 20
-2.555753566173279
 10
1.805286452561681
 20
-2.59626112275325
 10
1.805286452561681
 20
-2.644552000260697
 10
1.805286452561681
 20
-2.702148575123626
 10
1.818592964334685
 20
-2.748838214360956
 10
1.835008030523921
 20
-2.748838214360956
 10
1.818592964334685
 20
-2.748838214360956
 10
1.805286452561681
 20
-2.802066528932451
 10
1.805286452561681
 20
-2.867725012751609
 10
1.805286452561681
 20
-2.933385210958628
 10
1.818592964334685
 20
-2.986611811142261
 10
1.835008030523921
 20
-2.986611811142261
 10
1.818592964334685
 20
-2.986611811142261
 10
1.805286452561681
 20
-3.033302307573497
 10
1.805286452561681
 20
-3.09089802524252
 10
1.805286452561681
 20
-3.139186331168148
 10
1.814652805914546
 20
-3.179691316166326
 10
1.827349813835553
 20
-3.191560023386702
 10
1.828672242220969
 20
-3.189907353480521
 10
1.829957371344233
 20
-3.18783294415847
 10
1.831178074469233
 20
-3.185191072451591
 10
1.831178074469233
 20
-3.185191072451591
 10
2.075422967861161
 20
-2.927542577099453
 10
2.075422967861161
 20
-2.927542577099453
 10
2.075422967861161
 20
-2.927542577099453
 10
2.075422967861161
 20
-2.806166487522305
 10
2.075422967861161
 20
-2.806166487522305
 10
2.075422967861161
 20
-2.806166487522305
 10
1.831133145812549
 20
-2.550149232227972
 10
1.831133145812549
 20
-2.550149232227972
 97
        0
 97
        1
330
C8
 75
     2
 76
     1
 98
        1
 10
0.0
 20
0.0
450
        0
451
        0
460
0.0
461
0.0
452
        0
462
0.0
453
        0
470

  0
ENDSEC
  0
SECTION
  2
OBJECTS
  0
DICTIONARY
  5
C
330
0
100
AcDbDictionary
281
     1
  3
ACAD_COLOR
350
63
  3
ACAD_DETAILVIEWSTYLE
350
6A
  3
ACAD_GROUP
350
D
  3
ACAD_LAYOUT
350
62
  3
ACAD_MATERIAL
350
10
  3
ACAD_MLEADERSTYLE
350
66
  3
ACAD_MLINESTYLE
350
5F
  3
ACAD_PLOTSETTINGS
350
61
  3
ACAD_PLOTSTYLENAME
350
E
  3
ACAD_SCALELIST
350
42
  3
ACAD_SECTIONVIEWSTYLE
350
68
  3
ACAD_TABLESTYLE
350
64
  3
ACAD_VISUALSTYLE
350
29
  3
ACDB_RECOMPOSE_DATA
350
D2
  3
AcDbVariableDictionary
350
CA
  0
DICTIONARY
  5
63
102
{ACAD_REACTORS
330
C
102
}
330
C
100
AcDbDictionary
281
     1
  0
DICTIONARY
  5
6A
102
{ACAD_REACTORS
330
C
102
}
330
C
100
AcDbDictionary
281
     1
  3
Imperial24
350
6B
  0
DICTIONARY
  5
D
102
{ACAD_REACTORS
330
C
102
}
330
C
100
AcDbDictionary
281
     1
  0
DICTIONARY
  5
62
102
{ACAD_REACTORS
330
C
102
}
330
C
100
AcDbDictionary
281
     1
  3
Layout1
350
6F
  3
Layout2
350
77
  3
Model
350
73
  0
DICTIONARY
  5
10
102
{ACAD_REACTORS
330
C
102
}
330
C
100
AcDbDictionary
281
     1
  3
ByBlock
350
19
  3
ByLayer
350
11
  3
Global
350
21
  0
DICTIONARY
  5
66
102
{ACAD_REACTORS
330
C
102
}
330
C
100
AcDbDictionary
281
     1
  3
Standard
350
67
  0
DICTIONARY
  5
5F
102
{ACAD_REACTORS
330
C
102
}
330
C
100
AcDbDictionary
281
     1
  3
Standard
350
60
  0
DICTIONARY
  5
61
102
{ACAD_REACTORS
330
C
102
}
330
C
100
AcDbDictionary
281
     1
  0
ACDBDICTIONARYWDFLT
  5
E
102
{ACAD_REACTORS
330
C
102
}
330
C
100
AcDbDictionary
281
     1
  3
Normal
350
F
100
AcDbDictionaryWithDefault
340
F
  0
DICTIONARY
  5
42
102
{ACAD_REACTORS
330
C
102
}
330
C
100
AcDbDictionary
281
     1
  3
A0
350
43
  3
A1
350
44
  3
A2
350
45
  3
A3
350
46
  3
A4
350
47
  3
A5
350
48
  3
A6
350
49
  3
A7
350
4A
  3
A8
350
4B
  3
A9
350
4C
  3
B0
350
4D
  3
B1
350
4E
  3
B2
350
4F
  3
B3
350
50
  3
B4
350
51
  3
B5
350
52
  3
B6
350
53
  0
DICTIONARY
  5
68
102
{ACAD_REACTORS
330
C
102
}
330
C
100
AcDbDictionary
281
     1
  3
Imperial24
350
69
  0
DICTIONARY
  5
64
102
{ACAD_REACTORS
330
C
102
}
330
C
100
AcDbDictionary
281
     1
  3
Standard
350
65
  0
DICTIONARY
  5
29
102
{ACAD_REACTORS
330
C
102
}
330
C
100
AcDbDictionary
281
     1
  3
2dWireframe
350
2F
  3
Basic
350
2E
  3
Brighten
350
35
  3
ColorChange
350
39
  3
Conceptual
350
32
  3
Dim
350
34
  3
EdgeColorOff
350
41
  3
Facepattern
350
38
  3
Flat
350
2A
  3
FlatWithEdges
350
2B
  3
Gouraud
350
2C
  3
GouraudWithEdges
350
2D
  3
Hidden
350
31
  3
JitterOff
350
3F
  3
Linepattern
350
37
  3
OverhangOff
350
40
  3
Realistic
350
33
  3
Shaded
350
3E
  3
Shaded with edges
350
3D
  3
Shades of Gray
350
3A
  3
Sketchy
350
3B
  3
Thicken
350
36
  3
Wireframe
350
30
  3
X-Ray
350
3C
  0
XRECORD
  5
D2
102
{ACAD_REACTORS
330
C
102
}
330
C
100
AcDbXrecord
280
     1
 90
        1
330
65
  0
DICTIONARY
  5
CA
102
{ACAD_REACTORS
330
C
102
}
330
C
100
AcDbDictionary
281
     1
  3
CANNOSCALE
350
CF
  3
CMLEADERSTYLE
350
CC
  3
CTABLESTYLE
350
CB
  3
CVIEWDETAILSTYLE
350
CD
  3
CVIEWSECTIONSTYLE
350
CE
  0
ACDBDETAILVIEWSTYLE
  5
6B
102
{ACAD_REACTORS
330
6A
102
}
330
6A
100
AcDbModelDocViewStyle
 70
     0
  3
Imperial24
290
     1
300
Imperial24
 90
        0
100
AcDbDetailViewStyle
 70
     0
 71
     0
 90
        3
 71
     1
340
55
 62
   256
 40
0.24
340
0
 62
   256
 40
0.24
300

 40
0.36
280
     3
 71
     2
340
5D
 90
       25
 62
   256
 71
     3
340
55
 62
   256
 40
0.24
 90
        1
 40
0.75
 90
        1
300
%<\AcVar ViewType \f "%tc1">% %<\AcVar ViewDetailId>%\PSCALE %<\AcVar ViewScale \f "%sn">%
 71
     4
340
5D
 90
       25
 62
   256
340
5D
 90
       25
 62
   256
280
     0
  0
LAYOUT
  5
6F
102
{ACAD_REACTORS
330
62
102
}
330
62
100
AcDbPlotSettings
  1

  2

  4

  6

 40
0.0
 41
0.0
 42
0.0
 43
0.0
 44
0.0
 45
0.0
 46
0.0
 47
0.0
 48
0.0
 49
0.0
140
0.0
141
0.0
142
1.0
143
1.0
 70
   688
 72
     0
 73
     0
 74
     5
  7

 75
    16
147
1.0
 76
     0
 77
     2
 78
   300
148
0.0
149
0.0
100
AcDbLayout
  1
Layout1
 70
     1
 71
     1
 10
0.0
 20
0.0
 11
12.0
 21
9.0
 12
0.0
 22
0.0
 32
0.0
 14
0.0
 24
0.0
 34
0.0
 15
0.0
 25
0.0
 35
0.0
146
0.0
 13
0.0
 23
0.0
 33
0.0
 16
1.0
 26
0.0
 36
0.0
 17
0.0
 27
1.0
 37
0.0
 76
     0
330
6C
  0
LAYOUT
  5
77
102
{ACAD_REACTORS
330
62
102
}
330
62
100
AcDbPlotSettings
  1

  2

  4

  6

 40
0.0
 41
0.0
 42
0.0
 43
0.0
 44
0.0
 45
0.0
 46
0.0
 47
0.0
 48
0.0
 49
0.0
140
0.0
141
0.0
142
1.0
143
1.0
 70
   688
 72
     0
 73
     0
 74
     5
  7

 75
    16
147
1.0
 76
     0
 77
     2
 78
   300
148
0.0
149
0.0
100
AcDbLayout
  1
Layout2
 70
     1
 71
     2
 10
0.0
 20
0.0
 11
12.0
 21
9.0
 12
0.0
 22
0.0
 32
0.0
 14
0.0
 24
0.0
 34
0.0
 15
0.0
 25
0.0
 35
0.0
146
0.0
 13
0.0
 23
0.0
 33
0.0
 16
1.0
 26
0.0
 36
0.0
 17
0.0
 27
1.0
 37
0.0
 76
     0
330
74
  0
LAYOUT
  5
73
102
{ACAD_REACTORS
330
62
102
}
330
62
100
AcDbPlotSettings
  1

  2

  4

  6

 40
0.0
 41
0.0
 42
0.0
 43
0.0
 44
0.0
 45
0.0
 46
0.0
 47
0.0
 48
0.0
 49
0.0
140
0.0
141
0.0
142
1.0
143
1.0
 70
  1712
 72
     0
 73
     0
 74
     0
  7

 75
     0
147
1.0
 76
     0
 77
     2
 78
   300
148
0.0
149
0.0
100
AcDbLayout
  1
Model
 70
     1
 71
     0
 10
0.0
 20
0.0
 11
12.0
 21
9.0
 12
0.0
 22
0.0
 32
0.0
 14
0.0
 24
0.0
 34
0.0
 15
0.0
 25
0.0
 35
0.0
146
0.0
 13
0.0
 23
0.0
 33
0.0
 16
1.0
 26
0.0
 36
0.0
 17
0.0
 27
1.0
 37
0.0
 76
     0
330
70
  0
MATERIAL
  5
19
102
{ACAD_XDICTIONARY
360
1A
102
}
102
{ACAD_REACTORS
330
10
102
}
330
10
100
AcDbMaterial
  1
ByBlock
 72
     0
 43
0.0208333333333333
 43
0.0
 43
0.0
 43
0.0
 43
0.0
 43
0.0208333333333333
 43
0.0
 43
0.0
 43
0.0
 43
0.0
 43
1.0
 43
0.0
 43
0.0
 43
0.0
 43
0.0
 43
1.0
 77
     0
 47
0.0208333333333333
 47
0.0
 47
0.0
 47
0.0
 47
0.0
 47
0.0208333333333333
 47
0.0
 47
0.0
 47
0.0
 47
0.0
 47
1.0
 47
0.0
 47
0.0
 47
0.0
 47
0.0
 47
1.0
171
     0
 49
0.0208333333333333
 49
0.0
 49
0.0
 49
0.0
 49
0.0
 49
0.0208333333333333
 49
0.0
 49
0.0
 49
0.0
 49
0.0
 49
1.0
 49
0.0
 49
0.0
 49
0.0
 49
0.0
 49
1.0
175
     0
142
0.0208333333333333
142
0.0
142
0.0
142
0.0
142
0.0
142
0.0208333333333333
142
0.0
142
0.0
142
0.0
142
0.0
142
1.0
142
0.0
142
0.0
142
0.0
142
0.0
142
1.0
179
     0
144
0.0208333333333333
144
0.0
144
0.0
144
0.0
144
0.0
144
0.0208333333333333
144
0.0
144
0.0
144
0.0
144
0.0
144
1.0
144
0.0
144
0.0
144
0.0
144
0.0
144
1.0
147
0.0208333333333333
147
0.0
147
0.0
147
0.0
147
0.0
147
0.0208333333333333
147
0.0
147
0.0
147
0.0
147
0.0
147
1.0
147
0.0
147
0.0
147
0.0
147
0.0
147
1.0
  0
MATERIAL
  5
11
102
{ACAD_XDICTIONARY
360
12
102
}
102
{ACAD_REACTORS
330
10
102
}
330
10
100
AcDbMaterial
  1
ByLayer
 72
     0
 43
0.0208333333333333
 43
0.0
 43
0.0
 43
0.0
 43
0.0
 43
0.0208333333333333
 43
0.0
 43
0.0
 43
0.0
 43
0.0
 43
1.0
 43
0.0
 43
0.0
 43
0.0
 43
0.0
 43
1.0
 77
     0
 47
0.0208333333333333
 47
0.0
 47
0.0
 47
0.0
 47
0.0
 47
0.0208333333333333
 47
0.0
 47
0.0
 47
0.0
 47
0.0
 47
1.0
 47
0.0
 47
0.0
 47
0.0
 47
0.0
 47
1.0
171
     0
 49
0.0208333333333333
 49
0.0
 49
0.0
 49
0.0
 49
0.0
 49
0.0208333333333333
 49
0.0
 49
0.0
 49
0.0
 49
0.0
 49
1.0
 49
0.0
 49
0.0
 49
0.0
 49
0.0
 49
1.0
175
     0
142
0.0208333333333333
142
0.0
142
0.0
142
0.0
142
0.0
142
0.0208333333333333
142
0.0
142
0.0
142
0.0
142
0.0
142
1.0
142
0.0
142
0.0
142
0.0
142
0.0
142
1.0
179
     0
144
0.0208333333333333
144
0.0
144
0.0
144
0.0
144
0.0
144
0.0208333333333333
144
0.0
144
0.0
144
0.0
144
0.0
144
1.0
144
0.0
144
0.0
144
0.0
144
0.0
144
1.0
147
0.0208333333333333
147
0.0
147
0.0
147
0.0
147
0.0
147
0.0208333333333333
147
0.0
147
0.0
147
0.0
147
0.0
147
1.0
147
0.0
147
0.0
147
0.0
147
0.0
147
1.0
  0
MATERIAL
  5
21
102
{ACAD_XDICTIONARY
360
22
102
}
102
{ACAD_REACTORS
330
10
102
}
330
10
100
AcDbMaterial
  1
Global
 72
     0
 43
0.0208333333333333
 43
0.0
 43
0.0
 43
0.0
 43
0.0
 43
0.0208333333333333
 43
0.0
 43
0.0
 43
0.0
 43
0.0
 43
1.0
 43
0.0
 43
0.0
 43
0.0
 43
0.0
 43
1.0
 77
     0
 47
0.0208333333333333
 47
0.0
 47
0.0
 47
0.0
 47
0.0
 47
0.0208333333333333
 47
0.0
 47
0.0
 47
0.0
 47
0.0
 47
1.0
 47
0.0
 47
0.0
 47
0.0
 47
0.0
 47
1.0
171
     0
 49
0.0208333333333333
 49
0.0
 49
0.0
 49
0.0
 49
0.0
 49
0.0208333333333333
 49
0.0
 49
0.0
 49
0.0
 49
0.0
 49
1.0
 49
0.0
 49
0.0
 49
0.0
 49
0.0
 49
1.0
175
     0
142
0.0208333333333333
142
0.0
142
0.0
142
0.0
142
0.0
142
0.0208333333333333
142
0.0
142
0.0
142
0.0
142
0.0
142
1.0
142
0.0
142
0.0
142
0.0
142
0.0
142
1.0
179
     0
144
0.0208333333333333
144
0.0
144
0.0
144
0.0
144
0.0
144
0.0208333333333333
144
0.0
144
0.0
144
0.0
144
0.0
144
1.0
144
0.0
144
0.0
144
0.0
144
0.0
144
1.0
147
0.0208333333333333
147
0.0
147
0.0
147
0.0
147
0.0
147
0.0208333333333333
147
0.0
147
0.0
147
0.0
147
0.0
147
1.0
147
0.0
147
0.0
147
0.0
147
0.0
147
1.0
  0
MLEADERSTYLE
  5
67
102
{ACAD_REACTORS
330
66
102
}
330
66
100
AcDbMLeaderStyle
179
     2
170
     2
171
     1
172
     0
 90
        2
 40
0.0
 41
0.0
173
     1
 91
-1056964608
340
5B
 92
       -2
290
     1
 42
0.09
291
     1
 43
0.36
  3
Standard
 44
0.18
300

342
55
174
     1
178
     6
175
     1
176
     0
 93
-1056964608
 45
0.18
292
     0
297
     0
 46
0.18
 94
-1056964608
 47
1.0
 49
1.0
140
1.0
293
     1
141
0.0
294
     1
177
     0
142
1.0
295
     1
296
     0
143
0.125
271
     0
272
     9
273
     9
298
     1
  0
MLINESTYLE
  5
60
102
{ACAD_REACTORS
330
5F
102
}
330
5F
100
AcDbMlineStyle
  2
STANDARD
 70
     0
  3

 62
   256
 51
90.0
 52
90.0
 71
     2
 49
0.5
 62
   256
  6
BYLAYER
 49
-0.5
 62
   256
  6
BYLAYER
  0
ACDBPLACEHOLDER
  5
F
102
{ACAD_REACTORS
330
E
102
}
330
E
  0
SCALE
  5
43
102
{ACAD_REACTORS
330
42
102
}
330
42
100
AcDbScale
 70
     0
300
1:1
140
1.0
141
1.0
290
     1
  0
SCALE
  5
44
102
{ACAD_REACTORS
330
42
102
}
330
42
100
AcDbScale
 70
     0
300
1/128" = 1'-0"
140
0.0078125
141
12.0
290
     0
  0
SCALE
  5
45
102
{ACAD_REACTORS
330
42
102
}
330
42
100
AcDbScale
 70
     0
300
1/64" = 1'-0"
140
0.015625
141
12.0
290
     0
  0
SCALE
  5
46
102
{ACAD_REACTORS
330
42
102
}
330
42
100
AcDbScale
 70
     0
300
1/32" = 1'-0"
140
0.03125
141
12.0
290
     0
  0
SCALE
  5
47
102
{ACAD_REACTORS
330
42
102
}
330
42
100
AcDbScale
 70
     0
300
1/16" = 1'-0"
140
0.0625
141
12.0
290
     0
  0
SCALE
  5
48
102
{ACAD_REACTORS
330
42
102
}
330
42
100
AcDbScale
 70
     0
300
3/32" = 1'-0"
140
0.09375
141
12.0
290
     0
  0
SCALE
  5
49
102
{ACAD_REACTORS
330
42
102
}
330
42
100
AcDbScale
 70
     0
300
1/8" = 1'-0"
140
0.125
141
12.0
290
     0
  0
SCALE
  5
4A
102
{ACAD_REACTORS
330
42
102
}
330
42
100
AcDbScale
 70
     0
300
3/16" = 1'-0"
140
0.1875
141
12.0
290
     0
  0
SCALE
  5
4B
102
{ACAD_REACTORS
330
42
102
}
330
42
100
AcDbScale
 70
     0
300
1/4" = 1'-0"
140
0.25
141
12.0
290
     0
  0
SCALE
  5
4C
102
{ACAD_REACTORS
330
42
102
}
330
42
100
AcDbScale
 70
     0
300
3/8" = 1'-0"
140
0.375
141
12.0
290
     0
  0
SCALE
  5
4D
102
{ACAD_REACTORS
330
42
102
}
330
42
100
AcDbScale
 70
     0
300
1/2" = 1'-0"
140
0.5
141
12.0
290
     0
  0
SCALE
  5
4E
102
{ACAD_REACTORS
330
42
102
}
330
42
100
AcDbScale
 70
     0
300
3/4" = 1'-0"
140
0.75
141
12.0
290
     0
  0
SCALE
  5
4F
102
{ACAD_REACTORS
330
42
102
}
330
42
100
AcDbScale
 70
     0
300
1" = 1'-0"
140
1.0
141
12.0
290
     0
  0
SCALE
  5
50
102
{ACAD_REACTORS
330
42
102
}
330
42
100
AcDbScale
 70
     0
300
1-1/2" = 1'-0"
140
1.5
141
12.0
290
     0
  0
SCALE
  5
51
102
{ACAD_REACTORS
330
42
102
}
330
42
100
AcDbScale
 70
     0
300
3" = 1'-0"
140
3.0
141
12.0
290
     0
  0
SCALE
  5
52
102
{ACAD_REACTORS
330
42
102
}
330
42
100
AcDbScale
 70
     0
300
6" = 1'-0"
140
6.0
141
12.0
290
     0
  0
SCALE
  5
53
102
{ACAD_REACTORS
330
42
102
}
330
42
100
AcDbScale
 70
     0
300
1'-0" = 1'-0"
140
12.0
141
12.0
290
     0
  0
ACDBSECTIONVIEWSTYLE
  5
69
102
{ACAD_REACTORS
330
68
102
}
330
68
100
AcDbModelDocViewStyle
 70
     0
  3
Imperial24
290
     1
300
Imperial24
 90
        0
100
AcDbSectionViewStyle
 70
     0
 71
     0
 90
       78
 71
     1
340
55
 62
   256
 40
0.24
340
0
340
0
 62
   256
 40
0.24
300
I, O, Q, S, X, Z
 40
0.48
 90
        3
 40
0.18
 90
        1
 71
     2
340
5D
 90
       25
 62
   256
340
5D
 90
       50
 62
   256
 40
0.24
 40
0.0
 40
0.24
 71
     3
340
55
 62
   256
 40
0.24
 90
        1
 40
0.75
 90
        1
300
%<\AcVar ViewType \f "%tc1">% %<\AcVar ViewSectionStartId>%-%<\AcVar ViewSectionEndId>%\PSCALE %<\AcVar ViewScale \f "%sn">%
 71
     4
 62
   256
 62
   257
300
ANSI31
 40
1.0
 90
        0
290
     0
290
     0
 90
        6
 40
0.0
 40
1.570796326794896
 40
0.2617993877991494
 40
1.308996938995747
 40
-0.2617993877991494
 40
1.832595714594046
  0
TABLESTYLE
  5
65
102
{ACAD_XDICTIONARY
360
D0
102
}
102
{ACAD_REACTORS
330
64
102
}
330
64
100
AcDbTableStyle
280
     0
  3
Standard
 70
     0
 71
     0
 40
0.06
 41
0.06
280
     0
281
     0
  7
Standard
140
0.18
170
     2
 62
     0
 63
     7
283
     0
 90
      512
 91
        0
  1

274
    -2
284
     1
 64
     0
275
    -2
285
     1
 65
     0
276
    -2
286
     1
 66
     0
277
    -2
287
     1
 67
     0
278
    -2
288
     1
 68
     0
279
    -2
289
     1
 69
     0
  7
Standard
140
0.25
170
     5
 62
     0
 63
     7
283
     0
 90
      512
 91
        0
  1

274
    -2
284
     1
 64
     0
275
    -2
285
     1
 65
     0
276
    -2
286
     1
 66
     0
277
    -2
287
     1
 67
     0
278
    -2
288
     1
 68
     0
279
    -2
289
     1
 69
     0
  7
Standard
140
0.18
170
     5
 62
     0
 63
     7
283
     0
 90
      512
 91
        0
  1

274
    -2
284
     1
 64
     0
275
    -2
285
     1
 65
     0
276
    -2
286
     1
 66
     0
277
    -2
287
     1
 67
     0
278
    -2
288
     1
 68
     0
279
    -2
289
     1
 69
     0
  0
VISUALSTYLE
  5
2F
102
{ACAD_REACTORS
330
29
102
}
330
29
100
AcDbVisualStyle
  2
2dWireframe
 70
     4
177
     3
291
     0
 70
    58
 90
        0
176
     1
 90
        2
176
     1
 90
        0
176
     1
 90
        0
176
     1
 40
0.6
176
     1
 40
30.0
176
     1
 62
     7
420
 16777215
176
     1
 90
        1
176
     1
 90
        4
176
     1
 62
     7
176
     1
 62
   257
176
     1
 90
        1
176
     1
 90
        1
176
     1
 40
1.0
176
     1
 90
        0
176
     1
 62
   257
176
     1
 40
1.0
176
     1
 90
        1
176
     1
 90
        6
176
     1
 90
        2
176
     1
 62
     7
176
     1
 90
        5
176
     1
 90
        0
176
     1
 90
        0
176
     1
290
     0
176
     1
 90
        1
176
     1
 40
0.0
176
     1
 90
        0
176
     1
290
     1
176
     1
290
     1
176
     1
290
     0
176
     1
290
     0
176
     1
290
     0
176
     1
290
     0
176
     1
290
     0
176
     1
290
     0
176
     1
290
     0
176
     1
 90
       50
176
     1
 40
0.0
176
     1
 40
1.0
176
     1
 90
        0
176
     1
 62
    18
420
        0
176
     1
 90
       50
176
     1
 90
        3
176
     1
 62
     5
420
      255
176
     1
290
     0
176
     1
 90
       50
176
     1
 90
       50
176
     1
 90
       50
176
     1
290
     0
176
     1
 90
       50
176
     1
 62
   256
176
     0
 40
1.0
176
     0
 90
        2
176
     1
  1
strokes_ogs.tif
176
     1
290
     0
176
     1
 40
1.0
176
     1
 40
1.0
176
     1
  0
VISUALSTYLE
  5
2E
102
{ACAD_REACTORS
330
29
102
}
330
29
100
AcDbVisualStyle
  2
Basic
 70
     7
177
     3
291
     1
 70
    58
 90
        1
176
     1
 90
        0
176
     1
 90
        1
176
     1
 90
        0
176
     1
 40
0.6
176
     1
 40
30.0
176
     1
 62
     7
420
 16777215
176
     1
 90
        0
176
     1
 90
        4
176
     1
 62
     7
176
     1
 62
   257
176
     1
 90
        1
176
     1
 90
        1
176
     1
 40
1.0
176
     1
 90
        8
176
     1
 62
     7
176
     1
 40
1.0
176
     1
 90
        1
176
     1
 90
        6
176
     1
 90
        2
176
     1
 62
     7
176
     1
 90
        5
176
     1
 90
        0
176
     1
 90
        0
176
     1
290
     0
176
     1
 90
        1
176
     1
 40
0.0
176
     1
 90
        0
176
     1
290
     0
176
     1
290
     1
176
     1
290
     1
176
     1
290
     0
176
     1
290
     0
176
     1
290
     0
176
     1
290
     0
176
     1
290
     0
176
     1
290
     0
176
     1
 90
       50
176
     1
 40
0.0
176
     1
 40
1.0
176
     1
 90
        0
176
     1
 62
    18
420
        0
176
     1
 90
       50
176
     1
 90
        3
176
     1
 62
     5
420
      255
176
     1
290
     0
176
     1
 90
       50
176
     1
 90
       50
176
     1
 90
       50
176
     1
290
     0
176
     1
 90
       50
176
     1
 62
   256
176
     0
 40
1.0
176
     0
 90
        2
176
     1
  1
strokes_ogs.tif
176
     1
290
     0
176
     1
 40
1.0
176
     1
 40
1.0
176
     1
  0
VISUALSTYLE
  5
35
102
{ACAD_REACTORS
330
29
102
}
330
29
100
AcDbVisualStyle
  2
Brighten
 70
    12
177
     3
291
     1
 70
    58
 90
        2
176
     1
 90
        2
176
     1
 90
        0
176
     1
 90
        0
176
     1
 40
0.6
176
     1
 40
30.0
176
     1
 62
     7
420
 16777215
176
     1
 90
        1
176
     1
 90
        4
176
     1
 62
     7
176
     1
 62
   257
176
     1
 90
        1
176
     1
 90
        1
176
     1
 40
1.0
176
     1
 90
        8
176
     1
 62
     7
176
     1
 40
1.0
176
     1
 90
        1
176
     1
 90
        6
176
     1
 90
        2
176
     1
 62
     7
176
     1
 90
        5
176
     1
 90
        0
176
     1
 90
        0
176
     1
290
     0
176
     1
 90
        1
176
     1
 40
50.0
176
     1
 90
        0
176
     1
290
     0
176
     1
290
     1
176
     1
290
     1
176
     1
290
     0
176
     1
290
     0
176
     1
290
     0
176
     1
290
     0
176
     1
290
     0
176
     1
290
     0
176
     1
 90
       50
176
     1
 40
0.0
176
     1
 40
1.0
176
     1
 90
        0
176
     1
 62
    18
420
        0
176
     1
 90
       50
176
     1
 90
        3
176
     1
 62
     5
420
      255
176
     1
290
     0
176
     1
 90
       50
176
     1
 90
       50
176
     1
 90
       50
176
     1
290
     0
176
     1
 90
       50
176
     1
 62
   256
176
     0
 40
1.0
176
     0
 90
        2
176
     1
  1
strokes_ogs.tif
176
     1
290
     0
176
     1
 40
1.0
176
     1
 40
1.0
176
     1
  0
VISUALSTYLE
  5
39
102
{ACAD_REACTORS
330
29
102
}
330
29
100
AcDbVisualStyle
  2
ColorChange
 70
    16
177
     3
291
     1
 70
    58
 90
        2
176
     1
 90
        2
176
     1
 90
        3
176
     1
 90
        0
176
     1
 40
0.6
176
     1
 40
30.0
176
     1
 62
     8
420
  8421504
176
     1
 90
        1
176
     1
 90
        4
176
     1
 62
     7
176
     1
 62
   257
176
     1
 90
        1
176
     1
 90
        1
176
     1
 40
1.0
176
     1
 90
        8
176
     1
 62
     8
420
  8421504
176
     1
 40
1.0
176
     1
 90
        1
176
     1
 90
        6
176
     1
 90
        2
176
     1
 62
     7
176
     1
 90
        5
176
     1
 90
        0
176
     1
 90
        0
176
     1
290
     0
176
     1
 90
        1
176
     1
 40
0.0
176
     1
 90
        0
176
     1
290
     0
176
     1
290
     1
176
     1
290
     1
176
     1
290
     0
176
     1
290
     0
176
     1
290
     0
176
     1
290
     0
176
     1
290
     0
176
     1
290
     0
176
     1
 90
       50
176
     1
 40
0.0
176
     1
 40
1.0
176
     1
 90
        0
176
     1
 62
    18
420
        0
176
     1
 90
       50
176
     1
 90
        3
176
     1
 62
     5
420
      255
176
     1
290
     0
176
     1
 90
       50
176
     1
 90
       50
176
     1
 90
       50
176
     1
290
     0
176
     1
 90
       50
176
     1
 62
   256
176
     0
 40
1.0
176
     0
 90
        2
176
     1
  1
strokes_ogs.tif
176
     1
290
     0
176
     1
 40
1.0
176
     1
 40
1.0
176
     1
  0
VISUALSTYLE
  5
32
102
{ACAD_REACTORS
330
29
102
}
330
29
100
AcDbVisualStyle
  2
Conceptual
 70
     9
177
     3
291
     0
 70
    58
 90
        3
176
     1
 90
        2
176
     1
 90
        0
176
     1
 90
        0
176
     1
 40
0.6
176
     1
 40
30.0
176
     1
 62
     7
420
 16777215
176
     1
 90
        2
176
     1
 90
        2
176
     1
 62
     7
176
     1
 62
   257
176
     1
 90
        1
176
     1
 90
        1
176
     1
 40
179.0
176
     1
 90
        8
176
     1
 62
     7
176
     1
 40
1.0
176
     1
 90
        1
176
     1
 90
        6
176
     1
 90
        2
176
     1
 62
     7
176
     1
 90
        3
176
     1
 90
        0
176
     1
 90
        0
176
     1
290
     0
176
     1
 90
        1
176
     1
 40
0.0
176
     1
 90
        0
176
     1
290
     0
176
     1
290
     1
176
     1
290
     1
176
     1
290
     0
176
     1
290
     0
176
     1
290
     0
176
     1
290
     0
176
     1
290
     0
176
     1
290
     0
176
     1
 90
       50
176
     1
 40
0.0
176
     1
 40
1.0
176
     1
 90
        0
176
     1
 62
    18
420
        0
176
     1
 90
       50
176
     1
 90
        3
176
     1
 62
     5
420
      255
176
     1
290
     0
176
     1
 90
       50
176
     1
 90
       50
176
     1
 90
       50
176
     1
290
     0
176
     1
 90
       50
176
     1
 62
   256
176
     0
 40
1.0
176
     0
 90
        2
176
     1
  1
strokes_ogs.tif
176
     1
290
     0
176
     1
 40
1.0
176
     1
 40
1.0
176
     1
  0
VISUALSTYLE
  5
34
102
{ACAD_REACTORS
330
29
102
}
330
29
100
AcDbVisualStyle
  2
Dim
 70
    11
177
     3
291
     1
 70
    58
 90
        2
176
     1
 90
        2
176
     1
 90
        0
176
     1
 90
        0
176
     1
 40
0.6
176
     1
 40
30.0
176
     1
 62
     7
420
 16777215
176
     1
 90
        1
176
     1
 90
        4
176
     1
 62
     7
176
     1
 62
   257
176
     1
 90
        1
176
     1
 90
        1
176
     1
 40
1.0
176
     1
 90
        8
176
     1
 62
     7
176
     1
 40
1.0
176
     1
 90
        1
176
     1
 90
        6
176
     1
 90
        2
176
     1
 62
     7
176
     1
 90
        5
176
     1
 90
        0
176
     1
 90
        0
176
     1
290
     0
176
     1
 90
        1
176
     1
 40
-50.0
176
     1
 90
        0
176
     1
290
     0
176
     1
290
     1
176
     1
290
     1
176
     1
290
     0
176
     1
290
     0
176
     1
290
     0
176
     1
290
     0
176
     1
290
     0
176
     1
290
     0
176
     1
 90
       50
176
     1
 40
0.0
176
     1
 40
1.0
176
     1
 90
        0
176
     1
 62
    18
420
        0
176
     1
 90
       50
176
     1
 90
        3
176
     1
 62
     5
420
      255
176
     1
290
     0
176
     1
 90
       50
176
     1
 90
       50
176
     1
 90
       50
176
     1
290
     0
176
     1
 90
       50
176
     1
 62
   256
176
     0
 40
1.0
176
     0
 90
        2
176
     1
  1
strokes_ogs.tif
176
     1
290
     0
176
     1
 40
1.0
176
     1
 40
1.0
176
     1
  0
VISUALSTYLE
  5
41
102
{ACAD_REACTORS
330
29
102
}
330
29
100
AcDbVisualStyle
  2
EdgeColorOff
 70
    22
177
     3
291
     1
 70
    58
 90
        2
176
     0
 90
        2
176
     0
 90
        0
176
     0
 90
        0
176
     0
 40
0.6
176
     0
 40
30.0
176
     0
 62
     7
420
 16777215
176
     0
 90
        1
176
     0
 90
        4
176
     0
 62
     7
176
     0
 62
   257
176
     0
 90
        1
176
     0
 90
        1
176
     0
 40
1.0
176
     0
 90
        8
176
     2
 62
     7
176
     0
 40
1.0
176
     0
 90
        1
176
     0
 90
        6
176
     0
 90
        2
176
     0
 62
     7
176
     0
 90
        5
176
     0
 90
        0
176
     0
 90
        0
176
     0
290
     0
176
     0
 90
        1
176
     0
 40
0.0
176
     0
 90
        0
176
     0
290
     0
176
     0
290
     1
176
     0
290
     1
176
     0
290
     0
176
     0
290
     0
176
     0
290
     0
176
     0
290
     0
176
     0
290
     0
176
     0
290
     0
176
     0
 90
       50
176
     0
 40
0.0
176
     0
 40
1.0
176
     0
 90
        0
176
     0
 62
    18
420
        0
176
     0
 90
       50
176
     0
 90
        3
176
     0
 62
     5
420
      255
176
     0
290
     0
176
     0
 90
       50
176
     0
 90
       50
176
     0
 90
       50
176
     0
290
     0
176
     0
 90
       50
176
     0
 62
   256
176
     0
 40
1.0
176
     0
 90
        2
176
     0
  1
strokes_ogs.tif
176
     0
290
     0
176
     0
 40
1.0
176
     0
 40
1.0
176
     0
  0
VISUALSTYLE
  5
38
102
{ACAD_REACTORS
330
29
102
}
330
29
100
AcDbVisualStyle
  2
Facepattern
 70
    15
177
     3
291
     1
 70
    58
 90
        2
176
     1
 90
        2
176
     1
 90
        0
176
     1
 90
        0
176
     1
 40
0.6
176
     1
 40
30.0
176
     1
 62
     7
420
 16777215
176
     1
 90
        1
176
     1
 90
        4
176
     1
 62
     7
176
     1
 62
   257
176
     1
 90
        1
176
     1
 90
        1
176
     1
 40
1.0
176
     1
 90
        8
176
     1
 62
     7
176
     1
 40
1.0
176
     1
 90
        1
176
     1
 90
        6
176
     1
 90
        2
176
     1
 62
     7
176
     1
 90
        5
176
     1
 90
        0
176
     1
 90
        0
176
     1
290
     0
176
     1
 90
        1
176
     1
 40
0.0
176
     1
 90
        0
176
     1
290
     0
176
     1
290
     1
176
     1
290
     1
176
     1
290
     0
176
     1
290
     0
176
     1
290
     0
176
     1
290
     0
176
     1
290
     0
176
     1
290
     0
176
     1
 90
       50
176
     1
 40
0.0
176
     1
 40
1.0
176
     1
 90
        0
176
     1
 62
    18
420
        0
176
     1
 90
       50
176
     1
 90
        3
176
     1
 62
     5
420
      255
176
     1
290
     0
176
     1
 90
       50
176
     1
 90
       50
176
     1
 90
       50
176
     1
290
     0
176
     1
 90
       50
176
     1
 62
   256
176
     0
 40
1.0
176
     0
 90
        2
176
     1
  1
strokes_ogs.tif
176
     1
290
     0
176
     1
 40
1.0
176
     1
 40
1.0
176
     1
  0
VISUALSTYLE
  5
2A
102
{ACAD_REACTORS
330
29
102
}
330
29
100
AcDbVisualStyle
  2
Flat
 70
     0
177
     3
291
     1
 70
    58
 90
        2
176
     1
 90
        1
176
     1
 90
        1
176
     1
 90
        2
176
     1
 40
0.6
176
     1
 40
30.0
176
     1
 62
     7
420
 16777215
176
     1
 90
        0
176
     1
 90
        0
176
     1
 62
     7
176
     1
 62
   257
176
     1
 90
        1
176
     1
 90
        1
176
     1
 40
1.0
176
     1
 90
        8
176
     1
 62
     7
176
     1
 40
1.0
176
     1
 90
        1
176
     1
 90
        6
176
     1
 90
        2
176
     1
 62
     7
176
     1
 90
        5
176
     1
 90
        0
176
     1
 90
        0
176
     1
290
     0
176
     1
 90
       13
176
     1
 40
0.0
176
     1
 90
        0
176
     1
290
     0
176
     1
290
     1
176
     1
290
     1
176
     1
290
     0
176
     1
290
     0
176
     1
290
     0
176
     1
290
     0
176
     1
290
     0
176
     1
290
     0
176
     1
 90
       50
176
     1
 40
0.0
176
     1
 40
1.0
176
     1
 90
        0
176
     1
 62
    18
420
        0
176
     1
 90
       50
176
     1
 90
        3
176
     1
 62
     5
420
      255
176
     1
290
     0
176
     1
 90
       50
176
     1
 90
       50
176
     1
 90
       50
176
     1
290
     0
176
     1
 90
       50
176
     1
 62
   256
176
     0
 40
1.0
176
     0
 90
        2
176
     1
  1
strokes_ogs.tif
176
     1
290
     0
176
     1
 40
1.0
176
     1
 40
1.0
176
     1
  0
VISUALSTYLE
  5
2B
102
{ACAD_REACTORS
330
29
102
}
330
29
100
AcDbVisualStyle
  2
FlatWithEdges
 70
     1
177
     3
291
     1
 70
    58
 90
        2
176
     1
 90
        1
176
     1
 90
        1
176
     1
 90
        2
176
     1
 40
0.6
176
     1
 40
30.0
176
     1
 62
     7
420
 16777215
176
     1
 90
        1
176
     1
 90
        0
176
     1
 62
     7
176
     1
 62
   257
176
     1
 90
        1
176
     1
 90
        1
176
     1
 40
1.0
176
     1
 90
        0
176
     1
 62
   257
176
     1
 40
1.0
176
     1
 90
        1
176
     1
 90
        6
176
     1
 90
        2
176
     1
 62
     7
176
     1
 90
        5
176
     1
 90
        0
176
     1
 90
        0
176
     1
290
     0
176
     1
 90
       13
176
     1
 40
0.0
176
     1
 90
        0
176
     1
290
     0
176
     1
290
     1
176
     1
290
     1
176
     1
290
     0
176
     1
290
     0
176
     1
290
     0
176
     1
290
     0
176
     1
290
     0
176
     1
290
     0
176
     1
 90
       50
176
     1
 40
0.0
176
     1
 40
1.0
176
     1
 90
        0
176
     1
 62
    18
420
        0
176
     1
 90
       50
176
     1
 90
        3
176
     1
 62
     5
420
      255
176
     1
290
     0
176
     1
 90
       50
176
     1
 90
       50
176
     1
 90
       50
176
     1
290
     0
176
     1
 90
       50
176
     1
 62
   256
176
     0
 40
1.0
176
     0
 90
        2
176
     1
  1
strokes_ogs.tif
176
     1
290
     0
176
     1
 40
1.0
176
     1
 40
1.0
176
     1
  0
VISUALSTYLE
  5
2C
102
{ACAD_REACTORS
330
29
102
}
330
29
100
AcDbVisualStyle
  2
Gouraud
 70
     2
177
     3
291
     1
 70
    58
 90
        2
176
     1
 90
        2
176
     1
 90
        1
176
     1
 90
        2
176
     1
 40
0.6
176
     1
 40
30.0
176
     1
 62
     7
420
 16777215
176
     1
 90
        0
176
     1
 90
        0
176
     1
 62
     7
176
     1
 62
   257
176
     1
 90
        1
176
     1
 90
        1
176
     1
 40
1.0
176
     1
 90
        0
176
     1
 62
     7
176
     1
 40
1.0
176
     1
 90
        1
176
     1
 90
        6
176
     1
 90
        2
176
     1
 62
     7
176
     1
 90
        5
176
     1
 90
        0
176
     1
 90
        0
176
     1
290
     0
176
     1
 90
       13
176
     1
 40
0.0
176
     1
 90
        0
176
     1
290
     0
176
     1
290
     1
176
     1
290
     1
176
     1
290
     0
176
     1
290
     0
176
     1
290
     0
176
     1
290
     0
176
     1
290
     0
176
     1
290
     0
176
     1
 90
       50
176
     1
 40
0.0
176
     1
 40
1.0
176
     1
 90
        0
176
     1
 62
    18
420
        0
176
     1
 90
       50
176
     1
 90
        3
176
     1
 62
     5
420
      255
176
     1
290
     0
176
     1
 90
       50
176
     1
 90
       50
176
     1
 90
       50
176
     1
290
     0
176
     1
 90
       50
176
     1
 62
   256
176
     0
 40
1.0
176
     0
 90
        2
176
     1
  1
strokes_ogs.tif
176
     1
290
     0
176
     1
 40
1.0
176
     1
 40
1.0
176
     1
  0
VISUALSTYLE
  5
2D
102
{ACAD_REACTORS
330
29
102
}
330
29
100
AcDbVisualStyle
  2
GouraudWithEdges
 70
     3
177
     3
291
     1
 70
    58
 90
        2
176
     1
 90
        2
176
     1
 90
        1
176
     1
 90
        2
176
     1
 40
0.6
176
     1
 40
30.0
176
     1
 62
     7
420
 16777215
176
     1
 90
        1
176
     1
 90
        0
176
     1
 62
     7
176
     1
 62
   257
176
     1
 90
        1
176
     1
 90
        1
176
     1
 40
1.0
176
     1
 90
        0
176
     1
 62
   257
176
     1
 40
1.0
176
     1
 90
        1
176
     1
 90
        6
176
     1
 90
        2
176
     1
 62
     7
176
     1
 90
        5
176
     1
 90
        0
176
     1
 90
        0
176
     1
290
     0
176
     1
 90
       13
176
     1
 40
0.0
176
     1
 90
        0
176
     1
290
     0
176
     1
290
     1
176
     1
290
     1
176
     1
290
     0
176
     1
290
     0
176
     1
290
     0
176
     1
290
     0
176
     1
290
     0
176
     1
290
     0
176
     1
 90
       50
176
     1
 40
0.0
176
     1
 40
1.0
176
     1
 90
        0
176
     1
 62
    18
420
        0
176
     1
 90
       50
176
     1
 90
        3
176
     1
 62
     5
420
      255
176
     1
290
     0
176
     1
 90
       50
176
     1
 90
       50
176
     1
 90
       50
176
     1
290
     0
176
     1
 90
       50
176
     1
 62
   256
176
     0
 40
1.0
176
     0
 90
        2
176
     1
  1
strokes_ogs.tif
176
     1
290
     0
176
     1
 40
1.0
176
     1
 40
1.0
176
     1
  0
VISUALSTYLE
  5
31
102
{ACAD_REACTORS
330
29
102
}
330
29
100
AcDbVisualStyle
  2
Hidden
 70
     6
177
     3
291
     0
 70
    58
 90
        1
176
     1
 90
        2
176
     1
 90
        2
176
     1
 90
        0
176
     1
 40
0.6
176
     1
 40
30.0
176
     1
 62
     7
420
 16777215
176
     1
 90
        2
176
     1
 90
        2
176
     1
 62
     7
176
     1
 62
   257
176
     1
 90
        2
176
     1
 90
        1
176
     1
 40
40.0
176
     1
 90
        0
176
     1
 62
   257
176
     1
 40
1.0
176
     1
 90
        1
176
     1
 90
        6
176
     1
 90
        2
176
     1
 62
     7
176
     1
 90
        3
176
     1
 90
        0
176
     1
 90
        0
176
     1
290
     0
176
     1
 90
        1
176
     1
 40
0.0
176
     1
 90
        0
176
     1
290
     0
176
     1
290
     1
176
     1
290
     1
176
     1
290
     0
176
     1
290
     0
176
     1
290
     0
176
     1
290
     0
176
     1
290
     0
176
     1
290
     0
176
     1
 90
       50
176
     1
 40
0.0
176
     1
 40
1.0
176
     1
 90
        0
176
     1
 62
    18
420
        0
176
     1
 90
       50
176
     1
 90
        3
176
     1
 62
     5
420
      255
176
     1
290
     0
176
     1
 90
       50
176
     1
 90
       50
176
     1
 90
       50
176
     1
290
     0
176
     1
 90
       50
176
     1
 62
   256
176
     0
 40
1.0
176
     0
 90
        2
176
     1
  1
strokes_ogs.tif
176
     1
290
     0
176
     1
 40
1.0
176
     1
 40
1.0
176
     1
  0
VISUALSTYLE
  5
3F
102
{ACAD_REACTORS
330
29
102
}
330
29
100
AcDbVisualStyle
  2
JitterOff
 70
    20
177
     3
291
     1
 70
    58
 90
        2
176
     0
 90
        2
176
     0
 90
        0
176
     0
 90
        0
176
     0
 40
0.6
176
     0
 40
30.0
176
     0
 62
     7
420
 16777215
176
     0
 90
        1
176
     0
 90
        4
176
     0
 62
     7
176
     0
 62
   257
176
     0
 90
        1
176
     0
 90
        1
176
     0
 40
1.0
176
     0
 90
       10
176
     2
 62
     7
176
     0
 40
1.0
176
     0
 90
        1
176
     0
 90
        6
176
     0
 90
        2
176
     0
 62
     7
176
     0
 90
        5
176
     0
 90
        0
176
     0
 90
        0
176
     0
290
     0
176
     0
 90
        1
176
     0
 40
0.0
176
     0
 90
        0
176
     0
290
     0
176
     0
290
     1
176
     0
290
     1
176
     0
290
     0
176
     0
290
     0
176
     0
290
     0
176
     0
290
     0
176
     0
290
     0
176
     0
290
     0
176
     0
 90
       50
176
     0
 40
0.0
176
     0
 40
1.0
176
     0
 90
        0
176
     0
 62
    18
420
        0
176
     0
 90
       50
176
     0
 90
        3
176
     0
 62
     5
420
      255
176
     0
290
     0
176
     0
 90
       50
176
     0
 90
       50
176
     0
 90
       50
176
     0
290
     0
176
     0
 90
       50
176
     0
 62
   256
176
     0
 40
1.0
176
     0
 90
        2
176
     0
  1
strokes_ogs.tif
176
     0
290
     0
176
     0
 40
1.0
176
     0
 40
1.0
176
     0
  0
VISUALSTYLE
  5
37
102
{ACAD_REACTORS
330
29
102
}
330
29
100
AcDbVisualStyle
  2
Linepattern
 70
    14
177
     3
291
     1
 70
    58
 90
        2
176
     1
 90
        2
176
     1
 90
        0
176
     1
 90
        0
176
     1
 40
0.6
176
     1
 40
30.0
176
     1
 62
     7
420
 16777215
176
     1
 90
        1
176
     1
 90
        4
176
     1
 62
     7
176
     1
 62
   257
176
     1
 90
        7
176
     1
 90
        7
176
     1
 40
1.0
176
     1
 90
        8
176
     1
 62
     7
176
     1
 40
1.0
176
     1
 90
        1
176
     1
 90
        6
176
     1
 90
        2
176
     1
 62
     7
176
     1
 90
        5
176
     1
 90
        0
176
     1
 90
        0
176
     1
290
     0
176
     1
 90
        1
176
     1
 40
0.0
176
     1
 90
        0
176
     1
290
     0
176
     1
290
     1
176
     1
290
     1
176
     1
290
     0
176
     1
290
     0
176
     1
290
     0
176
     1
290
     0
176
     1
290
     0
176
     1
290
     0
176
     1
 90
       50
176
     1
 40
0.0
176
     1
 40
1.0
176
     1
 90
        0
176
     1
 62
    18
420
        0
176
     1
 90
       50
176
     1
 90
        3
176
     1
 62
     5
420
      255
176
     1
290
     0
176
     1
 90
       50
176
     1
 90
       50
176
     1
 90
       50
176
     1
290
     0
176
     1
 90
       50
176
     1
 62
   256
176
     0
 40
1.0
176
     0
 90
        2
176
     1
  1
strokes_ogs.tif
176
     1
290
     0
176
     1
 40
1.0
176
     1
 40
1.0
176
     1
  0
VISUALSTYLE
  5
40
102
{ACAD_REACTORS
330
29
102
}
330
29
100
AcDbVisualStyle
  2
OverhangOff
 70
    21
177
     3
291
     1
 70
    58
 90
        2
176
     0
 90
        2
176
     0
 90
        0
176
     0
 90
        0
176
     0
 40
0.6
176
     0
 40
30.0
176
     0
 62
     7
420
 16777215
176
     0
 90
        1
176
     0
 90
        4
176
     0
 62
     7
176
     0
 62
   257
176
     0
 90
        1
176
     0
 90
        1
176
     0
 40
1.0
176
     0
 90
        9
176
     2
 62
     7
176
     0
 40
1.0
176
     0
 90
        1
176
     0
 90
        6
176
     0
 90
        2
176
     0
 62
     7
176
     0
 90
        5
176
     0
 90
        0
176
     0
 90
        0
176
     0
290
     0
176
     0
 90
        1
176
     0
 40
0.0
176
     0
 90
        0
176
     0
290
     0
176
     0
290
     1
176
     0
290
     1
176
     0
290
     0
176
     0
290
     0
176
     0
290
     0
176
     0
290
     0
176
     0
290
     0
176
     0
290
     0
176
     0
 90
       50
176
     0
 40
0.0
176
     0
 40
1.0
176
     0
 90
        0
176
     0
 62
    18
420
        0
176
     0
 90
       50
176
     0
 90
        3
176
     0
 62
     5
420
      255
176
     0
290
     0
176
     0
 90
       50
176
     0
 90
       50
176
     0
 90
       50
176
     0
290
     0
176
     0
 90
       50
176
     0
 62
   256
176
     0
 40
1.0
176
     0
 90
        2
176
     0
  1
strokes_ogs.tif
176
     0
290
     0
176
     0
 40
1.0
176
     0
 40
1.0
176
     0
  0
VISUALSTYLE
  5
33
102
{ACAD_REACTORS
330
29
102
}
330
29
100
AcDbVisualStyle
  2
Realistic
 70
     8
177
     3
291
     0
 70
    58
 90
        2
176
     1
 90
        3
176
     1
 90
        0
176
     1
 90
        2
176
     1
 40
0.6
176
     1
 40
30.0
176
     1
 62
     7
420
 16777215
176
     1
 90
        0
176
     1
 90
        0
176
     1
 62
     7
176
     1
 62
   257
176
     1
 90
        1
176
     1
 90
        1
176
     1
 40
1.0
176
     1
 90
        8
176
     1
 62
   257
176
     1
 40
1.0
176
     1
 90
        1
176
     1
 90
        6
176
     1
 90
        2
176
     1
 62
     7
176
     1
 90
        3
176
     1
 90
        0
176
     1
 90
        0
176
     1
290
     0
176
     1
 90
       13
176
     1
 40
0.0
176
     1
 90
        0
176
     1
290
     0
176
     1
290
     1
176
     1
290
     1
176
     1
290
     0
176
     1
290
     0
176
     1
290
     0
176
     1
290
     0
176
     1
290
     0
176
     1
290
     0
176
     1
 90
       50
176
     1
 40
0.0
176
     1
 40
1.0
176
     1
 90
        0
176
     1
 62
    18
420
        0
176
     1
 90
       50
176
     1
 90
        3
176
     1
 62
     5
420
      255
176
     1
290
     0
176
     1
 90
       50
176
     1
 90
       50
176
     1
 90
       50
176
     1
290
     0
176
     1
 90
       50
176
     1
 62
   256
176
     0
 40
1.0
176
     0
 90
        2
176
     1
  1
strokes_ogs.tif
176
     1
290
     0
176
     1
 40
1.0
176
     1
 40
1.0
176
     1
  0
VISUALSTYLE
  5
3E
102
{ACAD_REACTORS
330
29
102
}
330
29
100
AcDbVisualStyle
  2
Shaded
 70
    27
177
     3
291
     0
 70
    58
 90
        2
176
     1
 90
        2
176
     1
 90
        1
176
     1
 90
        2
176
     1
 40
0.6
176
     1
 40
30.0
176
     1
 62
     7
420
 16777215
176
     1
 90
        0
176
     1
 90
        4
176
     1
 62
     7
176
     1
 62
   257
176
     1
 90
        1
176
     1
 90
        1
176
     1
 40
1.0
176
     1
 90
        8
176
     1
 62
   257
176
     1
 40
1.0
176
     1
 90
        1
176
     1
 90
        6
176
     1
 90
        2
176
     1
 62
     8
420
  7895160
176
     1
 90
        3
176
     1
 90
        0
176
     1
 90
        0
176
     1
290
     0
176
     1
 90
        5
176
     1
 40
0.0
176
     1
 90
        0
176
     1
290
     0
176
     1
290
     1
176
     1
290
     1
176
     1
290
     0
176
     1
290
     0
176
     1
290
     0
176
     1
290
     0
176
     1
290
     0
176
     1
290
     0
176
     1
 90
       50
176
     1
 40
0.0
176
     1
 40
1.0
176
     1
 90
        0
176
     1
 62
    18
420
        0
176
     1
 90
       50
176
     1
 90
        3
176
     1
 62
     5
420
      255
176
     1
290
     0
176
     1
 90
       50
176
     1
 90
       50
176
     1
 90
       50
176
     1
290
     0
176
     1
 90
       50
176
     1
 62
   256
176
     0
 40
1.0
176
     0
 90
        2
176
     1
  1
strokes_ogs.tif
176
     1
290
     0
176
     1
 40
1.0
176
     1
 40
1.0
176
     1
  0
VISUALSTYLE
  5
3D
102
{ACAD_REACTORS
330
29
102
}
330
29
100
AcDbVisualStyle
  2
Shaded with edges
 70
    26
177
     3
291
     0
 70
    58
 90
        2
176
     1
 90
        2
176
     1
 90
        1
176
     1
 90
        2
176
     1
 40
0.6
176
     1
 40
30.0
176
     1
 62
     7
420
 16777215
176
     1
 90
        1
176
     1
 90
        2
176
     1
 62
     7
176
     1
 62
   257
176
     1
 90
        2
176
     1
 90
        1
176
     1
 40
1.0
176
     1
 90
        8
176
     1
 62
   257
176
     1
 40
1.0
176
     1
 90
        1
176
     1
 90
        6
176
     1
 90
        2
176
     1
 62
     7
176
     1
 90
        3
176
     1
 90
        0
176
     1
 90
        0
176
     1
290
     0
176
     1
 90
        5
176
     1
 40
0.0
176
     1
 90
        0
176
     1
290
     0
176
     1
290
     1
176
     1
290
     1
176
     1
290
     0
176
     1
290
     0
176
     1
290
     0
176
     1
290
     0
176
     1
290
     0
176
     1
290
     0
176
     1
 90
       50
176
     1
 40
0.0
176
     1
 40
1.0
176
     1
 90
        0
176
     1
 62
    18
420
        0
176
     1
 90
       50
176
     1
 90
        3
176
     1
 62
     5
420
      255
176
     1
290
     0
176
     1
 90
       50
176
     1
 90
       50
176
     1
 90
       50
176
     1
290
     0
176
     1
 90
       50
176
     1
 62
   256
176
     0
 40
1.0
176
     0
 90
        2
176
     1
  1
strokes_ogs.tif
176
     1
290
     0
176
     1
 40
1.0
176
     1
 40
1.0
176
     1
  0
VISUALSTYLE
  5
3A
102
{ACAD_REACTORS
330
29
102
}
330
29
100
AcDbVisualStyle
  2
Shades of Gray
 70
    23
177
     3
291
     0
 70
    58
 90
        2
176
     1
 90
        2
176
     1
 90
        3
176
     1
 90
        0
176
     1
 40
0.6
176
     1
 40
30.0
176
     1
 62
     7
420
 16777215
176
     1
 90
        2
176
     1
 90
        2
176
     1
 62
     7
176
     1
 62
     7
176
     1
 90
        1
176
     1
 90
        1
176
     1
 40
40.0
176
     1
 90
        8
176
     1
 62
     7
176
     1
 40
1.0
176
     1
 90
        1
176
     1
 90
        6
176
     1
 90
        2
176
     1
 62
     7
176
     1
 90
        3
176
     1
 90
        0
176
     1
 90
        0
176
     1
290
     0
176
     1
 90
        1
176
     1
 40
0.0
176
     1
 90
        0
176
     1
290
     0
176
     1
290
     1
176
     1
290
     1
176
     1
290
     0
176
     1
290
     0
176
     1
290
     0
176
     1
290
     0
176
     1
290
     0
176
     1
290
     0
176
     1
 90
       50
176
     1
 40
0.0
176
     1
 40
1.0
176
     1
 90
        0
176
     1
 62
    18
420
        0
176
     1
 90
       50
176
     1
 90
        3
176
     1
 62
     5
420
      255
176
     1
290
     0
176
     1
 90
       50
176
     1
 90
       50
176
     1
 90
       50
176
     1
290
     0
176
     1
 90
       50
176
     1
 62
   256
176
     0
 40
1.0
176
     0
 90
        2
176
     1
  1
strokes_ogs.tif
176
     1
290
     0
176
     1
 40
1.0
176
     1
 40
1.0
176
     1
  0
VISUALSTYLE
  5
3B
102
{ACAD_REACTORS
330
29
102
}
330
29
100
AcDbVisualStyle
  2
Sketchy
 70
    24
177
     3
291
     0
 70
    58
 90
        1
176
     1
 90
        2
176
     1
 90
        2
176
     1
 90
        0
176
     1
 40
0.6
176
     1
 40
30.0
176
     1
 62
     7
420
 16777215
176
     1
 90
        2
176
     1
 90
        2
176
     1
 62
     7
176
     1
 62
     7
176
     1
 90
        1
176
     1
 90
        1
176
     1
 40
40.0
176
     1
 90
       11
176
     1
 62
     7
176
     1
 40
1.0
176
     1
 90
        1
176
     1
 90
        6
176
     1
 90
        2
176
     1
 62
     7
176
     1
 90
        6
176
     1
 90
        0
176
     1
 90
        0
176
     1
290
     0
176
     1
 90
        1
176
     1
 40
0.0
176
     1
 90
        0
176
     1
290
     0
176
     1
290
     1
176
     1
290
     1
176
     1
290
     0
176
     1
290
     0
176
     1
290
     0
176
     1
290
     0
176
     1
290
     0
176
     1
290
     0
176
     1
 90
       50
176
     1
 40
0.0
176
     1
 40
1.0
176
     1
 90
        0
176
     1
 62
    18
420
        0
176
     1
 90
       50
176
     1
 90
        3
176
     1
 62
     5
420
      255
176
     1
290
     0
176
     1
 90
       50
176
     1
 90
       50
176
     1
 90
       50
176
     1
290
     0
176
     1
 90
       50
176
     1
 62
   256
176
     0
 40
1.0
176
     0
 90
        2
176
     1
  1
strokes_ogs.tif
176
     1
290
     0
176
     1
 40
1.0
176
     1
 40
1.0
176
     1
  0
VISUALSTYLE
  5
36
102
{ACAD_REACTORS
330
29
102
}
330
29
100
AcDbVisualStyle
  2
Thicken
 70
    13
177
     3
291
     1
 70
    58
 90
        2
176
     1
 90
        2
176
     1
 90
        0
176
     1
 90
        0
176
     1
 40
0.6
176
     1
 40
30.0
176
     1
 62
     7
420
 16777215
176
     1
 90
        1
176
     1
 90
        4
176
     1
 62
     7
176
     1
 62
   257
176
     1
 90
        1
176
     1
 90
        1
176
     1
 40
1.0
176
     1
 90
       12
176
     1
 62
     7
176
     1
 40
1.0
176
     1
 90
        1
176
     1
 90
        6
176
     1
 90
        2
176
     1
 62
     7
176
     1
 90
        5
176
     1
 90
        0
176
     1
 90
        0
176
     1
290
     0
176
     1
 90
        1
176
     1
 40
0.0
176
     1
 90
        0
176
     1
290
     0
176
     1
290
     1
176
     1
290
     1
176
     1
290
     0
176
     1
290
     0
176
     1
290
     0
176
     1
290
     0
176
     1
290
     0
176
     1
290
     0
176
     1
 90
       50
176
     1
 40
0.0
176
     1
 40
1.0
176
     1
 90
        0
176
     1
 62
    18
420
        0
176
     1
 90
       50
176
     1
 90
        3
176
     1
 62
     5
420
      255
176
     1
290
     0
176
     1
 90
       50
176
     1
 90
       50
176
     1
 90
       50
176
     1
290
     0
176
     1
 90
       50
176
     1
 62
   256
176
     0
 40
1.0
176
     0
 90
        2
176
     1
  1
strokes_ogs.tif
176
     1
290
     0
176
     1
 40
1.0
176
     1
 40
1.0
176
     1
  0
VISUALSTYLE
  5
30
102
{ACAD_REACTORS
330
29
102
}
330
29
100
AcDbVisualStyle
  2
Wireframe
 70
     5
177
     3
291
     0
 70
    58
 90
        0
176
     1
 90
        2
176
     1
 90
        0
176
     1
 90
        0
176
     1
 40
0.6
176
     1
 40
30.0
176
     1
 62
     7
420
 16777215
176
     1
 90
        1
176
     1
 90
        4
176
     1
 62
     7
176
     1
 62
   257
176
     1
 90
        1
176
     1
 90
        1
176
     1
 40
1.0
176
     1
 90
        0
176
     1
 62
   257
176
     1
 40
1.0
176
     1
 90
        1
176
     1
 90
        6
176
     1
 90
        2
176
     1
 62
     7
176
     1
 90
        3
176
     1
 90
        0
176
     1
 90
        0
176
     1
290
     0
176
     1
 90
        1
176
     1
 40
0.0
176
     1
 90
        0
176
     1
290
     0
176
     1
290
     1
176
     1
290
     1
176
     1
290
     0
176
     1
290
     0
176
     1
290
     0
176
     1
290
     0
176
     1
290
     0
176
     1
290
     0
176
     1
 90
       50
176
     1
 40
0.0
176
     1
 40
1.0
176
     1
 90
        0
176
     1
 62
    18
420
        0
176
     1
 90
       50
176
     1
 90
        3
176
     1
 62
     5
420
      255
176
     1
290
     0
176
     1
 90
       50
176
     1
 90
       50
176
     1
 90
       50
176
     1
290
     0
176
     1
 90
       50
176
     1
 62
   256
176
     0
 40
1.0
176
     0
 90
        2
176
     1
  1
strokes_ogs.tif
176
     1
290
     0
176
     1
 40
1.0
176
     1
 40
1.0
176
     1
  0
VISUALSTYLE
  5
3C
102
{ACAD_REACTORS
330
29
102
}
330
29
100
AcDbVisualStyle
  2
X-Ray
 70
    25
177
     3
291
     0
 70
    58
 90
        2
176
     1
 90
        2
176
     1
 90
        1
176
     1
 90
        1
176
     1
 40
0.5
176
     1
 40
30.0
176
     1
 62
     7
420
 16777215
176
     1
 90
        1
176
     1
 90
        0
176
     1
 62
     7
176
     1
 62
   257
176
     1
 90
        1
176
     1
 90
        1
176
     1
 40
1.0
176
     1
 90
        8
176
     1
 62
     7
176
     1
 40
1.0
176
     1
 90
        1
176
     1
 90
        6
176
     1
 90
        2
176
     1
 62
     7
176
     1
 90
        3
176
     1
 90
        0
176
     1
 90
        0
176
     1
290
     0
176
     1
 90
       13
176
     1
 40
0.0
176
     1
 90
        0
176
     1
290
     0
176
     1
290
     1
176
     1
290
     1
176
     1
290
     0
176
     1
290
     0
176
     1
290
     0
176
     1
290
     0
176
     1
290
     0
176
     1
290
     0
176
     1
 90
       50
176
     1
 40
0.0
176
     1
 40
1.0
176
     1
 90
        0
176
     1
 62
    18
420
        0
176
     1
 90
       50
176
     1
 90
        3
176
     1
 62
     5
420
      255
176
     1
290
     0
176
     1
 90
       50
176
     1
 90
       50
176
     1
 90
       50
176
     1
290
     0
176
     1
 90
       50
176
     1
 62
   256
176
     0
 40
1.0
176
     0
 90
        2
176
     1
  1
strokes_ogs.tif
176
     1
290
     0
176
     1
 40
1.0
176
     1
 40
1.0
176
     1
  0
DICTIONARYVAR
  5
CF
102
{ACAD_REACTORS
330
CA
102
}
330
CA
100
DictionaryVariables
280
     0
  1
1:1
  0
DICTIONARYVAR
  5
CC
102
{ACAD_REACTORS
330
CA
102
}
330
CA
100
DictionaryVariables
280
     0
  1
STANDARD
  0
DICTIONARYVAR
  5
CB
102
{ACAD_REACTORS
330
CA
102
}
330
CA
100
DictionaryVariables
280
     0
  1
STANDARD
  0
DICTIONARYVAR
  5
CD
102
{ACAD_REACTORS
330
CA
102
}
330
CA
100
DictionaryVariables
280
     0
  1
Imperial24
  0
DICTIONARYVAR
  5
CE
102
{ACAD_REACTORS
330
CA
102
}
330
CA
100
DictionaryVariables
280
     0
  1
Imperial24
  0
DICTIONARY
  5
1A
330
19
100
AcDbDictionary
280
     1
281
     1
  3
BUMPTILE
360
1C
  3
DIFFUSETILE
360
1B
  3
OPACITYTILE
360
1F
  3
REFLECTIONTILE
360
1E
  3
REFRACTIONTILE
360
20
  3
SPECULARTILE
360
1D
  0
DICTIONARY
  5
12
330
11
100
AcDbDictionary
280
     1
281
     1
  3
BUMPTILE
360
14
  3
DIFFUSETILE
360
13
  3
OPACITYTILE
360
17
  3
REFLECTIONTILE
360
16
  3
REFRACTIONTILE
360
18
  3
SPECULARTILE
360
15
  0
DICTIONARY
  5
22
330
21
100
AcDbDictionary
280
     1
281
     1
  3
BUMPTILE
360
24
  3
DIFFUSETILE
360
23
  3
OPACITYTILE
360
27
  3
REFLECTIONTILE
360
26
  3
REFRACTIONTILE
360
28
  3
SPECULARTILE
360
25
  0
DICTIONARY
  5
D0
330
65
100
AcDbDictionary
280
     1
281
     1
  3
ACAD_ROUNDTRIP_2008_TABLESTYLE_CELLSTYLEMAP
360
D1
  0
XRECORD
  5
1C
102
{ACAD_REACTORS
330
1A
102
}
330
1A
100
AcDbXrecord
280
     1
270
     1
271
     1
  0
XRECORD
  5
1B
102
{ACAD_REACTORS
330
1A
102
}
330
1A
100
AcDbXrecord
280
     1
270
     1
271
     1
  0
XRECORD
  5
1F
102
{ACAD_REACTORS
330
1A
102
}
330
1A
100
AcDbXrecord
280
     1
270
     1
271
     1
  0
XRECORD
  5
1E
102
{ACAD_REACTORS
330
1A
102
}
330
1A
100
AcDbXrecord
280
     1
270
     1
271
     1
  0
XRECORD
  5
20
102
{ACAD_REACTORS
330
1A
102
}
330
1A
100
AcDbXrecord
280
     1
270
     1
271
     1
  0
XRECORD
  5
1D
102
{ACAD_REACTORS
330
1A
102
}
330
1A
100
AcDbXrecord
280
     1
270
     1
271
     1
  0
XRECORD
  5
14
102
{ACAD_REACTORS
330
12
102
}
330
12
100
AcDbXrecord
280
     1
270
     1
271
     1
  0
XRECORD
  5
13
102
{ACAD_REACTORS
330
12
102
}
330
12
100
AcDbXrecord
280
     1
270
     1
271
     1
  0
XRECORD
  5
17
102
{ACAD_REACTORS
330
12
102
}
330
12
100
AcDbXrecord
280
     1
270
     1
271
     1
  0
XRECORD
  5
16
102
{ACAD_REACTORS
330
12
102
}
330
12
100
AcDbXrecord
280
     1
270
     1
271
     1
  0
XRECORD
  5
18
102
{ACAD_REACTORS
330
12
102
}
330
12
100
AcDbXrecord
280
     1
270
     1
271
     1
  0
XRECORD
  5
15
102
{ACAD_REACTORS
330
12
102
}
330
12
100
AcDbXrecord
280
     1
270
     1
271
     1
  0
XRECORD
  5
24
102
{ACAD_REACTORS
330
22
102
}
330
22
100
AcDbXrecord
280
     1
270
     1
271
     1
  0
XRECORD
  5
23
102
{ACAD_REACTORS
330
22
102
}
330
22
100
AcDbXrecord
280
     1
270
     1
271
     1
  0
XRECORD
  5
27
102
{ACAD_REACTORS
330
22
102
}
330
22
100
AcDbXrecord
280
     1
270
     1
271
     1
  0
XRECORD
  5
26
102
{ACAD_REACTORS
330
22
102
}
330
22
100
AcDbXrecord
280
     1
270
     1
271
     1
  0
XRECORD
  5
28
102
{ACAD_REACTORS
330
22
102
}
330
22
100
AcDbXrecord
280
     1
270
     1
271
     1
  0
XRECORD
  5
25
102
{ACAD_REACTORS
330
22
102
}
330
22
100
AcDbXrecord
280
     1
270
     1
271
     1
  0
CELLSTYLEMAP
  5
D1
102
{ACAD_REACTORS
330
D0
102
}
330
D0
100
AcDbCellStyleMap
 90
        3
300
CELLSTYLE
  1
TABLEFORMAT_BEGIN
 90
        5
170
     1
 91
        0
 92
    32768
 62
   257
 93
        1
300
CONTENTFORMAT
  1
CONTENTFORMAT_BEGIN
 90
        0
 91
        0
 92
      512
 93
        0
300

 40
0.0
140
1.0
 94
        5
 62
     0
340
55
144
0.25
309
CONTENTFORMAT_END
171
     0
 94
        0
309
TABLEFORMAT_END
  1
CELLSTYLE_BEGIN
 90
        1
 91
        1
300
_TITLE
309
CELLSTYLE_END
300
CELLSTYLE
  1
TABLEFORMAT_BEGIN
 90
        5
170
     1
 91
        0
 92
        0
 62
   257
 93
        1
300
CONTENTFORMAT
  1
CONTENTFORMAT_BEGIN
 90
        0
 91
        0
 92
      512
 93
        0
300

 40
0.0
140
1.0
 94
        5
 62
     0
340
55
144
0.18
309
CONTENTFORMAT_END
171
     0
 94
        0
309
TABLEFORMAT_END
  1
CELLSTYLE_BEGIN
 90
        2
 91
        1
300
_HEADER
309
CELLSTYLE_END
300
CELLSTYLE
  1
TABLEFORMAT_BEGIN
 90
        5
170
     1
 91
        0
 92
        0
 62
   257
 93
        1
300
CONTENTFORMAT
  1
CONTENTFORMAT_BEGIN
 90
        0
 91
        0
 92
      512
 93
        0
300

 40
0.0
140
1.0
 94
        2
 62
     0
340
55
144
0.18
309
CONTENTFORMAT_END
171
     0
 94
        0
309
TABLEFORMAT_END
  1
CELLSTYLE_BEGIN
 90
        3
 91
        2
300
_DATA
309
CELLSTYLE_END
  0
ENDSEC
  0
EOF
