  0
SECTION
  2
HEADER
  9
$ACADVER
  1
AC1032
  9
$ACADMAINTVER
 90
      228
  9
$DWGCODEPAGE
  3
ANSI_1252
  9
$REQUIREDVERSIONS
160
                 0
  9
$INSBASE
 10
0.0
 20
0.0
 30
0.0
  9
$EXTMIN
 10
1.000000000000000E+20
 20
1.000000000000000E+20
 30
1.000000000000000E+20
  9
$EXTMAX
 10
-1.000000000000000E+20
 20
-1.000000000000000E+20
 30
-1.000000000000000E+20
  9
$LIMMIN
 10
0.0
 20
0.0
  9
$LIMMAX
 10
12.0
 20
9.0
  9
$ORTHOMODE
 70
     0
  9
$REGENMODE
 70
     1
  9
$FILLMODE
 70
     1
  9
$QTEXTMODE
 70
     0
  9
$MIRRTEXT
 70
     0
  9
$LTSCALE
 40
1.0
  9
$ATTMODE
 70
     1
  9
$TEXTSIZE
 40
0.2
  9
$TRACEWID
 40
0.05
  9
$TEXTSTYLE
  7
Standard
  9
$CLAYER
  8
0
  9
$CELTYPE
  6
ByLayer
  9
$CECOLOR
 62
   256
  9
$CELTSCALE
 40
1.0
  9
$DISPSILH
 70
     0
  9
$DIMSCALE
 40
1.0
  9
$DIMASZ
 40
0.18
  9
$DIMEXO
 40
0.0625
  9
$DIMDLI
 40
0.38
  9
$DIMRND
 40
0.0
  9
$DIMDLE
 40
0.0
  9
$DIMEXE
 40
0.18
  9
$DIMTP
 40
0.0
  9
$DIMTM
 40
0.0
  9
$DIMTXT
 40
0.18
  9
$DIMCEN
 40
0.09
  9
$DIMTSZ
 40
0.0
  9
$DIMTOL
 70
     0
  9
$DIMLIM
 70
     0
  9
$DIMTIH
 70
     1
  9
$DIMTOH
 70
     1
  9
$DIMSE1
 70
     0
  9
$DIMSE2
 70
     0
  9
$DIMTAD
 70
     0
  9
$DIMZIN
 70
     0
  9
$DIMBLK
  1

  9
$DIMASO
 70
     1
  9
$DIMSHO
 70
     1
  9
$DIMPOST
  1

  9
$DIMAPOST
  1

  9
$DIMALT
 70
     0
  9
$DIMALTD
 70
     2
  9
$DIMALTF
 40
25.4
  9
$DIMLFAC
 40
1.0
  9
$DIMTOFL
 70
     0
  9
$DIMTVP
 40
0.0
  9
$DIMTIX
 70
     0
  9
$DIMSOXD
 70
     0
  9
$DIMSAH
 70
     0
  9
$DIMBLK1
  1

  9
$DIMBLK2
  1

  9
$DIMSTYLE
  2
Standard
  9
$DIMCLRD
 70
     0
  9
$DIMCLRE
 70
     0
  9
$DIMCLRT
 70
     0
  9
$DIMTFAC
 40
1.0
  9
$DIMGAP
 40
0.09
  9
$DIMJUST
 70
     0
  9
$DIMSD1
 70
     0
  9
$DIMSD2
 70
     0
  9
$DIMTOLJ
 70
     1
  9
$DIMTZIN
 70
     0
  9
$DIMALTZ
 70
     0
  9
$DIMALTTZ
 70
     0
  9
$DIMUPT
 70
     0
  9
$DIMDEC
 70
     4
  9
$DIMTDEC
 70
     4
  9
$DIMALTU
 70
     2
  9
$DIMALTTD
 70
     2
  9
$DIMTXSTY
  7
Standard
  9
$DIMAUNIT
 70
     0
  9
$DIMADEC
 70
     0
  9
$DIMALTRND
 40
0.0
  9
$DIMAZIN
 70
     0
  9
$DIMDSEP
 70
    46
  9
$DIMATFIT
 70
     3
  9
$DIMFRAC
 70
     0
  9
$DIMLDRBLK
  1

  9
$DIMLUNIT
 70
     2
  9
$DIMLWD
 70
    -2
  9
$DIMLWE
 70
    -2
  9
$DIMTMOVE
 70
     0
  9
$DIMFXL
 40
1.0
  9
$DIMFXLON
 70
     0
  9
$DIMJOGANG
 40
0.7853981633974483
  9
$DIMTFILL
 70
     0
  9
$DIMTFILLCLR
 70
     0
  9
$DIMARCSYM
 70
     0
  9
$DIMLTYPE
  6

  9
$DIMLTEX1
  6

  9
$DIMLTEX2
  6

  9
$DIMTXTDIRECTION
 70
     0
  9
$LUNITS
 70
     2
  9
$LUPREC
 70
     4
  9
$SKETCHINC
 40
0.1
  9
$FILLETRAD
 40
0.0
  9
$AUNITS
 70
     0
  9
$AUPREC
 70
     0
  9
$MENU
  1
.
  9
$ELEVATION
 40
0.0
  9
$PELEVATION
 40
0.0
  9
$THICKNESS
 40
0.0
  9
$LIMCHECK
 70
     0
  9
$CHAMFERA
 40
0.0
  9
$CHAMFERB
 40
0.0
  9
$CHAMFERC
 40
0.0
  9
$CHAMFERD
 40
0.0
  9
$SKPOLY
 70
     0
  9
$TDCREATE
 40
2460288.040034722
  9
$TDUCREATE
 40
2460288.373368056
  9
$TDUPDATE
 40
2460288.040034722
  9
$TDUUPDATE
 40
2460288.373368056
  9
$TDINDWG
 40
0.0000000000
  9
$TDUSRTIMER
 40
0.0000000000
  9
$USRTIMER
 70
     1
  9
$ANGBASE
 50
0.0
  9
$ANGDIR
 70
     0
  9
$PDMODE
 70
     0
  9
$PDSIZE
 40
0.0
  9
$PLINEWID
 40
0.0
  9
$SPLFRAME
 70
     0
  9
$SPLINETYPE
 70
     6
  9
$SPLINESEGS
 70
     8
  9
$HANDSEED
  5
AD
  9
$SURFTAB1
 70
     6
  9
$SURFTAB2
 70
     6
  9
$SURFTYPE
 70
     6
  9
$SURFU
 70
     6
  9
$SURFV
 70
     6
  9
$UCSBASE
  2

  9
$UCSNAME
  2

  9
$UCSORG
 10
0.0
 20
0.0
 30
0.0
  9
$UCSXDIR
 10
1.0
 20
0.0
 30
0.0
  9
$UCSYDIR
 10
0.0
 20
1.0
 30
0.0
  9
$UCSORTHOREF
  2

  9
$UCSORTHOVIEW
 70
     0
  9
$UCSORGTOP
 10
0.0
 20
0.0
 30
0.0
  9
$UCSORGBOTTOM
 10
0.0
 20
0.0
 30
0.0
  9
$UCSORGLEFT
 10
0.0
 20
0.0
 30
0.0
  9
$UCSORGRIGHT
 10
0.0
 20
0.0
 30
0.0
  9
$UCSORGFRONT
 10
0.0
 20
0.0
 30
0.0
  9
$UCSORGBACK
 10
0.0
 20
0.0
 30
0.0
  9
$PUCSBASE
  2

  9
$PUCSNAME
  2

  9
$PUCSORG
 10
0.0
 20
0.0
 30
0.0
  9
$PUCSXDIR
 10
1.0
 20
0.0
 30
0.0
  9
$PUCSYDIR
 10
0.0
 20
1.0
 30
0.0
  9
$PUCSORTHOREF
  2

  9
$PUCSORTHOVIEW
 70
     0
  9
$PUCSORGTOP
 10
0.0
 20
0.0
 30
0.0
  9
$PUCSORGBOTTOM
 10
0.0
 20
0.0
 30
0.0
  9
$PUCSORGLEFT
 10
0.0
 20
0.0
 30
0.0
  9
$PUCSORGRIGHT
 10
0.0
 20
0.0
 30
0.0
  9
$PUCSORGFRONT
 10
0.0
 20
0.0
 30
0.0
  9
$PUCSORGBACK
 10
0.0
 20
0.0
 30
0.0
  9
$USERI1
 70
     0
  9
$USERI2
 70
     0
  9
$USERI3
 70
     0
  9
$USERI4
 70
     0
  9
$USERI5
 70
     0
  9
$USERR1
 40
0.0
  9
$USERR2
 40
0.0
  9
$USERR3
 40
0.0
  9
$USERR4
 40
0.0
  9
$USERR5
 40
0.0
  9
$WORLDVIEW
 70
     1
  9
$SHADEDGE
 70
     3
  9
$SHADEDIF
 70
    70
  9
$TILEMODE
 70
     1
  9
$MAXACTVP
 70
    64
  9
$PINSBASE
 10
0.0
 20
0.0
 30
0.0
  9
$PLIMCHECK
 70
     0
  9
$PEXTMIN
 10
1.000000000000000E+20
 20
1.000000000000000E+20
 30
1.000000000000000E+20
  9
$PEXTMAX
 10
-1.000000000000000E+20
 20
-1.000000000000000E+20
 30
-1.000000000000000E+20
  9
$PLIMMIN
 10
0.0
 20
0.0
  9
$PLIMMAX
 10
12.0
 20
9.0
  9
$UNITMODE
 70
     0
  9
$VISRETAIN
 70
     1
  9
$PLINEGEN
 70
     0
  9
$PSLTSCALE
 70
     1
  9
$TREEDEPTH
 70
  3020
  9
$CMLSTYLE
  2
Standard
  9
$CMLJUST
 70
     0
  9
$CMLSCALE
 40
1.0
  9
$PROXYGRAPHICS
 70
     1
  9
$MEASUREMENT
 70
     0
  9
$CELWEIGHT
370
    -1
  9
$ENDCAPS
280
     0
  9
$JOINSTYLE
280
     0
  9
$LWDISPLAY
290
     1
  9
$INSUNITS
 70
     1
  9
$HYPERLINKBASE
  1

  9
$STYLESHEET
  1

  9
$XEDIT
290
     1
  9
$CEPSNTYPE
380
     0
  9
$PSTYLEMODE
290
     1
  9
$FINGERPRINTGUID
  2
{363CC421-148C-C54D-8794-922352181E65}
  9
$VERSIONGUID
  2
{1E3E8035-5BCB-A846-9B61-06967E833859}
  9
$EXTNAMES
290
     1
  9
$PSVPSCALE
 40
0.0
  9
$OLESTARTUP
290
     0
  9
$SORTENTS
280
   127
  9
$INDEXCTL
280
     0
  9
$HIDETEXT
280
     1
  9
$XCLIPFRAME
280
     2
  9
$HALOGAP
280
     0
  9
$OBSCOLOR
 70
   257
  9
$OBSLTYPE
280
     0
  9
$INTERSECTIONDISPLAY
280
     0
  9
$INTERSECTIONCOLOR
 70
   257
  9
$DIMASSOC
280
     2
  9
$PROJECTNAME
  1

  9
$CAMERADISPLAY
290
     0
  9
$LENSLENGTH
 40
50.0
  9
$CAMERAHEIGHT
 40
0.0
  9
$STEPSPERSEC
 40
2.0
  9
$STEPSIZE
 40
6.0
  9
$3DDWFPREC
 40
2.0
  9
$PSOLWIDTH
 40
0.25
  9
$PSOLHEIGHT
 40
4.0
  9
$LOFTANG1
 40
1.570796326794896
  9
$LOFTANG2
 40
1.570796326794896
  9
$LOFTMAG1
 40
0.0
  9
$LOFTMAG2
 40
0.0
  9
$LOFTPARAM
 70
     7
  9
$LOFTNORMALS
280
     1
  9
$LATITUDE
 40
37.795
  9
$LONGITUDE
 40
-122.394
  9
$NORTHDIRECTION
 40
0.0
  9
$TIMEZONE
 70
 -8000
  9
$LIGHTGLYPHDISPLAY
280
     1
  9
$TILEMODELIGHTSYNCH
280
     1
  9
$CMATERIAL
347
11
  9
$SOLIDHIST
280
     0
  9
$SHOWHIST
280
     1
  9
$DWFFRAME
280
     2
  9
$DGNFRAME
280
     0
  9
$REALWORLDSCALE
290
     1
  9
$INTERFERECOLOR
 62
     1
  9
$INTERFEREOBJVS
345
33
  9
$INTERFEREVPVS
346
30
  9
$CSHADOW
280
     0
  9
$SHADOWPLANELOCATION
 40
0.0
  0
ENDSEC
  0
SECTION
  2
CLASSES
  0
CLASS
  1
ACDBDICTIONARYWDFLT
  2
AcDbDictionaryWithDefault
  3
ObjectDBX Classes
 90
        0
 91
        1
280
     0
281
     0
  0
CLASS
  1
MATERIAL
  2
AcDbMaterial
  3
ObjectDBX Classes
 90
     1153
 91
        3
280
     0
281
     0
  0
CLASS
  1
VISUALSTYLE
  2
AcDbVisualStyle
  3
ObjectDBX Classes
 90
     4095
 91
       24
280
     0
281
     0
  0
CLASS
  1
SCALE
  2
AcDbScale
  3
ObjectDBX Classes
 90
     1153
 91
       17
280
     0
281
     0
  0
CLASS
  1
TABLESTYLE
  2
AcDbTableStyle
  3
ObjectDBX Classes
 90
     4095
 91
        1
280
     0
281
     0
  0
CLASS
  1
MLEADERSTYLE
  2
AcDbMLeaderStyle
  3
ACDB_MLEADERSTYLE_CLASS
 90
     4095
 91
        1
280
     0
281
     0
  0
CLASS
  1
ACDBSECTIONVIEWSTYLE
  2
AcDbSectionViewStyle
  3
ObjectDBX Classes
 90
     1025
 91
        1
280
     0
281
     0
  0
CLASS
  1
ACDBDETAILVIEWSTYLE
  2
AcDbDetailViewStyle
  3
ObjectDBX Classes
 90
     1025
 91
        1
280
     0
281
     0
  0
CLASS
  1
DICTIONARYVAR
  2
AcDbDictionaryVar
  3
ObjectDBX Classes
 90
        0
 91
        5
280
     0
281
     0
  0
CLASS
  1
CELLSTYLEMAP
  2
AcDbCellStyleMap
  3
ObjectDBX Classes
 90
     1152
 91
        1
280
     0
281
     0
  0
ENDSEC
  0
SECTION
  2
TABLES
  0
TABLE
  2
VPORT
  5
8
330
0
100
AcDbSymbolTable
 70
     1
  0
VPORT
  5
57
330
8
100
AcDbSymbolTableRecord
100
AcDbViewportTableRecord
  2
*Active
 70
     0
 10
0.0
 20
0.0
 11
1.0
 21
1.0
 12
0.0
 22
0.0
 13
0.0
 23
0.0
 14
1.0
 24
1.0
 15
0.0
 25
0.0
 16
0.0
 26
0.0
 36
1.0
 17
-0.0092103407118
 27
-1.544947506561811
 37
0.0
 40
3.605807086613904
 41
1.251598413331496
 42
50.0
 43
0.0
 44
0.0
 50
0.0
 51
0.0
 71
     0
 72
   100
 73
     1
 74
     1
 75
     0
 76
     0
 77
     0
 78
     0
281
     0
 65
     1
110
0.0
120
0.0
130
0.0
111
1.0
121
0.0
131
0.0
112
0.0
122
1.0
132
0.0
 79
     0
146
0.0
 60
     3
 61
     5
292
     1
282
     1
141
0.0
142
0.0
 63
   250
421
  3355443
  0
ENDTAB
  0
TABLE
  2
LTYPE
  5
5
330
0
100
AcDbSymbolTable
 70
     1
  0
LTYPE
  5
5B
330
5
100
AcDbSymbolTableRecord
100
AcDbLinetypeTableRecord
  2
ByBlock
 70
     0
  3

 72
    65
 73
     0
 40
0.0
  0
LTYPE
  5
5C
330
5
100
AcDbSymbolTableRecord
100
AcDbLinetypeTableRecord
  2
ByLayer
 70
     0
  3

 72
    65
 73
     0
 40
0.0
  0
LTYPE
  5
5D
330
5
100
AcDbSymbolTableRecord
100
AcDbLinetypeTableRecord
  2
Continuous
 70
     0
  3
Solid line
 72
    65
 73
     0
 40
0.0
  0
ENDTAB
  0
TABLE
  2
LAYER
  5
2
330
0
100
AcDbSymbolTable
 70
    10
  0
LAYER
  5
54
330
2
100
AcDbSymbolTableRecord
100
AcDbLayerTableRecord
  2
0
 70
     0
 62
     7
  6
Continuous
370
    -3
390
F
347
21
348
0
  0
LAYER
  5
78
330
2
100
AcDbSymbolTableRecord
100
AcDbLayerTableRecord
  2
Fonts
 70
     1
 62
     7
  6
Continuous
370
     0
390
F
347
21
348
0
  0
LAYER
  5
79
330
2
100
AcDbSymbolTableRecord
100
AcDbLayerTableRecord
  2
Green
 70
     5
 62
     7
  6
Continuous
370
     0
390
F
347
21
348
0
  0
LAYER
  5
7A
330
2
100
AcDbSymbolTableRecord
100
AcDbLayerTableRecord
  2
White
 70
     4
 62
     7
  6
Continuous
370
     0
390
F
347
21
348
0
  0
LAYER
  5
7B
330
2
100
AcDbSymbolTableRecord
100
AcDbLayerTableRecord
  2
Date
 70
     1
 62
     7
  6
Continuous
370
     0
390
F
347
21
348
0
  0
LAYER
  5
7C
330
2
100
AcDbSymbolTableRecord
100
AcDbLayerTableRecord
  2
Mr&Mrs with Date
 70
     1
 62
     7
  6
Continuous
370
     0
390
F
347
21
348
0
  0
LAYER
  5
7D
330
2
100
AcDbSymbolTableRecord
100
AcDbLayerTableRecord
  2
Let It Snow
 70
     1
 62
     7
  6
Continuous
370
     0
390
F
347
21
348
0
  0
LAYER
  5
7E
330
2
100
AcDbSymbolTableRecord
100
AcDbLayerTableRecord
  2
TML FRIENDSGIVING
 70
     1
 62
     7
  6
Continuous
370
     0
390
F
347
21
348
0
  0
LAYER
  5
7F
330
2
100
AcDbSymbolTableRecord
100
AcDbLayerTableRecord
  2
Layer 7
 70
     1
 62
     7
  6
Continuous
370
     0
390
F
347
21
348
0
  0
LAYER
  5
80
330
2
100
AcDbSymbolTableRecord
100
AcDbLayerTableRecord
  2
Layer 9
 70
     0
 62
     7
  6
Continuous
370
     0
390
F
347
21
348
0
  0
ENDTAB
  0
TABLE
  2
STYLE
  5
3
330
0
100
AcDbSymbolTable
 70
     2
  0
STYLE
  5
55
330
3
100
AcDbSymbolTableRecord
100
AcDbTextStyleTableRecord
  2
Standard
 70
     0
 40
0.0
 41
1.0
 50
0.0
 71
     0
 42
0.2
  3
txt
  4

  0
STYLE
  5
5A
330
3
100
AcDbSymbolTableRecord
100
AcDbTextStyleTableRecord
  2
Annotative
 70
     0
 40
0.0
 41
1.0
 50
0.0
 71
     0
 42
0.2
  3
txt
  4

1001
AcadAnnotative
1000
AnnotativeData
1002
{
1070
     1
1070
     1
1002
}
  0
ENDTAB
  0
TABLE
  2
VIEW
  5
6
330
0
100
AcDbSymbolTable
 70
     0
  0
ENDTAB
  0
TABLE
  2
UCS
  5
7
330
0
100
AcDbSymbolTable
 70
     0
  0
ENDTAB
  0
TABLE
  2
APPID
  5
9
330
0
100
AcDbSymbolTable
 70
     2
  0
APPID
  5
56
330
9
100
AcDbSymbolTableRecord
100
AcDbRegAppTableRecord
  2
ACAD
 70
     0
  0
APPID
  5
5E
330
9
100
AcDbSymbolTableRecord
100
AcDbRegAppTableRecord
  2
AcadAnnotative
 70
     0
  0
ENDTAB
  0
TABLE
  2
DIMSTYLE
  5
A
330
0
100
AcDbSymbolTable
 70
     2
100
AcDbDimStyleTable
 71
     0
  0
DIMSTYLE
105
58
330
A
100
AcDbSymbolTableRecord
100
AcDbDimStyleTableRecord
  2
Standard
 70
     0
340
55
  0
DIMSTYLE
105
59
330
A
100
AcDbSymbolTableRecord
100
AcDbDimStyleTableRecord
  2
Annotative
 70
     0
340
55
1001
AcadAnnotative
1000
AnnotativeData
1002
{
1070
     1
1070
     1
1002
}
  0
ENDTAB
  0
TABLE
  2
BLOCK_RECORD
  5
1
330
0
100
AcDbSymbolTable
 70
     3
  0
BLOCK_RECORD
  5
70
330
1
100
AcDbSymbolTableRecord
100
AcDbBlockTableRecord
  2
*Model_Space
340
73
 70
     0
280
     1
281
     0
  0
BLOCK_RECORD
  5
6C
330
1
100
AcDbSymbolTableRecord
100
AcDbBlockTableRecord
  2
*Paper_Space
340
6F
 70
     0
280
     1
281
     0
  0
BLOCK_RECORD
  5
74
330
1
100
AcDbSymbolTableRecord
100
AcDbBlockTableRecord
  2
*Paper_Space0
340
77
 70
     0
280
     1
281
     0
  0
BLOCK_RECORD
  5
85
330
1
100
AcDbSymbolTableRecord
100
AcDbBlockTableRecord
  2
Block_0
340
0
102
{BLKREFS
331
86
102
}
 70
     0
280
     1
281
     0
  0
BLOCK_RECORD
  5
9E
330
1
100
AcDbSymbolTableRecord
100
AcDbBlockTableRecord
  2
Block_1
340
0
102
{BLKREFS
331
9F
102
}
 70
     0
280
     1
281
     0
  0
ENDTAB
  0
ENDSEC
  0
SECTION
  2
BLOCKS
  0
BLOCK
  5
71
330
70
100
AcDbEntity
  8
0
100
AcDbBlockBegin
  2
*Model_Space
 70
     0
 10
0.0
 20
0.0
 30
0.0
  3
*Model_Space
  1

  0
ENDBLK
  5
72
330
70
100
AcDbEntity
  8
0
100
AcDbBlockEnd
  0
BLOCK
  5
6D
330
6C
100
AcDbEntity
 67
     1
  8
0
100
AcDbBlockBegin
  2
*Paper_Space
 70
     0
 10
0.0
 20
0.0
 30
0.0
  3
*Paper_Space
  1

  0
ENDBLK
  5
6E
330
6C
100
AcDbEntity
 67
     1
  8
0
100
AcDbBlockEnd
  0
BLOCK
  5
75
330
74
100
AcDbEntity
 67
     1
  8
0
100
AcDbBlockBegin
  2
*Paper_Space0
 70
     0
 10
0.0
 20
0.0
 30
0.0
  3
*Paper_Space0
  1

  0
ENDBLK
  5
76
330
74
100
AcDbEntity
 67
     1
  8
0
100
AcDbBlockEnd
  0
BLOCK
  5
87
330
85
100
AcDbEntity
  8
0
100
AcDbBlockBegin
  2
Block_0
 70
     0
 10
0.0
 20
0.0
 30
0.0
  3
Block_0
  1

  0
SPLINE
  5
89
330
85
100
AcDbEntity
  8
Layer 9
100
AcDbSpline
210
0.0
220
0.0
230
1.0
 70
     9
 71
     3
 72
    68
 73
    64
 74
     0
 42
0.0000000001
 43
0.0000000001
 40
0.0
 40
0.0
 40
0.0
 40
0.0
 40
1.0
 40
1.0
 40
1.0
 40
2.0
 40
2.0
 40
2.0
 40
3.0
 40
3.0
 40
3.0
 40
4.0
 40
4.0
 40
4.0
 40
5.0
 40
5.0
 40
5.0
 40
6.0
 40
6.0
 40
6.0
 40
7.0
 40
7.0
 40
7.0
 40
8.0
 40
8.0
 40
8.0
 40
9.0
 40
9.0
 40
9.0
 40
10.0
 40
10.0
 40
10.0
 40
11.0
 40
11.0
 40
11.0
 40
12.0
 40
12.0
 40
12.0
 40
13.0
 40
13.0
 40
13.0
 40
14.0
 40
14.0
 40
14.0
 40
15.0
 40
15.0
 40
15.0
 40
16.0
 40
16.0
 40
16.0
 40
17.0
 40
17.0
 40
17.0
 40
18.0
 40
18.0
 40
18.0
 40
19.0
 40
19.0
 40
19.0
 40
20.0
 40
20.0
 40
20.0
 40
21.0
 40
21.0
 40
21.0
 40
21.0
 10
0.4380000778786805
 20
-2.981139256337781
 30
0.0
 10
0.4262837414259543
 20
-3.015069354908089
 30
0.0
 10
0.4151663996794039
 20
-3.027683089156956
 30
0.0
 10
0.3969869103470576
 20
-3.027683089156956
 30
0.0
 10
0.3660368538791721
 20
-3.027683089156956
 30
0.0
 10
0.3444191349334207
 20
-2.98977416166263
 30
0.0
 10
0.3444191349334207
 20
-2.935492776425007
 30
0.0
 10
0.3444191349334207
 20
-2.894807134277117
 30
0.0
 10
0.3602924946469683
 20
-2.851023084924488
 30
0.0
 10
0.3951479965991211
 20
-2.851023084924488
 30
0.0
 10
0.4170771927920846
 20
-2.851023084924488
 30
0.0
 10
0.4286078408859137
 20
-2.864026236472378
 30
0.0
 10
0.4336873159942343
 20
-2.894502372912711
 30
0.0
 10
0.4336873159942343
 20
-2.894502372912711
 30
0.0
 10
0.4347475366241725
 20
-2.900851568004478
 30
0.0
 10
0.4347475366241725
 20
-2.900851568004478
 30
0.0
 10
0.4347475366241725
 20
-2.900851568004478
 30
0.0
 10
0.4495187460783604
 20
-2.895856867865606
 30
0.0
 10
0.4495187460783604
 20
-2.895856867865606
 30
0.0
 10
0.4495187460783604
 20
-2.895856867865606
 30
0.0
 10
0.4491114296781815
 20
-2.890201851437217
 30
0.0
 10
0.4491114296781815
 20
-2.890201851437217
 30
0.0
 10
0.4481949677777443
 20
-2.877401874132298
 30
0.0
 10
0.4471347471478061
 20
-2.866769088752056
 30
0.0
 10
0.4459786873648884
 20
-2.855205088091628
 30
0.0
 10
0.4459786873648884
 20
-2.855205088091628
 30
0.0
 10
0.4441158138287039
 20
-2.836157502816452
 30
0.0
 10
0.4441158138287039
 20
-2.836157502816452
 30
0.0
 10
0.4441158138287039
 20
-2.836157502816452
 30
0.0
 10
0.440809363050625
 20
-2.8353278746577
 30
0.0
 10
0.440809363050625
 20
-2.8353278746577
 30
0.0
 10
0.4394676149087976
 20
-2.834989250919534
 30
0.0
 10
0.4376287011608358
 20
-2.834328934629992
 30
0.0
 10
0.4353645011715218
 20
-2.833516237658285
 30
0.0
 10
0.4277632583501953
 20
-2.830790316565551
 30
0.0
 10
0.4150286308969903
 20
-2.826218896099488
 30
0.0
 10
0.4006707277900432
 20
-2.826218896099488
 30
0.0
 10
0.3483006206294274
 20
-2.826218896099488
 30
0.0
 10
0.311726003870553
 20
-2.873897118441694
 30
0.0
 10
0.311726003870553
 20
-2.94214673288113
 30
0.0
 10
0.311726003870553
 20
-2.995496902838592
 30
0.0
 10
0.3378781127420072
 20
-3.052910557654766
 30
0.0
 10
0.3952917553286221
 20
-3.052910557654766
 30
0.0
 10
0.4106439896477999
 20
-3.052910557654766
 30
0.0
 10
0.4282664139034043
 20
-3.046764536805969
 30
0.0
 10
0.4357957773599739
 20
-3.04414020283472
 30
0.0
 10
0.4357957773599739
 20
-3.04414020283472
 30
0.0
 10
0.439030348773296
 20
-3.043005813311664
 30
0.0
 10
0.439030348773296
 20
-3.043005813311664
 30
0.0
 10
0.439030348773296
 20
-3.043005813311664
 30
0.0
 10
0.439994730250242
 20
-3.040381479340415
 30
0.0
 10
0.439994730250242
 20
-3.040381479340415
 30
0.0
 10
0.4440918540404432
 20
-3.029156102418204
 30
0.0
 10
0.4499859619491594
 20
-3.00350535424761
 30
0.0
 10
0.4526634682857776
 20
-2.989300088429091
 30
0.0
 10
0.4526634682857776
 20
-2.989300088429091
 30
0.0
 10
0.453693739180393
 20
-2.983831315056653
 30
0.0
 10
0.453693739180393
 20
-2.983831315056653
 30
0.0
 10
0.453693739180393
 20
-2.983831315056653
 30
0.0
 10
0.4399108709913738
 20
-2.975602758217822
 30
0.0
 10
0.4399108709913738
 20
-2.975602758217822
 30
0.0
 10
0.4399108709913738
 20
-2.975602758217822
 30
0.0
 10
0.4380000778786805
 20
-2.981139256337781
 30
0.0
 10
0.4380000778786805
 20
-2.981139256337781
 30
0.0
  0
SPLINE
  5
8A
330
85
100
AcDbEntity
  8
Layer 9
100
AcDbSpline
210
0.0
220
0.0
230
1.0
 70
     9
 71
     3
 72
    20
 73
    16
 74
     0
 42
0.0000000001
 43
0.0000000001
 40
0.0
 40
0.0
 40
0.0
 40
0.0
 40
1.0
 40
1.0
 40
1.0
 40
2.0
 40
2.0
 40
2.0
 40
3.0
 40
3.0
 40
3.0
 40
4.0
 40
4.0
 40
4.0
 40
5.0
 40
5.0
 40
5.0
 40
5.0
 10
0.5337733414485355
 20
-2.87520917098464
 30
0.0
 10
0.5337733414485355
 20
-2.87520917098464
 30
0.0
 10
0.5339111102309364
 20
-2.87520917098464
 30
0.0
 10
0.5339111102309364
 20
-2.87520917098464
 30
0.0
 10
0.5574755619717786
 20
-2.87520917098464
 30
0.0
 10
0.5812496618597404
 20
-2.90082714177351
 30
0.0
 10
0.5812496618597404
 20
-2.958054022418688
 30
0.0
 10
0.5812496618597404
 20
-3.011957571193053
 30
0.0
 10
0.5591826968843508
 20
-3.03109280940877
 30
0.0
 10
0.5402844139046263
 20
-3.03109280940877
 30
0.0
 10
0.5127306574206992
 20
-3.03109280940877
 30
0.0
 10
0.4919575210106662
 20
-2.995221689171027
 30
0.0
 10
0.4919575210106662
 20
-2.947666747468247
 30
0.0
 10
0.4919575210106662
 20
-2.897608129737237
 30
0.0
 10
0.5129582754090431
 20
-2.87520917098464
 30
0.0
 10
0.5337733414485355
 20
-2.87520917098464
 30
0.0
  0
SPLINE
  5
8B
330
85
100
AcDbEntity
  8
Layer 9
100
AcDbSpline
210
0.0
220
0.0
230
1.0
 70
     9
 71
     3
 72
    20
 73
    16
 74
     0
 42
0.0000000001
 43
0.0000000001
 40
0.0
 40
0.0
 40
0.0
 40
0.0
 40
1.0
 40
1.0
 40
1.0
 40
2.0
 40
2.0
 40
2.0
 40
3.0
 40
3.0
 40
3.0
 40
4.0
 40
4.0
 40
4.0
 40
5.0
 40
5.0
 40
5.0
 40
5.0
 10
0.5384395102096152
 20
-2.853376519905193
 30
0.0
 10
0.5384395102096152
 20
-2.853376519905193
 30
0.0
 10
0.5383017414271889
 20
-2.853376519905193
 30
0.0
 10
0.5383017414271889
 20
-2.853376519905193
 30
0.0
 10
0.4871475935200983
 20
-2.853376519905193
 30
0.0
 10
0.4595459174596878
 20
-2.905655659827895
 30
0.0
 10
0.4595459174596878
 20
-2.954849913215866
 30
0.0
 10
0.4595459174596878
 20
-3.010750441679445
 30
0.0
 10
0.4922450384696301
 20
-3.052910557654766
 30
0.0
 10
0.535612255196472
 20
-3.052910557654766
 30
0.0
 10
0.580998084083136
 20
-3.052910557654766
 30
0.0
 10
0.6139368029755335
 20
-3.009915883003385
 30
0.0
 10
0.6139368029755335
 20
-2.950692022668994
 30
0.0
 10
0.6139368029755335
 20
-2.889784142148982
 30
0.0
 10
0.57555322220402
 20
-2.853376519905193
 30
0.0
 10
0.5384395102096152
 20
-2.853376519905193
 30
0.0
  0
SPLINE
  5
8C
330
85
100
AcDbEntity
  8
Layer 9
100
AcDbSpline
210
0.0
220
0.0
230
1.0
 70
    11
 71
     3
 72
    71
 73
    67
 74
     0
 42
0.0000000001
 43
0.0000000001
 40
0.0
 40
0.0
 40
0.0
 40
0.0
 40
1.0
 40
1.0
 40
1.0
 40
2.0
 40
2.0
 40
2.0
 40
3.0
 40
3.0
 40
3.0
 40
4.0
 40
4.0
 40
4.0
 40
5.0
 40
5.0
 40
5.0
 40
6.0
 40
6.0
 40
6.0
 40
7.0
 40
7.0
 40
7.0
 40
8.0
 40
8.0
 40
8.0
 40
9.0
 40
9.0
 40
9.0
 40
10.0
 40
10.0
 40
10.0
 40
11.0
 40
11.0
 40
11.0
 40
12.0
 40
12.0
 40
12.0
 40
13.0
 40
13.0
 40
13.0
 40
14.0
 40
14.0
 40
14.0
 40
15.0
 40
15.0
 40
15.0
 40
16.0
 40
16.0
 40
16.0
 40
17.0
 40
17.0
 40
17.0
 40
18.0
 40
18.0
 40
18.0
 40
19.0
 40
19.0
 40
19.0
 40
20.0
 40
20.0
 40
20.0
 40
21.0
 40
21.0
 40
21.0
 40
22.0
 40
22.0
 40
22.0
 40
22.0
 10
0.734897793939922
 20
-2.993850628488921
 30
0.0
 10
0.734897793939922
 20
-2.993850628488921
 30
0.0
 10
0.7201265844857087
 20
-2.989901377611077
 30
0.0
 10
0.7201265844857087
 20
-2.989901377611077
 30
0.0
 10
0.7201265844857087
 20
-2.989901377611077
 30
0.0
 10
0.718820776026266
 20
-2.994774604166018
 30
0.0
 10
0.718820776026266
 20
-2.994774604166018
 30
0.0
 10
0.7148494411243292
 20
-3.009602923499894
 30
0.0
 10
0.7109439956400871
 20
-3.016800992081041
 30
0.0
 10
0.7081886199916881
 20
-3.02048199195585
 30
0.0
 10
0.7048582094253863
 20
-3.025459538345305
 30
0.0
 10
0.6994492872286426
 20
-3.027307489699473
 30
0.0
 10
0.6882361063291126
 20
-3.027307489699473
 30
0.0
 10
0.6819346820201796
 20
-3.027307489699473
 30
0.0
 10
0.6742675497811838
 20
-3.026994530195957
 30
0.0
 10
0.6708532799559887
 20
-3.024475951334225
 30
0.0
 10
0.6691042154139824
 20
-3.02322411332006
 30
0.0
 10
0.6682117133017932
 20
-3.020049809784268
 30
0.0
 10
0.6682117133017932
 20
-3.006219980295049
 30
0.0
 10
0.6682117133017932
 20
-3.006219980295049
 30
0.0
 10
0.6682117133017932
 20
-2.898755647916863
 30
0.0
 10
0.6682117133017932
 20
-2.898755647916863
 30
0.0
 10
0.6682117133017932
 20
-2.878577211356009
 30
0.0
 10
0.6682117133017932
 20
-2.878577211356009
 30
0.0
 10
0.6826235259322604
 20
-2.877280664841363
 30
0.0
 10
0.6826235259322604
 20
-2.877280664841363
 30
0.0
 10
0.6868883682402231
 20
-2.876893191170312
 30
0.0
 10
0.6868883682402231
 20
-2.876893191170312
 30
0.0
 10
0.6868883682402231
 20
-2.876893191170312
 30
0.0
 10
0.6868883682402231
 20
-2.857534410452065
 30
0.0
 10
0.6868883682402231
 20
-2.857534410452065
 30
0.0
 10
0.6868883682402231
 20
-2.857534410452065
 30
0.0
 10
0.6203759960668802
 20
-2.857534410452065
 30
0.0
 10
0.6203759960668802
 20
-2.857534410452065
 30
0.0
 10
0.6203759960668802
 20
-2.857534410452065
 30
0.0
 10
0.6203759960668802
 20
-2.876908094003813
 30
0.0
 10
0.6203759960668802
 20
-2.876908094003813
 30
0.0
 10
0.6203759960668802
 20
-2.876908094003813
 30
0.0
 10
0.6246588082160037
 20
-2.877280664841363
 30
0.0
 10
0.6246588082160037
 20
-2.877280664841363
 30
0.0
 10
0.6393401684642993
 20
-2.87854740568898
 30
0.0
 10
0.6393401684642993
 20
-2.87854740568898
 30
0.0
 10
0.6393401684642993
 20
-2.898755647916863
 30
0.0
 10
0.6393401684642993
 20
-2.898755647916863
 30
0.0
 10
0.6393401684642993
 20
-3.007158858805673
 30
0.0
 10
0.6393401684642993
 20
-3.007158858805673
 30
0.0
 10
0.6393401684642993
 20
-3.027739671870979
 30
0.0
 10
0.6393401684642993
 20
-3.027739671870979
 30
0.0
 10
0.6236405172155248
 20
-3.029215052387649
 30
0.0
 10
0.6236405172155248
 20
-3.029215052387649
 30
0.0
 10
0.6193876548016988
 20
-3.029617428892202
 30
0.0
 10
0.6193876548016988
 20
-3.029617428892202
 30
0.0
 10
0.6193876548016988
 20
-3.029617428892202
 30
0.0
 10
0.6193876548016988
 20
-3.04857383310587
 30
0.0
 10
0.6193876548016988
 20
-3.04857383310587
 30
0.0
 10
0.6193876548016988
 20
-3.04857383310587
 30
0.0
 10
0.7250143812880828
 20
-3.04857383310587
 30
0.0
 10
0.7250143812880828
 20
-3.04857383310587
 30
0.0
 10
0.7250143812880828
 20
-3.04857383310587
 30
0.0
 10
0.7260206923944503
 20
-3.044550068060541
 30
0.0
 10
0.7260206923944503
 20
-3.044550068060541
 30
0.0
 10
0.7282729124896529
 20
-3.035563659459209
 30
0.0
 10
0.7326934934211901
 20
-3.008559725154706
 30
0.0
 10
0.7340771711924515
 20
-2.999319968383891
 30
0.0
 10
0.7340771711924515
 20
-2.999319968383891
 30
0.0
 10
0.734897793939922
 20
-2.993850628488921
 30
0.0
 10
0.734897793939922
 20
-2.993850628488921
 30
0.0
  0
SPLINE
  5
8D
330
85
100
AcDbEntity
  8
Layer 9
100
AcDbSpline
210
0.0
220
0.0
230
1.0
 70
     9
 71
     3
 72
   122
 73
   118
 74
     0
 42
0.0000000001
 43
0.0000000001
 40
0.0
 40
0.0
 40
0.0
 40
0.0
 40
1.0
 40
1.0
 40
1.0
 40
2.0
 40
2.0
 40
2.0
 40
3.0
 40
3.0
 40
3.0
 40
4.0
 40
4.0
 40
4.0
 40
5.0
 40
5.0
 40
5.0
 40
6.0
 40
6.0
 40
6.0
 40
7.0
 40
7.0
 40
7.0
 40
8.0
 40
8.0
 40
8.0
 40
9.0
 40
9.0
 40
9.0
 40
10.0
 40
10.0
 40
10.0
 40
11.0
 40
11.0
 40
11.0
 40
12.0
 40
12.0
 40
12.0
 40
13.0
 40
13.0
 40
13.0
 40
14.0
 40
14.0
 40
14.0
 40
15.0
 40
15.0
 40
15.0
 40
16.0
 40
16.0
 40
16.0
 40
17.0
 40
17.0
 40
17.0
 40
18.0
 40
18.0
 40
18.0
 40
19.0
 40
19.0
 40
19.0
 40
20.0
 40
20.0
 40
20.0
 40
21.0
 40
21.0
 40
21.0
 40
22.0
 40
22.0
 40
22.0
 40
23.0
 40
23.0
 40
23.0
 40
24.0
 40
24.0
 40
24.0
 40
25.0
 40
25.0
 40
25.0
 40
26.0
 40
26.0
 40
26.0
 40
27.0
 40
27.0
 40
27.0
 40
28.0
 40
28.0
 40
28.0
 40
29.0
 40
29.0
 40
29.0
 40
30.0
 40
30.0
 40
30.0
 40
31.0
 40
31.0
 40
31.0
 40
32.0
 40
32.0
 40
32.0
 40
33.0
 40
33.0
 40
33.0
 40
34.0
 40
34.0
 40
34.0
 40
35.0
 40
35.0
 40
35.0
 40
36.0
 40
36.0
 40
36.0
 40
37.0
 40
37.0
 40
37.0
 40
38.0
 40
38.0
 40
38.0
 40
39.0
 40
39.0
 40
39.0
 40
39.0
 10
0.8383741294311322
 20
-2.995087563669509
 30
0.0
 10
0.8355229146297663
 20
-3.00528110178445
 30
0.0
 10
0.8317672178220492
 20
-3.014610275556302
 30
0.0
 10
0.8284248273616235
 20
-3.0199156842828
 30
0.0
 10
0.8251782760541521
 20
-3.024774008004214
 30
0.0
 10
0.8210751623169016
 20
-3.026934918861974
 30
0.0
 10
0.8053575412269411
 20
-3.026934918861974
 30
0.0
 10
0.7970195349170252
 20
-3.026934918861974
 30
0.0
 10
0.789142754530859
 20
-3.026934918861974
 30
0.0
 10
0.7863154995177285
 20
-3.024729299503734
 30
0.0
 10
0.7843987164579732
 20
-3.023089987818593
 30
0.0
 10
0.783212706939758
 20
-3.019513307778222
 30
0.0
 10
0.783212706939758
 20
-3.006786287968073
 30
0.0
 10
0.783212706939758
 20
-3.006786287968073
 30
0.0
 10
0.783212706939758
 20
-2.961705216626544
 30
0.0
 10
0.783212706939758
 20
-2.961705216626544
 30
0.0
 10
0.783212706939758
 20
-2.961705216626544
 30
0.0
 10
0.7979958962880952
 20
-2.961705216626544
 30
0.0
 10
0.7979958962880952
 20
-2.961705216626544
 30
0.0
 10
0.8140369745193664
 20
-2.961705216626544
 30
0.0
 10
0.8140369745193664
 20
-2.961705216626544
 30
0.0
 10
0.8165407723911483
 20
-2.978724252485057
 30
0.0
 10
0.8165407723911483
 20
-2.978724252485057
 30
0.0
 10
0.8172296163032671
 20
-2.983418645037975
 30
0.0
 10
0.8172296163032671
 20
-2.983418645037975
 30
0.0
 10
0.8172296163032671
 20
-2.983418645037975
 30
0.0
 10
0.832030775492765
 20
-2.983418645037975
 30
0.0
 10
0.832030775492765
 20
-2.983418645037975
 30
0.0
 10
0.832030775492765
 20
-2.983418645037975
 30
0.0
 10
0.832030775492765
 20
-2.917771663464564
 30
0.0
 10
0.832030775492765
 20
-2.917771663464564
 30
0.0
 10
0.832030775492765
 20
-2.917771663464564
 30
0.0
 10
0.8172116464620684
 20
-2.917771663464564
 30
0.0
 10
0.8172116464620684
 20
-2.917771663464564
 30
0.0
 10
0.8172116464620684
 20
-2.917771663464564
 30
0.0
 10
0.8165347824441116
 20
-2.922480958850933
 30
0.0
 10
0.8165347824441116
 20
-2.922480958850933
 30
0.0
 10
0.8141987030900281
 20
-2.938739950200922
 30
0.0
 10
0.8141987030900281
 20
-2.938739950200922
 30
0.0
 10
0.7979958962880952
 20
-2.938739950200922
 30
0.0
 10
0.7979958962880952
 20
-2.938739950200922
 30
0.0
 10
0.783212706939758
 20
-2.938739950200922
 30
0.0
 10
0.783212706939758
 20
-2.938739950200922
 30
0.0
 10
0.783212706939758
 20
-2.938739950200922
 30
0.0
 10
0.783212706939758
 20
-2.882526462233853
 30
0.0
 10
0.783212706939758
 20
-2.882526462233853
 30
0.0
 10
0.783212706939758
 20
-2.881826029059235
 30
0.0
 10
0.783212706939758
 20
-2.880350648542642
 30
0.0
 10
0.7832666164633034
 20
-2.879262741697048
 30
0.0
 10
0.783901550851864
 20
-2.879203130363041
 30
0.0
 10
0.7848000429111153
 20
-2.879173324696037
 30
0.0
 10
0.7859680825881317
 20
-2.879173324696037
 30
0.0
 10
0.7859680825881317
 20
-2.879173324696037
 30
0.0
 10
0.8016797137310428
 20
-2.879173324696037
 30
0.0
 10
0.8016797137310428
 20
-2.879173324696037
 30
0.0
 10
0.8158040089025714
 20
-2.879173324696037
 30
0.0
 10
0.8195656956573504
 20
-2.881110693051191
 30
0.0
 10
0.8211410517345585
 20
-2.884165773918968
 30
0.0
 10
0.8236927691828617
 20
-2.889888461983496
 30
0.0
 10
0.8257652908662294
 20
-2.895879401051085
 30
0.0
 10
0.8276042046141657
 20
-2.90656473267149
 30
0.0
 10
0.8276042046141657
 20
-2.90656473267149
 30
0.0
 10
0.828502696673417
 20
-2.911780724396976
 30
0.0
 10
0.828502696673417
 20
-2.911780724396976
 30
0.0
 10
0.828502696673417
 20
-2.911780724396976
 30
0.0
 10
0.8434955341689121
 20
-2.909172728534233
 30
0.0
 10
0.8434955341689121
 20
-2.909172728534233
 30
0.0
 10
0.8434955341689121
 20
-2.909172728534233
 30
0.0
 10
0.843202026762886
 20
-2.903852416974258
 30
0.0
 10
0.843202026762886
 20
-2.903852416974258
 30
0.0
 10
0.8423574442271803
 20
-2.888413081466902
 30
0.0
 10
0.8415068717444126
 20
-2.870142207594199
 30
0.0
 10
0.8412253442324981
 20
-2.862973944680081
 30
0.0
 10
0.8412253442324981
 20
-2.862973944680081
 30
0.0
 10
0.8410097061382909
 20
-2.857534410452065
 30
0.0
 10
0.8410097061382909
 20
-2.857534410452065
 30
0.0
 10
0.8410097061382909
 20
-2.857534410452065
 30
0.0
 10
0.7360838034581244
 20
-2.857534410452065
 30
0.0
 10
0.7360838034581244
 20
-2.857534410452065
 30
0.0
 10
0.7360838034581244
 20
-2.857534410452065
 30
0.0
 10
0.7360838034581244
 20
-2.876788871335773
 30
0.0
 10
0.7360838034581244
 20
-2.876788871335773
 30
0.0
 10
0.7360838034581244
 20
-2.876788871335773
 30
0.0
 10
0.7402647865072064
 20
-2.877265762007886
 30
0.0
 10
0.7402647865072064
 20
-2.877265762007886
 30
0.0
 10
0.7543411621022642
 20
-2.878875268026023
 30
0.0
 10
0.7543411621022642
 20
-2.878875268026023
 30
0.0
 10
0.7543411621022642
 20
-2.899515692425388
 30
0.0
 10
0.7543411621022642
 20
-2.899515692425388
 30
0.0
 10
0.7543411621022642
 20
-3.007725166478671
 30
0.0
 10
0.7543411621022642
 20
-3.007725166478671
 30
0.0
 10
0.7543411621022642
 20
-3.027560837869006
 30
0.0
 10
0.7543411621022642
 20
-3.027560837869006
 30
0.0
 10
0.7376351997471097
 20
-3.029215052387649
 30
0.0
 10
0.7376351997471097
 20
-3.029215052387649
 30
0.0
 10
0.7334003071744821
 20
-3.029632331725704
 30
0.0
 10
0.7334003071744821
 20
-3.029632331725704
 30
0.0
 10
0.7334003071744821
 20
-3.029632331725704
 30
0.0
 10
0.7334003071744821
 20
-3.04857383310587
 30
0.0
 10
0.7334003071744821
 20
-3.04857383310587
 30
0.0
 10
0.7334003071744821
 20
-3.04857383310587
 30
0.0
 10
0.8454302870698533
 20
-3.04857383310587
 30
0.0
 10
0.8454302870698533
 20
-3.04857383310587
 30
0.0
 10
0.8454302870698533
 20
-3.04857383310587
 30
0.0
 10
0.8463227891820173
 20
-3.044281817057506
 30
0.0
 10
0.8463227891820173
 20
-3.044281817057506
 30
0.0
 10
0.8482335822947232
 20
-3.035027157453163
 30
0.0
 10
0.8523606558202471
 20
-3.009319769663332
 30
0.0
 10
0.853762303432682
 20
-2.999051717380881
 30
0.0
 10
0.853762303432682
 20
-2.999051717380881
 30
0.0
 10
0.8545589663919043
 20
-2.993239612315341
 30
0.0
 10
0.8545589663919043
 20
-2.993239612315341
 30
0.0
 10
0.8545589663919043
 20
-2.993239612315341
 30
0.0
 10
0.839614048472918
 20
-2.990646519286125
 30
0.0
 10
0.839614048472918
 20
-2.990646519286125
 30
0.0
 10
0.839614048472918
 20
-2.990646519286125
 30
0.0
 10
0.8383741294311322
 20
-2.995087563669509
 30
0.0
 10
0.8383741294311322
 20
-2.995087563669509
 30
0.0
  0
SPLINE
  5
8E
330
85
100
AcDbEntity
  8
Layer 9
100
AcDbSpline
210
0.0
220
0.0
230
1.0
 70
    11
 71
     3
 72
   113
 73
   109
 74
     0
 42
0.0000000001
 43
0.0000000001
 40
0.0
 40
0.0
 40
0.0
 40
0.0
 40
1.0
 40
1.0
 40
1.0
 40
2.0
 40
2.0
 40
2.0
 40
3.0
 40
3.0
 40
3.0
 40
4.0
 40
4.0
 40
4.0
 40
5.0
 40
5.0
 40
5.0
 40
6.0
 40
6.0
 40
6.0
 40
7.0
 40
7.0
 40
7.0
 40
8.0
 40
8.0
 40
8.0
 40
9.0
 40
9.0
 40
9.0
 40
10.0
 40
10.0
 40
10.0
 40
11.0
 40
11.0
 40
11.0
 40
12.0
 40
12.0
 40
12.0
 40
13.0
 40
13.0
 40
13.0
 40
14.0
 40
14.0
 40
14.0
 40
15.0
 40
15.0
 40
15.0
 40
16.0
 40
16.0
 40
16.0
 40
17.0
 40
17.0
 40
17.0
 40
18.0
 40
18.0
 40
18.0
 40
19.0
 40
19.0
 40
19.0
 40
20.0
 40
20.0
 40
20.0
 40
21.0
 40
21.0
 40
21.0
 40
22.0
 40
22.0
 40
22.0
 40
23.0
 40
23.0
 40
23.0
 40
24.0
 40
24.0
 40
24.0
 40
25.0
 40
25.0
 40
25.0
 40
26.0
 40
26.0
 40
26.0
 40
27.0
 40
27.0
 40
27.0
 40
28.0
 40
28.0
 40
28.0
 40
29.0
 40
29.0
 40
29.0
 40
30.0
 40
30.0
 40
30.0
 40
31.0
 40
31.0
 40
31.0
 40
32.0
 40
32.0
 40
32.0
 40
33.0
 40
33.0
 40
33.0
 40
34.0
 40
34.0
 40
34.0
 40
35.0
 40
35.0
 40
35.0
 40
36.0
 40
36.0
 40
36.0
 40
36.0
 10
1.006302295306479
 20
-2.85283472192403
 30
0.0
 10
1.006302295306479
 20
-2.85283472192403
 30
0.0
 10
1.010489268302598
 20
-2.853359588718325
 30
0.0
 10
1.010489268302598
 20
-2.853359588718325
 30
0.0
 10
1.024841181462496
 20
-2.85518815690471
 30
0.0
 10
1.024841181462496
 20
-2.85518815690471
 30
0.0
 10
1.024841181462496
 20
-2.877130975141754
 30
0.0
 10
1.024841181462496
 20
-2.877130975141754
 30
0.0
 10
1.024841181462496
 20
-2.919983809214222
 30
0.0
 10
1.024841181462496
 20
-2.919983809214222
 30
0.0
 10
1.024841181462496
 20
-2.919983809214222
 30
0.0
 10
0.9614495717083096
 20
-2.919983809214222
 30
0.0
 10
0.9614495717083096
 20
-2.919983809214222
 30
0.0
 10
0.9614495717083096
 20
-2.919983809214222
 30
0.0
 10
0.9614495717083096
 20
-2.877130975141754
 30
0.0
 10
0.9614495717083096
 20
-2.877130975141754
 30
0.0
 10
0.9614495717083096
 20
-2.855171225717791
 30
0.0
 10
0.9614495717083096
 20
-2.855171225717791
 30
0.0
 10
0.9753821885738664
 20
-2.853359588718325
 30
0.0
 10
0.9753821885738664
 20
-2.853359588718325
 30
0.0
 10
0.9795631716229484
 20
-2.852817790737086
 30
0.0
 10
0.9795631716229484
 20
-2.852817790737086
 30
0.0
 10
0.9795631716229484
 20
-2.852817790737086
 30
0.0
 10
0.9795631716229484
 20
-2.830942697247741
 30
0.0
 10
0.9795631716229484
 20
-2.830942697247741
 30
0.0
 10
0.9795631716229484
 20
-2.830942697247741
 30
0.0
 10
0.9133323269615074
 20
-2.830942697247741
 30
0.0
 10
0.9133323269615074
 20
-2.830942697247741
 30
0.0
 10
0.9133323269615074
 20
-2.830942697247741
 30
0.0
 10
0.9133323269615074
 20
-2.852851653110923
 30
0.0
 10
0.9133323269615074
 20
-2.852851653110923
 30
0.0
 10
0.9133323269615074
 20
-2.852851653110923
 30
0.0
 10
0.91753726979885
 20
-2.853376519905193
 30
0.0
 10
0.91753726979885
 20
-2.853376519905193
 30
0.0
 10
0.9324342681413401
 20
-2.85518815690471
 30
0.0
 10
0.9324342681413401
 20
-2.85518815690471
 30
0.0
 10
0.9324342681413401
 20
-2.877130975141754
 30
0.0
 10
0.9324342681413401
 20
-2.877130975141754
 30
0.0
 10
0.9324342681413401
 20
-3.001998478612474
 30
0.0
 10
0.9324342681413401
 20
-3.001998478612474
 30
0.0
 10
0.9324342681413401
 20
-3.024178333466327
 30
0.0
 10
0.9324342681413401
 20
-3.024178333466327
 30
0.0
 10
0.9180823549814551
 20
-3.026006901652686
 30
0.0
 10
0.9180823549814551
 20
-3.026006901652686
 30
0.0
 10
0.9138953819852986
 20
-3.026531768447032
 30
0.0
 10
0.9138953819852986
 20
-3.026531768447032
 30
0.0
 10
0.9138953819852986
 20
-3.026531768447032
 30
0.0
 10
0.9138953819852986
 20
-3.047983582263592
 30
0.0
 10
0.9138953819852986
 20
-3.047983582263592
 30
0.0
 10
0.9138953819852986
 20
-3.047983582263592
 30
0.0
 10
0.9806892816705561
 20
-3.047983582263592
 30
0.0
 10
0.9806892816705561
 20
-3.047983582263592
 30
0.0
 10
0.9806892816705561
 20
-3.047983582263592
 30
0.0
 10
0.9806892816705561
 20
-3.026514837260088
 30
0.0
 10
0.9806892816705561
 20
-3.026514837260088
 30
0.0
 10
0.9806892816705561
 20
-3.026514837260088
 30
0.0
 10
0.9764843388332261
 20
-3.025989970465843
 30
0.0
 10
0.9764843388332261
 20
-3.025989970465843
 30
0.0
 10
0.9614495717083096
 20
-3.024161402279383
 30
0.0
 10
0.9614495717083096
 20
-3.024161402279383
 30
0.0
 10
0.9614495717083096
 20
-3.001998478612474
 30
0.0
 10
0.9614495717083096
 20
-3.001998478612474
 30
0.0
 10
0.9614495717083096
 20
-2.947141433019901
 30
0.0
 10
0.9614495717083096
 20
-2.947141433019901
 30
0.0
 10
0.9614495717083096
 20
-2.947141433019901
 30
0.0
 10
1.024841181462496
 20
-2.947141433019901
 30
0.0
 10
1.024841181462496
 20
-2.947141433019901
 30
0.0
 10
1.024841181462496
 20
-2.947141433019901
 30
0.0
 10
1.024841181462496
 20
-3.001998478612474
 30
0.0
 10
1.024841181462496
 20
-3.001998478612474
 30
0.0
 10
1.024841181462496
 20
-3.024144471092464
 30
0.0
 10
1.024841181462496
 20
-3.024144471092464
 30
0.0
 10
1.009105590531375
 20
-3.025989970465843
 30
0.0
 10
1.009105590531375
 20
-3.025989970465843
 30
0.0
 10
1.00488866779987
 20
-3.026497906073169
 30
0.0
 10
1.00488866779987
 20
-3.026497906073169
 30
0.0
 10
1.00488866779987
 20
-3.026497906073169
 30
0.0
 10
1.00488866779987
 20
-3.047983582263592
 30
0.0
 10
1.00488866779987
 20
-3.047983582263592
 30
0.0
 10
1.00488866779987
 20
-3.047983582263592
 30
0.0
 10
1.072814667479822
 20
-3.047983582263592
 30
0.0
 10
1.072814667479822
 20
-3.047983582263592
 30
0.0
 10
1.072814667479822
 20
-3.047983582263592
 30
0.0
 10
1.072814667479822
 20
-3.026514837260088
 30
0.0
 10
1.072814667479822
 20
-3.026514837260088
 30
0.0
 10
1.072814667479822
 20
-3.026514837260088
 30
0.0
 10
1.068615714589554
 20
-3.025989970465843
 30
0.0
 10
1.068615714589554
 20
-3.025989970465843
 30
0.0
 10
1.053568967570501
 20
-3.024144471092464
 30
0.0
 10
1.053568967570501
 20
-3.024144471092464
 30
0.0
 10
1.053568967570501
 20
-3.001998478612474
 30
0.0
 10
1.053568967570501
 20
-3.001998478612474
 30
0.0
 10
1.053568967570501
 20
-2.877130975141754
 30
0.0
 10
1.053568967570501
 20
-2.877130975141754
 30
0.0
 10
1.053568967570501
 20
-2.855205088091628
 30
0.0
 10
1.053568967570501
 20
-2.855205088091628
 30
0.0
 10
1.068609724642492
 20
-2.853376519905193
 30
0.0
 10
1.068609724642492
 20
-2.853376519905193
 30
0.0
 10
1.072814667479822
 20
-2.852851653110923
 30
0.0
 10
1.072814667479822
 20
-2.852851653110923
 30
0.0
 10
1.072814667479822
 20
-2.852851653110923
 30
0.0
 10
1.072814667479822
 20
-2.830942697247741
 30
0.0
 10
1.072814667479822
 20
-2.830942697247741
 30
0.0
 10
1.072814667479822
 20
-2.830942697247741
 30
0.0
 10
1.006302295306479
 20
-2.830942697247741
 30
0.0
 10
1.006302295306479
 20
-2.830942697247741
 30
0.0
 10
1.006302295306479
 20
-2.830942697247741
 30
0.0
 10
1.006302295306479
 20
-2.85283472192403
 30
0.0
 10
1.006302295306479
 20
-2.85283472192403
 30
0.0
  0
SPLINE
  5
8F
330
85
100
AcDbEntity
  8
Layer 9
100
AcDbSpline
210
0.0
220
0.0
230
1.0
 70
    11
 71
     3
 72
    83
 73
    79
 74
     0
 42
0.0000000001
 43
0.0000000001
 40
0.0
 40
0.0
 40
0.0
 40
0.0
 40
1.0
 40
1.0
 40
1.0
 40
2.0
 40
2.0
 40
2.0
 40
3.0
 40
3.0
 40
3.0
 40
4.0
 40
4.0
 40
4.0
 40
5.0
 40
5.0
 40
5.0
 40
6.0
 40
6.0
 40
6.0
 40
7.0
 40
7.0
 40
7.0
 40
8.0
 40
8.0
 40
8.0
 40
9.0
 40
9.0
 40
9.0
 40
10.0
 40
10.0
 40
10.0
 40
11.0
 40
11.0
 40
11.0
 40
12.0
 40
12.0
 40
12.0
 40
13.0
 40
13.0
 40
13.0
 40
14.0
 40
14.0
 40
14.0
 40
15.0
 40
15.0
 40
15.0
 40
16.0
 40
16.0
 40
16.0
 40
17.0
 40
17.0
 40
17.0
 40
18.0
 40
18.0
 40
18.0
 40
19.0
 40
19.0
 40
19.0
 40
20.0
 40
20.0
 40
20.0
 40
21.0
 40
21.0
 40
21.0
 40
22.0
 40
22.0
 40
22.0
 40
23.0
 40
23.0
 40
23.0
 40
24.0
 40
24.0
 40
24.0
 40
25.0
 40
25.0
 40
25.0
 40
26.0
 40
26.0
 40
26.0
 40
26.0
 10
1.174631787634957
 20
-2.876893191170312
 30
0.0
 10
1.174631787634957
 20
-2.876893191170312
 30
0.0
 10
1.178902619889918
 20
-2.877280664841363
 30
0.0
 10
1.178902619889918
 20
-2.877280664841363
 30
0.0
 10
1.193452201302888
 20
-2.87859211418951
 30
0.0
 10
1.194572321403383
 20
-2.88219859989681
 30
0.0
 10
1.195213245738967
 20
-2.888144830463842
 30
0.0
 10
1.196219556845385
 20
-2.895909206718013
 30
0.0
 10
1.196848501286897
 20
-2.905909007997428
 30
0.0
 10
1.196848501286897
 20
-2.931810132622811
 30
0.0
 10
1.196848501286897
 20
-2.931810132622811
 30
0.0
 10
1.196848501286897
 20
-2.952957253361217
 30
0.0
 10
1.196848501286897
 20
-2.952957253361217
 30
0.0
 10
1.196848501286897
 20
-3.001600101909616
 30
0.0
 10
1.185162114569417
 20
-3.02523599584275
 30
0.0
 10
1.161118467063715
 20
-3.02523599584275
 30
0.0
 10
1.131821635984831
 20
-3.02523599584275
 30
0.0
 10
1.125669960352398
 20
-2.990035503112595
 30
0.0
 10
1.125669960352398
 20
-2.960512989946437
 30
0.0
 10
1.125669960352398
 20
-2.960512989946437
 30
0.0
 10
1.125669960352398
 20
-2.900275736933912
 30
0.0
 10
1.125669960352398
 20
-2.900275736933912
 30
0.0
 10
1.125669960352398
 20
-2.878398377353935
 30
0.0
 10
1.125669960352398
 20
-2.878398377353935
 30
0.0
 10
1.139764305788654
 20
-2.877280664841363
 30
0.0
 10
1.139764305788654
 20
-2.877280664841363
 30
0.0
 10
1.144071077726039
 20
-2.876937899670818
 30
0.0
 10
1.144071077726039
 20
-2.876937899670818
 30
0.0
 10
1.144071077726039
 20
-2.876937899670818
 30
0.0
 10
1.144071077726039
 20
-2.857534410452065
 30
0.0
 10
1.144071077726039
 20
-2.857534410452065
 30
0.0
 10
1.144071077726039
 20
-2.857534410452065
 30
0.0
 10
1.078121760576499
 20
-2.857534410452065
 30
0.0
 10
1.078121760576499
 20
-2.857534410452065
 30
0.0
 10
1.078121760576499
 20
-2.857534410452065
 30
0.0
 10
1.078121760576499
 20
-2.876803774169325
 30
0.0
 10
1.078121760576499
 20
-2.876803774169325
 30
0.0
 10
1.078121760576499
 20
-2.876803774169325
 30
0.0
 10
1.082308733572644
 20
-2.877265762007886
 30
0.0
 10
1.082308733572644
 20
-2.877265762007886
 30
0.0
 10
1.096660646732491
 20
-2.878890170859499
 30
0.0
 10
1.096660646732491
 20
-2.878890170859499
 30
0.0
 10
1.096660646732491
 20
-2.900275736933912
 30
0.0
 10
1.096660646732491
 20
-2.900275736933912
 30
0.0
 10
1.096660646732491
 20
-2.966176066676931
 30
0.0
 10
1.096660646732491
 20
-2.966176066676931
 30
0.0
 10
1.096660646732491
 20
-3.000854960234568
 30
0.0
 10
1.103327457812206
 20
-3.023581781324133
 30
0.0
 10
1.117595511713211
 20
-3.037650056149383
 30
0.0
 10
1.127197396853161
 20
-3.04739650925929
 30
0.0
 10
1.139890094676957
 20
-3.052344249981716
 30
0.0
 10
1.155320198307941
 20
-3.052344249981716
 30
0.0
 10
1.172457436851547
 20
-3.052344249981716
 30
0.0
 10
1.187480224082315
 20
-3.04477361056302
 30
0.0
 10
1.197645164246043
 20
-3.031003392407784
 30
0.0
 10
1.209882626093177
 20
-3.014118482050712
 30
0.0
 10
1.215105859930998
 20
-2.990944575956139
 30
0.0
 10
1.215105859930998
 20
-2.953523561034267
 30
0.0
 10
1.215105859930998
 20
-2.953523561034267
 30
0.0
 10
1.215105859930998
 20
-2.931810132622811
 30
0.0
 10
1.215105859930998
 20
-2.931810132622811
 30
0.0
 10
1.215105859930998
 20
-2.907816570685629
 30
0.0
 10
1.215752774213645
 20
-2.896877890895641
 30
0.0
 10
1.21636374881397
 20
-2.888532304134893
 30
0.0
 10
1.216824974737695
 20
-2.882362531065306
 30
0.0
 10
1.21806489377948
 20
-2.878234446185463
 30
0.0
 10
1.230601852979664
 20
-2.877280664841363
 30
0.0
 10
1.230601852979664
 20
-2.877280664841363
 30
0.0
 10
1.234920604811173
 20
-2.876952802504294
 30
0.0
 10
1.234920604811173
 20
-2.876952802504294
 30
0.0
 10
1.234920604811173
 20
-2.876952802504294
 30
0.0
 10
1.234920604811173
 20
-2.857534410452065
 30
0.0
 10
1.234920604811173
 20
-2.857534410452065
 30
0.0
 10
1.234920604811173
 20
-2.857534410452065
 30
0.0
 10
1.174631787634957
 20
-2.857534410452065
 30
0.0
 10
1.174631787634957
 20
-2.857534410452065
 30
0.0
 10
1.174631787634957
 20
-2.857534410452065
 30
0.0
 10
1.174631787634957
 20
-2.876893191170312
 30
0.0
 10
1.174631787634957
 20
-2.876893191170312
 30
0.0
  0
SPLINE
  5
90
330
85
100
AcDbEntity
  8
Layer 9
100
AcDbSpline
210
0.0
220
0.0
230
1.0
 70
    11
 71
     3
 72
    23
 73
    19
 74
     0
 42
0.0000000001
 43
0.0000000001
 40
0.0
 40
0.0
 40
0.0
 40
0.0
 40
1.0
 40
1.0
 40
1.0
 40
2.0
 40
2.0
 40
2.0
 40
3.0
 40
3.0
 40
3.0
 40
4.0
 40
4.0
 40
4.0
 40
5.0
 40
5.0
 40
5.0
 40
6.0
 40
6.0
 40
6.0
 40
6.0
 10
1.285661446370947
 20
-2.958113633752696
 30
0.0
 10
1.285661446370947
 20
-2.958113633752696
 30
0.0
 10
1.289836439472967
 20
-2.958113633752696
 30
0.0
 10
1.289836439472967
 20
-2.958113633752696
 30
0.0
 10
1.321732907576663
 20
-2.958113633752696
 30
0.0
 10
1.32542271496671
 20
-2.977919499475951
 30
0.0
 10
1.32542271496671
 20
-2.992807430143834
 30
0.0
 10
1.32542271496671
 20
-3.023402947322109
 30
0.0
 10
1.306512452092798
 20
-3.027128655697399
 30
0.0
 10
1.298414043665413
 20
-3.027307489699473
 30
0.0
 10
1.293172839986356
 20
-3.027367101033405
 30
0.0
 10
1.29011197703787
 20
-3.026547445190872
 30
0.0
 10
1.288518651119375
 20
-3.024595174002241
 30
0.0
 10
1.286571918324372
 20
-3.0221958178085
 30
0.0
 10
1.285661446370947
 20
-3.016711575080004
 30
0.0
 10
1.285661446370947
 20
-3.007352595641173
 30
0.0
 10
1.285661446370947
 20
-3.007352595641173
 30
0.0
 10
1.285661446370947
 20
-2.958113633752696
 30
0.0
 10
1.285661446370947
 20
-2.958113633752696
 30
0.0
  0
SPLINE
  5
91
330
85
100
AcDbEntity
  8
Layer 9
100
AcDbSpline
210
0.0
220
0.0
230
1.0
 70
     9
 71
     3
 72
    23
 73
    19
 74
     0
 42
0.0000000001
 43
0.0000000001
 40
0.0
 40
0.0
 40
0.0
 40
0.0
 40
1.0
 40
1.0
 40
1.0
 40
2.0
 40
2.0
 40
2.0
 40
3.0
 40
3.0
 40
3.0
 40
4.0
 40
4.0
 40
4.0
 40
5.0
 40
5.0
 40
5.0
 40
6.0
 40
6.0
 40
6.0
 40
6.0
 10
1.29026172571442
 20
-2.937041027181799
 30
0.0
 10
1.29026172571442
 20
-2.937041027181799
 30
0.0
 10
1.285661446370947
 20
-2.937041027181799
 30
0.0
 10
1.285661446370947
 20
-2.937041027181799
 30
0.0
 10
1.285661446370947
 20
-2.937041027181799
 30
0.0
 10
1.285661446370947
 20
-2.889322154310447
 30
0.0
 10
1.285661446370947
 20
-2.889322154310447
 30
0.0
 10
1.285661446370947
 20
-2.882407239565837
 30
0.0
 10
1.286110692400648
 20
-2.880767927880697
 30
0.0
 10
1.286392219912563
 20
-2.880335745709139
 30
0.0
 10
1.287140963295213
 20
-2.879620409701096
 30
0.0
 10
1.290603152696904
 20
-2.878234446185463
 30
0.0
 10
1.295209421987389
 20
-2.878234446185463
 30
0.0
 10
1.315215845173548
 20
-2.878234446185463
 30
0.0
 10
1.318204828757289
 20
-2.896892793729168
 30
0.0
 10
1.318204828757289
 20
-2.908010307521155
 30
0.0
 10
1.318204828757289
 20
-2.928352675250506
 30
0.0
 10
1.309848852606238
 20
-2.937041027181799
 30
0.0
 10
1.29026172571442
 20
-2.937041027181799
 30
0.0
  0
SPLINE
  5
92
330
85
100
AcDbEntity
  8
Layer 9
100
AcDbSpline
210
0.0
220
0.0
230
1.0
 70
     9
 71
     3
 72
    50
 73
    46
 74
     0
 42
0.0000000001
 43
0.0000000001
 40
0.0
 40
0.0
 40
0.0
 40
0.0
 40
1.0
 40
1.0
 40
1.0
 40
2.0
 40
2.0
 40
2.0
 40
3.0
 40
3.0
 40
3.0
 40
4.0
 40
4.0
 40
4.0
 40
5.0
 40
5.0
 40
5.0
 40
6.0
 40
6.0
 40
6.0
 40
7.0
 40
7.0
 40
7.0
 40
8.0
 40
8.0
 40
8.0
 40
9.0
 40
9.0
 40
9.0
 40
10.0
 40
10.0
 40
10.0
 40
11.0
 40
11.0
 40
11.0
 40
12.0
 40
12.0
 40
12.0
 40
13.0
 40
13.0
 40
13.0
 40
14.0
 40
14.0
 40
14.0
 40
15.0
 40
15.0
 40
15.0
 40
15.0
 10
1.329028663097788
 20
-2.944522249599407
 30
0.0
 10
1.341643491609829
 20
-2.93587860616862
 30
0.0
 10
1.348633759830843
 20
-2.921869942677353
 30
0.0
 10
1.348633759830843
 20
-2.90443362748086
 30
0.0
 10
1.348633759830843
 20
-2.889754336482029
 30
0.0
 10
1.34334463657539
 20
-2.875894701325705
 30
0.0
 10
1.334856881588873
 20
-2.868264450573052
 30
0.0
 10
1.326572784802515
 20
-2.860738519654836
 30
0.0
 10
1.316072407603314
 20
-2.857534410452065
 30
0.0
 10
1.299737821966017
 20
-2.857534410452065
 30
0.0
 10
1.299737821966017
 20
-2.857534410452065
 30
0.0
 10
1.239101587860204
 20
-2.857534410452065
 30
0.0
 10
1.239101587860204
 20
-2.857534410452065
 30
0.0
 10
1.239101587860204
 20
-2.857534410452065
 30
0.0
 10
1.239101587860204
 20
-2.876893191170312
 30
0.0
 10
1.239101587860204
 20
-2.876893191170312
 30
0.0
 10
1.239101587860204
 20
-2.876893191170312
 30
0.0
 10
1.243366430168154
 20
-2.877280664841363
 30
0.0
 10
1.243366430168154
 20
-2.877280664841363
 30
0.0
 10
1.256789901533516
 20
-2.878487794354971
 30
0.0
 10
1.256789901533516
 20
-2.878487794354971
 30
0.0
 10
1.256789901533516
 20
-2.898383077079289
 30
0.0
 10
1.256789901533516
 20
-2.898383077079289
 30
0.0
 10
1.256789901533516
 20
-3.008097737316195
 30
0.0
 10
1.256789901533516
 20
-3.008097737316195
 30
0.0
 10
1.256789901533516
 20
-3.027784380371536
 30
0.0
 10
1.256789901533516
 20
-3.027784380371536
 30
0.0
 10
1.241515536526094
 20
-3.029215052387649
 30
0.0
 10
1.241515536526094
 20
-3.029215052387649
 30
0.0
 10
1.237262674112318
 20
-3.029617428892202
 30
0.0
 10
1.237262674112318
 20
-3.029617428892202
 30
0.0
 10
1.237262674112318
 20
-3.029617428892202
 30
0.0
 10
1.237262674112318
 20
-3.04857383310587
 30
0.0
 10
1.237262674112318
 20
-3.04857383310587
 30
0.0
 10
1.237262674112318
 20
-3.04857383310587
 30
0.0
 10
1.290543253226284
 20
-3.04857383310587
 30
0.0
 10
1.290543253226284
 20
-3.04857383310587
 30
0.0
 10
1.309375646788389
 20
-3.04857383310587
 30
0.0
 10
1.323919238254196
 20
-3.044743804896041
 30
0.0
 10
1.335036580000733
 20
-3.036830400306851
 30
0.0
 10
1.349460372525401
 20
-3.026338805521845
 30
0.0
 10
1.357409032276286
 20
-3.00969234050083
 30
0.0
 10
1.357409032276286
 20
-2.989975891778613
 30
0.0
 10
1.357409032276286
 20
-2.973687094761594
 30
0.0
 10
1.352107929126608
 20
-2.953806714870779
 30
0.0
 10
1.329028663097788
 20
-2.944522249599407
 30
0.0
  0
SPLINE
  5
93
330
85
100
AcDbEntity
  8
Layer 9
100
AcDbSpline
210
0.0
220
0.0
230
1.0
 70
     9
 71
     3
 72
   122
 73
   118
 74
     0
 42
0.0000000001
 43
0.0000000001
 40
0.0
 40
0.0
 40
0.0
 40
0.0
 40
1.0
 40
1.0
 40
1.0
 40
2.0
 40
2.0
 40
2.0
 40
3.0
 40
3.0
 40
3.0
 40
4.0
 40
4.0
 40
4.0
 40
5.0
 40
5.0
 40
5.0
 40
6.0
 40
6.0
 40
6.0
 40
7.0
 40
7.0
 40
7.0
 40
8.0
 40
8.0
 40
8.0
 40
9.0
 40
9.0
 40
9.0
 40
10.0
 40
10.0
 40
10.0
 40
11.0
 40
11.0
 40
11.0
 40
12.0
 40
12.0
 40
12.0
 40
13.0
 40
13.0
 40
13.0
 40
14.0
 40
14.0
 40
14.0
 40
15.0
 40
15.0
 40
15.0
 40
16.0
 40
16.0
 40
16.0
 40
17.0
 40
17.0
 40
17.0
 40
18.0
 40
18.0
 40
18.0
 40
19.0
 40
19.0
 40
19.0
 40
20.0
 40
20.0
 40
20.0
 40
21.0
 40
21.0
 40
21.0
 40
22.0
 40
22.0
 40
22.0
 40
23.0
 40
23.0
 40
23.0
 40
24.0
 40
24.0
 40
24.0
 40
25.0
 40
25.0
 40
25.0
 40
26.0
 40
26.0
 40
26.0
 40
27.0
 40
27.0
 40
27.0
 40
28.0
 40
28.0
 40
28.0
 40
29.0
 40
29.0
 40
29.0
 40
30.0
 40
30.0
 40
30.0
 40
31.0
 40
31.0
 40
31.0
 40
32.0
 40
32.0
 40
32.0
 40
33.0
 40
33.0
 40
33.0
 40
34.0
 40
34.0
 40
34.0
 40
35.0
 40
35.0
 40
35.0
 40
36.0
 40
36.0
 40
36.0
 40
37.0
 40
37.0
 40
37.0
 40
38.0
 40
38.0
 40
38.0
 40
39.0
 40
39.0
 40
39.0
 40
39.0
 10
1.466713586258568
 20
-2.995087563669509
 30
0.0
 10
1.463874351351326
 20
-3.005266198950948
 30
0.0
 10
1.460124644490608
 20
-3.014595372722826
 30
0.0
 10
1.456770274136033
 20
-3.0199156842828
 30
0.0
 10
1.453523722828675
 20
-3.024774008004214
 30
0.0
 10
1.449426599038411
 20
-3.026934918861974
 30
0.0
 10
1.433702988001388
 20
-3.026934918861974
 30
0.0
 10
1.425364981691473
 20
-3.026934918861974
 30
0.0
 10
1.417488201305382
 20
-3.026934918861974
 30
0.0
 10
1.414660946292163
 20
-3.024729299503734
 30
0.0
 10
1.41274416323242
 20
-3.023089987818593
 30
0.0
 10
1.411558153714243
 20
-3.019513307778222
 30
0.0
 10
1.411558153714243
 20
-3.006786287968073
 30
0.0
 10
1.411558153714243
 20
-3.006786287968073
 30
0.0
 10
1.411558153714243
 20
-2.961705216626544
 30
0.0
 10
1.411558153714243
 20
-2.961705216626544
 30
0.0
 10
1.411558153714243
 20
-2.961705216626544
 30
0.0
 10
1.42634134306253
 20
-2.961705216626544
 30
0.0
 10
1.42634134306253
 20
-2.961705216626544
 30
0.0
 10
1.442382421293839
 20
-2.961705216626544
 30
0.0
 10
1.442382421293839
 20
-2.961705216626544
 30
0.0
 10
1.444886219165659
 20
-2.978724252485057
 30
0.0
 10
1.444886219165659
 20
-2.978724252485057
 30
0.0
 10
1.445581053024751
 20
-2.983418645037975
 30
0.0
 10
1.445581053024751
 20
-2.983418645037975
 30
0.0
 10
1.445581053024751
 20
-2.983418645037975
 30
0.0
 10
1.460376222267263
 20
-2.983418645037975
 30
0.0
 10
1.460376222267263
 20
-2.983418645037975
 30
0.0
 10
1.460376222267263
 20
-2.983418645037975
 30
0.0
 10
1.460376222267263
 20
-2.917771663464564
 30
0.0
 10
1.460376222267263
 20
-2.917771663464564
 30
0.0
 10
1.460376222267263
 20
-2.917771663464564
 30
0.0
 10
1.445569073130627
 20
-2.917771663464564
 30
0.0
 10
1.445569073130627
 20
-2.917771663464564
 30
0.0
 10
1.445569073130627
 20
-2.917771663464564
 30
0.0
 10
1.444886219165659
 20
-2.922480958850933
 30
0.0
 10
1.444886219165659
 20
-2.922480958850933
 30
0.0
 10
1.442538159917451
 20
-2.938739950200922
 30
0.0
 10
1.442538159917451
 20
-2.938739950200922
 30
0.0
 10
1.42634134306253
 20
-2.938739950200922
 30
0.0
 10
1.42634134306253
 20
-2.938739950200922
 30
0.0
 10
1.411558153714243
 20
-2.938739950200922
 30
0.0
 10
1.411558153714243
 20
-2.938739950200922
 30
0.0
 10
1.411558153714243
 20
-2.938739950200922
 30
0.0
 10
1.411558153714243
 20
-2.882526462233853
 30
0.0
 10
1.411558153714243
 20
-2.882526462233853
 30
0.0
 10
1.411558153714243
 20
-2.881826029059235
 30
0.0
 10
1.411558153714243
 20
-2.880350648542642
 30
0.0
 10
1.411612063237801
 20
-2.879262741697048
 30
0.0
 10
1.412246997626324
 20
-2.879203130363041
 30
0.0
 10
1.413145489685575
 20
-2.879173324696037
 30
0.0
 10
1.414313529362617
 20
-2.879173324696037
 30
0.0
 10
1.414313529362617
 20
-2.879173324696037
 30
0.0
 10
1.430025160505515
 20
-2.879173324696037
 30
0.0
 10
1.430025160505515
 20
-2.879173324696037
 30
0.0
 10
1.444143465729969
 20
-2.879173324696037
 30
0.0
 10
1.447905152484761
 20
-2.881125595884718
 30
0.0
 10
1.449486498509031
 20
-2.884165773918968
 30
0.0
 10
1.452038215957347
 20
-2.889888461983496
 30
0.0
 10
1.454110737640702
 20
-2.895879401051085
 30
0.0
 10
1.455943661441576
 20
-2.90656473267149
 30
0.0
 10
1.455943661441576
 20
-2.90656473267149
 30
0.0
 10
1.456842153500878
 20
-2.911780724396976
 30
0.0
 10
1.456842153500878
 20
-2.911780724396976
 30
0.0
 10
1.456842153500878
 20
-2.911780724396976
 30
0.0
 10
1.471829001049223
 20
-2.909172728534233
 30
0.0
 10
1.471829001049223
 20
-2.909172728534233
 30
0.0
 10
1.471829001049223
 20
-2.909172728534233
 30
0.0
 10
1.471541483590297
 20
-2.903852416974258
 30
0.0
 10
1.471541483590297
 20
-2.903852416974258
 30
0.0
 10
1.470702891001666
 20
-2.888413081466902
 30
0.0
 10
1.46985231851886
 20
-2.870142207594199
 30
0.0
 10
1.469576780954058
 20
-2.862973944680081
 30
0.0
 10
1.469576780954058
 20
-2.862973944680081
 30
0.0
 10
1.469349162965752
 20
-2.857534410452065
 30
0.0
 10
1.469349162965752
 20
-2.857534410452065
 30
0.0
 10
1.469349162965752
 20
-2.857534410452065
 30
0.0
 10
1.36442925023261
 20
-2.857534410452065
 30
0.0
 10
1.36442925023261
 20
-2.857534410452065
 30
0.0
 10
1.36442925023261
 20
-2.857534410452065
 30
0.0
 10
1.36442925023261
 20
-2.876788871335773
 30
0.0
 10
1.36442925023261
 20
-2.876788871335773
 30
0.0
 10
1.36442925023261
 20
-2.876788871335773
 30
0.0
 10
1.368610233281742
 20
-2.877265762007886
 30
0.0
 10
1.368610233281742
 20
-2.877265762007886
 30
0.0
 10
1.382686608876712
 20
-2.878875268026023
 30
0.0
 10
1.382686608876712
 20
-2.878875268026023
 30
0.0
 10
1.382686608876712
 20
-2.899515692425388
 30
0.0
 10
1.382686608876712
 20
-2.899515692425388
 30
0.0
 10
1.382686608876712
 20
-3.007725166478671
 30
0.0
 10
1.382686608876712
 20
-3.007725166478671
 30
0.0
 10
1.382686608876712
 20
-3.027560837869006
 30
0.0
 10
1.382686608876712
 20
-3.027560837869006
 30
0.0
 10
1.36598064652162
 20
-3.029215052387649
 30
0.0
 10
1.36598064652162
 20
-3.029215052387649
 30
0.0
 10
1.361745753948929
 20
-3.029632331725704
 30
0.0
 10
1.361745753948929
 20
-3.029632331725704
 30
0.0
 10
1.361745753948929
 20
-3.029632331725704
 30
0.0
 10
1.361745753948929
 20
-3.04857383310587
 30
0.0
 10
1.361745753948929
 20
-3.04857383310587
 30
0.0
 10
1.361745753948929
 20
-3.04857383310587
 30
0.0
 10
1.473769743897213
 20
-3.04857383310587
 30
0.0
 10
1.473769743897213
 20
-3.04857383310587
 30
0.0
 10
1.473769743897213
 20
-3.04857383310587
 30
0.0
 10
1.474668235956515
 20
-3.044281817057506
 30
0.0
 10
1.474668235956515
 20
-3.044281817057506
 30
0.0
 10
1.476585019016258
 20
-3.035056963120116
 30
0.0
 10
1.48070610259477
 20
-3.009334672496834
 30
0.0
 10
1.48210775020718
 20
-2.999051717380881
 30
0.0
 10
1.48210775020718
 20
-2.999051717380881
 30
0.0
 10
1.482898423219315
 20
-2.993239612315341
 30
0.0
 10
1.482898423219315
 20
-2.993239612315341
 30
0.0
 10
1.482898423219315
 20
-2.993239612315341
 30
0.0
 10
1.467959495247416
 20
-2.990646519286125
 30
0.0
 10
1.467959495247416
 20
-2.990646519286125
 30
0.0
 10
1.467959495247416
 20
-2.990646519286125
 30
0.0
 10
1.466713586258568
 20
-2.995087563669509
 30
0.0
 10
1.466713586258568
 20
-2.995087563669509
 30
0.0
  0
SPLINE
  5
94
330
85
100
AcDbEntity
  8
Layer 9
100
AcDbSpline
210
0.0
220
0.0
230
1.0
 70
     9
 71
     3
 72
    26
 73
    22
 74
     0
 42
0.0000000001
 43
0.0000000001
 40
0.0
 40
0.0
 40
0.0
 40
0.0
 40
1.0
 40
1.0
 40
1.0
 40
2.0
 40
2.0
 40
2.0
 40
3.0
 40
3.0
 40
3.0
 40
4.0
 40
4.0
 40
4.0
 40
5.0
 40
5.0
 40
5.0
 40
6.0
 40
6.0
 40
6.0
 40
7.0
 40
7.0
 40
7.0
 40
7.0
 10
1.532638943619834
 20
-2.887429494455748
 30
0.0
 10
1.532638943619834
 20
-2.881587583723229
 30
0.0
 10
1.533273878008357
 20
-2.880007883372096
 30
0.0
 10
1.533190018749539
 20
-2.880007883372096
 30
0.0
 10
1.533417636737896
 20
-2.879843952203549
 30
0.0
 10
1.535274520326967
 20
-2.878607017022962
 30
0.0
 10
1.541623864212447
 20
-2.878607017022962
 30
0.0
 10
1.551219759405285
 20
-2.878607017022962
 30
0.0
 10
1.567308757213039
 20
-2.883137478407358
 30
0.0
 10
1.567308757213039
 20
-2.913494550249652
 30
0.0
 10
1.567308757213039
 20
-2.927264768404913
 30
0.0
 10
1.564421602729352
 20
-2.936117051504702
 30
0.0
 10
1.55761702286726
 20
-2.943121383250349
 30
0.0
 10
1.553244361512143
 20
-2.947726358802254
 30
0.0
 10
1.547230454662136
 20
-2.949693532824413
 30
0.0
 10
1.537526740422233
 20
-2.949693532824413
 30
0.0
 10
1.537526740422233
 20
-2.949693532824413
 30
0.0
 10
1.532638943619834
 20
-2.949693532824413
 30
0.0
 10
1.532638943619834
 20
-2.949693532824413
 30
0.0
 10
1.532638943619834
 20
-2.949693532824413
 30
0.0
 10
1.532638943619834
 20
-2.887429494455748
 30
0.0
 10
1.532638943619834
 20
-2.887429494455748
 30
0.0
  0
SPLINE
  5
95
330
85
100
AcDbEntity
  8
Layer 9
100
AcDbSpline
210
0.0
220
0.0
230
1.0
 70
     9
 71
     3
 72
    89
 73
    85
 74
     0
 42
0.0000000001
 43
0.0000000001
 40
0.0
 40
0.0
 40
0.0
 40
0.0
 40
1.0
 40
1.0
 40
1.0
 40
2.0
 40
2.0
 40
2.0
 40
3.0
 40
3.0
 40
3.0
 40
4.0
 40
4.0
 40
4.0
 40
5.0
 40
5.0
 40
5.0
 40
6.0
 40
6.0
 40
6.0
 40
7.0
 40
7.0
 40
7.0
 40
8.0
 40
8.0
 40
8.0
 40
9.0
 40
9.0
 40
9.0
 40
10.0
 40
10.0
 40
10.0
 40
11.0
 40
11.0
 40
11.0
 40
12.0
 40
12.0
 40
12.0
 40
13.0
 40
13.0
 40
13.0
 40
14.0
 40
14.0
 40
14.0
 40
15.0
 40
15.0
 40
15.0
 40
16.0
 40
16.0
 40
16.0
 40
17.0
 40
17.0
 40
17.0
 40
18.0
 40
18.0
 40
18.0
 40
19.0
 40
19.0
 40
19.0
 40
20.0
 40
20.0
 40
20.0
 40
21.0
 40
21.0
 40
21.0
 40
22.0
 40
22.0
 40
22.0
 40
23.0
 40
23.0
 40
23.0
 40
24.0
 40
24.0
 40
24.0
 40
25.0
 40
25.0
 40
25.0
 40
26.0
 40
26.0
 40
26.0
 40
27.0
 40
27.0
 40
27.0
 40
28.0
 40
28.0
 40
28.0
 40
28.0
 10
1.605608478725722
 20
-3.021063202462351
 30
0.0
 10
1.600924340123482
 20
-3.014640081223281
 30
0.0
 10
1.59656365866254
 20
-3.007218470139605
 30
0.0
 10
1.588968405788262
 20
-2.992792527310282
 30
0.0
 10
1.583745171950391
 20
-2.982405252359866
 30
0.0
 10
1.576880692617729
 20
-2.968083629365082
 30
0.0
 10
1.572675749780399
 20
-2.958516010257224
 30
0.0
 10
1.589100184623576
 20
-2.947517719133202
 30
0.0
 10
1.597737688286694
 20
-2.930558294608696
 30
0.0
 10
1.597737688286694
 20
-2.909142922867229
 30
0.0
 10
1.597737688286694
 20
-2.891304231166107
 30
0.0
 10
1.592035258683861
 20
-2.876744162835368
 30
0.0
 10
1.58180442910245
 20
-2.868234644906022
 30
0.0
 10
1.573262764592477
 20
-2.860634199820323
 30
0.0
 10
1.562528779457857
 20
-2.857534410452065
 30
0.0
 10
1.544738636684542
 20
-2.857534410452065
 30
0.0
 10
1.544738636684542
 20
-2.857534410452065
 30
0.0
 10
1.485941316326665
 20
-2.857534410452065
 30
0.0
 10
1.485941316326665
 20
-2.857534410452065
 30
0.0
 10
1.485941316326665
 20
-2.857534410452065
 30
0.0
 10
1.485941316326665
 20
-2.876893191170312
 30
0.0
 10
1.485941316326665
 20
-2.876893191170312
 30
0.0
 10
1.485941316326665
 20
-2.876893191170312
 30
0.0
 10
1.490206158634565
 20
-2.877280664841363
 30
0.0
 10
1.490206158634565
 20
-2.877280664841363
 30
0.0
 10
1.504198674970767
 20
-2.878562308522456
 30
0.0
 10
1.504198674970767
 20
-2.878562308522456
 30
0.0
 10
1.504198674970767
 20
-2.898189340243763
 30
0.0
 10
1.504198674970767
 20
-2.898189340243763
 30
0.0
 10
1.504198674970767
 20
-3.007725166478671
 30
0.0
 10
1.504198674970767
 20
-3.007725166478671
 30
0.0
 10
1.504198674970767
 20
-3.027575740702508
 30
0.0
 10
1.504198674970767
 20
-3.027575740702508
 30
0.0
 10
1.489283706787066
 20
-3.029229955221075
 30
0.0
 10
1.489283706787066
 20
-3.029229955221075
 30
0.0
 10
1.48509074384391
 20
-3.029691943059712
 30
0.0
 10
1.48509074384391
 20
-3.029691943059712
 30
0.0
 10
1.48509074384391
 20
-3.029691943059712
 30
0.0
 10
1.48509074384391
 20
-3.04857383310587
 30
0.0
 10
1.48509074384391
 20
-3.04857383310587
 30
0.0
 10
1.48509074384391
 20
-3.04857383310587
 30
0.0
 10
1.551603116017253
 20
-3.04857383310587
 30
0.0
 10
1.551603116017253
 20
-3.04857383310587
 30
0.0
 10
1.551603116017253
 20
-3.04857383310587
 30
0.0
 10
1.551603116017253
 20
-3.029691943059712
 30
0.0
 10
1.551603116017253
 20
-3.029691943059712
 30
0.0
 10
1.551603116017253
 20
-3.029691943059712
 30
0.0
 10
1.547410153074047
 20
-3.029229955221075
 30
0.0
 10
1.547410153074047
 20
-3.029229955221075
 30
0.0
 10
1.532638943619834
 20
-3.027575740702508
 30
0.0
 10
1.532638943619834
 20
-3.027575740702508
 30
0.0
 10
1.532638943619834
 20
-3.007725166478671
 30
0.0
 10
1.532638943619834
 20
-3.007725166478671
 30
0.0
 10
1.532638943619834
 20
-2.970393568557786
 30
0.0
 10
1.532638943619834
 20
-2.970393568557786
 30
0.0
 10
1.532638943619834
 20
-2.970393568557786
 30
0.0
 10
1.533992671655747
 20
-2.970393568557786
 30
0.0
 10
1.533992671655747
 20
-2.970393568557786
 30
0.0
 10
1.543384908648578
 20
-2.970393568557786
 30
0.0
 10
1.545505349908479
 20
-2.972867438919037
 30
0.0
 10
1.548440423968663
 20
-2.978947794987611
 30
0.0
 10
1.550776503322746
 20
-2.983776313042047
 30
0.0
 10
1.553184462041574
 20
-2.989111527435498
 30
0.0
 10
1.555652320230971
 20
-2.994565964496991
 30
0.0
 10
1.559965082115417
 20
-3.004118680771373
 30
0.0
 10
1.564433582623425
 20
-3.013984356549296
 30
0.0
 10
1.569081781543344
 20
-3.022627999980057
 30
0.0
 10
1.579624088371979
 20
-3.042195420367332
 30
0.0
 10
1.589531460812092
 20
-3.049214654946454
 30
0.0
 10
1.608028417338623
 20
-3.050421784460063
 30
0.0
 10
1.610747853304676
 20
-3.050824160964591
 30
0.0
 10
1.613335510435364
 20
-3.051032800633543
 30
0.0
 10
1.616066926295439
 20
-3.051032800633543
 30
0.0
 10
1.616066926295439
 20
-3.051032800633543
 30
0.0
 10
1.619996331567967
 20
-3.051032800633543
 30
0.0
 10
1.619996331567967
 20
-3.051032800633543
 30
0.0
 10
1.619996331567967
 20
-3.051032800633543
 30
0.0
 10
1.62227251145143
 20
-3.033283525933484
 30
0.0
 10
1.62227251145143
 20
-3.033283525933484
 30
0.0
 10
1.62227251145143
 20
-3.033283525933484
 30
0.0
 10
1.61818736755534
 20
-3.032016785085842
 30
0.0
 10
1.61818736755534
 20
-3.032016785085842
 30
0.0
 10
1.614701218365401
 20
-3.030913975406772
 30
0.0
 10
1.610771813092924
 20
-3.028872287217104
 30
0.0
 10
1.605608478725722
 20
-3.021063202462351
 30
0.0
  0
SPLINE
  5
96
330
85
100
AcDbEntity
  8
Layer 9
100
AcDbSpline
210
0.0
220
0.0
230
1.0
 70
    11
 71
     3
 72
    71
 73
    67
 74
     0
 42
0.0000000001
 43
0.0000000001
 40
0.0
 40
0.0
 40
0.0
 40
0.0
 40
1.0
 40
1.0
 40
1.0
 40
2.0
 40
2.0
 40
2.0
 40
3.0
 40
3.0
 40
3.0
 40
4.0
 40
4.0
 40
4.0
 40
5.0
 40
5.0
 40
5.0
 40
6.0
 40
6.0
 40
6.0
 40
7.0
 40
7.0
 40
7.0
 40
8.0
 40
8.0
 40
8.0
 40
9.0
 40
9.0
 40
9.0
 40
10.0
 40
10.0
 40
10.0
 40
11.0
 40
11.0
 40
11.0
 40
12.0
 40
12.0
 40
12.0
 40
13.0
 40
13.0
 40
13.0
 40
14.0
 40
14.0
 40
14.0
 40
15.0
 40
15.0
 40
15.0
 40
16.0
 40
16.0
 40
16.0
 40
17.0
 40
17.0
 40
17.0
 40
18.0
 40
18.0
 40
18.0
 40
19.0
 40
19.0
 40
19.0
 40
20.0
 40
20.0
 40
20.0
 40
21.0
 40
21.0
 40
21.0
 40
22.0
 40
22.0
 40
22.0
 40
22.0
 10
1.710003853447283
 20
-3.014373674106966
 30
0.0
 10
1.710003853447283
 20
-3.014373674106966
 30
0.0
 10
1.709342500417632
 20
-3.017203708860986
 30
0.0
 10
1.709342500417632
 20
-3.017203708860986
 30
0.0
 10
1.707315575854358
 20
-3.025806322149946
 30
0.0
 10
1.705313145847766
 20
-3.02999511976754
 30
0.0
 10
1.703904708840026
 20
-3.032132791278955
 30
0.0
 10
1.702202337152407
 20
-3.035023407816702
 30
0.0
 10
1.699440575889487
 20
-3.036096570842699
 30
0.0
 10
1.693702725992857
 20
-3.036096570842699
 30
0.0
 10
1.690481691792582
 20
-3.036096570842699
 30
0.0
 10
1.686562562727683
 20
-3.03591482549152
 30
0.0
 10
1.684823449205092
 20
-3.034452208141601
 30
0.0
 10
1.68408248886625
 20
-3.033855044844838
 30
0.0
 10
1.683470124949861
 20
-3.032643409170355
 30
0.0
 10
1.683470124949861
 20
-3.023850395989686
 30
0.0
 10
1.683470124949861
 20
-3.023850395989686
 30
0.0
 10
1.683470124949861
 20
-2.961442504212275
 30
0.0
 10
1.683470124949861
 20
-2.961442504212275
 30
0.0
 10
1.683470124949861
 20
-2.949724256331718
 30
0.0
 10
1.683470124949861
 20
-2.949724256331718
 30
0.0
 10
1.690836862864115
 20
-2.948971311305411
 30
0.0
 10
1.690836862864115
 20
-2.948971311305411
 30
0.0
 10
1.693016878406473
 20
-2.948746293251562
 30
0.0
 10
1.693016878406473
 20
-2.948746293251562
 30
0.0
 10
1.693016878406473
 20
-2.948746293251562
 30
0.0
 10
1.693016878406473
 20
-2.93750404510029
 30
0.0
 10
1.693016878406473
 20
-2.93750404510029
 30
0.0
 10
1.693016878406473
 20
-2.93750404510029
 30
0.0
 10
1.659018433768172
 20
-2.93750404510029
 30
0.0
 10
1.659018433768172
 20
-2.93750404510029
 30
0.0
 10
1.659018433768172
 20
-2.93750404510029
 30
0.0
 10
1.659018433768172
 20
-2.948754947792091
 30
0.0
 10
1.659018433768172
 20
-2.948754947792091
 30
0.0
 10
1.659018433768172
 20
-2.948754947792091
 30
0.0
 10
1.661210696588871
 20
-2.948971311305411
 30
0.0
 10
1.661210696588871
 20
-2.948971311305411
 30
0.0
 10
1.668712154564673
 20
-2.949706947250635
 30
0.0
 10
1.668712154564673
 20
-2.949706947250635
 30
0.0
 10
1.668712154564673
 20
-2.961442504212275
 30
0.0
 10
1.668712154564673
 20
-2.961442504212275
 30
0.0
 10
1.668712154564673
 20
-3.024395632043226
 30
0.0
 10
1.668712154564673
 20
-3.024395632043226
 30
0.0
 10
1.668712154564673
 20
-3.03634755251811
 30
0.0
 10
1.668712154564673
 20
-3.03634755251811
 30
0.0
 10
1.660684063620768
 20
-3.037204352030812
 30
0.0
 10
1.660684063620768
 20
-3.037204352030812
 30
0.0
 10
1.658510171717554
 20
-3.03743802462519
 30
0.0
 10
1.658510171717554
 20
-3.03743802462519
 30
0.0
 10
1.658510171717554
 20
-3.03743802462519
 30
0.0
 10
1.658510171717554
 20
-3.048446600182084
 30
0.0
 10
1.658510171717554
 20
-3.048446600182084
 30
0.0
 10
1.658510171717554
 20
-3.048446600182084
 30
0.0
 10
1.712508421865398
 20
-3.048446600182084
 30
0.0
 10
1.712508421865398
 20
-3.048446600182084
 30
0.0
 10
1.712508421865398
 20
-3.048446600182084
 30
0.0
 10
1.713022807555161
 20
-3.046109874238406
 30
0.0
 10
1.713022807555161
 20
-3.046109874238406
 30
0.0
 10
1.714161804439653
 20
-3.04092580445965
 30
0.0
 10
1.71639693273447
 20
-3.025434176907083
 30
0.0
 10
1.717137893073312
 20
-3.019851998263801
 30
0.0
 10
1.717137893073312
 20
-3.019851998263801
 30
0.0
 10
1.717560424175644
 20
-3.016667127347975
 30
0.0
 10
1.717560424175644
 20
-3.016667127347975
 30
0.0
 10
1.717560424175644
 20
-3.016667127347975
 30
0.0
 10
1.710003853447283
 20
-3.014373674106966
 30
0.0
 10
1.710003853447283
 20
-3.014373674106966
 30
0.0
  0
SPLINE
  5
97
330
85
100
AcDbEntity
  8
Layer 9
100
AcDbSpline
210
0.0
220
0.0
230
1.0
 70
     9
 71
     3
 72
    71
 73
    67
 74
     0
 42
0.0000000001
 43
0.0000000001
 40
0.0
 40
0.0
 40
0.0
 40
0.0
 40
1.0
 40
1.0
 40
1.0
 40
2.0
 40
2.0
 40
2.0
 40
3.0
 40
3.0
 40
3.0
 40
4.0
 40
4.0
 40
4.0
 40
5.0
 40
5.0
 40
5.0
 40
6.0
 40
6.0
 40
6.0
 40
7.0
 40
7.0
 40
7.0
 40
8.0
 40
8.0
 40
8.0
 40
9.0
 40
9.0
 40
9.0
 40
10.0
 40
10.0
 40
10.0
 40
11.0
 40
11.0
 40
11.0
 40
12.0
 40
12.0
 40
12.0
 40
13.0
 40
13.0
 40
13.0
 40
14.0
 40
14.0
 40
14.0
 40
15.0
 40
15.0
 40
15.0
 40
16.0
 40
16.0
 40
16.0
 40
17.0
 40
17.0
 40
17.0
 40
18.0
 40
18.0
 40
18.0
 40
19.0
 40
19.0
 40
19.0
 40
20.0
 40
20.0
 40
20.0
 40
21.0
 40
21.0
 40
21.0
 40
22.0
 40
22.0
 40
22.0
 40
22.0
 10
1.768123312752474
 20
-3.017203708860986
 30
0.0
 10
1.7660963881892
 20
-3.025806322149946
 30
0.0
 10
1.764093958182557
 20
-3.02999511976754
 30
0.0
 10
1.762685521174868
 20
-3.032132791278955
 30
0.0
 10
1.7609831494873
 20
-3.035023407816702
 30
0.0
 10
1.758221388224329
 20
-3.036096570842699
 30
0.0
 10
1.752483538327699
 20
-3.036096570842699
 30
0.0
 10
1.749262504127475
 20
-3.036096570842699
 30
0.0
 10
1.745343375062525
 20
-3.03591482549152
 30
0.0
 10
1.743604261539985
 20
-3.034452208141601
 30
0.0
 10
1.742863301201143
 20
-3.033855044844838
 30
0.0
 10
1.742250937284754
 20
-3.032643409170355
 30
0.0
 10
1.742250937284754
 20
-3.023850395989686
 30
0.0
 10
1.742250937284754
 20
-3.023850395989686
 30
0.0
 10
1.742250937284754
 20
-2.961442504212275
 30
0.0
 10
1.742250937284754
 20
-2.961442504212275
 30
0.0
 10
1.742250937284754
 20
-2.949724256331718
 30
0.0
 10
1.742250937284754
 20
-2.949724256331718
 30
0.0
 10
1.749617675199008
 20
-2.948971311305411
 30
0.0
 10
1.749617675199008
 20
-2.948971311305411
 30
0.0
 10
1.751797690741366
 20
-2.948746293251562
 30
0.0
 10
1.751797690741366
 20
-2.948746293251562
 30
0.0
 10
1.751797690741366
 20
-2.948746293251562
 30
0.0
 10
1.751797690741366
 20
-2.93750404510029
 30
0.0
 10
1.751797690741366
 20
-2.93750404510029
 30
0.0
 10
1.751797690741366
 20
-2.93750404510029
 30
0.0
 10
1.717799246103064
 20
-2.93750404510029
 30
0.0
 10
1.717799246103064
 20
-2.93750404510029
 30
0.0
 10
1.717799246103064
 20
-2.93750404510029
 30
0.0
 10
1.717799246103064
 20
-2.948754947792091
 30
0.0
 10
1.717799246103064
 20
-2.948754947792091
 30
0.0
 10
1.717799246103064
 20
-2.948754947792091
 30
0.0
 10
1.719991508923764
 20
-2.948971311305411
 30
0.0
 10
1.719991508923764
 20
-2.948971311305411
 30
0.0
 10
1.727492966899565
 20
-2.949706947250635
 30
0.0
 10
1.727492966899565
 20
-2.949706947250635
 30
0.0
 10
1.727492966899565
 20
-2.961442504212275
 30
0.0
 10
1.727492966899565
 20
-2.961442504212275
 30
0.0
 10
1.727492966899565
 20
-3.024395632043226
 30
0.0
 10
1.727492966899565
 20
-3.024395632043226
 30
0.0
 10
1.727492966899565
 20
-3.03634755251811
 30
0.0
 10
1.727492966899565
 20
-3.03634755251811
 30
0.0
 10
1.71946487595566
 20
-3.037204352030812
 30
0.0
 10
1.71946487595566
 20
-3.037204352030812
 30
0.0
 10
1.717290984052447
 20
-3.03743802462519
 30
0.0
 10
1.717290984052447
 20
-3.03743802462519
 30
0.0
 10
1.717290984052447
 20
-3.03743802462519
 30
0.0
 10
1.717290984052447
 20
-3.048446600182084
 30
0.0
 10
1.717290984052447
 20
-3.048446600182084
 30
0.0
 10
1.717290984052447
 20
-3.048446600182084
 30
0.0
 10
1.77128923420024
 20
-3.048446600182084
 30
0.0
 10
1.77128923420024
 20
-3.048446600182084
 30
0.0
 10
1.77128923420024
 20
-3.048446600182084
 30
0.0
 10
1.771803619890053
 20
-3.046109874238406
 30
0.0
 10
1.771803619890053
 20
-3.046109874238406
 30
0.0
 10
1.772942616774546
 20
-3.04092580445965
 30
0.0
 10
1.775177745069362
 20
-3.025434176907083
 30
0.0
 10
1.775918705408205
 20
-3.019851998263801
 30
0.0
 10
1.775918705408205
 20
-3.019851998263801
 30
0.0
 10
1.776341236510486
 20
-3.016667127347975
 30
0.0
 10
1.776341236510486
 20
-3.016667127347975
 30
0.0
 10
1.776341236510486
 20
-3.016667127347975
 30
0.0
 10
1.768784665782176
 20
-3.014373674106966
 30
0.0
 10
1.768784665782176
 20
-3.014373674106966
 30
0.0
 10
1.768784665782176
 20
-3.014373674106966
 30
0.0
 10
1.768123312752474
 20
-3.017203708860986
 30
0.0
 10
1.768123312752474
 20
-3.017203708860986
 30
0.0
  0
SPLINE
  5
98
330
85
100
AcDbEntity
  8
Layer 9
100
AcDbSpline
210
0.0
220
0.0
230
1.0
 70
     9
 71
     3
 72
    23
 73
    19
 74
     0
 42
0.0000000001
 43
0.0000000001
 40
0.0
 40
0.0
 40
0.0
 40
0.0
 40
1.0
 40
1.0
 40
1.0
 40
2.0
 40
2.0
 40
2.0
 40
3.0
 40
3.0
 40
3.0
 40
4.0
 40
4.0
 40
4.0
 40
5.0
 40
5.0
 40
5.0
 40
6.0
 40
6.0
 40
6.0
 40
6.0
 10
1.800890905918852
 20
-2.955522798488219
 30
0.0
 10
1.800890905918852
 20
-2.951801346059432
 30
0.0
 10
1.801221582433703
 20
-2.950736837573938
 30
0.0
 10
1.801344055216961
 20
-2.950537783141701
 30
0.0
 10
1.801552258948504
 20
-2.950330074168959
 30
0.0
 10
1.802893335925444
 20
-2.94952520189948
 30
0.0
 10
1.805630602631784
 20
-2.94952520189948
 30
0.0
 10
1.809708946314963
 20
-2.94952520189948
 30
0.0
 10
1.819194463379921
 20
-2.951602291627194
 30
0.0
 10
1.819194463379921
 20
-2.970875953392325
 30
0.0
 10
1.819194463379921
 20
-2.991240087264511
 30
0.0
 10
1.810162095613072
 20
-2.993438340559679
 30
0.0
 10
1.806279708383145
 20
-2.993438340559679
 30
0.0
 10
1.804075198284105
 20
-2.993438340559679
 30
0.0
 10
1.802152375586653
 20
-2.992875795425056
 30
0.0
 10
1.800890905918852
 20
-2.992382486614739
 30
0.0
 10
1.800890905918852
 20
-2.992382486614739
 30
0.0
 10
1.800890905918852
 20
-2.955522798488219
 30
0.0
 10
1.800890905918852
 20
-2.955522798488219
 30
0.0
  0
SPLINE
  5
99
330
85
100
AcDbEntity
  8
Layer 9
100
AcDbSpline
210
0.0
220
0.0
230
1.0
 70
     9
 71
     3
 72
    59
 73
    55
 74
     0
 42
0.0000000001
 43
0.0000000001
 40
0.0
 40
0.0
 40
0.0
 40
0.0
 40
1.0
 40
1.0
 40
1.0
 40
2.0
 40
2.0
 40
2.0
 40
3.0
 40
3.0
 40
3.0
 40
4.0
 40
4.0
 40
4.0
 40
5.0
 40
5.0
 40
5.0
 40
6.0
 40
6.0
 40
6.0
 40
7.0
 40
7.0
 40
7.0
 40
8.0
 40
8.0
 40
8.0
 40
9.0
 40
9.0
 40
9.0
 40
10.0
 40
10.0
 40
10.0
 40
11.0
 40
11.0
 40
11.0
 40
12.0
 40
12.0
 40
12.0
 40
13.0
 40
13.0
 40
13.0
 40
14.0
 40
14.0
 40
14.0
 40
15.0
 40
15.0
 40
15.0
 40
16.0
 40
16.0
 40
16.0
 40
17.0
 40
17.0
 40
17.0
 40
18.0
 40
18.0
 40
18.0
 40
18.0
 10
1.807437076185124
 20
-2.93750404510029
 30
0.0
 10
1.807437076185124
 20
-2.93750404510029
 30
0.0
 10
1.777308771498408
 20
-2.93750404510029
 30
0.0
 10
1.777308771498408
 20
-2.93750404510029
 30
0.0
 10
1.777308771498408
 20
-2.93750404510029
 30
0.0
 10
1.777308771498408
 20
-2.948763602332645
 30
0.0
 10
1.777308771498408
 20
-2.948763602332645
 30
0.0
 10
1.777308771498408
 20
-2.948763602332645
 30
0.0
 10
1.779501034319107
 20
-2.948971311305411
 30
0.0
 10
1.779501034319107
 20
-2.948971311305411
 30
0.0
 10
1.786279902873603
 20
-2.949611747304818
 30
0.0
 10
1.786279902873603
 20
-2.949611747304818
 30
0.0
 10
1.786279902873603
 20
-2.961442504212275
 30
0.0
 10
1.786279902873603
 20
-2.961442504212275
 30
0.0
 10
1.786279902873603
 20
-3.02472450458342
 30
0.0
 10
1.786279902873603
 20
-3.02472450458342
 30
0.0
 10
1.786279902873603
 20
-3.036261007112771
 30
0.0
 10
1.786279902873603
 20
-3.036261007112771
 30
0.0
 10
1.778870299485283
 20
-3.037213006571315
 30
0.0
 10
1.778870299485283
 20
-3.037213006571315
 30
0.0
 10
1.776733149417042
 20
-3.037481297327859
 30
0.0
 10
1.776733149417042
 20
-3.037481297327859
 30
0.0
 10
1.776733149417042
 20
-3.037481297327859
 30
0.0
 10
1.776733149417042
 20
-3.048446600182084
 30
0.0
 10
1.776733149417042
 20
-3.048446600182084
 30
0.0
 10
1.776733149417042
 20
-3.048446600182084
 30
0.0
 10
1.811668510847438
 20
-3.048446600182084
 30
0.0
 10
1.811668510847438
 20
-3.048446600182084
 30
0.0
 10
1.811668510847438
 20
-3.048446600182084
 30
0.0
 10
1.811668510847438
 20
-3.037446679165718
 30
0.0
 10
1.811668510847438
 20
-3.037446679165718
 30
0.0
 10
1.811668510847438
 20
-3.037446679165718
 30
0.0
 10
1.80950074258337
 20
-3.037204352030812
 30
0.0
 10
1.80950074258337
 20
-3.037204352030812
 30
0.0
 10
1.800890905918852
 20
-3.036243698031739
 30
0.0
 10
1.800890905918852
 20
-3.036243698031739
 30
0.0
 10
1.800890905918852
 20
-3.024837013610345
 30
0.0
 10
1.800890905918852
 20
-3.024837013610345
 30
0.0
 10
1.800890905918852
 20
-3.004689243251454
 30
0.0
 10
1.800890905918852
 20
-3.004689243251454
 30
0.0
 10
1.800890905918852
 20
-3.004689243251454
 30
0.0
 10
1.806494035753884
 20
-3.006766332979193
 30
0.0
 10
1.806494035753884
 20
-3.006766332979193
 30
0.0
 10
1.807657527195008
 20
-3.006878842006092
 30
0.0
 10
1.810106982860613
 20
-3.006896151087175
 30
0.0
 10
1.811993063723093
 20
-3.006524005844287
 30
0.0
 10
1.822691061342538
 20
-3.004637316008281
 30
0.0
 10
1.835177161597837
 20
-2.994035503856366
 30
0.0
 10
1.835177161597837
 20
-2.97033071733876
 30
0.0
 10
1.835177161597837
 20
-2.959503887133046
 30
0.0
 10
1.832415400334917
 20
-2.950710873952377
 30
0.0
 10
1.827191936128049
 20
-2.944903677255272
 30
0.0
 10
1.82271555589917
 20
-2.939927316449307
 30
0.0
 10
1.816255116581234
 20
-2.93750404510029
 30
0.0
 10
1.807437076185124
 20
-2.93750404510029
 30
0.0
  0
SPLINE
  5
9A
330
85
100
AcDbEntity
  8
Layer 9
100
AcDbSpline
210
0.0
220
0.0
230
1.0
 70
     9
 71
     3
 72
    35
 73
    31
 74
     0
 42
0.0000000001
 43
0.0000000001
 40
0.0
 40
0.0
 40
0.0
 40
0.0
 40
1.0
 40
1.0
 40
1.0
 40
2.0
 40
2.0
 40
2.0
 40
3.0
 40
3.0
 40
3.0
 40
4.0
 40
4.0
 40
4.0
 40
5.0
 40
5.0
 40
5.0
 40
6.0
 40
6.0
 40
6.0
 40
7.0
 40
7.0
 40
7.0
 40
8.0
 40
8.0
 40
8.0
 40
9.0
 40
9.0
 40
9.0
 40
10.0
 40
10.0
 40
10.0
 40
10.0
 10
1.925338221107166
 20
-2.831382908107419
 30
0.0
 10
1.925338221107166
 20
-2.831382908107419
 30
0.0
 10
1.929327525850263
 20
-2.828910954818386
 30
0.0
 10
1.929327525850263
 20
-2.828910954818386
 30
0.0
 10
1.929327525850263
 20
-2.828910954818386
 30
0.0
 10
1.924092312118318
 20
-2.809084534945239
 30
0.0
 10
1.924092312118318
 20
-2.809084534945239
 30
0.0
 10
1.924092312118318
 20
-2.809084534945239
 30
0.0
 10
1.920067067692848
 20
-2.810557548206588
 30
0.0
 10
1.920067067692848
 20
-2.810557548206588
 30
0.0
 10
1.904660923850112
 20
-2.816229495821845
 30
0.0
 10
1.888188569430389
 20
-2.832009362023149
 30
0.0
 10
1.888188569430389
 20
-2.859336297697988
 30
0.0
 10
1.888188569430389
 20
-2.882853716317716
 30
0.0
 10
1.901174774660173
 20
-2.898650513705989
 30
0.0
 10
1.913585944972106
 20
-2.898650513705989
 30
0.0
 10
1.920366565045899
 20
-2.898650513705989
 30
0.0
 10
1.927674300461199
 20
-2.891336240960349
 30
0.0
 10
1.927674300461199
 20
-2.879501341309302
 30
0.0
 10
1.927674300461199
 20
-2.872085481442177
 30
0.0
 10
1.924272010530178
 20
-2.866041047714866
 30
0.0
 10
1.92090566028153
 20
-2.866041047714866
 30
0.0
 10
1.920881700493231
 20
-2.866041047714866
 30
0.0
 10
1.920845760810859
 20
-2.866041047714866
 30
0.0
 10
1.920809821128487
 20
-2.866041047714866
 30
0.0
 10
1.918605520609768
 20
-2.865448456172998
 30
0.0
 10
1.91139362434751
 20
-2.862722535080264
 30
0.0
 10
1.91139362434751
 20
-2.85246223581195
 30
0.0
 10
1.91139362434751
 20
-2.844978651197202
 30
0.0
 10
1.913765643383915
 20
-2.838544800170918
 30
0.0
 10
1.925338221107166
 20
-2.831382908107419
 30
0.0
  0
SPLINE
  5
9B
330
85
100
AcDbEntity
  8
Layer 9
100
AcDbSpline
210
0.0
220
0.0
230
1.0
 70
     9
 71
     3
 72
    68
 73
    64
 74
     0
 42
0.0000000001
 43
0.0000000001
 40
0.0
 40
0.0
 40
0.0
 40
0.0
 40
1.0
 40
1.0
 40
1.0
 40
2.0
 40
2.0
 40
2.0
 40
3.0
 40
3.0
 40
3.0
 40
4.0
 40
4.0
 40
4.0
 40
5.0
 40
5.0
 40
5.0
 40
6.0
 40
6.0
 40
6.0
 40
7.0
 40
7.0
 40
7.0
 40
8.0
 40
8.0
 40
8.0
 40
9.0
 40
9.0
 40
9.0
 40
10.0
 40
10.0
 40
10.0
 40
11.0
 40
11.0
 40
11.0
 40
12.0
 40
12.0
 40
12.0
 40
13.0
 40
13.0
 40
13.0
 40
14.0
 40
14.0
 40
14.0
 40
15.0
 40
15.0
 40
15.0
 40
16.0
 40
16.0
 40
16.0
 40
17.0
 40
17.0
 40
17.0
 40
18.0
 40
18.0
 40
18.0
 40
19.0
 40
19.0
 40
19.0
 40
20.0
 40
20.0
 40
20.0
 40
21.0
 40
21.0
 40
21.0
 40
21.0
 10
2.016085919092246
 20
-2.992415426820722
 30
0.0
 10
2.010395469383587
 20
-3.009871480526321
 30
0.0
 10
2.009784494783313
 20
-3.009871480526321
 30
0.0
 10
1.999469805942984
 20
-3.009871480526321
 30
0.0
 10
1.999469805942984
 20
-3.009871480526321
 30
0.0
 10
1.97166447168249
 20
-3.009871480526321
 30
0.0
 10
1.97166447168249
 20
-3.009871480526321
 30
0.0
 10
1.97166447168249
 20
-3.009871480526321
 30
0.0
 10
1.993515798563647
 20
-2.976584767058688
 30
0.0
 10
1.993515798563647
 20
-2.976584767058688
 30
0.0
 10
2.013318563549697
 20
-2.946159424179061
 30
0.0
 10
2.022746740224849
 20
-2.926400729053561
 30
0.0
 10
2.022746740224849
 20
-2.896449459407499
 30
0.0
 10
2.022746740224849
 20
-2.862282324220586
 30
0.0
 10
2.005256094804685
 20
-2.836529988928481
 30
0.0
 10
1.982063019781637
 20
-2.836529988928481
 30
0.0
 10
1.969999266399352
 20
-2.836529988928481
 30
0.0
 10
1.958594407193837
 20
-2.843911986421769
 30
0.0
 10
1.949513647448232
 20
-2.85806645867966
 30
0.0
 10
1.949513647448232
 20
-2.85806645867966
 30
0.0
 10
1.93480233746469
 20
-2.889152117848804
 30
0.0
 10
1.93480233746469
 20
-2.889152117848804
 30
0.0
 10
1.93480233746469
 20
-2.889152117848804
 30
0.0
 10
1.946530653811502
 20
-2.905439919657459
 30
0.0
 10
1.946530653811502
 20
-2.905439919657459
 30
0.0
 10
1.946530653811502
 20
-2.905439919657459
 30
0.0
 10
1.949585526813027
 20
-2.898633582519071
 30
0.0
 10
1.949585526813027
 20
-2.898633582519071
 30
0.0
 10
1.955467654827568
 20
-2.885494981475883
 30
0.0
 10
1.963050927807772
 20
-2.872051619068315
 30
0.0
 10
1.97470736478984
 20
-2.872051619068315
 30
0.0
 10
1.991874553068757
 20
-2.872051619068315
 30
0.0
 10
1.994438250411146
 20
-2.893655813567117
 30
0.0
 10
1.994438250411146
 20
-2.906523515619735
 30
0.0
 10
1.994438250411146
 20
-2.931344635631653
 30
0.0
 10
1.981523924546106
 20
-2.955979512587595
 30
0.0
 10
1.969412251587325
 20
-2.977126565039851
 30
0.0
 10
1.960367431524142
 20
-2.993126536671019
 30
0.0
 10
1.949621466495399
 20
-3.008974127619947
 30
0.0
 10
1.939234898290326
 20
-3.024279920587812
 30
0.0
 10
1.939234898290326
 20
-3.024279920587812
 30
0.0
 10
1.934442940640969
 20
-3.031357156716669
 30
0.0
 10
1.934442940640969
 20
-3.031357156716669
 30
0.0
 10
1.934442940640969
 20
-3.031357156716669
 30
0.0
 10
1.934442940640969
 20
-3.047983582263592
 30
0.0
 10
1.934442940640969
 20
-3.047983582263592
 30
0.0
 10
1.934442940640969
 20
-3.047983582263592
 30
0.0
 10
2.022483182554171
 20
-3.047983582263592
 30
0.0
 10
2.022483182554171
 20
-3.047983582263592
 30
0.0
 10
2.022483182554171
 20
-3.047983582263592
 30
0.0
 10
2.025094799473056
 20
-3.032457683865964
 30
0.0
 10
2.025094799473056
 20
-3.032457683865964
 30
0.0
 10
2.026879803697435
 20
-3.02168944899035
 30
0.0
 10
2.028688767710162
 20
-3.010701108684972
 30
0.0
 10
2.030917028017079
 20
-2.99996673618322
 30
0.0
 10
2.030917028017079
 20
-2.99996673618322
 30
0.0
 10
2.032150957111753
 20
-2.993990027203481
 30
0.0
 10
2.032150957111753
 20
-2.993990027203481
 30
0.0
 10
2.032150957111753
 20
-2.993990027203481
 30
0.0
 10
2.017823003740077
 20
-2.987099034130601
 30
0.0
 10
2.017823003740077
 20
-2.987099034130601
 30
0.0
 10
2.017823003740077
 20
-2.987099034130601
 30
0.0
 10
2.016085919092246
 20
-2.992415426820722
 30
0.0
 10
2.016085919092246
 20
-2.992415426820722
 30
0.0
  0
SPLINE
  5
9C
330
85
100
AcDbEntity
  8
Layer 9
100
AcDbSpline
210
0.0
220
0.0
230
1.0
 70
     9
 71
     3
 72
    74
 73
    70
 74
     0
 42
0.0000000001
 43
0.0000000001
 40
0.0
 40
0.0
 40
0.0
 40
0.0
 40
1.0
 40
1.0
 40
1.0
 40
2.0
 40
2.0
 40
2.0
 40
3.0
 40
3.0
 40
3.0
 40
4.0
 40
4.0
 40
4.0
 40
5.0
 40
5.0
 40
5.0
 40
6.0
 40
6.0
 40
6.0
 40
7.0
 40
7.0
 40
7.0
 40
8.0
 40
8.0
 40
8.0
 40
9.0
 40
9.0
 40
9.0
 40
10.0
 40
10.0
 40
10.0
 40
11.0
 40
11.0
 40
11.0
 40
12.0
 40
12.0
 40
12.0
 40
13.0
 40
13.0
 40
13.0
 40
14.0
 40
14.0
 40
14.0
 40
15.0
 40
15.0
 40
15.0
 40
16.0
 40
16.0
 40
16.0
 40
17.0
 40
17.0
 40
17.0
 40
18.0
 40
18.0
 40
18.0
 40
19.0
 40
19.0
 40
19.0
 40
20.0
 40
20.0
 40
20.0
 40
21.0
 40
21.0
 40
21.0
 40
22.0
 40
22.0
 40
22.0
 40
23.0
 40
23.0
 40
23.0
 40
23.0
 10
2.105479889041311
 20
-2.920864230933602
 30
0.0
 10
2.109001977913622
 20
-2.916902333196351
 30
0.0
 10
2.111673494303178
 20
-2.913533027001044
 30
0.0
 10
2.113602257256995
 20
-2.9109594865905
 30
0.0
 10
2.118621832894758
 20
-2.903357383667399
 30
0.0
 10
2.121053751401834
 20
-2.894739409529468
 30
0.0
 10
2.121053751401834
 20
-2.884648422130314
 30
0.0
 10
2.121053751401834
 20
-2.856322546427766
 30
0.0
 10
2.106066903853388
 20
-2.836529988928481
 30
0.0
 10
2.084479134642959
 20
-2.836529988928481
 30
0.0
 10
2.072666959037229
 20
-2.836529988928481
 30
0.0
 10
2.061477737925947
 20
-2.844030504730199
 30
0.0
 10
2.053475168651503
 20
-2.857660110193743
 30
0.0
 10
2.053475168651503
 20
-2.857660110193743
 30
0.0
 10
2.041950510504749
 20
-2.882176468841255
 30
0.0
 10
2.041950510504749
 20
-2.882176468841255
 30
0.0
 10
2.041950510504749
 20
-2.882176468841255
 30
0.0
 10
2.05313973161598
 20
-2.898616651332126
 30
0.0
 10
2.05313973161598
 20
-2.898616651332126
 30
0.0
 10
2.05313973161598
 20
-2.898616651332126
 30
0.0
 10
2.056254504088125
 20
-2.891522484016326
 30
0.0
 10
2.056254504088125
 20
-2.891522484016326
 30
0.0
 10
2.062687707232372
 20
-2.876893938524997
 30
0.0
 10
2.069887623600556
 20
-2.869478078657847
 30
0.0
 10
2.077686534674891
 20
-2.869478078657847
 30
0.0
 10
2.087210550503085
 20
-2.869478078657847
 30
0.0
 10
2.092889020317569
 20
-2.877960603300405
 30
0.0
 10
2.092889020317569
 20
-2.892148937932081
 30
0.0
 10
2.092889020317569
 20
-2.908250496684659
 30
0.0
 10
2.084011918772123
 20
-2.91937428648541
 30
0.0
 10
2.063190862785581
 20
-2.929329824389242
 30
0.0
 10
2.063190862785581
 20
-2.929329824389242
 30
0.0
 10
2.059393236348467
 20
-2.931141461388809
 30
0.0
 10
2.059393236348467
 20
-2.931141461388809
 30
0.0
 10
2.059393236348467
 20
-2.931141461388809
 30
0.0
 10
2.062388209879322
 20
-2.953422903363995
 30
0.0
 10
2.062388209879322
 20
-2.953422903363995
 30
0.0
 10
2.062388209879322
 20
-2.953422903363995
 30
0.0
 10
2.067359865940539
 20
-2.95112026194407
 30
0.0
 10
2.067359865940539
 20
-2.95112026194407
 30
0.0
 10
2.070390779153815
 20
-2.949714973430445
 30
0.0
 10
2.075062937861932
 20
-2.948225028982202
 30
0.0
 10
2.079100162181526
 20
-2.948225028982202
 30
0.0
 10
2.087222530397209
 20
-2.948225028982202
 30
0.0
 10
2.100963468956807
 20
-2.955302265111135
 30
0.0
 10
2.100963468956807
 20
-2.98183343500116
 30
0.0
 10
2.100963468956807
 20
-3.007060903498995
 30
0.0
 10
2.093583854176762
 20
-3.022112728663109
 30
0.0
 10
2.081220603441377
 20
-3.022112728663109
 30
0.0
 10
2.073241993955182
 20
-3.022112728663109
 30
0.0
 10
2.065359223621928
 20
-3.016948716655254
 30
0.0
 10
2.057548332653419
 20
-3.006451380770184
 30
0.0
 10
2.05394238452229
 20
-3.00220165285547
 30
0.0
 10
2.049569723167223
 20
-3.002286308789962
 30
0.0
 10
2.046550789848121
 20
-3.006163550592696
 30
0.0
 10
2.04431054964708
 20
-3.008449260825677
 30
0.0
 10
2.039925908397941
 20
-3.014629144048335
 30
0.0
 10
2.039422752844681
 20
-3.021774104924916
 30
0.0
 10
2.038955536973895
 20
-3.028597373250148
 30
0.0
 10
2.040620742257033
 20
-3.034252389678562
 30
0.0
 10
2.044250650176409
 20
-3.038722223023089
 30
0.0
 10
2.048563412060906
 20
-3.044969830993396
 30
0.0
 10
2.058866121007061
 20
-3.051623787449493
 30
0.0
 10
2.06948030720044
 20
-3.051623787449493
 30
0.0
 10
2.086060480667229
 20
-3.051623787449493
 30
0.0
 10
2.1296912550648
 20
-3.02700584168047
 30
0.0
 10
2.1296912550648
 20
-2.971590066919891
 30
0.0
 10
2.129835013794238
 20
-2.94820809779536
 30
0.0
 10
2.120586535530997
 20
-2.92934675557616
 30
0.0
 10
2.105479889041311
 20
-2.920864230933602
 30
0.0
  0
LWPOLYLINE
  5
9D
330
85
100
AcDbEntity
  8
Layer 9
100
AcDbPolyline
 90
        4
 70
     1
 43
0.0
 10
0.8906913048645794
 20
-3.045212765957532
 10
0.8766517305910559
 20
-3.045212765957532
 10
0.8766517305910559
 20
-2.835401891253038
 10
0.8906913048645794
 20
-2.835401891253038
  0
ENDBLK
  5
88
330
85
100
AcDbEntity
  8
0
100
AcDbBlockEnd
  0
BLOCK
  5
A0
330
9E
100
AcDbEntity
  8
0
100
AcDbBlockBegin
  2
Block_1
 70
     0
 10
0.0
 20
0.0
 30
0.0
  3
Block_1
  1

  0
LWPOLYLINE
  5
A2
330
9E
100
AcDbEntity
  8
Layer 9
100
AcDbPolyline
 90
        8
 70
     1
 43
0.0
 10
0.0116392285770972
 20
-3.000165399082308
 10
-0.0528270763448088
 20
-2.935699094160377
 10
0.0522449429401806
 20
-2.830627074875362
 10
0.1167112478620993
 20
-2.895093379797294
 10
0.1687587096212787
 20
-2.84304591803814
 10
0.0513108778146337
 20
-2.725598086231482
 10
-0.1585537618020049
 20
-2.935462725848133
 10
-0.0411059299953725
 20
-3.052910557654766
  0
LWPOLYLINE
  5
A3
330
9E
100
AcDbEntity
  8
Layer 9
100
AcDbPolyline
 90
       12
 70
     1
 43
0.0
 10
0.1938755947575777
 20
-2.868162803174426
 10
0.1141996594197205
 20
-2.947838738512296
 10
0.1054087996576527
 20
-2.93904787875019
 10
0.0890827742834214
 20
-2.922721853375984
 10
0.0455469734754893
 20
-2.879186052568052
 10
-0.0105471698293261
 20
-2.935280195872867
 10
0.0329886309785934
 20
-2.9788159966808
 10
0.0493146563528247
 20
-2.995142022055031
 10
0.0581055161149051
 20
-3.003932881817086
 10
-0.0159890448590608
 20
-3.078027442791077
 10
0.0423805187183967
 20
-3.136397006368547
 10
0.2522451583350352
 20
-2.926532366751896
  0
ENDBLK
  5
A1
330
9E
100
AcDbEntity
  8
0
100
AcDbBlockEnd
  0
ENDSEC
  0
SECTION
  2
ENTITIES
  0
SPLINE
  5
81
330
70
100
AcDbEntity
  8
Layer 9
100
AcDbSpline
210
0.0
220
0.0
230
1.0
 70
     9
 71
     3
 72
    29
 73
    25
 74
     0
 42
0.0000000001
 43
0.0000000001
 40
0.0
 40
0.0
 40
0.0
 40
0.0
 40
1.0
 40
1.0
 40
1.0
 40
2.0
 40
2.0
 40
2.0
 40
3.0
 40
3.0
 40
3.0
 40
4.0
 40
4.0
 40
4.0
 40
5.0
 40
5.0
 40
5.0
 40
6.0
 40
6.0
 40
6.0
 40
7.0
 40
7.0
 40
7.0
 40
8.0
 40
8.0
 40
8.0
 40
8.0
 10
0.0132637525554426
 20
-3.206705660499311
 30
0.0
 10
0.0132637525554426
 20
-3.206705660499311
 30
0.0
 10
-0.2275198410714362
 20
-2.965922066872407
 30
0.0
 10
-0.2275198410714362
 20
-2.965922066872407
 30
0.0
 10
-0.2468081211787244
 20
-2.946633786765106
 30
0.0
 10
-0.2468081211787244
 20
-2.915361305834898
 30
0.0
 10
-0.2275198410714362
 20
-2.896073025727597
 30
0.0
 10
-0.2275198410714362
 20
-2.896073025727597
 30
0.0
 10
0.0132637525554426
 20
-2.655289432100718
 30
0.0
 10
0.0132637525554426
 20
-2.655289432100718
 30
0.0
 10
0.0325520326627308
 20
-2.636001151993418
 30
0.0
 10
0.0638245135929639
 20
-2.636001151993418
 30
0.0
 10
0.0831127937002521
 20
-2.655289432100718
 30
0.0
 10
0.0831127937002521
 20
-2.655289432100718
 30
0.0
 10
0.3238963873271435
 20
-2.896073025727597
 30
0.0
 10
0.3238963873271435
 20
-2.896073025727597
 30
0.0
 10
0.3431846674344317
 20
-2.915361305834898
 30
0.0
 10
0.3431846674344317
 20
-2.946633786765106
 30
0.0
 10
0.3238963873271435
 20
-2.965922066872407
 30
0.0
 10
0.3238963873271435
 20
-2.965922066872407
 30
0.0
 10
0.0831127937002521
 20
-3.206705660499311
 30
0.0
 10
0.0831127937002521
 20
-3.206705660499311
 30
0.0
 10
0.0638245135929639
 20
-3.225993940606612
 30
0.0
 10
0.0325520326627308
 20
-3.225993940606612
 30
0.0
 10
0.0132637525554426
 20
-3.206705660499311
 30
0.0
  0
HATCH
  5
82
330
70
100
AcDbEntity
  8
Layer 9
 62
   152
420
    29116
440
 33554687
100
AcDbHatch
 10
0.0
 20
0.0
 30
0.0
210
0.0
220
0.0
230
1.0
  2
SOLID
 70
     1
 71
     1
 91
        1
 92
        1
 93
        1
 72
     4
 94
        3
 73
     0
 74
     0
 95
       29
 96
       25
 40
0.0
 40
0.0
 40
0.0
 40
0.0
 40
1.0
 40
1.0
 40
1.0
 40
2.0
 40
2.0
 40
2.0
 40
3.0
 40
3.0
 40
3.0
 40
4.0
 40
4.0
 40
4.0
 40
5.0
 40
5.0
 40
5.0
 40
6.0
 40
6.0
 40
6.0
 40
7.0
 40
7.0
 40
7.0
 40
8.0
 40
8.0
 40
8.0
 40
8.0
 10
0.0132637525554426
 20
-3.206705660499311
 10
0.0132637525554426
 20
-3.206705660499311
 10
-0.2275198410714362
 20
-2.965922066872407
 10
-0.2275198410714362
 20
-2.965922066872407
 10
-0.2468081211787244
 20
-2.946633786765106
 10
-0.2468081211787244
 20
-2.915361305834898
 10
-0.2275198410714362
 20
-2.896073025727597
 10
-0.2275198410714362
 20
-2.896073025727597
 10
0.0132637525554426
 20
-2.655289432100718
 10
0.0132637525554426
 20
-2.655289432100718
 10
0.0325520326627308
 20
-2.636001151993418
 10
0.0638245135929639
 20
-2.636001151993418
 10
0.0831127937002521
 20
-2.655289432100718
 10
0.0831127937002521
 20
-2.655289432100718
 10
0.3238963873271435
 20
-2.896073025727597
 10
0.3238963873271435
 20
-2.896073025727597
 10
0.3431846674344317
 20
-2.915361305834898
 10
0.3431846674344317
 20
-2.946633786765106
 10
0.3238963873271435
 20
-2.965922066872407
 10
0.3238963873271435
 20
-2.965922066872407
 10
0.0831127937002521
 20
-3.206705660499311
 10
0.0831127937002521
 20
-3.206705660499311
 10
0.0638245135929639
 20
-3.225993940606612
 10
0.0325520326627308
 20
-3.225993940606612
 10
0.0132637525554426
 20
-3.206705660499311
 97
        0
 97
        1
330
81
 75
     2
 76
     1
 98
        1
 10
0.0
 20
0.0
450
        0
451
        0
460
0.0
461
0.0
452
        0
462
0.0
453
        0
470

  0
SPLINE
  5
83
330
70
100
AcDbEntity
  8
Layer 9
100
AcDbSpline
210
0.0
220
0.0
230
1.0
 70
     9
 71
     3
 72
    29
 73
    25
 74
     0
 42
0.0000000001
 43
0.0000000001
 40
0.0
 40
0.0
 40
0.0
 40
0.0
 40
1.0
 40
1.0
 40
1.0
 40
2.0
 40
2.0
 40
2.0
 40
3.0
 40
3.0
 40
3.0
 40
4.0
 40
4.0
 40
4.0
 40
5.0
 40
5.0
 40
5.0
 40
6.0
 40
6.0
 40
6.0
 40
7.0
 40
7.0
 40
7.0
 40
8.0
 40
8.0
 40
8.0
 40
8.0
 10
2.092261083261797
 20
-3.122635933806147
 30
0.0
 10
2.092261083261797
 20
-3.122635933806147
 30
0.0
 10
0.1313306964315694
 20
-3.122635933806147
 30
0.0
 10
0.1313306964315694
 20
-3.122635933806147
 30
0.0
 10
0.0941200217975696
 20
-3.122635933806147
 30
0.0
 10
0.0639548099067295
 20
-3.092470721915308
 30
0.0
 10
0.0639548099067295
 20
-3.055260047281308
 30
0.0
 10
0.0639548099067295
 20
-3.055260047281308
 30
0.0
 10
0.0639548099067295
 20
-2.806735045318747
 30
0.0
 10
0.0639548099067295
 20
-2.806735045318747
 30
0.0
 10
0.0639548099067295
 20
-2.769524370684747
 30
0.0
 10
0.0941200217975696
 20
-2.739359158793907
 30
0.0
 10
0.1313306964315694
 20
-2.739359158793907
 30
0.0
 10
0.1313306964315694
 20
-2.739359158793907
 30
0.0
 10
2.092261083261797
 20
-2.739359158793907
 30
0.0
 10
2.092261083261797
 20
-2.739359158793907
 30
0.0
 10
2.129471757895771
 20
-2.739359158793907
 30
0.0
 10
2.159636969786636
 20
-2.769524370684747
 30
0.0
 10
2.159636969786636
 20
-2.806735045318747
 30
0.0
 10
2.159636969786636
 20
-2.806735045318747
 30
0.0
 10
2.159636969786636
 20
-3.055260047281308
 30
0.0
 10
2.159636969786636
 20
-3.055260047281308
 30
0.0
 10
2.159636969786636
 20
-3.092470721915308
 30
0.0
 10
2.129471757895771
 20
-3.122635933806147
 30
0.0
 10
2.092261083261797
 20
-3.122635933806147
 30
0.0
  0
HATCH
  5
84
330
70
100
AcDbEntity
  8
Layer 9
 62
   152
420
    29116
440
 33554687
100
AcDbHatch
 10
0.0
 20
0.0
 30
0.0
210
0.0
220
0.0
230
1.0
  2
SOLID
 70
     1
 71
     1
 91
        1
 92
        1
 93
        1
 72
     4
 94
        3
 73
     0
 74
     0
 95
       29
 96
       25
 40
0.0
 40
0.0
 40
0.0
 40
0.0
 40
1.0
 40
1.0
 40
1.0
 40
2.0
 40
2.0
 40
2.0
 40
3.0
 40
3.0
 40
3.0
 40
4.0
 40
4.0
 40
4.0
 40
5.0
 40
5.0
 40
5.0
 40
6.0
 40
6.0
 40
6.0
 40
7.0
 40
7.0
 40
7.0
 40
8.0
 40
8.0
 40
8.0
 40
8.0
 10
2.092261083261797
 20
-3.122635933806147
 10
2.092261083261797
 20
-3.122635933806147
 10
0.1313306964315694
 20
-3.122635933806147
 10
0.1313306964315694
 20
-3.122635933806147
 10
0.0941200217975696
 20
-3.122635933806147
 10
0.0639548099067295
 20
-3.092470721915308
 10
0.0639548099067295
 20
-3.055260047281308
 10
0.0639548099067295
 20
-3.055260047281308
 10
0.0639548099067295
 20
-2.806735045318747
 10
0.0639548099067295
 20
-2.806735045318747
 10
0.0639548099067295
 20
-2.769524370684747
 10
0.0941200217975696
 20
-2.739359158793907
 10
0.1313306964315694
 20
-2.739359158793907
 10
0.1313306964315694
 20
-2.739359158793907
 10
2.092261083261797
 20
-2.739359158793907
 10
2.092261083261797
 20
-2.739359158793907
 10
2.129471757895771
 20
-2.739359158793907
 10
2.159636969786636
 20
-2.769524370684747
 10
2.159636969786636
 20
-2.806735045318747
 10
2.159636969786636
 20
-2.806735045318747
 10
2.159636969786636
 20
-3.055260047281308
 10
2.159636969786636
 20
-3.055260047281308
 10
2.159636969786636
 20
-3.092470721915308
 10
2.129471757895771
 20
-3.122635933806147
 10
2.092261083261797
 20
-3.122635933806147
 97
        0
 97
        1
330
83
 75
     2
 76
     1
 98
        1
 10
0.0
 20
0.0
450
        0
451
        0
460
0.0
461
0.0
452
        0
462
0.0
453
        0
470

  0
INSERT
  5
86
330
70
100
AcDbEntity
  8
Layer 9
100
AcDbBlockReference
  2
Block_0
 10
0.0
 20
0.0
 30
0.0
  0
INSERT
  5
9F
330
70
100
AcDbEntity
  8
Layer 9
100
AcDbBlockReference
  2
Block_1
 10
0.0
 20
0.0
 30
0.0
  0
ENDSEC
  0
SECTION
  2
OBJECTS
  0
DICTIONARY
  5
C
330
0
100
AcDbDictionary
281
     1
  3
ACAD_COLOR
350
63
  3
ACAD_DETAILVIEWSTYLE
350
6A
  3
ACAD_GROUP
350
D
  3
ACAD_LAYOUT
350
62
  3
ACAD_MATERIAL
350
10
  3
ACAD_MLEADERSTYLE
350
66
  3
ACAD_MLINESTYLE
350
5F
  3
ACAD_PLOTSETTINGS
350
61
  3
ACAD_PLOTSTYLENAME
350
E
  3
ACAD_SCALELIST
350
42
  3
ACAD_SECTIONVIEWSTYLE
350
68
  3
ACAD_TABLESTYLE
350
64
  3
ACAD_VISUALSTYLE
350
29
  3
ACDB_RECOMPOSE_DATA
350
AC
  3
AcDbVariableDictionary
350
A4
  0
DICTIONARY
  5
63
102
{ACAD_REACTORS
330
C
102
}
330
C
100
AcDbDictionary
281
     1
  0
DICTIONARY
  5
6A
102
{ACAD_REACTORS
330
C
102
}
330
C
100
AcDbDictionary
281
     1
  3
Imperial24
350
6B
  0
DICTIONARY
  5
D
102
{ACAD_REACTORS
330
C
102
}
330
C
100
AcDbDictionary
281
     1
  0
DICTIONARY
  5
62
102
{ACAD_REACTORS
330
C
102
}
330
C
100
AcDbDictionary
281
     1
  3
Layout1
350
6F
  3
Layout2
350
77
  3
Model
350
73
  0
DICTIONARY
  5
10
102
{ACAD_REACTORS
330
C
102
}
330
C
100
AcDbDictionary
281
     1
  3
ByBlock
350
19
  3
ByLayer
350
11
  3
Global
350
21
  0
DICTIONARY
  5
66
102
{ACAD_REACTORS
330
C
102
}
330
C
100
AcDbDictionary
281
     1
  3
Standard
350
67
  0
DICTIONARY
  5
5F
102
{ACAD_REACTORS
330
C
102
}
330
C
100
AcDbDictionary
281
     1
  3
Standard
350
60
  0
DICTIONARY
  5
61
102
{ACAD_REACTORS
330
C
102
}
330
C
100
AcDbDictionary
281
     1
  0
ACDBDICTIONARYWDFLT
  5
E
102
{ACAD_REACTORS
330
C
102
}
330
C
100
AcDbDictionary
281
     1
  3
Normal
350
F
100
AcDbDictionaryWithDefault
340
F
  0
DICTIONARY
  5
42
102
{ACAD_REACTORS
330
C
102
}
330
C
100
AcDbDictionary
281
     1
  3
A0
350
43
  3
A1
350
44
  3
A2
350
45
  3
A3
350
46
  3
A4
350
47
  3
A5
350
48
  3
A6
350
49
  3
A7
350
4A
  3
A8
350
4B
  3
A9
350
4C
  3
B0
350
4D
  3
B1
350
4E
  3
B2
350
4F
  3
B3
350
50
  3
B4
350
51
  3
B5
350
52
  3
B6
350
53
  0
DICTIONARY
  5
68
102
{ACAD_REACTORS
330
C
102
}
330
C
100
AcDbDictionary
281
     1
  3
Imperial24
350
69
  0
DICTIONARY
  5
64
102
{ACAD_REACTORS
330
C
102
}
330
C
100
AcDbDictionary
281
     1
  3
Standard
350
65
  0
DICTIONARY
  5
29
102
{ACAD_REACTORS
330
C
102
}
330
C
100
AcDbDictionary
281
     1
  3
2dWireframe
350
2F
  3
Basic
350
2E
  3
Brighten
350
35
  3
ColorChange
350
39
  3
Conceptual
350
32
  3
Dim
350
34
  3
EdgeColorOff
350
41
  3
Facepattern
350
38
  3
Flat
350
2A
  3
FlatWithEdges
350
2B
  3
Gouraud
350
2C
  3
GouraudWithEdges
350
2D
  3
Hidden
350
31
  3
JitterOff
350
3F
  3
Linepattern
350
37
  3
OverhangOff
350
40
  3
Realistic
350
33
  3
Shaded
350
3E
  3
Shaded with edges
350
3D
  3
Shades of Gray
350
3A
  3
Sketchy
350
3B
  3
Thicken
350
36
  3
Wireframe
350
30
  3
X-Ray
350
3C
  0
XRECORD
  5
AC
102
{ACAD_REACTORS
330
C
102
}
330
C
100
AcDbXrecord
280
     1
 90
        1
330
65
  0
DICTIONARY
  5
A4
102
{ACAD_REACTORS
330
C
102
}
330
C
100
AcDbDictionary
281
     1
  3
CANNOSCALE
350
A9
  3
CMLEADERSTYLE
350
A6
  3
CTABLESTYLE
350
A5
  3
CVIEWDETAILSTYLE
350
A7
  3
CVIEWSECTIONSTYLE
350
A8
  0
ACDBDETAILVIEWSTYLE
  5
6B
102
{ACAD_REACTORS
330
6A
102
}
330
6A
100
AcDbModelDocViewStyle
 70
     0
  3
Imperial24
290
     1
300
Imperial24
 90
        0
100
AcDbDetailViewStyle
 70
     0
 71
     0
 90
        3
 71
     1
340
55
 62
   256
 40
0.24
340
0
 62
   256
 40
0.24
300

 40
0.36
280
     3
 71
     2
340
5D
 90
       25
 62
   256
 71
     3
340
55
 62
   256
 40
0.24
 90
        1
 40
0.75
 90
        1
300
%<\AcVar ViewType \f "%tc1">% %<\AcVar ViewDetailId>%\PSCALE %<\AcVar ViewScale \f "%sn">%
 71
     4
340
5D
 90
       25
 62
   256
340
5D
 90
       25
 62
   256
280
     0
  0
LAYOUT
  5
6F
102
{ACAD_REACTORS
330
62
102
}
330
62
100
AcDbPlotSettings
  1

  2

  4

  6

 40
0.0
 41
0.0
 42
0.0
 43
0.0
 44
0.0
 45
0.0
 46
0.0
 47
0.0
 48
0.0
 49
0.0
140
0.0
141
0.0
142
1.0
143
1.0
 70
   688
 72
     0
 73
     0
 74
     5
  7

 75
    16
147
1.0
 76
     0
 77
     2
 78
   300
148
0.0
149
0.0
100
AcDbLayout
  1
Layout1
 70
     1
 71
     1
 10
0.0
 20
0.0
 11
12.0
 21
9.0
 12
0.0
 22
0.0
 32
0.0
 14
0.0
 24
0.0
 34
0.0
 15
0.0
 25
0.0
 35
0.0
146
0.0
 13
0.0
 23
0.0
 33
0.0
 16
1.0
 26
0.0
 36
0.0
 17
0.0
 27
1.0
 37
0.0
 76
     0
330
6C
  0
LAYOUT
  5
77
102
{ACAD_REACTORS
330
62
102
}
330
62
100
AcDbPlotSettings
  1

  2

  4

  6

 40
0.0
 41
0.0
 42
0.0
 43
0.0
 44
0.0
 45
0.0
 46
0.0
 47
0.0
 48
0.0
 49
0.0
140
0.0
141
0.0
142
1.0
143
1.0
 70
   688
 72
     0
 73
     0
 74
     5
  7

 75
    16
147
1.0
 76
     0
 77
     2
 78
   300
148
0.0
149
0.0
100
AcDbLayout
  1
Layout2
 70
     1
 71
     2
 10
0.0
 20
0.0
 11
12.0
 21
9.0
 12
0.0
 22
0.0
 32
0.0
 14
0.0
 24
0.0
 34
0.0
 15
0.0
 25
0.0
 35
0.0
146
0.0
 13
0.0
 23
0.0
 33
0.0
 16
1.0
 26
0.0
 36
0.0
 17
0.0
 27
1.0
 37
0.0
 76
     0
330
74
  0
LAYOUT
  5
73
102
{ACAD_REACTORS
330
62
102
}
330
62
100
AcDbPlotSettings
  1

  2

  4

  6

 40
0.0
 41
0.0
 42
0.0
 43
0.0
 44
0.0
 45
0.0
 46
0.0
 47
0.0
 48
0.0
 49
0.0
140
0.0
141
0.0
142
1.0
143
1.0
 70
  1712
 72
     0
 73
     0
 74
     0
  7

 75
     0
147
1.0
 76
     0
 77
     2
 78
   300
148
0.0
149
0.0
100
AcDbLayout
  1
Model
 70
     1
 71
     0
 10
0.0
 20
0.0
 11
12.0
 21
9.0
 12
0.0
 22
0.0
 32
0.0
 14
0.0
 24
0.0
 34
0.0
 15
0.0
 25
0.0
 35
0.0
146
0.0
 13
0.0
 23
0.0
 33
0.0
 16
1.0
 26
0.0
 36
0.0
 17
0.0
 27
1.0
 37
0.0
 76
     0
330
70
  0
MATERIAL
  5
19
102
{ACAD_XDICTIONARY
360
1A
102
}
102
{ACAD_REACTORS
330
10
102
}
330
10
100
AcDbMaterial
  1
ByBlock
 72
     0
 43
0.0208333333333333
 43
0.0
 43
0.0
 43
0.0
 43
0.0
 43
0.0208333333333333
 43
0.0
 43
0.0
 43
0.0
 43
0.0
 43
1.0
 43
0.0
 43
0.0
 43
0.0
 43
0.0
 43
1.0
 77
     0
 47
0.0208333333333333
 47
0.0
 47
0.0
 47
0.0
 47
0.0
 47
0.0208333333333333
 47
0.0
 47
0.0
 47
0.0
 47
0.0
 47
1.0
 47
0.0
 47
0.0
 47
0.0
 47
0.0
 47
1.0
171
     0
 49
0.0208333333333333
 49
0.0
 49
0.0
 49
0.0
 49
0.0
 49
0.0208333333333333
 49
0.0
 49
0.0
 49
0.0
 49
0.0
 49
1.0
 49
0.0
 49
0.0
 49
0.0
 49
0.0
 49
1.0
175
     0
142
0.0208333333333333
142
0.0
142
0.0
142
0.0
142
0.0
142
0.0208333333333333
142
0.0
142
0.0
142
0.0
142
0.0
142
1.0
142
0.0
142
0.0
142
0.0
142
0.0
142
1.0
179
     0
144
0.0208333333333333
144
0.0
144
0.0
144
0.0
144
0.0
144
0.0208333333333333
144
0.0
144
0.0
144
0.0
144
0.0
144
1.0
144
0.0
144
0.0
144
0.0
144
0.0
144
1.0
147
0.0208333333333333
147
0.0
147
0.0
147
0.0
147
0.0
147
0.0208333333333333
147
0.0
147
0.0
147
0.0
147
0.0
147
1.0
147
0.0
147
0.0
147
0.0
147
0.0
147
1.0
  0
MATERIAL
  5
11
102
{ACAD_XDICTIONARY
360
12
102
}
102
{ACAD_REACTORS
330
10
102
}
330
10
100
AcDbMaterial
  1
ByLayer
 72
     0
 43
0.0208333333333333
 43
0.0
 43
0.0
 43
0.0
 43
0.0
 43
0.0208333333333333
 43
0.0
 43
0.0
 43
0.0
 43
0.0
 43
1.0
 43
0.0
 43
0.0
 43
0.0
 43
0.0
 43
1.0
 77
     0
 47
0.0208333333333333
 47
0.0
 47
0.0
 47
0.0
 47
0.0
 47
0.0208333333333333
 47
0.0
 47
0.0
 47
0.0
 47
0.0
 47
1.0
 47
0.0
 47
0.0
 47
0.0
 47
0.0
 47
1.0
171
     0
 49
0.0208333333333333
 49
0.0
 49
0.0
 49
0.0
 49
0.0
 49
0.0208333333333333
 49
0.0
 49
0.0
 49
0.0
 49
0.0
 49
1.0
 49
0.0
 49
0.0
 49
0.0
 49
0.0
 49
1.0
175
     0
142
0.0208333333333333
142
0.0
142
0.0
142
0.0
142
0.0
142
0.0208333333333333
142
0.0
142
0.0
142
0.0
142
0.0
142
1.0
142
0.0
142
0.0
142
0.0
142
0.0
142
1.0
179
     0
144
0.0208333333333333
144
0.0
144
0.0
144
0.0
144
0.0
144
0.0208333333333333
144
0.0
144
0.0
144
0.0
144
0.0
144
1.0
144
0.0
144
0.0
144
0.0
144
0.0
144
1.0
147
0.0208333333333333
147
0.0
147
0.0
147
0.0
147
0.0
147
0.0208333333333333
147
0.0
147
0.0
147
0.0
147
0.0
147
1.0
147
0.0
147
0.0
147
0.0
147
0.0
147
1.0
  0
MATERIAL
  5
21
102
{ACAD_XDICTIONARY
360
22
102
}
102
{ACAD_REACTORS
330
10
102
}
330
10
100
AcDbMaterial
  1
Global
 72
     0
 43
0.0208333333333333
 43
0.0
 43
0.0
 43
0.0
 43
0.0
 43
0.0208333333333333
 43
0.0
 43
0.0
 43
0.0
 43
0.0
 43
1.0
 43
0.0
 43
0.0
 43
0.0
 43
0.0
 43
1.0
 77
     0
 47
0.0208333333333333
 47
0.0
 47
0.0
 47
0.0
 47
0.0
 47
0.0208333333333333
 47
0.0
 47
0.0
 47
0.0
 47
0.0
 47
1.0
 47
0.0
 47
0.0
 47
0.0
 47
0.0
 47
1.0
171
     0
 49
0.0208333333333333
 49
0.0
 49
0.0
 49
0.0
 49
0.0
 49
0.0208333333333333
 49
0.0
 49
0.0
 49
0.0
 49
0.0
 49
1.0
 49
0.0
 49
0.0
 49
0.0
 49
0.0
 49
1.0
175
     0
142
0.0208333333333333
142
0.0
142
0.0
142
0.0
142
0.0
142
0.0208333333333333
142
0.0
142
0.0
142
0.0
142
0.0
142
1.0
142
0.0
142
0.0
142
0.0
142
0.0
142
1.0
179
     0
144
0.0208333333333333
144
0.0
144
0.0
144
0.0
144
0.0
144
0.0208333333333333
144
0.0
144
0.0
144
0.0
144
0.0
144
1.0
144
0.0
144
0.0
144
0.0
144
0.0
144
1.0
147
0.0208333333333333
147
0.0
147
0.0
147
0.0
147
0.0
147
0.0208333333333333
147
0.0
147
0.0
147
0.0
147
0.0
147
1.0
147
0.0
147
0.0
147
0.0
147
0.0
147
1.0
  0
MLEADERSTYLE
  5
67
102
{ACAD_REACTORS
330
66
102
}
330
66
100
AcDbMLeaderStyle
179
     2
170
     2
171
     1
172
     0
 90
        2
 40
0.0
 41
0.0
173
     1
 91
-1056964608
340
5B
 92
       -2
290
     1
 42
0.09
291
     1
 43
0.36
  3
Standard
 44
0.18
300

342
55
174
     1
178
     6
175
     1
176
     0
 93
-1056964608
 45
0.18
292
     0
297
     0
 46
0.18
 94
-1056964608
 47
1.0
 49
1.0
140
1.0
293
     1
141
0.0
294
     1
177
     0
142
1.0
295
     1
296
     0
143
0.125
271
     0
272
     9
273
     9
298
     1
  0
MLINESTYLE
  5
60
102
{ACAD_REACTORS
330
5F
102
}
330
5F
100
AcDbMlineStyle
  2
STANDARD
 70
     0
  3

 62
   256
 51
90.0
 52
90.0
 71
     2
 49
0.5
 62
   256
  6
BYLAYER
 49
-0.5
 62
   256
  6
BYLAYER
  0
ACDBPLACEHOLDER
  5
F
102
{ACAD_REACTORS
330
E
102
}
330
E
  0
SCALE
  5
43
102
{ACAD_REACTORS
330
42
102
}
330
42
100
AcDbScale
 70
     0
300
1:1
140
1.0
141
1.0
290
     1
  0
SCALE
  5
44
102
{ACAD_REACTORS
330
42
102
}
330
42
100
AcDbScale
 70
     0
300
1/128" = 1'-0"
140
0.0078125
141
12.0
290
     0
  0
SCALE
  5
45
102
{ACAD_REACTORS
330
42
102
}
330
42
100
AcDbScale
 70
     0
300
1/64" = 1'-0"
140
0.015625
141
12.0
290
     0
  0
SCALE
  5
46
102
{ACAD_REACTORS
330
42
102
}
330
42
100
AcDbScale
 70
     0
300
1/32" = 1'-0"
140
0.03125
141
12.0
290
     0
  0
SCALE
  5
47
102
{ACAD_REACTORS
330
42
102
}
330
42
100
AcDbScale
 70
     0
300
1/16" = 1'-0"
140
0.0625
141
12.0
290
     0
  0
SCALE
  5
48
102
{ACAD_REACTORS
330
42
102
}
330
42
100
AcDbScale
 70
     0
300
3/32" = 1'-0"
140
0.09375
141
12.0
290
     0
  0
SCALE
  5
49
102
{ACAD_REACTORS
330
42
102
}
330
42
100
AcDbScale
 70
     0
300
1/8" = 1'-0"
140
0.125
141
12.0
290
     0
  0
SCALE
  5
4A
102
{ACAD_REACTORS
330
42
102
}
330
42
100
AcDbScale
 70
     0
300
3/16" = 1'-0"
140
0.1875
141
12.0
290
     0
  0
SCALE
  5
4B
102
{ACAD_REACTORS
330
42
102
}
330
42
100
AcDbScale
 70
     0
300
1/4" = 1'-0"
140
0.25
141
12.0
290
     0
  0
SCALE
  5
4C
102
{ACAD_REACTORS
330
42
102
}
330
42
100
AcDbScale
 70
     0
300
3/8" = 1'-0"
140
0.375
141
12.0
290
     0
  0
SCALE
  5
4D
102
{ACAD_REACTORS
330
42
102
}
330
42
100
AcDbScale
 70
     0
300
1/2" = 1'-0"
140
0.5
141
12.0
290
     0
  0
SCALE
  5
4E
102
{ACAD_REACTORS
330
42
102
}
330
42
100
AcDbScale
 70
     0
300
3/4" = 1'-0"
140
0.75
141
12.0
290
     0
  0
SCALE
  5
4F
102
{ACAD_REACTORS
330
42
102
}
330
42
100
AcDbScale
 70
     0
300
1" = 1'-0"
140
1.0
141
12.0
290
     0
  0
SCALE
  5
50
102
{ACAD_REACTORS
330
42
102
}
330
42
100
AcDbScale
 70
     0
300
1-1/2" = 1'-0"
140
1.5
141
12.0
290
     0
  0
SCALE
  5
51
102
{ACAD_REACTORS
330
42
102
}
330
42
100
AcDbScale
 70
     0
300
3" = 1'-0"
140
3.0
141
12.0
290
     0
  0
SCALE
  5
52
102
{ACAD_REACTORS
330
42
102
}
330
42
100
AcDbScale
 70
     0
300
6" = 1'-0"
140
6.0
141
12.0
290
     0
  0
SCALE
  5
53
102
{ACAD_REACTORS
330
42
102
}
330
42
100
AcDbScale
 70
     0
300
1'-0" = 1'-0"
140
12.0
141
12.0
290
     0
  0
ACDBSECTIONVIEWSTYLE
  5
69
102
{ACAD_REACTORS
330
68
102
}
330
68
100
AcDbModelDocViewStyle
 70
     0
  3
Imperial24
290
     1
300
Imperial24
 90
        0
100
AcDbSectionViewStyle
 70
     0
 71
     0
 90
       78
 71
     1
340
55
 62
   256
 40
0.24
340
0
340
0
 62
   256
 40
0.24
300
I, O, Q, S, X, Z
 40
0.48
 90
        3
 40
0.18
 90
        1
 71
     2
340
5D
 90
       25
 62
   256
340
5D
 90
       50
 62
   256
 40
0.24
 40
0.0
 40
0.24
 71
     3
340
55
 62
   256
 40
0.24
 90
        1
 40
0.75
 90
        1
300
%<\AcVar ViewType \f "%tc1">% %<\AcVar ViewSectionStartId>%-%<\AcVar ViewSectionEndId>%\PSCALE %<\AcVar ViewScale \f "%sn">%
 71
     4
 62
   256
 62
   257
300
ANSI31
 40
1.0
 90
        0
290
     0
290
     0
 90
        6
 40
0.0
 40
1.570796326794896
 40
0.2617993877991494
 40
1.308996938995747
 40
-0.2617993877991494
 40
1.832595714594046
  0
TABLESTYLE
  5
65
102
{ACAD_XDICTIONARY
360
AA
102
}
102
{ACAD_REACTORS
330
64
102
}
330
64
100
AcDbTableStyle
280
     0
  3
Standard
 70
     0
 71
     0
 40
0.06
 41
0.06
280
     0
281
     0
  7
Standard
140
0.18
170
     2
 62
     0
 63
     7
283
     0
 90
      512
 91
        0
  1

274
    -2
284
     1
 64
     0
275
    -2
285
     1
 65
     0
276
    -2
286
     1
 66
     0
277
    -2
287
     1
 67
     0
278
    -2
288
     1
 68
     0
279
    -2
289
     1
 69
     0
  7
Standard
140
0.25
170
     5
 62
     0
 63
     7
283
     0
 90
      512
 91
        0
  1

274
    -2
284
     1
 64
     0
275
    -2
285
     1
 65
     0
276
    -2
286
     1
 66
     0
277
    -2
287
     1
 67
     0
278
    -2
288
     1
 68
     0
279
    -2
289
     1
 69
     0
  7
Standard
140
0.18
170
     5
 62
     0
 63
     7
283
     0
 90
      512
 91
        0
  1

274
    -2
284
     1
 64
     0
275
    -2
285
     1
 65
     0
276
    -2
286
     1
 66
     0
277
    -2
287
     1
 67
     0
278
    -2
288
     1
 68
     0
279
    -2
289
     1
 69
     0
  0
VISUALSTYLE
  5
2F
102
{ACAD_REACTORS
330
29
102
}
330
29
100
AcDbVisualStyle
  2
2dWireframe
 70
     4
177
     3
291
     0
 70
    58
 90
        0
176
     1
 90
        2
176
     1
 90
        0
176
     1
 90
        0
176
     1
 40
0.6
176
     1
 40
30.0
176
     1
 62
     7
420
 16777215
176
     1
 90
        1
176
     1
 90
        4
176
     1
 62
     7
176
     1
 62
   257
176
     1
 90
        1
176
     1
 90
        1
176
     1
 40
1.0
176
     1
 90
        0
176
     1
 62
   257
176
     1
 40
1.0
176
     1
 90
        1
176
     1
 90
        6
176
     1
 90
        2
176
     1
 62
     7
176
     1
 90
        5
176
     1
 90
        0
176
     1
 90
        0
176
     1
290
     0
176
     1
 90
        1
176
     1
 40
0.0
176
     1
 90
        0
176
     1
290
     1
176
     1
290
     1
176
     1
290
     0
176
     1
290
     0
176
     1
290
     0
176
     1
290
     0
176
     1
290
     0
176
     1
290
     0
176
     1
290
     0
176
     1
 90
       50
176
     1
 40
0.0
176
     1
 40
1.0
176
     1
 90
        0
176
     1
 62
    18
420
        0
176
     1
 90
       50
176
     1
 90
        3
176
     1
 62
     5
420
      255
176
     1
290
     0
176
     1
 90
       50
176
     1
 90
       50
176
     1
 90
       50
176
     1
290
     0
176
     1
 90
       50
176
     1
 62
   256
176
     0
 40
1.0
176
     0
 90
        2
176
     1
  1
strokes_ogs.tif
176
     1
290
     0
176
     1
 40
1.0
176
     1
 40
1.0
176
     1
  0
VISUALSTYLE
  5
2E
102
{ACAD_REACTORS
330
29
102
}
330
29
100
AcDbVisualStyle
  2
Basic
 70
     7
177
     3
291
     1
 70
    58
 90
        1
176
     1
 90
        0
176
     1
 90
        1
176
     1
 90
        0
176
     1
 40
0.6
176
     1
 40
30.0
176
     1
 62
     7
420
 16777215
176
     1
 90
        0
176
     1
 90
        4
176
     1
 62
     7
176
     1
 62
   257
176
     1
 90
        1
176
     1
 90
        1
176
     1
 40
1.0
176
     1
 90
        8
176
     1
 62
     7
176
     1
 40
1.0
176
     1
 90
        1
176
     1
 90
        6
176
     1
 90
        2
176
     1
 62
     7
176
     1
 90
        5
176
     1
 90
        0
176
     1
 90
        0
176
     1
290
     0
176
     1
 90
        1
176
     1
 40
0.0
176
     1
 90
        0
176
     1
290
     0
176
     1
290
     1
176
     1
290
     1
176
     1
290
     0
176
     1
290
     0
176
     1
290
     0
176
     1
290
     0
176
     1
290
     0
176
     1
290
     0
176
     1
 90
       50
176
     1
 40
0.0
176
     1
 40
1.0
176
     1
 90
        0
176
     1
 62
    18
420
        0
176
     1
 90
       50
176
     1
 90
        3
176
     1
 62
     5
420
      255
176
     1
290
     0
176
     1
 90
       50
176
     1
 90
       50
176
     1
 90
       50
176
     1
290
     0
176
     1
 90
       50
176
     1
 62
   256
176
     0
 40
1.0
176
     0
 90
        2
176
     1
  1
strokes_ogs.tif
176
     1
290
     0
176
     1
 40
1.0
176
     1
 40
1.0
176
     1
  0
VISUALSTYLE
  5
35
102
{ACAD_REACTORS
330
29
102
}
330
29
100
AcDbVisualStyle
  2
Brighten
 70
    12
177
     3
291
     1
 70
    58
 90
        2
176
     1
 90
        2
176
     1
 90
        0
176
     1
 90
        0
176
     1
 40
0.6
176
     1
 40
30.0
176
     1
 62
     7
420
 16777215
176
     1
 90
        1
176
     1
 90
        4
176
     1
 62
     7
176
     1
 62
   257
176
     1
 90
        1
176
     1
 90
        1
176
     1
 40
1.0
176
     1
 90
        8
176
     1
 62
     7
176
     1
 40
1.0
176
     1
 90
        1
176
     1
 90
        6
176
     1
 90
        2
176
     1
 62
     7
176
     1
 90
        5
176
     1
 90
        0
176
     1
 90
        0
176
     1
290
     0
176
     1
 90
        1
176
     1
 40
50.0
176
     1
 90
        0
176
     1
290
     0
176
     1
290
     1
176
     1
290
     1
176
     1
290
     0
176
     1
290
     0
176
     1
290
     0
176
     1
290
     0
176
     1
290
     0
176
     1
290
     0
176
     1
 90
       50
176
     1
 40
0.0
176
     1
 40
1.0
176
     1
 90
        0
176
     1
 62
    18
420
        0
176
     1
 90
       50
176
     1
 90
        3
176
     1
 62
     5
420
      255
176
     1
290
     0
176
     1
 90
       50
176
     1
 90
       50
176
     1
 90
       50
176
     1
290
     0
176
     1
 90
       50
176
     1
 62
   256
176
     0
 40
1.0
176
     0
 90
        2
176
     1
  1
strokes_ogs.tif
176
     1
290
     0
176
     1
 40
1.0
176
     1
 40
1.0
176
     1
  0
VISUALSTYLE
  5
39
102
{ACAD_REACTORS
330
29
102
}
330
29
100
AcDbVisualStyle
  2
ColorChange
 70
    16
177
     3
291
     1
 70
    58
 90
        2
176
     1
 90
        2
176
     1
 90
        3
176
     1
 90
        0
176
     1
 40
0.6
176
     1
 40
30.0
176
     1
 62
     8
420
  8421504
176
     1
 90
        1
176
     1
 90
        4
176
     1
 62
     7
176
     1
 62
   257
176
     1
 90
        1
176
     1
 90
        1
176
     1
 40
1.0
176
     1
 90
        8
176
     1
 62
     8
420
  8421504
176
     1
 40
1.0
176
     1
 90
        1
176
     1
 90
        6
176
     1
 90
        2
176
     1
 62
     7
176
     1
 90
        5
176
     1
 90
        0
176
     1
 90
        0
176
     1
290
     0
176
     1
 90
        1
176
     1
 40
0.0
176
     1
 90
        0
176
     1
290
     0
176
     1
290
     1
176
     1
290
     1
176
     1
290
     0
176
     1
290
     0
176
     1
290
     0
176
     1
290
     0
176
     1
290
     0
176
     1
290
     0
176
     1
 90
       50
176
     1
 40
0.0
176
     1
 40
1.0
176
     1
 90
        0
176
     1
 62
    18
420
        0
176
     1
 90
       50
176
     1
 90
        3
176
     1
 62
     5
420
      255
176
     1
290
     0
176
     1
 90
       50
176
     1
 90
       50
176
     1
 90
       50
176
     1
290
     0
176
     1
 90
       50
176
     1
 62
   256
176
     0
 40
1.0
176
     0
 90
        2
176
     1
  1
strokes_ogs.tif
176
     1
290
     0
176
     1
 40
1.0
176
     1
 40
1.0
176
     1
  0
VISUALSTYLE
  5
32
102
{ACAD_REACTORS
330
29
102
}
330
29
100
AcDbVisualStyle
  2
Conceptual
 70
     9
177
     3
291
     0
 70
    58
 90
        3
176
     1
 90
        2
176
     1
 90
        0
176
     1
 90
        0
176
     1
 40
0.6
176
     1
 40
30.0
176
     1
 62
     7
420
 16777215
176
     1
 90
        2
176
     1
 90
        2
176
     1
 62
     7
176
     1
 62
   257
176
     1
 90
        1
176
     1
 90
        1
176
     1
 40
179.0
176
     1
 90
        8
176
     1
 62
     7
176
     1
 40
1.0
176
     1
 90
        1
176
     1
 90
        6
176
     1
 90
        2
176
     1
 62
     7
176
     1
 90
        3
176
     1
 90
        0
176
     1
 90
        0
176
     1
290
     0
176
     1
 90
        1
176
     1
 40
0.0
176
     1
 90
        0
176
     1
290
     0
176
     1
290
     1
176
     1
290
     1
176
     1
290
     0
176
     1
290
     0
176
     1
290
     0
176
     1
290
     0
176
     1
290
     0
176
     1
290
     0
176
     1
 90
       50
176
     1
 40
0.0
176
     1
 40
1.0
176
     1
 90
        0
176
     1
 62
    18
420
        0
176
     1
 90
       50
176
     1
 90
        3
176
     1
 62
     5
420
      255
176
     1
290
     0
176
     1
 90
       50
176
     1
 90
       50
176
     1
 90
       50
176
     1
290
     0
176
     1
 90
       50
176
     1
 62
   256
176
     0
 40
1.0
176
     0
 90
        2
176
     1
  1
strokes_ogs.tif
176
     1
290
     0
176
     1
 40
1.0
176
     1
 40
1.0
176
     1
  0
VISUALSTYLE
  5
34
102
{ACAD_REACTORS
330
29
102
}
330
29
100
AcDbVisualStyle
  2
Dim
 70
    11
177
     3
291
     1
 70
    58
 90
        2
176
     1
 90
        2
176
     1
 90
        0
176
     1
 90
        0
176
     1
 40
0.6
176
     1
 40
30.0
176
     1
 62
     7
420
 16777215
176
     1
 90
        1
176
     1
 90
        4
176
     1
 62
     7
176
     1
 62
   257
176
     1
 90
        1
176
     1
 90
        1
176
     1
 40
1.0
176
     1
 90
        8
176
     1
 62
     7
176
     1
 40
1.0
176
     1
 90
        1
176
     1
 90
        6
176
     1
 90
        2
176
     1
 62
     7
176
     1
 90
        5
176
     1
 90
        0
176
     1
 90
        0
176
     1
290
     0
176
     1
 90
        1
176
     1
 40
-50.0
176
     1
 90
        0
176
     1
290
     0
176
     1
290
     1
176
     1
290
     1
176
     1
290
     0
176
     1
290
     0
176
     1
290
     0
176
     1
290
     0
176
     1
290
     0
176
     1
290
     0
176
     1
 90
       50
176
     1
 40
0.0
176
     1
 40
1.0
176
     1
 90
        0
176
     1
 62
    18
420
        0
176
     1
 90
       50
176
     1
 90
        3
176
     1
 62
     5
420
      255
176
     1
290
     0
176
     1
 90
       50
176
     1
 90
       50
176
     1
 90
       50
176
     1
290
     0
176
     1
 90
       50
176
     1
 62
   256
176
     0
 40
1.0
176
     0
 90
        2
176
     1
  1
strokes_ogs.tif
176
     1
290
     0
176
     1
 40
1.0
176
     1
 40
1.0
176
     1
  0
VISUALSTYLE
  5
41
102
{ACAD_REACTORS
330
29
102
}
330
29
100
AcDbVisualStyle
  2
EdgeColorOff
 70
    22
177
     3
291
     1
 70
    58
 90
        2
176
     0
 90
        2
176
     0
 90
        0
176
     0
 90
        0
176
     0
 40
0.6
176
     0
 40
30.0
176
     0
 62
     7
420
 16777215
176
     0
 90
        1
176
     0
 90
        4
176
     0
 62
     7
176
     0
 62
   257
176
     0
 90
        1
176
     0
 90
        1
176
     0
 40
1.0
176
     0
 90
        8
176
     2
 62
     7
176
     0
 40
1.0
176
     0
 90
        1
176
     0
 90
        6
176
     0
 90
        2
176
     0
 62
     7
176
     0
 90
        5
176
     0
 90
        0
176
     0
 90
        0
176
     0
290
     0
176
     0
 90
        1
176
     0
 40
0.0
176
     0
 90
        0
176
     0
290
     0
176
     0
290
     1
176
     0
290
     1
176
     0
290
     0
176
     0
290
     0
176
     0
290
     0
176
     0
290
     0
176
     0
290
     0
176
     0
290
     0
176
     0
 90
       50
176
     0
 40
0.0
176
     0
 40
1.0
176
     0
 90
        0
176
     0
 62
    18
420
        0
176
     0
 90
       50
176
     0
 90
        3
176
     0
 62
     5
420
      255
176
     0
290
     0
176
     0
 90
       50
176
     0
 90
       50
176
     0
 90
       50
176
     0
290
     0
176
     0
 90
       50
176
     0
 62
   256
176
     0
 40
1.0
176
     0
 90
        2
176
     0
  1
strokes_ogs.tif
176
     0
290
     0
176
     0
 40
1.0
176
     0
 40
1.0
176
     0
  0
VISUALSTYLE
  5
38
102
{ACAD_REACTORS
330
29
102
}
330
29
100
AcDbVisualStyle
  2
Facepattern
 70
    15
177
     3
291
     1
 70
    58
 90
        2
176
     1
 90
        2
176
     1
 90
        0
176
     1
 90
        0
176
     1
 40
0.6
176
     1
 40
30.0
176
     1
 62
     7
420
 16777215
176
     1
 90
        1
176
     1
 90
        4
176
     1
 62
     7
176
     1
 62
   257
176
     1
 90
        1
176
     1
 90
        1
176
     1
 40
1.0
176
     1
 90
        8
176
     1
 62
     7
176
     1
 40
1.0
176
     1
 90
        1
176
     1
 90
        6
176
     1
 90
        2
176
     1
 62
     7
176
     1
 90
        5
176
     1
 90
        0
176
     1
 90
        0
176
     1
290
     0
176
     1
 90
        1
176
     1
 40
0.0
176
     1
 90
        0
176
     1
290
     0
176
     1
290
     1
176
     1
290
     1
176
     1
290
     0
176
     1
290
     0
176
     1
290
     0
176
     1
290
     0
176
     1
290
     0
176
     1
290
     0
176
     1
 90
       50
176
     1
 40
0.0
176
     1
 40
1.0
176
     1
 90
        0
176
     1
 62
    18
420
        0
176
     1
 90
       50
176
     1
 90
        3
176
     1
 62
     5
420
      255
176
     1
290
     0
176
     1
 90
       50
176
     1
 90
       50
176
     1
 90
       50
176
     1
290
     0
176
     1
 90
       50
176
     1
 62
   256
176
     0
 40
1.0
176
     0
 90
        2
176
     1
  1
strokes_ogs.tif
176
     1
290
     0
176
     1
 40
1.0
176
     1
 40
1.0
176
     1
  0
VISUALSTYLE
  5
2A
102
{ACAD_REACTORS
330
29
102
}
330
29
100
AcDbVisualStyle
  2
Flat
 70
     0
177
     3
291
     1
 70
    58
 90
        2
176
     1
 90
        1
176
     1
 90
        1
176
     1
 90
        2
176
     1
 40
0.6
176
     1
 40
30.0
176
     1
 62
     7
420
 16777215
176
     1
 90
        0
176
     1
 90
        0
176
     1
 62
     7
176
     1
 62
   257
176
     1
 90
        1
176
     1
 90
        1
176
     1
 40
1.0
176
     1
 90
        8
176
     1
 62
     7
176
     1
 40
1.0
176
     1
 90
        1
176
     1
 90
        6
176
     1
 90
        2
176
     1
 62
     7
176
     1
 90
        5
176
     1
 90
        0
176
     1
 90
        0
176
     1
290
     0
176
     1
 90
       13
176
     1
 40
0.0
176
     1
 90
        0
176
     1
290
     0
176
     1
290
     1
176
     1
290
     1
176
     1
290
     0
176
     1
290
     0
176
     1
290
     0
176
     1
290
     0
176
     1
290
     0
176
     1
290
     0
176
     1
 90
       50
176
     1
 40
0.0
176
     1
 40
1.0
176
     1
 90
        0
176
     1
 62
    18
420
        0
176
     1
 90
       50
176
     1
 90
        3
176
     1
 62
     5
420
      255
176
     1
290
     0
176
     1
 90
       50
176
     1
 90
       50
176
     1
 90
       50
176
     1
290
     0
176
     1
 90
       50
176
     1
 62
   256
176
     0
 40
1.0
176
     0
 90
        2
176
     1
  1
strokes_ogs.tif
176
     1
290
     0
176
     1
 40
1.0
176
     1
 40
1.0
176
     1
  0
VISUALSTYLE
  5
2B
102
{ACAD_REACTORS
330
29
102
}
330
29
100
AcDbVisualStyle
  2
FlatWithEdges
 70
     1
177
     3
291
     1
 70
    58
 90
        2
176
     1
 90
        1
176
     1
 90
        1
176
     1
 90
        2
176
     1
 40
0.6
176
     1
 40
30.0
176
     1
 62
     7
420
 16777215
176
     1
 90
        1
176
     1
 90
        0
176
     1
 62
     7
176
     1
 62
   257
176
     1
 90
        1
176
     1
 90
        1
176
     1
 40
1.0
176
     1
 90
        0
176
     1
 62
   257
176
     1
 40
1.0
176
     1
 90
        1
176
     1
 90
        6
176
     1
 90
        2
176
     1
 62
     7
176
     1
 90
        5
176
     1
 90
        0
176
     1
 90
        0
176
     1
290
     0
176
     1
 90
       13
176
     1
 40
0.0
176
     1
 90
        0
176
     1
290
     0
176
     1
290
     1
176
     1
290
     1
176
     1
290
     0
176
     1
290
     0
176
     1
290
     0
176
     1
290
     0
176
     1
290
     0
176
     1
290
     0
176
     1
 90
       50
176
     1
 40
0.0
176
     1
 40
1.0
176
     1
 90
        0
176
     1
 62
    18
420
        0
176
     1
 90
       50
176
     1
 90
        3
176
     1
 62
     5
420
      255
176
     1
290
     0
176
     1
 90
       50
176
     1
 90
       50
176
     1
 90
       50
176
     1
290
     0
176
     1
 90
       50
176
     1
 62
   256
176
     0
 40
1.0
176
     0
 90
        2
176
     1
  1
strokes_ogs.tif
176
     1
290
     0
176
     1
 40
1.0
176
     1
 40
1.0
176
     1
  0
VISUALSTYLE
  5
2C
102
{ACAD_REACTORS
330
29
102
}
330
29
100
AcDbVisualStyle
  2
Gouraud
 70
     2
177
     3
291
     1
 70
    58
 90
        2
176
     1
 90
        2
176
     1
 90
        1
176
     1
 90
        2
176
     1
 40
0.6
176
     1
 40
30.0
176
     1
 62
     7
420
 16777215
176
     1
 90
        0
176
     1
 90
        0
176
     1
 62
     7
176
     1
 62
   257
176
     1
 90
        1
176
     1
 90
        1
176
     1
 40
1.0
176
     1
 90
        0
176
     1
 62
     7
176
     1
 40
1.0
176
     1
 90
        1
176
     1
 90
        6
176
     1
 90
        2
176
     1
 62
     7
176
     1
 90
        5
176
     1
 90
        0
176
     1
 90
        0
176
     1
290
     0
176
     1
 90
       13
176
     1
 40
0.0
176
     1
 90
        0
176
     1
290
     0
176
     1
290
     1
176
     1
290
     1
176
     1
290
     0
176
     1
290
     0
176
     1
290
     0
176
     1
290
     0
176
     1
290
     0
176
     1
290
     0
176
     1
 90
       50
176
     1
 40
0.0
176
     1
 40
1.0
176
     1
 90
        0
176
     1
 62
    18
420
        0
176
     1
 90
       50
176
     1
 90
        3
176
     1
 62
     5
420
      255
176
     1
290
     0
176
     1
 90
       50
176
     1
 90
       50
176
     1
 90
       50
176
     1
290
     0
176
     1
 90
       50
176
     1
 62
   256
176
     0
 40
1.0
176
     0
 90
        2
176
     1
  1
strokes_ogs.tif
176
     1
290
     0
176
     1
 40
1.0
176
     1
 40
1.0
176
     1
  0
VISUALSTYLE
  5
2D
102
{ACAD_REACTORS
330
29
102
}
330
29
100
AcDbVisualStyle
  2
GouraudWithEdges
 70
     3
177
     3
291
     1
 70
    58
 90
        2
176
     1
 90
        2
176
     1
 90
        1
176
     1
 90
        2
176
     1
 40
0.6
176
     1
 40
30.0
176
     1
 62
     7
420
 16777215
176
     1
 90
        1
176
     1
 90
        0
176
     1
 62
     7
176
     1
 62
   257
176
     1
 90
        1
176
     1
 90
        1
176
     1
 40
1.0
176
     1
 90
        0
176
     1
 62
   257
176
     1
 40
1.0
176
     1
 90
        1
176
     1
 90
        6
176
     1
 90
        2
176
     1
 62
     7
176
     1
 90
        5
176
     1
 90
        0
176
     1
 90
        0
176
     1
290
     0
176
     1
 90
       13
176
     1
 40
0.0
176
     1
 90
        0
176
     1
290
     0
176
     1
290
     1
176
     1
290
     1
176
     1
290
     0
176
     1
290
     0
176
     1
290
     0
176
     1
290
     0
176
     1
290
     0
176
     1
290
     0
176
     1
 90
       50
176
     1
 40
0.0
176
     1
 40
1.0
176
     1
 90
        0
176
     1
 62
    18
420
        0
176
     1
 90
       50
176
     1
 90
        3
176
     1
 62
     5
420
      255
176
     1
290
     0
176
     1
 90
       50
176
     1
 90
       50
176
     1
 90
       50
176
     1
290
     0
176
     1
 90
       50
176
     1
 62
   256
176
     0
 40
1.0
176
     0
 90
        2
176
     1
  1
strokes_ogs.tif
176
     1
290
     0
176
     1
 40
1.0
176
     1
 40
1.0
176
     1
  0
VISUALSTYLE
  5
31
102
{ACAD_REACTORS
330
29
102
}
330
29
100
AcDbVisualStyle
  2
Hidden
 70
     6
177
     3
291
     0
 70
    58
 90
        1
176
     1
 90
        2
176
     1
 90
        2
176
     1
 90
        0
176
     1
 40
0.6
176
     1
 40
30.0
176
     1
 62
     7
420
 16777215
176
     1
 90
        2
176
     1
 90
        2
176
     1
 62
     7
176
     1
 62
   257
176
     1
 90
        2
176
     1
 90
        1
176
     1
 40
40.0
176
     1
 90
        0
176
     1
 62
   257
176
     1
 40
1.0
176
     1
 90
        1
176
     1
 90
        6
176
     1
 90
        2
176
     1
 62
     7
176
     1
 90
        3
176
     1
 90
        0
176
     1
 90
        0
176
     1
290
     0
176
     1
 90
        1
176
     1
 40
0.0
176
     1
 90
        0
176
     1
290
     0
176
     1
290
     1
176
     1
290
     1
176
     1
290
     0
176
     1
290
     0
176
     1
290
     0
176
     1
290
     0
176
     1
290
     0
176
     1
290
     0
176
     1
 90
       50
176
     1
 40
0.0
176
     1
 40
1.0
176
     1
 90
        0
176
     1
 62
    18
420
        0
176
     1
 90
       50
176
     1
 90
        3
176
     1
 62
     5
420
      255
176
     1
290
     0
176
     1
 90
       50
176
     1
 90
       50
176
     1
 90
       50
176
     1
290
     0
176
     1
 90
       50
176
     1
 62
   256
176
     0
 40
1.0
176
     0
 90
        2
176
     1
  1
strokes_ogs.tif
176
     1
290
     0
176
     1
 40
1.0
176
     1
 40
1.0
176
     1
  0
VISUALSTYLE
  5
3F
102
{ACAD_REACTORS
330
29
102
}
330
29
100
AcDbVisualStyle
  2
JitterOff
 70
    20
177
     3
291
     1
 70
    58
 90
        2
176
     0
 90
        2
176
     0
 90
        0
176
     0
 90
        0
176
     0
 40
0.6
176
     0
 40
30.0
176
     0
 62
     7
420
 16777215
176
     0
 90
        1
176
     0
 90
        4
176
     0
 62
     7
176
     0
 62
   257
176
     0
 90
        1
176
     0
 90
        1
176
     0
 40
1.0
176
     0
 90
       10
176
     2
 62
     7
176
     0
 40
1.0
176
     0
 90
        1
176
     0
 90
        6
176
     0
 90
        2
176
     0
 62
     7
176
     0
 90
        5
176
     0
 90
        0
176
     0
 90
        0
176
     0
290
     0
176
     0
 90
        1
176
     0
 40
0.0
176
     0
 90
        0
176
     0
290
     0
176
     0
290
     1
176
     0
290
     1
176
     0
290
     0
176
     0
290
     0
176
     0
290
     0
176
     0
290
     0
176
     0
290
     0
176
     0
290
     0
176
     0
 90
       50
176
     0
 40
0.0
176
     0
 40
1.0
176
     0
 90
        0
176
     0
 62
    18
420
        0
176
     0
 90
       50
176
     0
 90
        3
176
     0
 62
     5
420
      255
176
     0
290
     0
176
     0
 90
       50
176
     0
 90
       50
176
     0
 90
       50
176
     0
290
     0
176
     0
 90
       50
176
     0
 62
   256
176
     0
 40
1.0
176
     0
 90
        2
176
     0
  1
strokes_ogs.tif
176
     0
290
     0
176
     0
 40
1.0
176
     0
 40
1.0
176
     0
  0
VISUALSTYLE
  5
37
102
{ACAD_REACTORS
330
29
102
}
330
29
100
AcDbVisualStyle
  2
Linepattern
 70
    14
177
     3
291
     1
 70
    58
 90
        2
176
     1
 90
        2
176
     1
 90
        0
176
     1
 90
        0
176
     1
 40
0.6
176
     1
 40
30.0
176
     1
 62
     7
420
 16777215
176
     1
 90
        1
176
     1
 90
        4
176
     1
 62
     7
176
     1
 62
   257
176
     1
 90
        7
176
     1
 90
        7
176
     1
 40
1.0
176
     1
 90
        8
176
     1
 62
     7
176
     1
 40
1.0
176
     1
 90
        1
176
     1
 90
        6
176
     1
 90
        2
176
     1
 62
     7
176
     1
 90
        5
176
     1
 90
        0
176
     1
 90
        0
176
     1
290
     0
176
     1
 90
        1
176
     1
 40
0.0
176
     1
 90
        0
176
     1
290
     0
176
     1
290
     1
176
     1
290
     1
176
     1
290
     0
176
     1
290
     0
176
     1
290
     0
176
     1
290
     0
176
     1
290
     0
176
     1
290
     0
176
     1
 90
       50
176
     1
 40
0.0
176
     1
 40
1.0
176
     1
 90
        0
176
     1
 62
    18
420
        0
176
     1
 90
       50
176
     1
 90
        3
176
     1
 62
     5
420
      255
176
     1
290
     0
176
     1
 90
       50
176
     1
 90
       50
176
     1
 90
       50
176
     1
290
     0
176
     1
 90
       50
176
     1
 62
   256
176
     0
 40
1.0
176
     0
 90
        2
176
     1
  1
strokes_ogs.tif
176
     1
290
     0
176
     1
 40
1.0
176
     1
 40
1.0
176
     1
  0
VISUALSTYLE
  5
40
102
{ACAD_REACTORS
330
29
102
}
330
29
100
AcDbVisualStyle
  2
OverhangOff
 70
    21
177
     3
291
     1
 70
    58
 90
        2
176
     0
 90
        2
176
     0
 90
        0
176
     0
 90
        0
176
     0
 40
0.6
176
     0
 40
30.0
176
     0
 62
     7
420
 16777215
176
     0
 90
        1
176
     0
 90
        4
176
     0
 62
     7
176
     0
 62
   257
176
     0
 90
        1
176
     0
 90
        1
176
     0
 40
1.0
176
     0
 90
        9
176
     2
 62
     7
176
     0
 40
1.0
176
     0
 90
        1
176
     0
 90
        6
176
     0
 90
        2
176
     0
 62
     7
176
     0
 90
        5
176
     0
 90
        0
176
     0
 90
        0
176
     0
290
     0
176
     0
 90
        1
176
     0
 40
0.0
176
     0
 90
        0
176
     0
290
     0
176
     0
290
     1
176
     0
290
     1
176
     0
290
     0
176
     0
290
     0
176
     0
290
     0
176
     0
290
     0
176
     0
290
     0
176
     0
290
     0
176
     0
 90
       50
176
     0
 40
0.0
176
     0
 40
1.0
176
     0
 90
        0
176
     0
 62
    18
420
        0
176
     0
 90
       50
176
     0
 90
        3
176
     0
 62
     5
420
      255
176
     0
290
     0
176
     0
 90
       50
176
     0
 90
       50
176
     0
 90
       50
176
     0
290
     0
176
     0
 90
       50
176
     0
 62
   256
176
     0
 40
1.0
176
     0
 90
        2
176
     0
  1
strokes_ogs.tif
176
     0
290
     0
176
     0
 40
1.0
176
     0
 40
1.0
176
     0
  0
VISUALSTYLE
  5
33
102
{ACAD_REACTORS
330
29
102
}
330
29
100
AcDbVisualStyle
  2
Realistic
 70
     8
177
     3
291
     0
 70
    58
 90
        2
176
     1
 90
        3
176
     1
 90
        0
176
     1
 90
        2
176
     1
 40
0.6
176
     1
 40
30.0
176
     1
 62
     7
420
 16777215
176
     1
 90
        0
176
     1
 90
        0
176
     1
 62
     7
176
     1
 62
   257
176
     1
 90
        1
176
     1
 90
        1
176
     1
 40
1.0
176
     1
 90
        8
176
     1
 62
   257
176
     1
 40
1.0
176
     1
 90
        1
176
     1
 90
        6
176
     1
 90
        2
176
     1
 62
     7
176
     1
 90
        3
176
     1
 90
        0
176
     1
 90
        0
176
     1
290
     0
176
     1
 90
       13
176
     1
 40
0.0
176
     1
 90
        0
176
     1
290
     0
176
     1
290
     1
176
     1
290
     1
176
     1
290
     0
176
     1
290
     0
176
     1
290
     0
176
     1
290
     0
176
     1
290
     0
176
     1
290
     0
176
     1
 90
       50
176
     1
 40
0.0
176
     1
 40
1.0
176
     1
 90
        0
176
     1
 62
    18
420
        0
176
     1
 90
       50
176
     1
 90
        3
176
     1
 62
     5
420
      255
176
     1
290
     0
176
     1
 90
       50
176
     1
 90
       50
176
     1
 90
       50
176
     1
290
     0
176
     1
 90
       50
176
     1
 62
   256
176
     0
 40
1.0
176
     0
 90
        2
176
     1
  1
strokes_ogs.tif
176
     1
290
     0
176
     1
 40
1.0
176
     1
 40
1.0
176
     1
  0
VISUALSTYLE
  5
3E
102
{ACAD_REACTORS
330
29
102
}
330
29
100
AcDbVisualStyle
  2
Shaded
 70
    27
177
     3
291
     0
 70
    58
 90
        2
176
     1
 90
        2
176
     1
 90
        1
176
     1
 90
        2
176
     1
 40
0.6
176
     1
 40
30.0
176
     1
 62
     7
420
 16777215
176
     1
 90
        0
176
     1
 90
        4
176
     1
 62
     7
176
     1
 62
   257
176
     1
 90
        1
176
     1
 90
        1
176
     1
 40
1.0
176
     1
 90
        8
176
     1
 62
   257
176
     1
 40
1.0
176
     1
 90
        1
176
     1
 90
        6
176
     1
 90
        2
176
     1
 62
     8
420
  7895160
176
     1
 90
        3
176
     1
 90
        0
176
     1
 90
        0
176
     1
290
     0
176
     1
 90
        5
176
     1
 40
0.0
176
     1
 90
        0
176
     1
290
     0
176
     1
290
     1
176
     1
290
     1
176
     1
290
     0
176
     1
290
     0
176
     1
290
     0
176
     1
290
     0
176
     1
290
     0
176
     1
290
     0
176
     1
 90
       50
176
     1
 40
0.0
176
     1
 40
1.0
176
     1
 90
        0
176
     1
 62
    18
420
        0
176
     1
 90
       50
176
     1
 90
        3
176
     1
 62
     5
420
      255
176
     1
290
     0
176
     1
 90
       50
176
     1
 90
       50
176
     1
 90
       50
176
     1
290
     0
176
     1
 90
       50
176
     1
 62
   256
176
     0
 40
1.0
176
     0
 90
        2
176
     1
  1
strokes_ogs.tif
176
     1
290
     0
176
     1
 40
1.0
176
     1
 40
1.0
176
     1
  0
VISUALSTYLE
  5
3D
102
{ACAD_REACTORS
330
29
102
}
330
29
100
AcDbVisualStyle
  2
Shaded with edges
 70
    26
177
     3
291
     0
 70
    58
 90
        2
176
     1
 90
        2
176
     1
 90
        1
176
     1
 90
        2
176
     1
 40
0.6
176
     1
 40
30.0
176
     1
 62
     7
420
 16777215
176
     1
 90
        1
176
     1
 90
        2
176
     1
 62
     7
176
     1
 62
   257
176
     1
 90
        2
176
     1
 90
        1
176
     1
 40
1.0
176
     1
 90
        8
176
     1
 62
   257
176
     1
 40
1.0
176
     1
 90
        1
176
     1
 90
        6
176
     1
 90
        2
176
     1
 62
     7
176
     1
 90
        3
176
     1
 90
        0
176
     1
 90
        0
176
     1
290
     0
176
     1
 90
        5
176
     1
 40
0.0
176
     1
 90
        0
176
     1
290
     0
176
     1
290
     1
176
     1
290
     1
176
     1
290
     0
176
     1
290
     0
176
     1
290
     0
176
     1
290
     0
176
     1
290
     0
176
     1
290
     0
176
     1
 90
       50
176
     1
 40
0.0
176
     1
 40
1.0
176
     1
 90
        0
176
     1
 62
    18
420
        0
176
     1
 90
       50
176
     1
 90
        3
176
     1
 62
     5
420
      255
176
     1
290
     0
176
     1
 90
       50
176
     1
 90
       50
176
     1
 90
       50
176
     1
290
     0
176
     1
 90
       50
176
     1
 62
   256
176
     0
 40
1.0
176
     0
 90
        2
176
     1
  1
strokes_ogs.tif
176
     1
290
     0
176
     1
 40
1.0
176
     1
 40
1.0
176
     1
  0
VISUALSTYLE
  5
3A
102
{ACAD_REACTORS
330
29
102
}
330
29
100
AcDbVisualStyle
  2
Shades of Gray
 70
    23
177
     3
291
     0
 70
    58
 90
        2
176
     1
 90
        2
176
     1
 90
        3
176
     1
 90
        0
176
     1
 40
0.6
176
     1
 40
30.0
176
     1
 62
     7
420
 16777215
176
     1
 90
        2
176
     1
 90
        2
176
     1
 62
     7
176
     1
 62
     7
176
     1
 90
        1
176
     1
 90
        1
176
     1
 40
40.0
176
     1
 90
        8
176
     1
 62
     7
176
     1
 40
1.0
176
     1
 90
        1
176
     1
 90
        6
176
     1
 90
        2
176
     1
 62
     7
176
     1
 90
        3
176
     1
 90
        0
176
     1
 90
        0
176
     1
290
     0
176
     1
 90
        1
176
     1
 40
0.0
176
     1
 90
        0
176
     1
290
     0
176
     1
290
     1
176
     1
290
     1
176
     1
290
     0
176
     1
290
     0
176
     1
290
     0
176
     1
290
     0
176
     1
290
     0
176
     1
290
     0
176
     1
 90
       50
176
     1
 40
0.0
176
     1
 40
1.0
176
     1
 90
        0
176
     1
 62
    18
420
        0
176
     1
 90
       50
176
     1
 90
        3
176
     1
 62
     5
420
      255
176
     1
290
     0
176
     1
 90
       50
176
     1
 90
       50
176
     1
 90
       50
176
     1
290
     0
176
     1
 90
       50
176
     1
 62
   256
176
     0
 40
1.0
176
     0
 90
        2
176
     1
  1
strokes_ogs.tif
176
     1
290
     0
176
     1
 40
1.0
176
     1
 40
1.0
176
     1
  0
VISUALSTYLE
  5
3B
102
{ACAD_REACTORS
330
29
102
}
330
29
100
AcDbVisualStyle
  2
Sketchy
 70
    24
177
     3
291
     0
 70
    58
 90
        1
176
     1
 90
        2
176
     1
 90
        2
176
     1
 90
        0
176
     1
 40
0.6
176
     1
 40
30.0
176
     1
 62
     7
420
 16777215
176
     1
 90
        2
176
     1
 90
        2
176
     1
 62
     7
176
     1
 62
     7
176
     1
 90
        1
176
     1
 90
        1
176
     1
 40
40.0
176
     1
 90
       11
176
     1
 62
     7
176
     1
 40
1.0
176
     1
 90
        1
176
     1
 90
        6
176
     1
 90
        2
176
     1
 62
     7
176
     1
 90
        6
176
     1
 90
        0
176
     1
 90
        0
176
     1
290
     0
176
     1
 90
        1
176
     1
 40
0.0
176
     1
 90
        0
176
     1
290
     0
176
     1
290
     1
176
     1
290
     1
176
     1
290
     0
176
     1
290
     0
176
     1
290
     0
176
     1
290
     0
176
     1
290
     0
176
     1
290
     0
176
     1
 90
       50
176
     1
 40
0.0
176
     1
 40
1.0
176
     1
 90
        0
176
     1
 62
    18
420
        0
176
     1
 90
       50
176
     1
 90
        3
176
     1
 62
     5
420
      255
176
     1
290
     0
176
     1
 90
       50
176
     1
 90
       50
176
     1
 90
       50
176
     1
290
     0
176
     1
 90
       50
176
     1
 62
   256
176
     0
 40
1.0
176
     0
 90
        2
176
     1
  1
strokes_ogs.tif
176
     1
290
     0
176
     1
 40
1.0
176
     1
 40
1.0
176
     1
  0
VISUALSTYLE
  5
36
102
{ACAD_REACTORS
330
29
102
}
330
29
100
AcDbVisualStyle
  2
Thicken
 70
    13
177
     3
291
     1
 70
    58
 90
        2
176
     1
 90
        2
176
     1
 90
        0
176
     1
 90
        0
176
     1
 40
0.6
176
     1
 40
30.0
176
     1
 62
     7
420
 16777215
176
     1
 90
        1
176
     1
 90
        4
176
     1
 62
     7
176
     1
 62
   257
176
     1
 90
        1
176
     1
 90
        1
176
     1
 40
1.0
176
     1
 90
       12
176
     1
 62
     7
176
     1
 40
1.0
176
     1
 90
        1
176
     1
 90
        6
176
     1
 90
        2
176
     1
 62
     7
176
     1
 90
        5
176
     1
 90
        0
176
     1
 90
        0
176
     1
290
     0
176
     1
 90
        1
176
     1
 40
0.0
176
     1
 90
        0
176
     1
290
     0
176
     1
290
     1
176
     1
290
     1
176
     1
290
     0
176
     1
290
     0
176
     1
290
     0
176
     1
290
     0
176
     1
290
     0
176
     1
290
     0
176
     1
 90
       50
176
     1
 40
0.0
176
     1
 40
1.0
176
     1
 90
        0
176
     1
 62
    18
420
        0
176
     1
 90
       50
176
     1
 90
        3
176
     1
 62
     5
420
      255
176
     1
290
     0
176
     1
 90
       50
176
     1
 90
       50
176
     1
 90
       50
176
     1
290
     0
176
     1
 90
       50
176
     1
 62
   256
176
     0
 40
1.0
176
     0
 90
        2
176
     1
  1
strokes_ogs.tif
176
     1
290
     0
176
     1
 40
1.0
176
     1
 40
1.0
176
     1
  0
VISUALSTYLE
  5
30
102
{ACAD_REACTORS
330
29
102
}
330
29
100
AcDbVisualStyle
  2
Wireframe
 70
     5
177
     3
291
     0
 70
    58
 90
        0
176
     1
 90
        2
176
     1
 90
        0
176
     1
 90
        0
176
     1
 40
0.6
176
     1
 40
30.0
176
     1
 62
     7
420
 16777215
176
     1
 90
        1
176
     1
 90
        4
176
     1
 62
     7
176
     1
 62
   257
176
     1
 90
        1
176
     1
 90
        1
176
     1
 40
1.0
176
     1
 90
        0
176
     1
 62
   257
176
     1
 40
1.0
176
     1
 90
        1
176
     1
 90
        6
176
     1
 90
        2
176
     1
 62
     7
176
     1
 90
        3
176
     1
 90
        0
176
     1
 90
        0
176
     1
290
     0
176
     1
 90
        1
176
     1
 40
0.0
176
     1
 90
        0
176
     1
290
     0
176
     1
290
     1
176
     1
290
     1
176
     1
290
     0
176
     1
290
     0
176
     1
290
     0
176
     1
290
     0
176
     1
290
     0
176
     1
290
     0
176
     1
 90
       50
176
     1
 40
0.0
176
     1
 40
1.0
176
     1
 90
        0
176
     1
 62
    18
420
        0
176
     1
 90
       50
176
     1
 90
        3
176
     1
 62
     5
420
      255
176
     1
290
     0
176
     1
 90
       50
176
     1
 90
       50
176
     1
 90
       50
176
     1
290
     0
176
     1
 90
       50
176
     1
 62
   256
176
     0
 40
1.0
176
     0
 90
        2
176
     1
  1
strokes_ogs.tif
176
     1
290
     0
176
     1
 40
1.0
176
     1
 40
1.0
176
     1
  0
VISUALSTYLE
  5
3C
102
{ACAD_REACTORS
330
29
102
}
330
29
100
AcDbVisualStyle
  2
X-Ray
 70
    25
177
     3
291
     0
 70
    58
 90
        2
176
     1
 90
        2
176
     1
 90
        1
176
     1
 90
        1
176
     1
 40
0.5
176
     1
 40
30.0
176
     1
 62
     7
420
 16777215
176
     1
 90
        1
176
     1
 90
        0
176
     1
 62
     7
176
     1
 62
   257
176
     1
 90
        1
176
     1
 90
        1
176
     1
 40
1.0
176
     1
 90
        8
176
     1
 62
     7
176
     1
 40
1.0
176
     1
 90
        1
176
     1
 90
        6
176
     1
 90
        2
176
     1
 62
     7
176
     1
 90
        3
176
     1
 90
        0
176
     1
 90
        0
176
     1
290
     0
176
     1
 90
       13
176
     1
 40
0.0
176
     1
 90
        0
176
     1
290
     0
176
     1
290
     1
176
     1
290
     1
176
     1
290
     0
176
     1
290
     0
176
     1
290
     0
176
     1
290
     0
176
     1
290
     0
176
     1
290
     0
176
     1
 90
       50
176
     1
 40
0.0
176
     1
 40
1.0
176
     1
 90
        0
176
     1
 62
    18
420
        0
176
     1
 90
       50
176
     1
 90
        3
176
     1
 62
     5
420
      255
176
     1
290
     0
176
     1
 90
       50
176
     1
 90
       50
176
     1
 90
       50
176
     1
290
     0
176
     1
 90
       50
176
     1
 62
   256
176
     0
 40
1.0
176
     0
 90
        2
176
     1
  1
strokes_ogs.tif
176
     1
290
     0
176
     1
 40
1.0
176
     1
 40
1.0
176
     1
  0
DICTIONARYVAR
  5
A9
102
{ACAD_REACTORS
330
A4
102
}
330
A4
100
DictionaryVariables
280
     0
  1
1:1
  0
DICTIONARYVAR
  5
A6
102
{ACAD_REACTORS
330
A4
102
}
330
A4
100
DictionaryVariables
280
     0
  1
STANDARD
  0
DICTIONARYVAR
  5
A5
102
{ACAD_REACTORS
330
A4
102
}
330
A4
100
DictionaryVariables
280
     0
  1
STANDARD
  0
DICTIONARYVAR
  5
A7
102
{ACAD_REACTORS
330
A4
102
}
330
A4
100
DictionaryVariables
280
     0
  1
Imperial24
  0
DICTIONARYVAR
  5
A8
102
{ACAD_REACTORS
330
A4
102
}
330
A4
100
DictionaryVariables
280
     0
  1
Imperial24
  0
DICTIONARY
  5
1A
330
19
100
AcDbDictionary
280
     1
281
     1
  3
BUMPTILE
360
1C
  3
DIFFUSETILE
360
1B
  3
OPACITYTILE
360
1F
  3
REFLECTIONTILE
360
1E
  3
REFRACTIONTILE
360
20
  3
SPECULARTILE
360
1D
  0
DICTIONARY
  5
12
330
11
100
AcDbDictionary
280
     1
281
     1
  3
BUMPTILE
360
14
  3
DIFFUSETILE
360
13
  3
OPACITYTILE
360
17
  3
REFLECTIONTILE
360
16
  3
REFRACTIONTILE
360
18
  3
SPECULARTILE
360
15
  0
DICTIONARY
  5
22
330
21
100
AcDbDictionary
280
     1
281
     1
  3
BUMPTILE
360
24
  3
DIFFUSETILE
360
23
  3
OPACITYTILE
360
27
  3
REFLECTIONTILE
360
26
  3
REFRACTIONTILE
360
28
  3
SPECULARTILE
360
25
  0
DICTIONARY
  5
AA
330
65
100
AcDbDictionary
280
     1
281
     1
  3
ACAD_ROUNDTRIP_2008_TABLESTYLE_CELLSTYLEMAP
360
AB
  0
XRECORD
  5
1C
102
{ACAD_REACTORS
330
1A
102
}
330
1A
100
AcDbXrecord
280
     1
270
     1
271
     1
  0
XRECORD
  5
1B
102
{ACAD_REACTORS
330
1A
102
}
330
1A
100
AcDbXrecord
280
     1
270
     1
271
     1
  0
XRECORD
  5
1F
102
{ACAD_REACTORS
330
1A
102
}
330
1A
100
AcDbXrecord
280
     1
270
     1
271
     1
  0
XRECORD
  5
1E
102
{ACAD_REACTORS
330
1A
102
}
330
1A
100
AcDbXrecord
280
     1
270
     1
271
     1
  0
XRECORD
  5
20
102
{ACAD_REACTORS
330
1A
102
}
330
1A
100
AcDbXrecord
280
     1
270
     1
271
     1
  0
XRECORD
  5
1D
102
{ACAD_REACTORS
330
1A
102
}
330
1A
100
AcDbXrecord
280
     1
270
     1
271
     1
  0
XRECORD
  5
14
102
{ACAD_REACTORS
330
12
102
}
330
12
100
AcDbXrecord
280
     1
270
     1
271
     1
  0
XRECORD
  5
13
102
{ACAD_REACTORS
330
12
102
}
330
12
100
AcDbXrecord
280
     1
270
     1
271
     1
  0
XRECORD
  5
17
102
{ACAD_REACTORS
330
12
102
}
330
12
100
AcDbXrecord
280
     1
270
     1
271
     1
  0
XRECORD
  5
16
102
{ACAD_REACTORS
330
12
102
}
330
12
100
AcDbXrecord
280
     1
270
     1
271
     1
  0
XRECORD
  5
18
102
{ACAD_REACTORS
330
12
102
}
330
12
100
AcDbXrecord
280
     1
270
     1
271
     1
  0
XRECORD
  5
15
102
{ACAD_REACTORS
330
12
102
}
330
12
100
AcDbXrecord
280
     1
270
     1
271
     1
  0
XRECORD
  5
24
102
{ACAD_REACTORS
330
22
102
}
330
22
100
AcDbXrecord
280
     1
270
     1
271
     1
  0
XRECORD
  5
23
102
{ACAD_REACTORS
330
22
102
}
330
22
100
AcDbXrecord
280
     1
270
     1
271
     1
  0
XRECORD
  5
27
102
{ACAD_REACTORS
330
22
102
}
330
22
100
AcDbXrecord
280
     1
270
     1
271
     1
  0
XRECORD
  5
26
102
{ACAD_REACTORS
330
22
102
}
330
22
100
AcDbXrecord
280
     1
270
     1
271
     1
  0
XRECORD
  5
28
102
{ACAD_REACTORS
330
22
102
}
330
22
100
AcDbXrecord
280
     1
270
     1
271
     1
  0
XRECORD
  5
25
102
{ACAD_REACTORS
330
22
102
}
330
22
100
AcDbXrecord
280
     1
270
     1
271
     1
  0
CELLSTYLEMAP
  5
AB
102
{ACAD_REACTORS
330
AA
102
}
330
AA
100
AcDbCellStyleMap
 90
        3
300
CELLSTYLE
  1
TABLEFORMAT_BEGIN
 90
        5
170
     1
 91
        0
 92
    32768
 62
   257
 93
        1
300
CONTENTFORMAT
  1
CONTENTFORMAT_BEGIN
 90
        0
 91
        0
 92
      512
 93
        0
300

 40
0.0
140
1.0
 94
        5
 62
     0
340
55
144
0.25
309
CONTENTFORMAT_END
171
     0
 94
        0
309
TABLEFORMAT_END
  1
CELLSTYLE_BEGIN
 90
        1
 91
        1
300
_TITLE
309
CELLSTYLE_END
300
CELLSTYLE
  1
TABLEFORMAT_BEGIN
 90
        5
170
     1
 91
        0
 92
        0
 62
   257
 93
        1
300
CONTENTFORMAT
  1
CONTENTFORMAT_BEGIN
 90
        0
 91
        0
 92
      512
 93
        0
300

 40
0.0
140
1.0
 94
        5
 62
     0
340
55
144
0.18
309
CONTENTFORMAT_END
171
     0
 94
        0
309
TABLEFORMAT_END
  1
CELLSTYLE_BEGIN
 90
        2
 91
        1
300
_HEADER
309
CELLSTYLE_END
300
CELLSTYLE
  1
TABLEFORMAT_BEGIN
 90
        5
170
     1
 91
        0
 92
        0
 62
   257
 93
        1
300
CONTENTFORMAT
  1
CONTENTFORMAT_BEGIN
 90
        0
 91
        0
 92
      512
 93
        0
300

 40
0.0
140
1.0
 94
        2
 62
     0
340
55
144
0.18
309
CONTENTFORMAT_END
171
     0
 94
        0
309
TABLEFORMAT_END
  1
CELLSTYLE_BEGIN
 90
        3
 91
        2
300
_DATA
309
CELLSTYLE_END
  0
ENDSEC
  0
EOF
