  0
SECTION
  2
HEADER
  9
$ACADVER
  1
AC1032
  9
$ACADMAINTVER
 90
      228
  9
$DWGCODEPAGE
  3
ANSI_1252
  9
$REQUIREDVERSIONS
160
                 0
  9
$INSBASE
 10
0.0
 20
0.0
 30
0.0
  9
$EXTMIN
 10
1.000000000000000E+20
 20
1.000000000000000E+20
 30
1.000000000000000E+20
  9
$EXTMAX
 10
-1.000000000000000E+20
 20
-1.000000000000000E+20
 30
-1.000000000000000E+20
  9
$LIMMIN
 10
0.0
 20
0.0
  9
$LIMMAX
 10
12.0
 20
9.0
  9
$ORTHOMODE
 70
     0
  9
$REGENMODE
 70
     1
  9
$FILLMODE
 70
     1
  9
$QTEXTMODE
 70
     0
  9
$MIRRTEXT
 70
     0
  9
$LTSCALE
 40
1.0
  9
$ATTMODE
 70
     1
  9
$TEXTSIZE
 40
0.2
  9
$TRACEWID
 40
0.05
  9
$TEXTSTYLE
  7
Standard
  9
$CLAYER
  8
0
  9
$CELTYPE
  6
ByLayer
  9
$CECOLOR
 62
   256
  9
$CELTSCALE
 40
1.0
  9
$DISPSILH
 70
     0
  9
$DIMSCALE
 40
1.0
  9
$DIMASZ
 40
0.18
  9
$DIMEXO
 40
0.0625
  9
$DIMDLI
 40
0.38
  9
$DIMRND
 40
0.0
  9
$DIMDLE
 40
0.0
  9
$DIMEXE
 40
0.18
  9
$DIMTP
 40
0.0
  9
$DIMTM
 40
0.0
  9
$DIMTXT
 40
0.18
  9
$DIMCEN
 40
0.09
  9
$DIMTSZ
 40
0.0
  9
$DIMTOL
 70
     0
  9
$DIMLIM
 70
     0
  9
$DIMTIH
 70
     1
  9
$DIMTOH
 70
     1
  9
$DIMSE1
 70
     0
  9
$DIMSE2
 70
     0
  9
$DIMTAD
 70
     0
  9
$DIMZIN
 70
     0
  9
$DIMBLK
  1

  9
$DIMASO
 70
     1
  9
$DIMSHO
 70
     1
  9
$DIMPOST
  1

  9
$DIMAPOST
  1

  9
$DIMALT
 70
     0
  9
$DIMALTD
 70
     2
  9
$DIMALTF
 40
25.4
  9
$DIMLFAC
 40
1.0
  9
$DIMTOFL
 70
     0
  9
$DIMTVP
 40
0.0
  9
$DIMTIX
 70
     0
  9
$DIMSOXD
 70
     0
  9
$DIMSAH
 70
     0
  9
$DIMBLK1
  1

  9
$DIMBLK2
  1

  9
$DIMSTYLE
  2
Standard
  9
$DIMCLRD
 70
     0
  9
$DIMCLRE
 70
     0
  9
$DIMCLRT
 70
     0
  9
$DIMTFAC
 40
1.0
  9
$DIMGAP
 40
0.09
  9
$DIMJUST
 70
     0
  9
$DIMSD1
 70
     0
  9
$DIMSD2
 70
     0
  9
$DIMTOLJ
 70
     1
  9
$DIMTZIN
 70
     0
  9
$DIMALTZ
 70
     0
  9
$DIMALTTZ
 70
     0
  9
$DIMUPT
 70
     0
  9
$DIMDEC
 70
     4
  9
$DIMTDEC
 70
     4
  9
$DIMALTU
 70
     2
  9
$DIMALTTD
 70
     2
  9
$DIMTXSTY
  7
Standard
  9
$DIMAUNIT
 70
     0
  9
$DIMADEC
 70
     0
  9
$DIMALTRND
 40
0.0
  9
$DIMAZIN
 70
     0
  9
$DIMDSEP
 70
    46
  9
$DIMATFIT
 70
     3
  9
$DIMFRAC
 70
     0
  9
$DIMLDRBLK
  1

  9
$DIMLUNIT
 70
     2
  9
$DIMLWD
 70
    -2
  9
$DIMLWE
 70
    -2
  9
$DIMTMOVE
 70
     0
  9
$DIMFXL
 40
1.0
  9
$DIMFXLON
 70
     0
  9
$DIMJOGANG
 40
0.7853981633974483
  9
$DIMTFILL
 70
     0
  9
$DIMTFILLCLR
 70
     0
  9
$DIMARCSYM
 70
     0
  9
$DIMLTYPE
  6

  9
$DIMLTEX1
  6

  9
$DIMLTEX2
  6

  9
$DIMTXTDIRECTION
 70
     0
  9
$LUNITS
 70
     2
  9
$LUPREC
 70
     4
  9
$SKETCHINC
 40
0.1
  9
$FILLETRAD
 40
0.0
  9
$AUNITS
 70
     0
  9
$AUPREC
 70
     0
  9
$MENU
  1
.
  9
$ELEVATION
 40
0.0
  9
$PELEVATION
 40
0.0
  9
$THICKNESS
 40
0.0
  9
$LIMCHECK
 70
     0
  9
$CHAMFERA
 40
0.0
  9
$CHAMFERB
 40
0.0
  9
$CHAMFERC
 40
0.0
  9
$CHAMFERD
 40
0.0
  9
$SKPOLY
 70
     0
  9
$TDCREATE
 40
2460300.055636574
  9
$TDUCREATE
 40
2460300.388969907
  9
$TDUPDATE
 40
2460300.055636574
  9
$TDUUPDATE
 40
2460300.388969907
  9
$TDINDWG
 40
0.0000000000
  9
$TDUSRTIMER
 40
0.0000000000
  9
$USRTIMER
 70
     1
  9
$ANGBASE
 50
0.0
  9
$ANGDIR
 70
     0
  9
$PDMODE
 70
     0
  9
$PDSIZE
 40
0.0
  9
$PLINEWID
 40
0.0
  9
$SPLFRAME
 70
     0
  9
$SPLINETYPE
 70
     6
  9
$SPLINESEGS
 70
     8
  9
$HANDSEED
  5
C5
  9
$SURFTAB1
 70
     6
  9
$SURFTAB2
 70
     6
  9
$SURFTYPE
 70
     6
  9
$SURFU
 70
     6
  9
$SURFV
 70
     6
  9
$UCSBASE
  2

  9
$UCSNAME
  2

  9
$UCSORG
 10
0.0
 20
0.0
 30
0.0
  9
$UCSXDIR
 10
1.0
 20
0.0
 30
0.0
  9
$UCSYDIR
 10
0.0
 20
1.0
 30
0.0
  9
$UCSORTHOREF
  2

  9
$UCSORTHOVIEW
 70
     0
  9
$UCSORGTOP
 10
0.0
 20
0.0
 30
0.0
  9
$UCSORGBOTTOM
 10
0.0
 20
0.0
 30
0.0
  9
$UCSORGLEFT
 10
0.0
 20
0.0
 30
0.0
  9
$UCSORGRIGHT
 10
0.0
 20
0.0
 30
0.0
  9
$UCSORGFRONT
 10
0.0
 20
0.0
 30
0.0
  9
$UCSORGBACK
 10
0.0
 20
0.0
 30
0.0
  9
$PUCSBASE
  2

  9
$PUCSNAME
  2

  9
$PUCSORG
 10
0.0
 20
0.0
 30
0.0
  9
$PUCSXDIR
 10
1.0
 20
0.0
 30
0.0
  9
$PUCSYDIR
 10
0.0
 20
1.0
 30
0.0
  9
$PUCSORTHOREF
  2

  9
$PUCSORTHOVIEW
 70
     0
  9
$PUCSORGTOP
 10
0.0
 20
0.0
 30
0.0
  9
$PUCSORGBOTTOM
 10
0.0
 20
0.0
 30
0.0
  9
$PUCSORGLEFT
 10
0.0
 20
0.0
 30
0.0
  9
$PUCSORGRIGHT
 10
0.0
 20
0.0
 30
0.0
  9
$PUCSORGFRONT
 10
0.0
 20
0.0
 30
0.0
  9
$PUCSORGBACK
 10
0.0
 20
0.0
 30
0.0
  9
$USERI1
 70
     0
  9
$USERI2
 70
     0
  9
$USERI3
 70
     0
  9
$USERI4
 70
     0
  9
$USERI5
 70
     0
  9
$USERR1
 40
0.0
  9
$USERR2
 40
0.0
  9
$USERR3
 40
0.0
  9
$USERR4
 40
0.0
  9
$USERR5
 40
0.0
  9
$WORLDVIEW
 70
     1
  9
$SHADEDGE
 70
     3
  9
$SHADEDIF
 70
    70
  9
$TILEMODE
 70
     1
  9
$MAXACTVP
 70
    64
  9
$PINSBASE
 10
0.0
 20
0.0
 30
0.0
  9
$PLIMCHECK
 70
     0
  9
$PEXTMIN
 10
1.000000000000000E+20
 20
1.000000000000000E+20
 30
1.000000000000000E+20
  9
$PEXTMAX
 10
-1.000000000000000E+20
 20
-1.000000000000000E+20
 30
-1.000000000000000E+20
  9
$PLIMMIN
 10
0.0
 20
0.0
  9
$PLIMMAX
 10
12.0
 20
9.0
  9
$UNITMODE
 70
     0
  9
$VISRETAIN
 70
     1
  9
$PLINEGEN
 70
     0
  9
$PSLTSCALE
 70
     1
  9
$TREEDEPTH
 70
  3020
  9
$CMLSTYLE
  2
Standard
  9
$CMLJUST
 70
     0
  9
$CMLSCALE
 40
1.0
  9
$PROXYGRAPHICS
 70
     1
  9
$MEASUREMENT
 70
     0
  9
$CELWEIGHT
370
    -1
  9
$ENDCAPS
280
     0
  9
$JOINSTYLE
280
     0
  9
$LWDISPLAY
290
     1
  9
$INSUNITS
 70
     1
  9
$HYPERLINKBASE
  1

  9
$STYLESHEET
  1

  9
$XEDIT
290
     1
  9
$CEPSNTYPE
380
     0
  9
$PSTYLEMODE
290
     1
  9
$FINGERPRINTGUID
  2
{13BE7FD8-AD3B-3540-AFE8-A73C91F9D720}
  9
$VERSIONGUID
  2
{8345D39D-5360-1A44-8618-5FA1A1D462F5}
  9
$EXTNAMES
290
     1
  9
$PSVPSCALE
 40
0.0
  9
$OLESTARTUP
290
     0
  9
$SORTENTS
280
   127
  9
$INDEXCTL
280
     0
  9
$HIDETEXT
280
     1
  9
$XCLIPFRAME
280
     2
  9
$HALOGAP
280
     0
  9
$OBSCOLOR
 70
   257
  9
$OBSLTYPE
280
     0
  9
$INTERSECTIONDISPLAY
280
     0
  9
$INTERSECTIONCOLOR
 70
   257
  9
$DIMASSOC
280
     2
  9
$PROJECTNAME
  1

  9
$CAMERADISPLAY
290
     0
  9
$LENSLENGTH
 40
50.0
  9
$CAMERAHEIGHT
 40
0.0
  9
$STEPSPERSEC
 40
2.0
  9
$STEPSIZE
 40
6.0
  9
$3DDWFPREC
 40
2.0
  9
$PSOLWIDTH
 40
0.25
  9
$PSOLHEIGHT
 40
4.0
  9
$LOFTANG1
 40
1.570796326794896
  9
$LOFTANG2
 40
1.570796326794896
  9
$LOFTMAG1
 40
0.0
  9
$LOFTMAG2
 40
0.0
  9
$LOFTPARAM
 70
     7
  9
$LOFTNORMALS
280
     1
  9
$LATITUDE
 40
37.795
  9
$LONGITUDE
 40
-122.394
  9
$NORTHDIRECTION
 40
0.0
  9
$TIMEZONE
 70
 -8000
  9
$LIGHTGLYPHDISPLAY
280
     1
  9
$TILEMODELIGHTSYNCH
280
     1
  9
$CMATERIAL
347
11
  9
$SOLIDHIST
280
     0
  9
$SHOWHIST
280
     1
  9
$DWFFRAME
280
     2
  9
$DGNFRAME
280
     0
  9
$REALWORLDSCALE
290
     1
  9
$INTERFERECOLOR
 62
     1
  9
$INTERFEREOBJVS
345
33
  9
$INTERFEREVPVS
346
30
  9
$CSHADOW
280
     0
  9
$SHADOWPLANELOCATION
 40
0.0
  0
ENDSEC
  0
SECTION
  2
CLASSES
  0
CLASS
  1
ACDBDICTIONARYWDFLT
  2
AcDbDictionaryWithDefault
  3
ObjectDBX Classes
 90
        0
 91
        1
280
     0
281
     0
  0
CLASS
  1
MATERIAL
  2
AcDbMaterial
  3
ObjectDBX Classes
 90
     1153
 91
        3
280
     0
281
     0
  0
CLASS
  1
VISUALSTYLE
  2
AcDbVisualStyle
  3
ObjectDBX Classes
 90
     4095
 91
       24
280
     0
281
     0
  0
CLASS
  1
SCALE
  2
AcDbScale
  3
ObjectDBX Classes
 90
     1153
 91
       17
280
     0
281
     0
  0
CLASS
  1
TABLESTYLE
  2
AcDbTableStyle
  3
ObjectDBX Classes
 90
     4095
 91
        1
280
     0
281
     0
  0
CLASS
  1
MLEADERSTYLE
  2
AcDbMLeaderStyle
  3
ACDB_MLEADERSTYLE_CLASS
 90
     4095
 91
        1
280
     0
281
     0
  0
CLASS
  1
ACDBSECTIONVIEWSTYLE
  2
AcDbSectionViewStyle
  3
ObjectDBX Classes
 90
     1025
 91
        1
280
     0
281
     0
  0
CLASS
  1
ACDBDETAILVIEWSTYLE
  2
AcDbDetailViewStyle
  3
ObjectDBX Classes
 90
     1025
 91
        1
280
     0
281
     0
  0
CLASS
  1
DICTIONARYVAR
  2
AcDbDictionaryVar
  3
ObjectDBX Classes
 90
        0
 91
        5
280
     0
281
     0
  0
CLASS
  1
CELLSTYLEMAP
  2
AcDbCellStyleMap
  3
ObjectDBX Classes
 90
     1152
 91
        1
280
     0
281
     0
  0
ENDSEC
  0
SECTION
  2
TABLES
  0
TABLE
  2
VPORT
  5
8
330
0
100
AcDbSymbolTable
 70
     1
  0
VPORT
  5
57
330
8
100
AcDbSymbolTableRecord
100
AcDbViewportTableRecord
  2
*Active
 70
     0
 10
0.0
 20
0.0
 11
1.0
 21
1.0
 12
0.0
 22
0.0
 13
0.0
 23
0.0
 14
1.0
 24
1.0
 15
0.0
 25
0.0
 16
0.0
 26
0.0
 36
1.0
 17
1.348897298177083
 27
-1.544947506561811
 37
0.0
 40
3.605807086613904
 41
2.0406872039348
 42
50.0
 43
0.0
 44
0.0
 50
0.0
 51
0.0
 71
     0
 72
   100
 73
     1
 74
     1
 75
     0
 76
     0
 77
     0
 78
     0
281
     0
 65
     1
110
0.0
120
0.0
130
0.0
111
1.0
121
0.0
131
0.0
112
0.0
122
1.0
132
0.0
 79
     0
146
0.0
 60
     3
 61
     5
292
     1
282
     1
141
0.0
142
0.0
 63
   250
421
  3355443
  0
ENDTAB
  0
TABLE
  2
LTYPE
  5
5
330
0
100
AcDbSymbolTable
 70
     1
  0
LTYPE
  5
5B
330
5
100
AcDbSymbolTableRecord
100
AcDbLinetypeTableRecord
  2
ByBlock
 70
     0
  3

 72
    65
 73
     0
 40
0.0
  0
LTYPE
  5
5C
330
5
100
AcDbSymbolTableRecord
100
AcDbLinetypeTableRecord
  2
ByLayer
 70
     0
  3

 72
    65
 73
     0
 40
0.0
  0
LTYPE
  5
5D
330
5
100
AcDbSymbolTableRecord
100
AcDbLinetypeTableRecord
  2
Continuous
 70
     0
  3
Solid line
 72
    65
 73
     0
 40
0.0
  0
ENDTAB
  0
TABLE
  2
LAYER
  5
2
330
0
100
AcDbSymbolTable
 70
    13
  0
LAYER
  5
54
330
2
100
AcDbSymbolTableRecord
100
AcDbLayerTableRecord
  2
0
 70
     0
 62
     7
  6
Continuous
370
    -3
390
F
347
21
348
0
  0
LAYER
  5
78
330
2
100
AcDbSymbolTableRecord
100
AcDbLayerTableRecord
  2
Fonts
 70
     1
 62
     7
  6
Continuous
370
     0
390
F
347
21
348
0
  0
LAYER
  5
79
330
2
100
AcDbSymbolTableRecord
100
AcDbLayerTableRecord
  2
Green
 70
     5
 62
     7
  6
Continuous
370
     0
390
F
347
21
348
0
  0
LAYER
  5
7A
330
2
100
AcDbSymbolTableRecord
100
AcDbLayerTableRecord
  2
White
 70
     4
 62
     7
  6
Continuous
370
     0
390
F
347
21
348
0
  0
LAYER
  5
7B
330
2
100
AcDbSymbolTableRecord
100
AcDbLayerTableRecord
  2
Date
 70
     1
 62
     7
  6
Continuous
370
     0
390
F
347
21
348
0
  0
LAYER
  5
7C
330
2
100
AcDbSymbolTableRecord
100
AcDbLayerTableRecord
  2
Mr&Mrs with Date
 70
     1
 62
     7
  6
Continuous
370
     0
390
F
347
21
348
0
  0
LAYER
  5
7D
330
2
100
AcDbSymbolTableRecord
100
AcDbLayerTableRecord
  2
TML FRIENDSGIVING
 70
     1
 62
     7
  6
Continuous
370
     0
390
F
347
21
348
0
  0
LAYER
  5
7E
330
2
100
AcDbSymbolTableRecord
100
AcDbLayerTableRecord
  2
Merry Christmas
 70
     1
 62
     7
  6
Continuous
370
     0
390
F
347
21
348
0
  0
LAYER
  5
7F
330
2
100
AcDbSymbolTableRecord
100
AcDbLayerTableRecord
  2
Let It Snow
 70
     1
 62
     7
  6
Continuous
370
     0
390
F
347
21
348
0
  0
LAYER
  5
80
330
2
100
AcDbSymbolTableRecord
100
AcDbLayerTableRecord
  2
Happy Holidays
 70
     1
 62
     7
  6
Continuous
370
     0
390
F
347
21
348
0
  0
LAYER
  5
81
330
2
100
AcDbSymbolTableRecord
100
AcDbLayerTableRecord
  2
Fuck Thank You
 70
     1
 62
     7
  6
Continuous
370
     0
390
F
347
21
348
0
  0
LAYER
  5
82
330
2
100
AcDbSymbolTableRecord
100
AcDbLayerTableRecord
  2
Cole Huber
 70
     1
 62
     7
  6
Continuous
370
     0
390
F
347
21
348
0
  0
LAYER
  5
83
330
2
100
AcDbSymbolTableRecord
100
AcDbLayerTableRecord
  2
Inner Circle
 70
     0
 62
     7
  6
Continuous
370
     0
390
F
347
21
348
0
  0
ENDTAB
  0
TABLE
  2
STYLE
  5
3
330
0
100
AcDbSymbolTable
 70
     2
  0
STYLE
  5
55
330
3
100
AcDbSymbolTableRecord
100
AcDbTextStyleTableRecord
  2
Standard
 70
     0
 40
0.0
 41
1.0
 50
0.0
 71
     0
 42
0.2
  3
txt
  4

  0
STYLE
  5
5A
330
3
100
AcDbSymbolTableRecord
100
AcDbTextStyleTableRecord
  2
Annotative
 70
     0
 40
0.0
 41
1.0
 50
0.0
 71
     0
 42
0.2
  3
txt
  4

1001
AcadAnnotative
1000
AnnotativeData
1002
{
1070
     1
1070
     1
1002
}
  0
ENDTAB
  0
TABLE
  2
VIEW
  5
6
330
0
100
AcDbSymbolTable
 70
     0
  0
ENDTAB
  0
TABLE
  2
UCS
  5
7
330
0
100
AcDbSymbolTable
 70
     0
  0
ENDTAB
  0
TABLE
  2
APPID
  5
9
330
0
100
AcDbSymbolTable
 70
     2
  0
APPID
  5
56
330
9
100
AcDbSymbolTableRecord
100
AcDbRegAppTableRecord
  2
ACAD
 70
     0
  0
APPID
  5
5E
330
9
100
AcDbSymbolTableRecord
100
AcDbRegAppTableRecord
  2
AcadAnnotative
 70
     0
  0
ENDTAB
  0
TABLE
  2
DIMSTYLE
  5
A
330
0
100
AcDbSymbolTable
 70
     2
100
AcDbDimStyleTable
 71
     0
  0
DIMSTYLE
105
58
330
A
100
AcDbSymbolTableRecord
100
AcDbDimStyleTableRecord
  2
Standard
 70
     0
340
55
  0
DIMSTYLE
105
59
330
A
100
AcDbSymbolTableRecord
100
AcDbDimStyleTableRecord
  2
Annotative
 70
     0
340
55
1001
AcadAnnotative
1000
AnnotativeData
1002
{
1070
     1
1070
     1
1002
}
  0
ENDTAB
  0
TABLE
  2
BLOCK_RECORD
  5
1
330
0
100
AcDbSymbolTable
 70
     5
  0
BLOCK_RECORD
  5
70
330
1
100
AcDbSymbolTableRecord
100
AcDbBlockTableRecord
  2
*Model_Space
340
73
 70
     0
280
     1
281
     0
  0
BLOCK_RECORD
  5
6C
330
1
100
AcDbSymbolTableRecord
100
AcDbBlockTableRecord
  2
*Paper_Space
340
6F
 70
     0
280
     1
281
     0
  0
BLOCK_RECORD
  5
74
330
1
100
AcDbSymbolTableRecord
100
AcDbBlockTableRecord
  2
*Paper_Space0
340
77
 70
     0
280
     1
281
     0
  0
BLOCK_RECORD
  5
84
330
1
100
AcDbSymbolTableRecord
100
AcDbBlockTableRecord
  2
Block_0
340
0
102
{BLKREFS
331
85
102
}
 70
     0
280
     1
281
     0
  0
BLOCK_RECORD
  5
8A
330
1
100
AcDbSymbolTableRecord
100
AcDbBlockTableRecord
  2
Block_1
340
0
102
{BLKREFS
331
8B
102
}
 70
     0
280
     1
281
     0
  0
BLOCK_RECORD
  5
A4
330
1
100
AcDbSymbolTableRecord
100
AcDbBlockTableRecord
  2
Block_2
340
0
102
{BLKREFS
331
A5
102
}
 70
     0
280
     1
281
     0
  0
BLOCK_RECORD
  5
AA
330
1
100
AcDbSymbolTableRecord
100
AcDbBlockTableRecord
  2
Block_3
340
0
102
{BLKREFS
331
AB
102
}
 70
     0
280
     1
281
     0
  0
ENDTAB
  0
ENDSEC
  0
SECTION
  2
BLOCKS
  0
BLOCK
  5
71
330
70
100
AcDbEntity
  8
0
100
AcDbBlockBegin
  2
*Model_Space
 70
     0
 10
0.0
 20
0.0
 30
0.0
  3
*Model_Space
  1

  0
ENDBLK
  5
72
330
70
100
AcDbEntity
  8
0
100
AcDbBlockEnd
  0
BLOCK
  5
6D
330
6C
100
AcDbEntity
 67
     1
  8
0
100
AcDbBlockBegin
  2
*Paper_Space
 70
     0
 10
0.0
 20
0.0
 30
0.0
  3
*Paper_Space
  1

  0
ENDBLK
  5
6E
330
6C
100
AcDbEntity
 67
     1
  8
0
100
AcDbBlockEnd
  0
BLOCK
  5
75
330
74
100
AcDbEntity
 67
     1
  8
0
100
AcDbBlockBegin
  2
*Paper_Space0
 70
     0
 10
0.0
 20
0.0
 30
0.0
  3
*Paper_Space0
  1

  0
ENDBLK
  5
76
330
74
100
AcDbEntity
 67
     1
  8
0
100
AcDbBlockEnd
  0
BLOCK
  5
86
330
84
100
AcDbEntity
  8
0
100
AcDbBlockBegin
  2
Block_0
 70
     0
 10
0.0
 20
0.0
 30
0.0
  3
Block_0
  1

  0
SPLINE
  5
88
330
84
100
AcDbEntity
  8
Inner Circle
100
AcDbSpline
210
0.0
220
0.0
230
1.0
 70
     9
 71
     3
 72
    29
 73
    25
 74
     0
 42
0.0000000001
 43
0.0000000001
 40
0.0
 40
0.0
 40
0.0
 40
0.0
 40
1.0
 40
1.0
 40
1.0
 40
2.0
 40
2.0
 40
2.0
 40
3.0
 40
3.0
 40
3.0
 40
4.0
 40
4.0
 40
4.0
 40
5.0
 40
5.0
 40
5.0
 40
6.0
 40
6.0
 40
6.0
 40
7.0
 40
7.0
 40
7.0
 40
8.0
 40
8.0
 40
8.0
 40
8.0
 10
2.0418701171875
 20
-2.879530164930555
 30
0.0
 10
2.0418701171875
 20
-2.879530164930555
 30
0.0
 10
-0.04339599609375
 20
-2.879530164930555
 30
0.0
 10
-0.04339599609375
 20
-2.879530164930555
 30
0.0
 10
-0.1298082139756944
 20
-2.879530164930555
 30
0.0
 10
-0.2001139322916666
 20
-2.949842664930555
 30
0.0
 10
-0.2001139322916666
 20
-3.0362548828125
 30
0.0
 10
-0.2001139322916666
 20
-3.0362548828125
 30
0.0
 10
-0.2001139322916666
 20
-3.144097222222221
 30
0.0
 10
-0.2001139322916666
 20
-3.144097222222221
 30
0.0
 10
-0.2001139322916666
 20
-3.230509440104166
 30
0.0
 10
-0.1298082139756944
 20
-3.30080837673611
 30
0.0
 10
-0.04339599609375
 20
-3.30080837673611
 30
0.0
 10
-0.04339599609375
 20
-3.30080837673611
 30
0.0
 10
2.0418701171875
 20
-3.30080837673611
 30
0.0
 10
2.0418701171875
 20
-3.30080837673611
 30
0.0
 10
2.128282335069444
 20
-3.30080837673611
 30
0.0
 10
2.198581271701388
 20
-3.230509440104166
 30
0.0
 10
2.198581271701388
 20
-3.144097222222221
 30
0.0
 10
2.198581271701388
 20
-3.144097222222221
 30
0.0
 10
2.198581271701388
 20
-3.0362548828125
 30
0.0
 10
2.198581271701388
 20
-3.0362548828125
 30
0.0
 10
2.198581271701388
 20
-2.949842664930555
 30
0.0
 10
2.128282335069444
 20
-2.879530164930555
 30
0.0
 10
2.0418701171875
 20
-2.879530164930555
 30
0.0
  0
HATCH
  5
89
330
84
100
AcDbEntity
  8
Inner Circle
 62
   250
420
  2301728
440
 33554687
100
AcDbHatch
 10
0.0
 20
0.0
 30
0.0
210
0.0
220
0.0
230
1.0
  2
SOLID
 70
     1
 71
     1
 91
        1
 92
        1
 93
        1
 72
     4
 94
        3
 73
     0
 74
     0
 95
       29
 96
       25
 40
0.0
 40
0.0
 40
0.0
 40
0.0
 40
1.0
 40
1.0
 40
1.0
 40
2.0
 40
2.0
 40
2.0
 40
3.0
 40
3.0
 40
3.0
 40
4.0
 40
4.0
 40
4.0
 40
5.0
 40
5.0
 40
5.0
 40
6.0
 40
6.0
 40
6.0
 40
7.0
 40
7.0
 40
7.0
 40
8.0
 40
8.0
 40
8.0
 40
8.0
 10
2.0418701171875
 20
-2.879530164930555
 10
2.0418701171875
 20
-2.879530164930555
 10
-0.04339599609375
 20
-2.879530164930555
 10
-0.04339599609375
 20
-2.879530164930555
 10
-0.1298082139756944
 20
-2.879530164930555
 10
-0.2001139322916666
 20
-2.949842664930555
 10
-0.2001139322916666
 20
-3.0362548828125
 10
-0.2001139322916666
 20
-3.0362548828125
 10
-0.2001139322916666
 20
-3.144097222222221
 10
-0.2001139322916666
 20
-3.144097222222221
 10
-0.2001139322916666
 20
-3.230509440104166
 10
-0.1298082139756944
 20
-3.30080837673611
 10
-0.04339599609375
 20
-3.30080837673611
 10
-0.04339599609375
 20
-3.30080837673611
 10
2.0418701171875
 20
-3.30080837673611
 10
2.0418701171875
 20
-3.30080837673611
 10
2.128282335069444
 20
-3.30080837673611
 10
2.198581271701388
 20
-3.230509440104166
 10
2.198581271701388
 20
-3.144097222222221
 10
2.198581271701388
 20
-3.144097222222221
 10
2.198581271701388
 20
-3.0362548828125
 10
2.198581271701388
 20
-3.0362548828125
 10
2.198581271701388
 20
-2.949842664930555
 10
2.128282335069444
 20
-2.879530164930555
 10
2.0418701171875
 20
-2.879530164930555
 97
        0
 97
        1
330
88
 75
     2
 76
     1
 98
        1
 10
0.0
 20
0.0
450
        0
451
        0
460
0.0
461
0.0
452
        0
462
0.0
453
        0
470

  0
INSERT
  5
8B
330
84
100
AcDbEntity
  8
Inner Circle
100
AcDbBlockReference
  2
Block_1
 10
0.0
 20
0.0
 30
0.0
  0
ENDBLK
  5
87
330
84
100
AcDbEntity
  8
0
100
AcDbBlockEnd
  0
BLOCK
  5
8C
330
8A
100
AcDbEntity
  8
0
100
AcDbBlockBegin
  2
Block_1
 70
     0
 10
0.0
 20
0.0
 30
0.0
  3
Block_1
  1

  0
LWPOLYLINE
  5
8E
330
8A
100
AcDbEntity
  8
Inner Circle
100
AcDbPolyline
 90
       10
 70
     1
 43
0.0
 10
-0.0211656358506945
 20
-3.0687255859375
 10
-0.0148179796006945
 20
-3.0325927734375
 10
0.0687120225694445
 20
-3.0325927734375
 10
0.0768907335069444
 20
-2.986382378472221
 10
-0.05987548828125
 20
-2.986382378472221
 10
-0.095947265625
 20
-3.193956163194444
 10
-0.0428805881076389
 20
-3.193956163194444
 10
-0.0290459526909722
 20
-3.114800347222221
 10
0.045166015625
 20
-3.114800347222221
 10
0.0533515082465278
 20
-3.0687255859375
  0
SPLINE
  5
8F
330
8A
100
AcDbEntity
  8
Inner Circle
100
AcDbSpline
210
0.0
220
0.0
230
1.0
 70
     9
 71
     3
 72
    32
 73
    28
 74
     0
 42
0.0000000001
 43
0.0000000001
 40
0.0
 40
0.0
 40
0.0
 40
0.0
 40
1.0
 40
1.0
 40
1.0
 40
2.0
 40
2.0
 40
2.0
 40
3.0
 40
3.0
 40
3.0
 40
4.0
 40
4.0
 40
4.0
 40
5.0
 40
5.0
 40
5.0
 40
6.0
 40
6.0
 40
6.0
 40
7.0
 40
7.0
 40
7.0
 40
8.0
 40
8.0
 40
8.0
 40
9.0
 40
9.0
 40
9.0
 40
9.0
 10
0.1127726236979166
 20
-3.090806749131944
 30
0.0
 10
0.1180013020833333
 20
-3.082316080729166
 30
0.0
 10
0.1243218315972222
 20
-3.078342013888888
 30
0.0
 10
0.1326429578993056
 20
-3.078342013888888
 30
0.0
 10
0.1329210069444444
 20
-3.078342013888888
 30
0.0
 10
0.1331990559895833
 20
-3.078342013888888
 30
0.0
 10
0.13348388671875
 20
-3.078355577256944
 30
0.0
 10
0.1383395724826389
 20
-3.078477647569444
 30
0.0
 10
0.1417575412326389
 20
-3.080091688368055
 30
0.0
 10
0.1442396375868056
 20
-3.083455403645833
 30
0.0
 10
0.1471489800347222
 20
-3.087375217013888
 30
0.0
 10
0.1487765842013889
 20
-3.092936197916666
 30
0.0
 10
0.1490614149305556
 20
-3.099880642361111
 30
0.0
 10
0.14947509765625
 20
-3.116265190972221
 30
0.0
 10
0.1467217339409722
 20
-3.129503038194444
 30
0.0
 10
0.1408759223090278
 20
-3.139227973090277
 30
0.0
 10
0.1355929904513889
 20
-3.148044162326388
 30
0.0
 10
0.1290690104166666
 20
-3.152357313368055
 30
0.0
 10
0.119873046875
 20
-3.1517333984375
 30
0.0
 10
0.1150377061631944
 20
-3.151611328125
 30
0.0
 10
0.1116129557291666
 20
-3.150037977430555
 30
0.0
 10
0.1090833875868056
 20
-3.146782769097221
 30
0.0
 10
0.1062215169270833
 20
-3.14309353298611
 30
0.0
 10
0.1046956380208333
 20
-3.137708875868055
 30
0.0
 10
0.10455322265625
 20
-3.130710177951388
 30
0.0
 10
0.10406494140625
 20
-3.113837348090277
 30
0.0
 10
0.1068250868055556
 20
-3.100409613715277
 30
0.0
 10
0.1127726236979166
 20
-3.090806749131944
 30
0.0
  0
SPLINE
  5
90
330
8A
100
AcDbEntity
  8
Inner Circle
100
AcDbSpline
210
0.0
220
0.0
230
1.0
 70
     9
 71
     3
 72
    38
 73
    34
 74
     0
 42
0.0000000001
 43
0.0000000001
 40
0.0
 40
0.0
 40
0.0
 40
0.0
 40
1.0
 40
1.0
 40
1.0
 40
2.0
 40
2.0
 40
2.0
 40
3.0
 40
3.0
 40
3.0
 40
4.0
 40
4.0
 40
4.0
 40
5.0
 40
5.0
 40
5.0
 40
6.0
 40
6.0
 40
6.0
 40
7.0
 40
7.0
 40
7.0
 40
8.0
 40
8.0
 40
8.0
 40
9.0
 40
9.0
 40
9.0
 40
10.0
 40
10.0
 40
10.0
 40
11.0
 40
11.0
 40
11.0
 40
11.0
 10
0.19500732421875
 20
-3.073906792534721
 30
0.0
 10
0.1902194552951389
 20
-3.061496310763888
 30
0.0
 10
0.1825697157118056
 20
-3.051595052083333
 30
0.0
 10
0.1722615559895833
 20
-3.044487847222221
 30
0.0
 10
0.1619737413194444
 20
-3.037380642361111
 30
0.0
 10
0.1496514214409722
 20
-3.033664279513888
 30
0.0
 10
0.1357082790798611
 20
-3.033474392361111
 30
0.0
 10
0.1138576931423611
 20
-3.033230251736111
 30
0.0
 10
0.0949435763888889
 20
-3.0404052734375
 30
0.0
 10
0.0797661675347222
 20
-3.055759006076388
 30
0.0
 10
0.0648464626736111
 20
-3.070868598090277
 30
0.0
 10
0.0560438368055556
 20
-3.091349283854166
 30
0.0
 10
0.0535820855034722
 20
-3.116658528645833
 30
0.0
 10
0.0522393120659722
 20
-3.131076388888888
 30
0.0
 10
0.053955078125
 20
-3.144490559895833
 30
0.0
 10
0.0586886935763889
 20
-3.156561957465277
 30
0.0
 10
0.0635308159722222
 20
-3.168904622395833
 30
0.0
 10
0.0711873372395833
 20
-3.17873806423611
 30
0.0
 10
0.0814480251736111
 20
-3.185750325520833
 30
0.0
 10
0.0916815863715278
 20
-3.192762586805555
 30
0.0
 10
0.1038886176215278
 20
-3.196424696180555
 30
0.0
 10
0.1177096896701389
 20
-3.196614583333333
 30
0.0
 10
0.1182454427083333
 20
-3.196628146701388
 30
0.0
 10
0.1187744140625
 20
-3.196628146701388
 30
0.0
 10
0.1193101671006944
 20
-3.196628146701388
 30
0.0
 10
0.1409030490451389
 20
-3.196628146701388
 30
0.0
 10
0.15936279296875
 20
-3.18896484375
 30
0.0
 10
0.1742011176215278
 20
-3.17385525173611
 30
0.0
 10
0.1891682942708333
 20
-3.15859646267361
 30
0.0
 10
0.1978624131944444
 20
-3.138481987847221
 30
0.0
 10
0.2000393337673611
 20
-3.114081488715277
 30
0.0
 10
0.2013685438368055
 20
-3.099500868055555
 30
0.0
 10
0.1996799045138889
 20
-3.085978190104166
 30
0.0
 10
0.19500732421875
 20
-3.073906792534721
 30
0.0
  0
SPLINE
  5
91
330
8A
100
AcDbEntity
  8
Inner Circle
100
AcDbSpline
210
0.0
220
0.0
230
1.0
 70
     9
 71
     3
 72
    23
 73
    19
 74
     0
 42
0.0000000001
 43
0.0000000001
 40
0.0
 40
0.0
 40
0.0
 40
0.0
 40
1.0
 40
1.0
 40
1.0
 40
2.0
 40
2.0
 40
2.0
 40
3.0
 40
3.0
 40
3.0
 40
4.0
 40
4.0
 40
4.0
 40
5.0
 40
5.0
 40
5.0
 40
6.0
 40
6.0
 40
6.0
 40
6.0
 10
0.3793606228298611
 20
-3.078355577256944
 30
0.0
 10
0.3830905490451389
 20
-3.078423394097221
 30
0.0
 10
0.385986328125
 20
-3.079359266493055
 30
0.0
 10
0.3882107204861111
 20
-3.081217447916666
 30
0.0
 10
0.390380859375
 20
-3.083021375868055
 30
0.0
 10
0.3917304144965277
 20
-3.085598415798611
 30
0.0
 10
0.3923000759548611
 20
-3.088853624131944
 30
0.0
 10
0.3925442165798611
 20
-3.090643988715277
 30
0.0
 10
0.3925916883680555
 20
-3.092542860243055
 30
0.0
 10
0.3924492730034722
 20
-3.094536675347221
 30
0.0
 10
0.3924492730034722
 20
-3.094536675347221
 30
0.0
 10
0.3572658962673611
 20
-3.094536675347221
 30
0.0
 10
0.3572658962673611
 20
-3.094536675347221
 30
0.0
 10
0.3598971896701389
 20
-3.089436848958333
 30
0.0
 10
0.3626641167534722
 20
-3.085666232638888
 30
0.0
 10
0.3655463324652777
 20
-3.083238389756944
 30
0.0
 10
0.3695882161458333
 20
-3.079820421006944
 30
0.0
 10
0.3741115993923611
 20
-3.078314887152777
 30
0.0
 10
0.3793606228298611
 20
-3.078355577256944
 30
0.0
  0
SPLINE
  5
92
330
8A
100
AcDbEntity
  8
Inner Circle
100
AcDbSpline
210
0.0
220
0.0
230
1.0
 70
     9
 71
     3
 72
    20
 73
    16
 74
     0
 42
0.0000000001
 43
0.0000000001
 40
0.0
 40
0.0
 40
0.0
 40
0.0
 40
1.0
 40
1.0
 40
1.0
 40
2.0
 40
2.0
 40
2.0
 40
3.0
 40
3.0
 40
3.0
 40
4.0
 40
4.0
 40
4.0
 40
5.0
 40
5.0
 40
5.0
 40
5.0
 10
0.40155029296875
 20
-3.13796657986111
 30
0.0
 10
0.3926052517361111
 20
-3.147528754340277
 30
0.0
 10
0.3826700846354166
 20
-3.152275933159721
 30
0.0
 10
0.370849609375
 20
-3.1517333984375
 30
0.0
 10
0.3644205729166666
 20
-3.151597764756944
 30
0.0
 10
0.35955810546875
 20
-3.149549696180555
 30
0.0
 10
0.3559773763020833
 20
-3.145453559027777
 30
0.0
 10
0.3534613715277777
 20
-3.142578125
 30
0.0
 10
0.3518880208333333
 20
-3.138997395833333
 30
0.0
 10
0.3512301974826389
 20
-3.134629991319444
 30
0.0
 10
0.3512301974826389
 20
-3.134629991319444
 30
0.0
 10
0.4046766493055556
 20
-3.134629991319444
 30
0.0
 10
0.4046766493055556
 20
-3.134629991319444
 30
0.0
 10
0.4046766493055556
 20
-3.134629991319444
 30
0.0
 10
0.40155029296875
 20
-3.13796657986111
 30
0.0
 10
0.40155029296875
 20
-3.13796657986111
 30
0.0
  0
SPLINE
  5
93
330
8A
100
AcDbEntity
  8
Inner Circle
100
AcDbSpline
210
0.0
220
0.0
230
1.0
 70
     9
 71
     3
 72
    89
 73
    85
 74
     0
 42
0.0000000001
 43
0.0000000001
 40
0.0
 40
0.0
 40
0.0
 40
0.0
 40
1.0
 40
1.0
 40
1.0
 40
2.0
 40
2.0
 40
2.0
 40
3.0
 40
3.0
 40
3.0
 40
4.0
 40
4.0
 40
4.0
 40
5.0
 40
5.0
 40
5.0
 40
6.0
 40
6.0
 40
6.0
 40
7.0
 40
7.0
 40
7.0
 40
8.0
 40
8.0
 40
8.0
 40
9.0
 40
9.0
 40
9.0
 40
10.0
 40
10.0
 40
10.0
 40
11.0
 40
11.0
 40
11.0
 40
12.0
 40
12.0
 40
12.0
 40
13.0
 40
13.0
 40
13.0
 40
14.0
 40
14.0
 40
14.0
 40
15.0
 40
15.0
 40
15.0
 40
16.0
 40
16.0
 40
16.0
 40
17.0
 40
17.0
 40
17.0
 40
18.0
 40
18.0
 40
18.0
 40
19.0
 40
19.0
 40
19.0
 40
20.0
 40
20.0
 40
20.0
 40
21.0
 40
21.0
 40
21.0
 40
22.0
 40
22.0
 40
22.0
 40
23.0
 40
23.0
 40
23.0
 40
24.0
 40
24.0
 40
24.0
 40
25.0
 40
25.0
 40
25.0
 40
26.0
 40
26.0
 40
26.0
 40
27.0
 40
27.0
 40
27.0
 40
28.0
 40
28.0
 40
28.0
 40
28.0
 10
0.3814900716145833
 20
-3.033474392361111
 30
0.0
 10
0.3672281901041666
 20
-3.033216688368055
 30
0.0
 10
0.3539767795138889
 20
-3.036444769965277
 30
0.0
 10
0.3421630859375
 20
-3.043416341145833
 30
0.0
 10
0.3304443359375
 20
-3.050347222222221
 30
0.0
 10
0.3207533094618055
 20
-3.060289171006944
 30
0.0
 10
0.3133612738715277
 20
-3.072970920138888
 30
0.0
 10
0.3118303087022569
 20
-3.075592888726128
 30
0.0
 10
0.310500250922309
 20
-3.078312344021267
 30
0.0
 10
0.3092235989040799
 20
-3.081056382921006
 30
0.0
 10
0.3092235989040799
 20
-3.081056382921006
 30
0.0
 10
0.3149346245659722
 20
-3.036783854166666
 30
0.0
 10
0.3149346245659722
 20
-3.036783854166666
 30
0.0
 10
0.3149346245659722
 20
-3.036783854166666
 30
0.0
 10
0.3089463975694444
 20
-3.0352783203125
 30
0.0
 10
0.3089463975694444
 20
-3.0352783203125
 30
0.0
 10
0.2929144965277777
 20
-3.03125
 30
0.0
 10
0.2822469075520833
 20
-3.033067491319444
 30
0.0
 10
0.2719184027777778
 20
-3.039496527777777
 30
0.0
 10
0.2719184027777778
 20
-3.039496527777777
 30
0.0
 10
0.2726101345486111
 20
-3.035970052083333
 30
0.0
 10
0.2726101345486111
 20
-3.035970052083333
 30
0.0
 10
0.2726101345486111
 20
-3.035970052083333
 30
0.0
 10
0.2230631510416666
 20
-3.036159939236111
 30
0.0
 10
0.2230631510416666
 20
-3.036159939236111
 30
0.0
 10
0.2230631510416666
 20
-3.036159939236111
 30
0.0
 10
0.1956448025173611
 20
-3.193956163194444
 30
0.0
 10
0.1956448025173611
 20
-3.193956163194444
 30
0.0
 10
0.1956448025173611
 20
-3.193956163194444
 30
0.0
 10
0.2472330729166666
 20
-3.193956163194444
 30
0.0
 10
0.2472330729166666
 20
-3.193956163194444
 30
0.0
 10
0.2472330729166666
 20
-3.193956163194444
 30
0.0
 10
0.2645738389756944
 20
-3.095743815104166
 30
0.0
 10
0.2645738389756944
 20
-3.095743815104166
 30
0.0
 10
0.2706502278645833
 20
-3.088338216145833
 30
0.0
 10
0.2785169813368055
 20
-3.084730360243055
 30
0.0
 10
0.2886759440104166
 20
-3.084730360243055
 30
0.0
 10
0.2918836805555555
 20
-3.084757486979166
 30
0.0
 10
0.2958916558159722
 20
-3.085042317708333
 30
0.0
 10
0.3012966579861111
 20
-3.085978190104166
 30
0.0
 10
0.3012966579861111
 20
-3.085978190104166
 30
0.0
 10
0.3067949083116319
 20
-3.08691914876302
 30
0.0
 10
0.3067949083116319
 20
-3.08691914876302
 30
0.0
 10
0.3034176296657986
 20
-3.095614963107638
 30
0.0
 10
0.3011203342013889
 20
-3.10480244954427
 30
0.0
 10
0.3001980251736111
 20
-3.11452907986111
 30
0.0
 10
0.3001980251736111
 20
-3.11452907986111
 30
0.0
 10
0.2998046875
 20
-3.11977810329861
 30
0.0
 10
0.2998046875
 20
-3.11977810329861
 30
0.0
 10
0.29864501953125
 20
-3.133680555555555
 30
0.0
 10
0.30072021484375
 20
-3.14663357204861
 30
0.0
 10
0.3059828016493055
 20
-3.158284505208333
 30
0.0
 10
0.3113267686631944
 20
-3.170098198784721
 30
0.0
 10
0.3195326063368055
 20
-3.179538302951388
 30
0.0
 10
0.33038330078125
 20
-3.186319986979166
 30
0.0
 10
0.3411729600694444
 20
-3.193060980902777
 30
0.0
 10
0.3536512586805555
 20
-3.196519639756944
 30
0.0
 10
0.3674112955729166
 20
-3.196614583333333
 30
0.0
 10
0.3678724500868055
 20
-3.196614583333333
 30
0.0
 10
0.3683336046006944
 20
-3.196628146701388
 30
0.0
 10
0.3687947591145833
 20
-3.196628146701388
 30
0.0
 10
0.3809475368923611
 20
-3.196628146701388
 30
0.0
 10
0.39251708984375
 20
-3.194200303819444
 30
0.0
 10
0.4032118055555556
 20
-3.189425998263888
 30
0.0
 10
0.4145914713541666
 20
-3.184326171875
 30
0.0
 10
0.4234619140625
 20
-3.177056206597221
 30
0.0
 10
0.4295722113715278
 20
-3.167833116319444
 30
0.0
 10
0.4295722113715278
 20
-3.167833116319444
 30
0.0
 10
0.432373046875
 20
-3.163587782118055
 30
0.0
 10
0.432373046875
 20
-3.163587782118055
 30
0.0
 10
0.432373046875
 20
-3.163587782118055
 30
0.0
 10
0.4090237087673611
 20
-3.134629991319444
 30
0.0
 10
0.4090237087673611
 20
-3.134629991319444
 30
0.0
 10
0.4090237087673611
 20
-3.134629991319444
 30
0.0
 10
0.4382663302951389
 20
-3.134629991319444
 30
0.0
 10
0.4382663302951389
 20
-3.134629991319444
 30
0.0
 10
0.4382663302951389
 20
-3.134629991319444
 30
0.0
 10
0.4411892361111111
 20
-3.11208767361111
 30
0.0
 10
0.4411892361111111
 20
-3.11208767361111
 30
0.0
 10
0.4436848958333333
 20
-3.090074327256944
 30
0.0
 10
0.4396158854166666
 20
-3.071478949652777
 30
0.0
 10
0.4290907118055556
 20
-3.056816948784721
 30
0.0
 10
0.4182535807291666
 20
-3.041734483506944
 30
0.0
 10
0.4022352430555556
 20
-3.033867730034721
 30
0.0
 10
0.3814900716145833
 20
-3.033474392361111
 30
0.0
  0
LWPOLYLINE
  5
94
330
8A
100
AcDbEntity
  8
Inner Circle
100
AcDbPolyline
 90
        7
 70
     1
 43
0.0
 10
0.5385064019097223
 20
-3.0361328125
 10
0.5061238606770833
 20
-3.112372504340277
 10
0.4977145724826389
 20
-3.0361328125
 10
0.4452175564236111
 20
-3.0361328125
 10
0.4721950954861111
 20
-3.193956163194444
 10
0.5183308919270833
 20
-3.193956163194444
 10
0.5946112738715278
 20
-3.0361328125
  0
SPLINE
  5
95
330
8A
100
AcDbEntity
  8
Inner Circle
100
AcDbSpline
210
0.0
220
0.0
230
1.0
 70
     9
 71
     3
 72
    23
 73
    19
 74
     0
 42
0.0000000001
 43
0.0000000001
 40
0.0
 40
0.0
 40
0.0
 40
0.0
 40
1.0
 40
1.0
 40
1.0
 40
2.0
 40
2.0
 40
2.0
 40
3.0
 40
3.0
 40
3.0
 40
4.0
 40
4.0
 40
4.0
 40
5.0
 40
5.0
 40
5.0
 40
6.0
 40
6.0
 40
6.0
 40
6.0
 10
0.6549886067708333
 20
-3.078355577256944
 30
0.0
 10
0.6587185329861111
 20
-3.078423394097221
 30
0.0
 10
0.6616143120659723
 20
-3.079359266493055
 30
0.0
 10
0.6638387044270833
 20
-3.081217447916666
 30
0.0
 10
0.6660088433159723
 20
-3.083021375868055
 30
0.0
 10
0.6673583984375
 20
-3.085598415798611
 30
0.0
 10
0.6679280598958333
 20
-3.088853624131944
 30
0.0
 10
0.6681722005208333
 20
-3.090643988715277
 30
0.0
 10
0.6682196723090278
 20
-3.092542860243055
 30
0.0
 10
0.6680772569444445
 20
-3.094536675347221
 30
0.0
 10
0.6680772569444445
 20
-3.094536675347221
 30
0.0
 10
0.6328938802083333
 20
-3.094536675347221
 30
0.0
 10
0.6328938802083333
 20
-3.094536675347221
 30
0.0
 10
0.6355251736111111
 20
-3.089436848958333
 30
0.0
 10
0.6382921006944445
 20
-3.085666232638888
 30
0.0
 10
0.64117431640625
 20
-3.083238389756944
 30
0.0
 10
0.6452229817708333
 20
-3.079820421006944
 30
0.0
 10
0.6497938368055555
 20
-3.078314887152777
 30
0.0
 10
0.6549886067708333
 20
-3.078355577256944
 30
0.0
  0
SPLINE
  5
96
330
8A
100
AcDbEntity
  8
Inner Circle
100
AcDbSpline
210
0.0
220
0.0
230
1.0
 70
     9
 71
     3
 72
    20
 73
    16
 74
     0
 42
0.0000000001
 43
0.0000000001
 40
0.0
 40
0.0
 40
0.0
 40
0.0
 40
1.0
 40
1.0
 40
1.0
 40
2.0
 40
2.0
 40
2.0
 40
3.0
 40
3.0
 40
3.0
 40
4.0
 40
4.0
 40
4.0
 40
5.0
 40
5.0
 40
5.0
 40
5.0
 10
0.6771782769097223
 20
-3.13796657986111
 30
0.0
 10
0.6682332356770833
 20
-3.147528754340277
 30
0.0
 10
0.6582505967881945
 20
-3.152275933159721
 30
0.0
 10
0.6464775933159723
 20
-3.1517333984375
 30
0.0
 10
0.6400485568576389
 20
-3.151597764756944
 30
0.0
 10
0.6351860894097223
 20
-3.149549696180555
 30
0.0
 10
0.6316053602430555
 20
-3.145453559027777
 30
0.0
 10
0.62908935546875
 20
-3.142578125
 30
0.0
 10
0.6275160047743055
 20
-3.138997395833333
 30
0.0
 10
0.6268581814236111
 20
-3.134629991319444
 30
0.0
 10
0.6268581814236111
 20
-3.134629991319444
 30
0.0
 10
0.6803046332465278
 20
-3.134629991319444
 30
0.0
 10
0.6803046332465278
 20
-3.134629991319444
 30
0.0
 10
0.6803046332465278
 20
-3.134629991319444
 30
0.0
 10
0.6771782769097223
 20
-3.13796657986111
 30
0.0
 10
0.6771782769097223
 20
-3.13796657986111
 30
0.0
  0
SPLINE
  5
97
330
8A
100
AcDbEntity
  8
Inner Circle
100
AcDbSpline
210
0.0
220
0.0
230
1.0
 70
    11
 71
     3
 72
    53
 73
    49
 74
     0
 42
0.0000000001
 43
0.0000000001
 40
0.0
 40
0.0
 40
0.0
 40
0.0
 40
1.0
 40
1.0
 40
1.0
 40
2.0
 40
2.0
 40
2.0
 40
3.0
 40
3.0
 40
3.0
 40
4.0
 40
4.0
 40
4.0
 40
5.0
 40
5.0
 40
5.0
 40
6.0
 40
6.0
 40
6.0
 40
7.0
 40
7.0
 40
7.0
 40
8.0
 40
8.0
 40
8.0
 40
9.0
 40
9.0
 40
9.0
 40
10.0
 40
10.0
 40
10.0
 40
11.0
 40
11.0
 40
11.0
 40
12.0
 40
12.0
 40
12.0
 40
13.0
 40
13.0
 40
13.0
 40
14.0
 40
14.0
 40
14.0
 40
15.0
 40
15.0
 40
15.0
 40
16.0
 40
16.0
 40
16.0
 40
16.0
 10
0.7138943142361111
 20
-3.134629991319444
 30
0.0
 10
0.7138943142361111
 20
-3.134629991319444
 30
0.0
 10
0.7168172200520833
 20
-3.11208767361111
 30
0.0
 10
0.7168172200520833
 20
-3.11208767361111
 30
0.0
 10
0.7193128797743055
 20
-3.090074327256944
 30
0.0
 10
0.7152438693576389
 20
-3.071478949652777
 30
0.0
 10
0.7047186957465278
 20
-3.056816948784721
 30
0.0
 10
0.6938815646701389
 20
-3.041734483506944
 30
0.0
 10
0.6778632269965278
 20
-3.033867730034721
 30
0.0
 10
0.6571180555555555
 20
-3.033474392361111
 30
0.0
 10
0.6428154839409723
 20
-3.033216688368055
 30
0.0
 10
0.6296047634548611
 20
-3.036444769965277
 30
0.0
 10
0.6177910698784723
 20
-3.043416341145833
 30
0.0
 10
0.6060723198784723
 20
-3.050347222222221
 30
0.0
 10
0.5963812934027778
 20
-3.060289171006944
 30
0.0
 10
0.5889892578125
 20
-3.072970920138888
 30
0.0
 10
0.5816786024305555
 20
-3.085489908854166
 30
0.0
 10
0.5772569444444445
 20
-3.099433051215277
 30
0.0
 10
0.5758260091145833
 20
-3.11452907986111
 30
0.0
 10
0.5758260091145833
 20
-3.11452907986111
 30
0.0
 10
0.5754326714409723
 20
-3.11977810329861
 30
0.0
 10
0.5754326714409723
 20
-3.11977810329861
 30
0.0
 10
0.5742730034722223
 20
-3.133680555555555
 30
0.0
 10
0.5763481987847223
 20
-3.14663357204861
 30
0.0
 10
0.5816107855902778
 20
-3.158284505208333
 30
0.0
 10
0.5869547526041666
 20
-3.170098198784721
 30
0.0
 10
0.5951605902777778
 20
-3.179538302951388
 30
0.0
 10
0.6060112847222223
 20
-3.186319986979166
 30
0.0
 10
0.6168009440104166
 20
-3.193060980902777
 30
0.0
 10
0.6292792426215278
 20
-3.196519639756944
 30
0.0
 10
0.6430392795138889
 20
-3.196614583333333
 30
0.0
 10
0.6435004340277778
 20
-3.196614583333333
 30
0.0
 10
0.6439615885416666
 20
-3.196628146701388
 30
0.0
 10
0.6444227430555555
 20
-3.196628146701388
 30
0.0
 10
0.6565755208333333
 20
-3.196628146701388
 30
0.0
 10
0.6681450737847223
 20
-3.194200303819444
 30
0.0
 10
0.6788397894965278
 20
-3.189425998263888
 30
0.0
 10
0.6902194552951389
 20
-3.184326171875
 30
0.0
 10
0.6990898980034723
 20
-3.177056206597221
 30
0.0
 10
0.7052001953125
 20
-3.167833116319444
 30
0.0
 10
0.7052001953125
 20
-3.167833116319444
 30
0.0
 10
0.7080010308159723
 20
-3.163587782118055
 30
0.0
 10
0.7080010308159723
 20
-3.163587782118055
 30
0.0
 10
0.7080010308159723
 20
-3.163587782118055
 30
0.0
 10
0.6846516927083333
 20
-3.134629991319444
 30
0.0
 10
0.6846516927083333
 20
-3.134629991319444
 30
0.0
 10
0.6846516927083333
 20
-3.134629991319444
 30
0.0
 10
0.7138943142361111
 20
-3.134629991319444
 30
0.0
 10
0.7138943142361111
 20
-3.134629991319444
 30
0.0
  0
SPLINE
  5
98
330
8A
100
AcDbEntity
  8
Inner Circle
100
AcDbSpline
210
0.0
220
0.0
230
1.0
 70
     9
 71
     3
 72
    38
 73
    34
 74
     0
 42
0.0000000001
 43
0.0000000001
 40
0.0
 40
0.0
 40
0.0
 40
0.0
 40
1.0
 40
1.0
 40
1.0
 40
2.0
 40
2.0
 40
2.0
 40
3.0
 40
3.0
 40
3.0
 40
4.0
 40
4.0
 40
4.0
 40
5.0
 40
5.0
 40
5.0
 40
6.0
 40
6.0
 40
6.0
 40
7.0
 40
7.0
 40
7.0
 40
8.0
 40
8.0
 40
8.0
 40
9.0
 40
9.0
 40
9.0
 40
10.0
 40
10.0
 40
10.0
 40
11.0
 40
11.0
 40
11.0
 40
11.0
 10
0.7869873046875
 20
-3.039496527777777
 30
0.0
 10
0.7869873046875
 20
-3.039496527777777
 30
0.0
 10
0.7876790364583333
 20
-3.035970052083333
 30
0.0
 10
0.7876790364583333
 20
-3.035970052083333
 30
0.0
 10
0.7876790364583333
 20
-3.035970052083333
 30
0.0
 10
0.7381320529513889
 20
-3.036159939236111
 30
0.0
 10
0.7381320529513889
 20
-3.036159939236111
 30
0.0
 10
0.7381320529513889
 20
-3.036159939236111
 30
0.0
 10
0.7107137044270833
 20
-3.193956163194444
 30
0.0
 10
0.7107137044270833
 20
-3.193956163194444
 30
0.0
 10
0.7107137044270833
 20
-3.193956163194444
 30
0.0
 10
0.7623019748263889
 20
-3.193956163194444
 30
0.0
 10
0.7623019748263889
 20
-3.193956163194444
 30
0.0
 10
0.7623019748263889
 20
-3.193956163194444
 30
0.0
 10
0.7796427408854166
 20
-3.095743815104166
 30
0.0
 10
0.7796427408854166
 20
-3.095743815104166
 30
0.0
 10
0.7857191297743055
 20
-3.088338216145833
 30
0.0
 10
0.7935858832465277
 20
-3.084730360243055
 30
0.0
 10
0.8037448459201389
 20
-3.084730360243055
 30
0.0
 10
0.8069322374131944
 20
-3.084757486979166
 30
0.0
 10
0.8109605577256944
 20
-3.085042317708333
 30
0.0
 10
0.8163655598958332
 20
-3.085978190104166
 30
0.0
 10
0.8163655598958332
 20
-3.085978190104166
 30
0.0
 10
0.8234998914930555
 20
-3.087198893229166
 30
0.0
 10
0.8234998914930555
 20
-3.087198893229166
 30
0.0
 10
0.8234998914930555
 20
-3.087198893229166
 30
0.0
 10
0.8300035264756944
 20
-3.036783854166666
 30
0.0
 10
0.8300035264756944
 20
-3.036783854166666
 30
0.0
 10
0.8300035264756944
 20
-3.036783854166666
 30
0.0
 10
0.8240152994791666
 20
-3.0352783203125
 30
0.0
 10
0.8240152994791666
 20
-3.0352783203125
 30
0.0
 10
0.8079969618055555
 20
-3.03125
 30
0.0
 10
0.7973090277777777
 20
-3.033067491319444
 30
0.0
 10
0.7869873046875
 20
-3.039496527777777
 30
0.0
  0
SPLINE
  5
99
330
8A
100
AcDbEntity
  8
Inner Circle
100
AcDbSpline
210
0.0
220
0.0
230
1.0
 70
     9
 71
     3
 72
    29
 73
    25
 74
     0
 42
0.0000000001
 43
0.0000000001
 40
0.0
 40
0.0
 40
0.0
 40
0.0
 40
1.0
 40
1.0
 40
1.0
 40
2.0
 40
2.0
 40
2.0
 40
3.0
 40
3.0
 40
3.0
 40
4.0
 40
4.0
 40
4.0
 40
5.0
 40
5.0
 40
5.0
 40
6.0
 40
6.0
 40
6.0
 40
7.0
 40
7.0
 40
7.0
 40
8.0
 40
8.0
 40
8.0
 40
8.0
 10
0.9752332899305555
 20
-3.079766167534721
 30
0.0
 10
0.9752332899305555
 20
-3.079766167534721
 30
0.0
 10
0.9509684244791666
 20
-3.079562717013888
 30
0.0
 10
0.9509684244791666
 20
-3.079562717013888
 30
0.0
 10
0.9509684244791666
 20
-3.079562717013888
 30
0.0
 10
0.9591878255208332
 20
-3.032619900173611
 30
0.0
 10
0.9591878255208332
 20
-3.032619900173611
 30
0.0
 10
0.9591878255208332
 20
-3.032619900173611
 30
0.0
 10
0.9897800021701389
 20
-3.032728407118055
 30
0.0
 10
0.9897800021701389
 20
-3.032728407118055
 30
0.0
 10
0.996120876736111
 20
-3.032986111111111
 30
0.0
 10
1.000678168402777
 20
-3.034993489583333
 30
0.0
 10
1.003689236111111
 20
-3.038831922743055
 30
0.0
 10
1.006802029079861
 20
-3.042819552951388
 30
0.0
 10
1.007798936631944
 20
-3.048326280381944
 30
0.0
 10
1.006747775607638
 20
-3.055650499131944
 30
0.0
 10
1.006747775607638
 20
-3.055650499131944
 30
0.0
 10
1.006740993923611
 20
-3.055650499131944
 30
0.0
 10
1.006740993923611
 20
-3.055650499131944
 30
0.0
 10
1.005669487847222
 20
-3.0631103515625
 30
0.0
 10
1.002475314670138
 20
-3.068820529513888
 30
0.0
 10
0.9969685872395832
 20
-3.073133680555555
 30
0.0
 10
0.9912584092881944
 20
-3.077596028645833
 30
0.0
 10
0.984130859375
 20
-3.079766167534721
 30
0.0
 10
0.9752332899305555
 20
-3.079766167534721
 30
0.0
  0
SPLINE
  5
9A
330
8A
100
AcDbEntity
  8
Inner Circle
100
AcDbSpline
210
0.0
220
0.0
230
1.0
 70
     9
 71
     3
 72
    32
 73
    28
 74
     0
 42
0.0000000001
 43
0.0000000001
 40
0.0
 40
0.0
 40
0.0
 40
0.0
 40
1.0
 40
1.0
 40
1.0
 40
2.0
 40
2.0
 40
2.0
 40
3.0
 40
3.0
 40
3.0
 40
4.0
 40
4.0
 40
4.0
 40
5.0
 40
5.0
 40
5.0
 40
6.0
 40
6.0
 40
6.0
 40
7.0
 40
7.0
 40
7.0
 40
8.0
 40
8.0
 40
8.0
 40
9.0
 40
9.0
 40
9.0
 40
9.0
 10
1.041998969184027
 20
-3.005913628472221
 30
0.0
 10
1.02874755859375
 20
-2.9930419921875
 30
0.0
 10
1.010518391927083
 20
-2.986518012152777
 30
0.0
 10
0.987820095486111
 20
-2.986518012152777
 30
0.0
 10
0.987820095486111
 20
-2.986518012152777
 30
0.0
 10
0.9141303168402776
 20
-2.986368815104166
 30
0.0
 10
0.9141303168402776
 20
-2.986368815104166
 30
0.0
 10
0.9141303168402776
 20
-2.986368815104166
 30
0.0
 10
0.8780585394965276
 20
-3.193956163194444
 30
0.0
 10
0.8780585394965276
 20
-3.193956163194444
 30
0.0
 10
0.8780585394965276
 20
-3.193956163194444
 30
0.0
 10
0.931118435329861
 20
-3.193956163194444
 30
0.0
 10
0.931118435329861
 20
-3.193956163194444
 30
0.0
 10
0.931118435329861
 20
-3.193956163194444
 30
0.0
 10
0.9430881076388889
 20
-3.125732421875
 30
0.0
 10
0.9430881076388889
 20
-3.125732421875
 30
0.0
 10
0.9430881076388889
 20
-3.125732421875
 30
0.0
 10
0.9739718967013889
 20
-3.125840928819444
 30
0.0
 10
0.9739718967013889
 20
-3.125840928819444
 30
0.0
 10
0.9978230794270832
 20
-3.125840928819444
 30
0.0
 10
1.017815483940972
 20
-3.119615342881944
 30
0.0
 10
1.033413357204861
 20
-3.107326931423611
 30
0.0
 10
1.049350314670138
 20
-3.094780815972221
 30
0.0
 10
1.058220757378472
 20
-3.077813042534721
 30
0.0
 10
1.059780544704861
 20
-3.056939019097221
 30
0.0
 10
1.061448838975694
 20
-3.036146375868055
 30
0.0
 10
1.055467393663194
 20
-3.018975151909721
 30
0.0
 10
1.041998969184027
 20
-3.005913628472221
 30
0.0
  0
LWPOLYLINE
  5
9B
330
8A
100
AcDbEntity
  8
Inner Circle
100
AcDbPolyline
 90
        4
 70
     1
 43
0.0
 10
1.087185329861111
 20
-2.975735134548611
 10
1.049262152777777
 20
-3.193956163194444
 10
1.101142035590277
 20
-3.193956163194444
 10
1.138929578993055
 20
-2.975735134548611
  0
SPLINE
  5
9C
330
8A
100
AcDbEntity
  8
Inner Circle
100
AcDbSpline
210
0.0
220
0.0
230
1.0
 70
    11
 71
     3
 72
    50
 73
    46
 74
     0
 42
0.0000000001
 43
0.0000000001
 40
0.0
 40
0.0
 40
0.0
 40
0.0
 40
1.0
 40
1.0
 40
1.0
 40
2.0
 40
2.0
 40
2.0
 40
3.0
 40
3.0
 40
3.0
 40
4.0
 40
4.0
 40
4.0
 40
5.0
 40
5.0
 40
5.0
 40
6.0
 40
6.0
 40
6.0
 40
7.0
 40
7.0
 40
7.0
 40
8.0
 40
8.0
 40
8.0
 40
9.0
 40
9.0
 40
9.0
 40
10.0
 40
10.0
 40
10.0
 40
11.0
 40
11.0
 40
11.0
 40
12.0
 40
12.0
 40
12.0
 40
13.0
 40
13.0
 40
13.0
 40
14.0
 40
14.0
 40
14.0
 40
15.0
 40
15.0
 40
15.0
 40
15.0
 10
1.229804144965277
 20
-3.0361328125
 30
0.0
 10
1.229804144965277
 20
-3.0361328125
 30
0.0
 10
1.211168077256944
 20
-3.142157660590277
 30
0.0
 10
1.211168077256944
 20
-3.142157660590277
 30
0.0
 10
1.205145941840277
 20
-3.148857964409721
 30
0.0
 10
1.197686089409722
 20
-3.151950412326388
 30
0.0
 10
1.189019097222222
 20
-3.1517333984375
 30
0.0
 10
1.183525933159722
 20
-3.151570638020833
 30
0.0
 10
1.181491427951388
 20
-3.14968532986111
 30
0.0
 10
1.180948893229166
 20
-3.144232855902777
 30
0.0
 10
1.180731879340277
 20
-3.142184787326388
 30
0.0
 10
1.180772569444444
 20
-3.139933268229166
 30
0.0
 10
1.1810302734375
 20
-3.137858072916666
 30
0.0
 10
1.1810302734375
 20
-3.137858072916666
 30
0.0
 10
1.198228624131944
 20
-3.0361328125
 30
0.0
 10
1.198228624131944
 20
-3.0361328125
 30
0.0
 10
1.198228624131944
 20
-3.0361328125
 30
0.0
 10
1.146620008680555
 20
-3.0361328125
 30
0.0
 10
1.146620008680555
 20
-3.0361328125
 30
0.0
 10
1.146620008680555
 20
-3.0361328125
 30
0.0
 10
1.130018446180555
 20
-3.135498046875
 30
0.0
 10
1.130018446180555
 20
-3.135498046875
 30
0.0
 10
1.128255208333333
 20
-3.153171115451388
 30
0.0
 10
1.1314697265625
 20
-3.16775173611111
 30
0.0
 10
1.139567057291666
 20
-3.17886013454861
 30
0.0
 10
1.147989908854166
 20
-3.190443250868055
 30
0.0
 10
1.160400390625
 20
-3.1964111328125
 30
0.0
 10
1.176445855034722
 20
-3.196614583333333
 30
0.0
 10
1.176839192708333
 20
-3.196614583333333
 30
0.0
 10
1.177232530381944
 20
-3.196628146701388
 30
0.0
 10
1.1776123046875
 20
-3.196628146701388
 30
0.0
 10
1.188001844618055
 20
-3.196628146701388
 30
0.0
 10
1.197455512152777
 20
-3.1942138671875
 30
0.0
 10
1.205891927083333
 20
-3.189439561631944
 30
0.0
 10
1.205891927083333
 20
-3.189439561631944
 30
0.0
 10
1.205050998263888
 20
-3.193956163194444
 30
0.0
 10
1.205050998263888
 20
-3.193956163194444
 30
0.0
 10
1.205050998263888
 20
-3.193956163194444
 30
0.0
 10
1.254245334201388
 20
-3.193956163194444
 30
0.0
 10
1.254245334201388
 20
-3.193956163194444
 30
0.0
 10
1.254245334201388
 20
-3.193956163194444
 30
0.0
 10
1.281670464409722
 20
-3.0361328125
 30
0.0
 10
1.281670464409722
 20
-3.0361328125
 30
0.0
 10
1.281670464409722
 20
-3.0361328125
 30
0.0
 10
1.229804144965277
 20
-3.0361328125
 30
0.0
 10
1.229804144965277
 20
-3.0361328125
 30
0.0
  0
SPLINE
  5
9D
330
8A
100
AcDbEntity
  8
Inner Circle
100
AcDbSpline
210
0.0
220
0.0
230
1.0
 70
    11
 71
     3
 72
   101
 73
    97
 74
     0
 42
0.0000000001
 43
0.0000000001
 40
0.0
 40
0.0
 40
0.0
 40
0.0
 40
1.0
 40
1.0
 40
1.0
 40
2.0
 40
2.0
 40
2.0
 40
3.0
 40
3.0
 40
3.0
 40
4.0
 40
4.0
 40
4.0
 40
5.0
 40
5.0
 40
5.0
 40
6.0
 40
6.0
 40
6.0
 40
7.0
 40
7.0
 40
7.0
 40
8.0
 40
8.0
 40
8.0
 40
9.0
 40
9.0
 40
9.0
 40
10.0
 40
10.0
 40
10.0
 40
11.0
 40
11.0
 40
11.0
 40
12.0
 40
12.0
 40
12.0
 40
13.0
 40
13.0
 40
13.0
 40
14.0
 40
14.0
 40
14.0
 40
15.0
 40
15.0
 40
15.0
 40
16.0
 40
16.0
 40
16.0
 40
17.0
 40
17.0
 40
17.0
 40
18.0
 40
18.0
 40
18.0
 40
19.0
 40
19.0
 40
19.0
 40
20.0
 40
20.0
 40
20.0
 40
21.0
 40
21.0
 40
21.0
 40
22.0
 40
22.0
 40
22.0
 40
23.0
 40
23.0
 40
23.0
 40
24.0
 40
24.0
 40
24.0
 40
25.0
 40
25.0
 40
25.0
 40
26.0
 40
26.0
 40
26.0
 40
27.0
 40
27.0
 40
27.0
 40
28.0
 40
28.0
 40
28.0
 40
29.0
 40
29.0
 40
29.0
 40
30.0
 40
30.0
 40
30.0
 40
31.0
 40
31.0
 40
31.0
 40
32.0
 40
32.0
 40
32.0
 40
32.0
 10
1.412679036458333
 20
-3.093953450520833
 30
0.0
 10
1.412679036458333
 20
-3.093953450520833
 30
0.0
 10
1.412584092881944
 20
-3.086900499131944
 30
0.0
 10
1.412584092881944
 20
-3.086900499131944
 30
0.0
 10
1.41238064236111
 20
-3.070841471354166
 30
0.0
 10
1.40639919704861
 20
-3.057766384548611
 30
0.0
 10
1.39480251736111
 20
-3.048000759548611
 30
0.0
 10
1.38357204861111
 20
-3.038560655381944
 30
0.0
 10
1.368842230902777
 20
-3.033664279513888
 30
0.0
 10
1.351047092013888
 20
-3.033474392361111
 30
0.0
 10
1.3333740234375
 20
-3.033623589409721
 30
0.0
 10
1.31777615017361
 20
-3.0379638671875
 30
0.0
 10
1.304999457465277
 20
-3.047403971354166
 30
0.0
 10
1.291680230034722
 20
-3.0572509765625
 30
0.0
 10
1.284681532118055
 20
-3.070217556423611
 30
0.0
 10
1.284152560763888
 20
-3.085896809895833
 30
0.0
 10
1.283216688368055
 20
-3.109429253472221
 30
0.0
 10
1.298990885416666
 20
-3.125827365451388
 30
0.0
 10
1.331163194444444
 20
-3.13467068142361
 30
0.0
 10
1.331163194444444
 20
-3.13467068142361
 30
0.0
 10
1.343085394965277
 20
-3.1376953125
 30
0.0
 10
1.343085394965277
 20
-3.1376953125
 30
0.0
 10
1.353800455729166
 20
-3.140719943576388
 30
0.0
 10
1.3531494140625
 20
-3.144002278645833
 30
0.0
 10
1.3529052734375
 20
-3.145182291666666
 30
0.0
 10
1.352389865451388
 20
-3.148044162326388
 30
0.0
 10
1.350816514756944
 20
-3.150214301215277
 30
0.0
 10
1.347995334201388
 20
-3.15200466579861
 30
0.0
 10
1.344645182291666
 20
-3.154120551215277
 30
0.0
 10
1.340128580729166
 20
-3.155192057291666
 30
0.0
 10
1.334676106770833
 20
-3.155192057291666
 30
0.0
 10
1.323974609375
 20
-3.15505642361111
 30
0.0
 10
1.319715711805555
 20
-3.151095920138888
 30
0.0
 10
1.3194580078125
 20
-3.141072591145833
 30
0.0
 10
1.3194580078125
 20
-3.141072591145833
 30
0.0
 10
1.319281684027777
 20
-3.134358723958333
 30
0.0
 10
1.319281684027777
 20
-3.134358723958333
 30
0.0
 10
1.319281684027777
 20
-3.134358723958333
 30
0.0
 10
1.270114474826388
 20
-3.133992513020833
 30
0.0
 10
1.270114474826388
 20
-3.133992513020833
 30
0.0
 10
1.270114474826388
 20
-3.133992513020833
 30
0.0
 10
1.270195855034722
 20
-3.141072591145833
 30
0.0
 10
1.270195855034722
 20
-3.141072591145833
 30
0.0
 10
1.270399305555555
 20
-3.157402886284721
 30
0.0
 10
1.276679144965277
 20
-3.170912000868055
 30
0.0
 10
1.288872612847222
 20
-3.181206597222221
 30
0.0
 10
1.300740559895833
 20
-3.191229926215277
 30
0.0
 10
1.315646701388888
 20
-3.196424696180555
 30
0.0
 10
1.333089192708333
 20
-3.196614583333333
 30
0.0
 10
1.333875868055555
 20
-3.196628146701388
 30
0.0
 10
1.334648980034722
 20
-3.196641710069444
 30
0.0
 10
1.335422092013888
 20
-3.196641710069444
 30
0.0
 10
1.346245659722222
 20
-3.196641710069444
 30
0.0
 10
1.356743706597222
 20
-3.194742838541666
 30
0.0
 10
1.366672092013888
 20
-3.190972222222221
 30
0.0
 10
1.3775634765625
 20
-3.186835394965277
 30
0.0
 10
1.386325412326388
 20
-3.18081325954861
 30
0.0
 10
1.3927001953125
 20
-3.173068576388888
 30
0.0
 10
1.39931911892361
 20
-3.1650390625
 30
0.0
 10
1.40283203125
 20
-3.155558268229166
 30
0.0
 10
1.403130425347222
 20
-3.144951714409721
 30
0.0
 10
1.4034423828125
 20
-3.135755750868055
 30
0.0
 10
1.401448567708333
 20
-3.127671983506944
 30
0.0
 10
1.397216796875
 20
-3.120930989583333
 30
0.0
 10
1.393120659722222
 20
-3.11440700954861
 30
0.0
 10
1.387288411458333
 20
-3.108900282118055
 30
0.0
 10
1.379869249131944
 20
-3.104600694444444
 30
0.0
 10
1.372748480902777
 20
-3.100450303819444
 30
0.0
 10
1.362955729166666
 20
-3.096910264756944
 30
0.0
 10
1.349826388888888
 20
-3.093763563368055
 30
0.0
 10
1.349826388888888
 20
-3.093763563368055
 30
0.0
 10
1.344618055555555
 20
-3.092597113715277
 30
0.0
 10
1.344618055555555
 20
-3.092597113715277
 30
0.0
 10
1.339287651909722
 20
-3.09130859375
 30
0.0
 10
1.333075629340277
 20
-3.089043511284721
 30
0.0
 10
1.333713107638888
 20
-3.085639105902777
 30
0.0
 10
1.334323459201388
 20
-3.082478841145833
 30
0.0
 10
1.335910373263888
 20
-3.080118815104166
 30
0.0
 10
1.338690863715277
 20
-3.078233506944444
 30
0.0
 10
1.338690863715277
 20
-3.078233506944444
 30
0.0
 10
1.338704427083333
 20
-3.078219943576388
 30
0.0
 10
1.338704427083333
 20
-3.078219943576388
 30
0.0
 10
1.341851128472222
 20
-3.076076931423611
 30
0.0
 10
1.345567491319444
 20
-3.075032552083333
 30
0.0
 10
1.349934895833333
 20
-3.075032552083333
 30
0.0
 10
1.354207356770833
 20
-3.075086805555555
 30
0.0
 10
1.357245551215277
 20
-3.076009114583333
 30
0.0
 10
1.358968098958333
 20
-3.077772352430555
 30
0.0
 10
1.360677083333333
 20
-3.079508463541666
 30
0.0
 10
1.361504448784722
 20
-3.082533094618055
 30
0.0
 10
1.3614501953125
 20
-3.086751302083333
 30
0.0
 10
1.3614501953125
 20
-3.086751302083333
 30
0.0
 10
1.36135525173611
 20
-3.093763563368055
 30
0.0
 10
1.36135525173611
 20
-3.093763563368055
 30
0.0
 10
1.36135525173611
 20
-3.093763563368055
 30
0.0
 10
1.412679036458333
 20
-3.093953450520833
 30
0.0
 10
1.412679036458333
 20
-3.093953450520833
 30
0.0
  0
SPLINE
  5
9E
330
8A
100
AcDbEntity
  8
Inner Circle
100
AcDbSpline
210
0.0
220
0.0
230
1.0
 70
     9
 71
     3
 72
    35
 73
    31
 74
     0
 42
0.0000000001
 43
0.0000000001
 40
0.0
 40
0.0
 40
0.0
 40
0.0
 40
1.0
 40
1.0
 40
1.0
 40
2.0
 40
2.0
 40
2.0
 40
3.0
 40
3.0
 40
3.0
 40
4.0
 40
4.0
 40
4.0
 40
5.0
 40
5.0
 40
5.0
 40
6.0
 40
6.0
 40
6.0
 40
7.0
 40
7.0
 40
7.0
 40
8.0
 40
8.0
 40
8.0
 40
9.0
 40
9.0
 40
9.0
 40
10.0
 40
10.0
 40
10.0
 40
10.0
 10
1.562839084201388
 20
-3.150132921006944
 30
0.0
 10
1.554524739583333
 20
-3.149861653645833
 30
0.0
 10
1.548868815104166
 20
-3.146728515625
 30
0.0
 10
1.545016818576388
 20
-3.140272352430555
 30
0.0
 10
1.540703667534722
 20
-3.133056640625
 30
0.0
 10
1.538926866319444
 20
-3.1221923828125
 30
0.0
 10
1.539740668402777
 20
-3.107923719618055
 30
0.0
 10
1.54092068142361
 20
-3.082492404513888
 30
0.0
 10
1.545993381076388
 20
-3.062608506944444
 30
0.0
 10
1.5548095703125
 20
-3.048814561631944
 30
0.0
 10
1.562717013888888
 20
-3.036458333333333
 30
0.0
 10
1.572930230034722
 20
-3.030436197916666
 30
0.0
 10
1.58596462673611
 20
-3.030436197916666
 30
0.0
 10
1.58642578125
 20
-3.030436197916666
 30
0.0
 10
1.586900499131944
 20
-3.030449761284721
 30
0.0
 10
1.587375217013888
 20
-3.030463324652777
 30
0.0
 10
1.59548611111111
 20
-3.030748155381944
 30
0.0
 10
1.601060655381944
 20
-3.033772786458333
 30
0.0
 10
1.604939778645833
 20
-3.039971245659721
 30
0.0
 10
1.609225802951388
 20
-3.046834309895833
 30
0.0
 10
1.611002604166666
 20
-3.057522243923611
 30
0.0
 10
1.610215928819444
 20
-3.071723090277777
 30
0.0
 10
1.610215928819444
 20
-3.071723090277777
 30
0.0
 10
1.6082763671875
 20
-3.091091579861111
 30
0.0
 10
1.6082763671875
 20
-3.091091579861111
 30
0.0
 10
1.605604383680555
 20
-3.110772026909721
 30
0.0
 10
1.600056966145833
 20
-3.126030815972221
 30
0.0
 10
1.591756184895833
 20
-3.136461046006944
 30
0.0
 10
1.584025065104166
 20
-3.146185980902777
 30
0.0
 10
1.574652777777777
 20
-3.150689019097221
 30
0.0
 10
1.562839084201388
 20
-3.150132921006944
 30
0.0
  0
SPLINE
  5
9F
330
8A
100
AcDbEntity
  8
Inner Circle
100
AcDbSpline
210
0.0
220
0.0
230
1.0
 70
     9
 71
     3
 72
    50
 73
    46
 74
     0
 42
0.0000000001
 43
0.0000000001
 40
0.0
 40
0.0
 40
0.0
 40
0.0
 40
1.0
 40
1.0
 40
1.0
 40
2.0
 40
2.0
 40
2.0
 40
3.0
 40
3.0
 40
3.0
 40
4.0
 40
4.0
 40
4.0
 40
5.0
 40
5.0
 40
5.0
 40
6.0
 40
6.0
 40
6.0
 40
7.0
 40
7.0
 40
7.0
 40
8.0
 40
8.0
 40
8.0
 40
9.0
 40
9.0
 40
9.0
 40
10.0
 40
10.0
 40
10.0
 40
11.0
 40
11.0
 40
11.0
 40
12.0
 40
12.0
 40
12.0
 40
13.0
 40
13.0
 40
13.0
 40
14.0
 40
14.0
 40
14.0
 40
15.0
 40
15.0
 40
15.0
 40
15.0
 10
1.663180881076388
 20
-3.0625
 30
0.0
 10
1.662326388888888
 20
-3.047580295138888
 30
0.0
 10
1.658867730034722
 20
-3.034030490451388
 30
0.0
 10
1.652872721354166
 20
-3.022189670138888
 30
0.0
 10
1.646701388888888
 20
-3.009996202256944
 30
0.0
 10
1.638075086805555
 20
-3.000501844618055
 30
0.0
 10
1.627251519097222
 20
-2.993977864583333
 30
0.0
 10
1.616495768229166
 20
-2.987467447916666
 30
0.0
 10
1.603841145833333
 20
-2.984022352430555
 30
0.0
 10
1.589613172743055
 20
-2.983723958333333
 30
0.0
 10
1.574055989583333
 20
-2.9833984375
 30
0.0
 10
1.559909396701388
 20
-2.9866943359375
 30
0.0
 10
1.5467529296875
 20
-2.993394639756944
 30
0.0
 10
1.533623589409722
 20
-3.000081380208333
 30
0.0
 10
1.522081163194444
 20
-3.010226779513888
 30
0.0
 10
1.512410481770833
 20
-3.023573133680555
 30
0.0
 10
1.502875434027777
 20
-3.036756727430555
 30
0.0
 10
1.49587673611111
 20
-3.052205403645833
 30
0.0
 10
1.491617838541666
 20
-3.069485134548611
 30
0.0
 10
1.487372504340277
 20
-3.086615668402777
 30
0.0
 10
1.48574490017361
 20
-3.102986653645833
 30
0.0
 10
1.486762152777777
 20
-3.118136935763888
 30
0.0
 10
1.487711588541666
 20
-3.133260091145833
 30
0.0
 10
1.491319444444444
 20
-3.14687771267361
 30
0.0
 10
1.497450086805555
 20
-3.158637152777777
 30
0.0
 10
1.503757052951388
 20
-3.170708550347221
 30
0.0
 10
1.512464735243055
 20
-3.18008083767361
 30
0.0
 10
1.52334255642361
 20
-3.1865234375
 30
0.0
 10
1.534138997395833
 20
-3.192938910590277
 30
0.0
 10
1.546725802951388
 20
-3.196329752604166
 30
0.0
 10
1.560736762152777
 20
-3.196614583333333
 30
0.0
 10
1.561374240451388
 20
-3.196628146701388
 30
0.0
 10
1.56201171875
 20
-3.196628146701388
 30
0.0
 10
1.56264919704861
 20
-3.196628146701388
 30
0.0
 10
1.577012803819444
 20
-3.196628146701388
 30
0.0
 10
1.590589735243055
 20
-3.193467881944444
 30
0.0
 10
1.603040907118055
 20
-3.187242296006944
 30
0.0
 10
1.615980360243055
 20
-3.180731879340277
 30
0.0
 10
1.627387152777777
 20
-3.170912000868055
 30
0.0
 10
1.636949327256944
 20
-3.158026801215277
 30
0.0
 10
1.646402994791666
 20
-3.145317925347221
 30
0.0
 10
1.653455946180555
 20
-3.130099826388888
 30
0.0
 10
1.657931857638888
 20
-3.11279296875
 30
0.0
 10
1.662339952256944
 20
-3.095635308159721
 30
0.0
 10
1.664116753472222
 20
-3.078708224826388
 30
0.0
 10
1.663180881076388
 20
-3.0625
 30
0.0
  0
SPLINE
  5
A0
330
8A
100
AcDbEntity
  8
Inner Circle
100
AcDbSpline
210
0.0
220
0.0
230
1.0
 70
     9
 71
     3
 72
    47
 73
    43
 74
     0
 42
0.0000000001
 43
0.0000000001
 40
0.0
 40
0.0
 40
0.0
 40
0.0
 40
1.0
 40
1.0
 40
1.0
 40
2.0
 40
2.0
 40
2.0
 40
3.0
 40
3.0
 40
3.0
 40
4.0
 40
4.0
 40
4.0
 40
5.0
 40
5.0
 40
5.0
 40
6.0
 40
6.0
 40
6.0
 40
7.0
 40
7.0
 40
7.0
 40
8.0
 40
8.0
 40
8.0
 40
9.0
 40
9.0
 40
9.0
 40
10.0
 40
10.0
 40
10.0
 40
11.0
 40
11.0
 40
11.0
 40
12.0
 40
12.0
 40
12.0
 40
13.0
 40
13.0
 40
13.0
 40
14.0
 40
14.0
 40
14.0
 40
14.0
 10
1.762681749131944
 20
-3.033474392361111
 30
0.0
 10
1.75124782986111
 20
-3.033203125
 30
0.0
 10
1.740546332465277
 20
-3.036037868923611
 30
0.0
 10
1.73110622829861
 20
-3.041815863715277
 30
0.0
 10
1.73110622829861
 20
-3.041815863715277
 30
0.0
 10
1.73220486111111
 20
-3.035970052083333
 30
0.0
 10
1.73220486111111
 20
-3.035970052083333
 30
0.0
 10
1.73220486111111
 20
-3.035970052083333
 30
0.0
 10
1.682874891493055
 20
-3.036159939236111
 30
0.0
 10
1.682874891493055
 20
-3.036159939236111
 30
0.0
 10
1.682874891493055
 20
-3.036159939236111
 30
0.0
 10
1.655449761284722
 20
-3.193956163194444
 30
0.0
 10
1.655449761284722
 20
-3.193956163194444
 30
0.0
 10
1.655449761284722
 20
-3.193956163194444
 30
0.0
 10
1.707044813368055
 20
-3.193956163194444
 30
0.0
 10
1.707044813368055
 20
-3.193956163194444
 30
0.0
 10
1.707044813368055
 20
-3.193956163194444
 30
0.0
 10
1.725694444444444
 20
-3.088446723090277
 30
0.0
 10
1.725694444444444
 20
-3.088446723090277
 30
0.0
 10
1.731757269965277
 20
-3.081597222222221
 30
0.0
 10
1.737806532118055
 20
-3.078097873263888
 30
0.0
 10
1.745469835069444
 20
-3.078626844618055
 30
0.0
 10
1.753241644965277
 20
-3.078816731770833
 30
0.0
 10
1.755181206597222
 20
-3.081800672743055
 30
0.0
 10
1.755750868055555
 20
-3.086317274305555
 30
0.0
 10
1.755967881944444
 20
-3.088582356770833
 30
0.0
 10
1.755900065104166
 20
-3.091254340277777
 30
0.0
 10
1.755560980902777
 20
-3.093939887152777
 30
0.0
 10
1.755560980902777
 20
-3.093939887152777
 30
0.0
 10
1.73876953125
 20
-3.193956163194444
 30
0.0
 10
1.73876953125
 20
-3.193956163194444
 30
0.0
 10
1.73876953125
 20
-3.193956163194444
 30
0.0
 10
1.790378146701388
 20
-3.193956163194444
 30
0.0
 10
1.790378146701388
 20
-3.193956163194444
 30
0.0
 10
1.790378146701388
 20
-3.193956163194444
 30
0.0
 10
1.806559244791666
 20
-3.096204969618055
 30
0.0
 10
1.806559244791666
 20
-3.096204969618055
 30
0.0
 10
1.80849880642361
 20
-3.077528211805555
 30
0.0
 10
1.805745442708333
 20
-3.062472873263888
 30
0.0
 10
1.79836697048611
 20
-3.051445855034721
 30
0.0
 10
1.790595160590277
 20
-3.039835611979166
 30
0.0
 10
1.77859157986111
 20
-3.033799913194444
 30
0.0
 10
1.762681749131944
 20
-3.033474392361111
 30
0.0
  0
SPLINE
  5
A1
330
8A
100
AcDbEntity
  8
Inner Circle
100
AcDbSpline
210
0.0
220
0.0
230
1.0
 70
     9
 71
     3
 72
    23
 73
    19
 74
     0
 42
0.0000000001
 43
0.0000000001
 40
0.0
 40
0.0
 40
0.0
 40
0.0
 40
1.0
 40
1.0
 40
1.0
 40
2.0
 40
2.0
 40
2.0
 40
3.0
 40
3.0
 40
3.0
 40
4.0
 40
4.0
 40
4.0
 40
5.0
 40
5.0
 40
5.0
 40
6.0
 40
6.0
 40
6.0
 40
6.0
 10
1.894110785590277
 20
-3.078355577256944
 30
0.0
 10
1.897840711805555
 20
-3.078423394097221
 30
0.0
 10
1.900729709201388
 20
-3.079359266493055
 30
0.0
 10
1.902967664930555
 20
-3.081217447916666
 30
0.0
 10
1.905124240451388
 20
-3.0830078125
 30
0.0
 10
1.906480577256944
 20
-3.085584852430555
 30
0.0
 10
1.907050238715277
 20
-3.088840060763888
 30
0.0
 10
1.907294379340277
 20
-3.090643988715277
 30
0.0
 10
1.907335069444444
 20
-3.092556423611111
 30
0.0
 10
1.907199435763888
 20
-3.094536675347221
 30
0.0
 10
1.907199435763888
 20
-3.094536675347221
 30
0.0
 10
1.872016059027777
 20
-3.094536675347221
 30
0.0
 10
1.872016059027777
 20
-3.094536675347221
 30
0.0
 10
1.87466091579861
 20
-3.089436848958333
 30
0.0
 10
1.877427842881944
 20
-3.085652669270833
 30
0.0
 10
1.880303276909722
 20
-3.083238389756944
 30
0.0
 10
1.884331597222222
 20
-3.079820421006944
 30
0.0
 10
1.888888888888888
 20
-3.078301323784721
 30
0.0
 10
1.894110785590277
 20
-3.078355577256944
 30
0.0
  0
SPLINE
  5
A2
330
8A
100
AcDbEntity
  8
Inner Circle
100
AcDbSpline
210
0.0
220
0.0
230
1.0
 70
     9
 71
     3
 72
    20
 73
    16
 74
     0
 42
0.0000000001
 43
0.0000000001
 40
0.0
 40
0.0
 40
0.0
 40
0.0
 40
1.0
 40
1.0
 40
1.0
 40
2.0
 40
2.0
 40
2.0
 40
3.0
 40
3.0
 40
3.0
 40
4.0
 40
4.0
 40
4.0
 40
5.0
 40
5.0
 40
5.0
 40
5.0
 10
1.916300455729166
 20
-3.13796657986111
 30
0.0
 10
1.9073486328125
 20
-3.147542317708333
 30
0.0
 10
1.897148980034722
 20
-3.152289496527777
 30
0.0
 10
1.885606553819444
 20
-3.1517333984375
 30
0.0
 10
1.879163953993055
 20
-3.151597764756944
 30
0.0
 10
1.874308268229166
 20
-3.149549696180555
 30
0.0
 10
1.8707275390625
 20
-3.145453559027777
 30
0.0
 10
1.868204752604166
 20
-3.142564561631944
 30
0.0
 10
1.866631401909722
 20
-3.138997395833333
 30
0.0
 10
1.865980360243055
 20
-3.134629991319444
 30
0.0
 10
1.865980360243055
 20
-3.134629991319444
 30
0.0
 10
1.91943359375
 20
-3.134629991319444
 30
0.0
 10
1.91943359375
 20
-3.134629991319444
 30
0.0
 10
1.91943359375
 20
-3.134629991319444
 30
0.0
 10
1.916300455729166
 20
-3.13796657986111
 30
0.0
 10
1.916300455729166
 20
-3.13796657986111
 30
0.0
  0
SPLINE
  5
A3
330
8A
100
AcDbEntity
  8
Inner Circle
100
AcDbSpline
210
0.0
220
0.0
230
1.0
 70
     9
 71
     3
 72
   146
 73
   142
 74
     0
 42
0.0000000001
 43
0.0000000001
 40
0.0
 40
0.0
 40
0.0
 40
0.0
 40
1.0
 40
1.0
 40
1.0
 40
2.0
 40
2.0
 40
2.0
 40
3.0
 40
3.0
 40
3.0
 40
4.0
 40
4.0
 40
4.0
 40
5.0
 40
5.0
 40
5.0
 40
6.0
 40
6.0
 40
6.0
 40
7.0
 40
7.0
 40
7.0
 40
8.0
 40
8.0
 40
8.0
 40
9.0
 40
9.0
 40
9.0
 40
10.0
 40
10.0
 40
10.0
 40
11.0
 40
11.0
 40
11.0
 40
12.0
 40
12.0
 40
12.0
 40
13.0
 40
13.0
 40
13.0
 40
14.0
 40
14.0
 40
14.0
 40
15.0
 40
15.0
 40
15.0
 40
16.0
 40
16.0
 40
16.0
 40
17.0
 40
17.0
 40
17.0
 40
18.0
 40
18.0
 40
18.0
 40
19.0
 40
19.0
 40
19.0
 40
20.0
 40
20.0
 40
20.0
 40
21.0
 40
21.0
 40
21.0
 40
22.0
 40
22.0
 40
22.0
 40
23.0
 40
23.0
 40
23.0
 40
24.0
 40
24.0
 40
24.0
 40
25.0
 40
25.0
 40
25.0
 40
26.0
 40
26.0
 40
26.0
 40
27.0
 40
27.0
 40
27.0
 40
28.0
 40
28.0
 40
28.0
 40
29.0
 40
29.0
 40
29.0
 40
30.0
 40
30.0
 40
30.0
 40
31.0
 40
31.0
 40
31.0
 40
32.0
 40
32.0
 40
32.0
 40
33.0
 40
33.0
 40
33.0
 40
34.0
 40
34.0
 40
34.0
 40
35.0
 40
35.0
 40
35.0
 40
36.0
 40
36.0
 40
36.0
 40
37.0
 40
37.0
 40
37.0
 40
38.0
 40
38.0
 40
38.0
 40
39.0
 40
39.0
 40
39.0
 40
40.0
 40
40.0
 40
40.0
 40
41.0
 40
41.0
 40
41.0
 40
42.0
 40
42.0
 40
42.0
 40
43.0
 40
43.0
 40
43.0
 40
44.0
 40
44.0
 40
44.0
 40
45.0
 40
45.0
 40
45.0
 40
46.0
 40
46.0
 40
46.0
 40
47.0
 40
47.0
 40
47.0
 40
47.0
 10
2.061604817708333
 20
-3.104587131076388
 30
0.0
 10
2.054456922743055
 20
-3.100436740451388
 30
0.0
 10
2.044664171006944
 20
-3.096896701388888
 30
0.0
 10
2.031561957465277
 20
-3.093763563368055
 30
0.0
 10
2.031561957465277
 20
-3.093763563368055
 30
0.0
 10
2.0263671875
 20
-3.092597113715277
 30
0.0
 10
2.0263671875
 20
-3.092597113715277
 30
0.0
 10
2.021036783854166
 20
-3.09130859375
 30
0.0
 10
2.014811197916666
 20
-3.089043511284721
 30
0.0
 10
2.015435112847222
 20
-3.085652669270833
 30
0.0
 10
2.016059027777777
 20
-3.082478841145833
 30
0.0
 10
2.017659505208333
 20
-3.080118815104166
 30
0.0
 10
2.020453559027777
 20
-3.078219943576388
 30
0.0
 10
2.023600260416666
 20
-3.076076931423611
 30
0.0
 10
2.027316623263888
 20
-3.075032552083333
 30
0.0
 10
2.031684027777777
 20
-3.075032552083333
 30
0.0
 10
2.035956488715277
 20
-3.075086805555555
 30
0.0
 10
2.038994683159722
 20
-3.076009114583333
 30
0.0
 10
2.040717230902777
 20
-3.077772352430555
 30
0.0
 10
2.042412651909722
 20
-3.079508463541666
 30
0.0
 10
2.043240017361111
 20
-3.082533094618055
 30
0.0
 10
2.043185763888888
 20
-3.086751302083333
 30
0.0
 10
2.043185763888888
 20
-3.086751302083333
 30
0.0
 10
2.0430908203125
 20
-3.093763563368055
 30
0.0
 10
2.0430908203125
 20
-3.093763563368055
 30
0.0
 10
2.0430908203125
 20
-3.093763563368055
 30
0.0
 10
2.094414605034722
 20
-3.093953450520833
 30
0.0
 10
2.094414605034722
 20
-3.093953450520833
 30
0.0
 10
2.094414605034722
 20
-3.093953450520833
 30
0.0
 10
2.094319661458333
 20
-3.086900499131944
 30
0.0
 10
2.094319661458333
 20
-3.086900499131944
 30
0.0
 10
2.0941162109375
 20
-3.070855034722221
 30
0.0
 10
2.088148328993055
 20
-3.057766384548611
 30
0.0
 10
2.076551649305555
 20
-3.048000759548611
 30
0.0
 10
2.065321180555555
 20
-3.038560655381944
 30
0.0
 10
2.050591362847222
 20
-3.033664279513888
 30
0.0
 10
2.032796223958333
 20
-3.033474392361111
 30
0.0
 10
2.015055338541666
 20
-3.033677842881944
 30
0.0
 10
1.99951171875
 20
-3.0379638671875
 30
0.0
 10
1.986748589409722
 20
-3.047403971354166
 30
0.0
 10
1.973429361979166
 20
-3.0572509765625
 30
0.0
 10
1.9664306640625
 20
-3.070217556423611
 30
0.0
 10
1.965901692708333
 20
-3.085896809895833
 30
0.0
 10
1.9649658203125
 20
-3.109429253472221
 30
0.0
 10
1.98074001736111
 20
-3.125827365451388
 30
0.0
 10
2.012912326388888
 20
-3.13467068142361
 30
0.0
 10
2.012912326388888
 20
-3.13467068142361
 30
0.0
 10
2.024834526909722
 20
-3.1376953125
 30
0.0
 10
2.024834526909722
 20
-3.1376953125
 30
0.0
 10
2.035549587673611
 20
-3.140719943576388
 30
0.0
 10
2.034898546006944
 20
-3.144015842013888
 30
0.0
 10
2.03466796875
 20
-3.14516872829861
 30
0.0
 10
2.034125434027777
 20
-3.148044162326388
 30
0.0
 10
2.032552083333333
 20
-3.150214301215277
 30
0.0
 10
2.029717339409722
 20
-3.15200466579861
 30
0.0
 10
2.026380750868055
 20
-3.154120551215277
 30
0.0
 10
2.021891276041666
 20
-3.155192057291666
 30
0.0
 10
2.016425238715277
 20
-3.155192057291666
 30
0.0
 10
2.0057373046875
 20
-3.15505642361111
 30
0.0
 10
2.00146484375
 20
-3.151095920138888
 30
0.0
 10
2.001207139756944
 20
-3.141072591145833
 30
0.0
 10
2.001207139756944
 20
-3.141072591145833
 30
0.0
 10
2.001030815972222
 20
-3.134358723958333
 30
0.0
 10
2.001030815972222
 20
-3.134358723958333
 30
0.0
 10
2.001030815972222
 20
-3.134358723958333
 30
0.0
 10
1.953097873263888
 20
-3.134001837836371
 30
0.0
 10
1.953097873263888
 20
-3.134001837836371
 30
0.0
 10
1.953097873263888
 20
-3.134001837836371
 30
0.0
 10
1.955946180555555
 20
-3.11208767361111
 30
0.0
 10
1.955946180555555
 20
-3.11208767361111
 30
0.0
 10
1.958441840277777
 20
-3.090087890625
 30
0.0
 10
1.95437282986111
 20
-3.071492513020833
 30
0.0
 10
1.94384765625
 20
-3.056816948784721
 30
0.0
 10
1.93301052517361
 20
-3.041734483506944
 30
0.0
 10
1.9169921875
 20
-3.033867730034721
 30
0.0
 10
1.896253797743055
 20
-3.033474392361111
 30
0.0
 10
1.881890190972222
 20
-3.033230251736111
 30
0.0
 10
1.868720160590277
 20
-3.036444769965277
 30
0.0
 10
1.856906467013888
 20
-3.043416341145833
 30
0.0
 10
1.845201280381944
 20
-3.050347222222221
 30
0.0
 10
1.835517035590277
 20
-3.060289171006944
 30
0.0
 10
1.828111436631944
 20
-3.072970920138888
 30
0.0
 10
1.82080078125
 20
-3.085503472222221
 30
0.0
 10
1.816379123263888
 20
-3.099446614583333
 30
0.0
 10
1.81494140625
 20
-3.114515516493055
 30
0.0
 10
1.81494140625
 20
-3.114515516493055
 30
0.0
 10
1.814548068576388
 20
-3.119791666666666
 30
0.0
 10
1.814548068576388
 20
-3.119791666666666
 30
0.0
 10
1.813395182291666
 20
-3.13369411892361
 30
0.0
 10
1.815470377604166
 20
-3.146647135416666
 30
0.0
 10
1.820719401041666
 20
-3.158284505208333
 30
0.0
 10
1.826063368055555
 20
-3.170098198784721
 30
0.0
 10
1.834269205729166
 20
-3.179524739583333
 30
0.0
 10
1.845133463541666
 20
-3.186319986979166
 30
0.0
 10
1.855929904513888
 20
-3.193060980902777
 30
0.0
 10
1.868408203125
 20
-3.196519639756944
 30
0.0
 10
1.882161458333333
 20
-3.196614583333333
 30
0.0
 10
1.882622612847222
 20
-3.196614583333333
 30
0.0
 10
1.88308376736111
 20
-3.196628146701388
 30
0.0
 10
1.883558485243055
 20
-3.196628146701388
 30
0.0
 10
1.895697699652777
 20
-3.196628146701388
 30
0.0
 10
1.907267252604166
 20
-3.194200303819444
 30
0.0
 10
1.917955186631944
 20
-3.189425998263888
 30
0.0
 10
1.929334852430555
 20
-3.184339735243055
 30
0.0
 10
1.938191731770833
 20
-3.177069769965277
 30
0.0
 10
1.944322374131944
 20
-3.167833116319444
 30
0.0
 10
1.944322374131944
 20
-3.167833116319444
 30
0.0
 10
1.947129991319444
 20
-3.163587782118055
 30
0.0
 10
1.947129991319444
 20
-3.163587782118055
 30
0.0
 10
1.947129991319444
 20
-3.163587782118055
 30
0.0
 10
1.923773871527777
 20
-3.134629991319444
 30
0.0
 10
1.923773871527777
 20
-3.134629991319444
 30
0.0
 10
1.923773871527777
 20
-3.134629991319444
 30
0.0
 10
1.951857672797308
 20
-3.134629991319444
 30
0.0
 10
1.951857672797308
 20
-3.134629991319444
 30
0.0
 10
1.951857672797308
 20
-3.134629991319444
 30
0.0
 10
1.95193142361111
 20
-3.141072591145833
 30
0.0
 10
1.95193142361111
 20
-3.141072591145833
 30
0.0
 10
1.952134874131944
 20
-3.157402886284721
 30
0.0
 10
1.958428276909722
 20
-3.1708984375
 30
0.0
 10
1.970621744791666
 20
-3.181206597222221
 30
0.0
 10
1.982462565104166
 20
-3.191229926215277
 30
0.0
 10
1.997382269965277
 20
-3.196424696180555
 30
0.0
 10
2.014838324652777
 20
-3.196614583333333
 30
0.0
 10
2.015625
 20
-3.196628146701388
 30
0.0
 10
2.016398111979166
 20
-3.196641710069444
 30
0.0
 10
2.017171223958333
 20
-3.196641710069444
 30
0.0
 10
2.028008355034722
 20
-3.196641710069444
 30
0.0
 10
2.038492838541666
 20
-3.194742838541666
 30
0.0
 10
2.048407660590277
 20
-3.190985785590277
 30
0.0
 10
2.059312608506944
 20
-3.186835394965277
 30
0.0
 10
2.068074544270833
 20
-3.18081325954861
 30
0.0
 10
2.074449327256944
 20
-3.173068576388888
 30
0.0
 10
2.081068250868055
 20
-3.1650390625
 30
0.0
 10
2.084581163194444
 20
-3.155558268229166
 30
0.0
 10
2.084879557291666
 20
-3.144951714409721
 30
0.0
 10
2.085191514756944
 20
-3.135782877604166
 30
0.0
 10
2.083211263020833
 20
-3.12771267361111
 30
0.0
 10
2.078965928819444
 20
-3.120930989583333
 30
0.0
 10
2.074869791666666
 20
-3.11440700954861
 30
0.0
 10
2.069037543402777
 20
-3.108900282118055
 30
0.0
 10
2.061604817708333
 20
-3.104587131076388
 30
0.0
  0
ENDBLK
  5
8D
330
8A
100
AcDbEntity
  8
0
100
AcDbBlockEnd
  0
BLOCK
  5
A6
330
A4
100
AcDbEntity
  8
0
100
AcDbBlockBegin
  2
Block_2
 70
     0
 10
0.0
 20
0.0
 30
0.0
  3
Block_2
  1

  0
SPLINE
  5
A8
330
A4
100
AcDbEntity
  8
Inner Circle
100
AcDbSpline
210
0.0
220
0.0
230
1.0
 70
     9
 71
     3
 72
    29
 73
    25
 74
     0
 42
0.0000000001
 43
0.0000000001
 40
0.0
 40
0.0
 40
0.0
 40
0.0
 40
1.0
 40
1.0
 40
1.0
 40
2.0
 40
2.0
 40
2.0
 40
3.0
 40
3.0
 40
3.0
 40
4.0
 40
4.0
 40
4.0
 40
5.0
 40
5.0
 40
5.0
 40
6.0
 40
6.0
 40
6.0
 40
7.0
 40
7.0
 40
7.0
 40
8.0
 40
8.0
 40
8.0
 40
8.0
 10
1.821866413959115
 20
-2.286622248079184
 30
0.0
 10
1.821866413959115
 20
-2.286622248079184
 30
0.0
 10
0.1162457542368934
 20
-2.286622248079184
 30
0.0
 10
0.1162457542368934
 20
-2.286622248079184
 30
0.0
 10
0.0320850554521712
 20
-2.286622248079184
 30
0.0
 10
-0.0363828264922732
 20
-2.355090130023629
 30
0.0
 10
-0.0363828264922732
 20
-2.439250828808351
 30
0.0
 10
-0.0363828264922732
 20
-2.439250828808351
 30
0.0
 10
-0.0363828264922732
 20
-2.626777955544462
 30
0.0
 10
-0.0363828264922732
 20
-2.626777955544462
 30
0.0
 10
-0.0363828264922732
 20
-2.710938654329184
 30
0.0
 10
0.0320850554521712
 20
-2.779406536273629
 30
0.0
 10
0.1162457542368934
 20
-2.779406536273629
 30
0.0
 10
0.1162457542368934
 20
-2.779406536273629
 30
0.0
 10
1.821866413959115
 20
-2.779406536273629
 30
0.0
 10
1.821866413959115
 20
-2.779406536273629
 30
0.0
 10
1.906027112743837
 20
-2.779406536273629
 30
0.0
 10
1.974494994688282
 20
-2.710938654329184
 30
0.0
 10
1.974494994688282
 20
-2.626777955544462
 30
0.0
 10
1.974494994688282
 20
-2.626777955544462
 30
0.0
 10
1.974494994688282
 20
-2.439250828808351
 30
0.0
 10
1.974494994688282
 20
-2.439250828808351
 30
0.0
 10
1.974494994688282
 20
-2.355090130023629
 30
0.0
 10
1.906027112743837
 20
-2.286622248079184
 30
0.0
 10
1.821866413959115
 20
-2.286622248079184
 30
0.0
  0
HATCH
  5
A9
330
A4
100
AcDbEntity
  8
Inner Circle
 62
   250
420
  2301728
440
 33554687
100
AcDbHatch
 10
0.0
 20
0.0
 30
0.0
210
0.0
220
0.0
230
1.0
  2
SOLID
 70
     1
 71
     1
 91
        1
 92
        1
 93
        1
 72
     4
 94
        3
 73
     0
 74
     0
 95
       29
 96
       25
 40
0.0
 40
0.0
 40
0.0
 40
0.0
 40
1.0
 40
1.0
 40
1.0
 40
2.0
 40
2.0
 40
2.0
 40
3.0
 40
3.0
 40
3.0
 40
4.0
 40
4.0
 40
4.0
 40
5.0
 40
5.0
 40
5.0
 40
6.0
 40
6.0
 40
6.0
 40
7.0
 40
7.0
 40
7.0
 40
8.0
 40
8.0
 40
8.0
 40
8.0
 10
1.821866413959115
 20
-2.286622248079184
 10
1.821866413959115
 20
-2.286622248079184
 10
0.1162457542368934
 20
-2.286622248079184
 10
0.1162457542368934
 20
-2.286622248079184
 10
0.0320850554521712
 20
-2.286622248079184
 10
-0.0363828264922732
 20
-2.355090130023629
 10
-0.0363828264922732
 20
-2.439250828808351
 10
-0.0363828264922732
 20
-2.439250828808351
 10
-0.0363828264922732
 20
-2.626777955544462
 10
-0.0363828264922732
 20
-2.626777955544462
 10
-0.0363828264922732
 20
-2.710938654329184
 10
0.0320850554521712
 20
-2.779406536273629
 10
0.1162457542368934
 20
-2.779406536273629
 10
0.1162457542368934
 20
-2.779406536273629
 10
1.821866413959115
 20
-2.779406536273629
 10
1.821866413959115
 20
-2.779406536273629
 10
1.906027112743837
 20
-2.779406536273629
 10
1.974494994688282
 20
-2.710938654329184
 10
1.974494994688282
 20
-2.626777955544462
 10
1.974494994688282
 20
-2.626777955544462
 10
1.974494994688282
 20
-2.439250828808351
 10
1.974494994688282
 20
-2.439250828808351
 10
1.974494994688282
 20
-2.355090130023629
 10
1.906027112743837
 20
-2.286622248079184
 10
1.821866413959115
 20
-2.286622248079184
 97
        0
 97
        1
330
A8
 75
     2
 76
     1
 98
        1
 10
0.0
 20
0.0
450
        0
451
        0
460
0.0
461
0.0
452
        0
462
0.0
453
        0
470

  0
INSERT
  5
AB
330
A4
100
AcDbEntity
  8
Inner Circle
100
AcDbBlockReference
  2
Block_3
 10
0.0
 20
0.0
 30
0.0
  0
ENDBLK
  5
A7
330
A4
100
AcDbEntity
  8
0
100
AcDbBlockEnd
  0
BLOCK
  5
AC
330
AA
100
AcDbEntity
  8
0
100
AcDbBlockBegin
  2
Block_3
 70
     0
 10
0.0
 20
0.0
 30
0.0
  3
Block_3
  1

  0
LWPOLYLINE
  5
AE
330
AA
100
AcDbEntity
  8
Inner Circle
100
AcDbPolyline
 90
        4
 70
     1
 43
0.0
 10
0.1139603267195323
 20
-2.404691367002795
 10
0.0677838401743935
 20
-2.671509943391684
 10
0.1327727182125879
 20
-2.671509943391684
 10
0.1789492047577268
 20
-2.404691367002795
  0
SPLINE
  5
AF
330
AA
100
AcDbEntity
  8
Inner Circle
100
AcDbSpline
210
0.0
220
0.0
230
1.0
 70
     9
 71
     3
 72
    47
 73
    43
 74
     0
 42
0.0000000001
 43
0.0000000001
 40
0.0
 40
0.0
 40
0.0
 40
0.0
 40
1.0
 40
1.0
 40
1.0
 40
2.0
 40
2.0
 40
2.0
 40
3.0
 40
3.0
 40
3.0
 40
4.0
 40
4.0
 40
4.0
 40
5.0
 40
5.0
 40
5.0
 40
6.0
 40
6.0
 40
6.0
 40
7.0
 40
7.0
 40
7.0
 40
8.0
 40
8.0
 40
8.0
 40
9.0
 40
9.0
 40
9.0
 40
10.0
 40
10.0
 40
10.0
 40
11.0
 40
11.0
 40
11.0
 40
12.0
 40
12.0
 40
12.0
 40
13.0
 40
13.0
 40
13.0
 40
14.0
 40
14.0
 40
14.0
 40
14.0
 10
0.3000768631778656
 20
-2.466187677766684
 30
0.0
 10
0.2835973709903656
 20
-2.465753649988907
 30
0.0
 10
0.2688878983341156
 20
-2.470310941655573
 30
0.0
 10
0.2558806283688378
 20
-2.47950690519724
 30
0.0
 10
0.2558806283688378
 20
-2.47950690519724
 30
0.0
 10
0.2577591548445323
 20
-2.469456449468073
 30
0.0
 10
0.2577591548445323
 20
-2.469456449468073
 30
0.0
 10
0.2577591548445323
 20
-2.469456449468073
 30
0.0
 10
0.1976869977264768
 20
-2.469687026725018
 30
0.0
 10
0.1976869977264768
 20
-2.469687026725018
 30
0.0
 10
0.1976869977264768
 20
-2.469687026725018
 30
0.0
 10
0.1626189096188379
 20
-2.671509943391684
 30
0.0
 10
0.1626189096188379
 20
-2.671509943391684
 30
0.0
 10
0.1626189096188379
 20
-2.671509943391684
 30
0.0
 10
0.2256885710771712
 20
-2.671509943391684
 30
0.0
 10
0.2256885710771712
 20
-2.671509943391684
 30
0.0
 10
0.2256885710771712
 20
-2.671509943391684
 30
0.0
 10
0.2498245845320323
 20
-2.534899700336129
 30
0.0
 10
0.2498245845320323
 20
-2.534899700336129
 30
0.0
 10
0.2583084712507823
 20
-2.525120511968073
 30
0.0
 10
0.2673688011118934
 20
-2.520590347037518
 30
0.0
 10
0.2777040875702267
 20
-2.520902304502795
 30
0.0
 10
0.2900264074486989
 20
-2.521214261968073
 30
0.0
 10
0.2924474686466156
 20
-2.526938003287518
 30
0.0
 10
0.2932002355736989
 20
-2.53285163175974
 30
0.0
 10
0.2934986296709212
 20
-2.53602545988474
 30
0.0
 10
0.2933901227264767
 20
-2.539660442523629
 30
0.0
 10
0.2929221865285601
 20
-2.543376805370851
 30
0.0
 10
0.2929221865285601
 20
-2.543376805370851
 30
0.0
 10
0.271410684792449
 20
-2.671509943391684
 30
0.0
 10
0.271410684792449
 20
-2.671509943391684
 30
0.0
 10
0.271410684792449
 20
-2.671509943391684
 30
0.0
 10
0.3344939096188378
 20
-2.671509943391684
 30
0.0
 10
0.3344939096188378
 20
-2.671509943391684
 30
0.0
 10
0.3344939096188378
 20
-2.671509943391684
 30
0.0
 10
0.3553204612681434
 20
-2.545763958148629
 30
0.0
 10
0.3553204612681434
 20
-2.545763958148629
 30
0.0
 10
0.3577889942542545
 20
-2.521851740266684
 30
0.0
 10
0.3543099903480045
 20
-2.502659574468073
 30
0.0
 10
0.3449716114417545
 20
-2.488716432106962
 30
0.0
 10
0.3352263314938378
 20
-2.474162938183351
 30
0.0
 10
0.3201167394799489
 20
-2.466594578808351
 30
0.0
 10
0.3000768631778656
 20
-2.466187677766684
 30
0.0
  0
SPLINE
  5
B0
330
AA
100
AcDbEntity
  8
Inner Circle
100
AcDbSpline
210
0.0
220
0.0
230
1.0
 70
     9
 71
     3
 72
    47
 73
    43
 74
     0
 42
0.0000000001
 43
0.0000000001
 40
0.0
 40
0.0
 40
0.0
 40
0.0
 40
1.0
 40
1.0
 40
1.0
 40
2.0
 40
2.0
 40
2.0
 40
3.0
 40
3.0
 40
3.0
 40
4.0
 40
4.0
 40
4.0
 40
5.0
 40
5.0
 40
5.0
 40
6.0
 40
6.0
 40
6.0
 40
7.0
 40
7.0
 40
7.0
 40
8.0
 40
8.0
 40
8.0
 40
9.0
 40
9.0
 40
9.0
 40
10.0
 40
10.0
 40
10.0
 40
11.0
 40
11.0
 40
11.0
 40
12.0
 40
12.0
 40
12.0
 40
13.0
 40
13.0
 40
13.0
 40
14.0
 40
14.0
 40
14.0
 40
14.0
 10
0.4951587859209213
 20
-2.466187677766684
 30
0.0
 10
0.4786386036292546
 20
-2.465753649988907
 30
0.0
 10
0.4639698210771713
 20
-2.470310941655573
 30
0.0
 10
0.4509625511118935
 20
-2.47950690519724
 30
0.0
 10
0.4509625511118935
 20
-2.47950690519724
 30
0.0
 10
0.4528410775875879
 20
-2.469456449468073
 30
0.0
 10
0.4528410775875879
 20
-2.469456449468073
 30
0.0
 10
0.4528410775875879
 20
-2.469456449468073
 30
0.0
 10
0.3927689204695323
 20
-2.469687026725018
 30
0.0
 10
0.3927689204695323
 20
-2.469687026725018
 30
0.0
 10
0.3927689204695323
 20
-2.469687026725018
 30
0.0
 10
0.3577008323618934
 20
-2.671509943391684
 30
0.0
 10
0.3577008323618934
 20
-2.671509943391684
 30
0.0
 10
0.3577008323618934
 20
-2.671509943391684
 30
0.0
 10
0.4207704938202268
 20
-2.671509943391684
 30
0.0
 10
0.4207704938202268
 20
-2.671509943391684
 30
0.0
 10
0.4207704938202268
 20
-2.671509943391684
 30
0.0
 10
0.4449065072750879
 20
-2.534899700336129
 30
0.0
 10
0.4449065072750879
 20
-2.534899700336129
 30
0.0
 10
0.4533903939938379
 20
-2.525120511968073
 30
0.0
 10
0.4625185406952268
 20
-2.520590347037518
 30
0.0
 10
0.4727860103132823
 20
-2.520902304502795
 30
0.0
 10
0.4851083301917546
 20
-2.521214261968073
 30
0.0
 10
0.4875293913896713
 20
-2.526938003287518
 30
0.0
 10
0.4882821583167546
 20
-2.53285163175974
 30
0.0
 10
0.4885805524139768
 20
-2.53602545988474
 30
0.0
 10
0.4884720454695323
 20
-2.539660442523629
 30
0.0
 10
0.4880041092716157
 20
-2.543376805370851
 30
0.0
 10
0.4880041092716157
 20
-2.543376805370851
 30
0.0
 10
0.4664926075355046
 20
-2.671509943391684
 30
0.0
 10
0.4664926075355046
 20
-2.671509943391684
 30
0.0
 10
0.4664926075355046
 20
-2.671509943391684
 30
0.0
 10
0.5295758323618935
 20
-2.671509943391684
 30
0.0
 10
0.5295758323618935
 20
-2.671509943391684
 30
0.0
 10
0.5295758323618935
 20
-2.671509943391684
 30
0.0
 10
0.550402384011199
 20
-2.545763958148629
 30
0.0
 10
0.550402384011199
 20
-2.545763958148629
 30
0.0
 10
0.5528709169973101
 20
-2.521851740266684
 30
0.0
 10
0.5493919130910601
 20
-2.502659574468073
 30
0.0
 10
0.5400535341848101
 20
-2.488716432106962
 30
0.0
 10
0.5303082542368935
 20
-2.474162938183351
 30
0.0
 10
0.5151986622230045
 20
-2.466594578808351
 30
0.0
 10
0.4951587859209213
 20
-2.466187677766684
 30
0.0
  0
SPLINE
  5
B1
330
AA
100
AcDbEntity
  8
Inner Circle
100
AcDbSpline
210
0.0
220
0.0
230
1.0
 70
     9
 71
     3
 72
    23
 73
    19
 74
     0
 42
0.0000000001
 43
0.0000000001
 40
0.0
 40
0.0
 40
0.0
 40
0.0
 40
1.0
 40
1.0
 40
1.0
 40
2.0
 40
2.0
 40
2.0
 40
3.0
 40
3.0
 40
3.0
 40
4.0
 40
4.0
 40
4.0
 40
5.0
 40
5.0
 40
5.0
 40
6.0
 40
6.0
 40
6.0
 40
6.0
 10
0.6474279373966157
 20
-2.527426284537518
 30
0.0
 10
0.6531381153480045
 20
-2.522611288877795
 30
0.0
 10
0.6595400250702267
 20
-2.52015631925974
 30
0.0
 10
0.6668778071882823
 20
-2.520549656933351
 30
0.0
 10
0.6722489009382823
 20
-2.52064460050974
 30
0.0
 10
0.6764603267195323
 20
-2.522028064051407
 30
0.0
 10
0.6797494434730045
 20
-2.524754301030573
 30
0.0
 10
0.6829910884382823
 20
-2.527466974641684
 30
0.0
 10
0.6849984669105045
 20
-2.531251154329184
 30
0.0
 10
0.685839395729949
 20
-2.536093276725018
 30
0.0
 10
0.6862598601396713
 20
-2.539172161273629
 30
0.0
 10
0.686266641823699
 20
-2.542468059711129
 30
0.0
 10
0.6858597407820323
 20
-2.545926718565295
 30
0.0
 10
0.6858597407820323
 20
-2.545926718565295
 30
0.0
 10
0.634569864479949
 20
-2.545926718565295
 30
0.0
 10
0.634569864479949
 20
-2.545926718565295
 30
0.0
 10
0.6385914031084213
 20
-2.537436050162518
 30
0.0
 10
0.6428909907820323
 20
-2.531237590961129
 30
0.0
 10
0.6474279373966157
 20
-2.527426284537518
 30
0.0
  0
SPLINE
  5
B2
330
AA
100
AcDbEntity
  8
Inner Circle
100
AcDbSpline
210
0.0
220
0.0
230
1.0
 70
     9
 71
     3
 72
    65
 73
    61
 74
     0
 42
0.0000000001
 43
0.0000000001
 40
0.0
 40
0.0
 40
0.0
 40
0.0
 40
1.0
 40
1.0
 40
1.0
 40
2.0
 40
2.0
 40
2.0
 40
3.0
 40
3.0
 40
3.0
 40
4.0
 40
4.0
 40
4.0
 40
5.0
 40
5.0
 40
5.0
 40
6.0
 40
6.0
 40
6.0
 40
7.0
 40
7.0
 40
7.0
 40
8.0
 40
8.0
 40
8.0
 40
9.0
 40
9.0
 40
9.0
 40
10.0
 40
10.0
 40
10.0
 40
11.0
 40
11.0
 40
11.0
 40
12.0
 40
12.0
 40
12.0
 40
13.0
 40
13.0
 40
13.0
 40
14.0
 40
14.0
 40
14.0
 40
15.0
 40
15.0
 40
15.0
 40
16.0
 40
16.0
 40
16.0
 40
17.0
 40
17.0
 40
17.0
 40
18.0
 40
18.0
 40
18.0
 40
19.0
 40
19.0
 40
19.0
 40
20.0
 40
20.0
 40
20.0
 40
20.0
 10
0.745470743386199
 20
-2.566475221169462
 30
0.0
 10
0.7486716982473101
 20
-2.538276978981962
 30
0.0
 10
0.7434837099660601
 20
-2.514500394780573
 30
0.0
 10
0.7300559755910601
 20
-2.495782946863907
 30
0.0
 10
0.7163162837507823
 20
-2.476658597905573
 30
0.0
 10
0.695971231667449
 20
-2.466703085752795
 30
0.0
 10
0.6695972624834213
 20
-2.466187677766684
 30
0.0
 10
0.6513748775007823
 20
-2.465604452940295
 30
0.0
 10
0.6344274491153657
 20
-2.469958294086129
 30
0.0
 10
0.6193449838375879
 20
-2.478869426898629
 30
0.0
 10
0.6043642438202267
 20
-2.487739869606962
 30
0.0
 10
0.5919605437334213
 20
-2.500462308843073
 30
0.0
 10
0.5824865311466157
 20
-2.516711223773629
 30
0.0
 10
0.5731006804521713
 20
-2.532797378287518
 30
0.0
 10
0.5674176292368935
 20
-2.550701024120851
 30
0.0
 10
0.5655797928653657
 20
-2.570069513704184
 30
0.0
 10
0.5655797928653657
 20
-2.570069513704184
 30
0.0
 10
0.5650643848792545
 20
-2.576946141308351
 30
0.0
 10
0.5650643848792545
 20
-2.576946141308351
 30
0.0
 10
0.5635791960771713
 20
-2.59474128019724
 30
0.0
 10
0.5662308345320323
 20
-2.611302152593073
 30
0.0
 10
0.5729514834035601
 20
-2.626167603981962
 30
0.0
 10
0.5797399491153657
 20
-2.641209379155573
 30
0.0
 10
0.5901837425181435
 20
-2.65321295988474
 30
0.0
 10
0.6039980328827267
 20
-2.661852825336129
 30
0.0
 10
0.6177309430389767
 20
-2.670452000683351
 30
0.0
 10
0.633654337136199
 20
-2.674860095301407
 30
0.0
 10
0.6512663705563379
 20
-2.674982165613907
 30
0.0
 10
0.6518563770667545
 20
-2.674995728981962
 30
0.0
 10
0.652453165261199
 20
-2.674995728981962
 30
0.0
 10
0.6530499534556435
 20
-2.674995728981962
 30
0.0
 10
0.6686410450355045
 20
-2.674995728981962
 30
0.0
 10
0.683459024636199
 20
-2.67188971769724
 30
0.0
 10
0.6971105545841157
 20
-2.665772638704184
 30
0.0
 10
0.7115894499834213
 20
-2.659302912141684
 30
0.0
 10
0.7228673905216157
 20
-2.650079821863907
 30
0.0
 10
0.730639200417449
 20
-2.638347508495851
 30
0.0
 10
0.730639200417449
 20
-2.638347508495851
 30
0.0
 10
0.7334400359209213
 20
-2.634102174294462
 30
0.0
 10
0.7334400359209213
 20
-2.634102174294462
 30
0.0
 10
0.7334400359209213
 20
-2.634102174294462
 30
0.0
 10
0.7028275142195323
 20
-2.596138307106962
 30
0.0
 10
0.7028275142195323
 20
-2.596138307106962
 30
0.0
 10
0.7028275142195323
 20
-2.596138307106962
 30
0.0
 10
0.6973682585771713
 20
-2.601970555370851
 30
0.0
 10
0.6973682585771713
 20
-2.601970555370851
 30
0.0
 10
0.6852561709035601
 20
-2.614937135231962
 30
0.0
 10
0.6719505068410601
 20
-2.621054214225018
 30
0.0
 10
0.6556812468584213
 20
-2.62062018644724
 30
0.0
 10
0.6466480437334213
 20
-2.620430299294462
 30
0.0
 10
0.6397917611813379
 20
-2.617514175162518
 30
0.0
 10
0.6347122798445323
 20
-2.611695490266684
 30
0.0
 10
0.6306771778480045
 20
-2.607083945127795
 30
0.0
 10
0.6283646235945323
 20
-2.601265260231962
 30
0.0
 10
0.6277135819278657
 20
-2.594035985058351
 30
0.0
 10
0.6277135819278657
 20
-2.594035985058351
 30
0.0
 10
0.7418967959035601
 20
-2.594035985058351
 30
0.0
 10
0.7418967959035601
 20
-2.594035985058351
 30
0.0
 10
0.7418967959035601
 20
-2.594035985058351
 30
0.0
 10
0.745470743386199
 20
-2.566475221169462
 30
0.0
 10
0.745470743386199
 20
-2.566475221169462
 30
0.0
  0
SPLINE
  5
B3
330
AA
100
AcDbEntity
  8
Inner Circle
100
AcDbSpline
210
0.0
220
0.0
230
1.0
 70
     9
 71
     3
 72
    41
 73
    37
 74
     0
 42
0.0000000001
 43
0.0000000001
 40
0.0
 40
0.0
 40
0.0
 40
0.0
 40
1.0
 40
1.0
 40
1.0
 40
2.0
 40
2.0
 40
2.0
 40
3.0
 40
3.0
 40
3.0
 40
4.0
 40
4.0
 40
4.0
 40
5.0
 40
5.0
 40
5.0
 40
6.0
 40
6.0
 40
6.0
 40
7.0
 40
7.0
 40
7.0
 40
8.0
 40
8.0
 40
8.0
 40
9.0
 40
9.0
 40
9.0
 40
10.0
 40
10.0
 40
10.0
 40
11.0
 40
11.0
 40
11.0
 40
12.0
 40
12.0
 40
12.0
 40
12.0
 10
0.8683412946014767
 20
-2.46583503019724
 30
0.0
 10
0.8564530025007822
 20
-2.46583503019724
 30
0.0
 10
0.8456769065806433
 20
-2.469456449468073
 30
0.0
 10
0.8361215137855044
 20
-2.476631471169462
 30
0.0
 10
0.8361215137855044
 20
-2.476631471169462
 30
0.0
 10
0.8375321040632822
 20
-2.469456449468073
 30
0.0
 10
0.8375321040632822
 20
-2.469456449468073
 30
0.0
 10
0.8375321040632822
 20
-2.469456449468073
 30
0.0
 10
0.7772022429521713
 20
-2.469687026725018
 30
0.0
 10
0.7772022429521713
 20
-2.469687026725018
 30
0.0
 10
0.7772022429521713
 20
-2.469687026725018
 30
0.0
 10
0.7421341548445323
 20
-2.671509943391684
 30
0.0
 10
0.7421341548445323
 20
-2.671509943391684
 30
0.0
 10
0.7421341548445323
 20
-2.671509943391684
 30
0.0
 10
0.8051970346188378
 20
-2.671509943391684
 30
0.0
 10
0.8051970346188378
 20
-2.671509943391684
 30
0.0
 10
0.8051970346188378
 20
-2.671509943391684
 30
0.0
 10
0.8276240636986988
 20
-2.544475438183351
 30
0.0
 10
0.8276240636986988
 20
-2.544475438183351
 30
0.0
 10
0.8360333518931433
 20
-2.533990954676407
 30
0.0
 10
0.8469450814938378
 20
-2.528864001551407
 30
0.0
 10
0.8610374209035601
 20
-2.528864001551407
 30
0.0
 10
0.8653370085771712
 20
-2.528891128287518
 30
0.0
 10
0.8707420107473101
 20
-2.529298029329184
 30
0.0
 10
0.8779373775007822
 20
-2.53053229582224
 30
0.0
 10
0.8779373775007822
 20
-2.53053229582224
 30
0.0
 10
0.8850717090980044
 20
-2.53175299894724
 30
0.0
 10
0.8850717090980044
 20
-2.53175299894724
 30
0.0
 10
0.8850717090980044
 20
-2.53175299894724
 30
0.0
 10
0.8930401878306433
 20
-2.46998542082224
 30
0.0
 10
0.8930401878306433
 20
-2.46998542082224
 30
0.0
 10
0.8930401878306433
 20
-2.46998542082224
 30
0.0
 10
0.8870519608341156
 20
-2.468479886968073
 30
0.0
 10
0.8870519608341156
 20
-2.468479886968073
 30
0.0
 10
0.8800396995493933
 20
-2.466730212488907
 30
0.0
 10
0.8737462967716156
 20
-2.46583503019724
 30
0.0
 10
0.8683412946014767
 20
-2.46583503019724
 30
0.0
  0
SPLINE
  5
B4
330
AA
100
AcDbEntity
  8
Inner Circle
100
AcDbSpline
210
0.0
220
0.0
230
1.0
 70
     9
 71
     3
 72
    89
 73
    85
 74
     0
 42
0.0000000001
 43
0.0000000001
 40
0.0
 40
0.0
 40
0.0
 40
0.0
 40
1.0
 40
1.0
 40
1.0
 40
2.0
 40
2.0
 40
2.0
 40
3.0
 40
3.0
 40
3.0
 40
4.0
 40
4.0
 40
4.0
 40
5.0
 40
5.0
 40
5.0
 40
6.0
 40
6.0
 40
6.0
 40
7.0
 40
7.0
 40
7.0
 40
8.0
 40
8.0
 40
8.0
 40
9.0
 40
9.0
 40
9.0
 40
10.0
 40
10.0
 40
10.0
 40
11.0
 40
11.0
 40
11.0
 40
12.0
 40
12.0
 40
12.0
 40
13.0
 40
13.0
 40
13.0
 40
14.0
 40
14.0
 40
14.0
 40
15.0
 40
15.0
 40
15.0
 40
16.0
 40
16.0
 40
16.0
 40
17.0
 40
17.0
 40
17.0
 40
18.0
 40
18.0
 40
18.0
 40
19.0
 40
19.0
 40
19.0
 40
20.0
 40
20.0
 40
20.0
 40
21.0
 40
21.0
 40
21.0
 40
22.0
 40
22.0
 40
22.0
 40
23.0
 40
23.0
 40
23.0
 40
24.0
 40
24.0
 40
24.0
 40
25.0
 40
25.0
 40
25.0
 40
26.0
 40
26.0
 40
26.0
 40
27.0
 40
27.0
 40
27.0
 40
28.0
 40
28.0
 40
28.0
 40
28.0
 10
1.117778414827171
 20
-2.579089153461129
 30
0.0
 10
1.115079304584115
 20
-2.59229987394724
 30
0.0
 10
1.109626830625782
 20
-2.602485963356962
 30
0.0
 10
1.101590535052865
 20
-2.609335464225018
 30
0.0
 10
1.093540676111893
 20
-2.616171401725018
 30
0.0
 10
1.082906995556337
 20
-2.619250286273629
 30
0.0
 10
1.069024888351476
 20
-2.618707751551407
 30
0.0
 10
1.059727199549393
 20
-2.61842292082224
 30
0.0
 10
1.052796318473004
 20
-2.615479669954184
 30
0.0
 10
1.047825344080643
 20
-2.609728801898629
 30
0.0
 10
1.042664482535504
 20
-2.603760919954184
 30
0.0
 10
1.039782266823698
 20
-2.593832534537518
 30
0.0
 10
1.039266858837587
 20
-2.58021491300974
 30
0.0
 10
1.038819267691754
 20
-2.568672486794462
 30
0.0
 10
1.040433308490365
 20
-2.550823094433351
 30
0.0
 10
1.044054727761198
 20
-2.527168580544462
 30
0.0
 10
1.047655801979948
 20
-2.503703953808351
 30
0.0
 10
1.054681626632726
 20
-2.485759617870851
 30
0.0
 10
1.064949096250782
 20
-2.473837417350018
 30
0.0
 10
1.074768974723004
 20
-2.462444188183351
 30
0.0
 10
1.086887844080643
 20
-2.457018840961129
 30
0.0
 10
1.102261921771615
 20
-2.457669882627795
 30
0.0
 10
1.113777221250782
 20
-2.458063220301407
 30
0.0
 10
1.121847425243837
 20
-2.461142104850018
 30
0.0
 10
1.126947251632726
 20
-2.467069296690295
 30
0.0
 10
1.132182711702171
 20
-2.47315924894724
 30
0.0
 10
1.13484113184106
 20
-2.483440281933351
 30
0.0
 10
1.13484113184106
 20
-2.497627564919462
 30
0.0
 10
1.13484113184106
 20
-2.497627564919462
 30
0.0
 10
1.13484113184106
 20
-2.504544882627795
 30
0.0
 10
1.13484113184106
 20
-2.504544882627795
 30
0.0
 10
1.13484113184106
 20
-2.504544882627795
 30
0.0
 10
1.199809664827171
 20
-2.50477545988474
 30
0.0
 10
1.199809664827171
 20
-2.50477545988474
 30
0.0
 10
1.199809664827171
 20
-2.50477545988474
 30
0.0
 10
1.19941632715356
 20
-2.497437677766684
 30
0.0
 10
1.19941632715356
 20
-2.497437677766684
 30
0.0
 10
1.197842976459115
 20
-2.467937352245851
 30
0.0
 10
1.188687703021615
 20
-2.444432035405573
 30
0.0
 10
1.17219464746606
 20
-2.427545642176407
 30
0.0
 10
1.155579521598004
 20
-2.410564305370851
 30
0.0
 10
1.132996513785504
 20
-2.401707426030573
 30
0.0
 10
1.105076320643143
 20
-2.401219144780573
 30
0.0
 10
1.079489026806337
 20
-2.400663046690295
 30
0.0
 10
1.05653302637231
 20
-2.407702434711129
 30
0.0
 10
1.036601657014671
 20
-2.421984661273629
 30
0.0
 10
1.022563571077171
 20
-2.432116497211129
 30
0.0
 10
1.010315849723004
 20
-2.445978259363907
 30
0.0
 10
1.000190795469532
 20
-2.463190173426407
 30
0.0
 10
0.9901471214243933
 20
-2.480266453808351
 30
0.0
 10
0.9830806066674488
 20
-2.500041844433351
 30
0.0
 10
0.9791947017195322
 20
-2.521946683843073
 30
0.0
 10
0.9753494868757822
 20
-2.543580255891684
 30
0.0
 10
0.9738303896535601
 20
-2.561999309711129
 30
0.0
 10
0.9746645367889767
 20
-2.57667487394724
 30
0.0
 10
0.9756343176049488
 20
-2.595744969433351
 30
0.0
 10
0.9799474686466156
 20
-2.612902630023629
 30
0.0
 10
0.9874887012855044
 20
-2.627686701204184
 30
0.0
 10
0.9951791309730044
 20
-2.642755603113907
 30
0.0
 10
1.005914536788976
 20
-2.654447226377795
 30
0.0
 10
1.019396524636198
 20
-2.662449613530573
 30
0.0
 10
1.032770005538976
 20
-2.670397747211129
 30
0.0
 10
1.048591674375782
 20
-2.674615954676407
 30
0.0
 10
1.06642072168481
 20
-2.674982165613907
 30
0.0
 10
1.067309122292448
 20
-2.674995728981962
 30
0.0
 10
1.068197522900087
 20
-2.675009292350018
 30
0.0
 10
1.069085923507726
 20
-2.675009292350018
 30
0.0
 10
1.087586357535504
 20
-2.675009292350018
 30
0.0
 10
1.105103447379254
 20
-2.671320056238907
 30
0.0
 10
1.121182820209115
 20
-2.664022964225018
 30
0.0
 10
1.138164157014671
 20
-2.656346097905573
 30
0.0
 10
1.15217511621606
 20
-2.645142755891684
 30
0.0
 10
1.162808796771615
 20
-2.630738459016684
 30
0.0
 10
1.173442477327171
 20
-2.616361288877795
 30
0.0
 10
1.179912203889671
 20
-2.599596965961129
 30
0.0
 10
1.182028089306337
 20
-2.580920208148629
 30
0.0
 10
1.182028089306337
 20
-2.580920208148629
 30
0.0
 10
1.182909708229948
 20
-2.57313483488474
 30
0.0
 10
1.182909708229948
 20
-2.57313483488474
 30
0.0
 10
1.182909708229948
 20
-2.57313483488474
 30
0.0
 10
1.118917737743837
 20
-2.573582426030573
 30
0.0
 10
1.118917737743837
 20
-2.573582426030573
 30
0.0
 10
1.118917737743837
 20
-2.573582426030573
 30
0.0
 10
1.117778414827171
 20
-2.579089153461129
 30
0.0
 10
1.117778414827171
 20
-2.579089153461129
 30
0.0
  0
SPLINE
  5
B5
330
AA
100
AcDbEntity
  8
Inner Circle
100
AcDbSpline
210
0.0
220
0.0
230
1.0
 70
     9
 71
     3
 72
    35
 73
    31
 74
     0
 42
0.0000000001
 43
0.0000000001
 40
0.0
 40
0.0
 40
0.0
 40
0.0
 40
1.0
 40
1.0
 40
1.0
 40
2.0
 40
2.0
 40
2.0
 40
3.0
 40
3.0
 40
3.0
 40
4.0
 40
4.0
 40
4.0
 40
5.0
 40
5.0
 40
5.0
 40
6.0
 40
6.0
 40
6.0
 40
7.0
 40
7.0
 40
7.0
 40
8.0
 40
8.0
 40
8.0
 40
9.0
 40
9.0
 40
9.0
 40
10.0
 40
10.0
 40
10.0
 40
10.0
 10
1.260926201285504
 20
-2.461155668218073
 30
0.0
 10
1.261346665695226
 20
-2.461155668218073
 30
0.0
 10
1.261767130104948
 20
-2.461155668218073
 30
0.0
 10
1.262187594514671
 20
-2.461142104850018
 30
0.0
 10
1.27217023340356
 20
-2.460857274120851
 30
0.0
 10
1.280430324549393
 20
-2.457317235058351
 30
0.0
 10
1.286737290695226
 20
-2.450630494606962
 30
0.0
 10
1.293084946945226
 20
-2.443957317523629
 30
0.0
 10
1.296150268125782
 20
-2.435954930370851
 30
0.0
 10
1.295865437396615
 20
-2.426867473773629
 30
0.0
 10
1.295553479931337
 20
-2.417386679502795
 30
0.0
 10
1.291891370556337
 20
-2.409506362662518
 30
0.0
 10
1.284974052848004
 20
-2.40345710050974
 30
0.0
 10
1.284974052848004
 20
-2.40345710050974
 30
0.0
 10
1.284974052848004
 20
-2.403443537141684
 30
0.0
 10
1.284974052848004
 20
-2.403443537141684
 30
0.0
 10
1.278504326285504
 20
-2.397801176030573
 30
0.0
 10
1.27082745996606
 20
-2.394952868738907
 30
0.0
 10
1.262323228195226
 20
-2.394952868738907
 30
0.0
 10
1.252937377500782
 20
-2.394898615266684
 30
0.0
 10
1.243958427848004
 20
-2.397909682975018
 30
0.0
 10
1.237041110139671
 20
-2.404528606586129
 30
0.0
 10
1.230259426111893
 20
-2.41102545988474
 30
0.0
 10
1.226963527674393
 20
-2.419271987662518
 30
0.0
 10
1.22724835840356
 20
-2.429037612662518
 30
0.0
 10
1.227546752500782
 20
-2.438938871343073
 30
0.0
 10
1.231263115348004
 20
-2.446968385231962
 30
0.0
 10
1.238316066736893
 20
-2.452909140440295
 30
0.0
 10
1.24482648340356
 20
-2.45838874113474
 30
0.0
 10
1.252435532882726
 20
-2.461155668218073
 30
0.0
 10
1.260926201285504
 20
-2.461155668218073
 30
0.0
  0
LWPOLYLINE
  5
B6
330
AA
100
AcDbEntity
  8
Inner Circle
100
AcDbPolyline
 90
        4
 70
     1
 43
0.0
 10
1.222623249896615
 20
-2.469659899988907
 10
1.187548380104948
 20
-2.671509943391684
 10
1.250984252500782
 20
-2.671509943391684
 10
1.286059122292448
 20
-2.469659899988907
  0
SPLINE
  5
B7
330
AA
100
AcDbEntity
  8
Inner Circle
100
AcDbSpline
210
0.0
220
0.0
230
1.0
 70
    11
 71
     3
 72
    41
 73
    37
 74
     0
 42
0.0000000001
 43
0.0000000001
 40
0.0
 40
0.0
 40
0.0
 40
0.0
 40
1.0
 40
1.0
 40
1.0
 40
2.0
 40
2.0
 40
2.0
 40
3.0
 40
3.0
 40
3.0
 40
4.0
 40
4.0
 40
4.0
 40
5.0
 40
5.0
 40
5.0
 40
6.0
 40
6.0
 40
6.0
 40
7.0
 40
7.0
 40
7.0
 40
8.0
 40
8.0
 40
8.0
 40
9.0
 40
9.0
 40
9.0
 40
10.0
 40
10.0
 40
10.0
 40
11.0
 40
11.0
 40
11.0
 40
12.0
 40
12.0
 40
12.0
 40
12.0
 10
1.421326591910504
 20
-2.53175299894724
 30
0.0
 10
1.421326591910504
 20
-2.53175299894724
 30
0.0
 10
1.429301852327171
 20
-2.46998542082224
 30
0.0
 10
1.429301852327171
 20
-2.46998542082224
 30
0.0
 10
1.429301852327171
 20
-2.46998542082224
 30
0.0
 10
1.423320407014671
 20
-2.468479886968073
 30
0.0
 10
1.423320407014671
 20
-2.468479886968073
 30
0.0
 10
1.416308145729948
 20
-2.466730212488907
 30
0.0
 10
1.410014742952171
 20
-2.46583503019724
 30
0.0
 10
1.404602959098004
 20
-2.46583503019724
 30
0.0
 10
1.392707885313282
 20
-2.46583503019724
 30
0.0
 10
1.381938571077171
 20
-2.469456449468073
 30
0.0
 10
1.372376396598004
 20
-2.476631471169462
 30
0.0
 10
1.372376396598004
 20
-2.476631471169462
 30
0.0
 10
1.373786986875782
 20
-2.469456449468073
 30
0.0
 10
1.373786986875782
 20
-2.469456449468073
 30
0.0
 10
1.373786986875782
 20
-2.469456449468073
 30
0.0
 10
1.313457125764671
 20
-2.469687026725018
 30
0.0
 10
1.313457125764671
 20
-2.469687026725018
 30
0.0
 10
1.313457125764671
 20
-2.469687026725018
 30
0.0
 10
1.278382255973004
 20
-2.671509943391684
 30
0.0
 10
1.278382255973004
 20
-2.671509943391684
 30
0.0
 10
1.278382255973004
 20
-2.671509943391684
 30
0.0
 10
1.341465480799393
 20
-2.671509943391684
 30
0.0
 10
1.341465480799393
 20
-2.671509943391684
 30
0.0
 10
1.341465480799393
 20
-2.671509943391684
 30
0.0
 10
1.363885728195226
 20
-2.544475438183351
 30
0.0
 10
1.363885728195226
 20
-2.544475438183351
 30
0.0
 10
1.372295016389671
 20
-2.533990954676407
 30
0.0
 10
1.383199964306337
 20
-2.528864001551407
 30
0.0
 10
1.39729230371606
 20
-2.528864001551407
 30
0.0
 10
1.401673271598004
 20
-2.528891128287518
 30
0.0
 10
1.407003675243837
 20
-2.529298029329184
 30
0.0
 10
1.414192260313282
 20
-2.53053229582224
 30
0.0
 10
1.414192260313282
 20
-2.53053229582224
 30
0.0
 10
1.421326591910504
 20
-2.53175299894724
 30
0.0
 10
1.421326591910504
 20
-2.53175299894724
 30
0.0
  0
SPLINE
  5
B8
330
AA
100
AcDbEntity
  8
Inner Circle
100
AcDbSpline
210
0.0
220
0.0
230
1.0
 70
     9
 71
     3
 72
    77
 73
    73
 74
     0
 42
0.0000000001
 43
0.0000000001
 40
0.0
 40
0.0
 40
0.0
 40
0.0
 40
1.0
 40
1.0
 40
1.0
 40
2.0
 40
2.0
 40
2.0
 40
3.0
 40
3.0
 40
3.0
 40
4.0
 40
4.0
 40
4.0
 40
5.0
 40
5.0
 40
5.0
 40
6.0
 40
6.0
 40
6.0
 40
7.0
 40
7.0
 40
7.0
 40
8.0
 40
8.0
 40
8.0
 40
9.0
 40
9.0
 40
9.0
 40
10.0
 40
10.0
 40
10.0
 40
11.0
 40
11.0
 40
11.0
 40
12.0
 40
12.0
 40
12.0
 40
13.0
 40
13.0
 40
13.0
 40
14.0
 40
14.0
 40
14.0
 40
15.0
 40
15.0
 40
15.0
 40
16.0
 40
16.0
 40
16.0
 40
17.0
 40
17.0
 40
17.0
 40
18.0
 40
18.0
 40
18.0
 40
19.0
 40
19.0
 40
19.0
 40
20.0
 40
20.0
 40
20.0
 40
21.0
 40
21.0
 40
21.0
 40
22.0
 40
22.0
 40
22.0
 40
23.0
 40
23.0
 40
23.0
 40
24.0
 40
24.0
 40
24.0
 40
24.0
 10
1.520990220382726
 20
-2.598308445995851
 30
0.0
 10
1.519443996424393
 20
-2.605429214225018
 30
0.0
 10
1.516324421771615
 20
-2.610908814919462
 30
0.0
 10
1.511441609271615
 20
-2.615072768912518
 30
0.0
 10
1.506721557188282
 20
-2.619101089225018
 30
0.0
 10
1.501106322813282
 20
-2.62110846769724
 30
0.0
 10
1.493524400070226
 20
-2.620796510231962
 30
0.0
 10
1.48518292871606
 20
-2.62062018644724
 30
0.0
 10
1.475457993820226
 20
-2.617676935579184
 30
0.0
 10
1.474250854063282
 20
-2.59645026457224
 30
0.0
 10
1.473816826285504
 20
-2.588244426898629
 30
0.0
 10
1.47444074121606
 20
-2.577922703808351
 30
0.0
 10
1.476109035486893
 20
-2.565824179502795
 30
0.0
 10
1.482660142257726
 20
-2.519885051898629
 30
0.0
 10
1.504185207361893
 20
-2.520183445995851
 30
0.0
 10
1.511509426111893
 20
-2.520549656933351
 30
0.0
 10
1.518169039827171
 20
-2.520902304502795
 30
0.0
 10
1.522943345382726
 20
-2.52308600675974
 30
0.0
 10
1.526062920035504
 20
-2.527182143912518
 30
0.0
 10
1.529508015521615
 20
-2.531725872211129
 30
0.0
 10
1.531257690000782
 20
-2.538317669086129
 30
0.0
 10
1.531257690000782
 20
-2.546781210752795
 30
0.0
 10
1.531257690000782
 20
-2.546781210752795
 30
0.0
 10
1.531257690000782
 20
-2.55372565519724
 30
0.0
 10
1.531257690000782
 20
-2.55372565519724
 30
0.0
 10
1.531257690000782
 20
-2.55372565519724
 30
0.0
 10
1.590760185660504
 20
-2.55372565519724
 30
0.0
 10
1.590760185660504
 20
-2.55372565519724
 30
0.0
 10
1.590760185660504
 20
-2.55372565519724
 30
0.0
 10
1.590828002500782
 20
-2.546849027593073
 30
0.0
 10
1.590828002500782
 20
-2.546849027593073
 30
0.0
 10
1.591072143125782
 20
-2.523235203808351
 30
0.0
 10
1.584290459098004
 20
-2.503826024120851
 30
0.0
 10
1.570645710834115
 20
-2.48915045988474
 30
0.0
 10
1.556919582361893
 20
-2.474420642176407
 30
0.0
 10
1.53828351465356
 20
-2.46668952238474
 30
0.0
 10
1.515280042431337
 20
-2.466187677766684
 30
0.0
 10
1.487556518125782
 20
-2.465455255891684
 30
0.0
 10
1.464146144861893
 20
-2.474827543218073
 30
0.0
 10
1.445333753368837
 20
-2.494073962488907
 30
0.0
 10
1.426806192604948
 20
-2.513035551030573
 30
0.0
 10
1.415752047639671
 20
-2.538887330544462
 30
0.0
 10
1.412456149202171
 20
-2.570991822731962
 30
0.0
 10
1.412456149202171
 20
-2.570991822731962
 30
0.0
 10
1.411737290695226
 20
-2.582968276725018
 30
0.0
 10
1.411737290695226
 20
-2.582968276725018
 30
0.0
 10
1.411249009445226
 20
-2.610217083148629
 30
0.0
 10
1.418301960834115
 20
-2.632474570127795
 30
0.0
 10
1.432706257709115
 20
-2.649130386100018
 30
0.0
 10
1.447300441736893
 20
-2.666016779329184
 30
0.0
 10
1.467265719514671
 20
-2.674778715093073
 30
0.0
 10
1.491991739479948
 20
-2.675158489398629
 30
0.0
 10
1.492819104931337
 20
-2.675172052766684
 30
0.0
 10
1.493632907014671
 20
-2.67518561613474
 30
0.0
 10
1.49446027246606
 20
-2.67518561613474
 30
0.0
 10
1.508389851459115
 20
-2.67518561613474
 30
0.0
 10
1.521858275938282
 20
-2.672147421690295
 30
0.0
 10
1.534485771598004
 20
-2.66615241300974
 30
0.0
 10
1.547981322813282
 20
-2.659750503287518
 30
0.0
 10
1.558940524202171
 20
-2.650690173426407
 30
0.0
 10
1.567051418299393
 20
-2.639229127419462
 30
0.0
 10
1.575243692604948
 20
-2.627673137836129
 30
0.0
 10
1.579841674375782
 20
-2.614489544086129
 30
0.0
 10
1.580736856667448
 20
-2.600030993738907
 30
0.0
 10
1.580736856667448
 20
-2.600030993738907
 30
0.0
 10
1.581198011181337
 20
-2.592625394780573
 30
0.0
 10
1.581198011181337
 20
-2.592625394780573
 30
0.0
 10
1.581198011181337
 20
-2.592625394780573
 30
0.0
 10
1.52217023340356
 20
-2.592855972037518
 30
0.0
 10
1.52217023340356
 20
-2.592855972037518
 30
0.0
 10
1.52217023340356
 20
-2.592855972037518
 30
0.0
 10
1.520990220382726
 20
-2.598308445995851
 30
0.0
 10
1.520990220382726
 20
-2.598308445995851
 30
0.0
  0
LWPOLYLINE
  5
B9
330
AA
100
AcDbEntity
  8
Inner Circle
100
AcDbPolyline
 90
        4
 70
     1
 43
0.0
 10
1.63569562402856
 20
-2.390788914745851
 10
1.586908189132726
 20
-2.671509943391684
 10
1.65034406152856
 20
-2.671509943391684
 10
1.698955172639671
 20
-2.390788914745851
  0
SPLINE
  5
BA
330
AA
100
AcDbEntity
  8
Inner Circle
100
AcDbSpline
210
0.0
220
0.0
230
1.0
 70
     9
 71
     3
 72
    23
 73
    19
 74
     0
 42
0.0000000001
 43
0.0000000001
 40
0.0
 40
0.0
 40
0.0
 40
0.0
 40
1.0
 40
1.0
 40
1.0
 40
2.0
 40
2.0
 40
2.0
 40
3.0
 40
3.0
 40
3.0
 40
4.0
 40
4.0
 40
4.0
 40
5.0
 40
5.0
 40
5.0
 40
6.0
 40
6.0
 40
6.0
 40
6.0
 10
1.771356431320226
 20
-2.527426284537518
 30
0.0
 10
1.777066609271615
 20
-2.522611288877795
 30
0.0
 10
1.78352277246606
 20
-2.520102065787518
 30
0.0
 10
1.790819864479948
 20
-2.520549656933351
 30
0.0
 10
1.796190958229948
 20
-2.52064460050974
 30
0.0
 10
1.800409165695226
 20
-2.522014500683351
 30
0.0
 10
1.803691500764671
 20
-2.524754301030573
 30
0.0
 10
1.806933145729948
 20
-2.527453411273629
 30
0.0
 10
1.808926960834115
 20
-2.531251154329184
 30
0.0
 10
1.809781453021615
 20
-2.536079713356962
 30
0.0
 10
1.810201917431337
 20
-2.539185724641684
 30
0.0
 10
1.810201917431337
 20
-2.542481623079184
 30
0.0
 10
1.809795016389671
 20
-2.545926718565295
 30
0.0
 10
1.809795016389671
 20
-2.545926718565295
 30
0.0
 10
1.758511921771615
 20
-2.545926718565295
 30
0.0
 10
1.758511921771615
 20
-2.545926718565295
 30
0.0
 10
1.762540242084115
 20
-2.537449613530573
 30
0.0
 10
1.766839829757726
 20
-2.531237590961129
 30
0.0
 10
1.771356431320226
 20
-2.527426284537518
 30
0.0
  0
SPLINE
  5
BB
330
AA
100
AcDbEntity
  8
Inner Circle
100
AcDbSpline
210
0.0
220
0.0
230
1.0
 70
     9
 71
     3
 72
    65
 73
    61
 74
     0
 42
0.0000000001
 43
0.0000000001
 40
0.0
 40
0.0
 40
0.0
 40
0.0
 40
1.0
 40
1.0
 40
1.0
 40
2.0
 40
2.0
 40
2.0
 40
3.0
 40
3.0
 40
3.0
 40
4.0
 40
4.0
 40
4.0
 40
5.0
 40
5.0
 40
5.0
 40
6.0
 40
6.0
 40
6.0
 40
7.0
 40
7.0
 40
7.0
 40
8.0
 40
8.0
 40
8.0
 40
9.0
 40
9.0
 40
9.0
 40
10.0
 40
10.0
 40
10.0
 40
11.0
 40
11.0
 40
11.0
 40
12.0
 40
12.0
 40
12.0
 40
13.0
 40
13.0
 40
13.0
 40
14.0
 40
14.0
 40
14.0
 40
15.0
 40
15.0
 40
15.0
 40
16.0
 40
16.0
 40
16.0
 40
17.0
 40
17.0
 40
17.0
 40
18.0
 40
18.0
 40
18.0
 40
19.0
 40
19.0
 40
19.0
 40
20.0
 40
20.0
 40
20.0
 40
20.0
 10
1.853998032882726
 20
-2.495782946863907
 30
0.0
 10
1.840244777674393
 20
-2.476645034537518
 30
0.0
 10
1.81989972559106
 20
-2.46668952238474
 30
0.0
 10
1.793573228195226
 20
-2.466187677766684
 30
0.0
 10
1.775289808056337
 20
-2.465645143044462
 30
0.0
 10
1.75837628809106
 20
-2.469958294086129
 30
0.0
 10
1.743280259445226
 20
-2.478869426898629
 30
0.0
 10
1.728319864479948
 20
-2.487726306238907
 30
0.0
 10
1.715909382709115
 20
-2.500462308843073
 30
0.0
 10
1.706428588438282
 20
-2.516711223773629
 30
0.0
 10
1.697042737743837
 20
-2.532810941655573
 30
0.0
 10
1.69135968652856
 20
-2.550714587488907
 30
0.0
 10
1.689515068473004
 20
-2.570055950336129
 30
0.0
 10
1.689515068473004
 20
-2.570055950336129
 30
0.0
 10
1.688999660486893
 20
-2.576959704676407
 30
0.0
 10
1.688999660486893
 20
-2.576959704676407
 30
0.0
 10
1.687521253368837
 20
-2.594754843565295
 30
0.0
 10
1.690179673507726
 20
-2.611315715961129
 30
0.0
 10
1.696879977327171
 20
-2.626167603981962
 30
0.0
 10
1.703675224723004
 20
-2.641209379155573
 30
0.0
 10
1.714119018125782
 20
-2.65321295988474
 30
0.0
 10
1.727926526806337
 20
-2.661852825336129
 30
0.0
 10
1.741666218646615
 20
-2.670452000683351
 30
0.0
 10
1.757603176111893
 20
-2.674860095301407
 30
0.0
 10
1.775208427848004
 20
-2.674982165613907
 30
0.0
 10
1.775805216042448
 20
-2.674995728981962
 30
0.0
 10
1.776402004236893
 20
-2.674995728981962
 30
0.0
 10
1.776998792431337
 20
-2.674995728981962
 30
0.0
 10
1.792583102327171
 20
-2.674995728981962
 30
0.0
 10
1.807394300243837
 20
-2.67188971769724
 30
0.0
 10
1.821052611875782
 20
-2.665772638704184
 30
0.0
 10
1.83552472559106
 20
-2.65931647550974
 30
0.0
 10
1.846795884445226
 20
-2.650079821863907
 30
0.0
 10
1.854581257709115
 20
-2.638347508495851
 30
0.0
 10
1.854581257709115
 20
-2.638347508495851
 30
0.0
 10
1.857388874896615
 20
-2.634102174294462
 30
0.0
 10
1.857388874896615
 20
-2.634102174294462
 30
0.0
 10
1.857388874896615
 20
-2.634102174294462
 30
0.0
 10
1.826776353195226
 20
-2.596138307106962
 30
0.0
 10
1.826776353195226
 20
-2.596138307106962
 30
0.0
 10
1.826776353195226
 20
-2.596138307106962
 30
0.0
 10
1.821310315868837
 20
-2.601970555370851
 30
0.0
 10
1.821310315868837
 20
-2.601970555370851
 30
0.0
 10
1.809184664827171
 20
-2.614937135231962
 30
0.0
 10
1.795390719514671
 20
-2.62086432707224
 30
0.0
 10
1.779630085834115
 20
-2.62062018644724
 30
0.0
 10
1.77058331934106
 20
-2.620430299294462
 30
0.0
 10
1.763720255104948
 20
-2.617514175162518
 30
0.0
 10
1.758647555452171
 20
-2.611695490266684
 30
0.0
 10
1.754619235139671
 20
-2.607083945127795
 30
0.0
 10
1.752299899202171
 20
-2.601265260231962
 30
0.0
 10
1.751648857535504
 20
-2.594035985058351
 30
0.0
 10
1.751648857535504
 20
-2.594035985058351
 30
0.0
 10
1.865838853195226
 20
-2.594035985058351
 30
0.0
 10
1.865838853195226
 20
-2.594035985058351
 30
0.0
 10
1.865838853195226
 20
-2.594035985058351
 30
0.0
 10
1.869419582361893
 20
-2.566475221169462
 30
0.0
 10
1.869419582361893
 20
-2.566475221169462
 30
0.0
 10
1.872606973854948
 20
-2.538276978981962
 30
0.0
 10
1.867425767257726
 20
-2.514500394780573
 30
0.0
 10
1.853998032882726
 20
-2.495782946863907
 30
0.0
  0
ENDBLK
  5
AD
330
AA
100
AcDbEntity
  8
0
100
AcDbBlockEnd
  0
ENDSEC
  0
SECTION
  2
ENTITIES
  0
INSERT
  5
85
330
70
100
AcDbEntity
  8
Inner Circle
100
AcDbBlockReference
  2
Block_0
 10
0.0
 20
0.0
 30
0.0
  0
INSERT
  5
A5
330
70
100
AcDbEntity
  8
Inner Circle
100
AcDbBlockReference
  2
Block_2
 10
0.0
 20
0.0
 30
0.0
  0
ENDSEC
  0
SECTION
  2
OBJECTS
  0
DICTIONARY
  5
C
330
0
100
AcDbDictionary
281
     1
  3
ACAD_COLOR
350
63
  3
ACAD_DETAILVIEWSTYLE
350
6A
  3
ACAD_GROUP
350
D
  3
ACAD_LAYOUT
350
62
  3
ACAD_MATERIAL
350
10
  3
ACAD_MLEADERSTYLE
350
66
  3
ACAD_MLINESTYLE
350
5F
  3
ACAD_PLOTSETTINGS
350
61
  3
ACAD_PLOTSTYLENAME
350
E
  3
ACAD_SCALELIST
350
42
  3
ACAD_SECTIONVIEWSTYLE
350
68
  3
ACAD_TABLESTYLE
350
64
  3
ACAD_VISUALSTYLE
350
29
  3
ACDB_RECOMPOSE_DATA
350
C4
  3
AcDbVariableDictionary
350
BC
  0
DICTIONARY
  5
63
102
{ACAD_REACTORS
330
C
102
}
330
C
100
AcDbDictionary
281
     1
  0
DICTIONARY
  5
6A
102
{ACAD_REACTORS
330
C
102
}
330
C
100
AcDbDictionary
281
     1
  3
Imperial24
350
6B
  0
DICTIONARY
  5
D
102
{ACAD_REACTORS
330
C
102
}
330
C
100
AcDbDictionary
281
     1
  0
DICTIONARY
  5
62
102
{ACAD_REACTORS
330
C
102
}
330
C
100
AcDbDictionary
281
     1
  3
Layout1
350
6F
  3
Layout2
350
77
  3
Model
350
73
  0
DICTIONARY
  5
10
102
{ACAD_REACTORS
330
C
102
}
330
C
100
AcDbDictionary
281
     1
  3
ByBlock
350
19
  3
ByLayer
350
11
  3
Global
350
21
  0
DICTIONARY
  5
66
102
{ACAD_REACTORS
330
C
102
}
330
C
100
AcDbDictionary
281
     1
  3
Standard
350
67
  0
DICTIONARY
  5
5F
102
{ACAD_REACTORS
330
C
102
}
330
C
100
AcDbDictionary
281
     1
  3
Standard
350
60
  0
DICTIONARY
  5
61
102
{ACAD_REACTORS
330
C
102
}
330
C
100
AcDbDictionary
281
     1
  0
ACDBDICTIONARYWDFLT
  5
E
102
{ACAD_REACTORS
330
C
102
}
330
C
100
AcDbDictionary
281
     1
  3
Normal
350
F
100
AcDbDictionaryWithDefault
340
F
  0
DICTIONARY
  5
42
102
{ACAD_REACTORS
330
C
102
}
330
C
100
AcDbDictionary
281
     1
  3
A0
350
43
  3
A1
350
44
  3
A2
350
45
  3
A3
350
46
  3
A4
350
47
  3
A5
350
48
  3
A6
350
49
  3
A7
350
4A
  3
A8
350
4B
  3
A9
350
4C
  3
B0
350
4D
  3
B1
350
4E
  3
B2
350
4F
  3
B3
350
50
  3
B4
350
51
  3
B5
350
52
  3
B6
350
53
  0
DICTIONARY
  5
68
102
{ACAD_REACTORS
330
C
102
}
330
C
100
AcDbDictionary
281
     1
  3
Imperial24
350
69
  0
DICTIONARY
  5
64
102
{ACAD_REACTORS
330
C
102
}
330
C
100
AcDbDictionary
281
     1
  3
Standard
350
65
  0
DICTIONARY
  5
29
102
{ACAD_REACTORS
330
C
102
}
330
C
100
AcDbDictionary
281
     1
  3
2dWireframe
350
2F
  3
Basic
350
2E
  3
Brighten
350
35
  3
ColorChange
350
39
  3
Conceptual
350
32
  3
Dim
350
34
  3
EdgeColorOff
350
41
  3
Facepattern
350
38
  3
Flat
350
2A
  3
FlatWithEdges
350
2B
  3
Gouraud
350
2C
  3
GouraudWithEdges
350
2D
  3
Hidden
350
31
  3
JitterOff
350
3F
  3
Linepattern
350
37
  3
OverhangOff
350
40
  3
Realistic
350
33
  3
Shaded
350
3E
  3
Shaded with edges
350
3D
  3
Shades of Gray
350
3A
  3
Sketchy
350
3B
  3
Thicken
350
36
  3
Wireframe
350
30
  3
X-Ray
350
3C
  0
XRECORD
  5
C4
102
{ACAD_REACTORS
330
C
102
}
330
C
100
AcDbXrecord
280
     1
 90
        1
330
65
  0
DICTIONARY
  5
BC
102
{ACAD_REACTORS
330
C
102
}
330
C
100
AcDbDictionary
281
     1
  3
CANNOSCALE
350
C1
  3
CMLEADERSTYLE
350
BE
  3
CTABLESTYLE
350
BD
  3
CVIEWDETAILSTYLE
350
BF
  3
CVIEWSECTIONSTYLE
350
C0
  0
ACDBDETAILVIEWSTYLE
  5
6B
102
{ACAD_REACTORS
330
6A
102
}
330
6A
100
AcDbModelDocViewStyle
 70
     0
  3
Imperial24
290
     1
300
Imperial24
 90
        0
100
AcDbDetailViewStyle
 70
     0
 71
     0
 90
        3
 71
     1
340
55
 62
   256
 40
0.24
340
0
 62
   256
 40
0.24
300

 40
0.36
280
     3
 71
     2
340
5D
 90
       25
 62
   256
 71
     3
340
55
 62
   256
 40
0.24
 90
        1
 40
0.75
 90
        1
300
%<\AcVar ViewType \f "%tc1">% %<\AcVar ViewDetailId>%\PSCALE %<\AcVar ViewScale \f "%sn">%
 71
     4
340
5D
 90
       25
 62
   256
340
5D
 90
       25
 62
   256
280
     0
  0
LAYOUT
  5
6F
102
{ACAD_REACTORS
330
62
102
}
330
62
100
AcDbPlotSettings
  1

  2

  4

  6

 40
0.0
 41
0.0
 42
0.0
 43
0.0
 44
0.0
 45
0.0
 46
0.0
 47
0.0
 48
0.0
 49
0.0
140
0.0
141
0.0
142
1.0
143
1.0
 70
   688
 72
     0
 73
     0
 74
     5
  7

 75
    16
147
1.0
 76
     0
 77
     2
 78
   300
148
0.0
149
0.0
100
AcDbLayout
  1
Layout1
 70
     1
 71
     1
 10
0.0
 20
0.0
 11
12.0
 21
9.0
 12
0.0
 22
0.0
 32
0.0
 14
0.0
 24
0.0
 34
0.0
 15
0.0
 25
0.0
 35
0.0
146
0.0
 13
0.0
 23
0.0
 33
0.0
 16
1.0
 26
0.0
 36
0.0
 17
0.0
 27
1.0
 37
0.0
 76
     0
330
6C
  0
LAYOUT
  5
77
102
{ACAD_REACTORS
330
62
102
}
330
62
100
AcDbPlotSettings
  1

  2

  4

  6

 40
0.0
 41
0.0
 42
0.0
 43
0.0
 44
0.0
 45
0.0
 46
0.0
 47
0.0
 48
0.0
 49
0.0
140
0.0
141
0.0
142
1.0
143
1.0
 70
   688
 72
     0
 73
     0
 74
     5
  7

 75
    16
147
1.0
 76
     0
 77
     2
 78
   300
148
0.0
149
0.0
100
AcDbLayout
  1
Layout2
 70
     1
 71
     2
 10
0.0
 20
0.0
 11
12.0
 21
9.0
 12
0.0
 22
0.0
 32
0.0
 14
0.0
 24
0.0
 34
0.0
 15
0.0
 25
0.0
 35
0.0
146
0.0
 13
0.0
 23
0.0
 33
0.0
 16
1.0
 26
0.0
 36
0.0
 17
0.0
 27
1.0
 37
0.0
 76
     0
330
74
  0
LAYOUT
  5
73
102
{ACAD_REACTORS
330
62
102
}
330
62
100
AcDbPlotSettings
  1

  2

  4

  6

 40
0.0
 41
0.0
 42
0.0
 43
0.0
 44
0.0
 45
0.0
 46
0.0
 47
0.0
 48
0.0
 49
0.0
140
0.0
141
0.0
142
1.0
143
1.0
 70
  1712
 72
     0
 73
     0
 74
     0
  7

 75
     0
147
1.0
 76
     0
 77
     2
 78
   300
148
0.0
149
0.0
100
AcDbLayout
  1
Model
 70
     1
 71
     0
 10
0.0
 20
0.0
 11
12.0
 21
9.0
 12
0.0
 22
0.0
 32
0.0
 14
0.0
 24
0.0
 34
0.0
 15
0.0
 25
0.0
 35
0.0
146
0.0
 13
0.0
 23
0.0
 33
0.0
 16
1.0
 26
0.0
 36
0.0
 17
0.0
 27
1.0
 37
0.0
 76
     0
330
70
  0
MATERIAL
  5
19
102
{ACAD_XDICTIONARY
360
1A
102
}
102
{ACAD_REACTORS
330
10
102
}
330
10
100
AcDbMaterial
  1
ByBlock
 72
     0
 43
0.0208333333333333
 43
0.0
 43
0.0
 43
0.0
 43
0.0
 43
0.0208333333333333
 43
0.0
 43
0.0
 43
0.0
 43
0.0
 43
1.0
 43
0.0
 43
0.0
 43
0.0
 43
0.0
 43
1.0
 77
     0
 47
0.0208333333333333
 47
0.0
 47
0.0
 47
0.0
 47
0.0
 47
0.0208333333333333
 47
0.0
 47
0.0
 47
0.0
 47
0.0
 47
1.0
 47
0.0
 47
0.0
 47
0.0
 47
0.0
 47
1.0
171
     0
 49
0.0208333333333333
 49
0.0
 49
0.0
 49
0.0
 49
0.0
 49
0.0208333333333333
 49
0.0
 49
0.0
 49
0.0
 49
0.0
 49
1.0
 49
0.0
 49
0.0
 49
0.0
 49
0.0
 49
1.0
175
     0
142
0.0208333333333333
142
0.0
142
0.0
142
0.0
142
0.0
142
0.0208333333333333
142
0.0
142
0.0
142
0.0
142
0.0
142
1.0
142
0.0
142
0.0
142
0.0
142
0.0
142
1.0
179
     0
144
0.0208333333333333
144
0.0
144
0.0
144
0.0
144
0.0
144
0.0208333333333333
144
0.0
144
0.0
144
0.0
144
0.0
144
1.0
144
0.0
144
0.0
144
0.0
144
0.0
144
1.0
147
0.0208333333333333
147
0.0
147
0.0
147
0.0
147
0.0
147
0.0208333333333333
147
0.0
147
0.0
147
0.0
147
0.0
147
1.0
147
0.0
147
0.0
147
0.0
147
0.0
147
1.0
  0
MATERIAL
  5
11
102
{ACAD_XDICTIONARY
360
12
102
}
102
{ACAD_REACTORS
330
10
102
}
330
10
100
AcDbMaterial
  1
ByLayer
 72
     0
 43
0.0208333333333333
 43
0.0
 43
0.0
 43
0.0
 43
0.0
 43
0.0208333333333333
 43
0.0
 43
0.0
 43
0.0
 43
0.0
 43
1.0
 43
0.0
 43
0.0
 43
0.0
 43
0.0
 43
1.0
 77
     0
 47
0.0208333333333333
 47
0.0
 47
0.0
 47
0.0
 47
0.0
 47
0.0208333333333333
 47
0.0
 47
0.0
 47
0.0
 47
0.0
 47
1.0
 47
0.0
 47
0.0
 47
0.0
 47
0.0
 47
1.0
171
     0
 49
0.0208333333333333
 49
0.0
 49
0.0
 49
0.0
 49
0.0
 49
0.0208333333333333
 49
0.0
 49
0.0
 49
0.0
 49
0.0
 49
1.0
 49
0.0
 49
0.0
 49
0.0
 49
0.0
 49
1.0
175
     0
142
0.0208333333333333
142
0.0
142
0.0
142
0.0
142
0.0
142
0.0208333333333333
142
0.0
142
0.0
142
0.0
142
0.0
142
1.0
142
0.0
142
0.0
142
0.0
142
0.0
142
1.0
179
     0
144
0.0208333333333333
144
0.0
144
0.0
144
0.0
144
0.0
144
0.0208333333333333
144
0.0
144
0.0
144
0.0
144
0.0
144
1.0
144
0.0
144
0.0
144
0.0
144
0.0
144
1.0
147
0.0208333333333333
147
0.0
147
0.0
147
0.0
147
0.0
147
0.0208333333333333
147
0.0
147
0.0
147
0.0
147
0.0
147
1.0
147
0.0
147
0.0
147
0.0
147
0.0
147
1.0
  0
MATERIAL
  5
21
102
{ACAD_XDICTIONARY
360
22
102
}
102
{ACAD_REACTORS
330
10
102
}
330
10
100
AcDbMaterial
  1
Global
 72
     0
 43
0.0208333333333333
 43
0.0
 43
0.0
 43
0.0
 43
0.0
 43
0.0208333333333333
 43
0.0
 43
0.0
 43
0.0
 43
0.0
 43
1.0
 43
0.0
 43
0.0
 43
0.0
 43
0.0
 43
1.0
 77
     0
 47
0.0208333333333333
 47
0.0
 47
0.0
 47
0.0
 47
0.0
 47
0.0208333333333333
 47
0.0
 47
0.0
 47
0.0
 47
0.0
 47
1.0
 47
0.0
 47
0.0
 47
0.0
 47
0.0
 47
1.0
171
     0
 49
0.0208333333333333
 49
0.0
 49
0.0
 49
0.0
 49
0.0
 49
0.0208333333333333
 49
0.0
 49
0.0
 49
0.0
 49
0.0
 49
1.0
 49
0.0
 49
0.0
 49
0.0
 49
0.0
 49
1.0
175
     0
142
0.0208333333333333
142
0.0
142
0.0
142
0.0
142
0.0
142
0.0208333333333333
142
0.0
142
0.0
142
0.0
142
0.0
142
1.0
142
0.0
142
0.0
142
0.0
142
0.0
142
1.0
179
     0
144
0.0208333333333333
144
0.0
144
0.0
144
0.0
144
0.0
144
0.0208333333333333
144
0.0
144
0.0
144
0.0
144
0.0
144
1.0
144
0.0
144
0.0
144
0.0
144
0.0
144
1.0
147
0.0208333333333333
147
0.0
147
0.0
147
0.0
147
0.0
147
0.0208333333333333
147
0.0
147
0.0
147
0.0
147
0.0
147
1.0
147
0.0
147
0.0
147
0.0
147
0.0
147
1.0
  0
MLEADERSTYLE
  5
67
102
{ACAD_REACTORS
330
66
102
}
330
66
100
AcDbMLeaderStyle
179
     2
170
     2
171
     1
172
     0
 90
        2
 40
0.0
 41
0.0
173
     1
 91
-1056964608
340
5B
 92
       -2
290
     1
 42
0.09
291
     1
 43
0.36
  3
Standard
 44
0.18
300

342
55
174
     1
178
     6
175
     1
176
     0
 93
-1056964608
 45
0.18
292
     0
297
     0
 46
0.18
 94
-1056964608
 47
1.0
 49
1.0
140
1.0
293
     1
141
0.0
294
     1
177
     0
142
1.0
295
     1
296
     0
143
0.125
271
     0
272
     9
273
     9
298
     1
  0
MLINESTYLE
  5
60
102
{ACAD_REACTORS
330
5F
102
}
330
5F
100
AcDbMlineStyle
  2
STANDARD
 70
     0
  3

 62
   256
 51
90.0
 52
90.0
 71
     2
 49
0.5
 62
   256
  6
BYLAYER
 49
-0.5
 62
   256
  6
BYLAYER
  0
ACDBPLACEHOLDER
  5
F
102
{ACAD_REACTORS
330
E
102
}
330
E
  0
SCALE
  5
43
102
{ACAD_REACTORS
330
42
102
}
330
42
100
AcDbScale
 70
     0
300
1:1
140
1.0
141
1.0
290
     1
  0
SCALE
  5
44
102
{ACAD_REACTORS
330
42
102
}
330
42
100
AcDbScale
 70
     0
300
1/128" = 1'-0"
140
0.0078125
141
12.0
290
     0
  0
SCALE
  5
45
102
{ACAD_REACTORS
330
42
102
}
330
42
100
AcDbScale
 70
     0
300
1/64" = 1'-0"
140
0.015625
141
12.0
290
     0
  0
SCALE
  5
46
102
{ACAD_REACTORS
330
42
102
}
330
42
100
AcDbScale
 70
     0
300
1/32" = 1'-0"
140
0.03125
141
12.0
290
     0
  0
SCALE
  5
47
102
{ACAD_REACTORS
330
42
102
}
330
42
100
AcDbScale
 70
     0
300
1/16" = 1'-0"
140
0.0625
141
12.0
290
     0
  0
SCALE
  5
48
102
{ACAD_REACTORS
330
42
102
}
330
42
100
AcDbScale
 70
     0
300
3/32" = 1'-0"
140
0.09375
141
12.0
290
     0
  0
SCALE
  5
49
102
{ACAD_REACTORS
330
42
102
}
330
42
100
AcDbScale
 70
     0
300
1/8" = 1'-0"
140
0.125
141
12.0
290
     0
  0
SCALE
  5
4A
102
{ACAD_REACTORS
330
42
102
}
330
42
100
AcDbScale
 70
     0
300
3/16" = 1'-0"
140
0.1875
141
12.0
290
     0
  0
SCALE
  5
4B
102
{ACAD_REACTORS
330
42
102
}
330
42
100
AcDbScale
 70
     0
300
1/4" = 1'-0"
140
0.25
141
12.0
290
     0
  0
SCALE
  5
4C
102
{ACAD_REACTORS
330
42
102
}
330
42
100
AcDbScale
 70
     0
300
3/8" = 1'-0"
140
0.375
141
12.0
290
     0
  0
SCALE
  5
4D
102
{ACAD_REACTORS
330
42
102
}
330
42
100
AcDbScale
 70
     0
300
1/2" = 1'-0"
140
0.5
141
12.0
290
     0
  0
SCALE
  5
4E
102
{ACAD_REACTORS
330
42
102
}
330
42
100
AcDbScale
 70
     0
300
3/4" = 1'-0"
140
0.75
141
12.0
290
     0
  0
SCALE
  5
4F
102
{ACAD_REACTORS
330
42
102
}
330
42
100
AcDbScale
 70
     0
300
1" = 1'-0"
140
1.0
141
12.0
290
     0
  0
SCALE
  5
50
102
{ACAD_REACTORS
330
42
102
}
330
42
100
AcDbScale
 70
     0
300
1-1/2" = 1'-0"
140
1.5
141
12.0
290
     0
  0
SCALE
  5
51
102
{ACAD_REACTORS
330
42
102
}
330
42
100
AcDbScale
 70
     0
300
3" = 1'-0"
140
3.0
141
12.0
290
     0
  0
SCALE
  5
52
102
{ACAD_REACTORS
330
42
102
}
330
42
100
AcDbScale
 70
     0
300
6" = 1'-0"
140
6.0
141
12.0
290
     0
  0
SCALE
  5
53
102
{ACAD_REACTORS
330
42
102
}
330
42
100
AcDbScale
 70
     0
300
1'-0" = 1'-0"
140
12.0
141
12.0
290
     0
  0
ACDBSECTIONVIEWSTYLE
  5
69
102
{ACAD_REACTORS
330
68
102
}
330
68
100
AcDbModelDocViewStyle
 70
     0
  3
Imperial24
290
     1
300
Imperial24
 90
        0
100
AcDbSectionViewStyle
 70
     0
 71
     0
 90
       78
 71
     1
340
55
 62
   256
 40
0.24
340
0
340
0
 62
   256
 40
0.24
300
I, O, Q, S, X, Z
 40
0.48
 90
        3
 40
0.18
 90
        1
 71
     2
340
5D
 90
       25
 62
   256
340
5D
 90
       50
 62
   256
 40
0.24
 40
0.0
 40
0.24
 71
     3
340
55
 62
   256
 40
0.24
 90
        1
 40
0.75
 90
        1
300
%<\AcVar ViewType \f "%tc1">% %<\AcVar ViewSectionStartId>%-%<\AcVar ViewSectionEndId>%\PSCALE %<\AcVar ViewScale \f "%sn">%
 71
     4
 62
   256
 62
   257
300
ANSI31
 40
1.0
 90
        0
290
     0
290
     0
 90
        6
 40
0.0
 40
1.570796326794896
 40
0.2617993877991494
 40
1.308996938995747
 40
-0.2617993877991494
 40
1.832595714594046
  0
TABLESTYLE
  5
65
102
{ACAD_XDICTIONARY
360
C2
102
}
102
{ACAD_REACTORS
330
64
102
}
330
64
100
AcDbTableStyle
280
     0
  3
Standard
 70
     0
 71
     0
 40
0.06
 41
0.06
280
     0
281
     0
  7
Standard
140
0.18
170
     2
 62
     0
 63
     7
283
     0
 90
      512
 91
        0
  1

274
    -2
284
     1
 64
     0
275
    -2
285
     1
 65
     0
276
    -2
286
     1
 66
     0
277
    -2
287
     1
 67
     0
278
    -2
288
     1
 68
     0
279
    -2
289
     1
 69
     0
  7
Standard
140
0.25
170
     5
 62
     0
 63
     7
283
     0
 90
      512
 91
        0
  1

274
    -2
284
     1
 64
     0
275
    -2
285
     1
 65
     0
276
    -2
286
     1
 66
     0
277
    -2
287
     1
 67
     0
278
    -2
288
     1
 68
     0
279
    -2
289
     1
 69
     0
  7
Standard
140
0.18
170
     5
 62
     0
 63
     7
283
     0
 90
      512
 91
        0
  1

274
    -2
284
     1
 64
     0
275
    -2
285
     1
 65
     0
276
    -2
286
     1
 66
     0
277
    -2
287
     1
 67
     0
278
    -2
288
     1
 68
     0
279
    -2
289
     1
 69
     0
  0
VISUALSTYLE
  5
2F
102
{ACAD_REACTORS
330
29
102
}
330
29
100
AcDbVisualStyle
  2
2dWireframe
 70
     4
177
     3
291
     0
 70
    58
 90
        0
176
     1
 90
        2
176
     1
 90
        0
176
     1
 90
        0
176
     1
 40
0.6
176
     1
 40
30.0
176
     1
 62
     7
420
 16777215
176
     1
 90
        1
176
     1
 90
        4
176
     1
 62
     7
176
     1
 62
   257
176
     1
 90
        1
176
     1
 90
        1
176
     1
 40
1.0
176
     1
 90
        0
176
     1
 62
   257
176
     1
 40
1.0
176
     1
 90
        1
176
     1
 90
        6
176
     1
 90
        2
176
     1
 62
     7
176
     1
 90
        5
176
     1
 90
        0
176
     1
 90
        0
176
     1
290
     0
176
     1
 90
        1
176
     1
 40
0.0
176
     1
 90
        0
176
     1
290
     1
176
     1
290
     1
176
     1
290
     0
176
     1
290
     0
176
     1
290
     0
176
     1
290
     0
176
     1
290
     0
176
     1
290
     0
176
     1
290
     0
176
     1
 90
       50
176
     1
 40
0.0
176
     1
 40
1.0
176
     1
 90
        0
176
     1
 62
    18
420
        0
176
     1
 90
       50
176
     1
 90
        3
176
     1
 62
     5
420
      255
176
     1
290
     0
176
     1
 90
       50
176
     1
 90
       50
176
     1
 90
       50
176
     1
290
     0
176
     1
 90
       50
176
     1
 62
   256
176
     0
 40
1.0
176
     0
 90
        2
176
     1
  1
strokes_ogs.tif
176
     1
290
     0
176
     1
 40
1.0
176
     1
 40
1.0
176
     1
  0
VISUALSTYLE
  5
2E
102
{ACAD_REACTORS
330
29
102
}
330
29
100
AcDbVisualStyle
  2
Basic
 70
     7
177
     3
291
     1
 70
    58
 90
        1
176
     1
 90
        0
176
     1
 90
        1
176
     1
 90
        0
176
     1
 40
0.6
176
     1
 40
30.0
176
     1
 62
     7
420
 16777215
176
     1
 90
        0
176
     1
 90
        4
176
     1
 62
     7
176
     1
 62
   257
176
     1
 90
        1
176
     1
 90
        1
176
     1
 40
1.0
176
     1
 90
        8
176
     1
 62
     7
176
     1
 40
1.0
176
     1
 90
        1
176
     1
 90
        6
176
     1
 90
        2
176
     1
 62
     7
176
     1
 90
        5
176
     1
 90
        0
176
     1
 90
        0
176
     1
290
     0
176
     1
 90
        1
176
     1
 40
0.0
176
     1
 90
        0
176
     1
290
     0
176
     1
290
     1
176
     1
290
     1
176
     1
290
     0
176
     1
290
     0
176
     1
290
     0
176
     1
290
     0
176
     1
290
     0
176
     1
290
     0
176
     1
 90
       50
176
     1
 40
0.0
176
     1
 40
1.0
176
     1
 90
        0
176
     1
 62
    18
420
        0
176
     1
 90
       50
176
     1
 90
        3
176
     1
 62
     5
420
      255
176
     1
290
     0
176
     1
 90
       50
176
     1
 90
       50
176
     1
 90
       50
176
     1
290
     0
176
     1
 90
       50
176
     1
 62
   256
176
     0
 40
1.0
176
     0
 90
        2
176
     1
  1
strokes_ogs.tif
176
     1
290
     0
176
     1
 40
1.0
176
     1
 40
1.0
176
     1
  0
VISUALSTYLE
  5
35
102
{ACAD_REACTORS
330
29
102
}
330
29
100
AcDbVisualStyle
  2
Brighten
 70
    12
177
     3
291
     1
 70
    58
 90
        2
176
     1
 90
        2
176
     1
 90
        0
176
     1
 90
        0
176
     1
 40
0.6
176
     1
 40
30.0
176
     1
 62
     7
420
 16777215
176
     1
 90
        1
176
     1
 90
        4
176
     1
 62
     7
176
     1
 62
   257
176
     1
 90
        1
176
     1
 90
        1
176
     1
 40
1.0
176
     1
 90
        8
176
     1
 62
     7
176
     1
 40
1.0
176
     1
 90
        1
176
     1
 90
        6
176
     1
 90
        2
176
     1
 62
     7
176
     1
 90
        5
176
     1
 90
        0
176
     1
 90
        0
176
     1
290
     0
176
     1
 90
        1
176
     1
 40
50.0
176
     1
 90
        0
176
     1
290
     0
176
     1
290
     1
176
     1
290
     1
176
     1
290
     0
176
     1
290
     0
176
     1
290
     0
176
     1
290
     0
176
     1
290
     0
176
     1
290
     0
176
     1
 90
       50
176
     1
 40
0.0
176
     1
 40
1.0
176
     1
 90
        0
176
     1
 62
    18
420
        0
176
     1
 90
       50
176
     1
 90
        3
176
     1
 62
     5
420
      255
176
     1
290
     0
176
     1
 90
       50
176
     1
 90
       50
176
     1
 90
       50
176
     1
290
     0
176
     1
 90
       50
176
     1
 62
   256
176
     0
 40
1.0
176
     0
 90
        2
176
     1
  1
strokes_ogs.tif
176
     1
290
     0
176
     1
 40
1.0
176
     1
 40
1.0
176
     1
  0
VISUALSTYLE
  5
39
102
{ACAD_REACTORS
330
29
102
}
330
29
100
AcDbVisualStyle
  2
ColorChange
 70
    16
177
     3
291
     1
 70
    58
 90
        2
176
     1
 90
        2
176
     1
 90
        3
176
     1
 90
        0
176
     1
 40
0.6
176
     1
 40
30.0
176
     1
 62
     8
420
  8421504
176
     1
 90
        1
176
     1
 90
        4
176
     1
 62
     7
176
     1
 62
   257
176
     1
 90
        1
176
     1
 90
        1
176
     1
 40
1.0
176
     1
 90
        8
176
     1
 62
     8
420
  8421504
176
     1
 40
1.0
176
     1
 90
        1
176
     1
 90
        6
176
     1
 90
        2
176
     1
 62
     7
176
     1
 90
        5
176
     1
 90
        0
176
     1
 90
        0
176
     1
290
     0
176
     1
 90
        1
176
     1
 40
0.0
176
     1
 90
        0
176
     1
290
     0
176
     1
290
     1
176
     1
290
     1
176
     1
290
     0
176
     1
290
     0
176
     1
290
     0
176
     1
290
     0
176
     1
290
     0
176
     1
290
     0
176
     1
 90
       50
176
     1
 40
0.0
176
     1
 40
1.0
176
     1
 90
        0
176
     1
 62
    18
420
        0
176
     1
 90
       50
176
     1
 90
        3
176
     1
 62
     5
420
      255
176
     1
290
     0
176
     1
 90
       50
176
     1
 90
       50
176
     1
 90
       50
176
     1
290
     0
176
     1
 90
       50
176
     1
 62
   256
176
     0
 40
1.0
176
     0
 90
        2
176
     1
  1
strokes_ogs.tif
176
     1
290
     0
176
     1
 40
1.0
176
     1
 40
1.0
176
     1
  0
VISUALSTYLE
  5
32
102
{ACAD_REACTORS
330
29
102
}
330
29
100
AcDbVisualStyle
  2
Conceptual
 70
     9
177
     3
291
     0
 70
    58
 90
        3
176
     1
 90
        2
176
     1
 90
        0
176
     1
 90
        0
176
     1
 40
0.6
176
     1
 40
30.0
176
     1
 62
     7
420
 16777215
176
     1
 90
        2
176
     1
 90
        2
176
     1
 62
     7
176
     1
 62
   257
176
     1
 90
        1
176
     1
 90
        1
176
     1
 40
179.0
176
     1
 90
        8
176
     1
 62
     7
176
     1
 40
1.0
176
     1
 90
        1
176
     1
 90
        6
176
     1
 90
        2
176
     1
 62
     7
176
     1
 90
        3
176
     1
 90
        0
176
     1
 90
        0
176
     1
290
     0
176
     1
 90
        1
176
     1
 40
0.0
176
     1
 90
        0
176
     1
290
     0
176
     1
290
     1
176
     1
290
     1
176
     1
290
     0
176
     1
290
     0
176
     1
290
     0
176
     1
290
     0
176
     1
290
     0
176
     1
290
     0
176
     1
 90
       50
176
     1
 40
0.0
176
     1
 40
1.0
176
     1
 90
        0
176
     1
 62
    18
420
        0
176
     1
 90
       50
176
     1
 90
        3
176
     1
 62
     5
420
      255
176
     1
290
     0
176
     1
 90
       50
176
     1
 90
       50
176
     1
 90
       50
176
     1
290
     0
176
     1
 90
       50
176
     1
 62
   256
176
     0
 40
1.0
176
     0
 90
        2
176
     1
  1
strokes_ogs.tif
176
     1
290
     0
176
     1
 40
1.0
176
     1
 40
1.0
176
     1
  0
VISUALSTYLE
  5
34
102
{ACAD_REACTORS
330
29
102
}
330
29
100
AcDbVisualStyle
  2
Dim
 70
    11
177
     3
291
     1
 70
    58
 90
        2
176
     1
 90
        2
176
     1
 90
        0
176
     1
 90
        0
176
     1
 40
0.6
176
     1
 40
30.0
176
     1
 62
     7
420
 16777215
176
     1
 90
        1
176
     1
 90
        4
176
     1
 62
     7
176
     1
 62
   257
176
     1
 90
        1
176
     1
 90
        1
176
     1
 40
1.0
176
     1
 90
        8
176
     1
 62
     7
176
     1
 40
1.0
176
     1
 90
        1
176
     1
 90
        6
176
     1
 90
        2
176
     1
 62
     7
176
     1
 90
        5
176
     1
 90
        0
176
     1
 90
        0
176
     1
290
     0
176
     1
 90
        1
176
     1
 40
-50.0
176
     1
 90
        0
176
     1
290
     0
176
     1
290
     1
176
     1
290
     1
176
     1
290
     0
176
     1
290
     0
176
     1
290
     0
176
     1
290
     0
176
     1
290
     0
176
     1
290
     0
176
     1
 90
       50
176
     1
 40
0.0
176
     1
 40
1.0
176
     1
 90
        0
176
     1
 62
    18
420
        0
176
     1
 90
       50
176
     1
 90
        3
176
     1
 62
     5
420
      255
176
     1
290
     0
176
     1
 90
       50
176
     1
 90
       50
176
     1
 90
       50
176
     1
290
     0
176
     1
 90
       50
176
     1
 62
   256
176
     0
 40
1.0
176
     0
 90
        2
176
     1
  1
strokes_ogs.tif
176
     1
290
     0
176
     1
 40
1.0
176
     1
 40
1.0
176
     1
  0
VISUALSTYLE
  5
41
102
{ACAD_REACTORS
330
29
102
}
330
29
100
AcDbVisualStyle
  2
EdgeColorOff
 70
    22
177
     3
291
     1
 70
    58
 90
        2
176
     0
 90
        2
176
     0
 90
        0
176
     0
 90
        0
176
     0
 40
0.6
176
     0
 40
30.0
176
     0
 62
     7
420
 16777215
176
     0
 90
        1
176
     0
 90
        4
176
     0
 62
     7
176
     0
 62
   257
176
     0
 90
        1
176
     0
 90
        1
176
     0
 40
1.0
176
     0
 90
        8
176
     2
 62
     7
176
     0
 40
1.0
176
     0
 90
        1
176
     0
 90
        6
176
     0
 90
        2
176
     0
 62
     7
176
     0
 90
        5
176
     0
 90
        0
176
     0
 90
        0
176
     0
290
     0
176
     0
 90
        1
176
     0
 40
0.0
176
     0
 90
        0
176
     0
290
     0
176
     0
290
     1
176
     0
290
     1
176
     0
290
     0
176
     0
290
     0
176
     0
290
     0
176
     0
290
     0
176
     0
290
     0
176
     0
290
     0
176
     0
 90
       50
176
     0
 40
0.0
176
     0
 40
1.0
176
     0
 90
        0
176
     0
 62
    18
420
        0
176
     0
 90
       50
176
     0
 90
        3
176
     0
 62
     5
420
      255
176
     0
290
     0
176
     0
 90
       50
176
     0
 90
       50
176
     0
 90
       50
176
     0
290
     0
176
     0
 90
       50
176
     0
 62
   256
176
     0
 40
1.0
176
     0
 90
        2
176
     0
  1
strokes_ogs.tif
176
     0
290
     0
176
     0
 40
1.0
176
     0
 40
1.0
176
     0
  0
VISUALSTYLE
  5
38
102
{ACAD_REACTORS
330
29
102
}
330
29
100
AcDbVisualStyle
  2
Facepattern
 70
    15
177
     3
291
     1
 70
    58
 90
        2
176
     1
 90
        2
176
     1
 90
        0
176
     1
 90
        0
176
     1
 40
0.6
176
     1
 40
30.0
176
     1
 62
     7
420
 16777215
176
     1
 90
        1
176
     1
 90
        4
176
     1
 62
     7
176
     1
 62
   257
176
     1
 90
        1
176
     1
 90
        1
176
     1
 40
1.0
176
     1
 90
        8
176
     1
 62
     7
176
     1
 40
1.0
176
     1
 90
        1
176
     1
 90
        6
176
     1
 90
        2
176
     1
 62
     7
176
     1
 90
        5
176
     1
 90
        0
176
     1
 90
        0
176
     1
290
     0
176
     1
 90
        1
176
     1
 40
0.0
176
     1
 90
        0
176
     1
290
     0
176
     1
290
     1
176
     1
290
     1
176
     1
290
     0
176
     1
290
     0
176
     1
290
     0
176
     1
290
     0
176
     1
290
     0
176
     1
290
     0
176
     1
 90
       50
176
     1
 40
0.0
176
     1
 40
1.0
176
     1
 90
        0
176
     1
 62
    18
420
        0
176
     1
 90
       50
176
     1
 90
        3
176
     1
 62
     5
420
      255
176
     1
290
     0
176
     1
 90
       50
176
     1
 90
       50
176
     1
 90
       50
176
     1
290
     0
176
     1
 90
       50
176
     1
 62
   256
176
     0
 40
1.0
176
     0
 90
        2
176
     1
  1
strokes_ogs.tif
176
     1
290
     0
176
     1
 40
1.0
176
     1
 40
1.0
176
     1
  0
VISUALSTYLE
  5
2A
102
{ACAD_REACTORS
330
29
102
}
330
29
100
AcDbVisualStyle
  2
Flat
 70
     0
177
     3
291
     1
 70
    58
 90
        2
176
     1
 90
        1
176
     1
 90
        1
176
     1
 90
        2
176
     1
 40
0.6
176
     1
 40
30.0
176
     1
 62
     7
420
 16777215
176
     1
 90
        0
176
     1
 90
        0
176
     1
 62
     7
176
     1
 62
   257
176
     1
 90
        1
176
     1
 90
        1
176
     1
 40
1.0
176
     1
 90
        8
176
     1
 62
     7
176
     1
 40
1.0
176
     1
 90
        1
176
     1
 90
        6
176
     1
 90
        2
176
     1
 62
     7
176
     1
 90
        5
176
     1
 90
        0
176
     1
 90
        0
176
     1
290
     0
176
     1
 90
       13
176
     1
 40
0.0
176
     1
 90
        0
176
     1
290
     0
176
     1
290
     1
176
     1
290
     1
176
     1
290
     0
176
     1
290
     0
176
     1
290
     0
176
     1
290
     0
176
     1
290
     0
176
     1
290
     0
176
     1
 90
       50
176
     1
 40
0.0
176
     1
 40
1.0
176
     1
 90
        0
176
     1
 62
    18
420
        0
176
     1
 90
       50
176
     1
 90
        3
176
     1
 62
     5
420
      255
176
     1
290
     0
176
     1
 90
       50
176
     1
 90
       50
176
     1
 90
       50
176
     1
290
     0
176
     1
 90
       50
176
     1
 62
   256
176
     0
 40
1.0
176
     0
 90
        2
176
     1
  1
strokes_ogs.tif
176
     1
290
     0
176
     1
 40
1.0
176
     1
 40
1.0
176
     1
  0
VISUALSTYLE
  5
2B
102
{ACAD_REACTORS
330
29
102
}
330
29
100
AcDbVisualStyle
  2
FlatWithEdges
 70
     1
177
     3
291
     1
 70
    58
 90
        2
176
     1
 90
        1
176
     1
 90
        1
176
     1
 90
        2
176
     1
 40
0.6
176
     1
 40
30.0
176
     1
 62
     7
420
 16777215
176
     1
 90
        1
176
     1
 90
        0
176
     1
 62
     7
176
     1
 62
   257
176
     1
 90
        1
176
     1
 90
        1
176
     1
 40
1.0
176
     1
 90
        0
176
     1
 62
   257
176
     1
 40
1.0
176
     1
 90
        1
176
     1
 90
        6
176
     1
 90
        2
176
     1
 62
     7
176
     1
 90
        5
176
     1
 90
        0
176
     1
 90
        0
176
     1
290
     0
176
     1
 90
       13
176
     1
 40
0.0
176
     1
 90
        0
176
     1
290
     0
176
     1
290
     1
176
     1
290
     1
176
     1
290
     0
176
     1
290
     0
176
     1
290
     0
176
     1
290
     0
176
     1
290
     0
176
     1
290
     0
176
     1
 90
       50
176
     1
 40
0.0
176
     1
 40
1.0
176
     1
 90
        0
176
     1
 62
    18
420
        0
176
     1
 90
       50
176
     1
 90
        3
176
     1
 62
     5
420
      255
176
     1
290
     0
176
     1
 90
       50
176
     1
 90
       50
176
     1
 90
       50
176
     1
290
     0
176
     1
 90
       50
176
     1
 62
   256
176
     0
 40
1.0
176
     0
 90
        2
176
     1
  1
strokes_ogs.tif
176
     1
290
     0
176
     1
 40
1.0
176
     1
 40
1.0
176
     1
  0
VISUALSTYLE
  5
2C
102
{ACAD_REACTORS
330
29
102
}
330
29
100
AcDbVisualStyle
  2
Gouraud
 70
     2
177
     3
291
     1
 70
    58
 90
        2
176
     1
 90
        2
176
     1
 90
        1
176
     1
 90
        2
176
     1
 40
0.6
176
     1
 40
30.0
176
     1
 62
     7
420
 16777215
176
     1
 90
        0
176
     1
 90
        0
176
     1
 62
     7
176
     1
 62
   257
176
     1
 90
        1
176
     1
 90
        1
176
     1
 40
1.0
176
     1
 90
        0
176
     1
 62
     7
176
     1
 40
1.0
176
     1
 90
        1
176
     1
 90
        6
176
     1
 90
        2
176
     1
 62
     7
176
     1
 90
        5
176
     1
 90
        0
176
     1
 90
        0
176
     1
290
     0
176
     1
 90
       13
176
     1
 40
0.0
176
     1
 90
        0
176
     1
290
     0
176
     1
290
     1
176
     1
290
     1
176
     1
290
     0
176
     1
290
     0
176
     1
290
     0
176
     1
290
     0
176
     1
290
     0
176
     1
290
     0
176
     1
 90
       50
176
     1
 40
0.0
176
     1
 40
1.0
176
     1
 90
        0
176
     1
 62
    18
420
        0
176
     1
 90
       50
176
     1
 90
        3
176
     1
 62
     5
420
      255
176
     1
290
     0
176
     1
 90
       50
176
     1
 90
       50
176
     1
 90
       50
176
     1
290
     0
176
     1
 90
       50
176
     1
 62
   256
176
     0
 40
1.0
176
     0
 90
        2
176
     1
  1
strokes_ogs.tif
176
     1
290
     0
176
     1
 40
1.0
176
     1
 40
1.0
176
     1
  0
VISUALSTYLE
  5
2D
102
{ACAD_REACTORS
330
29
102
}
330
29
100
AcDbVisualStyle
  2
GouraudWithEdges
 70
     3
177
     3
291
     1
 70
    58
 90
        2
176
     1
 90
        2
176
     1
 90
        1
176
     1
 90
        2
176
     1
 40
0.6
176
     1
 40
30.0
176
     1
 62
     7
420
 16777215
176
     1
 90
        1
176
     1
 90
        0
176
     1
 62
     7
176
     1
 62
   257
176
     1
 90
        1
176
     1
 90
        1
176
     1
 40
1.0
176
     1
 90
        0
176
     1
 62
   257
176
     1
 40
1.0
176
     1
 90
        1
176
     1
 90
        6
176
     1
 90
        2
176
     1
 62
     7
176
     1
 90
        5
176
     1
 90
        0
176
     1
 90
        0
176
     1
290
     0
176
     1
 90
       13
176
     1
 40
0.0
176
     1
 90
        0
176
     1
290
     0
176
     1
290
     1
176
     1
290
     1
176
     1
290
     0
176
     1
290
     0
176
     1
290
     0
176
     1
290
     0
176
     1
290
     0
176
     1
290
     0
176
     1
 90
       50
176
     1
 40
0.0
176
     1
 40
1.0
176
     1
 90
        0
176
     1
 62
    18
420
        0
176
     1
 90
       50
176
     1
 90
        3
176
     1
 62
     5
420
      255
176
     1
290
     0
176
     1
 90
       50
176
     1
 90
       50
176
     1
 90
       50
176
     1
290
     0
176
     1
 90
       50
176
     1
 62
   256
176
     0
 40
1.0
176
     0
 90
        2
176
     1
  1
strokes_ogs.tif
176
     1
290
     0
176
     1
 40
1.0
176
     1
 40
1.0
176
     1
  0
VISUALSTYLE
  5
31
102
{ACAD_REACTORS
330
29
102
}
330
29
100
AcDbVisualStyle
  2
Hidden
 70
     6
177
     3
291
     0
 70
    58
 90
        1
176
     1
 90
        2
176
     1
 90
        2
176
     1
 90
        0
176
     1
 40
0.6
176
     1
 40
30.0
176
     1
 62
     7
420
 16777215
176
     1
 90
        2
176
     1
 90
        2
176
     1
 62
     7
176
     1
 62
   257
176
     1
 90
        2
176
     1
 90
        1
176
     1
 40
40.0
176
     1
 90
        0
176
     1
 62
   257
176
     1
 40
1.0
176
     1
 90
        1
176
     1
 90
        6
176
     1
 90
        2
176
     1
 62
     7
176
     1
 90
        3
176
     1
 90
        0
176
     1
 90
        0
176
     1
290
     0
176
     1
 90
        1
176
     1
 40
0.0
176
     1
 90
        0
176
     1
290
     0
176
     1
290
     1
176
     1
290
     1
176
     1
290
     0
176
     1
290
     0
176
     1
290
     0
176
     1
290
     0
176
     1
290
     0
176
     1
290
     0
176
     1
 90
       50
176
     1
 40
0.0
176
     1
 40
1.0
176
     1
 90
        0
176
     1
 62
    18
420
        0
176
     1
 90
       50
176
     1
 90
        3
176
     1
 62
     5
420
      255
176
     1
290
     0
176
     1
 90
       50
176
     1
 90
       50
176
     1
 90
       50
176
     1
290
     0
176
     1
 90
       50
176
     1
 62
   256
176
     0
 40
1.0
176
     0
 90
        2
176
     1
  1
strokes_ogs.tif
176
     1
290
     0
176
     1
 40
1.0
176
     1
 40
1.0
176
     1
  0
VISUALSTYLE
  5
3F
102
{ACAD_REACTORS
330
29
102
}
330
29
100
AcDbVisualStyle
  2
JitterOff
 70
    20
177
     3
291
     1
 70
    58
 90
        2
176
     0
 90
        2
176
     0
 90
        0
176
     0
 90
        0
176
     0
 40
0.6
176
     0
 40
30.0
176
     0
 62
     7
420
 16777215
176
     0
 90
        1
176
     0
 90
        4
176
     0
 62
     7
176
     0
 62
   257
176
     0
 90
        1
176
     0
 90
        1
176
     0
 40
1.0
176
     0
 90
       10
176
     2
 62
     7
176
     0
 40
1.0
176
     0
 90
        1
176
     0
 90
        6
176
     0
 90
        2
176
     0
 62
     7
176
     0
 90
        5
176
     0
 90
        0
176
     0
 90
        0
176
     0
290
     0
176
     0
 90
        1
176
     0
 40
0.0
176
     0
 90
        0
176
     0
290
     0
176
     0
290
     1
176
     0
290
     1
176
     0
290
     0
176
     0
290
     0
176
     0
290
     0
176
     0
290
     0
176
     0
290
     0
176
     0
290
     0
176
     0
 90
       50
176
     0
 40
0.0
176
     0
 40
1.0
176
     0
 90
        0
176
     0
 62
    18
420
        0
176
     0
 90
       50
176
     0
 90
        3
176
     0
 62
     5
420
      255
176
     0
290
     0
176
     0
 90
       50
176
     0
 90
       50
176
     0
 90
       50
176
     0
290
     0
176
     0
 90
       50
176
     0
 62
   256
176
     0
 40
1.0
176
     0
 90
        2
176
     0
  1
strokes_ogs.tif
176
     0
290
     0
176
     0
 40
1.0
176
     0
 40
1.0
176
     0
  0
VISUALSTYLE
  5
37
102
{ACAD_REACTORS
330
29
102
}
330
29
100
AcDbVisualStyle
  2
Linepattern
 70
    14
177
     3
291
     1
 70
    58
 90
        2
176
     1
 90
        2
176
     1
 90
        0
176
     1
 90
        0
176
     1
 40
0.6
176
     1
 40
30.0
176
     1
 62
     7
420
 16777215
176
     1
 90
        1
176
     1
 90
        4
176
     1
 62
     7
176
     1
 62
   257
176
     1
 90
        7
176
     1
 90
        7
176
     1
 40
1.0
176
     1
 90
        8
176
     1
 62
     7
176
     1
 40
1.0
176
     1
 90
        1
176
     1
 90
        6
176
     1
 90
        2
176
     1
 62
     7
176
     1
 90
        5
176
     1
 90
        0
176
     1
 90
        0
176
     1
290
     0
176
     1
 90
        1
176
     1
 40
0.0
176
     1
 90
        0
176
     1
290
     0
176
     1
290
     1
176
     1
290
     1
176
     1
290
     0
176
     1
290
     0
176
     1
290
     0
176
     1
290
     0
176
     1
290
     0
176
     1
290
     0
176
     1
 90
       50
176
     1
 40
0.0
176
     1
 40
1.0
176
     1
 90
        0
176
     1
 62
    18
420
        0
176
     1
 90
       50
176
     1
 90
        3
176
     1
 62
     5
420
      255
176
     1
290
     0
176
     1
 90
       50
176
     1
 90
       50
176
     1
 90
       50
176
     1
290
     0
176
     1
 90
       50
176
     1
 62
   256
176
     0
 40
1.0
176
     0
 90
        2
176
     1
  1
strokes_ogs.tif
176
     1
290
     0
176
     1
 40
1.0
176
     1
 40
1.0
176
     1
  0
VISUALSTYLE
  5
40
102
{ACAD_REACTORS
330
29
102
}
330
29
100
AcDbVisualStyle
  2
OverhangOff
 70
    21
177
     3
291
     1
 70
    58
 90
        2
176
     0
 90
        2
176
     0
 90
        0
176
     0
 90
        0
176
     0
 40
0.6
176
     0
 40
30.0
176
     0
 62
     7
420
 16777215
176
     0
 90
        1
176
     0
 90
        4
176
     0
 62
     7
176
     0
 62
   257
176
     0
 90
        1
176
     0
 90
        1
176
     0
 40
1.0
176
     0
 90
        9
176
     2
 62
     7
176
     0
 40
1.0
176
     0
 90
        1
176
     0
 90
        6
176
     0
 90
        2
176
     0
 62
     7
176
     0
 90
        5
176
     0
 90
        0
176
     0
 90
        0
176
     0
290
     0
176
     0
 90
        1
176
     0
 40
0.0
176
     0
 90
        0
176
     0
290
     0
176
     0
290
     1
176
     0
290
     1
176
     0
290
     0
176
     0
290
     0
176
     0
290
     0
176
     0
290
     0
176
     0
290
     0
176
     0
290
     0
176
     0
 90
       50
176
     0
 40
0.0
176
     0
 40
1.0
176
     0
 90
        0
176
     0
 62
    18
420
        0
176
     0
 90
       50
176
     0
 90
        3
176
     0
 62
     5
420
      255
176
     0
290
     0
176
     0
 90
       50
176
     0
 90
       50
176
     0
 90
       50
176
     0
290
     0
176
     0
 90
       50
176
     0
 62
   256
176
     0
 40
1.0
176
     0
 90
        2
176
     0
  1
strokes_ogs.tif
176
     0
290
     0
176
     0
 40
1.0
176
     0
 40
1.0
176
     0
  0
VISUALSTYLE
  5
33
102
{ACAD_REACTORS
330
29
102
}
330
29
100
AcDbVisualStyle
  2
Realistic
 70
     8
177
     3
291
     0
 70
    58
 90
        2
176
     1
 90
        3
176
     1
 90
        0
176
     1
 90
        2
176
     1
 40
0.6
176
     1
 40
30.0
176
     1
 62
     7
420
 16777215
176
     1
 90
        0
176
     1
 90
        0
176
     1
 62
     7
176
     1
 62
   257
176
     1
 90
        1
176
     1
 90
        1
176
     1
 40
1.0
176
     1
 90
        8
176
     1
 62
   257
176
     1
 40
1.0
176
     1
 90
        1
176
     1
 90
        6
176
     1
 90
        2
176
     1
 62
     7
176
     1
 90
        3
176
     1
 90
        0
176
     1
 90
        0
176
     1
290
     0
176
     1
 90
       13
176
     1
 40
0.0
176
     1
 90
        0
176
     1
290
     0
176
     1
290
     1
176
     1
290
     1
176
     1
290
     0
176
     1
290
     0
176
     1
290
     0
176
     1
290
     0
176
     1
290
     0
176
     1
290
     0
176
     1
 90
       50
176
     1
 40
0.0
176
     1
 40
1.0
176
     1
 90
        0
176
     1
 62
    18
420
        0
176
     1
 90
       50
176
     1
 90
        3
176
     1
 62
     5
420
      255
176
     1
290
     0
176
     1
 90
       50
176
     1
 90
       50
176
     1
 90
       50
176
     1
290
     0
176
     1
 90
       50
176
     1
 62
   256
176
     0
 40
1.0
176
     0
 90
        2
176
     1
  1
strokes_ogs.tif
176
     1
290
     0
176
     1
 40
1.0
176
     1
 40
1.0
176
     1
  0
VISUALSTYLE
  5
3E
102
{ACAD_REACTORS
330
29
102
}
330
29
100
AcDbVisualStyle
  2
Shaded
 70
    27
177
     3
291
     0
 70
    58
 90
        2
176
     1
 90
        2
176
     1
 90
        1
176
     1
 90
        2
176
     1
 40
0.6
176
     1
 40
30.0
176
     1
 62
     7
420
 16777215
176
     1
 90
        0
176
     1
 90
        4
176
     1
 62
     7
176
     1
 62
   257
176
     1
 90
        1
176
     1
 90
        1
176
     1
 40
1.0
176
     1
 90
        8
176
     1
 62
   257
176
     1
 40
1.0
176
     1
 90
        1
176
     1
 90
        6
176
     1
 90
        2
176
     1
 62
     8
420
  7895160
176
     1
 90
        3
176
     1
 90
        0
176
     1
 90
        0
176
     1
290
     0
176
     1
 90
        5
176
     1
 40
0.0
176
     1
 90
        0
176
     1
290
     0
176
     1
290
     1
176
     1
290
     1
176
     1
290
     0
176
     1
290
     0
176
     1
290
     0
176
     1
290
     0
176
     1
290
     0
176
     1
290
     0
176
     1
 90
       50
176
     1
 40
0.0
176
     1
 40
1.0
176
     1
 90
        0
176
     1
 62
    18
420
        0
176
     1
 90
       50
176
     1
 90
        3
176
     1
 62
     5
420
      255
176
     1
290
     0
176
     1
 90
       50
176
     1
 90
       50
176
     1
 90
       50
176
     1
290
     0
176
     1
 90
       50
176
     1
 62
   256
176
     0
 40
1.0
176
     0
 90
        2
176
     1
  1
strokes_ogs.tif
176
     1
290
     0
176
     1
 40
1.0
176
     1
 40
1.0
176
     1
  0
VISUALSTYLE
  5
3D
102
{ACAD_REACTORS
330
29
102
}
330
29
100
AcDbVisualStyle
  2
Shaded with edges
 70
    26
177
     3
291
     0
 70
    58
 90
        2
176
     1
 90
        2
176
     1
 90
        1
176
     1
 90
        2
176
     1
 40
0.6
176
     1
 40
30.0
176
     1
 62
     7
420
 16777215
176
     1
 90
        1
176
     1
 90
        2
176
     1
 62
     7
176
     1
 62
   257
176
     1
 90
        2
176
     1
 90
        1
176
     1
 40
1.0
176
     1
 90
        8
176
     1
 62
   257
176
     1
 40
1.0
176
     1
 90
        1
176
     1
 90
        6
176
     1
 90
        2
176
     1
 62
     7
176
     1
 90
        3
176
     1
 90
        0
176
     1
 90
        0
176
     1
290
     0
176
     1
 90
        5
176
     1
 40
0.0
176
     1
 90
        0
176
     1
290
     0
176
     1
290
     1
176
     1
290
     1
176
     1
290
     0
176
     1
290
     0
176
     1
290
     0
176
     1
290
     0
176
     1
290
     0
176
     1
290
     0
176
     1
 90
       50
176
     1
 40
0.0
176
     1
 40
1.0
176
     1
 90
        0
176
     1
 62
    18
420
        0
176
     1
 90
       50
176
     1
 90
        3
176
     1
 62
     5
420
      255
176
     1
290
     0
176
     1
 90
       50
176
     1
 90
       50
176
     1
 90
       50
176
     1
290
     0
176
     1
 90
       50
176
     1
 62
   256
176
     0
 40
1.0
176
     0
 90
        2
176
     1
  1
strokes_ogs.tif
176
     1
290
     0
176
     1
 40
1.0
176
     1
 40
1.0
176
     1
  0
VISUALSTYLE
  5
3A
102
{ACAD_REACTORS
330
29
102
}
330
29
100
AcDbVisualStyle
  2
Shades of Gray
 70
    23
177
     3
291
     0
 70
    58
 90
        2
176
     1
 90
        2
176
     1
 90
        3
176
     1
 90
        0
176
     1
 40
0.6
176
     1
 40
30.0
176
     1
 62
     7
420
 16777215
176
     1
 90
        2
176
     1
 90
        2
176
     1
 62
     7
176
     1
 62
     7
176
     1
 90
        1
176
     1
 90
        1
176
     1
 40
40.0
176
     1
 90
        8
176
     1
 62
     7
176
     1
 40
1.0
176
     1
 90
        1
176
     1
 90
        6
176
     1
 90
        2
176
     1
 62
     7
176
     1
 90
        3
176
     1
 90
        0
176
     1
 90
        0
176
     1
290
     0
176
     1
 90
        1
176
     1
 40
0.0
176
     1
 90
        0
176
     1
290
     0
176
     1
290
     1
176
     1
290
     1
176
     1
290
     0
176
     1
290
     0
176
     1
290
     0
176
     1
290
     0
176
     1
290
     0
176
     1
290
     0
176
     1
 90
       50
176
     1
 40
0.0
176
     1
 40
1.0
176
     1
 90
        0
176
     1
 62
    18
420
        0
176
     1
 90
       50
176
     1
 90
        3
176
     1
 62
     5
420
      255
176
     1
290
     0
176
     1
 90
       50
176
     1
 90
       50
176
     1
 90
       50
176
     1
290
     0
176
     1
 90
       50
176
     1
 62
   256
176
     0
 40
1.0
176
     0
 90
        2
176
     1
  1
strokes_ogs.tif
176
     1
290
     0
176
     1
 40
1.0
176
     1
 40
1.0
176
     1
  0
VISUALSTYLE
  5
3B
102
{ACAD_REACTORS
330
29
102
}
330
29
100
AcDbVisualStyle
  2
Sketchy
 70
    24
177
     3
291
     0
 70
    58
 90
        1
176
     1
 90
        2
176
     1
 90
        2
176
     1
 90
        0
176
     1
 40
0.6
176
     1
 40
30.0
176
     1
 62
     7
420
 16777215
176
     1
 90
        2
176
     1
 90
        2
176
     1
 62
     7
176
     1
 62
     7
176
     1
 90
        1
176
     1
 90
        1
176
     1
 40
40.0
176
     1
 90
       11
176
     1
 62
     7
176
     1
 40
1.0
176
     1
 90
        1
176
     1
 90
        6
176
     1
 90
        2
176
     1
 62
     7
176
     1
 90
        6
176
     1
 90
        0
176
     1
 90
        0
176
     1
290
     0
176
     1
 90
        1
176
     1
 40
0.0
176
     1
 90
        0
176
     1
290
     0
176
     1
290
     1
176
     1
290
     1
176
     1
290
     0
176
     1
290
     0
176
     1
290
     0
176
     1
290
     0
176
     1
290
     0
176
     1
290
     0
176
     1
 90
       50
176
     1
 40
0.0
176
     1
 40
1.0
176
     1
 90
        0
176
     1
 62
    18
420
        0
176
     1
 90
       50
176
     1
 90
        3
176
     1
 62
     5
420
      255
176
     1
290
     0
176
     1
 90
       50
176
     1
 90
       50
176
     1
 90
       50
176
     1
290
     0
176
     1
 90
       50
176
     1
 62
   256
176
     0
 40
1.0
176
     0
 90
        2
176
     1
  1
strokes_ogs.tif
176
     1
290
     0
176
     1
 40
1.0
176
     1
 40
1.0
176
     1
  0
VISUALSTYLE
  5
36
102
{ACAD_REACTORS
330
29
102
}
330
29
100
AcDbVisualStyle
  2
Thicken
 70
    13
177
     3
291
     1
 70
    58
 90
        2
176
     1
 90
        2
176
     1
 90
        0
176
     1
 90
        0
176
     1
 40
0.6
176
     1
 40
30.0
176
     1
 62
     7
420
 16777215
176
     1
 90
        1
176
     1
 90
        4
176
     1
 62
     7
176
     1
 62
   257
176
     1
 90
        1
176
     1
 90
        1
176
     1
 40
1.0
176
     1
 90
       12
176
     1
 62
     7
176
     1
 40
1.0
176
     1
 90
        1
176
     1
 90
        6
176
     1
 90
        2
176
     1
 62
     7
176
     1
 90
        5
176
     1
 90
        0
176
     1
 90
        0
176
     1
290
     0
176
     1
 90
        1
176
     1
 40
0.0
176
     1
 90
        0
176
     1
290
     0
176
     1
290
     1
176
     1
290
     1
176
     1
290
     0
176
     1
290
     0
176
     1
290
     0
176
     1
290
     0
176
     1
290
     0
176
     1
290
     0
176
     1
 90
       50
176
     1
 40
0.0
176
     1
 40
1.0
176
     1
 90
        0
176
     1
 62
    18
420
        0
176
     1
 90
       50
176
     1
 90
        3
176
     1
 62
     5
420
      255
176
     1
290
     0
176
     1
 90
       50
176
     1
 90
       50
176
     1
 90
       50
176
     1
290
     0
176
     1
 90
       50
176
     1
 62
   256
176
     0
 40
1.0
176
     0
 90
        2
176
     1
  1
strokes_ogs.tif
176
     1
290
     0
176
     1
 40
1.0
176
     1
 40
1.0
176
     1
  0
VISUALSTYLE
  5
30
102
{ACAD_REACTORS
330
29
102
}
330
29
100
AcDbVisualStyle
  2
Wireframe
 70
     5
177
     3
291
     0
 70
    58
 90
        0
176
     1
 90
        2
176
     1
 90
        0
176
     1
 90
        0
176
     1
 40
0.6
176
     1
 40
30.0
176
     1
 62
     7
420
 16777215
176
     1
 90
        1
176
     1
 90
        4
176
     1
 62
     7
176
     1
 62
   257
176
     1
 90
        1
176
     1
 90
        1
176
     1
 40
1.0
176
     1
 90
        0
176
     1
 62
   257
176
     1
 40
1.0
176
     1
 90
        1
176
     1
 90
        6
176
     1
 90
        2
176
     1
 62
     7
176
     1
 90
        3
176
     1
 90
        0
176
     1
 90
        0
176
     1
290
     0
176
     1
 90
        1
176
     1
 40
0.0
176
     1
 90
        0
176
     1
290
     0
176
     1
290
     1
176
     1
290
     1
176
     1
290
     0
176
     1
290
     0
176
     1
290
     0
176
     1
290
     0
176
     1
290
     0
176
     1
290
     0
176
     1
 90
       50
176
     1
 40
0.0
176
     1
 40
1.0
176
     1
 90
        0
176
     1
 62
    18
420
        0
176
     1
 90
       50
176
     1
 90
        3
176
     1
 62
     5
420
      255
176
     1
290
     0
176
     1
 90
       50
176
     1
 90
       50
176
     1
 90
       50
176
     1
290
     0
176
     1
 90
       50
176
     1
 62
   256
176
     0
 40
1.0
176
     0
 90
        2
176
     1
  1
strokes_ogs.tif
176
     1
290
     0
176
     1
 40
1.0
176
     1
 40
1.0
176
     1
  0
VISUALSTYLE
  5
3C
102
{ACAD_REACTORS
330
29
102
}
330
29
100
AcDbVisualStyle
  2
X-Ray
 70
    25
177
     3
291
     0
 70
    58
 90
        2
176
     1
 90
        2
176
     1
 90
        1
176
     1
 90
        1
176
     1
 40
0.5
176
     1
 40
30.0
176
     1
 62
     7
420
 16777215
176
     1
 90
        1
176
     1
 90
        0
176
     1
 62
     7
176
     1
 62
   257
176
     1
 90
        1
176
     1
 90
        1
176
     1
 40
1.0
176
     1
 90
        8
176
     1
 62
     7
176
     1
 40
1.0
176
     1
 90
        1
176
     1
 90
        6
176
     1
 90
        2
176
     1
 62
     7
176
     1
 90
        3
176
     1
 90
        0
176
     1
 90
        0
176
     1
290
     0
176
     1
 90
       13
176
     1
 40
0.0
176
     1
 90
        0
176
     1
290
     0
176
     1
290
     1
176
     1
290
     1
176
     1
290
     0
176
     1
290
     0
176
     1
290
     0
176
     1
290
     0
176
     1
290
     0
176
     1
290
     0
176
     1
 90
       50
176
     1
 40
0.0
176
     1
 40
1.0
176
     1
 90
        0
176
     1
 62
    18
420
        0
176
     1
 90
       50
176
     1
 90
        3
176
     1
 62
     5
420
      255
176
     1
290
     0
176
     1
 90
       50
176
     1
 90
       50
176
     1
 90
       50
176
     1
290
     0
176
     1
 90
       50
176
     1
 62
   256
176
     0
 40
1.0
176
     0
 90
        2
176
     1
  1
strokes_ogs.tif
176
     1
290
     0
176
     1
 40
1.0
176
     1
 40
1.0
176
     1
  0
DICTIONARYVAR
  5
C1
102
{ACAD_REACTORS
330
BC
102
}
330
BC
100
DictionaryVariables
280
     0
  1
1:1
  0
DICTIONARYVAR
  5
BE
102
{ACAD_REACTORS
330
BC
102
}
330
BC
100
DictionaryVariables
280
     0
  1
STANDARD
  0
DICTIONARYVAR
  5
BD
102
{ACAD_REACTORS
330
BC
102
}
330
BC
100
DictionaryVariables
280
     0
  1
STANDARD
  0
DICTIONARYVAR
  5
BF
102
{ACAD_REACTORS
330
BC
102
}
330
BC
100
DictionaryVariables
280
     0
  1
Imperial24
  0
DICTIONARYVAR
  5
C0
102
{ACAD_REACTORS
330
BC
102
}
330
BC
100
DictionaryVariables
280
     0
  1
Imperial24
  0
DICTIONARY
  5
1A
330
19
100
AcDbDictionary
280
     1
281
     1
  3
BUMPTILE
360
1C
  3
DIFFUSETILE
360
1B
  3
OPACITYTILE
360
1F
  3
REFLECTIONTILE
360
1E
  3
REFRACTIONTILE
360
20
  3
SPECULARTILE
360
1D
  0
DICTIONARY
  5
12
330
11
100
AcDbDictionary
280
     1
281
     1
  3
BUMPTILE
360
14
  3
DIFFUSETILE
360
13
  3
OPACITYTILE
360
17
  3
REFLECTIONTILE
360
16
  3
REFRACTIONTILE
360
18
  3
SPECULARTILE
360
15
  0
DICTIONARY
  5
22
330
21
100
AcDbDictionary
280
     1
281
     1
  3
BUMPTILE
360
24
  3
DIFFUSETILE
360
23
  3
OPACITYTILE
360
27
  3
REFLECTIONTILE
360
26
  3
REFRACTIONTILE
360
28
  3
SPECULARTILE
360
25
  0
DICTIONARY
  5
C2
330
65
100
AcDbDictionary
280
     1
281
     1
  3
ACAD_ROUNDTRIP_2008_TABLESTYLE_CELLSTYLEMAP
360
C3
  0
XRECORD
  5
1C
102
{ACAD_REACTORS
330
1A
102
}
330
1A
100
AcDbXrecord
280
     1
270
     1
271
     1
  0
XRECORD
  5
1B
102
{ACAD_REACTORS
330
1A
102
}
330
1A
100
AcDbXrecord
280
     1
270
     1
271
     1
  0
XRECORD
  5
1F
102
{ACAD_REACTORS
330
1A
102
}
330
1A
100
AcDbXrecord
280
     1
270
     1
271
     1
  0
XRECORD
  5
1E
102
{ACAD_REACTORS
330
1A
102
}
330
1A
100
AcDbXrecord
280
     1
270
     1
271
     1
  0
XRECORD
  5
20
102
{ACAD_REACTORS
330
1A
102
}
330
1A
100
AcDbXrecord
280
     1
270
     1
271
     1
  0
XRECORD
  5
1D
102
{ACAD_REACTORS
330
1A
102
}
330
1A
100
AcDbXrecord
280
     1
270
     1
271
     1
  0
XRECORD
  5
14
102
{ACAD_REACTORS
330
12
102
}
330
12
100
AcDbXrecord
280
     1
270
     1
271
     1
  0
XRECORD
  5
13
102
{ACAD_REACTORS
330
12
102
}
330
12
100
AcDbXrecord
280
     1
270
     1
271
     1
  0
XRECORD
  5
17
102
{ACAD_REACTORS
330
12
102
}
330
12
100
AcDbXrecord
280
     1
270
     1
271
     1
  0
XRECORD
  5
16
102
{ACAD_REACTORS
330
12
102
}
330
12
100
AcDbXrecord
280
     1
270
     1
271
     1
  0
XRECORD
  5
18
102
{ACAD_REACTORS
330
12
102
}
330
12
100
AcDbXrecord
280
     1
270
     1
271
     1
  0
XRECORD
  5
15
102
{ACAD_REACTORS
330
12
102
}
330
12
100
AcDbXrecord
280
     1
270
     1
271
     1
  0
XRECORD
  5
24
102
{ACAD_REACTORS
330
22
102
}
330
22
100
AcDbXrecord
280
     1
270
     1
271
     1
  0
XRECORD
  5
23
102
{ACAD_REACTORS
330
22
102
}
330
22
100
AcDbXrecord
280
     1
270
     1
271
     1
  0
XRECORD
  5
27
102
{ACAD_REACTORS
330
22
102
}
330
22
100
AcDbXrecord
280
     1
270
     1
271
     1
  0
XRECORD
  5
26
102
{ACAD_REACTORS
330
22
102
}
330
22
100
AcDbXrecord
280
     1
270
     1
271
     1
  0
XRECORD
  5
28
102
{ACAD_REACTORS
330
22
102
}
330
22
100
AcDbXrecord
280
     1
270
     1
271
     1
  0
XRECORD
  5
25
102
{ACAD_REACTORS
330
22
102
}
330
22
100
AcDbXrecord
280
     1
270
     1
271
     1
  0
CELLSTYLEMAP
  5
C3
102
{ACAD_REACTORS
330
C2
102
}
330
C2
100
AcDbCellStyleMap
 90
        3
300
CELLSTYLE
  1
TABLEFORMAT_BEGIN
 90
        5
170
     1
 91
        0
 92
    32768
 62
   257
 93
        1
300
CONTENTFORMAT
  1
CONTENTFORMAT_BEGIN
 90
        0
 91
        0
 92
      512
 93
        0
300

 40
0.0
140
1.0
 94
        5
 62
     0
340
55
144
0.25
309
CONTENTFORMAT_END
171
     0
 94
        0
309
TABLEFORMAT_END
  1
CELLSTYLE_BEGIN
 90
        1
 91
        1
300
_TITLE
309
CELLSTYLE_END
300
CELLSTYLE
  1
TABLEFORMAT_BEGIN
 90
        5
170
     1
 91
        0
 92
        0
 62
   257
 93
        1
300
CONTENTFORMAT
  1
CONTENTFORMAT_BEGIN
 90
        0
 91
        0
 92
      512
 93
        0
300

 40
0.0
140
1.0
 94
        5
 62
     0
340
55
144
0.18
309
CONTENTFORMAT_END
171
     0
 94
        0
309
TABLEFORMAT_END
  1
CELLSTYLE_BEGIN
 90
        2
 91
        1
300
_HEADER
309
CELLSTYLE_END
300
CELLSTYLE
  1
TABLEFORMAT_BEGIN
 90
        5
170
     1
 91
        0
 92
        0
 62
   257
 93
        1
300
CONTENTFORMAT
  1
CONTENTFORMAT_BEGIN
 90
        0
 91
        0
 92
      512
 93
        0
300

 40
0.0
140
1.0
 94
        2
 62
     0
340
55
144
0.18
309
CONTENTFORMAT_END
171
     0
 94
        0
309
TABLEFORMAT_END
  1
CELLSTYLE_BEGIN
 90
        3
 91
        2
300
_DATA
309
CELLSTYLE_END
  0
ENDSEC
  0
EOF
