  0
SECTION
  2
HEADER
  9
$ACADVER
  1
AC1032
  9
$ACADMAINTVER
 90
      228
  9
$DWGCODEPAGE
  3
ANSI_1252
  9
$REQUIREDVERSIONS
160
                 0
  9
$INSBASE
 10
0.0
 20
0.0
 30
0.0
  9
$EXTMIN
 10
1.000000000000000E+20
 20
1.000000000000000E+20
 30
1.000000000000000E+20
  9
$EXTMAX
 10
-1.000000000000000E+20
 20
-1.000000000000000E+20
 30
-1.000000000000000E+20
  9
$LIMMIN
 10
0.0
 20
0.0
  9
$LIMMAX
 10
12.0
 20
9.0
  9
$ORTHOMODE
 70
     0
  9
$REGENMODE
 70
     1
  9
$FILLMODE
 70
     1
  9
$QTEXTMODE
 70
     0
  9
$MIRRTEXT
 70
     0
  9
$LTSCALE
 40
1.0
  9
$ATTMODE
 70
     1
  9
$TEXTSIZE
 40
0.2
  9
$TRACEWID
 40
0.05
  9
$TEXTSTYLE
  7
Standard
  9
$CLAYER
  8
0
  9
$CELTYPE
  6
ByLayer
  9
$CECOLOR
 62
   256
  9
$CELTSCALE
 40
1.0
  9
$DISPSILH
 70
     0
  9
$DIMSCALE
 40
1.0
  9
$DIMASZ
 40
0.18
  9
$DIMEXO
 40
0.0625
  9
$DIMDLI
 40
0.38
  9
$DIMRND
 40
0.0
  9
$DIMDLE
 40
0.0
  9
$DIMEXE
 40
0.18
  9
$DIMTP
 40
0.0
  9
$DIMTM
 40
0.0
  9
$DIMTXT
 40
0.18
  9
$DIMCEN
 40
0.09
  9
$DIMTSZ
 40
0.0
  9
$DIMTOL
 70
     0
  9
$DIMLIM
 70
     0
  9
$DIMTIH
 70
     1
  9
$DIMTOH
 70
     1
  9
$DIMSE1
 70
     0
  9
$DIMSE2
 70
     0
  9
$DIMTAD
 70
     0
  9
$DIMZIN
 70
     0
  9
$DIMBLK
  1

  9
$DIMASO
 70
     1
  9
$DIMSHO
 70
     1
  9
$DIMPOST
  1

  9
$DIMAPOST
  1

  9
$DIMALT
 70
     0
  9
$DIMALTD
 70
     2
  9
$DIMALTF
 40
25.4
  9
$DIMLFAC
 40
1.0
  9
$DIMTOFL
 70
     0
  9
$DIMTVP
 40
0.0
  9
$DIMTIX
 70
     0
  9
$DIMSOXD
 70
     0
  9
$DIMSAH
 70
     0
  9
$DIMBLK1
  1

  9
$DIMBLK2
  1

  9
$DIMSTYLE
  2
Standard
  9
$DIMCLRD
 70
     0
  9
$DIMCLRE
 70
     0
  9
$DIMCLRT
 70
     0
  9
$DIMTFAC
 40
1.0
  9
$DIMGAP
 40
0.09
  9
$DIMJUST
 70
     0
  9
$DIMSD1
 70
     0
  9
$DIMSD2
 70
     0
  9
$DIMTOLJ
 70
     1
  9
$DIMTZIN
 70
     0
  9
$DIMALTZ
 70
     0
  9
$DIMALTTZ
 70
     0
  9
$DIMUPT
 70
     0
  9
$DIMDEC
 70
     4
  9
$DIMTDEC
 70
     4
  9
$DIMALTU
 70
     2
  9
$DIMALTTD
 70
     2
  9
$DIMTXSTY
  7
Standard
  9
$DIMAUNIT
 70
     0
  9
$DIMADEC
 70
     0
  9
$DIMALTRND
 40
0.0
  9
$DIMAZIN
 70
     0
  9
$DIMDSEP
 70
    46
  9
$DIMATFIT
 70
     3
  9
$DIMFRAC
 70
     0
  9
$DIMLDRBLK
  1

  9
$DIMLUNIT
 70
     2
  9
$DIMLWD
 70
    -2
  9
$DIMLWE
 70
    -2
  9
$DIMTMOVE
 70
     0
  9
$DIMFXL
 40
1.0
  9
$DIMFXLON
 70
     0
  9
$DIMJOGANG
 40
0.7853981633974483
  9
$DIMTFILL
 70
     0
  9
$DIMTFILLCLR
 70
     0
  9
$DIMARCSYM
 70
     0
  9
$DIMLTYPE
  6

  9
$DIMLTEX1
  6

  9
$DIMLTEX2
  6

  9
$DIMTXTDIRECTION
 70
     0
  9
$LUNITS
 70
     2
  9
$LUPREC
 70
     4
  9
$SKETCHINC
 40
0.1
  9
$FILLETRAD
 40
0.0
  9
$AUNITS
 70
     0
  9
$AUPREC
 70
     0
  9
$MENU
  1
.
  9
$ELEVATION
 40
0.0
  9
$PELEVATION
 40
0.0
  9
$THICKNESS
 40
0.0
  9
$LIMCHECK
 70
     0
  9
$CHAMFERA
 40
0.0
  9
$CHAMFERB
 40
0.0
  9
$CHAMFERC
 40
0.0
  9
$CHAMFERD
 40
0.0
  9
$SKPOLY
 70
     0
  9
$TDCREATE
 40
2460276.884756945
  9
$TDUCREATE
 40
2460277.218090278
  9
$TDUPDATE
 40
2460276.884756945
  9
$TDUUPDATE
 40
2460277.218090278
  9
$TDINDWG
 40
0.0000000000
  9
$TDUSRTIMER
 40
0.0000000000
  9
$USRTIMER
 70
     1
  9
$ANGBASE
 50
0.0
  9
$ANGDIR
 70
     0
  9
$PDMODE
 70
     0
  9
$PDSIZE
 40
0.0
  9
$PLINEWID
 40
0.0
  9
$SPLFRAME
 70
     0
  9
$SPLINETYPE
 70
     6
  9
$SPLINESEGS
 70
     8
  9
$HANDSEED
  5
D5
  9
$SURFTAB1
 70
     6
  9
$SURFTAB2
 70
     6
  9
$SURFTYPE
 70
     6
  9
$SURFU
 70
     6
  9
$SURFV
 70
     6
  9
$UCSBASE
  2

  9
$UCSNAME
  2

  9
$UCSORG
 10
0.0
 20
0.0
 30
0.0
  9
$UCSXDIR
 10
1.0
 20
0.0
 30
0.0
  9
$UCSYDIR
 10
0.0
 20
1.0
 30
0.0
  9
$UCSORTHOREF
  2

  9
$UCSORTHOVIEW
 70
     0
  9
$UCSORGTOP
 10
0.0
 20
0.0
 30
0.0
  9
$UCSORGBOTTOM
 10
0.0
 20
0.0
 30
0.0
  9
$UCSORGLEFT
 10
0.0
 20
0.0
 30
0.0
  9
$UCSORGRIGHT
 10
0.0
 20
0.0
 30
0.0
  9
$UCSORGFRONT
 10
0.0
 20
0.0
 30
0.0
  9
$UCSORGBACK
 10
0.0
 20
0.0
 30
0.0
  9
$PUCSBASE
  2

  9
$PUCSNAME
  2

  9
$PUCSORG
 10
0.0
 20
0.0
 30
0.0
  9
$PUCSXDIR
 10
1.0
 20
0.0
 30
0.0
  9
$PUCSYDIR
 10
0.0
 20
1.0
 30
0.0
  9
$PUCSORTHOREF
  2

  9
$PUCSORTHOVIEW
 70
     0
  9
$PUCSORGTOP
 10
0.0
 20
0.0
 30
0.0
  9
$PUCSORGBOTTOM
 10
0.0
 20
0.0
 30
0.0
  9
$PUCSORGLEFT
 10
0.0
 20
0.0
 30
0.0
  9
$PUCSORGRIGHT
 10
0.0
 20
0.0
 30
0.0
  9
$PUCSORGFRONT
 10
0.0
 20
0.0
 30
0.0
  9
$PUCSORGBACK
 10
0.0
 20
0.0
 30
0.0
  9
$USERI1
 70
     0
  9
$USERI2
 70
     0
  9
$USERI3
 70
     0
  9
$USERI4
 70
     0
  9
$USERI5
 70
     0
  9
$USERR1
 40
0.0
  9
$USERR2
 40
0.0
  9
$USERR3
 40
0.0
  9
$USERR4
 40
0.0
  9
$USERR5
 40
0.0
  9
$WORLDVIEW
 70
     1
  9
$SHADEDGE
 70
     3
  9
$SHADEDIF
 70
    70
  9
$TILEMODE
 70
     1
  9
$MAXACTVP
 70
    64
  9
$PINSBASE
 10
0.0
 20
0.0
 30
0.0
  9
$PLIMCHECK
 70
     0
  9
$PEXTMIN
 10
1.000000000000000E+20
 20
1.000000000000000E+20
 30
1.000000000000000E+20
  9
$PEXTMAX
 10
-1.000000000000000E+20
 20
-1.000000000000000E+20
 30
-1.000000000000000E+20
  9
$PLIMMIN
 10
0.0
 20
0.0
  9
$PLIMMAX
 10
12.0
 20
9.0
  9
$UNITMODE
 70
     0
  9
$VISRETAIN
 70
     1
  9
$PLINEGEN
 70
     0
  9
$PSLTSCALE
 70
     1
  9
$TREEDEPTH
 70
  3020
  9
$CMLSTYLE
  2
Standard
  9
$CMLJUST
 70
     0
  9
$CMLSCALE
 40
1.0
  9
$PROXYGRAPHICS
 70
     1
  9
$MEASUREMENT
 70
     0
  9
$CELWEIGHT
370
    -1
  9
$ENDCAPS
280
     0
  9
$JOINSTYLE
280
     0
  9
$LWDISPLAY
290
     1
  9
$INSUNITS
 70
     1
  9
$HYPERLINKBASE
  1

  9
$STYLESHEET
  1

  9
$XEDIT
290
     1
  9
$CEPSNTYPE
380
     0
  9
$PSTYLEMODE
290
     1
  9
$FINGERPRINTGUID
  2
{35C8454C-492B-6C42-8860-81FC3FD5E9F9}
  9
$VERSIONGUID
  2
{6A7B5715-CE2B-664B-BE14-5ACF1E7478EB}
  9
$EXTNAMES
290
     1
  9
$PSVPSCALE
 40
0.0
  9
$OLESTARTUP
290
     0
  9
$SORTENTS
280
   127
  9
$INDEXCTL
280
     0
  9
$HIDETEXT
280
     1
  9
$XCLIPFRAME
280
     2
  9
$HALOGAP
280
     0
  9
$OBSCOLOR
 70
   257
  9
$OBSLTYPE
280
     0
  9
$INTERSECTIONDISPLAY
280
     0
  9
$INTERSECTIONCOLOR
 70
   257
  9
$DIMASSOC
280
     2
  9
$PROJECTNAME
  1

  9
$CAMERADISPLAY
290
     0
  9
$LENSLENGTH
 40
50.0
  9
$CAMERAHEIGHT
 40
0.0
  9
$STEPSPERSEC
 40
2.0
  9
$STEPSIZE
 40
6.0
  9
$3DDWFPREC
 40
2.0
  9
$PSOLWIDTH
 40
0.25
  9
$PSOLHEIGHT
 40
4.0
  9
$LOFTANG1
 40
1.570796326794896
  9
$LOFTANG2
 40
1.570796326794896
  9
$LOFTMAG1
 40
0.0
  9
$LOFTMAG2
 40
0.0
  9
$LOFTPARAM
 70
     7
  9
$LOFTNORMALS
280
     1
  9
$LATITUDE
 40
37.795
  9
$LONGITUDE
 40
-122.394
  9
$NORTHDIRECTION
 40
0.0
  9
$TIMEZONE
 70
 -8000
  9
$LIGHTGLYPHDISPLAY
280
     1
  9
$TILEMODELIGHTSYNCH
280
     1
  9
$CMATERIAL
347
11
  9
$SOLIDHIST
280
     0
  9
$SHOWHIST
280
     1
  9
$DWFFRAME
280
     2
  9
$DGNFRAME
280
     0
  9
$REALWORLDSCALE
290
     1
  9
$INTERFERECOLOR
 62
     1
  9
$INTERFEREOBJVS
345
33
  9
$INTERFEREVPVS
346
30
  9
$CSHADOW
280
     0
  9
$SHADOWPLANELOCATION
 40
0.0
  0
ENDSEC
  0
SECTION
  2
CLASSES
  0
CLASS
  1
ACDBDICTIONARYWDFLT
  2
AcDbDictionaryWithDefault
  3
ObjectDBX Classes
 90
        0
 91
        1
280
     0
281
     0
  0
CLASS
  1
MATERIAL
  2
AcDbMaterial
  3
ObjectDBX Classes
 90
     1153
 91
        3
280
     0
281
     0
  0
CLASS
  1
VISUALSTYLE
  2
AcDbVisualStyle
  3
ObjectDBX Classes
 90
     4095
 91
       24
280
     0
281
     0
  0
CLASS
  1
SCALE
  2
AcDbScale
  3
ObjectDBX Classes
 90
     1153
 91
       17
280
     0
281
     0
  0
CLASS
  1
TABLESTYLE
  2
AcDbTableStyle
  3
ObjectDBX Classes
 90
     4095
 91
        1
280
     0
281
     0
  0
CLASS
  1
MLEADERSTYLE
  2
AcDbMLeaderStyle
  3
ACDB_MLEADERSTYLE_CLASS
 90
     4095
 91
        1
280
     0
281
     0
  0
CLASS
  1
ACDBSECTIONVIEWSTYLE
  2
AcDbSectionViewStyle
  3
ObjectDBX Classes
 90
     1025
 91
        1
280
     0
281
     0
  0
CLASS
  1
ACDBDETAILVIEWSTYLE
  2
AcDbDetailViewStyle
  3
ObjectDBX Classes
 90
     1025
 91
        1
280
     0
281
     0
  0
CLASS
  1
DICTIONARYVAR
  2
AcDbDictionaryVar
  3
ObjectDBX Classes
 90
        0
 91
        5
280
     0
281
     0
  0
CLASS
  1
CELLSTYLEMAP
  2
AcDbCellStyleMap
  3
ObjectDBX Classes
 90
     1152
 91
        1
280
     0
281
     0
  0
ENDSEC
  0
SECTION
  2
TABLES
  0
TABLE
  2
VPORT
  5
8
330
0
100
AcDbSymbolTable
 70
     1
  0
VPORT
  5
57
330
8
100
AcDbSymbolTableRecord
100
AcDbViewportTableRecord
  2
*Active
 70
     0
 10
0.0
 20
0.0
 11
1.0
 21
1.0
 12
0.0
 22
0.0
 13
0.0
 23
0.0
 14
1.0
 24
1.0
 15
0.0
 25
0.0
 16
0.0
 26
0.0
 36
1.0
 17
-0.0092103407118
 27
-1.544947506561811
 37
0.0
 40
3.605807086613904
 41
1.251598413331496
 42
50.0
 43
0.0
 44
0.0
 50
0.0
 51
0.0
 71
     0
 72
   100
 73
     1
 74
     1
 75
     0
 76
     0
 77
     0
 78
     0
281
     0
 65
     1
110
0.0
120
0.0
130
0.0
111
1.0
121
0.0
131
0.0
112
0.0
122
1.0
132
0.0
 79
     0
146
0.0
 60
     3
 61
     5
292
     1
282
     1
141
0.0
142
0.0
 63
   250
421
  3355443
  0
ENDTAB
  0
TABLE
  2
LTYPE
  5
5
330
0
100
AcDbSymbolTable
 70
     1
  0
LTYPE
  5
5B
330
5
100
AcDbSymbolTableRecord
100
AcDbLinetypeTableRecord
  2
ByBlock
 70
     0
  3

 72
    65
 73
     0
 40
0.0
  0
LTYPE
  5
5C
330
5
100
AcDbSymbolTableRecord
100
AcDbLinetypeTableRecord
  2
ByLayer
 70
     0
  3

 72
    65
 73
     0
 40
0.0
  0
LTYPE
  5
5D
330
5
100
AcDbSymbolTableRecord
100
AcDbLinetypeTableRecord
  2
Continuous
 70
     0
  3
Solid line
 72
    65
 73
     0
 40
0.0
  0
ENDTAB
  0
TABLE
  2
LAYER
  5
2
330
0
100
AcDbSymbolTable
 70
     9
  0
LAYER
  5
54
330
2
100
AcDbSymbolTableRecord
100
AcDbLayerTableRecord
  2
0
 70
     0
 62
     7
  6
Continuous
370
    -3
390
F
347
21
348
0
  0
LAYER
  5
78
330
2
100
AcDbSymbolTableRecord
100
AcDbLayerTableRecord
  2
Fonts
 70
     1
 62
     7
  6
Continuous
370
     0
390
F
347
21
348
0
  0
LAYER
  5
79
330
2
100
AcDbSymbolTableRecord
100
AcDbLayerTableRecord
  2
Green
 70
     5
 62
     7
  6
Continuous
370
     0
390
F
347
21
348
0
  0
LAYER
  5
7A
330
2
100
AcDbSymbolTableRecord
100
AcDbLayerTableRecord
  2
White
 70
     4
 62
     7
  6
Continuous
370
     0
390
F
347
21
348
0
  0
LAYER
  5
7B
330
2
100
AcDbSymbolTableRecord
100
AcDbLayerTableRecord
  2
Date
 70
     0
 62
     7
  6
Continuous
370
     0
390
F
347
21
348
0
  0
LAYER
  5
7C
330
2
100
AcDbSymbolTableRecord
100
AcDbLayerTableRecord
  2
Mr&Mrs with Date
 70
     1
 62
     7
  6
Continuous
370
     0
390
F
347
21
348
0
  0
LAYER
  5
7D
330
2
100
AcDbSymbolTableRecord
100
AcDbLayerTableRecord
  2
Let It Snow
 70
     0
 62
     7
  6
Continuous
370
     0
390
F
347
21
348
0
  0
LAYER
  5
CA
330
2
100
AcDbSymbolTableRecord
100
AcDbLayerTableRecord
  2
TML FRIENDSGIVING
 70
     1
 62
     7
  6
Continuous
370
     0
390
F
347
21
348
0
  0
LAYER
  5
CB
330
2
100
AcDbSymbolTableRecord
100
AcDbLayerTableRecord
  2
Layer 7
 70
     1
 62
     7
  6
Continuous
370
     0
390
F
347
21
348
0
  0
ENDTAB
  0
TABLE
  2
STYLE
  5
3
330
0
100
AcDbSymbolTable
 70
     2
  0
STYLE
  5
55
330
3
100
AcDbSymbolTableRecord
100
AcDbTextStyleTableRecord
  2
Standard
 70
     0
 40
0.0
 41
1.0
 50
0.0
 71
     0
 42
0.2
  3
txt
  4

  0
STYLE
  5
5A
330
3
100
AcDbSymbolTableRecord
100
AcDbTextStyleTableRecord
  2
Annotative
 70
     0
 40
0.0
 41
1.0
 50
0.0
 71
     0
 42
0.2
  3
txt
  4

1001
AcadAnnotative
1000
AnnotativeData
1002
{
1070
     1
1070
     1
1002
}
  0
ENDTAB
  0
TABLE
  2
VIEW
  5
6
330
0
100
AcDbSymbolTable
 70
     0
  0
ENDTAB
  0
TABLE
  2
UCS
  5
7
330
0
100
AcDbSymbolTable
 70
     0
  0
ENDTAB
  0
TABLE
  2
APPID
  5
9
330
0
100
AcDbSymbolTable
 70
     2
  0
APPID
  5
56
330
9
100
AcDbSymbolTableRecord
100
AcDbRegAppTableRecord
  2
ACAD
 70
     0
  0
APPID
  5
5E
330
9
100
AcDbSymbolTableRecord
100
AcDbRegAppTableRecord
  2
AcadAnnotative
 70
     0
  0
ENDTAB
  0
TABLE
  2
DIMSTYLE
  5
A
330
0
100
AcDbSymbolTable
 70
     2
100
AcDbDimStyleTable
 71
     0
  0
DIMSTYLE
105
58
330
A
100
AcDbSymbolTableRecord
100
AcDbDimStyleTableRecord
  2
Standard
 70
     0
340
55
  0
DIMSTYLE
105
59
330
A
100
AcDbSymbolTableRecord
100
AcDbDimStyleTableRecord
  2
Annotative
 70
     0
340
55
1001
AcadAnnotative
1000
AnnotativeData
1002
{
1070
     1
1070
     1
1002
}
  0
ENDTAB
  0
TABLE
  2
BLOCK_RECORD
  5
1
330
0
100
AcDbSymbolTable
 70
     3
  0
BLOCK_RECORD
  5
70
330
1
100
AcDbSymbolTableRecord
100
AcDbBlockTableRecord
  2
*Model_Space
340
73
 70
     0
280
     1
281
     0
  0
BLOCK_RECORD
  5
6C
330
1
100
AcDbSymbolTableRecord
100
AcDbBlockTableRecord
  2
*Paper_Space
340
6F
 70
     0
280
     1
281
     0
  0
BLOCK_RECORD
  5
74
330
1
100
AcDbSymbolTableRecord
100
AcDbBlockTableRecord
  2
*Paper_Space0
340
77
 70
     0
280
     1
281
     0
  0
BLOCK_RECORD
  5
81
330
1
100
AcDbSymbolTableRecord
100
AcDbBlockTableRecord
  2
Block_0
340
0
102
{BLKREFS
331
82
102
}
 70
     0
280
     1
281
     0
  0
BLOCK_RECORD
  5
A0
330
1
100
AcDbSymbolTableRecord
100
AcDbBlockTableRecord
  2
Block_1
340
0
102
{BLKREFS
331
A1
102
}
 70
     0
280
     1
281
     0
  0
ENDTAB
  0
ENDSEC
  0
SECTION
  2
BLOCKS
  0
BLOCK
  5
71
330
70
100
AcDbEntity
  8
0
100
AcDbBlockBegin
  2
*Model_Space
 70
     0
 10
0.0
 20
0.0
 30
0.0
  3
*Model_Space
  1

  0
ENDBLK
  5
72
330
70
100
AcDbEntity
  8
0
100
AcDbBlockEnd
  0
BLOCK
  5
6D
330
6C
100
AcDbEntity
 67
     1
  8
0
100
AcDbBlockBegin
  2
*Paper_Space
 70
     0
 10
0.0
 20
0.0
 30
0.0
  3
*Paper_Space
  1

  0
ENDBLK
  5
6E
330
6C
100
AcDbEntity
 67
     1
  8
0
100
AcDbBlockEnd
  0
BLOCK
  5
75
330
74
100
AcDbEntity
 67
     1
  8
0
100
AcDbBlockBegin
  2
*Paper_Space0
 70
     0
 10
0.0
 20
0.0
 30
0.0
  3
*Paper_Space0
  1

  0
ENDBLK
  5
76
330
74
100
AcDbEntity
 67
     1
  8
0
100
AcDbBlockEnd
  0
BLOCK
  5
83
330
81
100
AcDbEntity
  8
0
100
AcDbBlockBegin
  2
Block_0
 70
     0
 10
0.0
 20
0.0
 30
0.0
  3
Block_0
  1

  0
SPLINE
  5
85
330
81
100
AcDbEntity
  8
Let It Snow
100
AcDbSpline
210
0.0
220
0.0
230
1.0
 70
     9
 71
     3
 72
   137
 73
   133
 74
     0
 42
0.0000000001
 43
0.0000000001
 40
0.0
 40
0.0
 40
0.0
 40
0.0
 40
1.0
 40
1.0
 40
1.0
 40
2.0
 40
2.0
 40
2.0
 40
3.0
 40
3.0
 40
3.0
 40
4.0
 40
4.0
 40
4.0
 40
5.0
 40
5.0
 40
5.0
 40
6.0
 40
6.0
 40
6.0
 40
7.0
 40
7.0
 40
7.0
 40
8.0
 40
8.0
 40
8.0
 40
9.0
 40
9.0
 40
9.0
 40
10.0
 40
10.0
 40
10.0
 40
11.0
 40
11.0
 40
11.0
 40
12.0
 40
12.0
 40
12.0
 40
13.0
 40
13.0
 40
13.0
 40
14.0
 40
14.0
 40
14.0
 40
15.0
 40
15.0
 40
15.0
 40
16.0
 40
16.0
 40
16.0
 40
17.0
 40
17.0
 40
17.0
 40
18.0
 40
18.0
 40
18.0
 40
19.0
 40
19.0
 40
19.0
 40
20.0
 40
20.0
 40
20.0
 40
21.0
 40
21.0
 40
21.0
 40
22.0
 40
22.0
 40
22.0
 40
23.0
 40
23.0
 40
23.0
 40
24.0
 40
24.0
 40
24.0
 40
25.0
 40
25.0
 40
25.0
 40
26.0
 40
26.0
 40
26.0
 40
27.0
 40
27.0
 40
27.0
 40
28.0
 40
28.0
 40
28.0
 40
29.0
 40
29.0
 40
29.0
 40
30.0
 40
30.0
 40
30.0
 40
31.0
 40
31.0
 40
31.0
 40
32.0
 40
32.0
 40
32.0
 40
33.0
 40
33.0
 40
33.0
 40
34.0
 40
34.0
 40
34.0
 40
35.0
 40
35.0
 40
35.0
 40
36.0
 40
36.0
 40
36.0
 40
37.0
 40
37.0
 40
37.0
 40
38.0
 40
38.0
 40
38.0
 40
39.0
 40
39.0
 40
39.0
 40
40.0
 40
40.0
 40
40.0
 40
41.0
 40
41.0
 40
41.0
 40
42.0
 40
42.0
 40
42.0
 40
43.0
 40
43.0
 40
43.0
 40
44.0
 40
44.0
 40
44.0
 40
44.0
 10
0.7813750858152338
 20
-2.991358847840501
 30
0.0
 10
0.7405290029159283
 20
-2.970674711555779
 30
0.0
 10
0.7239952572562061
 20
-2.95922722891689
 30
0.0
 10
0.7173152984888449
 20
-2.953259346972446
 30
0.0
 10
0.7173152984888449
 20
-2.953259346972446
 30
0.0
 10
0.7145076813013449
 20
-2.951319785340501
 30
0.0
 10
0.7145076813013449
 20
-2.951319785340501
 30
0.0
 10
0.7075361101207893
 20
-2.947671239333557
 30
0.0
 10
0.6995337229680115
 20
-2.941133695930779
 30
0.0
 10
0.6995337229680115
 20
-2.922836712423834
 30
0.0
 10
0.6995337229680115
 20
-2.918916899055779
 30
0.0
 10
0.6999067155895393
 20
-2.914630874750223
 30
0.0
 10
0.7005441938881506
 20
-2.910629681173834
 30
0.0
 10
0.7035688249645393
 20
-2.895615032736334
 30
0.0
 10
0.7099910797388449
 20
-2.885551013639112
 30
0.0
 10
0.7201364790444006
 20
-2.879908652528001
 30
0.0
 10
0.7273589725339839
 20
-2.875893895583557
 30
0.0
 10
0.7343780155027339
 20
-2.873954333951612
 30
0.0
 10
0.7415869456242615
 20
-2.873954333951612
 30
0.0
 10
0.7450320411103727
 20
-2.873954333951612
 30
0.0
 10
0.7486534603812061
 20
-2.874442615201612
 30
0.0
 10
0.7535633996173172
 20
-2.875690445062723
 30
0.0
 10
0.7564930871173172
 20
-2.876178726312723
 30
0.0
 10
0.7725317698430115
 20
-2.882173734993279
 30
0.0
 10
0.8006621951902337
 20
-2.951550362597446
 30
0.0
 10
0.8006621951902337
 20
-2.951550362597446
 30
0.0
 10
0.8041751075166226
 20
-2.960217354784946
 30
0.0
 10
0.8041751075166226
 20
-2.960217354784946
 30
0.0
 10
0.8041751075166226
 20
-2.960217354784946
 30
0.0
 10
0.8187353831242615
 20
-2.960217354784946
 30
0.0
 10
0.8187353831242615
 20
-2.960217354784946
 30
0.0
 10
0.8187353831242615
 20
-2.960217354784946
 30
0.0
 10
0.8342925662839837
 20
-2.952431981521057
 30
0.0
 10
0.8342925662839837
 20
-2.952431981521057
 30
0.0
 10
0.8342925662839837
 20
-2.952431981521057
 30
0.0
 10
0.8330786448430115
 20
-2.942693483257168
 30
0.0
 10
0.8330786448430115
 20
-2.942693483257168
 30
0.0
 10
0.8289011274819005
 20
-2.908974950271057
 30
0.0
 10
0.826778460381206
 20
-2.877589316590501
 30
0.0
 10
0.826778460381206
 20
-2.849391074403001
 30
0.0
 10
0.826778460381206
 20
-2.844698149055779
 30
0.0
 10
0.8268530589055115
 20
-2.839991660340501
 30
0.0
 10
0.8269886925860671
 20
-2.835285171625223
 30
0.0
 10
0.8269886925860671
 20
-2.835285171625223
 30
0.0
 10
0.8274295020478726
 20
-2.820392593500223
 30
0.0
 10
0.8274295020478726
 20
-2.820392593500223
 30
0.0
 10
0.8274295020478726
 20
-2.820392593500223
 30
0.0
 10
0.8011640398082892
 20
-2.821464099576612
 30
0.0
 10
0.8011640398082892
 20
-2.821464099576612
 30
0.0
 10
0.8011640398082892
 20
-2.821464099576612
 30
0.0
 10
0.7906795563013449
 20
-2.833684694194668
 30
0.0
 10
0.7906795563013449
 20
-2.833684694194668
 30
0.0
 10
0.7747765072562061
 20
-2.831473865201612
 30
0.0
 10
0.7616607303464839
 20
-2.830388795757168
 30
0.0
 10
0.7507625641138449
 20
-2.830388795757168
 30
0.0
 10
0.7465714833846783
 20
-2.830388795757168
 30
0.0
 10
0.7427873036971783
 20
-2.830551556173834
 30
0.0
 10
0.7407324534367615
 20
-2.83080926016689
 30
0.0
 10
0.7145890615096783
 20
-2.83080926016689
 30
0.0
 10
0.6883371626381506
 20
-2.841578574403001
 30
0.0
 10
0.6617936513534283
 20
-2.86364617422939
 30
0.0
 10
0.6453616309541227
 20
-2.879895089159946
 30
0.0
 10
0.6362945194089839
 20
-2.90295281485439
 30
0.0
 10
0.6348228939749561
 20
-2.932873604784946
 30
0.0
 10
0.6348228939749561
 20
-2.957721695062723
 30
0.0
 10
0.6455989898950949
 20
-2.982691855653001
 30
0.0
 10
0.6668460059541227
 20
-3.007105918153001
 30
0.0
 10
0.6668460059541227
 20
-3.007105918153001
 30
0.0
 10
0.6684532650687061
 20
-3.008679268847445
 30
0.0
 10
0.6684532650687061
 20
-3.008679268847445
 30
0.0
 10
0.6819555979680115
 20
-3.019882610861334
 30
0.0
 10
0.6949289595131506
 20
-3.028169828743279
 30
0.0
 10
0.7070071387666227
 20
-3.033310345236334
 30
0.0
 10
0.7137345693221783
 20
-3.036158652528001
 30
0.0
 10
0.7275556413707893
 20
-3.04394402579189
 30
0.0
 10
0.7549129547388449
 20
-3.064560345236334
 30
0.0
 10
0.7726063683673172
 20
-3.078679811382168
 30
0.0
 10
0.7823516483152338
 20
-3.091809151659945
 30
0.0
 10
0.7823855567353727
 20
-3.100543960687723
 30
0.0
 10
0.7796254113360672
 20
-3.138955419021057
 30
0.0
 10
0.7602230133325949
 20
-3.15624871329189
 30
0.0
 10
0.7195939443221783
 20
-3.15661492422939
 30
0.0
 10
0.7071970259194006
 20
-3.15661492422939
 30
0.0
 10
0.6939117069089839
 20
-3.151135323534945
 30
0.0
 10
0.6791276357284283
 20
-3.13964715079189
 30
0.0
 10
0.6659576053464839
 20
-3.131075102180779
 30
0.0
 10
0.6598269629853727
 20
-3.118366226312723
 30
0.0
 10
0.6598269629853727
 20
-3.099621651659945
 30
0.0
 10
0.6598269629853727
 20
-3.097193808778001
 30
0.0
 10
0.6600032867700949
 20
-3.094671022319668
 30
0.0
 10
0.6604101878117615
 20
-3.091415813986334
 30
0.0
 10
0.6629533193221783
 20
-3.061834108257168
 30
0.0
 10
0.6733903310409283
 20
-3.061834108257168
 30
0.0
 10
0.6773237077770393
 20
-3.061834108257168
 30
0.0
 10
0.6773237077770393
 20
-3.061834108257168
 30
0.0
 10
0.6878488813881506
 20
-3.061834108257168
 30
0.0
 10
0.6878488813881506
 20
-3.061834108257168
 30
0.0
 10
0.6878488813881506
 20
-3.061834108257168
 30
0.0
 10
0.6906971886798172
 20
-3.051702272319668
 30
0.0
 10
0.6906971886798172
 20
-3.051702272319668
 30
0.0
 10
0.6913211036103727
 20
-3.049464316590501
 30
0.0
 10
0.6916398427596783
 20
-3.047280614333557
 30
0.0
 10
0.6916398427596783
 20
-3.045178292284945
 30
0.0
 10
0.6916398427596783
 20
-3.041434802701612
 30
0.0
 10
0.6902699425860672
 20
-3.022744481521057
 30
0.0
 10
0.6628312490096783
 20
-3.022744481521057
 30
0.0
 10
0.6479454525687061
 20
-3.022934368673834
 30
0.0
 10
0.6371286665444006
 20
-3.026542224576612
 30
0.0
 10
0.6298247928464839
 20
-3.033730809646057
 30
0.0
 10
0.6101918175860672
 20
-3.049287992805779
 30
0.0
 10
0.6002363054332893
 20
-3.068195327875223
 30
0.0
 10
0.6003041222735672
 20
-3.08862176016689
 30
0.0
 10
0.5999718197562061
 20
-3.091944785340501
 30
0.0
 10
0.5998090593395393
 20
-3.095186430305779
 30
0.0
 10
0.5998090593395393
 20
-3.098333131694668
 30
0.0
 10
0.5998090593395393
 20
-3.119193591764112
 30
0.0
 10
0.6060956804332893
 20
-3.137924603048834
 30
0.0
 10
0.6187163944089839
 20
-3.154268461555779
 30
0.0
 10
0.6434424143742615
 20
-3.184731786208557
 30
0.0
 10
0.6754383996173172
 20
-3.200180462423834
 30
0.0
 10
0.7138295128985672
 20
-3.200180462423834
 30
0.0
 10
0.7173492069089839
 20
-3.200180462423834
 30
0.0
 10
0.7209570628117615
 20
-3.200031265375223
 30
0.0
 10
0.7234391591659283
 20
-3.199759998014112
 30
0.0
 10
0.7521867177596783
 20
-3.199759998014112
 30
0.0
 10
0.7764990549992615
 20
-3.193927749750223
 30
0.0
 10
0.7956505306937061
 20
-3.182439577007168
 30
0.0
 10
0.8318918501381505
 20
-3.160928075271057
 30
0.0
 10
0.8502634321694005
 20
-3.129827272319668
 30
0.0
 10
0.8502634321694005
 20
-3.090005223708557
 30
0.0
 10
0.8502634321694005
 20
-3.051607328743279
 30
0.0
 10
0.8273549035235671
 20
-3.018566964159945
 30
0.0
 10
0.7813750858152338
 20
-2.991358847840501
 30
0.0
  0
HATCH
  5
86
330
81
100
AcDbEntity
  8
Let It Snow
 62
     1
420
 16711680
440
 33554687
100
AcDbHatch
 10
0.0
 20
0.0
 30
0.0
210
0.0
220
0.0
230
1.0
  2
SOLID
 70
     1
 71
     1
 91
        1
 92
        1
 93
        1
 72
     4
 94
        3
 73
     0
 74
     0
 95
      137
 96
      133
 40
0.0
 40
0.0
 40
0.0
 40
0.0
 40
1.0
 40
1.0
 40
1.0
 40
2.0
 40
2.0
 40
2.0
 40
3.0
 40
3.0
 40
3.0
 40
4.0
 40
4.0
 40
4.0
 40
5.0
 40
5.0
 40
5.0
 40
6.0
 40
6.0
 40
6.0
 40
7.0
 40
7.0
 40
7.0
 40
8.0
 40
8.0
 40
8.0
 40
9.0
 40
9.0
 40
9.0
 40
10.0
 40
10.0
 40
10.0
 40
11.0
 40
11.0
 40
11.0
 40
12.0
 40
12.0
 40
12.0
 40
13.0
 40
13.0
 40
13.0
 40
14.0
 40
14.0
 40
14.0
 40
15.0
 40
15.0
 40
15.0
 40
16.0
 40
16.0
 40
16.0
 40
17.0
 40
17.0
 40
17.0
 40
18.0
 40
18.0
 40
18.0
 40
19.0
 40
19.0
 40
19.0
 40
20.0
 40
20.0
 40
20.0
 40
21.0
 40
21.0
 40
21.0
 40
22.0
 40
22.0
 40
22.0
 40
23.0
 40
23.0
 40
23.0
 40
24.0
 40
24.0
 40
24.0
 40
25.0
 40
25.0
 40
25.0
 40
26.0
 40
26.0
 40
26.0
 40
27.0
 40
27.0
 40
27.0
 40
28.0
 40
28.0
 40
28.0
 40
29.0
 40
29.0
 40
29.0
 40
30.0
 40
30.0
 40
30.0
 40
31.0
 40
31.0
 40
31.0
 40
32.0
 40
32.0
 40
32.0
 40
33.0
 40
33.0
 40
33.0
 40
34.0
 40
34.0
 40
34.0
 40
35.0
 40
35.0
 40
35.0
 40
36.0
 40
36.0
 40
36.0
 40
37.0
 40
37.0
 40
37.0
 40
38.0
 40
38.0
 40
38.0
 40
39.0
 40
39.0
 40
39.0
 40
40.0
 40
40.0
 40
40.0
 40
41.0
 40
41.0
 40
41.0
 40
42.0
 40
42.0
 40
42.0
 40
43.0
 40
43.0
 40
43.0
 40
44.0
 40
44.0
 40
44.0
 40
44.0
 10
0.7813750858152338
 20
-2.991358847840501
 10
0.7405290029159283
 20
-2.970674711555779
 10
0.7239952572562061
 20
-2.95922722891689
 10
0.7173152984888449
 20
-2.953259346972446
 10
0.7173152984888449
 20
-2.953259346972446
 10
0.7145076813013449
 20
-2.951319785340501
 10
0.7145076813013449
 20
-2.951319785340501
 10
0.7075361101207893
 20
-2.947671239333557
 10
0.6995337229680115
 20
-2.941133695930779
 10
0.6995337229680115
 20
-2.922836712423834
 10
0.6995337229680115
 20
-2.918916899055779
 10
0.6999067155895393
 20
-2.914630874750223
 10
0.7005441938881506
 20
-2.910629681173834
 10
0.7035688249645393
 20
-2.895615032736334
 10
0.7099910797388449
 20
-2.885551013639112
 10
0.7201364790444006
 20
-2.879908652528001
 10
0.7273589725339839
 20
-2.875893895583557
 10
0.7343780155027339
 20
-2.873954333951612
 10
0.7415869456242615
 20
-2.873954333951612
 10
0.7450320411103727
 20
-2.873954333951612
 10
0.7486534603812061
 20
-2.874442615201612
 10
0.7535633996173172
 20
-2.875690445062723
 10
0.7564930871173172
 20
-2.876178726312723
 10
0.7725317698430115
 20
-2.882173734993279
 10
0.8006621951902337
 20
-2.951550362597446
 10
0.8006621951902337
 20
-2.951550362597446
 10
0.8041751075166226
 20
-2.960217354784946
 10
0.8041751075166226
 20
-2.960217354784946
 10
0.8041751075166226
 20
-2.960217354784946
 10
0.8187353831242615
 20
-2.960217354784946
 10
0.8187353831242615
 20
-2.960217354784946
 10
0.8187353831242615
 20
-2.960217354784946
 10
0.8342925662839837
 20
-2.952431981521057
 10
0.8342925662839837
 20
-2.952431981521057
 10
0.8342925662839837
 20
-2.952431981521057
 10
0.8330786448430115
 20
-2.942693483257168
 10
0.8330786448430115
 20
-2.942693483257168
 10
0.8289011274819005
 20
-2.908974950271057
 10
0.826778460381206
 20
-2.877589316590501
 10
0.826778460381206
 20
-2.849391074403001
 10
0.826778460381206
 20
-2.844698149055779
 10
0.8268530589055115
 20
-2.839991660340501
 10
0.8269886925860671
 20
-2.835285171625223
 10
0.8269886925860671
 20
-2.835285171625223
 10
0.8274295020478726
 20
-2.820392593500223
 10
0.8274295020478726
 20
-2.820392593500223
 10
0.8274295020478726
 20
-2.820392593500223
 10
0.8011640398082892
 20
-2.821464099576612
 10
0.8011640398082892
 20
-2.821464099576612
 10
0.8011640398082892
 20
-2.821464099576612
 10
0.7906795563013449
 20
-2.833684694194668
 10
0.7906795563013449
 20
-2.833684694194668
 10
0.7747765072562061
 20
-2.831473865201612
 10
0.7616607303464839
 20
-2.830388795757168
 10
0.7507625641138449
 20
-2.830388795757168
 10
0.7465714833846783
 20
-2.830388795757168
 10
0.7427873036971783
 20
-2.830551556173834
 10
0.7407324534367615
 20
-2.83080926016689
 10
0.7145890615096783
 20
-2.83080926016689
 10
0.6883371626381506
 20
-2.841578574403001
 10
0.6617936513534283
 20
-2.86364617422939
 10
0.6453616309541227
 20
-2.879895089159946
 10
0.6362945194089839
 20
-2.90295281485439
 10
0.6348228939749561
 20
-2.932873604784946
 10
0.6348228939749561
 20
-2.957721695062723
 10
0.6455989898950949
 20
-2.982691855653001
 10
0.6668460059541227
 20
-3.007105918153001
 10
0.6668460059541227
 20
-3.007105918153001
 10
0.6684532650687061
 20
-3.008679268847445
 10
0.6684532650687061
 20
-3.008679268847445
 10
0.6819555979680115
 20
-3.019882610861334
 10
0.6949289595131506
 20
-3.028169828743279
 10
0.7070071387666227
 20
-3.033310345236334
 10
0.7137345693221783
 20
-3.036158652528001
 10
0.7275556413707893
 20
-3.04394402579189
 10
0.7549129547388449
 20
-3.064560345236334
 10
0.7726063683673172
 20
-3.078679811382168
 10
0.7823516483152338
 20
-3.091809151659945
 10
0.7823855567353727
 20
-3.100543960687723
 10
0.7796254113360672
 20
-3.138955419021057
 10
0.7602230133325949
 20
-3.15624871329189
 10
0.7195939443221783
 20
-3.15661492422939
 10
0.7071970259194006
 20
-3.15661492422939
 10
0.6939117069089839
 20
-3.151135323534945
 10
0.6791276357284283
 20
-3.13964715079189
 10
0.6659576053464839
 20
-3.131075102180779
 10
0.6598269629853727
 20
-3.118366226312723
 10
0.6598269629853727
 20
-3.099621651659945
 10
0.6598269629853727
 20
-3.097193808778001
 10
0.6600032867700949
 20
-3.094671022319668
 10
0.6604101878117615
 20
-3.091415813986334
 10
0.6629533193221783
 20
-3.061834108257168
 10
0.6733903310409283
 20
-3.061834108257168
 10
0.6773237077770393
 20
-3.061834108257168
 10
0.6773237077770393
 20
-3.061834108257168
 10
0.6878488813881506
 20
-3.061834108257168
 10
0.6878488813881506
 20
-3.061834108257168
 10
0.6878488813881506
 20
-3.061834108257168
 10
0.6906971886798172
 20
-3.051702272319668
 10
0.6906971886798172
 20
-3.051702272319668
 10
0.6913211036103727
 20
-3.049464316590501
 10
0.6916398427596783
 20
-3.047280614333557
 10
0.6916398427596783
 20
-3.045178292284945
 10
0.6916398427596783
 20
-3.041434802701612
 10
0.6902699425860672
 20
-3.022744481521057
 10
0.6628312490096783
 20
-3.022744481521057
 10
0.6479454525687061
 20
-3.022934368673834
 10
0.6371286665444006
 20
-3.026542224576612
 10
0.6298247928464839
 20
-3.033730809646057
 10
0.6101918175860672
 20
-3.049287992805779
 10
0.6002363054332893
 20
-3.068195327875223
 10
0.6003041222735672
 20
-3.08862176016689
 10
0.5999718197562061
 20
-3.091944785340501
 10
0.5998090593395393
 20
-3.095186430305779
 10
0.5998090593395393
 20
-3.098333131694668
 10
0.5998090593395393
 20
-3.119193591764112
 10
0.6060956804332893
 20
-3.137924603048834
 10
0.6187163944089839
 20
-3.154268461555779
 10
0.6434424143742615
 20
-3.184731786208557
 10
0.6754383996173172
 20
-3.200180462423834
 10
0.7138295128985672
 20
-3.200180462423834
 10
0.7173492069089839
 20
-3.200180462423834
 10
0.7209570628117615
 20
-3.200031265375223
 10
0.7234391591659283
 20
-3.199759998014112
 10
0.7521867177596783
 20
-3.199759998014112
 10
0.7764990549992615
 20
-3.193927749750223
 10
0.7956505306937061
 20
-3.182439577007168
 10
0.8318918501381505
 20
-3.160928075271057
 10
0.8502634321694005
 20
-3.129827272319668
 10
0.8502634321694005
 20
-3.090005223708557
 10
0.8502634321694005
 20
-3.051607328743279
 10
0.8273549035235671
 20
-3.018566964159945
 10
0.7813750858152338
 20
-2.991358847840501
 97
        0
 97
        1
330
85
 75
     2
 76
     1
 98
        1
 10
0.0
 20
0.0
450
        0
451
        0
460
0.0
461
0.0
452
        0
462
0.0
453
        0
470

  0
SPLINE
  5
87
330
81
100
AcDbEntity
  8
Let It Snow
100
AcDbSpline
210
0.0
220
0.0
230
1.0
 70
     9
 71
     3
 72
   146
 73
   142
 74
     0
 42
0.0000000001
 43
0.0000000001
 40
0.0
 40
0.0
 40
0.0
 40
0.0
 40
1.0
 40
1.0
 40
1.0
 40
2.0
 40
2.0
 40
2.0
 40
3.0
 40
3.0
 40
3.0
 40
4.0
 40
4.0
 40
4.0
 40
5.0
 40
5.0
 40
5.0
 40
6.0
 40
6.0
 40
6.0
 40
7.0
 40
7.0
 40
7.0
 40
8.0
 40
8.0
 40
8.0
 40
9.0
 40
9.0
 40
9.0
 40
10.0
 40
10.0
 40
10.0
 40
11.0
 40
11.0
 40
11.0
 40
12.0
 40
12.0
 40
12.0
 40
13.0
 40
13.0
 40
13.0
 40
14.0
 40
14.0
 40
14.0
 40
15.0
 40
15.0
 40
15.0
 40
16.0
 40
16.0
 40
16.0
 40
17.0
 40
17.0
 40
17.0
 40
18.0
 40
18.0
 40
18.0
 40
19.0
 40
19.0
 40
19.0
 40
20.0
 40
20.0
 40
20.0
 40
21.0
 40
21.0
 40
21.0
 40
22.0
 40
22.0
 40
22.0
 40
23.0
 40
23.0
 40
23.0
 40
24.0
 40
24.0
 40
24.0
 40
25.0
 40
25.0
 40
25.0
 40
26.0
 40
26.0
 40
26.0
 40
27.0
 40
27.0
 40
27.0
 40
28.0
 40
28.0
 40
28.0
 40
29.0
 40
29.0
 40
29.0
 40
30.0
 40
30.0
 40
30.0
 40
31.0
 40
31.0
 40
31.0
 40
32.0
 40
32.0
 40
32.0
 40
33.0
 40
33.0
 40
33.0
 40
34.0
 40
34.0
 40
34.0
 40
35.0
 40
35.0
 40
35.0
 40
36.0
 40
36.0
 40
36.0
 40
37.0
 40
37.0
 40
37.0
 40
38.0
 40
38.0
 40
38.0
 40
39.0
 40
39.0
 40
39.0
 40
40.0
 40
40.0
 40
40.0
 40
41.0
 40
41.0
 40
41.0
 40
42.0
 40
42.0
 40
42.0
 40
43.0
 40
43.0
 40
43.0
 40
44.0
 40
44.0
 40
44.0
 40
45.0
 40
45.0
 40
45.0
 40
46.0
 40
46.0
 40
46.0
 40
47.0
 40
47.0
 40
47.0
 40
47.0
 10
1.153214821058276
 20
-2.85302605704189
 30
0.0
 10
1.153214821058276
 20
-2.85302605704189
 30
0.0
 10
1.153119877481887
 20
-2.851357762771057
 30
0.0
 10
1.153119877481887
 20
-2.851357762771057
 30
0.0
 10
1.152401018974943
 20
-2.845430570930779
 30
0.0
 10
1.151817794148554
 20
-2.842080419021057
 30
0.0
 10
1.151126062377721
 20
-2.839788209819668
 30
0.0
 10
1.151126062377721
 20
-2.839788209819668
 30
0.0
 10
1.147911544148554
 20
-2.829276599576612
 30
0.0
 10
1.147911544148554
 20
-2.829276599576612
 30
0.0
 10
1.147911544148554
 20
-2.829276599576612
 30
0.0
 10
1.136938779391609
 20
-2.829981894715501
 30
0.0
 10
1.136938779391609
 20
-2.829981894715501
 30
0.0
 10
1.117326149183276
 20
-2.831243287944668
 30
0.0
 10
1.103111739461054
 20
-2.831880766243279
 30
0.0
 10
1.09470245126661
 20
-2.831880766243279
 30
0.0
 10
1.085832008558276
 20
-2.831880766243279
 30
0.0
 10
1.070600346231887
 20
-2.831243287944668
 30
0.0
 10
1.049414365329135
 20
-2.829981894715501
 30
0.0
 10
1.049414365329135
 20
-2.829981894715501
 30
0.0
 10
1.040238746839539
 20
-2.829439359993279
 30
0.0
 10
1.040238746839539
 20
-2.829439359993279
 30
0.0
 10
1.040238746839539
 20
-2.829439359993279
 30
0.0
 10
1.036149391370789
 20
-2.837672324403001
 30
0.0
 10
1.036149391370789
 20
-2.837672324403001
 30
0.0
 10
1.034196266370789
 20
-2.841592137771057
 30
0.0
 10
1.033206140502733
 20
-2.845539077875223
 30
0.0
 10
1.033206140502733
 20
-2.849391074403001
 30
0.0
 10
1.033206140502733
 20
-2.849391074403001
 30
0.0
 10
1.034114886162456
 20
-2.859821304437723
 30
0.0
 10
1.034114886162456
 20
-2.859821304437723
 30
0.0
 10
1.035308462551344
 20
-2.874971586555779
 30
0.0
 10
1.055070289808301
 20
-2.878823583083557
 30
0.0
 10
1.066205814981887
 20
-2.880966595236334
 30
0.0
 10
1.068606531127721
 20
-2.881604073534946
 30
0.0
 10
1.068864235120776
 20
-2.887775406000223
 30
0.0
 10
1.068864235120776
 20
-2.890393136034946
 30
0.0
 10
1.068864235120776
 20
-2.890393136034946
 30
0.0
 10
1.068864235120776
 20
-3.032442289680779
 30
0.0
 10
1.068864235120776
 20
-3.032442289680779
 30
0.0
 10
1.068864235120776
 20
-3.032442289680779
 30
0.0
 10
0.9606692481416226
 20
-2.86132683829189
 30
0.0
 10
0.9606692481416226
 20
-2.86132683829189
 30
0.0
 10
0.957027483818706
 20
-2.854043309646057
 30
0.0
 10
0.9459462121173171
 20
-2.831880766243279
 30
0.0
 10
0.9256147234020392
 20
-2.831880766243279
 30
0.0
 10
0.9170087663707892
 20
-2.831880766243279
 30
0.0
 10
0.8942629981416226
 20
-2.831229724576612
 30
0.0
 10
0.8580013336450949
 20
-2.829968331347446
 30
0.0
 10
0.8580013336450949
 20
-2.829968331347446
 30
0.0
 10
0.8556819977075949
 20
-2.829886951139112
 30
0.0
 10
0.8556819977075949
 20
-2.829886951139112
 30
0.0
 10
0.8556819977075949
 20
-2.829886951139112
 30
0.0
 10
0.8534643870305115
 20
-2.830551556173834
 30
0.0
 10
0.8534643870305115
 20
-2.830551556173834
 30
0.0
 10
0.8479983497041226
 20
-2.832219850444668
 30
0.0
 10
0.841487933037456
 20
-2.837143353048834
 30
0.0
 10
0.841487933037456
 20
-2.851100058778001
 30
0.0
 10
0.841487933037456
 20
-2.851100058778001
 30
0.0
 10
0.841487933037456
 20
-2.85473504141689
 30
0.0
 10
0.841487933037456
 20
-2.85473504141689
 30
0.0
 10
0.841487933037456
 20
-2.861231894715501
 30
0.0
 10
0.8443294586450949
 20
-2.876368613465501
 30
0.0
 10
0.8701405480548171
 20
-2.87927117422939
 30
0.0
 10
0.8711238922388449
 20
-2.879705202007168
 30
0.0
 10
0.871578265068706
 20
-2.880098539680779
 30
0.0
 10
0.8715918284367615
 20
-2.880356243673834
 30
0.0
 10
0.8715918284367615
 20
-2.880356243673834
 30
0.0
 10
0.8715918284367615
 20
-3.151067506694668
 30
0.0
 10
0.8715918284367615
 20
-3.151067506694668
 30
0.0
 10
0.8715918284367615
 20
-3.151691421625223
 30
0.0
 10
0.8715918284367615
 20
-3.152681547493279
 30
0.0
 10
0.8690826053464837
 20
-3.154092137771057
 30
0.0
 10
0.8456451053464837
 20
-3.15795769766689
 30
0.0
 10
0.840633440849956
 20
-3.169364490201612
 30
0.0
 10
0.840633440849956
 20
-3.178397693326612
 30
0.0
 10
0.840633440849956
 20
-3.178397693326612
 30
0.0
 10
0.840633440849956
 20
-3.191377836555779
 30
0.0
 10
0.840633440849956
 20
-3.191377836555779
 30
0.0
 10
0.840633440849956
 20
-3.191377836555779
 30
0.0
 10
0.8468047733152337
 20
-3.205280288812723
 30
0.0
 10
0.8468047733152337
 20
-3.205280288812723
 30
0.0
 10
0.8468047733152337
 20
-3.205280288812723
 30
0.0
 10
0.8569027008325949
 20
-3.204168092632168
 30
0.0
 10
0.8569027008325949
 20
-3.204168092632168
 30
0.0
 10
0.868099261162456
 20
-3.202933826139112
 30
0.0
 10
0.8826798818221782
 20
-3.20202508047939
 30
0.0
 10
0.8997832889402337
 20
-3.201468982389112
 30
0.0
 10
0.9019263010930115
 20
-3.201468982389112
 30
0.0
 10
0.9101253570825949
 20
-3.201821629958557
 30
0.0
 10
0.9409888010930115
 20
-3.204208782736334
 30
0.0
 10
0.9409888010930115
 20
-3.204208782736334
 30
0.0
 10
0.9434302073430115
 20
-3.204398669889112
 30
0.0
 10
0.9434302073430115
 20
-3.204398669889112
 30
0.0
 10
0.9434302073430115
 20
-3.204398669889112
 30
0.0
 10
0.9457834517006505
 20
-3.203747628222445
 30
0.0
 10
0.9457834517006505
 20
-3.203747628222445
 30
0.0
 10
0.9504560319957892
 20
-3.202445544889112
 30
0.0
 10
0.9582956587319005
 20
-3.19799676016689
 30
0.0
 10
0.9582956587319005
 20
-3.182887168153001
 30
0.0
 10
0.9582956587319005
 20
-3.182887168153001
 30
0.0
 10
0.9582956587319005
 20
-3.179252185514112
 30
0.0
 10
0.9582956587319005
 20
-3.179252185514112
 30
0.0
 10
0.9582956587319005
 20
-3.176715835687723
 30
0.0
 10
0.9578684126381505
 20
-3.174247302701612
 30
0.0
 10
0.957027483818706
 20
-3.17187371329189
 30
0.0
 10
0.9542741201034282
 20
-3.159965076139112
 30
0.0
 10
0.9383778527423171
 20
-3.155936755826612
 30
0.0
 10
0.9275339399819005
 20
-3.153183392111334
 30
0.0
 10
0.9275339399819005
 20
-3.153183392111334
 30
0.0
 10
0.9267472646346782
 20
-3.152993504958557
 30
0.0
 10
0.9267472646346782
 20
-3.152993504958557
 30
0.0
 10
0.9263403635930115
 20
-3.15148797110439
 30
0.0
 10
0.9258453006589837
 20
-3.148653227180779
 30
0.0
 10
0.9258453006589837
 20
-3.143811104784945
 30
0.0
 10
0.9258453006589837
 20
-3.143811104784945
 30
0.0
 10
0.9258453006589837
 20
-2.963174169021057
 30
0.0
 10
0.9258453006589837
 20
-2.963174169021057
 30
0.0
 10
1.079579295884665
 20
-3.208711820930779
 30
0.0
 10
1.086293163072165
 20
-3.208725384298834
 30
0.0
 10
1.097062477308276
 20
-3.208725384298834
 30
0.0
 10
1.097062477308276
 20
-3.208725384298834
 30
0.0
 10
1.098269617065221
 20
-3.208725384298834
 30
0.0
 10
1.098269617065221
 20
-3.208725384298834
 30
0.0
 10
1.098269617065221
 20
-3.208725384298834
 30
0.0
 10
1.099449630086054
 20
-3.208521933778001
 30
0.0
 10
1.099449630086054
 20
-3.208521933778001
 30
0.0
 10
1.101918163072165
 20
-3.208087906000223
 30
0.0
 10
1.104400259426332
 20
-3.207870892111334
 30
0.0
 10
1.10751983407911
 20
-3.207870892111334
 30
0.0
 10
1.116281769842998
 20
-3.207870892111334
 30
0.0
 10
1.122900693454109
 20
-3.201075644715501
 30
0.0
 10
1.122900693454109
 20
-3.192056004958557
 30
0.0
 10
1.122900693454109
 20
-3.192056004958557
 30
0.0
 10
1.122900693454109
 20
-2.883123170757168
 30
0.0
 10
1.122900693454109
 20
-2.883123170757168
 30
0.0
 10
1.122900693454109
 20
-2.881793960687723
 30
0.0
 10
1.122900693454109
 20
-2.880708891243279
 30
0.0
 10
1.125572676961054
 20
-2.879433934646057
 30
0.0
 10
1.145877038940221
 20
-2.878308175097446
 30
0.0
 10
1.153214821058276
 20
-2.865273778396057
 30
0.0
 10
1.153214821058276
 20
-2.85302605704189
 30
0.0
  0
HATCH
  5
88
330
81
100
AcDbEntity
  8
Let It Snow
 62
     1
420
 16711680
440
 33554687
100
AcDbHatch
 10
0.0
 20
0.0
 30
0.0
210
0.0
220
0.0
230
1.0
  2
SOLID
 70
     1
 71
     1
 91
        1
 92
        1
 93
        1
 72
     4
 94
        3
 73
     0
 74
     0
 95
      146
 96
      142
 40
0.0
 40
0.0
 40
0.0
 40
0.0
 40
1.0
 40
1.0
 40
1.0
 40
2.0
 40
2.0
 40
2.0
 40
3.0
 40
3.0
 40
3.0
 40
4.0
 40
4.0
 40
4.0
 40
5.0
 40
5.0
 40
5.0
 40
6.0
 40
6.0
 40
6.0
 40
7.0
 40
7.0
 40
7.0
 40
8.0
 40
8.0
 40
8.0
 40
9.0
 40
9.0
 40
9.0
 40
10.0
 40
10.0
 40
10.0
 40
11.0
 40
11.0
 40
11.0
 40
12.0
 40
12.0
 40
12.0
 40
13.0
 40
13.0
 40
13.0
 40
14.0
 40
14.0
 40
14.0
 40
15.0
 40
15.0
 40
15.0
 40
16.0
 40
16.0
 40
16.0
 40
17.0
 40
17.0
 40
17.0
 40
18.0
 40
18.0
 40
18.0
 40
19.0
 40
19.0
 40
19.0
 40
20.0
 40
20.0
 40
20.0
 40
21.0
 40
21.0
 40
21.0
 40
22.0
 40
22.0
 40
22.0
 40
23.0
 40
23.0
 40
23.0
 40
24.0
 40
24.0
 40
24.0
 40
25.0
 40
25.0
 40
25.0
 40
26.0
 40
26.0
 40
26.0
 40
27.0
 40
27.0
 40
27.0
 40
28.0
 40
28.0
 40
28.0
 40
29.0
 40
29.0
 40
29.0
 40
30.0
 40
30.0
 40
30.0
 40
31.0
 40
31.0
 40
31.0
 40
32.0
 40
32.0
 40
32.0
 40
33.0
 40
33.0
 40
33.0
 40
34.0
 40
34.0
 40
34.0
 40
35.0
 40
35.0
 40
35.0
 40
36.0
 40
36.0
 40
36.0
 40
37.0
 40
37.0
 40
37.0
 40
38.0
 40
38.0
 40
38.0
 40
39.0
 40
39.0
 40
39.0
 40
40.0
 40
40.0
 40
40.0
 40
41.0
 40
41.0
 40
41.0
 40
42.0
 40
42.0
 40
42.0
 40
43.0
 40
43.0
 40
43.0
 40
44.0
 40
44.0
 40
44.0
 40
45.0
 40
45.0
 40
45.0
 40
46.0
 40
46.0
 40
46.0
 40
47.0
 40
47.0
 40
47.0
 40
47.0
 10
1.153214821058276
 20
-2.85302605704189
 10
1.153214821058276
 20
-2.85302605704189
 10
1.153119877481887
 20
-2.851357762771057
 10
1.153119877481887
 20
-2.851357762771057
 10
1.152401018974943
 20
-2.845430570930779
 10
1.151817794148554
 20
-2.842080419021057
 10
1.151126062377721
 20
-2.839788209819668
 10
1.151126062377721
 20
-2.839788209819668
 10
1.147911544148554
 20
-2.829276599576612
 10
1.147911544148554
 20
-2.829276599576612
 10
1.147911544148554
 20
-2.829276599576612
 10
1.136938779391609
 20
-2.829981894715501
 10
1.136938779391609
 20
-2.829981894715501
 10
1.117326149183276
 20
-2.831243287944668
 10
1.103111739461054
 20
-2.831880766243279
 10
1.09470245126661
 20
-2.831880766243279
 10
1.085832008558276
 20
-2.831880766243279
 10
1.070600346231887
 20
-2.831243287944668
 10
1.049414365329135
 20
-2.829981894715501
 10
1.049414365329135
 20
-2.829981894715501
 10
1.040238746839539
 20
-2.829439359993279
 10
1.040238746839539
 20
-2.829439359993279
 10
1.040238746839539
 20
-2.829439359993279
 10
1.036149391370789
 20
-2.837672324403001
 10
1.036149391370789
 20
-2.837672324403001
 10
1.034196266370789
 20
-2.841592137771057
 10
1.033206140502733
 20
-2.845539077875223
 10
1.033206140502733
 20
-2.849391074403001
 10
1.033206140502733
 20
-2.849391074403001
 10
1.034114886162456
 20
-2.859821304437723
 10
1.034114886162456
 20
-2.859821304437723
 10
1.035308462551344
 20
-2.874971586555779
 10
1.055070289808301
 20
-2.878823583083557
 10
1.066205814981887
 20
-2.880966595236334
 10
1.068606531127721
 20
-2.881604073534946
 10
1.068864235120776
 20
-2.887775406000223
 10
1.068864235120776
 20
-2.890393136034946
 10
1.068864235120776
 20
-2.890393136034946
 10
1.068864235120776
 20
-3.032442289680779
 10
1.068864235120776
 20
-3.032442289680779
 10
1.068864235120776
 20
-3.032442289680779
 10
0.9606692481416226
 20
-2.86132683829189
 10
0.9606692481416226
 20
-2.86132683829189
 10
0.957027483818706
 20
-2.854043309646057
 10
0.9459462121173171
 20
-2.831880766243279
 10
0.9256147234020392
 20
-2.831880766243279
 10
0.9170087663707892
 20
-2.831880766243279
 10
0.8942629981416226
 20
-2.831229724576612
 10
0.8580013336450949
 20
-2.829968331347446
 10
0.8580013336450949
 20
-2.829968331347446
 10
0.8556819977075949
 20
-2.829886951139112
 10
0.8556819977075949
 20
-2.829886951139112
 10
0.8556819977075949
 20
-2.829886951139112
 10
0.8534643870305115
 20
-2.830551556173834
 10
0.8534643870305115
 20
-2.830551556173834
 10
0.8479983497041226
 20
-2.832219850444668
 10
0.841487933037456
 20
-2.837143353048834
 10
0.841487933037456
 20
-2.851100058778001
 10
0.841487933037456
 20
-2.851100058778001
 10
0.841487933037456
 20
-2.85473504141689
 10
0.841487933037456
 20
-2.85473504141689
 10
0.841487933037456
 20
-2.861231894715501
 10
0.8443294586450949
 20
-2.876368613465501
 10
0.8701405480548171
 20
-2.87927117422939
 10
0.8711238922388449
 20
-2.879705202007168
 10
0.871578265068706
 20
-2.880098539680779
 10
0.8715918284367615
 20
-2.880356243673834
 10
0.8715918284367615
 20
-2.880356243673834
 10
0.8715918284367615
 20
-3.151067506694668
 10
0.8715918284367615
 20
-3.151067506694668
 10
0.8715918284367615
 20
-3.151691421625223
 10
0.8715918284367615
 20
-3.152681547493279
 10
0.8690826053464837
 20
-3.154092137771057
 10
0.8456451053464837
 20
-3.15795769766689
 10
0.840633440849956
 20
-3.169364490201612
 10
0.840633440849956
 20
-3.178397693326612
 10
0.840633440849956
 20
-3.178397693326612
 10
0.840633440849956
 20
-3.191377836555779
 10
0.840633440849956
 20
-3.191377836555779
 10
0.840633440849956
 20
-3.191377836555779
 10
0.8468047733152337
 20
-3.205280288812723
 10
0.8468047733152337
 20
-3.205280288812723
 10
0.8468047733152337
 20
-3.205280288812723
 10
0.8569027008325949
 20
-3.204168092632168
 10
0.8569027008325949
 20
-3.204168092632168
 10
0.868099261162456
 20
-3.202933826139112
 10
0.8826798818221782
 20
-3.20202508047939
 10
0.8997832889402337
 20
-3.201468982389112
 10
0.9019263010930115
 20
-3.201468982389112
 10
0.9101253570825949
 20
-3.201821629958557
 10
0.9409888010930115
 20
-3.204208782736334
 10
0.9409888010930115
 20
-3.204208782736334
 10
0.9434302073430115
 20
-3.204398669889112
 10
0.9434302073430115
 20
-3.204398669889112
 10
0.9434302073430115
 20
-3.204398669889112
 10
0.9457834517006505
 20
-3.203747628222445
 10
0.9457834517006505
 20
-3.203747628222445
 10
0.9504560319957892
 20
-3.202445544889112
 10
0.9582956587319005
 20
-3.19799676016689
 10
0.9582956587319005
 20
-3.182887168153001
 10
0.9582956587319005
 20
-3.182887168153001
 10
0.9582956587319005
 20
-3.179252185514112
 10
0.9582956587319005
 20
-3.179252185514112
 10
0.9582956587319005
 20
-3.176715835687723
 10
0.9578684126381505
 20
-3.174247302701612
 10
0.957027483818706
 20
-3.17187371329189
 10
0.9542741201034282
 20
-3.159965076139112
 10
0.9383778527423171
 20
-3.155936755826612
 10
0.9275339399819005
 20
-3.153183392111334
 10
0.9275339399819005
 20
-3.153183392111334
 10
0.9267472646346782
 20
-3.152993504958557
 10
0.9267472646346782
 20
-3.152993504958557
 10
0.9263403635930115
 20
-3.15148797110439
 10
0.9258453006589837
 20
-3.148653227180779
 10
0.9258453006589837
 20
-3.143811104784945
 10
0.9258453006589837
 20
-3.143811104784945
 10
0.9258453006589837
 20
-2.963174169021057
 10
0.9258453006589837
 20
-2.963174169021057
 10
1.079579295884665
 20
-3.208711820930779
 10
1.086293163072165
 20
-3.208725384298834
 10
1.097062477308276
 20
-3.208725384298834
 10
1.097062477308276
 20
-3.208725384298834
 10
1.098269617065221
 20
-3.208725384298834
 10
1.098269617065221
 20
-3.208725384298834
 10
1.098269617065221
 20
-3.208725384298834
 10
1.099449630086054
 20
-3.208521933778001
 10
1.099449630086054
 20
-3.208521933778001
 10
1.101918163072165
 20
-3.208087906000223
 10
1.104400259426332
 20
-3.207870892111334
 10
1.10751983407911
 20
-3.207870892111334
 10
1.116281769842998
 20
-3.207870892111334
 10
1.122900693454109
 20
-3.201075644715501
 10
1.122900693454109
 20
-3.192056004958557
 10
1.122900693454109
 20
-3.192056004958557
 10
1.122900693454109
 20
-2.883123170757168
 10
1.122900693454109
 20
-2.883123170757168
 10
1.122900693454109
 20
-2.881793960687723
 10
1.122900693454109
 20
-2.880708891243279
 10
1.125572676961054
 20
-2.879433934646057
 10
1.145877038940221
 20
-2.878308175097446
 10
1.153214821058276
 20
-2.865273778396057
 10
1.153214821058276
 20
-2.85302605704189
 97
        0
 97
        1
330
87
 75
     2
 76
     1
 98
        1
 10
0.0
 20
0.0
450
        0
451
        0
460
0.0
461
0.0
452
        0
462
0.0
453
        0
470

  0
SPLINE
  5
89
330
81
100
AcDbEntity
  8
Let It Snow
100
AcDbSpline
210
0.0
220
0.0
230
1.0
 70
     9
 71
     3
 72
    68
 73
    64
 74
     0
 42
0.0000000001
 43
0.0000000001
 40
0.0
 40
0.0
 40
0.0
 40
0.0
 40
1.0
 40
1.0
 40
1.0
 40
2.0
 40
2.0
 40
2.0
 40
3.0
 40
3.0
 40
3.0
 40
4.0
 40
4.0
 40
4.0
 40
5.0
 40
5.0
 40
5.0
 40
6.0
 40
6.0
 40
6.0
 40
7.0
 40
7.0
 40
7.0
 40
8.0
 40
8.0
 40
8.0
 40
9.0
 40
9.0
 40
9.0
 40
10.0
 40
10.0
 40
10.0
 40
11.0
 40
11.0
 40
11.0
 40
12.0
 40
12.0
 40
12.0
 40
13.0
 40
13.0
 40
13.0
 40
14.0
 40
14.0
 40
14.0
 40
15.0
 40
15.0
 40
15.0
 40
16.0
 40
16.0
 40
16.0
 40
17.0
 40
17.0
 40
17.0
 40
18.0
 40
18.0
 40
18.0
 40
19.0
 40
19.0
 40
19.0
 40
20.0
 40
20.0
 40
20.0
 40
21.0
 40
21.0
 40
21.0
 40
21.0
 10
1.263267989461054
 20
-3.12866082266689
 30
0.0
 10
1.256771136162443
 20
-3.120753379090501
 30
0.0
 10
1.249365537204109
 20
-3.110092571798834
 30
0.0
 10
1.241227516370776
 20
-3.096908978048834
 30
0.0
 10
1.230173371405498
 20
-3.069985692458557
 30
0.0
 10
1.224558137030498
 20
-3.04626336172939
 30
0.0
 10
1.224558137030498
 20
-3.026393027528001
 30
0.0
 10
1.224558137030498
 20
-3.020167441590501
 30
0.0
 10
1.227365754217998
 20
-3.014009672493279
 30
0.0
 10
1.233143749009665
 20
-3.007621326139112
 30
0.0
 10
1.233143749009665
 20
-3.007621326139112
 30
0.0
 10
1.261911652655498
 20
-2.991928509298834
 30
0.0
 10
1.261911652655498
 20
-2.991928509298834
 30
0.0
 10
1.261911652655498
 20
-2.991928509298834
 30
0.0
 10
1.261911652655498
 20
-2.983681981521057
 30
0.0
 10
1.261911652655498
 20
-2.983681981521057
 30
0.0
 10
1.261911652655498
 20
-2.96874871329189
 30
0.0
 10
1.243940189981887
 20
-2.964313491937723
 30
0.0
 10
1.233198002481887
 20
-2.96166863516689
 30
0.0
 10
1.233198002481887
 20
-2.96166863516689
 30
0.0
 10
1.232112933037443
 20
-2.961397367805779
 30
0.0
 10
1.232112933037443
 20
-2.961397367805779
 30
0.0
 10
1.236955055433276
 20
-2.94702019766689
 30
0.0
 10
1.244211457342998
 20
-2.932019112597446
 30
0.0
 10
1.253732941717998
 20
-2.916651816590501
 30
0.0
 10
1.267377689981887
 20
-2.902315336555779
 30
0.0
 10
1.272857290676332
 20
-2.897188383430779
 30
0.0
 10
1.274986739461054
 20
-2.895370892111334
 30
0.0
 10
1.274986739461054
 20
-2.895370892111334
 30
0.0
 10
1.276749977308276
 20
-2.894258695930779
 30
0.0
 10
1.276749977308276
 20
-2.894258695930779
 30
0.0
 10
1.292646244669387
 20
-2.884330310514112
 30
0.0
 10
1.306250302829109
 20
-2.879298300965501
 30
0.0
 10
1.316911110120776
 20
-2.879298300965501
 30
0.0
 10
1.317711348836054
 20
-2.879338991069668
 30
0.0
 10
1.321739669148554
 20
-2.879745892111334
 30
0.0
 10
1.340104469495776
 20
-2.883109607389112
 30
0.0
 10
1.361507464287443
 20
-2.891491768847446
 30
0.0
 10
1.378054773315221
 20
-2.905841812250223
 30
0.0
 10
1.390370311509665
 20
-2.926431004958557
 30
0.0
 10
1.406280142238832
 20
-2.955985583951612
 30
0.0
 10
1.414336782863832
 20
-2.984590727180779
 30
0.0
 10
1.414336782863832
 20
-3.011446195930779
 30
0.0
 10
1.414336782863832
 20
-3.011446195930779
 30
0.0
 10
1.414336782863832
 20
-3.022120566590501
 30
0.0
 10
1.414336782863832
 20
-3.022120566590501
 30
0.0
 10
1.414336782863832
 20
-3.044405180305779
 30
0.0
 10
1.408626604912443
 20
-3.068751425965501
 30
0.0
 10
1.397938670884665
 20
-3.093301122146057
 30
0.0
 10
1.392092859252721
 20
-3.103812732389112
 30
0.0
 10
1.389230988592998
 20
-3.109387276659945
 30
0.0
 10
1.387847525051332
 20
-3.112968005826612
 30
0.0
 10
1.367068445190221
 20
-3.140894980653001
 30
0.0
 10
1.344973718627721
 20
-3.154471912076612
 30
0.0
 10
1.319338953002721
 20
-3.154471912076612
 30
0.0
 10
1.309532637898554
 20
-3.154471912076612
 30
0.0
 10
1.299875519842998
 20
-3.152491660340501
 30
0.0
 10
1.290625302829109
 20
-3.148571846972445
 30
0.0
 10
1.286325715155498
 20
-3.145859173361334
 30
0.0
 10
1.283084070190221
 20
-3.144095935514112
 30
0.0
 10
1.280317143106887
 20
-3.143024429437723
 30
0.0
 10
1.280317143106887
 20
-3.143024429437723
 30
0.0
 10
1.263267989461054
 20
-3.12866082266689
 30
0.0
 10
1.263267989461054
 20
-3.12866082266689
 30
0.0
  0
SPLINE
  5
8A
330
81
100
AcDbEntity
  8
Let It Snow
100
AcDbSpline
210
0.0
220
0.0
230
1.0
 70
     9
 71
     3
 72
    62
 73
    58
 74
     0
 42
0.0000000001
 43
0.0000000001
 40
0.0
 40
0.0
 40
0.0
 40
0.0
 40
1.0
 40
1.0
 40
1.0
 40
2.0
 40
2.0
 40
2.0
 40
3.0
 40
3.0
 40
3.0
 40
4.0
 40
4.0
 40
4.0
 40
5.0
 40
5.0
 40
5.0
 40
6.0
 40
6.0
 40
6.0
 40
7.0
 40
7.0
 40
7.0
 40
8.0
 40
8.0
 40
8.0
 40
9.0
 40
9.0
 40
9.0
 40
10.0
 40
10.0
 40
10.0
 40
11.0
 40
11.0
 40
11.0
 40
12.0
 40
12.0
 40
12.0
 40
13.0
 40
13.0
 40
13.0
 40
14.0
 40
14.0
 40
14.0
 40
15.0
 40
15.0
 40
15.0
 40
16.0
 40
16.0
 40
16.0
 40
17.0
 40
17.0
 40
17.0
 40
18.0
 40
18.0
 40
18.0
 40
19.0
 40
19.0
 40
19.0
 40
19.0
 10
1.388403623141609
 20
-2.844386191590501
 30
0.0
 10
1.374487607516609
 20
-2.837590944194668
 30
0.0
 10
1.352650584947165
 20
-2.832965835687723
 30
0.0
 10
1.321631162204109
 20
-2.830226035340501
 30
0.0
 10
1.321631162204109
 20
-2.830226035340501
 30
0.0
 10
1.320410459079109
 20
-2.830171781868279
 30
0.0
 10
1.320410459079109
 20
-2.830171781868279
 30
0.0
 10
1.304229360988832
 20
-2.830171781868279
 30
0.0
 10
1.285077885294387
 20
-2.833888144715501
 30
0.0
 10
1.261206357516609
 20
-2.841768461555779
 30
0.0
 10
1.225073545016609
 20
-2.85558953360439
 30
0.0
 10
1.195871613592998
 20
-2.879718765375223
 30
0.0
 10
1.174210914808276
 20
-2.913762819194668
 30
0.0
 10
1.155181509426332
 20
-2.945419720236334
 30
0.0
 10
1.145537954738832
 20
-2.97900261954189
 30
0.0
 10
1.145537954738832
 20
-3.013575644715501
 30
0.0
 10
1.145537954738832
 20
-3.013575644715501
 30
0.0
 10
1.145673588419387
 20
-3.015474516243279
 30
0.0
 10
1.145673588419387
 20
-3.015474516243279
 30
0.0
 10
1.146297503349943
 20
-3.02001824454189
 30
0.0
 10
1.146609460815221
 20
-3.025836929437723
 30
0.0
 10
1.146609460815221
 20
-3.032794937250223
 30
0.0
 10
1.146609460815221
 20
-3.032794937250223
 30
0.0
 10
1.146609460815221
 20
-3.038125340896057
 30
0.0
 10
1.146609460815221
 20
-3.038125340896057
 30
0.0
 10
1.146609460815221
 20
-3.038125340896057
 30
0.0
 10
1.147029925224943
 20
-3.041516182909945
 30
0.0
 10
1.147029925224943
 20
-3.041516182909945
 30
0.0
 10
1.151492273315221
 20
-3.059216378222445
 30
0.0
 10
1.151912737724943
 20
-3.063312515375223
 30
0.0
 10
1.151939864461054
 20
-3.063746543153001
 30
0.0
 10
1.151939864461054
 20
-3.063746543153001
 30
0.0
 10
1.152536652655498
 20
-3.067761300097445
 30
0.0
 10
1.152536652655498
 20
-3.067761300097445
 30
0.0
 10
1.160457659599943
 20
-3.093965727180779
 30
0.0
 10
1.175011153523554
 20
-3.119695436382168
 30
0.0
 10
1.195803796752721
 20
-3.144245132562723
 30
0.0
 10
1.195803796752721
 20
-3.144245132562723
 30
0.0
 10
1.196956683037443
 20
-3.145452272319668
 30
0.0
 10
1.196956683037443
 20
-3.145452272319668
 30
0.0
 10
1.234581466023554
 20
-3.180350818326612
 30
0.0
 10
1.273250628349943
 20
-3.198051013639112
 30
0.0
 10
1.311865537204109
 20
-3.198051013639112
 30
0.0
 10
1.311865537204109
 20
-3.198051013639112
 30
0.0
 10
1.325740862724943
 20
-3.198051013639112
 30
0.0
 10
1.325740862724943
 20
-3.198051013639112
 30
0.0
 10
1.369726865329109
 20
-3.198051013639112
 30
0.0
 10
1.410077885294387
 20
-3.179469199403001
 30
0.0
 10
1.446156444322165
 20
-3.142278444194668
 30
0.0
 10
1.478884851440221
 20
-3.104829984993279
 30
0.0
 10
1.495486413940221
 20
-3.06152215079189
 30
0.0
 10
1.495486413940221
 20
-3.013575644715501
 30
0.0
 10
1.495486413940221
 20
-2.991168960687723
 30
0.0
 10
1.490861305433276
 20
-2.967934911208557
 30
0.0
 10
1.481800975572165
 20
-2.944673734993279
 30
0.0
 10
1.465063779391609
 20
-2.899833240201612
 30
0.0
 10
1.433610328870776
 20
-2.866074017111334
 30
0.0
 10
1.388403623141609
 20
-2.844386191590501
 30
0.0
  0
HATCH
  5
8B
330
81
100
AcDbEntity
  8
Let It Snow
 62
     1
420
 16711680
440
 33554687
100
AcDbHatch
 10
0.0
 20
0.0
 30
0.0
210
0.0
220
0.0
230
1.0
  2
SOLID
 70
     1
 71
     1
 91
        2
 92
        1
 93
        1
 72
     4
 94
        3
 73
     0
 74
     0
 95
       68
 96
       64
 40
0.0
 40
0.0
 40
0.0
 40
0.0
 40
1.0
 40
1.0
 40
1.0
 40
2.0
 40
2.0
 40
2.0
 40
3.0
 40
3.0
 40
3.0
 40
4.0
 40
4.0
 40
4.0
 40
5.0
 40
5.0
 40
5.0
 40
6.0
 40
6.0
 40
6.0
 40
7.0
 40
7.0
 40
7.0
 40
8.0
 40
8.0
 40
8.0
 40
9.0
 40
9.0
 40
9.0
 40
10.0
 40
10.0
 40
10.0
 40
11.0
 40
11.0
 40
11.0
 40
12.0
 40
12.0
 40
12.0
 40
13.0
 40
13.0
 40
13.0
 40
14.0
 40
14.0
 40
14.0
 40
15.0
 40
15.0
 40
15.0
 40
16.0
 40
16.0
 40
16.0
 40
17.0
 40
17.0
 40
17.0
 40
18.0
 40
18.0
 40
18.0
 40
19.0
 40
19.0
 40
19.0
 40
20.0
 40
20.0
 40
20.0
 40
21.0
 40
21.0
 40
21.0
 40
21.0
 10
1.263267989461054
 20
-3.12866082266689
 10
1.256771136162443
 20
-3.120753379090501
 10
1.249365537204109
 20
-3.110092571798834
 10
1.241227516370776
 20
-3.096908978048834
 10
1.230173371405498
 20
-3.069985692458557
 10
1.224558137030498
 20
-3.04626336172939
 10
1.224558137030498
 20
-3.026393027528001
 10
1.224558137030498
 20
-3.020167441590501
 10
1.227365754217998
 20
-3.014009672493279
 10
1.233143749009665
 20
-3.007621326139112
 10
1.233143749009665
 20
-3.007621326139112
 10
1.261911652655498
 20
-2.991928509298834
 10
1.261911652655498
 20
-2.991928509298834
 10
1.261911652655498
 20
-2.991928509298834
 10
1.261911652655498
 20
-2.983681981521057
 10
1.261911652655498
 20
-2.983681981521057
 10
1.261911652655498
 20
-2.96874871329189
 10
1.243940189981887
 20
-2.964313491937723
 10
1.233198002481887
 20
-2.96166863516689
 10
1.233198002481887
 20
-2.96166863516689
 10
1.232112933037443
 20
-2.961397367805779
 10
1.232112933037443
 20
-2.961397367805779
 10
1.236955055433276
 20
-2.94702019766689
 10
1.244211457342998
 20
-2.932019112597446
 10
1.253732941717998
 20
-2.916651816590501
 10
1.267377689981887
 20
-2.902315336555779
 10
1.272857290676332
 20
-2.897188383430779
 10
1.274986739461054
 20
-2.895370892111334
 10
1.274986739461054
 20
-2.895370892111334
 10
1.276749977308276
 20
-2.894258695930779
 10
1.276749977308276
 20
-2.894258695930779
 10
1.292646244669387
 20
-2.884330310514112
 10
1.306250302829109
 20
-2.879298300965501
 10
1.316911110120776
 20
-2.879298300965501
 10
1.317711348836054
 20
-2.879338991069668
 10
1.321739669148554
 20
-2.879745892111334
 10
1.340104469495776
 20
-2.883109607389112
 10
1.361507464287443
 20
-2.891491768847446
 10
1.378054773315221
 20
-2.905841812250223
 10
1.390370311509665
 20
-2.926431004958557
 10
1.406280142238832
 20
-2.955985583951612
 10
1.414336782863832
 20
-2.984590727180779
 10
1.414336782863832
 20
-3.011446195930779
 10
1.414336782863832
 20
-3.011446195930779
 10
1.414336782863832
 20
-3.022120566590501
 10
1.414336782863832
 20
-3.022120566590501
 10
1.414336782863832
 20
-3.044405180305779
 10
1.408626604912443
 20
-3.068751425965501
 10
1.397938670884665
 20
-3.093301122146057
 10
1.392092859252721
 20
-3.103812732389112
 10
1.389230988592998
 20
-3.109387276659945
 10
1.387847525051332
 20
-3.112968005826612
 10
1.367068445190221
 20
-3.140894980653001
 10
1.344973718627721
 20
-3.154471912076612
 10
1.319338953002721
 20
-3.154471912076612
 10
1.309532637898554
 20
-3.154471912076612
 10
1.299875519842998
 20
-3.152491660340501
 10
1.290625302829109
 20
-3.148571846972445
 10
1.286325715155498
 20
-3.145859173361334
 10
1.283084070190221
 20
-3.144095935514112
 10
1.280317143106887
 20
-3.143024429437723
 10
1.280317143106887
 20
-3.143024429437723
 10
1.263267989461054
 20
-3.12866082266689
 10
1.263267989461054
 20
-3.12866082266689
 97
        0
 97
        1
330
89
 92
        1
 93
        1
 72
     4
 94
        3
 73
     0
 74
     0
 95
       62
 96
       58
 40
0.0
 40
0.0
 40
0.0
 40
0.0
 40
1.0
 40
1.0
 40
1.0
 40
2.0
 40
2.0
 40
2.0
 40
3.0
 40
3.0
 40
3.0
 40
4.0
 40
4.0
 40
4.0
 40
5.0
 40
5.0
 40
5.0
 40
6.0
 40
6.0
 40
6.0
 40
7.0
 40
7.0
 40
7.0
 40
8.0
 40
8.0
 40
8.0
 40
9.0
 40
9.0
 40
9.0
 40
10.0
 40
10.0
 40
10.0
 40
11.0
 40
11.0
 40
11.0
 40
12.0
 40
12.0
 40
12.0
 40
13.0
 40
13.0
 40
13.0
 40
14.0
 40
14.0
 40
14.0
 40
15.0
 40
15.0
 40
15.0
 40
16.0
 40
16.0
 40
16.0
 40
17.0
 40
17.0
 40
17.0
 40
18.0
 40
18.0
 40
18.0
 40
19.0
 40
19.0
 40
19.0
 40
19.0
 10
1.388403623141609
 20
-2.844386191590501
 10
1.374487607516609
 20
-2.837590944194668
 10
1.352650584947165
 20
-2.832965835687723
 10
1.321631162204109
 20
-2.830226035340501
 10
1.321631162204109
 20
-2.830226035340501
 10
1.320410459079109
 20
-2.830171781868279
 10
1.320410459079109
 20
-2.830171781868279
 10
1.304229360988832
 20
-2.830171781868279
 10
1.285077885294387
 20
-2.833888144715501
 10
1.261206357516609
 20
-2.841768461555779
 10
1.225073545016609
 20
-2.85558953360439
 10
1.195871613592998
 20
-2.879718765375223
 10
1.174210914808276
 20
-2.913762819194668
 10
1.155181509426332
 20
-2.945419720236334
 10
1.145537954738832
 20
-2.97900261954189
 10
1.145537954738832
 20
-3.013575644715501
 10
1.145537954738832
 20
-3.013575644715501
 10
1.145673588419387
 20
-3.015474516243279
 10
1.145673588419387
 20
-3.015474516243279
 10
1.146297503349943
 20
-3.02001824454189
 10
1.146609460815221
 20
-3.025836929437723
 10
1.146609460815221
 20
-3.032794937250223
 10
1.146609460815221
 20
-3.032794937250223
 10
1.146609460815221
 20
-3.038125340896057
 10
1.146609460815221
 20
-3.038125340896057
 10
1.146609460815221
 20
-3.038125340896057
 10
1.147029925224943
 20
-3.041516182909945
 10
1.147029925224943
 20
-3.041516182909945
 10
1.151492273315221
 20
-3.059216378222445
 10
1.151912737724943
 20
-3.063312515375223
 10
1.151939864461054
 20
-3.063746543153001
 10
1.151939864461054
 20
-3.063746543153001
 10
1.152536652655498
 20
-3.067761300097445
 10
1.152536652655498
 20
-3.067761300097445
 10
1.160457659599943
 20
-3.093965727180779
 10
1.175011153523554
 20
-3.119695436382168
 10
1.195803796752721
 20
-3.144245132562723
 10
1.195803796752721
 20
-3.144245132562723
 10
1.196956683037443
 20
-3.145452272319668
 10
1.196956683037443
 20
-3.145452272319668
 10
1.234581466023554
 20
-3.180350818326612
 10
1.273250628349943
 20
-3.198051013639112
 10
1.311865537204109
 20
-3.198051013639112
 10
1.311865537204109
 20
-3.198051013639112
 10
1.325740862724943
 20
-3.198051013639112
 10
1.325740862724943
 20
-3.198051013639112
 10
1.369726865329109
 20
-3.198051013639112
 10
1.410077885294387
 20
-3.179469199403001
 10
1.446156444322165
 20
-3.142278444194668
 10
1.478884851440221
 20
-3.104829984993279
 10
1.495486413940221
 20
-3.06152215079189
 10
1.495486413940221
 20
-3.013575644715501
 10
1.495486413940221
 20
-2.991168960687723
 10
1.490861305433276
 20
-2.967934911208557
 10
1.481800975572165
 20
-2.944673734993279
 10
1.465063779391609
 20
-2.899833240201612
 10
1.433610328870776
 20
-2.866074017111334
 10
1.388403623141609
 20
-2.844386191590501
 97
        0
 97
        1
330
8A
 75
     2
 76
     1
 98
        1
 10
0.0
 20
0.0
450
        0
451
        0
460
0.0
461
0.0
452
        0
462
0.0
453
        0
470

  0
SPLINE
  5
8C
330
81
100
AcDbEntity
  8
Let It Snow
100
AcDbSpline
210
0.0
220
0.0
230
1.0
 70
    11
 71
     3
 72
   248
 73
   244
 74
     0
 42
0.0000000001
 43
0.0000000001
 40
0.0
 40
0.0
 40
0.0
 40
0.0
 40
1.0
 40
1.0
 40
1.0
 40
2.0
 40
2.0
 40
2.0
 40
3.0
 40
3.0
 40
3.0
 40
4.0
 40
4.0
 40
4.0
 40
5.0
 40
5.0
 40
5.0
 40
6.0
 40
6.0
 40
6.0
 40
7.0
 40
7.0
 40
7.0
 40
8.0
 40
8.0
 40
8.0
 40
9.0
 40
9.0
 40
9.0
 40
10.0
 40
10.0
 40
10.0
 40
11.0
 40
11.0
 40
11.0
 40
12.0
 40
12.0
 40
12.0
 40
13.0
 40
13.0
 40
13.0
 40
14.0
 40
14.0
 40
14.0
 40
15.0
 40
15.0
 40
15.0
 40
16.0
 40
16.0
 40
16.0
 40
17.0
 40
17.0
 40
17.0
 40
18.0
 40
18.0
 40
18.0
 40
19.0
 40
19.0
 40
19.0
 40
20.0
 40
20.0
 40
20.0
 40
21.0
 40
21.0
 40
21.0
 40
22.0
 40
22.0
 40
22.0
 40
23.0
 40
23.0
 40
23.0
 40
24.0
 40
24.0
 40
24.0
 40
25.0
 40
25.0
 40
25.0
 40
26.0
 40
26.0
 40
26.0
 40
27.0
 40
27.0
 40
27.0
 40
28.0
 40
28.0
 40
28.0
 40
29.0
 40
29.0
 40
29.0
 40
30.0
 40
30.0
 40
30.0
 40
31.0
 40
31.0
 40
31.0
 40
32.0
 40
32.0
 40
32.0
 40
33.0
 40
33.0
 40
33.0
 40
34.0
 40
34.0
 40
34.0
 40
35.0
 40
35.0
 40
35.0
 40
36.0
 40
36.0
 40
36.0
 40
37.0
 40
37.0
 40
37.0
 40
38.0
 40
38.0
 40
38.0
 40
39.0
 40
39.0
 40
39.0
 40
40.0
 40
40.0
 40
40.0
 40
41.0
 40
41.0
 40
41.0
 40
42.0
 40
42.0
 40
42.0
 40
43.0
 40
43.0
 40
43.0
 40
44.0
 40
44.0
 40
44.0
 40
45.0
 40
45.0
 40
45.0
 40
46.0
 40
46.0
 40
46.0
 40
47.0
 40
47.0
 40
47.0
 40
48.0
 40
48.0
 40
48.0
 40
49.0
 40
49.0
 40
49.0
 40
50.0
 40
50.0
 40
50.0
 40
51.0
 40
51.0
 40
51.0
 40
52.0
 40
52.0
 40
52.0
 40
53.0
 40
53.0
 40
53.0
 40
54.0
 40
54.0
 40
54.0
 40
55.0
 40
55.0
 40
55.0
 40
56.0
 40
56.0
 40
56.0
 40
57.0
 40
57.0
 40
57.0
 40
58.0
 40
58.0
 40
58.0
 40
59.0
 40
59.0
 40
59.0
 40
60.0
 40
60.0
 40
60.0
 40
61.0
 40
61.0
 40
61.0
 40
62.0
 40
62.0
 40
62.0
 40
63.0
 40
63.0
 40
63.0
 40
64.0
 40
64.0
 40
64.0
 40
65.0
 40
65.0
 40
65.0
 40
66.0
 40
66.0
 40
66.0
 40
67.0
 40
67.0
 40
67.0
 40
68.0
 40
68.0
 40
68.0
 40
69.0
 40
69.0
 40
69.0
 40
70.0
 40
70.0
 40
70.0
 40
71.0
 40
71.0
 40
71.0
 40
72.0
 40
72.0
 40
72.0
 40
73.0
 40
73.0
 40
73.0
 40
74.0
 40
74.0
 40
74.0
 40
75.0
 40
75.0
 40
75.0
 40
76.0
 40
76.0
 40
76.0
 40
77.0
 40
77.0
 40
77.0
 40
78.0
 40
78.0
 40
78.0
 40
79.0
 40
79.0
 40
79.0
 40
80.0
 40
80.0
 40
80.0
 40
81.0
 40
81.0
 40
81.0
 40
81.0
 10
1.992760176961054
 20
-2.828747628222446
 30
0.0
 10
1.992760176961054
 20
-2.828747628222446
 30
0.0
 10
1.985381704738832
 20
-2.828883261903001
 30
0.0
 10
1.985381704738832
 20
-2.828883261903001
 30
0.0
 10
1.969688887898554
 20
-2.829181656000223
 30
0.0
 10
1.955677928697165
 20
-2.829317289680779
 30
0.0
 10
1.943375953870776
 20
-2.829317289680779
 30
0.0
 10
1.897219812377721
 20
-2.829317289680779
 30
0.0
 10
1.885935090155498
 20
-2.827472671625223
 30
0.0
 10
1.883222416544387
 20
-2.826672432909946
 30
0.0
 10
1.883222416544387
 20
-2.826672432909946
 30
0.0
 10
1.877824196058276
 20
-2.826116334819668
 30
0.0
 10
1.877824196058276
 20
-2.826116334819668
 30
0.0
 10
1.871815624009665
 20
-2.826116334819668
 30
0.0
 10
1.863826800224943
 20
-2.829113839159946
 30
0.0
 10
1.859947676961054
 20
-2.843409629090501
 30
0.0
 10
1.859947676961054
 20
-2.843409629090501
 30
0.0
 10
1.855960046752721
 20
-2.858058066590501
 30
0.0
 10
1.855960046752721
 20
-2.858058066590501
 30
0.0
 10
1.855960046752721
 20
-2.858058066590501
 30
0.0
 10
1.870906878349943
 20
-2.86071648672939
 30
0.0
 10
1.870906878349943
 20
-2.86071648672939
 30
0.0
 10
1.891902972099943
 20
-2.864459976312723
 30
0.0
 10
1.891902972099943
 20
-2.871499364333557
 30
0.0
 10
1.891902972099943
 20
-2.874157784472446
 30
0.0
 10
1.891902972099943
 20
-2.874157784472446
 30
0.0
 10
1.891902972099943
 20
-2.882960410340501
 30
0.0
 10
1.891902972099943
 20
-2.882960410340501
 30
0.0
 10
1.890044790676332
 20
-2.892359824403001
 30
0.0
 10
1.878990645711054
 20
-2.932683717632168
 30
0.0
 10
1.839901018974943
 20
-3.062783544021057
 30
0.0
 10
1.839901018974943
 20
-3.062783544021057
 30
0.0
 10
1.776261696058276
 20
-2.874808826139112
 30
0.0
 10
1.776261696058276
 20
-2.874808826139112
 30
0.0
 10
1.776709287204109
 20
-2.866223214159946
 30
0.0
 10
1.779950932169387
 20
-2.863673300965501
 30
0.0
 10
1.783585914808276
 20
-2.862411907736334
 30
0.0
 10
1.796430424356887
 20
-2.86230340079189
 30
0.0
 10
1.801096222967998
 20
-2.861164077875223
 30
0.0
 10
1.804609135294387
 20
-2.859238079611334
 30
0.0
 10
1.804609135294387
 20
-2.859238079611334
 30
0.0
 10
1.813181183905498
 20
-2.854585844368279
 30
0.0
 10
1.813181183905498
 20
-2.854585844368279
 30
0.0
 10
1.813181183905498
 20
-2.854585844368279
 30
0.0
 10
1.811702776787443
 20
-2.844942289680779
 30
0.0
 10
1.811702776787443
 20
-2.844942289680779
 30
0.0
 10
1.809030793280498
 20
-2.827472671625223
 30
0.0
 10
1.797095029391609
 20
-2.826116334819668
 30
0.0
 10
1.793500736856887
 20
-2.826116334819668
 30
0.0
 10
1.793500736856887
 20
-2.826116334819668
 30
0.0
 10
1.789526670016609
 20
-2.826699559646057
 30
0.0
 10
1.789526670016609
 20
-2.826699559646057
 30
0.0
 10
1.783884308905498
 20
-2.828381417284946
 30
0.0
 10
1.770171743801332
 20
-2.830388795757168
 30
0.0
 10
1.736914365329109
 20
-2.830388795757168
 30
0.0
 10
1.701988692586054
 20
-2.830388795757168
 30
0.0
 10
1.689469703870776
 20
-2.828110149923834
 30
0.0
 10
1.685115862724943
 20
-2.826753813118279
 30
0.0
 10
1.685115862724943
 20
-2.826753813118279
 30
0.0
 10
1.659833744669387
 20
-2.826116334819668
 30
0.0
 10
1.659833744669387
 20
-2.826116334819668
 30
0.0
 10
1.659833744669387
 20
-2.826116334819668
 30
0.0
 10
1.659833744669387
 20
-2.83801140860439
 30
0.0
 10
1.659833744669387
 20
-2.83801140860439
 30
0.0
 10
1.659833744669387
 20
-2.83801140860439
 30
0.0
 10
1.658341774183276
 20
-2.840805462423834
 30
0.0
 10
1.658341774183276
 20
-2.840805462423834
 30
0.0
 10
1.658341774183276
 20
-2.840805462423834
 30
0.0
 10
1.658341774183276
 20
-2.844277684646057
 30
0.0
 10
1.658341774183276
 20
-2.844277684646057
 30
0.0
 10
1.658341774183276
 20
-2.846217246278001
 30
0.0
 10
1.658992815849943
 20
-2.86291375235439
 30
0.0
 10
1.680870528523554
 20
-2.863686864333557
 30
0.0
 10
1.698421526787443
 20
-2.867593114333557
 30
0.0
 10
1.706356097099943
 20
-2.876192289680779
 30
0.0
 10
1.706980012030498
 20
-2.892115683778001
 30
0.0
 10
1.706980012030498
 20
-2.892115683778001
 30
0.0
 10
1.650854795016609
 20
-3.061684911208557
 30
0.0
 10
1.650854795016609
 20
-3.061684911208557
 30
0.0
 10
1.607533397447165
 20
-2.913016833951612
 30
0.0
 10
1.599910784599943
 20
-2.880749581347446
 30
0.0
 10
1.599436066717998
 20
-2.875663318326612
 30
0.0
 10
1.599436066717998
 20
-2.872842137771057
 30
0.0
 10
1.599883657863832
 20
-2.870495675097446
 30
0.0
 10
1.605431075398554
 20
-2.868230592632168
 30
0.0
 10
1.614667729044387
 20
-2.864446412944668
 30
0.0
 10
1.621774933905498
 20
-2.861787992805779
 30
0.0
 10
1.626549239461054
 20
-2.860323149055779
 30
0.0
 10
1.626549239461054
 20
-2.860323149055779
 30
0.0
 10
1.644791969495776
 20
-2.854721478048834
 30
0.0
 10
1.644791969495776
 20
-2.854721478048834
 30
0.0
 10
1.644791969495776
 20
-2.854721478048834
 30
0.0
 10
1.626739126613832
 20
-2.828883261903001
 30
0.0
 10
1.626739126613832
 20
-2.828883261903001
 30
0.0
 10
1.626739126613832
 20
-2.828883261903001
 30
0.0
 10
1.619496288072165
 20
-2.828883261903001
 30
0.0
 10
1.619496288072165
 20
-2.828883261903001
 30
0.0
 10
1.610069747273554
 20
-2.828883261903001
 30
0.0
 10
1.578250085815221
 20
-2.829385106521057
 30
0.0
 10
1.524267880954109
 20
-2.830388795757168
 30
0.0
 10
1.509049781995776
 20
-2.830388795757168
 30
0.0
 10
1.495432160467998
 20
-2.828639121278001
 30
0.0
 10
1.483808354044387
 20
-2.82519402579189
 30
0.0
 10
1.483808354044387
 20
-2.82519402579189
 30
0.0
 10
1.477406444322165
 20
-2.823295154264112
 30
0.0
 10
1.477406444322165
 20
-2.823295154264112
 30
0.0
 10
1.477406444322165
 20
-2.823295154264112
 30
0.0
 10
1.471913280259665
 20
-2.827120024055779
 30
0.0
 10
1.471913280259665
 20
-2.827120024055779
 30
0.0
 10
1.469227733384665
 20
-2.828991768847446
 30
0.0
 10
1.461062585815221
 20
-2.834688383430779
 30
0.0
 10
1.461062585815221
 20
-2.84448113516689
 30
0.0
 10
1.461062585815221
 20
-2.85156121329189
 30
0.0
 10
1.464982399183276
 20
-2.860607979784946
 30
0.0
 10
1.484920550224943
 20
-2.863686864333557
 30
0.0
 10
1.494672611856887
 20
-2.864337906000223
 30
0.0
 10
1.501291535467998
 20
-2.866670805305779
 30
0.0
 10
1.503543054565221
 20
-2.870251534472446
 30
0.0
 10
1.503543054565221
 20
-2.870251534472446
 30
0.0
 10
1.507639191717998
 20
-2.876734824403001
 30
0.0
 10
1.507639191717998
 20
-2.876734824403001
 30
0.0
 10
1.507639191717998
 20
-2.876734824403001
 30
0.0
 10
1.511423371405498
 20
-2.876734824403001
 30
0.0
 10
1.511423371405498
 20
-2.876734824403001
 30
0.0
 10
1.514325932169387
 20
-2.880546130826612
 30
0.0
 10
1.521473827134665
 20
-2.892441204611334
 30
0.0
 10
1.534725237724943
 20
-2.928289186382168
 30
0.0
 10
1.534725237724943
 20
-2.928289186382168
 30
0.0
 10
1.541818879217998
 20
-2.950831504090501
 30
0.0
 10
1.541818879217998
 20
-2.950831504090501
 30
0.0
 10
1.537641361856887
 20
-2.951319785340501
 30
0.0
 10
1.534019942586054
 20
-2.952554051833557
 30
0.0
 10
1.531239452134665
 20
-2.954330853048834
 30
0.0
 10
1.531239452134665
 20
-2.954330853048834
 30
0.0
 10
1.523779599704109
 20
-2.958603313986334
 30
0.0
 10
1.523779599704109
 20
-2.958603313986334
 30
0.0
 10
1.523779599704109
 20
-2.958603313986334
 30
0.0
 10
1.518218618801332
 20
-2.962943591764112
 30
0.0
 10
1.518218618801332
 20
-2.962943591764112
 30
0.0
 10
1.518218618801332
 20
-2.962943591764112
 30
0.0
 10
1.516360437377721
 20
-2.964788209819668
 30
0.0
 10
1.516360437377721
 20
-2.964788209819668
 30
0.0
 10
1.508602190849943
 20
-2.974146933778001
 30
0.0
 10
1.504831574530498
 20
-2.982624038812723
 30
0.0
 10
1.504831574530498
 20
-2.992009889507168
 30
0.0
 10
1.504831574530498
 20
-2.992009889507168
 30
0.0
 10
1.505048588419387
 20
-2.994912450271057
 30
0.0
 10
1.505048588419387
 20
-2.994912450271057
 30
0.0
 10
1.505048588419387
 20
-2.994912450271057
 30
0.0
 10
1.510501062377721
 20
-3.011283435514112
 30
0.0
 10
1.510501062377721
 20
-3.011283435514112
 30
0.0
 10
1.510501062377721
 20
-3.011283435514112
 30
0.0
 10
1.524335697794387
 20
-3.005464750618279
 30
0.0
 10
1.524335697794387
 20
-3.005464750618279
 30
0.0
 10
1.529855988592998
 20
-3.003131851312723
 30
0.0
 10
1.534752364461054
 20
-3.001626317458557
 30
0.0
 10
1.538916318454109
 20
-3.000988839159945
 30
0.0
 10
1.538916318454109
 20
-3.000988839159945
 30
0.0
 10
1.539852190849943
 20
-3.000988839159945
 30
0.0
 10
1.539852190849943
 20
-3.000988839159945
 30
0.0
 10
1.542212216891609
 20
-3.000988839159945
 30
0.0
 10
1.550865645711054
 20
-3.00268426016689
 30
0.0
 10
1.564740971231887
 20
-3.024005874750223
 30
0.0
 10
1.564740971231887
 20
-3.024005874750223
 30
0.0
 10
1.608387889634665
 20
-3.163315228048834
 30
0.0
 10
1.608387889634665
 20
-3.163315228048834
 30
0.0
 10
1.614572785467998
 20
-3.192707046625223
 30
0.0
 10
1.628502364461054
 20
-3.198905505826612
 30
0.0
 10
1.639136045016609
 20
-3.198905505826612
 30
0.0
 10
1.642187802829109
 20
-3.198905505826612
 30
0.0
 10
1.645320940849943
 20
-3.198376534472445
 30
0.0
 10
1.648440515502721
 20
-3.197332155132168
 30
0.0
 10
1.648440515502721
 20
-3.197332155132168
 30
0.0
 10
1.654923805433276
 20
-3.195175579611334
 30
0.0
 10
1.654923805433276
 20
-3.195175579611334
 30
0.0
 10
1.654923805433276
 20
-3.195175579611334
 30
0.0
 10
1.732899608384665
 20
-2.970620458083557
 30
0.0
 10
1.732899608384665
 20
-2.970620458083557
 30
0.0
 10
1.732899608384665
 20
-2.970620458083557
 30
0.0
 10
1.802276235988832
 20
-3.169161039680779
 30
0.0
 10
1.802276235988832
 20
-3.169161039680779
 30
0.0
 10
1.809302060641609
 20
-3.195596044021057
 30
0.0
 10
1.824804990329109
 20
-3.199542984125223
 30
0.0
 10
1.833417729044387
 20
-3.199542984125223
 30
0.0
 10
1.835031769842998
 20
-3.199542984125223
 30
0.0
 10
1.836672937377721
 20
-3.199434477180779
 30
0.0
 10
1.838286978176332
 20
-3.19921746329189
 30
0.0
 10
1.838286978176332
 20
-3.19921746329189
 30
0.0
 10
1.846981097099943
 20
-3.198023886903001
 30
0.0
 10
1.846981097099943
 20
-3.198023886903001
 30
0.0
 10
1.846981097099943
 20
-3.198023886903001
 30
0.0
 10
1.849639517238832
 20
-3.189655288812723
 30
0.0
 10
1.849639517238832
 20
-3.189655288812723
 30
0.0
 10
1.870947568454109
 20
-3.122503053569668
 30
0.0
 10
1.889353058905498
 20
-3.064750232389112
 30
0.0
 10
1.904869551961054
 20
-3.016383261903001
 30
0.0
 10
1.915381162204109
 20
-3.002535063118279
 30
0.0
 10
1.921972959079109
 20
-3.000988839159945
 30
0.0
 10
1.924373675224943
 20
-3.000988839159945
 30
0.0
 10
1.924373675224943
 20
-3.000988839159945
 30
0.0
 10
1.925309547620776
 20
-3.000988839159945
 30
0.0
 10
1.925309547620776
 20
-3.000988839159945
 30
0.0
 10
1.929419248141609
 20
-3.001626317458557
 30
0.0
 10
1.934220680433276
 20
-3.003104724576612
 30
0.0
 10
1.939605337551332
 20
-3.005424060514112
 30
0.0
 10
1.939605337551332
 20
-3.005424060514112
 30
0.0
 10
1.950808679565221
 20
-3.00939812735439
 30
0.0
 10
1.950808679565221
 20
-3.00939812735439
 30
0.0
 10
1.950808679565221
 20
-3.00939812735439
 30
0.0
 10
1.957169899183276
 20
-2.999551122146057
 30
0.0
 10
1.957169899183276
 20
-2.999551122146057
 30
0.0
 10
1.957169899183276
 20
-2.999551122146057
 30
0.0
 10
1.959394291544387
 20
-2.995048083951612
 30
0.0
 10
1.959394291544387
 20
-2.995048083951612
 30
0.0
 10
1.959394291544387
 20
-2.995048083951612
 30
0.0
 10
1.959394291544387
 20
-2.990951946798834
 30
0.0
 10
1.959394291544387
 20
-2.990951946798834
 30
0.0
 10
1.959394291544387
 20
-2.982881742805779
 30
0.0
 10
1.955650801961054
 20
-2.97436394766689
 30
0.0
 10
1.947946808905498
 20
-2.964896716764112
 30
0.0
 10
1.947946808905498
 20
-2.964896716764112
 30
0.0
 10
1.942412954738832
 20
-2.95995965079189
 30
0.0
 10
1.942412954738832
 20
-2.95995965079189
 30
0.0
 10
1.942412954738832
 20
-2.95995965079189
 30
0.0
 10
1.933718835815221
 20
-2.954941204611334
 30
0.0
 10
1.933718835815221
 20
-2.954941204611334
 30
0.0
 10
1.931399499877721
 20
-2.953340727180779
 30
0.0
 10
1.928754643106887
 20
-2.952174277528001
 30
0.0
 10
1.925811392238832
 20
-2.951455419021057
 30
0.0
 10
1.931535133558276
 20
-2.93371453360439
 30
0.0
 10
1.936675650051332
 20
-2.917899646451612
 30
0.0
 10
1.941246505086054
 20
-2.903942940722446
 30
0.0
 10
1.946264951266609
 20
-2.887992419889112
 30
0.0
 10
1.954782746405498
 20
-2.875581938118279
 30
0.0
 10
1.967233918280498
 20
-2.866141833951612
 30
0.0
 10
1.989328644842998
 20
-2.863293526659946
 30
0.0
 10
2.002525801961054
 20
-2.860919937250223
 30
0.0
 10
2.002525801961054
 20
-2.84704461172939
 30
0.0
 10
2.002525801961054
 20
-2.84704461172939
 30
0.0
 10
2.002525801961054
 20
-2.842663643847446
 30
0.0
 10
2.002525801961054
 20
-2.842663643847446
 30
0.0
 10
2.002525801961054
 20
-2.842663643847446
 30
0.0
 10
1.992760176961054
 20
-2.828747628222446
 30
0.0
 10
1.992760176961054
 20
-2.828747628222446
 30
0.0
  0
HATCH
  5
8D
330
81
100
AcDbEntity
  8
Let It Snow
 62
     1
420
 16711680
440
 33554687
100
AcDbHatch
 10
0.0
 20
0.0
 30
0.0
210
0.0
220
0.0
230
1.0
  2
SOLID
 70
     1
 71
     1
 91
        1
 92
        1
 93
        1
 72
     4
 94
        3
 73
     0
 74
     0
 95
      248
 96
      244
 40
0.0
 40
0.0
 40
0.0
 40
0.0
 40
1.0
 40
1.0
 40
1.0
 40
2.0
 40
2.0
 40
2.0
 40
3.0
 40
3.0
 40
3.0
 40
4.0
 40
4.0
 40
4.0
 40
5.0
 40
5.0
 40
5.0
 40
6.0
 40
6.0
 40
6.0
 40
7.0
 40
7.0
 40
7.0
 40
8.0
 40
8.0
 40
8.0
 40
9.0
 40
9.0
 40
9.0
 40
10.0
 40
10.0
 40
10.0
 40
11.0
 40
11.0
 40
11.0
 40
12.0
 40
12.0
 40
12.0
 40
13.0
 40
13.0
 40
13.0
 40
14.0
 40
14.0
 40
14.0
 40
15.0
 40
15.0
 40
15.0
 40
16.0
 40
16.0
 40
16.0
 40
17.0
 40
17.0
 40
17.0
 40
18.0
 40
18.0
 40
18.0
 40
19.0
 40
19.0
 40
19.0
 40
20.0
 40
20.0
 40
20.0
 40
21.0
 40
21.0
 40
21.0
 40
22.0
 40
22.0
 40
22.0
 40
23.0
 40
23.0
 40
23.0
 40
24.0
 40
24.0
 40
24.0
 40
25.0
 40
25.0
 40
25.0
 40
26.0
 40
26.0
 40
26.0
 40
27.0
 40
27.0
 40
27.0
 40
28.0
 40
28.0
 40
28.0
 40
29.0
 40
29.0
 40
29.0
 40
30.0
 40
30.0
 40
30.0
 40
31.0
 40
31.0
 40
31.0
 40
32.0
 40
32.0
 40
32.0
 40
33.0
 40
33.0
 40
33.0
 40
34.0
 40
34.0
 40
34.0
 40
35.0
 40
35.0
 40
35.0
 40
36.0
 40
36.0
 40
36.0
 40
37.0
 40
37.0
 40
37.0
 40
38.0
 40
38.0
 40
38.0
 40
39.0
 40
39.0
 40
39.0
 40
40.0
 40
40.0
 40
40.0
 40
41.0
 40
41.0
 40
41.0
 40
42.0
 40
42.0
 40
42.0
 40
43.0
 40
43.0
 40
43.0
 40
44.0
 40
44.0
 40
44.0
 40
45.0
 40
45.0
 40
45.0
 40
46.0
 40
46.0
 40
46.0
 40
47.0
 40
47.0
 40
47.0
 40
48.0
 40
48.0
 40
48.0
 40
49.0
 40
49.0
 40
49.0
 40
50.0
 40
50.0
 40
50.0
 40
51.0
 40
51.0
 40
51.0
 40
52.0
 40
52.0
 40
52.0
 40
53.0
 40
53.0
 40
53.0
 40
54.0
 40
54.0
 40
54.0
 40
55.0
 40
55.0
 40
55.0
 40
56.0
 40
56.0
 40
56.0
 40
57.0
 40
57.0
 40
57.0
 40
58.0
 40
58.0
 40
58.0
 40
59.0
 40
59.0
 40
59.0
 40
60.0
 40
60.0
 40
60.0
 40
61.0
 40
61.0
 40
61.0
 40
62.0
 40
62.0
 40
62.0
 40
63.0
 40
63.0
 40
63.0
 40
64.0
 40
64.0
 40
64.0
 40
65.0
 40
65.0
 40
65.0
 40
66.0
 40
66.0
 40
66.0
 40
67.0
 40
67.0
 40
67.0
 40
68.0
 40
68.0
 40
68.0
 40
69.0
 40
69.0
 40
69.0
 40
70.0
 40
70.0
 40
70.0
 40
71.0
 40
71.0
 40
71.0
 40
72.0
 40
72.0
 40
72.0
 40
73.0
 40
73.0
 40
73.0
 40
74.0
 40
74.0
 40
74.0
 40
75.0
 40
75.0
 40
75.0
 40
76.0
 40
76.0
 40
76.0
 40
77.0
 40
77.0
 40
77.0
 40
78.0
 40
78.0
 40
78.0
 40
79.0
 40
79.0
 40
79.0
 40
80.0
 40
80.0
 40
80.0
 40
81.0
 40
81.0
 40
81.0
 40
81.0
 10
1.992760176961054
 20
-2.828747628222446
 10
1.992760176961054
 20
-2.828747628222446
 10
1.985381704738832
 20
-2.828883261903001
 10
1.985381704738832
 20
-2.828883261903001
 10
1.969688887898554
 20
-2.829181656000223
 10
1.955677928697165
 20
-2.829317289680779
 10
1.943375953870776
 20
-2.829317289680779
 10
1.897219812377721
 20
-2.829317289680779
 10
1.885935090155498
 20
-2.827472671625223
 10
1.883222416544387
 20
-2.826672432909946
 10
1.883222416544387
 20
-2.826672432909946
 10
1.877824196058276
 20
-2.826116334819668
 10
1.877824196058276
 20
-2.826116334819668
 10
1.871815624009665
 20
-2.826116334819668
 10
1.863826800224943
 20
-2.829113839159946
 10
1.859947676961054
 20
-2.843409629090501
 10
1.859947676961054
 20
-2.843409629090501
 10
1.855960046752721
 20
-2.858058066590501
 10
1.855960046752721
 20
-2.858058066590501
 10
1.855960046752721
 20
-2.858058066590501
 10
1.870906878349943
 20
-2.86071648672939
 10
1.870906878349943
 20
-2.86071648672939
 10
1.891902972099943
 20
-2.864459976312723
 10
1.891902972099943
 20
-2.871499364333557
 10
1.891902972099943
 20
-2.874157784472446
 10
1.891902972099943
 20
-2.874157784472446
 10
1.891902972099943
 20
-2.882960410340501
 10
1.891902972099943
 20
-2.882960410340501
 10
1.890044790676332
 20
-2.892359824403001
 10
1.878990645711054
 20
-2.932683717632168
 10
1.839901018974943
 20
-3.062783544021057
 10
1.839901018974943
 20
-3.062783544021057
 10
1.776261696058276
 20
-2.874808826139112
 10
1.776261696058276
 20
-2.874808826139112
 10
1.776709287204109
 20
-2.866223214159946
 10
1.779950932169387
 20
-2.863673300965501
 10
1.783585914808276
 20
-2.862411907736334
 10
1.796430424356887
 20
-2.86230340079189
 10
1.801096222967998
 20
-2.861164077875223
 10
1.804609135294387
 20
-2.859238079611334
 10
1.804609135294387
 20
-2.859238079611334
 10
1.813181183905498
 20
-2.854585844368279
 10
1.813181183905498
 20
-2.854585844368279
 10
1.813181183905498
 20
-2.854585844368279
 10
1.811702776787443
 20
-2.844942289680779
 10
1.811702776787443
 20
-2.844942289680779
 10
1.809030793280498
 20
-2.827472671625223
 10
1.797095029391609
 20
-2.826116334819668
 10
1.793500736856887
 20
-2.826116334819668
 10
1.793500736856887
 20
-2.826116334819668
 10
1.789526670016609
 20
-2.826699559646057
 10
1.789526670016609
 20
-2.826699559646057
 10
1.783884308905498
 20
-2.828381417284946
 10
1.770171743801332
 20
-2.830388795757168
 10
1.736914365329109
 20
-2.830388795757168
 10
1.701988692586054
 20
-2.830388795757168
 10
1.689469703870776
 20
-2.828110149923834
 10
1.685115862724943
 20
-2.826753813118279
 10
1.685115862724943
 20
-2.826753813118279
 10
1.659833744669387
 20
-2.826116334819668
 10
1.659833744669387
 20
-2.826116334819668
 10
1.659833744669387
 20
-2.826116334819668
 10
1.659833744669387
 20
-2.83801140860439
 10
1.659833744669387
 20
-2.83801140860439
 10
1.659833744669387
 20
-2.83801140860439
 10
1.658341774183276
 20
-2.840805462423834
 10
1.658341774183276
 20
-2.840805462423834
 10
1.658341774183276
 20
-2.840805462423834
 10
1.658341774183276
 20
-2.844277684646057
 10
1.658341774183276
 20
-2.844277684646057
 10
1.658341774183276
 20
-2.846217246278001
 10
1.658992815849943
 20
-2.86291375235439
 10
1.680870528523554
 20
-2.863686864333557
 10
1.698421526787443
 20
-2.867593114333557
 10
1.706356097099943
 20
-2.876192289680779
 10
1.706980012030498
 20
-2.892115683778001
 10
1.706980012030498
 20
-2.892115683778001
 10
1.650854795016609
 20
-3.061684911208557
 10
1.650854795016609
 20
-3.061684911208557
 10
1.607533397447165
 20
-2.913016833951612
 10
1.599910784599943
 20
-2.880749581347446
 10
1.599436066717998
 20
-2.875663318326612
 10
1.599436066717998
 20
-2.872842137771057
 10
1.599883657863832
 20
-2.870495675097446
 10
1.605431075398554
 20
-2.868230592632168
 10
1.614667729044387
 20
-2.864446412944668
 10
1.621774933905498
 20
-2.861787992805779
 10
1.626549239461054
 20
-2.860323149055779
 10
1.626549239461054
 20
-2.860323149055779
 10
1.644791969495776
 20
-2.854721478048834
 10
1.644791969495776
 20
-2.854721478048834
 10
1.644791969495776
 20
-2.854721478048834
 10
1.626739126613832
 20
-2.828883261903001
 10
1.626739126613832
 20
-2.828883261903001
 10
1.626739126613832
 20
-2.828883261903001
 10
1.619496288072165
 20
-2.828883261903001
 10
1.619496288072165
 20
-2.828883261903001
 10
1.610069747273554
 20
-2.828883261903001
 10
1.578250085815221
 20
-2.829385106521057
 10
1.524267880954109
 20
-2.830388795757168
 10
1.509049781995776
 20
-2.830388795757168
 10
1.495432160467998
 20
-2.828639121278001
 10
1.483808354044387
 20
-2.82519402579189
 10
1.483808354044387
 20
-2.82519402579189
 10
1.477406444322165
 20
-2.823295154264112
 10
1.477406444322165
 20
-2.823295154264112
 10
1.477406444322165
 20
-2.823295154264112
 10
1.471913280259665
 20
-2.827120024055779
 10
1.471913280259665
 20
-2.827120024055779
 10
1.469227733384665
 20
-2.828991768847446
 10
1.461062585815221
 20
-2.834688383430779
 10
1.461062585815221
 20
-2.84448113516689
 10
1.461062585815221
 20
-2.85156121329189
 10
1.464982399183276
 20
-2.860607979784946
 10
1.484920550224943
 20
-2.863686864333557
 10
1.494672611856887
 20
-2.864337906000223
 10
1.501291535467998
 20
-2.866670805305779
 10
1.503543054565221
 20
-2.870251534472446
 10
1.503543054565221
 20
-2.870251534472446
 10
1.507639191717998
 20
-2.876734824403001
 10
1.507639191717998
 20
-2.876734824403001
 10
1.507639191717998
 20
-2.876734824403001
 10
1.511423371405498
 20
-2.876734824403001
 10
1.511423371405498
 20
-2.876734824403001
 10
1.514325932169387
 20
-2.880546130826612
 10
1.521473827134665
 20
-2.892441204611334
 10
1.534725237724943
 20
-2.928289186382168
 10
1.534725237724943
 20
-2.928289186382168
 10
1.541818879217998
 20
-2.950831504090501
 10
1.541818879217998
 20
-2.950831504090501
 10
1.537641361856887
 20
-2.951319785340501
 10
1.534019942586054
 20
-2.952554051833557
 10
1.531239452134665
 20
-2.954330853048834
 10
1.531239452134665
 20
-2.954330853048834
 10
1.523779599704109
 20
-2.958603313986334
 10
1.523779599704109
 20
-2.958603313986334
 10
1.523779599704109
 20
-2.958603313986334
 10
1.518218618801332
 20
-2.962943591764112
 10
1.518218618801332
 20
-2.962943591764112
 10
1.518218618801332
 20
-2.962943591764112
 10
1.516360437377721
 20
-2.964788209819668
 10
1.516360437377721
 20
-2.964788209819668
 10
1.508602190849943
 20
-2.974146933778001
 10
1.504831574530498
 20
-2.982624038812723
 10
1.504831574530498
 20
-2.992009889507168
 10
1.504831574530498
 20
-2.992009889507168
 10
1.505048588419387
 20
-2.994912450271057
 10
1.505048588419387
 20
-2.994912450271057
 10
1.505048588419387
 20
-2.994912450271057
 10
1.510501062377721
 20
-3.011283435514112
 10
1.510501062377721
 20
-3.011283435514112
 10
1.510501062377721
 20
-3.011283435514112
 10
1.524335697794387
 20
-3.005464750618279
 10
1.524335697794387
 20
-3.005464750618279
 10
1.529855988592998
 20
-3.003131851312723
 10
1.534752364461054
 20
-3.001626317458557
 10
1.538916318454109
 20
-3.000988839159945
 10
1.538916318454109
 20
-3.000988839159945
 10
1.539852190849943
 20
-3.000988839159945
 10
1.539852190849943
 20
-3.000988839159945
 10
1.542212216891609
 20
-3.000988839159945
 10
1.550865645711054
 20
-3.00268426016689
 10
1.564740971231887
 20
-3.024005874750223
 10
1.564740971231887
 20
-3.024005874750223
 10
1.608387889634665
 20
-3.163315228048834
 10
1.608387889634665
 20
-3.163315228048834
 10
1.614572785467998
 20
-3.192707046625223
 10
1.628502364461054
 20
-3.198905505826612
 10
1.639136045016609
 20
-3.198905505826612
 10
1.642187802829109
 20
-3.198905505826612
 10
1.645320940849943
 20
-3.198376534472445
 10
1.648440515502721
 20
-3.197332155132168
 10
1.648440515502721
 20
-3.197332155132168
 10
1.654923805433276
 20
-3.195175579611334
 10
1.654923805433276
 20
-3.195175579611334
 10
1.654923805433276
 20
-3.195175579611334
 10
1.732899608384665
 20
-2.970620458083557
 10
1.732899608384665
 20
-2.970620458083557
 10
1.732899608384665
 20
-2.970620458083557
 10
1.802276235988832
 20
-3.169161039680779
 10
1.802276235988832
 20
-3.169161039680779
 10
1.809302060641609
 20
-3.195596044021057
 10
1.824804990329109
 20
-3.199542984125223
 10
1.833417729044387
 20
-3.199542984125223
 10
1.835031769842998
 20
-3.199542984125223
 10
1.836672937377721
 20
-3.199434477180779
 10
1.838286978176332
 20
-3.19921746329189
 10
1.838286978176332
 20
-3.19921746329189
 10
1.846981097099943
 20
-3.198023886903001
 10
1.846981097099943
 20
-3.198023886903001
 10
1.846981097099943
 20
-3.198023886903001
 10
1.849639517238832
 20
-3.189655288812723
 10
1.849639517238832
 20
-3.189655288812723
 10
1.870947568454109
 20
-3.122503053569668
 10
1.889353058905498
 20
-3.064750232389112
 10
1.904869551961054
 20
-3.016383261903001
 10
1.915381162204109
 20
-3.002535063118279
 10
1.921972959079109
 20
-3.000988839159945
 10
1.924373675224943
 20
-3.000988839159945
 10
1.924373675224943
 20
-3.000988839159945
 10
1.925309547620776
 20
-3.000988839159945
 10
1.925309547620776
 20
-3.000988839159945
 10
1.929419248141609
 20
-3.001626317458557
 10
1.934220680433276
 20
-3.003104724576612
 10
1.939605337551332
 20
-3.005424060514112
 10
1.939605337551332
 20
-3.005424060514112
 10
1.950808679565221
 20
-3.00939812735439
 10
1.950808679565221
 20
-3.00939812735439
 10
1.950808679565221
 20
-3.00939812735439
 10
1.957169899183276
 20
-2.999551122146057
 10
1.957169899183276
 20
-2.999551122146057
 10
1.957169899183276
 20
-2.999551122146057
 10
1.959394291544387
 20
-2.995048083951612
 10
1.959394291544387
 20
-2.995048083951612
 10
1.959394291544387
 20
-2.995048083951612
 10
1.959394291544387
 20
-2.990951946798834
 10
1.959394291544387
 20
-2.990951946798834
 10
1.959394291544387
 20
-2.982881742805779
 10
1.955650801961054
 20
-2.97436394766689
 10
1.947946808905498
 20
-2.964896716764112
 10
1.947946808905498
 20
-2.964896716764112
 10
1.942412954738832
 20
-2.95995965079189
 10
1.942412954738832
 20
-2.95995965079189
 10
1.942412954738832
 20
-2.95995965079189
 10
1.933718835815221
 20
-2.954941204611334
 10
1.933718835815221
 20
-2.954941204611334
 10
1.931399499877721
 20
-2.953340727180779
 10
1.928754643106887
 20
-2.952174277528001
 10
1.925811392238832
 20
-2.951455419021057
 10
1.931535133558276
 20
-2.93371453360439
 10
1.936675650051332
 20
-2.917899646451612
 10
1.941246505086054
 20
-2.903942940722446
 10
1.946264951266609
 20
-2.887992419889112
 10
1.954782746405498
 20
-2.875581938118279
 10
1.967233918280498
 20
-2.866141833951612
 10
1.989328644842998
 20
-2.863293526659946
 10
2.002525801961054
 20
-2.860919937250223
 10
2.002525801961054
 20
-2.84704461172939
 10
2.002525801961054
 20
-2.84704461172939
 10
2.002525801961054
 20
-2.842663643847446
 10
2.002525801961054
 20
-2.842663643847446
 10
2.002525801961054
 20
-2.842663643847446
 10
1.992760176961054
 20
-2.828747628222446
 10
1.992760176961054
 20
-2.828747628222446
 97
        0
 97
        1
330
8C
 75
     2
 76
     1
 98
        1
 10
0.0
 20
0.0
450
        0
451
        0
460
0.0
461
0.0
452
        0
462
0.0
453
        0
470

  0
ENDBLK
  5
84
330
81
100
AcDbEntity
  8
0
100
AcDbBlockEnd
  0
BLOCK
  5
A2
330
A0
100
AcDbEntity
  8
0
100
AcDbBlockBegin
  2
Block_1
 70
     0
 10
0.0
 20
0.0
 30
0.0
  3
Block_1
  1

  0
SPLINE
  5
A4
330
A0
100
AcDbEntity
  8
Let It Snow
100
AcDbSpline
210
0.0
220
0.0
230
1.0
 70
    11
 71
     3
 72
   134
 73
   130
 74
     0
 42
0.0000000001
 43
0.0000000001
 40
0.0
 40
0.0
 40
0.0
 40
0.0
 40
1.0
 40
1.0
 40
1.0
 40
2.0
 40
2.0
 40
2.0
 40
3.0
 40
3.0
 40
3.0
 40
4.0
 40
4.0
 40
4.0
 40
5.0
 40
5.0
 40
5.0
 40
6.0
 40
6.0
 40
6.0
 40
7.0
 40
7.0
 40
7.0
 40
8.0
 40
8.0
 40
8.0
 40
9.0
 40
9.0
 40
9.0
 40
10.0
 40
10.0
 40
10.0
 40
11.0
 40
11.0
 40
11.0
 40
12.0
 40
12.0
 40
12.0
 40
13.0
 40
13.0
 40
13.0
 40
14.0
 40
14.0
 40
14.0
 40
15.0
 40
15.0
 40
15.0
 40
16.0
 40
16.0
 40
16.0
 40
17.0
 40
17.0
 40
17.0
 40
18.0
 40
18.0
 40
18.0
 40
19.0
 40
19.0
 40
19.0
 40
20.0
 40
20.0
 40
20.0
 40
21.0
 40
21.0
 40
21.0
 40
22.0
 40
22.0
 40
22.0
 40
23.0
 40
23.0
 40
23.0
 40
24.0
 40
24.0
 40
24.0
 40
25.0
 40
25.0
 40
25.0
 40
26.0
 40
26.0
 40
26.0
 40
27.0
 40
27.0
 40
27.0
 40
28.0
 40
28.0
 40
28.0
 40
29.0
 40
29.0
 40
29.0
 40
30.0
 40
30.0
 40
30.0
 40
31.0
 40
31.0
 40
31.0
 40
32.0
 40
32.0
 40
32.0
 40
33.0
 40
33.0
 40
33.0
 40
34.0
 40
34.0
 40
34.0
 40
35.0
 40
35.0
 40
35.0
 40
36.0
 40
36.0
 40
36.0
 40
37.0
 40
37.0
 40
37.0
 40
38.0
 40
38.0
 40
38.0
 40
39.0
 40
39.0
 40
39.0
 40
40.0
 40
40.0
 40
40.0
 40
41.0
 40
41.0
 40
41.0
 40
42.0
 40
42.0
 40
42.0
 40
43.0
 40
43.0
 40
43.0
 40
43.0
 10
1.098106856648554
 20
-2.750771825271057
 30
0.0
 10
1.098106856648554
 20
-2.750771825271057
 30
0.0
 10
1.093074847099943
 20
-2.744112211555779
 30
0.0
 10
1.093074847099943
 20
-2.744112211555779
 30
0.0
 10
1.09104034189161
 20
-2.741426664680779
 30
0.0
 10
1.086822134426332
 20
-2.73583855704189
 30
0.0
 10
1.079240211683276
 20
-2.73583855704189
 30
0.0
 10
1.079240211683276
 20
-2.73583855704189
 30
0.0
 10
1.074140385294387
 20
-2.73583855704189
 30
0.0
 10
1.074140385294387
 20
-2.73583855704189
 30
0.0
 10
1.074140385294387
 20
-2.73583855704189
 30
0.0
 10
1.070247698662443
 20
-2.739148018847445
 30
0.0
 10
1.070247698662443
 20
-2.739148018847445
 30
0.0
 10
1.066965363592998
 20
-2.741928509298834
 30
0.0
 10
1.064496830606887
 20
-2.745807632562723
 30
0.0
 10
1.062869226440246
 20
-2.750676881694668
 30
0.0
 10
1.052140602308301
 20
-2.765271065722445
 30
0.0
 10
1.046905142238857
 20
-2.767237754090501
 30
0.0
 10
1.046321917412468
 20
-2.767414077875223
 30
0.0
 10
1.046321917412468
 20
-2.767414077875223
 30
0.0
 10
1.043554990329135
 20
-2.767902359125223
 30
0.0
 10
1.043554990329135
 20
-2.767902359125223
 30
0.0
 10
1.043554990329135
 20
-2.767902359125223
 30
0.0
 10
1.041072893974956
 20
-2.77050652579189
 30
0.0
 10
1.041072893974956
 20
-2.77050652579189
 30
0.0
 10
1.040584612724956
 20
-2.770818483257168
 30
0.0
 10
1.035973067586067
 20
-2.773531156868279
 30
0.0
 10
1.015906064547872
 20
-2.77587761954189
 30
0.0
 10
1.015906064547872
 20
-2.77587761954189
 30
0.0
 10
1.016455380954122
 20
-2.670313925965501
 30
0.0
 10
1.016455380954122
 20
-2.670313925965501
 30
0.0
 10
1.016455380954122
 20
-2.666272042284945
 30
0.0
 10
1.017248837985372
 20
-2.663098214159945
 30
0.0
 10
1.019168054565233
 20
-2.660358413812723
 30
0.0
 10
1.019168054565233
 20
-2.660344850444668
 30
0.0
 10
1.020320940849956
 20
-2.658907133430779
 30
0.0
 10
1.025108809773567
 20
-2.657455853048834
 30
0.0
 10
1.025108809773567
 20
-2.657455853048834
 30
0.0
 10
1.0349558149819
 20
-2.654458348708557
 30
0.0
 10
1.0349558149819
 20
-2.654458348708557
 30
0.0
 10
1.0349558149819
 20
-2.654458348708557
 30
0.0
 10
1.0349558149819
 20
-2.64416375235439
 30
0.0
 10
1.0349558149819
 20
-2.64416375235439
 30
0.0
 10
1.0349558149819
 20
-2.640298192458557
 30
0.0
 10
1.033694421752733
 20
-2.636432632562723
 30
0.0
 10
1.031307268974956
 20
-2.633001100444668
 30
0.0
 10
1.031307268974956
 20
-2.633001100444668
 30
0.0
 10
1.026614343627733
 20
-2.626246543153001
 30
0.0
 10
1.026614343627733
 20
-2.626246543153001
 30
0.0
 10
1.026614343627733
 20
-2.626246543153001
 30
0.0
 10
1.018428851006206
 20
-2.627114598708557
 30
0.0
 10
1.018428851006206
 20
-2.627114598708557
 30
0.0
 10
1.008520810641622
 20
-2.62817254141689
 30
0.0
 10
1.000253937811761
 20
-2.628701512771057
 30
0.0
 10
0.9938520280895392
 20
-2.628701512771057
 30
0.0
 10
0.9849748036971782
 20
-2.628701512771057
 30
0.0
 10
0.9754194109020392
 20
-2.62817254141689
 30
0.0
 10
0.9654367720131505
 20
-2.627114598708557
 30
0.0
 10
0.9654367720131505
 20
-2.627114598708557
 30
0.0
 10
0.957759905693706
 20
-2.626300796625223
 30
0.0
 10
0.957759905693706
 20
-2.626300796625223
 30
0.0
 10
0.957759905693706
 20
-2.626300796625223
 30
0.0
 10
0.9530195085582892
 20
-2.632390748882168
 30
0.0
 10
0.9530195085582892
 20
-2.632390748882168
 30
0.0
 10
0.9530195085582892
 20
-2.632390748882168
 30
0.0
 10
0.9483265832110671
 20
-2.639389446798834
 30
0.0
 10
0.9483265832110671
 20
-2.639389446798834
 30
0.0
 10
0.9483265832110671
 20
-2.639389446798834
 30
0.0
 10
0.9483265832110671
 20
-2.654499038812723
 30
0.0
 10
0.9483265832110671
 20
-2.654499038812723
 30
0.0
 10
0.9483265832110671
 20
-2.654499038812723
 30
0.0
 10
0.9582278418916226
 20
-2.65746941641689
 30
0.0
 10
0.9582278418916226
 20
-2.65746941641689
 30
0.0
 10
0.962337542412456
 20
-2.658703682909945
 30
0.0
 10
0.9635989356416226
 20
-2.659558175097445
 30
0.0
 10
0.9646161882457892
 20
-2.660249906868279
 30
0.0
 10
0.9646297516138449
 20
-2.660263470236334
 30
0.0
 10
0.9661691938881505
 20
-2.661769004090501
 30
0.0
 10
0.9674238054332892
 20
-2.667750449403001
 30
0.0
 10
0.9674238054332892
 20
-2.667750449403001
 30
0.0
 10
0.9674238054332892
 20
-2.775280831347445
 30
0.0
 10
0.9674238054332892
 20
-2.775280831347445
 30
0.0
 10
0.9663183909367615
 20
-2.779485475444668
 30
0.0
 10
0.9651519412839837
 20
-2.781533544021057
 30
0.0
 10
0.964473772881206
 20
-2.782455853048834
 30
0.0
 10
0.9537248036971782
 20
-2.787040271451612
 30
0.0
 10
0.9478383019610671
 20
-2.790092029264112
 30
0.0
 10
0.9478383019610671
 20
-2.79919304922939
 30
0.0
 10
0.9478383019610671
 20
-2.79919304922939
 30
0.0
 10
0.9478383019610671
 20
-2.80248894766689
 30
0.0
 10
0.9478383019610671
 20
-2.80248894766689
 30
0.0
 10
0.9478383019610671
 20
-2.80248894766689
 30
0.0
 10
0.9493234907631505
 20
-2.805445761903001
 30
0.0
 10
0.9493234907631505
 20
-2.805445761903001
 30
0.0
 10
0.9500287859020392
 20
-2.806842788812723
 30
0.0
 10
0.9507815528291226
 20
-2.808063491937723
 30
0.0
 10
0.9515614464923171
 20
-2.809121434646057
 30
0.0
 10
0.9515614464923171
 20
-2.809121434646057
 30
0.0
 10
0.9515614464923171
 20
-2.817883370409946
 30
0.0
 10
0.9515614464923171
 20
-2.817883370409946
 30
0.0
 10
0.9515614464923171
 20
-2.817883370409946
 30
0.0
 10
0.9673559885930115
 20
-2.815686104784946
 30
0.0
 10
0.9673559885930115
 20
-2.815686104784946
 30
0.0
 10
0.9739545671520392
 20
-2.814777359125223
 30
0.0
 10
0.9821604048256505
 20
-2.81408562735439
 30
0.0
 10
0.9907053267006505
 20
-2.813665162944668
 30
0.0
 10
1.006710101006206
 20
-2.814126317458557
 30
0.0
 10
1.022084178697178
 20
-2.814356894715501
 30
0.0
 10
1.036841123141622
 20
-2.814356894715501
 30
0.0
 10
1.036841123141622
 20
-2.814356894715501
 30
0.0
 10
1.049495745537468
 20
-2.814356894715501
 30
0.0
 10
1.049495745537468
 20
-2.814356894715501
 30
0.0
 10
1.050919899183301
 20
-2.816323583083557
 30
0.0
 10
1.052561066718024
 20
-2.817978313986334
 30
0.0
 10
1.05443281150969
 20
-2.819280397319668
 30
0.0
 10
1.05443281150969
 20
-2.819280397319668
 30
0.0
 10
1.058013540676357
 20
-2.821789620409946
 30
0.0
 10
1.058013540676357
 20
-2.821789620409946
 30
0.0
 10
1.058013540676357
 20
-2.821789620409946
 30
0.0
 10
1.06455108407911
 20
-2.821789620409946
 30
0.0
 10
1.06455108407911
 20
-2.821789620409946
 30
0.0
 10
1.078073762030498
 20
-2.821789620409946
 30
0.0
 10
1.080081140502721
 20
-2.808171998882168
 30
0.0
 10
1.081478167412443
 20
-2.796833023187723
 30
0.0
 10
1.08518096689161
 20
-2.782035388639112
 30
0.0
 10
1.089589061509665
 20
-2.769082372146057
 30
0.0
 10
1.094593944322165
 20
-2.758340184646057
 30
0.0
 10
1.094593944322165
 20
-2.758340184646057
 30
0.0
 10
1.098106856648554
 20
-2.750771825271057
 30
0.0
 10
1.098106856648554
 20
-2.750771825271057
 30
0.0
  0
HATCH
  5
A5
330
A0
100
AcDbEntity
  8
Let It Snow
 62
    95
420
  3781962
440
 33554687
100
AcDbHatch
 10
0.0
 20
0.0
 30
0.0
210
0.0
220
0.0
230
1.0
  2
SOLID
 70
     1
 71
     1
 91
        1
 92
        1
 93
        1
 72
     4
 94
        3
 73
     0
 74
     0
 95
      134
 96
      130
 40
0.0
 40
0.0
 40
0.0
 40
0.0
 40
1.0
 40
1.0
 40
1.0
 40
2.0
 40
2.0
 40
2.0
 40
3.0
 40
3.0
 40
3.0
 40
4.0
 40
4.0
 40
4.0
 40
5.0
 40
5.0
 40
5.0
 40
6.0
 40
6.0
 40
6.0
 40
7.0
 40
7.0
 40
7.0
 40
8.0
 40
8.0
 40
8.0
 40
9.0
 40
9.0
 40
9.0
 40
10.0
 40
10.0
 40
10.0
 40
11.0
 40
11.0
 40
11.0
 40
12.0
 40
12.0
 40
12.0
 40
13.0
 40
13.0
 40
13.0
 40
14.0
 40
14.0
 40
14.0
 40
15.0
 40
15.0
 40
15.0
 40
16.0
 40
16.0
 40
16.0
 40
17.0
 40
17.0
 40
17.0
 40
18.0
 40
18.0
 40
18.0
 40
19.0
 40
19.0
 40
19.0
 40
20.0
 40
20.0
 40
20.0
 40
21.0
 40
21.0
 40
21.0
 40
22.0
 40
22.0
 40
22.0
 40
23.0
 40
23.0
 40
23.0
 40
24.0
 40
24.0
 40
24.0
 40
25.0
 40
25.0
 40
25.0
 40
26.0
 40
26.0
 40
26.0
 40
27.0
 40
27.0
 40
27.0
 40
28.0
 40
28.0
 40
28.0
 40
29.0
 40
29.0
 40
29.0
 40
30.0
 40
30.0
 40
30.0
 40
31.0
 40
31.0
 40
31.0
 40
32.0
 40
32.0
 40
32.0
 40
33.0
 40
33.0
 40
33.0
 40
34.0
 40
34.0
 40
34.0
 40
35.0
 40
35.0
 40
35.0
 40
36.0
 40
36.0
 40
36.0
 40
37.0
 40
37.0
 40
37.0
 40
38.0
 40
38.0
 40
38.0
 40
39.0
 40
39.0
 40
39.0
 40
40.0
 40
40.0
 40
40.0
 40
41.0
 40
41.0
 40
41.0
 40
42.0
 40
42.0
 40
42.0
 40
43.0
 40
43.0
 40
43.0
 40
43.0
 10
1.098106856648554
 20
-2.750771825271057
 10
1.098106856648554
 20
-2.750771825271057
 10
1.093074847099943
 20
-2.744112211555779
 10
1.093074847099943
 20
-2.744112211555779
 10
1.09104034189161
 20
-2.741426664680779
 10
1.086822134426332
 20
-2.73583855704189
 10
1.079240211683276
 20
-2.73583855704189
 10
1.079240211683276
 20
-2.73583855704189
 10
1.074140385294387
 20
-2.73583855704189
 10
1.074140385294387
 20
-2.73583855704189
 10
1.074140385294387
 20
-2.73583855704189
 10
1.070247698662443
 20
-2.739148018847445
 10
1.070247698662443
 20
-2.739148018847445
 10
1.066965363592998
 20
-2.741928509298834
 10
1.064496830606887
 20
-2.745807632562723
 10
1.062869226440246
 20
-2.750676881694668
 10
1.052140602308301
 20
-2.765271065722445
 10
1.046905142238857
 20
-2.767237754090501
 10
1.046321917412468
 20
-2.767414077875223
 10
1.046321917412468
 20
-2.767414077875223
 10
1.043554990329135
 20
-2.767902359125223
 10
1.043554990329135
 20
-2.767902359125223
 10
1.043554990329135
 20
-2.767902359125223
 10
1.041072893974956
 20
-2.77050652579189
 10
1.041072893974956
 20
-2.77050652579189
 10
1.040584612724956
 20
-2.770818483257168
 10
1.035973067586067
 20
-2.773531156868279
 10
1.015906064547872
 20
-2.77587761954189
 10
1.015906064547872
 20
-2.77587761954189
 10
1.016455380954122
 20
-2.670313925965501
 10
1.016455380954122
 20
-2.670313925965501
 10
1.016455380954122
 20
-2.666272042284945
 10
1.017248837985372
 20
-2.663098214159945
 10
1.019168054565233
 20
-2.660358413812723
 10
1.019168054565233
 20
-2.660344850444668
 10
1.020320940849956
 20
-2.658907133430779
 10
1.025108809773567
 20
-2.657455853048834
 10
1.025108809773567
 20
-2.657455853048834
 10
1.0349558149819
 20
-2.654458348708557
 10
1.0349558149819
 20
-2.654458348708557
 10
1.0349558149819
 20
-2.654458348708557
 10
1.0349558149819
 20
-2.64416375235439
 10
1.0349558149819
 20
-2.64416375235439
 10
1.0349558149819
 20
-2.640298192458557
 10
1.033694421752733
 20
-2.636432632562723
 10
1.031307268974956
 20
-2.633001100444668
 10
1.031307268974956
 20
-2.633001100444668
 10
1.026614343627733
 20
-2.626246543153001
 10
1.026614343627733
 20
-2.626246543153001
 10
1.026614343627733
 20
-2.626246543153001
 10
1.018428851006206
 20
-2.627114598708557
 10
1.018428851006206
 20
-2.627114598708557
 10
1.008520810641622
 20
-2.62817254141689
 10
1.000253937811761
 20
-2.628701512771057
 10
0.9938520280895392
 20
-2.628701512771057
 10
0.9849748036971782
 20
-2.628701512771057
 10
0.9754194109020392
 20
-2.62817254141689
 10
0.9654367720131505
 20
-2.627114598708557
 10
0.9654367720131505
 20
-2.627114598708557
 10
0.957759905693706
 20
-2.626300796625223
 10
0.957759905693706
 20
-2.626300796625223
 10
0.957759905693706
 20
-2.626300796625223
 10
0.9530195085582892
 20
-2.632390748882168
 10
0.9530195085582892
 20
-2.632390748882168
 10
0.9530195085582892
 20
-2.632390748882168
 10
0.9483265832110671
 20
-2.639389446798834
 10
0.9483265832110671
 20
-2.639389446798834
 10
0.9483265832110671
 20
-2.639389446798834
 10
0.9483265832110671
 20
-2.654499038812723
 10
0.9483265832110671
 20
-2.654499038812723
 10
0.9483265832110671
 20
-2.654499038812723
 10
0.9582278418916226
 20
-2.65746941641689
 10
0.9582278418916226
 20
-2.65746941641689
 10
0.962337542412456
 20
-2.658703682909945
 10
0.9635989356416226
 20
-2.659558175097445
 10
0.9646161882457892
 20
-2.660249906868279
 10
0.9646297516138449
 20
-2.660263470236334
 10
0.9661691938881505
 20
-2.661769004090501
 10
0.9674238054332892
 20
-2.667750449403001
 10
0.9674238054332892
 20
-2.667750449403001
 10
0.9674238054332892
 20
-2.775280831347445
 10
0.9674238054332892
 20
-2.775280831347445
 10
0.9663183909367615
 20
-2.779485475444668
 10
0.9651519412839837
 20
-2.781533544021057
 10
0.964473772881206
 20
-2.782455853048834
 10
0.9537248036971782
 20
-2.787040271451612
 10
0.9478383019610671
 20
-2.790092029264112
 10
0.9478383019610671
 20
-2.79919304922939
 10
0.9478383019610671
 20
-2.79919304922939
 10
0.9478383019610671
 20
-2.80248894766689
 10
0.9478383019610671
 20
-2.80248894766689
 10
0.9478383019610671
 20
-2.80248894766689
 10
0.9493234907631505
 20
-2.805445761903001
 10
0.9493234907631505
 20
-2.805445761903001
 10
0.9500287859020392
 20
-2.806842788812723
 10
0.9507815528291226
 20
-2.808063491937723
 10
0.9515614464923171
 20
-2.809121434646057
 10
0.9515614464923171
 20
-2.809121434646057
 10
0.9515614464923171
 20
-2.817883370409946
 10
0.9515614464923171
 20
-2.817883370409946
 10
0.9515614464923171
 20
-2.817883370409946
 10
0.9673559885930115
 20
-2.815686104784946
 10
0.9673559885930115
 20
-2.815686104784946
 10
0.9739545671520392
 20
-2.814777359125223
 10
0.9821604048256505
 20
-2.81408562735439
 10
0.9907053267006505
 20
-2.813665162944668
 10
1.006710101006206
 20
-2.814126317458557
 10
1.022084178697178
 20
-2.814356894715501
 10
1.036841123141622
 20
-2.814356894715501
 10
1.036841123141622
 20
-2.814356894715501
 10
1.049495745537468
 20
-2.814356894715501
 10
1.049495745537468
 20
-2.814356894715501
 10
1.050919899183301
 20
-2.816323583083557
 10
1.052561066718024
 20
-2.817978313986334
 10
1.05443281150969
 20
-2.819280397319668
 10
1.05443281150969
 20
-2.819280397319668
 10
1.058013540676357
 20
-2.821789620409946
 10
1.058013540676357
 20
-2.821789620409946
 10
1.058013540676357
 20
-2.821789620409946
 10
1.06455108407911
 20
-2.821789620409946
 10
1.06455108407911
 20
-2.821789620409946
 10
1.078073762030498
 20
-2.821789620409946
 10
1.080081140502721
 20
-2.808171998882168
 10
1.081478167412443
 20
-2.796833023187723
 10
1.08518096689161
 20
-2.782035388639112
 10
1.089589061509665
 20
-2.769082372146057
 10
1.094593944322165
 20
-2.758340184646057
 10
1.094593944322165
 20
-2.758340184646057
 10
1.098106856648554
 20
-2.750771825271057
 10
1.098106856648554
 20
-2.750771825271057
 97
        0
 97
        1
330
A4
 75
     2
 76
     1
 98
        1
 10
0.0
 20
0.0
450
        0
451
        0
460
0.0
461
0.0
452
        0
462
0.0
453
        0
470

  0
SPLINE
  5
A6
330
A0
100
AcDbEntity
  8
Let It Snow
100
AcDbSpline
210
0.0
220
0.0
230
1.0
 70
    11
 71
     3
 72
    26
 73
    22
 74
     0
 42
0.0000000001
 43
0.0000000001
 40
0.0
 40
0.0
 40
0.0
 40
0.0
 40
1.0
 40
1.0
 40
1.0
 40
2.0
 40
2.0
 40
2.0
 40
3.0
 40
3.0
 40
3.0
 40
4.0
 40
4.0
 40
4.0
 40
5.0
 40
5.0
 40
5.0
 40
6.0
 40
6.0
 40
6.0
 40
7.0
 40
7.0
 40
7.0
 40
7.0
 10
1.154123566717998
 20
-2.735811430305779
 30
0.0
 10
1.154123566717998
 20
-2.735811430305779
 30
0.0
 10
1.174685632690221
 20
-2.735811430305779
 30
0.0
 10
1.174685632690221
 20
-2.735811430305779
 30
0.0
 10
1.175540124877721
 20
-2.736950753222445
 30
0.0
 10
1.177086348836054
 20
-2.739446412944668
 30
0.0
 10
1.178944530259665
 20
-2.744410605653001
 30
0.0
 10
1.178944530259665
 20
-2.744410605653001
 30
0.0
 10
1.185088735988832
 20
-2.760808717632168
 30
0.0
 10
1.185088735988832
 20
-2.760808717632168
 30
0.0
 10
1.185088735988832
 20
-2.760808717632168
 30
0.0
 10
1.203426409599943
 20
-2.748588123014112
 30
0.0
 10
1.203426409599943
 20
-2.748588123014112
 30
0.0
 10
1.200483158731887
 20
-2.75317254141689
 30
0.0
 10
1.197404274183276
 20
-2.75720086172939
 30
0.0
 10
1.194203319322165
 20
-2.760605267111334
 30
0.0
 10
1.183691709079109
 20
-2.766125557909945
 30
0.0
 10
1.170182594495776
 20
-2.768729724576612
 30
0.0
 10
1.154123566717998
 20
-2.76843133047939
 30
0.0
 10
1.154123566717998
 20
-2.76843133047939
 30
0.0
 10
1.154123566717998
 20
-2.735811430305779
 30
0.0
 10
1.154123566717998
 20
-2.735811430305779
 30
0.0
  0
SPLINE
  5
A7
330
A0
100
AcDbEntity
  8
Let It Snow
100
AcDbSpline
210
0.0
220
0.0
230
1.0
 70
    11
 71
     3
 72
    26
 73
    22
 74
     0
 42
0.0000000001
 43
0.0000000001
 40
0.0
 40
0.0
 40
0.0
 40
0.0
 40
1.0
 40
1.0
 40
1.0
 40
2.0
 40
2.0
 40
2.0
 40
3.0
 40
3.0
 40
3.0
 40
4.0
 40
4.0
 40
4.0
 40
5.0
 40
5.0
 40
5.0
 40
6.0
 40
6.0
 40
6.0
 40
7.0
 40
7.0
 40
7.0
 40
7.0
 10
1.181575823662443
 20
-2.676837906000223
 30
0.0
 10
1.181575823662443
 20
-2.676837906000223
 30
0.0
 10
1.176326800224943
 20
-2.689139880826612
 30
0.0
 10
1.176326800224943
 20
-2.689139880826612
 30
0.0
 10
1.175119660467998
 20
-2.691974624750223
 30
0.0
 10
1.174156661336054
 20
-2.693982003222445
 30
0.0
 10
1.173410676092998
 20
-2.695392593500223
 30
0.0
 10
1.173410676092998
 20
-2.695392593500223
 30
0.0
 10
1.154123566717998
 20
-2.695392593500223
 30
0.0
 10
1.154123566717998
 20
-2.695392593500223
 30
0.0
 10
1.154123566717998
 20
-2.695392593500223
 30
0.0
 10
1.154123566717998
 20
-2.667506308778001
 30
0.0
 10
1.154123566717998
 20
-2.667506308778001
 30
0.0
 10
1.156687043280498
 20
-2.667099407736334
 30
0.0
 10
1.160647546752721
 20
-2.666692506694668
 30
0.0
 10
1.166588301961054
 20
-2.666570436382168
 30
0.0
 10
1.174495745537443
 20
-2.666570436382168
 30
0.0
 10
1.184166426961054
 20
-2.668360800965501
 30
0.0
 10
1.191924673488832
 20
-2.680798409472445
 30
0.0
 10
1.191924673488832
 20
-2.680798409472445
 30
0.0
 10
1.181575823662443
 20
-2.676837906000223
 30
0.0
 10
1.181575823662443
 20
-2.676837906000223
 30
0.0
  0
SPLINE
  5
A8
330
A0
100
AcDbEntity
  8
Let It Snow
100
AcDbSpline
210
0.0
220
0.0
230
1.0
 70
     9
 71
     3
 72
   119
 73
   115
 74
     0
 42
0.0000000001
 43
0.0000000001
 40
0.0
 40
0.0
 40
0.0
 40
0.0
 40
1.0
 40
1.0
 40
1.0
 40
2.0
 40
2.0
 40
2.0
 40
3.0
 40
3.0
 40
3.0
 40
4.0
 40
4.0
 40
4.0
 40
5.0
 40
5.0
 40
5.0
 40
6.0
 40
6.0
 40
6.0
 40
7.0
 40
7.0
 40
7.0
 40
8.0
 40
8.0
 40
8.0
 40
9.0
 40
9.0
 40
9.0
 40
10.0
 40
10.0
 40
10.0
 40
11.0
 40
11.0
 40
11.0
 40
12.0
 40
12.0
 40
12.0
 40
13.0
 40
13.0
 40
13.0
 40
14.0
 40
14.0
 40
14.0
 40
15.0
 40
15.0
 40
15.0
 40
16.0
 40
16.0
 40
16.0
 40
17.0
 40
17.0
 40
17.0
 40
18.0
 40
18.0
 40
18.0
 40
19.0
 40
19.0
 40
19.0
 40
20.0
 40
20.0
 40
20.0
 40
21.0
 40
21.0
 40
21.0
 40
22.0
 40
22.0
 40
22.0
 40
23.0
 40
23.0
 40
23.0
 40
24.0
 40
24.0
 40
24.0
 40
25.0
 40
25.0
 40
25.0
 40
26.0
 40
26.0
 40
26.0
 40
27.0
 40
27.0
 40
27.0
 40
28.0
 40
28.0
 40
28.0
 40
29.0
 40
29.0
 40
29.0
 40
30.0
 40
30.0
 40
30.0
 40
31.0
 40
31.0
 40
31.0
 40
32.0
 40
32.0
 40
32.0
 40
33.0
 40
33.0
 40
33.0
 40
34.0
 40
34.0
 40
34.0
 40
35.0
 40
35.0
 40
35.0
 40
36.0
 40
36.0
 40
36.0
 40
37.0
 40
37.0
 40
37.0
 40
38.0
 40
38.0
 40
38.0
 40
38.0
 10
1.221235111856887
 20
-2.731538969368279
 30
0.0
 10
1.221235111856887
 20
-2.731538969368279
 30
0.0
 10
1.212771570190221
 20
-2.731538969368279
 30
0.0
 10
1.212771570190221
 20
-2.731538969368279
 30
0.0
 10
1.212771570190221
 20
-2.731538969368279
 30
0.0
 10
1.209231531127721
 20
-2.73840203360439
 30
0.0
 10
1.209231531127721
 20
-2.73840203360439
 30
0.0
 10
1.209231531127721
 20
-2.73840203360439
 30
0.0
 10
1.208485545884665
 20
-2.734780614333557
 30
0.0
 10
1.208485545884665
 20
-2.734780614333557
 30
0.0
 10
1.206790124877721
 20
-2.726588340028001
 30
0.0
 10
1.205935632690221
 20
-2.718667333083557
 30
0.0
 10
1.205935632690221
 20
-2.711248170757168
 30
0.0
 10
1.205935632690221
 20
-2.707165596972445
 30
0.0
 10
1.206193336683276
 20
-2.703191530132168
 30
0.0
 10
1.206695181301332
 20
-2.699353096972445
 30
0.0
 10
1.206695181301332
 20
-2.699353096972445
 30
0.0
 10
1.206817251613832
 20
-2.697616985861334
 30
0.0
 10
1.206817251613832
 20
-2.697616985861334
 30
0.0
 10
1.206817251613832
 20
-2.697616985861334
 30
0.0
 10
1.211767880954109
 20
-2.696464099576612
 30
0.0
 10
1.211767880954109
 20
-2.696464099576612
 30
0.0
 10
1.218603818454109
 20
-2.694863622146057
 30
0.0
 10
1.223717208211054
 20
-2.689967246278001
 30
0.0
 10
1.225805966891609
 20
-2.683036365201612
 30
0.0
 10
1.225805966891609
 20
-2.683036365201612
 30
0.0
 10
1.227460697794387
 20
-2.677583891243279
 30
0.0
 10
1.227460697794387
 20
-2.677583891243279
 30
0.0
 10
1.227460697794387
 20
-2.677583891243279
 30
0.0
 10
1.224802277655498
 20
-2.672551881694668
 30
0.0
 10
1.224802277655498
 20
-2.672551881694668
 30
0.0
 10
1.222903406127721
 20
-2.66894402579189
 30
0.0
 10
1.220651887030498
 20
-2.661755440722445
 30
0.0
 10
1.220529816717998
 20
-2.647920805305779
 30
0.0
 10
1.220529816717998
 20
-2.647920805305779
 30
0.0
 10
1.224002038940221
 20
-2.627033218500223
 30
0.0
 10
1.224002038940221
 20
-2.627033218500223
 30
0.0
 10
1.224002038940221
 20
-2.627033218500223
 30
0.0
 10
1.225004791141044
 20
-2.622136008037336
 30
0.0
 10
1.225004791141044
 20
-2.622136008037336
 30
0.0
 10
1.225004791141044
 20
-2.622136008037336
 30
0.0
 10
1.220529816717998
 20
-2.622123279264112
 30
0.0
 10
1.220529816717998
 20
-2.622123279264112
 30
0.0
 10
1.220529816717998
 20
-2.622123279264112
 30
0.0
 10
1.203250085815221
 20
-2.626477120409945
 30
0.0
 10
1.203250085815221
 20
-2.626477120409945
 30
0.0
 10
1.199804990329109
 20
-2.627345175965501
 30
0.0
 10
1.197431400919387
 20
-2.627901274055779
 30
0.0
 10
1.196848176092998
 20
-2.628023344368279
 30
0.0
 10
1.196848176092998
 20
-2.628023344368279
 30
0.0
 10
1.124799564981887
 20
-2.628036907736334
 30
0.0
 10
1.124799564981887
 20
-2.628036907736334
 30
0.0
 10
1.123307594495776
 20
-2.62792840079189
 30
0.0
 10
1.118546852308276
 20
-2.627304485861334
 30
0.0
 10
1.110517338419387
 20
-2.626192289680779
 30
0.0
 10
1.110517338419387
 20
-2.626192289680779
 30
0.0
 10
1.102175867065221
 20
-2.626056656000223
 30
0.0
 10
1.102175867065221
 20
-2.626056656000223
 30
0.0
 10
1.102175867065221
 20
-2.626056656000223
 30
0.0
 10
1.099110545884665
 20
-2.627697823534945
 30
0.0
 10
1.099110545884665
 20
-2.627697823534945
 30
0.0
 10
1.090172286336054
 20
-2.632472129090501
 30
0.0
 10
1.08884307626661
 20
-2.639267376486334
 30
0.0
 10
1.08884307626661
 20
-2.642888795757168
 30
0.0
 10
1.08884307626661
 20
-2.642888795757168
 30
0.0
 10
1.08884307626661
 20
-2.646171130826612
 30
0.0
 10
1.08884307626661
 20
-2.646171130826612
 30
0.0
 10
1.08884307626661
 20
-2.646171130826612
 30
0.0
 10
1.094241296752721
 20
-2.656954008430779
 30
0.0
 10
1.094241296752721
 20
-2.656954008430779
 30
0.0
 10
1.094241296752721
 20
-2.656954008430779
 30
0.0
 10
1.100670333211054
 20
-2.658391725444668
 30
0.0
 10
1.100670333211054
 20
-2.658391725444668
 30
0.0
 10
1.10446807626661
 20
-2.659246217632168
 30
0.0
 10
1.106434764634665
 20
-2.660168526659945
 30
0.0
 10
1.107343510294387
 20
-2.660711061382168
 30
0.0
 10
1.107343510294387
 20
-2.660711061382168
 30
0.0
 10
1.107343510294387
 20
-2.774724733257168
 30
0.0
 10
1.107343510294387
 20
-2.774724733257168
 30
0.0
 10
1.106597525051332
 20
-2.776040379958557
 30
0.0
 10
1.104183245537443
 20
-2.77795281485439
 30
0.0
 10
1.099232616197165
 20
-2.779810996278001
 30
0.0
 10
1.099232616197165
 20
-2.779810996278001
 30
0.0
 10
1.087120528523554
 20
-2.784341161208557
 30
0.0
 10
1.087120528523554
 20
-2.784341161208557
 30
0.0
 10
1.087120528523554
 20
-2.784341161208557
 30
0.0
 10
1.095421309773554
 20
-2.812512276659946
 30
0.0
 10
1.095421309773554
 20
-2.812512276659946
 30
0.0
 10
1.095421309773554
 20
-2.812512276659946
 30
0.0
 10
1.106326257690221
 20
-2.811983305305779
 30
0.0
 10
1.106326257690221
 20
-2.811983305305779
 30
0.0
 10
1.137372807169387
 20
-2.810464208083557
 30
0.0
 10
1.166642555433276
 20
-2.810030180305779
 30
0.0
 10
1.193091123141609
 20
-2.810776165548834
 30
0.0
 10
1.196129317586054
 20
-2.814465401659946
 30
0.0
 10
1.200510285467998
 20
-2.817883370409946
 30
0.0
 10
1.206640927829109
 20
-2.817883370409946
 30
0.0
 10
1.206640927829109
 20
-2.817883370409946
 30
0.0
 10
1.222482941717998
 20
-2.817883370409946
 30
0.0
 10
1.222482941717998
 20
-2.817883370409946
 30
0.0
 10
1.222482941717998
 20
-2.817883370409946
 30
0.0
 10
1.222482941717998
 20
-2.803994481521057
 30
0.0
 10
1.222482941717998
 20
-2.803994481521057
 30
0.0
 10
1.222482941717998
 20
-2.797646825271057
 30
0.0
 10
1.225005728176332
 20
-2.783907133430779
 30
0.0
 10
1.237022872273554
 20
-2.754488188118279
 30
0.0
 10
1.237022872273554
 20
-2.754488188118279
 30
0.0
 10
1.238053688245776
 20
-2.751965401659945
 30
0.0
 10
1.238053688245776
 20
-2.751965401659945
 30
0.0
 10
1.238053688245776
 20
-2.751965401659945
 30
0.0
 10
1.238053688245776
 20
-2.749239164680779
 30
0.0
 10
1.238053688245776
 20
-2.749239164680779
 30
0.0
 10
1.238053688245776
 20
-2.737615358257168
 30
0.0
 10
1.229590146579109
 20
-2.731538969368279
 30
0.0
 10
1.221235111856887
 20
-2.731538969368279
 30
0.0
  0
HATCH
  5
A9
330
A0
100
AcDbEntity
  8
Let It Snow
 62
    95
420
  3781962
440
 33554687
100
AcDbHatch
 10
0.0
 20
0.0
 30
0.0
210
0.0
220
0.0
230
1.0
  2
SOLID
 70
     1
 71
     1
 91
        3
 92
        1
 93
        1
 72
     4
 94
        3
 73
     0
 74
     0
 95
       26
 96
       22
 40
0.0
 40
0.0
 40
0.0
 40
0.0
 40
1.0
 40
1.0
 40
1.0
 40
2.0
 40
2.0
 40
2.0
 40
3.0
 40
3.0
 40
3.0
 40
4.0
 40
4.0
 40
4.0
 40
5.0
 40
5.0
 40
5.0
 40
6.0
 40
6.0
 40
6.0
 40
7.0
 40
7.0
 40
7.0
 40
7.0
 10
1.154123566717998
 20
-2.735811430305779
 10
1.154123566717998
 20
-2.735811430305779
 10
1.174685632690221
 20
-2.735811430305779
 10
1.174685632690221
 20
-2.735811430305779
 10
1.175540124877721
 20
-2.736950753222445
 10
1.177086348836054
 20
-2.739446412944668
 10
1.178944530259665
 20
-2.744410605653001
 10
1.178944530259665
 20
-2.744410605653001
 10
1.185088735988832
 20
-2.760808717632168
 10
1.185088735988832
 20
-2.760808717632168
 10
1.185088735988832
 20
-2.760808717632168
 10
1.203426409599943
 20
-2.748588123014112
 10
1.203426409599943
 20
-2.748588123014112
 10
1.200483158731887
 20
-2.75317254141689
 10
1.197404274183276
 20
-2.75720086172939
 10
1.194203319322165
 20
-2.760605267111334
 10
1.183691709079109
 20
-2.766125557909945
 10
1.170182594495776
 20
-2.768729724576612
 10
1.154123566717998
 20
-2.76843133047939
 10
1.154123566717998
 20
-2.76843133047939
 10
1.154123566717998
 20
-2.735811430305779
 10
1.154123566717998
 20
-2.735811430305779
 97
        0
 97
        1
330
A6
 92
        1
 93
        1
 72
     4
 94
        3
 73
     0
 74
     0
 95
       26
 96
       22
 40
0.0
 40
0.0
 40
0.0
 40
0.0
 40
1.0
 40
1.0
 40
1.0
 40
2.0
 40
2.0
 40
2.0
 40
3.0
 40
3.0
 40
3.0
 40
4.0
 40
4.0
 40
4.0
 40
5.0
 40
5.0
 40
5.0
 40
6.0
 40
6.0
 40
6.0
 40
7.0
 40
7.0
 40
7.0
 40
7.0
 10
1.181575823662443
 20
-2.676837906000223
 10
1.181575823662443
 20
-2.676837906000223
 10
1.176326800224943
 20
-2.689139880826612
 10
1.176326800224943
 20
-2.689139880826612
 10
1.175119660467998
 20
-2.691974624750223
 10
1.174156661336054
 20
-2.693982003222445
 10
1.173410676092998
 20
-2.695392593500223
 10
1.173410676092998
 20
-2.695392593500223
 10
1.154123566717998
 20
-2.695392593500223
 10
1.154123566717998
 20
-2.695392593500223
 10
1.154123566717998
 20
-2.695392593500223
 10
1.154123566717998
 20
-2.667506308778001
 10
1.154123566717998
 20
-2.667506308778001
 10
1.156687043280498
 20
-2.667099407736334
 10
1.160647546752721
 20
-2.666692506694668
 10
1.166588301961054
 20
-2.666570436382168
 10
1.174495745537443
 20
-2.666570436382168
 10
1.184166426961054
 20
-2.668360800965501
 10
1.191924673488832
 20
-2.680798409472445
 10
1.191924673488832
 20
-2.680798409472445
 10
1.181575823662443
 20
-2.676837906000223
 10
1.181575823662443
 20
-2.676837906000223
 97
        0
 97
        1
330
A7
 92
        1
 93
        1
 72
     4
 94
        3
 73
     0
 74
     0
 95
      119
 96
      115
 40
0.0
 40
0.0
 40
0.0
 40
0.0
 40
1.0
 40
1.0
 40
1.0
 40
2.0
 40
2.0
 40
2.0
 40
3.0
 40
3.0
 40
3.0
 40
4.0
 40
4.0
 40
4.0
 40
5.0
 40
5.0
 40
5.0
 40
6.0
 40
6.0
 40
6.0
 40
7.0
 40
7.0
 40
7.0
 40
8.0
 40
8.0
 40
8.0
 40
9.0
 40
9.0
 40
9.0
 40
10.0
 40
10.0
 40
10.0
 40
11.0
 40
11.0
 40
11.0
 40
12.0
 40
12.0
 40
12.0
 40
13.0
 40
13.0
 40
13.0
 40
14.0
 40
14.0
 40
14.0
 40
15.0
 40
15.0
 40
15.0
 40
16.0
 40
16.0
 40
16.0
 40
17.0
 40
17.0
 40
17.0
 40
18.0
 40
18.0
 40
18.0
 40
19.0
 40
19.0
 40
19.0
 40
20.0
 40
20.0
 40
20.0
 40
21.0
 40
21.0
 40
21.0
 40
22.0
 40
22.0
 40
22.0
 40
23.0
 40
23.0
 40
23.0
 40
24.0
 40
24.0
 40
24.0
 40
25.0
 40
25.0
 40
25.0
 40
26.0
 40
26.0
 40
26.0
 40
27.0
 40
27.0
 40
27.0
 40
28.0
 40
28.0
 40
28.0
 40
29.0
 40
29.0
 40
29.0
 40
30.0
 40
30.0
 40
30.0
 40
31.0
 40
31.0
 40
31.0
 40
32.0
 40
32.0
 40
32.0
 40
33.0
 40
33.0
 40
33.0
 40
34.0
 40
34.0
 40
34.0
 40
35.0
 40
35.0
 40
35.0
 40
36.0
 40
36.0
 40
36.0
 40
37.0
 40
37.0
 40
37.0
 40
38.0
 40
38.0
 40
38.0
 40
38.0
 10
1.221235111856887
 20
-2.731538969368279
 10
1.221235111856887
 20
-2.731538969368279
 10
1.212771570190221
 20
-2.731538969368279
 10
1.212771570190221
 20
-2.731538969368279
 10
1.212771570190221
 20
-2.731538969368279
 10
1.209231531127721
 20
-2.73840203360439
 10
1.209231531127721
 20
-2.73840203360439
 10
1.209231531127721
 20
-2.73840203360439
 10
1.208485545884665
 20
-2.734780614333557
 10
1.208485545884665
 20
-2.734780614333557
 10
1.206790124877721
 20
-2.726588340028001
 10
1.205935632690221
 20
-2.718667333083557
 10
1.205935632690221
 20
-2.711248170757168
 10
1.205935632690221
 20
-2.707165596972445
 10
1.206193336683276
 20
-2.703191530132168
 10
1.206695181301332
 20
-2.699353096972445
 10
1.206695181301332
 20
-2.699353096972445
 10
1.206817251613832
 20
-2.697616985861334
 10
1.206817251613832
 20
-2.697616985861334
 10
1.206817251613832
 20
-2.697616985861334
 10
1.211767880954109
 20
-2.696464099576612
 10
1.211767880954109
 20
-2.696464099576612
 10
1.218603818454109
 20
-2.694863622146057
 10
1.223717208211054
 20
-2.689967246278001
 10
1.225805966891609
 20
-2.683036365201612
 10
1.225805966891609
 20
-2.683036365201612
 10
1.227460697794387
 20
-2.677583891243279
 10
1.227460697794387
 20
-2.677583891243279
 10
1.227460697794387
 20
-2.677583891243279
 10
1.224802277655498
 20
-2.672551881694668
 10
1.224802277655498
 20
-2.672551881694668
 10
1.222903406127721
 20
-2.66894402579189
 10
1.220651887030498
 20
-2.661755440722445
 10
1.220529816717998
 20
-2.647920805305779
 10
1.220529816717998
 20
-2.647920805305779
 10
1.224002038940221
 20
-2.627033218500223
 10
1.224002038940221
 20
-2.627033218500223
 10
1.224002038940221
 20
-2.627033218500223
 10
1.225004791141044
 20
-2.622136008037336
 10
1.225004791141044
 20
-2.622136008037336
 10
1.225004791141044
 20
-2.622136008037336
 10
1.220529816717998
 20
-2.622123279264112
 10
1.220529816717998
 20
-2.622123279264112
 10
1.220529816717998
 20
-2.622123279264112
 10
1.203250085815221
 20
-2.626477120409945
 10
1.203250085815221
 20
-2.626477120409945
 10
1.199804990329109
 20
-2.627345175965501
 10
1.197431400919387
 20
-2.627901274055779
 10
1.196848176092998
 20
-2.628023344368279
 10
1.196848176092998
 20
-2.628023344368279
 10
1.124799564981887
 20
-2.628036907736334
 10
1.124799564981887
 20
-2.628036907736334
 10
1.123307594495776
 20
-2.62792840079189
 10
1.118546852308276
 20
-2.627304485861334
 10
1.110517338419387
 20
-2.626192289680779
 10
1.110517338419387
 20
-2.626192289680779
 10
1.102175867065221
 20
-2.626056656000223
 10
1.102175867065221
 20
-2.626056656000223
 10
1.102175867065221
 20
-2.626056656000223
 10
1.099110545884665
 20
-2.627697823534945
 10
1.099110545884665
 20
-2.627697823534945
 10
1.090172286336054
 20
-2.632472129090501
 10
1.08884307626661
 20
-2.639267376486334
 10
1.08884307626661
 20
-2.642888795757168
 10
1.08884307626661
 20
-2.642888795757168
 10
1.08884307626661
 20
-2.646171130826612
 10
1.08884307626661
 20
-2.646171130826612
 10
1.08884307626661
 20
-2.646171130826612
 10
1.094241296752721
 20
-2.656954008430779
 10
1.094241296752721
 20
-2.656954008430779
 10
1.094241296752721
 20
-2.656954008430779
 10
1.100670333211054
 20
-2.658391725444668
 10
1.100670333211054
 20
-2.658391725444668
 10
1.10446807626661
 20
-2.659246217632168
 10
1.106434764634665
 20
-2.660168526659945
 10
1.107343510294387
 20
-2.660711061382168
 10
1.107343510294387
 20
-2.660711061382168
 10
1.107343510294387
 20
-2.774724733257168
 10
1.107343510294387
 20
-2.774724733257168
 10
1.106597525051332
 20
-2.776040379958557
 10
1.104183245537443
 20
-2.77795281485439
 10
1.099232616197165
 20
-2.779810996278001
 10
1.099232616197165
 20
-2.779810996278001
 10
1.087120528523554
 20
-2.784341161208557
 10
1.087120528523554
 20
-2.784341161208557
 10
1.087120528523554
 20
-2.784341161208557
 10
1.095421309773554
 20
-2.812512276659946
 10
1.095421309773554
 20
-2.812512276659946
 10
1.095421309773554
 20
-2.812512276659946
 10
1.106326257690221
 20
-2.811983305305779
 10
1.106326257690221
 20
-2.811983305305779
 10
1.137372807169387
 20
-2.810464208083557
 10
1.166642555433276
 20
-2.810030180305779
 10
1.193091123141609
 20
-2.810776165548834
 10
1.196129317586054
 20
-2.814465401659946
 10
1.200510285467998
 20
-2.817883370409946
 10
1.206640927829109
 20
-2.817883370409946
 10
1.206640927829109
 20
-2.817883370409946
 10
1.222482941717998
 20
-2.817883370409946
 10
1.222482941717998
 20
-2.817883370409946
 10
1.222482941717998
 20
-2.817883370409946
 10
1.222482941717998
 20
-2.803994481521057
 10
1.222482941717998
 20
-2.803994481521057
 10
1.222482941717998
 20
-2.797646825271057
 10
1.225005728176332
 20
-2.783907133430779
 10
1.237022872273554
 20
-2.754488188118279
 10
1.237022872273554
 20
-2.754488188118279
 10
1.238053688245776
 20
-2.751965401659945
 10
1.238053688245776
 20
-2.751965401659945
 10
1.238053688245776
 20
-2.751965401659945
 10
1.238053688245776
 20
-2.749239164680779
 10
1.238053688245776
 20
-2.749239164680779
 10
1.238053688245776
 20
-2.737615358257168
 10
1.229590146579109
 20
-2.731538969368279
 10
1.221235111856887
 20
-2.731538969368279
 97
        0
 97
        1
330
A8
 75
     2
 76
     1
 98
        1
 10
0.0
 20
0.0
450
        0
451
        0
460
0.0
461
0.0
452
        0
462
0.0
453
        0
470

  0
SPLINE
  5
AA
330
A0
100
AcDbEntity
  8
Let It Snow
100
AcDbSpline
210
0.0
220
0.0
230
1.0
 70
     9
 71
     3
 72
   131
 73
   127
 74
     0
 42
0.0000000001
 43
0.0000000001
 40
0.0
 40
0.0
 40
0.0
 40
0.0
 40
1.0
 40
1.0
 40
1.0
 40
2.0
 40
2.0
 40
2.0
 40
3.0
 40
3.0
 40
3.0
 40
4.0
 40
4.0
 40
4.0
 40
5.0
 40
5.0
 40
5.0
 40
6.0
 40
6.0
 40
6.0
 40
7.0
 40
7.0
 40
7.0
 40
8.0
 40
8.0
 40
8.0
 40
9.0
 40
9.0
 40
9.0
 40
10.0
 40
10.0
 40
10.0
 40
11.0
 40
11.0
 40
11.0
 40
12.0
 40
12.0
 40
12.0
 40
13.0
 40
13.0
 40
13.0
 40
14.0
 40
14.0
 40
14.0
 40
15.0
 40
15.0
 40
15.0
 40
16.0
 40
16.0
 40
16.0
 40
17.0
 40
17.0
 40
17.0
 40
18.0
 40
18.0
 40
18.0
 40
19.0
 40
19.0
 40
19.0
 40
20.0
 40
20.0
 40
20.0
 40
21.0
 40
21.0
 40
21.0
 40
22.0
 40
22.0
 40
22.0
 40
23.0
 40
23.0
 40
23.0
 40
24.0
 40
24.0
 40
24.0
 40
25.0
 40
25.0
 40
25.0
 40
26.0
 40
26.0
 40
26.0
 40
27.0
 40
27.0
 40
27.0
 40
28.0
 40
28.0
 40
28.0
 40
29.0
 40
29.0
 40
29.0
 40
30.0
 40
30.0
 40
30.0
 40
31.0
 40
31.0
 40
31.0
 40
32.0
 40
32.0
 40
32.0
 40
33.0
 40
33.0
 40
33.0
 40
34.0
 40
34.0
 40
34.0
 40
35.0
 40
35.0
 40
35.0
 40
36.0
 40
36.0
 40
36.0
 40
37.0
 40
37.0
 40
37.0
 40
38.0
 40
38.0
 40
38.0
 40
39.0
 40
39.0
 40
39.0
 40
40.0
 40
40.0
 40
40.0
 40
41.0
 40
41.0
 40
41.0
 40
42.0
 40
42.0
 40
42.0
 40
42.0
 10
1.370649174356887
 20
-2.639850601312723
 30
0.0
 10
1.370649174356887
 20
-2.639850601312723
 30
0.0
 10
1.370649174356887
 20
-2.637178617805779
 30
0.0
 10
1.370649174356887
 20
-2.637178617805779
 30
0.0
 10
1.370649174356887
 20
-2.637178617805779
 30
0.0
 10
1.369659048488832
 20
-2.634696521451612
 30
0.0
 10
1.369659048488832
 20
-2.634696521451612
 30
0.0
 10
1.365617164808276
 20
-2.624605375618279
 30
0.0
 10
1.357913171752721
 20
-2.623520306173834
 30
0.0
 10
1.354793597099943
 20
-2.623520306173834
 30
0.0
 10
1.350629643106887
 20
-2.623520306173834
 30
0.0
 10
1.343061283731887
 20
-2.625202163812723
 30
0.0
 10
1.339277104044387
 20
-2.636527576139112
 30
0.0
 10
1.339236413940221
 20
-2.636636083083557
 30
0.0
 10
1.339195723836054
 20
-2.636744590028001
 30
0.0
 10
1.339168597099943
 20
-2.63683953360439
 30
0.0
 10
1.339168597099943
 20
-2.63683953360439
 30
0.0
 10
1.273671092759665
 20
-2.63683953360439
 30
0.0
 10
1.273671092759665
 20
-2.63683953360439
 30
0.0
 10
1.273630402655498
 20
-2.636731026659945
 30
0.0
 10
1.273603275919387
 20
-2.636622519715501
 30
0.0
 10
1.273562585815221
 20
-2.636514012771057
 30
0.0
 10
1.269778406127721
 20
-2.625202163812723
 30
0.0
 10
1.262210046752721
 20
-2.623520306173834
 30
0.0
 10
1.258046092759665
 20
-2.623520306173834
 30
0.0
 10
1.254926518106887
 20
-2.623520306173834
 30
0.0
 10
1.247222525051332
 20
-2.624605375618279
 30
0.0
 10
1.243180641370776
 20
-2.634696521451612
 30
0.0
 10
1.243180641370776
 20
-2.634696521451612
 30
0.0
 10
1.242190515502721
 20
-2.637178617805779
 30
0.0
 10
1.242190515502721
 20
-2.637178617805779
 30
0.0
 10
1.242190515502721
 20
-2.637178617805779
 30
0.0
 10
1.242190515502721
 20
-2.641613839159945
 30
0.0
 10
1.242190515502721
 20
-2.641613839159945
 30
0.0
 10
1.242190515502721
 20
-2.655014446798834
 30
0.0
 10
1.240033939981887
 20
-2.670110475444668
 30
0.0
 10
1.235788605780498
 20
-2.686508587423834
 30
0.0
 10
1.235788605780498
 20
-2.686508587423834
 30
0.0
 10
1.235341014634665
 20
-2.690482654264112
 30
0.0
 10
1.235341014634665
 20
-2.690482654264112
 30
0.0
 10
1.235341014634665
 20
-2.70312371329189
 30
0.0
 10
1.247873566717998
 20
-2.711112537076612
 30
0.0
 10
1.260487499009665
 20
-2.704737754090501
 30
0.0
 10
1.260487499009665
 20
-2.704737754090501
 30
0.0
 10
1.264597199530498
 20
-2.702662558778001
 30
0.0
 10
1.264597199530498
 20
-2.702662558778001
 30
0.0
 10
1.264597199530498
 20
-2.702662558778001
 30
0.0
 10
1.266658831474943
 20
-2.698539294889112
 30
0.0
 10
1.266658831474943
 20
-2.698539294889112
 30
0.0
 10
1.272884417412443
 20
-2.686020306173834
 30
0.0
 10
1.278364018106887
 20
-2.680486452007168
 30
0.0
 10
1.282107507690221
 20
-2.67919793204189
 30
0.0
 10
1.282107507690221
 20
-2.67919793204189
 30
0.0
 10
1.282446591891609
 20
-2.772107003222445
 30
0.0
 10
1.282446591891609
 20
-2.772107003222445
 30
0.0
 10
1.281863367065221
 20
-2.774914620409945
 30
0.0
 10
1.281280142238832
 20
-2.774914620409945
 30
0.0
 10
1.278608158731887
 20
-2.774914620409945
 30
0.0
 10
1.278608158731887
 20
-2.774914620409945
 30
0.0
 10
1.264719269842998
 20
-2.774914620409945
 30
0.0
 10
1.264719269842998
 20
-2.774914620409945
 30
0.0
 10
1.264719269842998
 20
-2.774914620409945
 30
0.0
 10
1.264719269842998
 20
-2.786226469368279
 30
0.0
 10
1.264719269842998
 20
-2.786226469368279
 30
0.0
 10
1.264719269842998
 20
-2.786226469368279
 30
0.0
 10
1.261396244669387
 20
-2.789223973708557
 30
0.0
 10
1.261396244669387
 20
-2.789223973708557
 30
0.0
 10
1.261396244669387
 20
-2.789223973708557
 30
0.0
 10
1.266401127481887
 20
-2.798772584819668
 30
0.0
 10
1.266401127481887
 20
-2.798772584819668
 30
0.0
 10
1.266401127481887
 20
-2.798772584819668
 30
0.0
 10
1.274756162204109
 20
-2.813298952007168
 30
0.0
 10
1.274756162204109
 20
-2.813298952007168
 30
0.0
 10
1.274756162204109
 20
-2.813298952007168
 30
0.0
 10
1.295399608384665
 20
-2.810925362597446
 30
0.0
 10
1.295399608384665
 20
-2.810925362597446
 30
0.0
 10
1.295399608384665
 20
-2.810925362597446
 30
0.0
 10
1.317440081474943
 20
-2.810925362597446
 30
0.0
 10
1.317440081474943
 20
-2.810925362597446
 30
0.0
 10
1.317440081474943
 20
-2.810925362597446
 30
0.0
 10
1.339127906995776
 20
-2.813461712423834
 30
0.0
 10
1.339127906995776
 20
-2.813461712423834
 30
0.0
 10
1.339127906995776
 20
-2.813461712423834
 30
0.0
 10
1.349341123141609
 20
-2.791882393847445
 30
0.0
 10
1.349341123141609
 20
-2.791882393847445
 30
0.0
 10
1.349341123141609
 20
-2.791882393847445
 30
0.0
 10
1.348201800224943
 20
-2.789603748014112
 30
0.0
 10
1.348201800224943
 20
-2.789603748014112
 30
0.0
 10
1.348215363592998
 20
-2.789332480653001
 30
0.0
 10
1.348215363592998
 20
-2.789074776659945
 30
0.0
 10
1.348215363592998
 20
-2.788803509298834
 30
0.0
 10
1.348215363592998
 20
-2.788803509298834
 30
0.0
 10
1.348215363592998
 20
-2.774914620409945
 30
0.0
 10
1.348215363592998
 20
-2.774914620409945
 30
0.0
 10
1.348215363592998
 20
-2.774914620409945
 30
0.0
 10
1.334326474704109
 20
-2.774914620409945
 30
0.0
 10
1.334326474704109
 20
-2.774914620409945
 30
0.0
 10
1.332210589287443
 20
-2.774914620409945
 30
0.0
 10
1.331437477308276
 20
-2.774521282736334
 30
0.0
 10
1.331410350572165
 20
-2.774521282736334
 30
0.0
 10
1.331410350572165
 20
-2.774521282736334
 30
0.0
 10
1.331396787204109
 20
-2.774521282736334
 30
0.0
 10
1.331396787204109
 20
-2.774521282736334
 30
0.0
 10
1.331369660467998
 20
-2.774480592632168
 30
0.0
 10
1.331003449530498
 20
-2.773978748014112
 30
0.0
 10
1.330691492065221
 20
-2.77258172110439
 30
0.0
 10
1.330691492065221
 20
-2.77258172110439
 30
0.0
 10
1.330691492065221
 20
-2.679048734993279
 30
0.0
 10
1.330691492065221
 20
-2.679048734993279
 30
0.0
 10
1.334014517238832
 20
-2.679971044021057
 30
0.0
 10
1.339697568454109
 20
-2.685409954611334
 30
0.0
 10
1.346167295016609
 20
-2.698498604784945
 30
0.0
 10
1.346167295016609
 20
-2.698498604784945
 30
0.0
 10
1.348215363592998
 20
-2.702648995409945
 30
0.0
 10
1.348215363592998
 20
-2.702648995409945
 30
0.0
 10
1.348215363592998
 20
-2.702648995409945
 30
0.0
 10
1.352352190849943
 20
-2.704737754090501
 30
0.0
 10
1.352352190849943
 20
-2.704737754090501
 30
0.0
 10
1.365020376613832
 20
-2.711153227180779
 30
0.0
 10
1.377607182169387
 20
-2.703164403396057
 30
0.0
 10
1.377607182169387
 20
-2.689994373014112
 30
0.0
 10
1.377607182169387
 20
-2.689994373014112
 30
0.0
 10
1.377159591023554
 20
-2.686508587423834
 30
0.0
 10
1.377159591023554
 20
-2.686508587423834
 30
0.0
 10
1.372846439981887
 20
-2.669839208083557
 30
0.0
 10
1.370649174356887
 20
-2.65453972891689
 30
0.0
 10
1.370649174356887
 20
-2.639850601312723
 30
0.0
  0
HATCH
  5
AB
330
A0
100
AcDbEntity
  8
Let It Snow
 62
    95
420
  3781962
440
 33554687
100
AcDbHatch
 10
0.0
 20
0.0
 30
0.0
210
0.0
220
0.0
230
1.0
  2
SOLID
 70
     1
 71
     1
 91
        1
 92
        1
 93
        1
 72
     4
 94
        3
 73
     0
 74
     0
 95
      131
 96
      127
 40
0.0
 40
0.0
 40
0.0
 40
0.0
 40
1.0
 40
1.0
 40
1.0
 40
2.0
 40
2.0
 40
2.0
 40
3.0
 40
3.0
 40
3.0
 40
4.0
 40
4.0
 40
4.0
 40
5.0
 40
5.0
 40
5.0
 40
6.0
 40
6.0
 40
6.0
 40
7.0
 40
7.0
 40
7.0
 40
8.0
 40
8.0
 40
8.0
 40
9.0
 40
9.0
 40
9.0
 40
10.0
 40
10.0
 40
10.0
 40
11.0
 40
11.0
 40
11.0
 40
12.0
 40
12.0
 40
12.0
 40
13.0
 40
13.0
 40
13.0
 40
14.0
 40
14.0
 40
14.0
 40
15.0
 40
15.0
 40
15.0
 40
16.0
 40
16.0
 40
16.0
 40
17.0
 40
17.0
 40
17.0
 40
18.0
 40
18.0
 40
18.0
 40
19.0
 40
19.0
 40
19.0
 40
20.0
 40
20.0
 40
20.0
 40
21.0
 40
21.0
 40
21.0
 40
22.0
 40
22.0
 40
22.0
 40
23.0
 40
23.0
 40
23.0
 40
24.0
 40
24.0
 40
24.0
 40
25.0
 40
25.0
 40
25.0
 40
26.0
 40
26.0
 40
26.0
 40
27.0
 40
27.0
 40
27.0
 40
28.0
 40
28.0
 40
28.0
 40
29.0
 40
29.0
 40
29.0
 40
30.0
 40
30.0
 40
30.0
 40
31.0
 40
31.0
 40
31.0
 40
32.0
 40
32.0
 40
32.0
 40
33.0
 40
33.0
 40
33.0
 40
34.0
 40
34.0
 40
34.0
 40
35.0
 40
35.0
 40
35.0
 40
36.0
 40
36.0
 40
36.0
 40
37.0
 40
37.0
 40
37.0
 40
38.0
 40
38.0
 40
38.0
 40
39.0
 40
39.0
 40
39.0
 40
40.0
 40
40.0
 40
40.0
 40
41.0
 40
41.0
 40
41.0
 40
42.0
 40
42.0
 40
42.0
 40
42.0
 10
1.370649174356887
 20
-2.639850601312723
 10
1.370649174356887
 20
-2.639850601312723
 10
1.370649174356887
 20
-2.637178617805779
 10
1.370649174356887
 20
-2.637178617805779
 10
1.370649174356887
 20
-2.637178617805779
 10
1.369659048488832
 20
-2.634696521451612
 10
1.369659048488832
 20
-2.634696521451612
 10
1.365617164808276
 20
-2.624605375618279
 10
1.357913171752721
 20
-2.623520306173834
 10
1.354793597099943
 20
-2.623520306173834
 10
1.350629643106887
 20
-2.623520306173834
 10
1.343061283731887
 20
-2.625202163812723
 10
1.339277104044387
 20
-2.636527576139112
 10
1.339236413940221
 20
-2.636636083083557
 10
1.339195723836054
 20
-2.636744590028001
 10
1.339168597099943
 20
-2.63683953360439
 10
1.339168597099943
 20
-2.63683953360439
 10
1.273671092759665
 20
-2.63683953360439
 10
1.273671092759665
 20
-2.63683953360439
 10
1.273630402655498
 20
-2.636731026659945
 10
1.273603275919387
 20
-2.636622519715501
 10
1.273562585815221
 20
-2.636514012771057
 10
1.269778406127721
 20
-2.625202163812723
 10
1.262210046752721
 20
-2.623520306173834
 10
1.258046092759665
 20
-2.623520306173834
 10
1.254926518106887
 20
-2.623520306173834
 10
1.247222525051332
 20
-2.624605375618279
 10
1.243180641370776
 20
-2.634696521451612
 10
1.243180641370776
 20
-2.634696521451612
 10
1.242190515502721
 20
-2.637178617805779
 10
1.242190515502721
 20
-2.637178617805779
 10
1.242190515502721
 20
-2.637178617805779
 10
1.242190515502721
 20
-2.641613839159945
 10
1.242190515502721
 20
-2.641613839159945
 10
1.242190515502721
 20
-2.655014446798834
 10
1.240033939981887
 20
-2.670110475444668
 10
1.235788605780498
 20
-2.686508587423834
 10
1.235788605780498
 20
-2.686508587423834
 10
1.235341014634665
 20
-2.690482654264112
 10
1.235341014634665
 20
-2.690482654264112
 10
1.235341014634665
 20
-2.70312371329189
 10
1.247873566717998
 20
-2.711112537076612
 10
1.260487499009665
 20
-2.704737754090501
 10
1.260487499009665
 20
-2.704737754090501
 10
1.264597199530498
 20
-2.702662558778001
 10
1.264597199530498
 20
-2.702662558778001
 10
1.264597199530498
 20
-2.702662558778001
 10
1.266658831474943
 20
-2.698539294889112
 10
1.266658831474943
 20
-2.698539294889112
 10
1.272884417412443
 20
-2.686020306173834
 10
1.278364018106887
 20
-2.680486452007168
 10
1.282107507690221
 20
-2.67919793204189
 10
1.282107507690221
 20
-2.67919793204189
 10
1.282446591891609
 20
-2.772107003222445
 10
1.282446591891609
 20
-2.772107003222445
 10
1.281863367065221
 20
-2.774914620409945
 10
1.281280142238832
 20
-2.774914620409945
 10
1.278608158731887
 20
-2.774914620409945
 10
1.278608158731887
 20
-2.774914620409945
 10
1.264719269842998
 20
-2.774914620409945
 10
1.264719269842998
 20
-2.774914620409945
 10
1.264719269842998
 20
-2.774914620409945
 10
1.264719269842998
 20
-2.786226469368279
 10
1.264719269842998
 20
-2.786226469368279
 10
1.264719269842998
 20
-2.786226469368279
 10
1.261396244669387
 20
-2.789223973708557
 10
1.261396244669387
 20
-2.789223973708557
 10
1.261396244669387
 20
-2.789223973708557
 10
1.266401127481887
 20
-2.798772584819668
 10
1.266401127481887
 20
-2.798772584819668
 10
1.266401127481887
 20
-2.798772584819668
 10
1.274756162204109
 20
-2.813298952007168
 10
1.274756162204109
 20
-2.813298952007168
 10
1.274756162204109
 20
-2.813298952007168
 10
1.295399608384665
 20
-2.810925362597446
 10
1.295399608384665
 20
-2.810925362597446
 10
1.295399608384665
 20
-2.810925362597446
 10
1.317440081474943
 20
-2.810925362597446
 10
1.317440081474943
 20
-2.810925362597446
 10
1.317440081474943
 20
-2.810925362597446
 10
1.339127906995776
 20
-2.813461712423834
 10
1.339127906995776
 20
-2.813461712423834
 10
1.339127906995776
 20
-2.813461712423834
 10
1.349341123141609
 20
-2.791882393847445
 10
1.349341123141609
 20
-2.791882393847445
 10
1.349341123141609
 20
-2.791882393847445
 10
1.348201800224943
 20
-2.789603748014112
 10
1.348201800224943
 20
-2.789603748014112
 10
1.348215363592998
 20
-2.789332480653001
 10
1.348215363592998
 20
-2.789074776659945
 10
1.348215363592998
 20
-2.788803509298834
 10
1.348215363592998
 20
-2.788803509298834
 10
1.348215363592998
 20
-2.774914620409945
 10
1.348215363592998
 20
-2.774914620409945
 10
1.348215363592998
 20
-2.774914620409945
 10
1.334326474704109
 20
-2.774914620409945
 10
1.334326474704109
 20
-2.774914620409945
 10
1.332210589287443
 20
-2.774914620409945
 10
1.331437477308276
 20
-2.774521282736334
 10
1.331410350572165
 20
-2.774521282736334
 10
1.331410350572165
 20
-2.774521282736334
 10
1.331396787204109
 20
-2.774521282736334
 10
1.331396787204109
 20
-2.774521282736334
 10
1.331369660467998
 20
-2.774480592632168
 10
1.331003449530498
 20
-2.773978748014112
 10
1.330691492065221
 20
-2.77258172110439
 10
1.330691492065221
 20
-2.77258172110439
 10
1.330691492065221
 20
-2.679048734993279
 10
1.330691492065221
 20
-2.679048734993279
 10
1.334014517238832
 20
-2.679971044021057
 10
1.339697568454109
 20
-2.685409954611334
 10
1.346167295016609
 20
-2.698498604784945
 10
1.346167295016609
 20
-2.698498604784945
 10
1.348215363592998
 20
-2.702648995409945
 10
1.348215363592998
 20
-2.702648995409945
 10
1.348215363592998
 20
-2.702648995409945
 10
1.352352190849943
 20
-2.704737754090501
 10
1.352352190849943
 20
-2.704737754090501
 10
1.365020376613832
 20
-2.711153227180779
 10
1.377607182169387
 20
-2.703164403396057
 10
1.377607182169387
 20
-2.689994373014112
 10
1.377607182169387
 20
-2.689994373014112
 10
1.377159591023554
 20
-2.686508587423834
 10
1.377159591023554
 20
-2.686508587423834
 10
1.372846439981887
 20
-2.669839208083557
 10
1.370649174356887
 20
-2.65453972891689
 10
1.370649174356887
 20
-2.639850601312723
 97
        0
 97
        1
330
AA
 75
     2
 76
     1
 98
        1
 10
0.0
 20
0.0
450
        0
451
        0
460
0.0
461
0.0
452
        0
462
0.0
453
        0
470

  0
SPLINE
  5
AC
330
A0
100
AcDbEntity
  8
Let It Snow
100
AcDbSpline
210
0.0
220
0.0
230
1.0
 70
     9
 71
     3
 72
   119
 73
   115
 74
     0
 42
0.0000000001
 43
0.0000000001
 40
0.0
 40
0.0
 40
0.0
 40
0.0
 40
1.0
 40
1.0
 40
1.0
 40
2.0
 40
2.0
 40
2.0
 40
3.0
 40
3.0
 40
3.0
 40
4.0
 40
4.0
 40
4.0
 40
5.0
 40
5.0
 40
5.0
 40
6.0
 40
6.0
 40
6.0
 40
7.0
 40
7.0
 40
7.0
 40
8.0
 40
8.0
 40
8.0
 40
9.0
 40
9.0
 40
9.0
 40
10.0
 40
10.0
 40
10.0
 40
11.0
 40
11.0
 40
11.0
 40
12.0
 40
12.0
 40
12.0
 40
13.0
 40
13.0
 40
13.0
 40
14.0
 40
14.0
 40
14.0
 40
15.0
 40
15.0
 40
15.0
 40
16.0
 40
16.0
 40
16.0
 40
17.0
 40
17.0
 40
17.0
 40
18.0
 40
18.0
 40
18.0
 40
19.0
 40
19.0
 40
19.0
 40
20.0
 40
20.0
 40
20.0
 40
21.0
 40
21.0
 40
21.0
 40
22.0
 40
22.0
 40
22.0
 40
23.0
 40
23.0
 40
23.0
 40
24.0
 40
24.0
 40
24.0
 40
25.0
 40
25.0
 40
25.0
 40
26.0
 40
26.0
 40
26.0
 40
27.0
 40
27.0
 40
27.0
 40
28.0
 40
28.0
 40
28.0
 40
29.0
 40
29.0
 40
29.0
 40
30.0
 40
30.0
 40
30.0
 40
31.0
 40
31.0
 40
31.0
 40
32.0
 40
32.0
 40
32.0
 40
33.0
 40
33.0
 40
33.0
 40
34.0
 40
34.0
 40
34.0
 40
35.0
 40
35.0
 40
35.0
 40
36.0
 40
36.0
 40
36.0
 40
37.0
 40
37.0
 40
37.0
 40
38.0
 40
38.0
 40
38.0
 40
38.0
 10
1.514637889634665
 20
-2.627128162076612
 30
0.0
 10
1.492922937377721
 20
-2.62963738516689
 30
0.0
 10
1.478410133558276
 20
-2.628918526659945
 30
0.0
 10
1.463314104912443
 20
-2.627128162076612
 30
0.0
 10
1.463314104912443
 20
-2.627128162076612
 30
0.0
 10
1.458377038940221
 20
-2.626544937250223
 30
0.0
 10
1.458377038940221
 20
-2.626544937250223
 30
0.0
 10
1.458377038940221
 20
-2.626544937250223
 30
0.0
 10
1.454185958211054
 20
-2.629230484125223
 30
0.0
 10
1.454185958211054
 20
-2.629230484125223
 30
0.0
 10
1.448516470363832
 20
-2.632865466764112
 30
0.0
 10
1.445641036336054
 20
-2.637531265375223
 30
0.0
 10
1.445641036336054
 20
-2.64416375235439
 30
0.0
 10
1.445641036336054
 20
-2.64416375235439
 30
0.0
 10
1.445641036336054
 20
-2.654797432909945
 30
0.0
 10
1.445641036336054
 20
-2.654797432909945
 30
0.0
 10
1.445641036336054
 20
-2.654797432909945
 30
0.0
 10
1.455908505954109
 20
-2.657577923361334
 30
0.0
 10
1.455908505954109
 20
-2.657577923361334
 30
0.0
 10
1.458824630086054
 20
-2.658351035340501
 30
0.0
 10
1.460669248141609
 20
-2.659124147319668
 30
0.0
 10
1.461781444322165
 20
-2.659680245409945
 30
0.0
 10
1.462703753349943
 20
-2.661023018847445
 30
0.0
 10
1.464019400051332
 20
-2.663613622146057
 30
0.0
 10
1.465131596231887
 20
-2.668387927701612
 30
0.0
 10
1.465131596231887
 20
-2.668387927701612
 30
0.0
 10
1.465131596231887
 20
-2.681815662076612
 30
0.0
 10
1.465131596231887
 20
-2.681815662076612
 30
0.0
 10
1.465131596231887
 20
-2.681815662076612
 30
0.0
 10
1.461889951266609
 20
-2.682900731521057
 30
0.0
 10
1.461889951266609
 20
-2.682900731521057
 30
0.0
 10
1.461889951266609
 20
-2.682900731521057
 30
0.0
 10
1.455623675224943
 20
-2.686318700271057
 30
0.0
 10
1.455623675224943
 20
-2.686318700271057
 30
0.0
 10
1.449262455606887
 20
-2.691432090028001
 30
0.0
 10
1.445830923488832
 20
-2.696911690722445
 30
0.0
 10
1.445139191717998
 20
-2.703042333083557
 30
0.0
 10
1.445139191717998
 20
-2.703042333083557
 30
0.0
 10
1.444895051092998
 20
-2.706365358257168
 30
0.0
 10
1.444895051092998
 20
-2.706365358257168
 30
0.0
 10
1.444895051092998
 20
-2.706365358257168
 30
0.0
 10
1.449791426961054
 20
-2.721040922493279
 30
0.0
 10
1.449791426961054
 20
-2.721040922493279
 30
0.0
 10
1.449791426961054
 20
-2.721040922493279
 30
0.0
 10
1.461930641370776
 20
-2.718463882562723
 30
0.0
 10
1.461930641370776
 20
-2.718463882562723
 30
0.0
 10
1.463273414808276
 20
-2.718179051833557
 30
0.0
 10
1.464304230780498
 20
-2.718029854784945
 30
0.0
 10
1.465131596231887
 20
-2.717948474576612
 30
0.0
 10
1.465131596231887
 20
-2.717948474576612
 30
0.0
 10
1.465131596231887
 20
-2.763738405132168
 30
0.0
 10
1.465131596231887
 20
-2.763738405132168
 30
0.0
 10
1.465131596231887
 20
-2.77599968985439
 30
0.0
 10
1.462758006822165
 20
-2.78063836172939
 30
0.0
 10
1.461876387898554
 20
-2.781628487597445
 30
0.0
 10
1.454294465155498
 20
-2.784069893847445
 30
0.0
 10
1.445641036336054
 20
-2.787514989333557
 30
0.0
 10
1.445641036336054
 20
-2.798799711555779
 30
0.0
 10
1.445641036336054
 20
-2.804889663812723
 30
0.0
 10
1.449031878349943
 20
-2.809758912944668
 30
0.0
 10
1.455732182169387
 20
-2.813258261903001
 30
0.0
 10
1.455732182169387
 20
-2.813258261903001
 30
0.0
 10
1.459353601440221
 20
-2.814845175965501
 30
0.0
 10
1.459353601440221
 20
-2.814845175965501
 30
0.0
 10
1.459353601440221
 20
-2.814845175965501
 30
0.0
 10
1.464277104044387
 20
-2.814763795757168
 30
0.0
 10
1.464277104044387
 20
-2.814763795757168
 30
0.0
 10
1.481719595363832
 20
-2.81286492422939
 30
0.0
 10
1.485381704738832
 20
-2.812688600444668
 30
0.0
 10
1.486073436509665
 20
-2.812688600444668
 30
0.0
 10
1.486073436509665
 20
-2.812688600444668
 30
0.0
 10
1.494713301961054
 20
-2.812647910340501
 30
0.0
 10
1.494713301961054
 20
-2.812647910340501
 30
0.0
 10
1.507517121405498
 20
-2.813624472840501
 30
0.0
 10
1.510514625745776
 20
-2.814234824403001
 30
0.0
 10
1.510853709947165
 20
-2.814316204611334
 30
0.0
 10
1.510853709947165
 20
-2.814316204611334
 30
0.0
 10
1.515750085815221
 20
-2.814845175965501
 30
0.0
 10
1.515750085815221
 20
-2.814845175965501
 30
0.0
 10
1.521840038072165
 20
-2.814845175965501
 30
0.0
 10
1.526709287204109
 20
-2.811454333951612
 30
0.0
 10
1.530208636162443
 20
-2.804754030132168
 30
0.0
 10
1.530208636162443
 20
-2.804754030132168
 30
0.0
 10
1.531795550224943
 20
-2.801132610861334
 30
0.0
 10
1.531795550224943
 20
-2.801132610861334
 30
0.0
 10
1.531795550224943
 20
-2.801132610861334
 30
0.0
 10
1.531307268974943
 20
-2.783242528396057
 30
0.0
 10
1.531307268974943
 20
-2.783242528396057
 30
0.0
 10
1.531307268974943
 20
-2.783242528396057
 30
0.0
 10
1.519574955606887
 20
-2.783242528396057
 30
0.0
 10
1.519574955606887
 20
-2.783242528396057
 30
0.0
 10
1.517201366197165
 20
-2.782360909472445
 30
0.0
 10
1.515994226440221
 20
-2.781316530132168
 30
0.0
 10
1.515329621405498
 20
-2.780502728048834
 30
0.0
 10
1.515329621405498
 20
-2.780502728048834
 30
0.0
 10
1.513471439981887
 20
-2.772771608257168
 30
0.0
 10
1.513471439981887
 20
-2.772771608257168
 30
0.0
 10
1.513471439981887
 20
-2.772771608257168
 30
0.0
 10
1.513471439981887
 20
-2.67333855704189
 30
0.0
 10
1.513471439981887
 20
-2.67333855704189
 30
0.0
 10
1.513471439981887
 20
-2.669296673361334
 30
0.0
 10
1.513932594495776
 20
-2.662555679437723
 30
0.0
 10
1.516740211683276
 20
-2.659327597840501
 30
0.0
 10
1.530235762898554
 20
-2.656018136034945
 30
0.0
 10
1.531795550224943
 20
-2.647039186382168
 30
0.0
 10
1.531795550224943
 20
-2.643078682909945
 30
0.0
 10
1.531795550224943
 20
-2.643078682909945
 30
0.0
 10
1.531795550224943
 20
-2.638331504090501
 30
0.0
 10
1.531795550224943
 20
-2.638331504090501
 30
0.0
 10
1.531795550224943
 20
-2.638331504090501
 30
0.0
 10
1.522423262898554
 20
-2.62621941641689
 30
0.0
 10
1.522423262898554
 20
-2.62621941641689
 30
0.0
 10
1.522423262898554
 20
-2.62621941641689
 30
0.0
 10
1.514637889634665
 20
-2.627128162076612
 30
0.0
 10
1.514637889634665
 20
-2.627128162076612
 30
0.0
  0
HATCH
  5
AD
330
A0
100
AcDbEntity
  8
Let It Snow
 62
    95
420
  3781962
440
 33554687
100
AcDbHatch
 10
0.0
 20
0.0
 30
0.0
210
0.0
220
0.0
230
1.0
  2
SOLID
 70
     1
 71
     1
 91
        1
 92
        1
 93
        1
 72
     4
 94
        3
 73
     0
 74
     0
 95
      119
 96
      115
 40
0.0
 40
0.0
 40
0.0
 40
0.0
 40
1.0
 40
1.0
 40
1.0
 40
2.0
 40
2.0
 40
2.0
 40
3.0
 40
3.0
 40
3.0
 40
4.0
 40
4.0
 40
4.0
 40
5.0
 40
5.0
 40
5.0
 40
6.0
 40
6.0
 40
6.0
 40
7.0
 40
7.0
 40
7.0
 40
8.0
 40
8.0
 40
8.0
 40
9.0
 40
9.0
 40
9.0
 40
10.0
 40
10.0
 40
10.0
 40
11.0
 40
11.0
 40
11.0
 40
12.0
 40
12.0
 40
12.0
 40
13.0
 40
13.0
 40
13.0
 40
14.0
 40
14.0
 40
14.0
 40
15.0
 40
15.0
 40
15.0
 40
16.0
 40
16.0
 40
16.0
 40
17.0
 40
17.0
 40
17.0
 40
18.0
 40
18.0
 40
18.0
 40
19.0
 40
19.0
 40
19.0
 40
20.0
 40
20.0
 40
20.0
 40
21.0
 40
21.0
 40
21.0
 40
22.0
 40
22.0
 40
22.0
 40
23.0
 40
23.0
 40
23.0
 40
24.0
 40
24.0
 40
24.0
 40
25.0
 40
25.0
 40
25.0
 40
26.0
 40
26.0
 40
26.0
 40
27.0
 40
27.0
 40
27.0
 40
28.0
 40
28.0
 40
28.0
 40
29.0
 40
29.0
 40
29.0
 40
30.0
 40
30.0
 40
30.0
 40
31.0
 40
31.0
 40
31.0
 40
32.0
 40
32.0
 40
32.0
 40
33.0
 40
33.0
 40
33.0
 40
34.0
 40
34.0
 40
34.0
 40
35.0
 40
35.0
 40
35.0
 40
36.0
 40
36.0
 40
36.0
 40
37.0
 40
37.0
 40
37.0
 40
38.0
 40
38.0
 40
38.0
 40
38.0
 10
1.514637889634665
 20
-2.627128162076612
 10
1.492922937377721
 20
-2.62963738516689
 10
1.478410133558276
 20
-2.628918526659945
 10
1.463314104912443
 20
-2.627128162076612
 10
1.463314104912443
 20
-2.627128162076612
 10
1.458377038940221
 20
-2.626544937250223
 10
1.458377038940221
 20
-2.626544937250223
 10
1.458377038940221
 20
-2.626544937250223
 10
1.454185958211054
 20
-2.629230484125223
 10
1.454185958211054
 20
-2.629230484125223
 10
1.448516470363832
 20
-2.632865466764112
 10
1.445641036336054
 20
-2.637531265375223
 10
1.445641036336054
 20
-2.64416375235439
 10
1.445641036336054
 20
-2.64416375235439
 10
1.445641036336054
 20
-2.654797432909945
 10
1.445641036336054
 20
-2.654797432909945
 10
1.445641036336054
 20
-2.654797432909945
 10
1.455908505954109
 20
-2.657577923361334
 10
1.455908505954109
 20
-2.657577923361334
 10
1.458824630086054
 20
-2.658351035340501
 10
1.460669248141609
 20
-2.659124147319668
 10
1.461781444322165
 20
-2.659680245409945
 10
1.462703753349943
 20
-2.661023018847445
 10
1.464019400051332
 20
-2.663613622146057
 10
1.465131596231887
 20
-2.668387927701612
 10
1.465131596231887
 20
-2.668387927701612
 10
1.465131596231887
 20
-2.681815662076612
 10
1.465131596231887
 20
-2.681815662076612
 10
1.465131596231887
 20
-2.681815662076612
 10
1.461889951266609
 20
-2.682900731521057
 10
1.461889951266609
 20
-2.682900731521057
 10
1.461889951266609
 20
-2.682900731521057
 10
1.455623675224943
 20
-2.686318700271057
 10
1.455623675224943
 20
-2.686318700271057
 10
1.449262455606887
 20
-2.691432090028001
 10
1.445830923488832
 20
-2.696911690722445
 10
1.445139191717998
 20
-2.703042333083557
 10
1.445139191717998
 20
-2.703042333083557
 10
1.444895051092998
 20
-2.706365358257168
 10
1.444895051092998
 20
-2.706365358257168
 10
1.444895051092998
 20
-2.706365358257168
 10
1.449791426961054
 20
-2.721040922493279
 10
1.449791426961054
 20
-2.721040922493279
 10
1.449791426961054
 20
-2.721040922493279
 10
1.461930641370776
 20
-2.718463882562723
 10
1.461930641370776
 20
-2.718463882562723
 10
1.463273414808276
 20
-2.718179051833557
 10
1.464304230780498
 20
-2.718029854784945
 10
1.465131596231887
 20
-2.717948474576612
 10
1.465131596231887
 20
-2.717948474576612
 10
1.465131596231887
 20
-2.763738405132168
 10
1.465131596231887
 20
-2.763738405132168
 10
1.465131596231887
 20
-2.77599968985439
 10
1.462758006822165
 20
-2.78063836172939
 10
1.461876387898554
 20
-2.781628487597445
 10
1.454294465155498
 20
-2.784069893847445
 10
1.445641036336054
 20
-2.787514989333557
 10
1.445641036336054
 20
-2.798799711555779
 10
1.445641036336054
 20
-2.804889663812723
 10
1.449031878349943
 20
-2.809758912944668
 10
1.455732182169387
 20
-2.813258261903001
 10
1.455732182169387
 20
-2.813258261903001
 10
1.459353601440221
 20
-2.814845175965501
 10
1.459353601440221
 20
-2.814845175965501
 10
1.459353601440221
 20
-2.814845175965501
 10
1.464277104044387
 20
-2.814763795757168
 10
1.464277104044387
 20
-2.814763795757168
 10
1.481719595363832
 20
-2.81286492422939
 10
1.485381704738832
 20
-2.812688600444668
 10
1.486073436509665
 20
-2.812688600444668
 10
1.486073436509665
 20
-2.812688600444668
 10
1.494713301961054
 20
-2.812647910340501
 10
1.494713301961054
 20
-2.812647910340501
 10
1.507517121405498
 20
-2.813624472840501
 10
1.510514625745776
 20
-2.814234824403001
 10
1.510853709947165
 20
-2.814316204611334
 10
1.510853709947165
 20
-2.814316204611334
 10
1.515750085815221
 20
-2.814845175965501
 10
1.515750085815221
 20
-2.814845175965501
 10
1.521840038072165
 20
-2.814845175965501
 10
1.526709287204109
 20
-2.811454333951612
 10
1.530208636162443
 20
-2.804754030132168
 10
1.530208636162443
 20
-2.804754030132168
 10
1.531795550224943
 20
-2.801132610861334
 10
1.531795550224943
 20
-2.801132610861334
 10
1.531795550224943
 20
-2.801132610861334
 10
1.531307268974943
 20
-2.783242528396057
 10
1.531307268974943
 20
-2.783242528396057
 10
1.531307268974943
 20
-2.783242528396057
 10
1.519574955606887
 20
-2.783242528396057
 10
1.519574955606887
 20
-2.783242528396057
 10
1.517201366197165
 20
-2.782360909472445
 10
1.515994226440221
 20
-2.781316530132168
 10
1.515329621405498
 20
-2.780502728048834
 10
1.515329621405498
 20
-2.780502728048834
 10
1.513471439981887
 20
-2.772771608257168
 10
1.513471439981887
 20
-2.772771608257168
 10
1.513471439981887
 20
-2.772771608257168
 10
1.513471439981887
 20
-2.67333855704189
 10
1.513471439981887
 20
-2.67333855704189
 10
1.513471439981887
 20
-2.669296673361334
 10
1.513932594495776
 20
-2.662555679437723
 10
1.516740211683276
 20
-2.659327597840501
 10
1.530235762898554
 20
-2.656018136034945
 10
1.531795550224943
 20
-2.647039186382168
 10
1.531795550224943
 20
-2.643078682909945
 10
1.531795550224943
 20
-2.643078682909945
 10
1.531795550224943
 20
-2.638331504090501
 10
1.531795550224943
 20
-2.638331504090501
 10
1.531795550224943
 20
-2.638331504090501
 10
1.522423262898554
 20
-2.62621941641689
 10
1.522423262898554
 20
-2.62621941641689
 10
1.522423262898554
 20
-2.62621941641689
 10
1.514637889634665
 20
-2.627128162076612
 10
1.514637889634665
 20
-2.627128162076612
 97
        0
 97
        1
330
AC
 75
     2
 76
     1
 98
        1
 10
0.0
 20
0.0
450
        0
451
        0
460
0.0
461
0.0
452
        0
462
0.0
453
        0
470

  0
SPLINE
  5
AE
330
A0
100
AcDbEntity
  8
Let It Snow
100
AcDbSpline
210
0.0
220
0.0
230
1.0
 70
     9
 71
     3
 72
   131
 73
   127
 74
     0
 42
0.0000000001
 43
0.0000000001
 40
0.0
 40
0.0
 40
0.0
 40
0.0
 40
1.0
 40
1.0
 40
1.0
 40
2.0
 40
2.0
 40
2.0
 40
3.0
 40
3.0
 40
3.0
 40
4.0
 40
4.0
 40
4.0
 40
5.0
 40
5.0
 40
5.0
 40
6.0
 40
6.0
 40
6.0
 40
7.0
 40
7.0
 40
7.0
 40
8.0
 40
8.0
 40
8.0
 40
9.0
 40
9.0
 40
9.0
 40
10.0
 40
10.0
 40
10.0
 40
11.0
 40
11.0
 40
11.0
 40
12.0
 40
12.0
 40
12.0
 40
13.0
 40
13.0
 40
13.0
 40
14.0
 40
14.0
 40
14.0
 40
15.0
 40
15.0
 40
15.0
 40
16.0
 40
16.0
 40
16.0
 40
17.0
 40
17.0
 40
17.0
 40
18.0
 40
18.0
 40
18.0
 40
19.0
 40
19.0
 40
19.0
 40
20.0
 40
20.0
 40
20.0
 40
21.0
 40
21.0
 40
21.0
 40
22.0
 40
22.0
 40
22.0
 40
23.0
 40
23.0
 40
23.0
 40
24.0
 40
24.0
 40
24.0
 40
25.0
 40
25.0
 40
25.0
 40
26.0
 40
26.0
 40
26.0
 40
27.0
 40
27.0
 40
27.0
 40
28.0
 40
28.0
 40
28.0
 40
29.0
 40
29.0
 40
29.0
 40
30.0
 40
30.0
 40
30.0
 40
31.0
 40
31.0
 40
31.0
 40
32.0
 40
32.0
 40
32.0
 40
33.0
 40
33.0
 40
33.0
 40
34.0
 40
34.0
 40
34.0
 40
35.0
 40
35.0
 40
35.0
 40
36.0
 40
36.0
 40
36.0
 40
37.0
 40
37.0
 40
37.0
 40
38.0
 40
38.0
 40
38.0
 40
39.0
 40
39.0
 40
39.0
 40
40.0
 40
40.0
 40
40.0
 40
41.0
 40
41.0
 40
41.0
 40
42.0
 40
42.0
 40
42.0
 40
42.0
 10
1.677411869669387
 20
-2.686508587423834
 30
0.0
 10
1.673098718627721
 20
-2.669839208083557
 30
0.0
 10
1.670901453002721
 20
-2.65453972891689
 30
0.0
 10
1.670901453002721
 20
-2.639850601312723
 30
0.0
 10
1.670901453002721
 20
-2.639850601312723
 30
0.0
 10
1.670901453002721
 20
-2.637178617805779
 30
0.0
 10
1.670901453002721
 20
-2.637178617805779
 30
0.0
 10
1.670901453002721
 20
-2.637178617805779
 30
0.0
 10
1.669911327134665
 20
-2.634696521451612
 30
0.0
 10
1.669911327134665
 20
-2.634696521451612
 30
0.0
 10
1.665869443454109
 20
-2.624605375618279
 30
0.0
 10
1.658165450398554
 20
-2.623520306173834
 30
0.0
 10
1.655045875745776
 20
-2.623520306173834
 30
0.0
 10
1.650881921752721
 20
-2.623520306173834
 30
0.0
 10
1.643313562377721
 20
-2.625202163812723
 30
0.0
 10
1.639529382690221
 20
-2.636527576139112
 30
0.0
 10
1.639488692586054
 20
-2.636636083083557
 30
0.0
 10
1.639448002481887
 20
-2.636744590028001
 30
0.0
 10
1.639420875745776
 20
-2.63683953360439
 30
0.0
 10
1.639420875745776
 20
-2.63683953360439
 30
0.0
 10
1.573923371405498
 20
-2.63683953360439
 30
0.0
 10
1.573923371405498
 20
-2.63683953360439
 30
0.0
 10
1.573882681301332
 20
-2.636731026659945
 30
0.0
 10
1.573855554565221
 20
-2.636622519715501
 30
0.0
 10
1.573814864461054
 20
-2.636514012771057
 30
0.0
 10
1.570030684773554
 20
-2.625202163812723
 30
0.0
 10
1.562462325398554
 20
-2.623520306173834
 30
0.0
 10
1.558298371405498
 20
-2.623520306173834
 30
0.0
 10
1.555178796752721
 20
-2.623520306173834
 30
0.0
 10
1.547474803697165
 20
-2.624605375618279
 30
0.0
 10
1.543432920016609
 20
-2.634696521451612
 30
0.0
 10
1.543432920016609
 20
-2.634696521451612
 30
0.0
 10
1.542442794148554
 20
-2.637178617805779
 30
0.0
 10
1.542442794148554
 20
-2.637178617805779
 30
0.0
 10
1.542442794148554
 20
-2.637178617805779
 30
0.0
 10
1.542442794148554
 20
-2.641613839159945
 30
0.0
 10
1.542442794148554
 20
-2.641613839159945
 30
0.0
 10
1.542442794148554
 20
-2.655014446798834
 30
0.0
 10
1.540286218627721
 20
-2.670110475444668
 30
0.0
 10
1.536040884426332
 20
-2.686508587423834
 30
0.0
 10
1.536040884426332
 20
-2.686508587423834
 30
0.0
 10
1.535593293280498
 20
-2.690482654264112
 30
0.0
 10
1.535593293280498
 20
-2.690482654264112
 30
0.0
 10
1.535579729912443
 20
-2.70312371329189
 30
0.0
 10
1.548112281995776
 20
-2.711112537076612
 30
0.0
 10
1.560739777655498
 20
-2.704737754090501
 30
0.0
 10
1.560739777655498
 20
-2.704737754090501
 30
0.0
 10
1.564849478176332
 20
-2.702662558778001
 30
0.0
 10
1.564849478176332
 20
-2.702662558778001
 30
0.0
 10
1.564849478176332
 20
-2.702662558778001
 30
0.0
 10
1.566911110120776
 20
-2.698539294889112
 30
0.0
 10
1.566911110120776
 20
-2.698539294889112
 30
0.0
 10
1.573136696058276
 20
-2.686020306173834
 30
0.0
 10
1.578616296752721
 20
-2.680486452007168
 30
0.0
 10
1.582359786336054
 20
-2.67919793204189
 30
0.0
 10
1.582359786336054
 20
-2.67919793204189
 30
0.0
 10
1.582698870537443
 20
-2.772107003222445
 30
0.0
 10
1.582698870537443
 20
-2.772107003222445
 30
0.0
 10
1.582115645711054
 20
-2.774914620409945
 30
0.0
 10
1.581532420884665
 20
-2.774914620409945
 30
0.0
 10
1.578860437377721
 20
-2.774914620409945
 30
0.0
 10
1.578860437377721
 20
-2.774914620409945
 30
0.0
 10
1.564971548488832
 20
-2.774914620409945
 30
0.0
 10
1.564971548488832
 20
-2.774914620409945
 30
0.0
 10
1.564971548488832
 20
-2.774914620409945
 30
0.0
 10
1.564971548488832
 20
-2.786226469368279
 30
0.0
 10
1.564971548488832
 20
-2.786226469368279
 30
0.0
 10
1.564971548488832
 20
-2.786226469368279
 30
0.0
 10
1.561648523315221
 20
-2.789223973708557
 30
0.0
 10
1.561648523315221
 20
-2.789223973708557
 30
0.0
 10
1.561648523315221
 20
-2.789223973708557
 30
0.0
 10
1.566653406127721
 20
-2.798772584819668
 30
0.0
 10
1.566653406127721
 20
-2.798772584819668
 30
0.0
 10
1.566653406127721
 20
-2.798772584819668
 30
0.0
 10
1.575008440849943
 20
-2.813298952007168
 30
0.0
 10
1.575008440849943
 20
-2.813298952007168
 30
0.0
 10
1.575008440849943
 20
-2.813298952007168
 30
0.0
 10
1.595651887030498
 20
-2.810925362597446
 30
0.0
 10
1.595651887030498
 20
-2.810925362597446
 30
0.0
 10
1.595651887030498
 20
-2.810925362597446
 30
0.0
 10
1.617692360120776
 20
-2.810925362597446
 30
0.0
 10
1.617692360120776
 20
-2.810925362597446
 30
0.0
 10
1.617692360120776
 20
-2.810925362597446
 30
0.0
 10
1.639380185641609
 20
-2.813461712423834
 30
0.0
 10
1.639380185641609
 20
-2.813461712423834
 30
0.0
 10
1.639380185641609
 20
-2.813461712423834
 30
0.0
 10
1.649593401787443
 20
-2.791882393847445
 30
0.0
 10
1.649593401787443
 20
-2.791882393847445
 30
0.0
 10
1.649593401787443
 20
-2.791882393847445
 30
0.0
 10
1.648454078870776
 20
-2.789603748014112
 30
0.0
 10
1.648454078870776
 20
-2.789603748014112
 30
0.0
 10
1.648467642238832
 20
-2.789332480653001
 30
0.0
 10
1.648467642238832
 20
-2.789074776659945
 30
0.0
 10
1.648467642238832
 20
-2.788803509298834
 30
0.0
 10
1.648467642238832
 20
-2.788803509298834
 30
0.0
 10
1.648467642238832
 20
-2.774914620409945
 30
0.0
 10
1.648467642238832
 20
-2.774914620409945
 30
0.0
 10
1.648467642238832
 20
-2.774914620409945
 30
0.0
 10
1.634578753349943
 20
-2.774914620409945
 30
0.0
 10
1.634578753349943
 20
-2.774914620409945
 30
0.0
 10
1.632462867933276
 20
-2.774914620409945
 30
0.0
 10
1.631689755954109
 20
-2.774521282736334
 30
0.0
 10
1.631662629217998
 20
-2.774521282736334
 30
0.0
 10
1.631662629217998
 20
-2.774521282736334
 30
0.0
 10
1.631649065849943
 20
-2.774521282736334
 30
0.0
 10
1.631649065849943
 20
-2.774521282736334
 30
0.0
 10
1.631621939113832
 20
-2.774480592632168
 30
0.0
 10
1.631255728176332
 20
-2.773978748014112
 30
0.0
 10
1.630943770711054
 20
-2.77258172110439
 30
0.0
 10
1.630943770711054
 20
-2.77258172110439
 30
0.0
 10
1.630943770711054
 20
-2.679048734993279
 30
0.0
 10
1.630943770711054
 20
-2.679048734993279
 30
0.0
 10
1.634266795884665
 20
-2.679971044021057
 30
0.0
 10
1.639949847099943
 20
-2.685409954611334
 30
0.0
 10
1.646419573662443
 20
-2.698498604784945
 30
0.0
 10
1.646419573662443
 20
-2.698498604784945
 30
0.0
 10
1.648467642238832
 20
-2.702648995409945
 30
0.0
 10
1.648467642238832
 20
-2.702648995409945
 30
0.0
 10
1.648467642238832
 20
-2.702648995409945
 30
0.0
 10
1.652604469495776
 20
-2.704737754090501
 30
0.0
 10
1.652604469495776
 20
-2.704737754090501
 30
0.0
 10
1.665272655259665
 20
-2.711153227180779
 30
0.0
 10
1.677873024183276
 20
-2.703164403396057
 30
0.0
 10
1.677859460815221
 20
-2.689994373014112
 30
0.0
 10
1.677859460815221
 20
-2.689994373014112
 30
0.0
 10
1.677411869669387
 20
-2.686508587423834
 30
0.0
 10
1.677411869669387
 20
-2.686508587423834
 30
0.0
  0
HATCH
  5
AF
330
A0
100
AcDbEntity
  8
Let It Snow
 62
    95
420
  3781962
440
 33554687
100
AcDbHatch
 10
0.0
 20
0.0
 30
0.0
210
0.0
220
0.0
230
1.0
  2
SOLID
 70
     1
 71
     1
 91
        1
 92
        1
 93
        1
 72
     4
 94
        3
 73
     0
 74
     0
 95
      131
 96
      127
 40
0.0
 40
0.0
 40
0.0
 40
0.0
 40
1.0
 40
1.0
 40
1.0
 40
2.0
 40
2.0
 40
2.0
 40
3.0
 40
3.0
 40
3.0
 40
4.0
 40
4.0
 40
4.0
 40
5.0
 40
5.0
 40
5.0
 40
6.0
 40
6.0
 40
6.0
 40
7.0
 40
7.0
 40
7.0
 40
8.0
 40
8.0
 40
8.0
 40
9.0
 40
9.0
 40
9.0
 40
10.0
 40
10.0
 40
10.0
 40
11.0
 40
11.0
 40
11.0
 40
12.0
 40
12.0
 40
12.0
 40
13.0
 40
13.0
 40
13.0
 40
14.0
 40
14.0
 40
14.0
 40
15.0
 40
15.0
 40
15.0
 40
16.0
 40
16.0
 40
16.0
 40
17.0
 40
17.0
 40
17.0
 40
18.0
 40
18.0
 40
18.0
 40
19.0
 40
19.0
 40
19.0
 40
20.0
 40
20.0
 40
20.0
 40
21.0
 40
21.0
 40
21.0
 40
22.0
 40
22.0
 40
22.0
 40
23.0
 40
23.0
 40
23.0
 40
24.0
 40
24.0
 40
24.0
 40
25.0
 40
25.0
 40
25.0
 40
26.0
 40
26.0
 40
26.0
 40
27.0
 40
27.0
 40
27.0
 40
28.0
 40
28.0
 40
28.0
 40
29.0
 40
29.0
 40
29.0
 40
30.0
 40
30.0
 40
30.0
 40
31.0
 40
31.0
 40
31.0
 40
32.0
 40
32.0
 40
32.0
 40
33.0
 40
33.0
 40
33.0
 40
34.0
 40
34.0
 40
34.0
 40
35.0
 40
35.0
 40
35.0
 40
36.0
 40
36.0
 40
36.0
 40
37.0
 40
37.0
 40
37.0
 40
38.0
 40
38.0
 40
38.0
 40
39.0
 40
39.0
 40
39.0
 40
40.0
 40
40.0
 40
40.0
 40
41.0
 40
41.0
 40
41.0
 40
42.0
 40
42.0
 40
42.0
 40
42.0
 10
1.677411869669387
 20
-2.686508587423834
 10
1.673098718627721
 20
-2.669839208083557
 10
1.670901453002721
 20
-2.65453972891689
 10
1.670901453002721
 20
-2.639850601312723
 10
1.670901453002721
 20
-2.639850601312723
 10
1.670901453002721
 20
-2.637178617805779
 10
1.670901453002721
 20
-2.637178617805779
 10
1.670901453002721
 20
-2.637178617805779
 10
1.669911327134665
 20
-2.634696521451612
 10
1.669911327134665
 20
-2.634696521451612
 10
1.665869443454109
 20
-2.624605375618279
 10
1.658165450398554
 20
-2.623520306173834
 10
1.655045875745776
 20
-2.623520306173834
 10
1.650881921752721
 20
-2.623520306173834
 10
1.643313562377721
 20
-2.625202163812723
 10
1.639529382690221
 20
-2.636527576139112
 10
1.639488692586054
 20
-2.636636083083557
 10
1.639448002481887
 20
-2.636744590028001
 10
1.639420875745776
 20
-2.63683953360439
 10
1.639420875745776
 20
-2.63683953360439
 10
1.573923371405498
 20
-2.63683953360439
 10
1.573923371405498
 20
-2.63683953360439
 10
1.573882681301332
 20
-2.636731026659945
 10
1.573855554565221
 20
-2.636622519715501
 10
1.573814864461054
 20
-2.636514012771057
 10
1.570030684773554
 20
-2.625202163812723
 10
1.562462325398554
 20
-2.623520306173834
 10
1.558298371405498
 20
-2.623520306173834
 10
1.555178796752721
 20
-2.623520306173834
 10
1.547474803697165
 20
-2.624605375618279
 10
1.543432920016609
 20
-2.634696521451612
 10
1.543432920016609
 20
-2.634696521451612
 10
1.542442794148554
 20
-2.637178617805779
 10
1.542442794148554
 20
-2.637178617805779
 10
1.542442794148554
 20
-2.637178617805779
 10
1.542442794148554
 20
-2.641613839159945
 10
1.542442794148554
 20
-2.641613839159945
 10
1.542442794148554
 20
-2.655014446798834
 10
1.540286218627721
 20
-2.670110475444668
 10
1.536040884426332
 20
-2.686508587423834
 10
1.536040884426332
 20
-2.686508587423834
 10
1.535593293280498
 20
-2.690482654264112
 10
1.535593293280498
 20
-2.690482654264112
 10
1.535579729912443
 20
-2.70312371329189
 10
1.548112281995776
 20
-2.711112537076612
 10
1.560739777655498
 20
-2.704737754090501
 10
1.560739777655498
 20
-2.704737754090501
 10
1.564849478176332
 20
-2.702662558778001
 10
1.564849478176332
 20
-2.702662558778001
 10
1.564849478176332
 20
-2.702662558778001
 10
1.566911110120776
 20
-2.698539294889112
 10
1.566911110120776
 20
-2.698539294889112
 10
1.573136696058276
 20
-2.686020306173834
 10
1.578616296752721
 20
-2.680486452007168
 10
1.582359786336054
 20
-2.67919793204189
 10
1.582359786336054
 20
-2.67919793204189
 10
1.582698870537443
 20
-2.772107003222445
 10
1.582698870537443
 20
-2.772107003222445
 10
1.582115645711054
 20
-2.774914620409945
 10
1.581532420884665
 20
-2.774914620409945
 10
1.578860437377721
 20
-2.774914620409945
 10
1.578860437377721
 20
-2.774914620409945
 10
1.564971548488832
 20
-2.774914620409945
 10
1.564971548488832
 20
-2.774914620409945
 10
1.564971548488832
 20
-2.774914620409945
 10
1.564971548488832
 20
-2.786226469368279
 10
1.564971548488832
 20
-2.786226469368279
 10
1.564971548488832
 20
-2.786226469368279
 10
1.561648523315221
 20
-2.789223973708557
 10
1.561648523315221
 20
-2.789223973708557
 10
1.561648523315221
 20
-2.789223973708557
 10
1.566653406127721
 20
-2.798772584819668
 10
1.566653406127721
 20
-2.798772584819668
 10
1.566653406127721
 20
-2.798772584819668
 10
1.575008440849943
 20
-2.813298952007168
 10
1.575008440849943
 20
-2.813298952007168
 10
1.575008440849943
 20
-2.813298952007168
 10
1.595651887030498
 20
-2.810925362597446
 10
1.595651887030498
 20
-2.810925362597446
 10
1.595651887030498
 20
-2.810925362597446
 10
1.617692360120776
 20
-2.810925362597446
 10
1.617692360120776
 20
-2.810925362597446
 10
1.617692360120776
 20
-2.810925362597446
 10
1.639380185641609
 20
-2.813461712423834
 10
1.639380185641609
 20
-2.813461712423834
 10
1.639380185641609
 20
-2.813461712423834
 10
1.649593401787443
 20
-2.791882393847445
 10
1.649593401787443
 20
-2.791882393847445
 10
1.649593401787443
 20
-2.791882393847445
 10
1.648454078870776
 20
-2.789603748014112
 10
1.648454078870776
 20
-2.789603748014112
 10
1.648467642238832
 20
-2.789332480653001
 10
1.648467642238832
 20
-2.789074776659945
 10
1.648467642238832
 20
-2.788803509298834
 10
1.648467642238832
 20
-2.788803509298834
 10
1.648467642238832
 20
-2.774914620409945
 10
1.648467642238832
 20
-2.774914620409945
 10
1.648467642238832
 20
-2.774914620409945
 10
1.634578753349943
 20
-2.774914620409945
 10
1.634578753349943
 20
-2.774914620409945
 10
1.632462867933276
 20
-2.774914620409945
 10
1.631689755954109
 20
-2.774521282736334
 10
1.631662629217998
 20
-2.774521282736334
 10
1.631662629217998
 20
-2.774521282736334
 10
1.631649065849943
 20
-2.774521282736334
 10
1.631649065849943
 20
-2.774521282736334
 10
1.631621939113832
 20
-2.774480592632168
 10
1.631255728176332
 20
-2.773978748014112
 10
1.630943770711054
 20
-2.77258172110439
 10
1.630943770711054
 20
-2.77258172110439
 10
1.630943770711054
 20
-2.679048734993279
 10
1.630943770711054
 20
-2.679048734993279
 10
1.634266795884665
 20
-2.679971044021057
 10
1.639949847099943
 20
-2.685409954611334
 10
1.646419573662443
 20
-2.698498604784945
 10
1.646419573662443
 20
-2.698498604784945
 10
1.648467642238832
 20
-2.702648995409945
 10
1.648467642238832
 20
-2.702648995409945
 10
1.648467642238832
 20
-2.702648995409945
 10
1.652604469495776
 20
-2.704737754090501
 10
1.652604469495776
 20
-2.704737754090501
 10
1.665272655259665
 20
-2.711153227180779
 10
1.677873024183276
 20
-2.703164403396057
 10
1.677859460815221
 20
-2.689994373014112
 10
1.677859460815221
 20
-2.689994373014112
 10
1.677411869669387
 20
-2.686508587423834
 10
1.677411869669387
 20
-2.686508587423834
 97
        0
 97
        1
330
AE
 75
     2
 76
     1
 98
        1
 10
0.0
 20
0.0
450
        0
451
        0
460
0.0
461
0.0
452
        0
462
0.0
453
        0
470

  0
ENDBLK
  5
A3
330
A0
100
AcDbEntity
  8
0
100
AcDbBlockEnd
  0
ENDSEC
  0
SECTION
  2
ENTITIES
  0
SPLINE
  5
7E
330
70
100
AcDbEntity
  8
Let It Snow
100
AcDbSpline
210
0.0
220
0.0
230
1.0
 70
     9
 71
     3
 72
    74
 73
    70
 74
     0
 42
0.0000000001
 43
0.0000000001
 40
0.0
 40
0.0
 40
0.0
 40
0.0
 40
1.0
 40
1.0
 40
1.0
 40
2.0
 40
2.0
 40
2.0
 40
3.0
 40
3.0
 40
3.0
 40
4.0
 40
4.0
 40
4.0
 40
5.0
 40
5.0
 40
5.0
 40
6.0
 40
6.0
 40
6.0
 40
7.0
 40
7.0
 40
7.0
 40
8.0
 40
8.0
 40
8.0
 40
9.0
 40
9.0
 40
9.0
 40
10.0
 40
10.0
 40
10.0
 40
11.0
 40
11.0
 40
11.0
 40
12.0
 40
12.0
 40
12.0
 40
13.0
 40
13.0
 40
13.0
 40
14.0
 40
14.0
 40
14.0
 40
15.0
 40
15.0
 40
15.0
 40
16.0
 40
16.0
 40
16.0
 40
17.0
 40
17.0
 40
17.0
 40
18.0
 40
18.0
 40
18.0
 40
19.0
 40
19.0
 40
19.0
 40
20.0
 40
20.0
 40
20.0
 40
21.0
 40
21.0
 40
21.0
 40
22.0
 40
22.0
 40
22.0
 40
23.0
 40
23.0
 40
23.0
 40
23.0
 10
2.02520799190246
 20
-2.607897849305345
 30
0.0
 10
2.02520799190246
 20
-2.607897849305345
 30
0.0
 10
0.6801771013317268
 20
-2.607897849305345
 30
0.0
 10
0.6801771013317268
 20
-2.607897849305345
 30
0.0
 10
0.6801771013317268
 20
-2.607897849305345
 30
0.0
 10
0.6263474843612408
 20
-2.607897849305345
 30
0.0
 10
0.6263474843612408
 20
-2.607897849305345
 30
0.0
 10
0.5809110490856331
 20
-2.607897849305345
 30
0.0
 10
0.5440771799992616
 20
-2.571064827929477
 30
0.0
 10
0.5440771799992616
 20
-2.525628392653869
 30
0.0
 10
0.5440771799992616
 20
-2.525628392653869
 30
0.0
 10
0.5440771799992616
 20
-2.444921266460293
 30
0.0
 10
0.5440771799992616
 20
-2.444921266460293
 30
0.0
 10
0.5440771799992616
 20
-2.444921266460293
 30
0.0
 10
0.5440661597627165
 20
-2.444921266460293
 30
0.0
 10
0.5440661597627165
 20
-2.444921266460293
 30
0.0
 10
0.5440661597627165
 20
-2.444921266460293
 30
0.0
 10
0.5440661597627165
 20
-2.403170676453783
 30
0.0
 10
0.5440661597627165
 20
-2.403170676453783
 30
0.0
 10
0.5440661597627165
 20
-2.239118348979824
 30
0.0
 10
0.4302355933564665
 20
-2.101739232497619
 30
0.0
 10
0.2772738623994352
 20
-2.065469090896057
 30
0.0
 10
0.2772738623994352
 20
-2.065469090896057
 30
0.0
 10
0.248502567911588
 20
-1.965695260058383
 30
0.0
 10
0.248502567911588
 20
-1.965695260058383
 30
0.0
 10
0.235913219224522
 20
-1.922038169129564
 30
0.0
 10
0.1903165666637581
 20
-1.896852690071404
 30
0.0
 10
0.1466594757349387
 20
-1.909441191047966
 30
0.0
 10
0.1466594757349387
 20
-1.909441191047966
 30
0.0
 10
-0.0756305633275613
 20
-1.973542516189025
 30
0.0
 10
-0.0756305633275613
 20
-1.973542516189025
 30
0.0
 10
-0.1192876542563807
 20
-1.986131864876091
 30
0.0
 10
-0.1444739810250439
 20
-2.031728517436855
 30
0.0
 10
-0.131884632337978
 20
-2.075386456076178
 30
0.0
 10
-0.131884632337978
 20
-2.075386456076178
 30
0.0
 10
-0.0925957936335509
 20
-2.211633879036248
 30
0.0
 10
-0.0925957936335509
 20
-2.211633879036248
 30
0.0
 10
-0.1237796722142801
 20
-2.258672487163418
 30
0.0
 10
-0.143725452650478
 20
-2.31375841110005
 30
0.0
 10
-0.1488337561444016
 20
-2.373093907790588
 30
0.0
 10
-0.1488337561444016
 20
-2.373093907790588
 30
0.0
 10
-0.1488337561444016
 20
-2.558903573046664
 30
0.0
 10
-0.1488337561444016
 20
-2.558903573046664
 30
0.0
 10
-0.1488337561444016
 20
-2.585737001323574
 30
0.0
 10
-0.1617384531387592
 20
-2.609496631314894
 30
0.0
 10
-0.1816164167346793
 20
-2.624513822883904
 30
0.0
 10
-0.1816164167346793
 20
-2.624513822883904
 30
0.0
 10
-0.1816164167346793
 20
-2.62465454282748
 30
0.0
 10
-0.1816164167346793
 20
-2.62465454282748
 30
0.0
 10
-0.2015460906713113
 20
-2.639663257291456
 30
0.0
 10
-0.2146076141088113
 20
-2.663294882996751
 30
0.0
 10
-0.2146076141088113
 20
-2.69016730595682
 30
0.0
 10
-0.2146076141088113
 20
-2.69016730595682
 30
0.0
 10
-0.2146076141088113
 20
-3.17360473813998
 30
0.0
 10
-0.2146076141088113
 20
-3.17360473813998
 30
0.0
 10
-0.2146076141088113
 20
-3.219041173415588
 30
0.0
 10
-0.1777745927329432
 20
-3.255874194791456
 30
0.0
 10
-0.1323381574573356
 20
-3.255874194791456
 30
0.0
 10
-0.1323381574573356
 20
-3.255874194791456
 30
0.0
 10
2.02520799190246
 20
-3.255874194791456
 30
0.0
 10
2.02520799190246
 20
-3.255874194791456
 30
0.0
 10
2.070644427178068
 20
-3.255874194791456
 30
0.0
 10
2.10747829626444
 20
-3.219041173415588
 30
0.0
 10
2.10747829626444
 20
-3.17360473813998
 30
0.0
 10
2.10747829626444
 20
-3.17360473813998
 30
0.0
 10
2.10747829626444
 20
-2.69016730595682
 30
0.0
 10
2.10747829626444
 20
-2.69016730595682
 30
0.0
 10
2.10747829626444
 20
-2.644730870681213
 30
0.0
 10
2.070644427178068
 20
-2.607897849305345
 30
0.0
 10
2.02520799190246
 20
-2.607897849305345
 30
0.0
  0
SPLINE
  5
7F
330
70
100
AcDbEntity
  8
Let It Snow
100
AcDbSpline
210
0.0
220
0.0
230
1.0
 70
     9
 71
     3
 72
    59
 73
    55
 74
     0
 42
0.0000000001
 43
0.0000000001
 40
0.0
 40
0.0
 40
0.0
 40
0.0
 40
1.0
 40
1.0
 40
1.0
 40
2.0
 40
2.0
 40
2.0
 40
3.0
 40
3.0
 40
3.0
 40
4.0
 40
4.0
 40
4.0
 40
5.0
 40
5.0
 40
5.0
 40
6.0
 40
6.0
 40
6.0
 40
7.0
 40
7.0
 40
7.0
 40
8.0
 40
8.0
 40
8.0
 40
9.0
 40
9.0
 40
9.0
 40
10.0
 40
10.0
 40
10.0
 40
11.0
 40
11.0
 40
11.0
 40
12.0
 40
12.0
 40
12.0
 40
13.0
 40
13.0
 40
13.0
 40
14.0
 40
14.0
 40
14.0
 40
15.0
 40
15.0
 40
15.0
 40
16.0
 40
16.0
 40
16.0
 40
17.0
 40
17.0
 40
17.0
 40
18.0
 40
18.0
 40
18.0
 40
18.0
 10
-0.0020653981257384
 20
-2.543415054437723
 30
0.0
 10
0.0280317155895394
 20
-2.548270740201612
 30
0.0
 10
0.0601090810409283
 20
-2.552095609993279
 30
0.0
 10
0.0933122060409283
 20
-2.554781156868279
 30
0.0
 10
0.1039458865964838
 20
-2.55139031485439
 30
0.0
 10
0.1163021148950949
 20
-2.549599950271057
 30
0.0
 10
0.1292008779159283
 20
-2.549599950271057
 30
0.0
 10
0.1464534820825949
 20
-2.549599950271057
 30
0.0
 10
0.1624650380721783
 20
-2.552841595236334
 30
0.0
 10
0.1746381609020394
 20
-2.558755223708557
 30
0.0
 10
0.2562964182805116
 20
-2.560491334819668
 30
0.0
 10
0.3379275489228727
 20
-2.555201621278001
 30
0.0
 10
0.4108984690617616
 20
-2.543415054437723
 30
0.0
 10
0.4108984690617616
 20
-2.543415054437723
 30
0.0
 10
0.4164535159910151
 20
-2.542516481304043
 30
0.0
 10
0.4164535159910151
 20
-2.542516481304043
 30
0.0
 10
0.4385168772648866
 20
-2.508620776822706
 30
0.0
 10
0.4514258128117616
 20
-2.469141203254998
 30
0.0
 10
0.4514258128117616
 20
-2.426804845290588
 30
0.0
 10
0.4514258128117616
 20
-2.34157348813998
 30
0.0
 10
0.3999943688555984
 20
-2.26741577329623
 30
0.0
 10
0.3240776547171436
 20
-2.228775433126959
 30
0.0
 10
0.3213581994220047
 20
-2.230028349251091
 30
0.0
 10
0.3187311445717442
 20
-2.231255834060119
 30
0.0
 10
0.3157989139402338
 20
-2.232569785340501
 30
0.0
 10
0.3157989139402338
 20
-2.232569785340501
 30
0.0
 10
0.3108821930200949
 20
-2.234767050965501
 30
0.0
 10
0.3108821930200949
 20
-2.234767050965501
 30
0.0
 10
0.3108821930200949
 20
-2.234767050965501
 30
0.0
 10
0.3062435211450949
 20
-2.232027250618279
 30
0.0
 10
0.3062435211450949
 20
-2.232027250618279
 30
0.0
 10
0.2980376834714838
 20
-2.228215944194668
 30
0.0
 10
0.2416886708846783
 20
-2.234116009298834
 30
0.0
 10
0.1434288510062061
 20
-2.265772910340501
 30
0.0
 10
0.0451147776555116
 20
-2.297416248014112
 30
0.0
 10
-0.0040863399660162
 20
-2.325478856521057
 30
0.0
 10
-0.0085825964764328
 20
-2.333481243673834
 30
0.0
 10
-0.0085825964764328
 20
-2.333481243673834
 30
0.0
 10
-0.0101830739069884
 20
-2.339733956347445
 30
0.0
 10
-0.0101830739069884
 20
-2.339733956347445
 30
0.0
 10
-0.0101830739069884
 20
-2.339733956347445
 30
0.0
 10
-0.016239117743794
 20
-2.340371434646057
 30
0.0
 10
-0.016239117743794
 20
-2.340371434646057
 30
0.0
 10
-0.0191857594538634
 20
-2.341001283550137
 30
0.0
 10
-0.0219018239069884
 20
-2.341547209114373
 30
0.0
 10
-0.0246797712268669
 20
-2.342116022862203
 30
0.0
 10
-0.0362162634686203
 20
-2.368295866340935
 30
0.0
 10
-0.0427156598987419
 20
-2.396837431282341
 30
0.0
 10
-0.0427156598987419
 20
-2.426804845290588
 30
0.0
 10
-0.0427156598987419
 20
-2.469131878439459
 30
0.0
 10
-0.0298135060358946
 20
-2.508603822612637
 30
0.0
 10
-0.0077594695775613
 20
-2.542493593120449
 30
0.0
 10
-0.0077594695775613
 20
-2.542493593120449
 30
0.0
 10
-0.0020653981257384
 20
-2.543415054437723
 30
0.0
 10
-0.0020653981257384
 20
-2.543415054437723
 30
0.0
  0
HATCH
  5
80
330
70
100
AcDbEntity
  8
Let It Snow
 62
     7
420
 15921906
440
 33554687
100
AcDbHatch
 10
0.0
 20
0.0
 30
0.0
210
0.0
220
0.0
230
1.0
  2
SOLID
 70
     1
 71
     1
 91
        1
 92
        1
 93
        1
 72
     4
 94
        3
 73
     0
 74
     0
 95
       59
 96
       55
 40
0.0
 40
0.0
 40
0.0
 40
0.0
 40
1.0
 40
1.0
 40
1.0
 40
2.0
 40
2.0
 40
2.0
 40
3.0
 40
3.0
 40
3.0
 40
4.0
 40
4.0
 40
4.0
 40
5.0
 40
5.0
 40
5.0
 40
6.0
 40
6.0
 40
6.0
 40
7.0
 40
7.0
 40
7.0
 40
8.0
 40
8.0
 40
8.0
 40
9.0
 40
9.0
 40
9.0
 40
10.0
 40
10.0
 40
10.0
 40
11.0
 40
11.0
 40
11.0
 40
12.0
 40
12.0
 40
12.0
 40
13.0
 40
13.0
 40
13.0
 40
14.0
 40
14.0
 40
14.0
 40
15.0
 40
15.0
 40
15.0
 40
16.0
 40
16.0
 40
16.0
 40
17.0
 40
17.0
 40
17.0
 40
18.0
 40
18.0
 40
18.0
 40
18.0
 10
-0.0020653981257384
 20
-2.543415054437723
 10
0.0280317155895394
 20
-2.548270740201612
 10
0.0601090810409283
 20
-2.552095609993279
 10
0.0933122060409283
 20
-2.554781156868279
 10
0.1039458865964838
 20
-2.55139031485439
 10
0.1163021148950949
 20
-2.549599950271057
 10
0.1292008779159283
 20
-2.549599950271057
 10
0.1464534820825949
 20
-2.549599950271057
 10
0.1624650380721783
 20
-2.552841595236334
 10
0.1746381609020394
 20
-2.558755223708557
 10
0.2562964182805116
 20
-2.560491334819668
 10
0.3379275489228727
 20
-2.555201621278001
 10
0.4108984690617616
 20
-2.543415054437723
 10
0.4108984690617616
 20
-2.543415054437723
 10
0.4164535159910151
 20
-2.542516481304043
 10
0.4164535159910151
 20
-2.542516481304043
 10
0.4385168772648866
 20
-2.508620776822706
 10
0.4514258128117616
 20
-2.469141203254998
 10
0.4514258128117616
 20
-2.426804845290588
 10
0.4514258128117616
 20
-2.34157348813998
 10
0.3999943688555984
 20
-2.26741577329623
 10
0.3240776547171436
 20
-2.228775433126959
 10
0.3213581994220047
 20
-2.230028349251091
 10
0.3187311445717442
 20
-2.231255834060119
 10
0.3157989139402338
 20
-2.232569785340501
 10
0.3157989139402338
 20
-2.232569785340501
 10
0.3108821930200949
 20
-2.234767050965501
 10
0.3108821930200949
 20
-2.234767050965501
 10
0.3108821930200949
 20
-2.234767050965501
 10
0.3062435211450949
 20
-2.232027250618279
 10
0.3062435211450949
 20
-2.232027250618279
 10
0.2980376834714838
 20
-2.228215944194668
 10
0.2416886708846783
 20
-2.234116009298834
 10
0.1434288510062061
 20
-2.265772910340501
 10
0.0451147776555116
 20
-2.297416248014112
 10
-0.0040863399660162
 20
-2.325478856521057
 10
-0.0085825964764328
 20
-2.333481243673834
 10
-0.0085825964764328
 20
-2.333481243673834
 10
-0.0101830739069884
 20
-2.339733956347445
 10
-0.0101830739069884
 20
-2.339733956347445
 10
-0.0101830739069884
 20
-2.339733956347445
 10
-0.016239117743794
 20
-2.340371434646057
 10
-0.016239117743794
 20
-2.340371434646057
 10
-0.0191857594538634
 20
-2.341001283550137
 10
-0.0219018239069884
 20
-2.341547209114373
 10
-0.0246797712268669
 20
-2.342116022862203
 10
-0.0362162634686203
 20
-2.368295866340935
 10
-0.0427156598987419
 20
-2.396837431282341
 10
-0.0427156598987419
 20
-2.426804845290588
 10
-0.0427156598987419
 20
-2.469131878439459
 10
-0.0298135060358946
 20
-2.508603822612637
 10
-0.0077594695775613
 20
-2.542493593120449
 10
-0.0077594695775613
 20
-2.542493593120449
 10
-0.0020653981257384
 20
-2.543415054437723
 10
-0.0020653981257384
 20
-2.543415054437723
 97
        0
 97
        1
330
7F
 75
     2
 76
     1
 98
        1
 10
0.0
 20
0.0
450
        0
451
        0
460
0.0
461
0.0
452
        0
462
0.0
453
        0
470

  0
INSERT
  5
82
330
70
100
AcDbEntity
  8
Let It Snow
100
AcDbBlockReference
  2
Block_0
 10
0.0
 20
0.0
 30
0.0
  0
SPLINE
  5
8E
330
70
100
AcDbEntity
  8
Let It Snow
100
AcDbSpline
210
0.0
220
0.0
230
1.0
 70
     9
 71
     3
 72
    47
 73
    43
 74
     0
 42
0.0000000001
 43
0.0000000001
 40
0.0
 40
0.0
 40
0.0
 40
0.0
 40
1.0
 40
1.0
 40
1.0
 40
2.0
 40
2.0
 40
2.0
 40
3.0
 40
3.0
 40
3.0
 40
4.0
 40
4.0
 40
4.0
 40
5.0
 40
5.0
 40
5.0
 40
6.0
 40
6.0
 40
6.0
 40
7.0
 40
7.0
 40
7.0
 40
8.0
 40
8.0
 40
8.0
 40
9.0
 40
9.0
 40
9.0
 40
10.0
 40
10.0
 40
10.0
 40
11.0
 40
11.0
 40
11.0
 40
12.0
 40
12.0
 40
12.0
 40
13.0
 40
13.0
 40
13.0
 40
14.0
 40
14.0
 40
14.0
 40
14.0
 10
0.4125387888859804
 20
-2.649250863085727
 30
0.0
 10
0.4125387888859804
 20
-2.649250863085727
 30
0.0
 10
0.4125608293590707
 20
-2.553700325976352
 30
0.0
 10
0.4125608293590707
 20
-2.553700325976352
 30
0.0
 10
0.3362567115205289
 20
-2.566012473328783
 30
0.0
 10
0.2536761451142789
 20
-2.570992772536682
 30
0.0
 10
0.1720272125513449
 20
-2.569116789192498
 30
0.0
 10
0.1618707930092442
 20
-2.56366092439215
 30
0.0
 10
0.1467239017332026
 20
-2.560019160069234
 30
0.0
 10
0.1292008779159283
 20
-2.560019160069234
 30
0.0
 10
0.1160376292180116
 20
-2.560019160069234
 30
0.0
 10
0.1040806725665359
 20
-2.562042645041022
 30
0.0
 10
0.0945914011906679
 20
-2.565336000347012
 30
0.0
 10
0.0610839481199213
 20
-2.562669103103088
 30
0.0
 10
0.0281105526663623
 20
-2.558837451627394
 30
0.0
 10
-0.0037286061335509
 20
-2.553700325976352
 30
0.0
 10
-0.0037286061335509
 20
-2.553700325976352
 30
0.0
 10
-0.0038506764460509
 20
-2.647157865852654
 30
0.0
 10
-0.0038506764460509
 20
-2.647157865852654
 30
0.0
 10
0.0047985138208762
 20
-2.649918011251959
 30
0.0
 10
0.0136833676077686
 20
-2.652437406868279
 30
0.0
 10
0.0227013119437061
 20
-2.654807605435987
 30
0.0
 10
0.0227013119437061
 20
-2.654807605435987
 30
0.0
 10
-0.0252621483427523
 20
-2.837367996332254
 30
0.0
 10
-0.0252621483427523
 20
-2.837367996332254
 30
0.0
 10
-0.0252621483427523
 20
-2.837367996332254
 30
0.0
 10
0.0617146447345047
 20
-2.860218880663852
 30
0.0
 10
0.0617146447345047
 20
-2.860218880663852
 30
0.0
 10
0.0617146447345047
 20
-2.860218880663852
 30
0.0
 10
0.1087405372041227
 20
-2.681228198697706
 30
0.0
 10
0.1087405372041227
 20
-2.681228198697706
 30
0.0
 10
0.1087405372041227
 20
-2.681228198697706
 30
0.0
 10
0.1680107601858936
 20
-2.939391650846144
 30
0.0
 10
0.1680107601858936
 20
-2.939391650846144
 30
0.0
 10
0.1680107601858936
 20
-2.939391650846144
 30
0.0
 10
0.2591608320717442
 20
-2.918465069357428
 30
0.0
 10
0.2591608320717442
 20
-2.918465069357428
 30
0.0
 10
0.2591608320717442
 20
-2.918465069357428
 30
0.0
 10
0.2037086971976123
 20
-2.676937935839633
 30
0.0
 10
0.2037086971976123
 20
-2.676937935839633
 30
0.0
 10
0.2766592722844178
 20
-2.677116802755866
 30
0.0
 10
0.3497014001055984
 20
-2.66768432798373
 30
0.0
 10
0.4125387888859804
 20
-2.649250863085727
 30
0.0
  0
HATCH
  5
8F
330
70
100
AcDbEntity
  8
Let It Snow
 62
     1
420
 16711680
440
 33554687
100
AcDbHatch
 10
0.0
 20
0.0
 30
0.0
210
0.0
220
0.0
230
1.0
  2
SOLID
 70
     1
 71
     1
 91
        1
 92
        1
 93
        1
 72
     4
 94
        3
 73
     0
 74
     0
 95
       47
 96
       43
 40
0.0
 40
0.0
 40
0.0
 40
0.0
 40
1.0
 40
1.0
 40
1.0
 40
2.0
 40
2.0
 40
2.0
 40
3.0
 40
3.0
 40
3.0
 40
4.0
 40
4.0
 40
4.0
 40
5.0
 40
5.0
 40
5.0
 40
6.0
 40
6.0
 40
6.0
 40
7.0
 40
7.0
 40
7.0
 40
8.0
 40
8.0
 40
8.0
 40
9.0
 40
9.0
 40
9.0
 40
10.0
 40
10.0
 40
10.0
 40
11.0
 40
11.0
 40
11.0
 40
12.0
 40
12.0
 40
12.0
 40
13.0
 40
13.0
 40
13.0
 40
14.0
 40
14.0
 40
14.0
 40
14.0
 10
0.4125387888859804
 20
-2.649250863085727
 10
0.4125387888859804
 20
-2.649250863085727
 10
0.4125608293590707
 20
-2.553700325976352
 10
0.4125608293590707
 20
-2.553700325976352
 10
0.3362567115205289
 20
-2.566012473328783
 10
0.2536761451142789
 20
-2.570992772536682
 10
0.1720272125513449
 20
-2.569116789192498
 10
0.1618707930092442
 20
-2.56366092439215
 10
0.1467239017332026
 20
-2.560019160069234
 10
0.1292008779159283
 20
-2.560019160069234
 10
0.1160376292180116
 20
-2.560019160069234
 10
0.1040806725665359
 20
-2.562042645041022
 10
0.0945914011906679
 20
-2.565336000347012
 10
0.0610839481199213
 20
-2.562669103103088
 10
0.0281105526663623
 20
-2.558837451627394
 10
-0.0037286061335509
 20
-2.553700325976352
 10
-0.0037286061335509
 20
-2.553700325976352
 10
-0.0038506764460509
 20
-2.647157865852654
 10
-0.0038506764460509
 20
-2.647157865852654
 10
0.0047985138208762
 20
-2.649918011251959
 10
0.0136833676077686
 20
-2.652437406868279
 10
0.0227013119437061
 20
-2.654807605435987
 10
0.0227013119437061
 20
-2.654807605435987
 10
-0.0252621483427523
 20
-2.837367996332254
 10
-0.0252621483427523
 20
-2.837367996332254
 10
-0.0252621483427523
 20
-2.837367996332254
 10
0.0617146447345047
 20
-2.860218880663852
 10
0.0617146447345047
 20
-2.860218880663852
 10
0.0617146447345047
 20
-2.860218880663852
 10
0.1087405372041227
 20
-2.681228198697706
 10
0.1087405372041227
 20
-2.681228198697706
 10
0.1087405372041227
 20
-2.681228198697706
 10
0.1680107601858936
 20
-2.939391650846144
 10
0.1680107601858936
 20
-2.939391650846144
 10
0.1680107601858936
 20
-2.939391650846144
 10
0.2591608320717442
 20
-2.918465069357428
 10
0.2591608320717442
 20
-2.918465069357428
 10
0.2591608320717442
 20
-2.918465069357428
 10
0.2037086971976123
 20
-2.676937935839633
 10
0.2037086971976123
 20
-2.676937935839633
 10
0.2766592722844178
 20
-2.677116802755866
 10
0.3497014001055984
 20
-2.66768432798373
 10
0.4125387888859804
 20
-2.649250863085727
 97
        0
 97
        1
330
8E
 75
     2
 76
     1
 98
        1
 10
0.0
 20
0.0
450
        0
451
        0
460
0.0
461
0.0
452
        0
462
0.0
453
        0
470

  0
CIRCLE
  5
90
330
70
100
AcDbEntity
  8
Let It Snow
100
AcDbCircle
 10
0.1938440873860543
 20
-2.349088872257361
 30
0.0
 40
0.0401198277122335
  0
HATCH
  5
91
330
70
100
AcDbEntity
  8
Let It Snow
 62
    18
420
        0
440
 33554687
100
AcDbHatch
 10
0.0
 20
0.0
 30
0.0
210
0.0
220
0.0
230
1.0
  2
SOLID
 70
     1
 71
     1
 91
        1
 92
        1
 93
        1
 72
     2
 10
0.1938440873860543
 20
-2.349088872257361
 40
0.0401198277122335
 50
0.0
 51
360.0
 73
     1
 97
        1
330
90
 75
     2
 76
     1
 98
        1
 10
0.0
 20
0.0
450
        0
451
        0
460
0.0
461
0.0
452
        0
462
0.0
453
        0
470

  0
CIRCLE
  5
92
330
70
100
AcDbEntity
  8
Let It Snow
100
AcDbCircle
 10
0.335838426593843
 20
-2.349088872257368
 30
0.0
 40
0.0401198277122303
  0
HATCH
  5
93
330
70
100
AcDbEntity
  8
Let It Snow
 62
    18
420
        0
440
 33554687
100
AcDbHatch
 10
0.0
 20
0.0
 30
0.0
210
0.0
220
0.0
230
1.0
  2
SOLID
 70
     1
 71
     1
 91
        1
 92
        1
 93
        1
 72
     2
 10
0.335838426593843
 20
-2.349088872257368
 40
0.0401198277122303
 50
0.0
 51
360.0
 73
     1
 97
        1
330
92
 75
     2
 76
     1
 98
        1
 10
0.0
 20
0.0
450
        0
451
        0
460
0.0
461
0.0
452
        0
462
0.0
453
        0
470

  0
SPLINE
  5
94
330
70
100
AcDbEntity
  8
Let It Snow
100
AcDbSpline
210
0.0
220
0.0
230
1.0
 70
    11
 71
     3
 72
    32
 73
    28
 74
     0
 42
0.0000000001
 43
0.0000000001
 40
0.0
 40
0.0
 40
0.0
 40
0.0
 40
1.0
 40
1.0
 40
1.0
 40
2.0
 40
2.0
 40
2.0
 40
3.0
 40
3.0
 40
3.0
 40
4.0
 40
4.0
 40
4.0
 40
5.0
 40
5.0
 40
5.0
 40
6.0
 40
6.0
 40
6.0
 40
7.0
 40
7.0
 40
7.0
 40
8.0
 40
8.0
 40
8.0
 40
9.0
 40
9.0
 40
9.0
 40
9.0
 10
0.3122969547546416
 20
-2.468250661451798
 30
0.0
 10
0.3048522858248614
 20
-2.468250661451798
 30
0.0
 10
0.298817705291463
 20
-2.474285645906244
 30
0.0
 10
0.298817705291463
 20
-2.481729910914989
 30
0.0
 10
0.298817705291463
 20
-2.481730718757085
 30
0.0
 10
0.298817705291463
 20
-2.481731122678133
 30
0.0
 10
0.298817705291463
 20
-2.481731930520203
 30
0.0
 10
0.2988168974493545
 20
-2.498615022697928
 30
0.0
 10
0.2851296286438203
 20
-2.512301887582427
 30
0.0
 10
0.2682461325450731
 20
-2.512301887582427
 30
0.0
 10
0.2513614246831695
 20
-2.512301887582427
 30
0.0
 10
0.2376741558776479
 20
-2.498614618776855
 30
0.0
 10
0.2376741558776479
 20
-2.481729910914989
 30
0.0
 10
0.2376741558776479
 20
-2.474285645906244
 30
0.0
 10
0.231639171423189
 20
-2.468250661451798
 30
0.0
 10
0.2241945024934087
 20
-2.468250661451798
 30
0.0
 10
0.2167498335636158
 20
-2.468250661451798
 30
0.0
 10
0.2107152530302301
 20
-2.474285645906244
 30
0.0
 10
0.2107152530302301
 20
-2.481729910914989
 30
0.0
 10
0.2107152530302301
 20
-2.513503148794345
 30
0.0
 10
0.2364728946657048
 20
-2.539260790429832
 30
0.0
 10
0.2682461325450731
 20
-2.539260790429832
 30
0.0
 10
0.3000193704244541
 20
-2.539260790429832
 30
0.0
 10
0.3257766081388809
 20
-2.513503148794345
 30
0.0
 10
0.3257766081388809
 20
-2.481729910914989
 30
0.0
 10
0.3257766081388809
 20
-2.474285645906244
 30
0.0
 10
0.3197416236844345
 20
-2.468250661451798
 30
0.0
 10
0.3122969547546416
 20
-2.468250661451798
 30
0.0
  0
HATCH
  5
95
330
70
100
AcDbEntity
  8
Let It Snow
 62
    18
420
        0
440
 33554687
100
AcDbHatch
 10
0.0
 20
0.0
 30
0.0
210
0.0
220
0.0
230
1.0
  2
SOLID
 70
     1
 71
     1
 91
        1
 92
        1
 93
        1
 72
     4
 94
        3
 73
     0
 74
     0
 95
       32
 96
       28
 40
0.0
 40
0.0
 40
0.0
 40
0.0
 40
1.0
 40
1.0
 40
1.0
 40
2.0
 40
2.0
 40
2.0
 40
3.0
 40
3.0
 40
3.0
 40
4.0
 40
4.0
 40
4.0
 40
5.0
 40
5.0
 40
5.0
 40
6.0
 40
6.0
 40
6.0
 40
7.0
 40
7.0
 40
7.0
 40
8.0
 40
8.0
 40
8.0
 40
9.0
 40
9.0
 40
9.0
 40
9.0
 10
0.3122969547546416
 20
-2.468250661451798
 10
0.3048522858248614
 20
-2.468250661451798
 10
0.298817705291463
 20
-2.474285645906244
 10
0.298817705291463
 20
-2.481729910914989
 10
0.298817705291463
 20
-2.481730718757085
 10
0.298817705291463
 20
-2.481731122678133
 10
0.298817705291463
 20
-2.481731930520203
 10
0.2988168974493545
 20
-2.498615022697928
 10
0.2851296286438203
 20
-2.512301887582427
 10
0.2682461325450731
 20
-2.512301887582427
 10
0.2513614246831695
 20
-2.512301887582427
 10
0.2376741558776479
 20
-2.498614618776855
 10
0.2376741558776479
 20
-2.481729910914989
 10
0.2376741558776479
 20
-2.474285645906244
 10
0.231639171423189
 20
-2.468250661451798
 10
0.2241945024934087
 20
-2.468250661451798
 10
0.2167498335636158
 20
-2.468250661451798
 10
0.2107152530302301
 20
-2.474285645906244
 10
0.2107152530302301
 20
-2.481729910914989
 10
0.2107152530302301
 20
-2.513503148794345
 10
0.2364728946657048
 20
-2.539260790429832
 10
0.2682461325450731
 20
-2.539260790429832
 10
0.3000193704244541
 20
-2.539260790429832
 10
0.3257766081388809
 20
-2.513503148794345
 10
0.3257766081388809
 20
-2.481729910914989
 10
0.3257766081388809
 20
-2.474285645906244
 10
0.3197416236844345
 20
-2.468250661451798
 10
0.3122969547546416
 20
-2.468250661451798
 97
        0
 97
        1
330
94
 75
     2
 76
     1
 98
        1
 10
0.0
 20
0.0
450
        0
451
        0
460
0.0
461
0.0
452
        0
462
0.0
453
        0
470

  0
SPLINE
  5
96
330
70
100
AcDbEntity
  8
Let It Snow
100
AcDbSpline
210
0.0
220
0.0
230
1.0
 70
     9
 71
     3
 72
    41
 73
    37
 74
     0
 42
0.0000000001
 43
0.0000000001
 40
0.0
 40
0.0
 40
0.0
 40
0.0
 40
1.0
 40
1.0
 40
1.0
 40
2.0
 40
2.0
 40
2.0
 40
3.0
 40
3.0
 40
3.0
 40
4.0
 40
4.0
 40
4.0
 40
5.0
 40
5.0
 40
5.0
 40
6.0
 40
6.0
 40
6.0
 40
7.0
 40
7.0
 40
7.0
 40
8.0
 40
8.0
 40
8.0
 40
9.0
 40
9.0
 40
9.0
 40
10.0
 40
10.0
 40
10.0
 40
11.0
 40
11.0
 40
11.0
 40
12.0
 40
12.0
 40
12.0
 40
12.0
 10
0.2657826303135253
 20
-2.444488882286501
 30
0.0
 10
0.2657826303135253
 20
-2.444488882286501
 30
0.0
 10
0.3903818156804214
 20
-2.402912663178742
 30
0.0
 10
0.3903818156804214
 20
-2.402912663178742
 30
0.0
 10
0.3903818156804214
 20
-2.402912663178742
 30
0.0
 10
0.2593332635171287
 20
-2.39397868504496
 30
0.0
 10
0.2593332635171287
 20
-2.39397868504496
 30
0.0
 10
0.2583611434233338
 20
-2.393513140624236
 30
0.0
 10
0.2573829839952598
 20
-2.393222704266463
 30
0.0
 10
0.256408882350292
 20
-2.393347081900072
 30
0.0
 10
0.2560704693485276
 20
-2.393390291978347
 30
0.0
 10
0.2557720507702723
 20
-2.393598459360418
 30
0.0
 10
0.2554507405299975
 20
-2.393713835256777
 30
0.0
 10
0.2554507405299975
 20
-2.393713835256777
 30
0.0
 10
0.2542014360727636
 20
-2.393628938465755
 30
0.0
 10
0.2542014360727636
 20
-2.393628938465755
 30
0.0
 10
0.2542014360727636
 20
-2.393628938465755
 30
0.0
 10
0.2542711177510455
 20
-2.394174671934655
 30
0.0
 10
0.2542711177510455
 20
-2.394174671934655
 30
0.0
 10
0.249642905279744
 20
-2.397268725052072
 30
0.0
 10
0.2472753009115978
 20
-2.40831240838386
 30
0.0
 10
0.2488925815278106
 20
-2.420978638340733
 30
0.0
 10
0.2505099695117805
 20
-2.43364570918119
 30
0.0
 10
0.2555764773420226
 20
-2.443739317386694
 30
0.0
 10
0.2608336501697926
 20
-2.445571160510856
 30
0.0
 10
0.2608336501697926
 20
-2.445571160510856
 30
0.0
 10
0.2609033318480745
 20
-2.446116893979756
 30
0.0
 10
0.2609033318480745
 20
-2.446116893979756
 30
0.0
 10
0.2609033318480745
 20
-2.446116893979756
 30
0.0
 10
0.2620912219447923
 20
-2.445720805340594
 30
0.0
 10
0.2620912219447923
 20
-2.445720805340594
 30
0.0
 10
0.2624312141758512
 20
-2.445751743193997
 30
0.0
 10
0.2627723651238512
 20
-2.445878247492348
 30
0.0
 10
0.2631107781256029
 20
-2.445835037414073
 30
0.0
 10
0.2640848797705707
 20
-2.445710659780464
 30
0.0
 10
0.2649586777328699
 20
-2.445183757260363
 30
0.0
 10
0.2657826303135253
 20
-2.444488882286501
 30
0.0
  0
HATCH
  5
97
330
70
100
AcDbEntity
  8
Let It Snow
 62
    30
420
 16744192
440
 33554687
100
AcDbHatch
 10
0.0
 20
0.0
 30
0.0
210
0.0
220
0.0
230
1.0
  2
SOLID
 70
     1
 71
     1
 91
        1
 92
        1
 93
        1
 72
     4
 94
        3
 73
     0
 74
     0
 95
       41
 96
       37
 40
0.0
 40
0.0
 40
0.0
 40
0.0
 40
1.0
 40
1.0
 40
1.0
 40
2.0
 40
2.0
 40
2.0
 40
3.0
 40
3.0
 40
3.0
 40
4.0
 40
4.0
 40
4.0
 40
5.0
 40
5.0
 40
5.0
 40
6.0
 40
6.0
 40
6.0
 40
7.0
 40
7.0
 40
7.0
 40
8.0
 40
8.0
 40
8.0
 40
9.0
 40
9.0
 40
9.0
 40
10.0
 40
10.0
 40
10.0
 40
11.0
 40
11.0
 40
11.0
 40
12.0
 40
12.0
 40
12.0
 40
12.0
 10
0.2657826303135253
 20
-2.444488882286501
 10
0.2657826303135253
 20
-2.444488882286501
 10
0.3903818156804214
 20
-2.402912663178742
 10
0.3903818156804214
 20
-2.402912663178742
 10
0.3903818156804214
 20
-2.402912663178742
 10
0.2593332635171287
 20
-2.39397868504496
 10
0.2593332635171287
 20
-2.39397868504496
 10
0.2583611434233338
 20
-2.393513140624236
 10
0.2573829839952598
 20
-2.393222704266463
 10
0.256408882350292
 20
-2.393347081900072
 10
0.2560704693485276
 20
-2.393390291978347
 10
0.2557720507702723
 20
-2.393598459360418
 10
0.2554507405299975
 20
-2.393713835256777
 10
0.2554507405299975
 20
-2.393713835256777
 10
0.2542014360727636
 20
-2.393628938465755
 10
0.2542014360727636
 20
-2.393628938465755
 10
0.2542014360727636
 20
-2.393628938465755
 10
0.2542711177510455
 20
-2.394174671934655
 10
0.2542711177510455
 20
-2.394174671934655
 10
0.249642905279744
 20
-2.397268725052072
 10
0.2472753009115978
 20
-2.40831240838386
 10
0.2488925815278106
 20
-2.420978638340733
 10
0.2505099695117805
 20
-2.43364570918119
 10
0.2555764773420226
 20
-2.443739317386694
 10
0.2608336501697926
 20
-2.445571160510856
 10
0.2608336501697926
 20
-2.445571160510856
 10
0.2609033318480745
 20
-2.446116893979756
 10
0.2609033318480745
 20
-2.446116893979756
 10
0.2609033318480745
 20
-2.446116893979756
 10
0.2620912219447923
 20
-2.445720805340594
 10
0.2620912219447923
 20
-2.445720805340594
 10
0.2624312141758512
 20
-2.445751743193997
 10
0.2627723651238512
 20
-2.445878247492348
 10
0.2631107781256029
 20
-2.445835037414073
 10
0.2640848797705707
 20
-2.445710659780464
 10
0.2649586777328699
 20
-2.445183757260363
 10
0.2657826303135253
 20
-2.444488882286501
 97
        0
 97
        1
330
96
 75
     2
 76
     1
 98
        1
 10
0.0
 20
0.0
450
        0
451
        0
460
0.0
461
0.0
452
        0
462
0.0
453
        0
470

  0
SPLINE
  5
98
330
70
100
AcDbEntity
  8
Let It Snow
100
AcDbSpline
210
0.0
220
0.0
230
1.0
 70
     9
 71
     3
 72
    23
 73
    19
 74
     0
 42
0.0000000001
 43
0.0000000001
 40
0.0
 40
0.0
 40
0.0
 40
0.0
 40
1.0
 40
1.0
 40
1.0
 40
2.0
 40
2.0
 40
2.0
 40
3.0
 40
3.0
 40
3.0
 40
4.0
 40
4.0
 40
4.0
 40
5.0
 40
5.0
 40
5.0
 40
6.0
 40
6.0
 40
6.0
 40
6.0
 10
0.1267598171059868
 20
-2.228274344090954
 30
0.0
 10
-0.0089637207629367
 20
-2.27196958199243
 30
0.0
 10
-0.1148800619087701
 20
-2.320156837851805
 30
0.0
 10
-0.1098107530980062
 20
-2.335903060453802
 30
0.0
 10
-0.1070489122776937
 20
-2.344481043038437
 30
0.0
 10
-0.0717705919651937
 20
-2.341592045642603
 30
0.0
 10
-0.0184165405871555
 20
-2.330183557686874
 30
0.0
 10
-0.0147662991592041
 20
-2.315976777359183
 30
0.0
 10
0.0534184474770806
 20
-2.283801925199895
 30
0.0
 10
0.1402333278481743
 20
-2.255852062189913
 30
0.0
 10
0.2250493068520806
 20
-2.228545611452065
 30
0.0
 10
0.2977353962618028
 20
-2.214906797161701
 30
0.0
 10
0.3115369709688341
 20
-2.223064315336614
 30
0.0
 10
0.3570751315048584
 20
-2.202669248333576
 30
0.0
 10
0.3843112222709174
 20
-2.185813372682534
 30
0.0
 10
0.3816892536836778
 20
-2.177667722454669
 30
0.0
 10
0.3766199448729139
 20
-2.161921499852673
 30
0.0
 10
0.2624842026854139
 20
-2.184578258478975
 30
0.0
 10
0.1267598171059868
 20
-2.228274344090954
 30
0.0
  0
HATCH
  5
99
330
70
100
AcDbEntity
  8
Let It Snow
 62
    18
420
        0
440
 33554687
100
AcDbHatch
 10
0.0
 20
0.0
 30
0.0
210
0.0
220
0.0
230
1.0
  2
SOLID
 70
     1
 71
     1
 91
        1
 92
        1
 93
        1
 72
     4
 94
        3
 73
     0
 74
     0
 95
       23
 96
       19
 40
0.0
 40
0.0
 40
0.0
 40
0.0
 40
1.0
 40
1.0
 40
1.0
 40
2.0
 40
2.0
 40
2.0
 40
3.0
 40
3.0
 40
3.0
 40
4.0
 40
4.0
 40
4.0
 40
5.0
 40
5.0
 40
5.0
 40
6.0
 40
6.0
 40
6.0
 40
6.0
 10
0.1267598171059868
 20
-2.228274344090954
 10
-0.0089637207629367
 20
-2.27196958199243
 10
-0.1148800619087701
 20
-2.320156837851805
 10
-0.1098107530980062
 20
-2.335903060453802
 10
-0.1070489122776937
 20
-2.344481043038437
 10
-0.0717705919651937
 20
-2.341592045642603
 10
-0.0184165405871555
 20
-2.330183557686874
 10
-0.0147662991592041
 20
-2.315976777359183
 10
0.0534184474770806
 20
-2.283801925199895
 10
0.1402333278481743
 20
-2.255852062189913
 10
0.2250493068520806
 20
-2.228545611452065
 10
0.2977353962618028
 20
-2.214906797161701
 10
0.3115369709688341
 20
-2.223064315336614
 10
0.3570751315048584
 20
-2.202669248333576
 10
0.3843112222709174
 20
-2.185813372682534
 10
0.3816892536836778
 20
-2.177667722454669
 10
0.3766199448729139
 20
-2.161921499852673
 10
0.2624842026854139
 20
-2.184578258478975
 10
0.1267598171059868
 20
-2.228274344090954
 97
        0
 97
        1
330
98
 75
     2
 76
     1
 98
        1
 10
0.0
 20
0.0
450
        0
451
        0
460
0.0
461
0.0
452
        0
462
0.0
453
        0
470

  0
SPLINE
  5
9A
330
70
100
AcDbEntity
  8
Let It Snow
100
AcDbSpline
210
0.0
220
0.0
230
1.0
 70
     9
 71
     3
 72
    23
 73
    19
 74
     0
 42
0.0000000001
 43
0.0000000001
 40
0.0
 40
0.0
 40
0.0
 40
0.0
 40
1.0
 40
1.0
 40
1.0
 40
2.0
 40
2.0
 40
2.0
 40
3.0
 40
3.0
 40
3.0
 40
4.0
 40
4.0
 40
4.0
 40
5.0
 40
5.0
 40
5.0
 40
6.0
 40
6.0
 40
6.0
 40
6.0
 10
0.1246300228812061
 20
-2.221664837423834
 30
0.0
 10
0.1382739234345915
 20
-2.217266067621317
 30
0.0
 10
0.2079879398191401
 20
-2.195139128059685
 30
0.0
 10
0.2723613800318137
 20
-2.180256722460727
 30
0.0
 10
0.2723613800318137
 20
-2.180256722460727
 30
0.0
 10
0.2619362362601123
 20
-2.147874181228088
 30
0.0
 10
0.2619362362601123
 20
-2.147874181228088
 30
0.0
 10
0.2596677629528206
 20
-2.140829706944234
 30
0.0
 10
0.1946517581785151
 20
-2.155458647102654
 30
0.0
 10
0.1167183407522998
 20
-2.180548334873921
 30
0.0
 10
0.0387849233260845
 20
-2.205638870355692
 30
0.0
 10
-0.0225537132841585
 20
-2.231689014127394
 30
0.0
 10
-0.0202860876873703
 20
-2.238733488411248
 30
0.0
 10
-0.0202860876873703
 20
-2.238733488411248
 30
0.0
 10
-0.0101118662246967
 20
-2.270336983691195
 30
0.0
 10
-0.0101118662246967
 20
-2.270336983691195
 30
0.0
 10
0.0484098283825081
 20
-2.246479019281473
 30
0.0
 10
0.1116837880721783
 20
-2.225832182258904
 30
0.0
 10
0.1246300228812061
 20
-2.221664837423834
 30
0.0
  0
HATCH
  5
9B
330
70
100
AcDbEntity
  8
Let It Snow
 62
     1
420
 16711680
440
 33554687
100
AcDbHatch
 10
0.0
 20
0.0
 30
0.0
210
0.0
220
0.0
230
1.0
  2
SOLID
 70
     1
 71
     1
 91
        1
 92
        1
 93
        1
 72
     4
 94
        3
 73
     0
 74
     0
 95
       23
 96
       19
 40
0.0
 40
0.0
 40
0.0
 40
0.0
 40
1.0
 40
1.0
 40
1.0
 40
2.0
 40
2.0
 40
2.0
 40
3.0
 40
3.0
 40
3.0
 40
4.0
 40
4.0
 40
4.0
 40
5.0
 40
5.0
 40
5.0
 40
6.0
 40
6.0
 40
6.0
 40
6.0
 10
0.1246300228812061
 20
-2.221664837423834
 10
0.1382739234345915
 20
-2.217266067621317
 10
0.2079879398191401
 20
-2.195139128059685
 10
0.2723613800318137
 20
-2.180256722460727
 10
0.2723613800318137
 20
-2.180256722460727
 10
0.2619362362601123
 20
-2.147874181228088
 10
0.2619362362601123
 20
-2.147874181228088
 10
0.2596677629528206
 20
-2.140829706944234
 10
0.1946517581785151
 20
-2.155458647102654
 10
0.1167183407522998
 20
-2.180548334873921
 10
0.0387849233260845
 20
-2.205638870355692
 10
-0.0225537132841585
 20
-2.231689014127394
 10
-0.0202860876873703
 20
-2.238733488411248
 10
-0.0202860876873703
 20
-2.238733488411248
 10
-0.0101118662246967
 20
-2.270336983691195
 10
-0.0101118662246967
 20
-2.270336983691195
 10
0.0484098283825081
 20
-2.246479019281473
 10
0.1116837880721783
 20
-2.225832182258904
 10
0.1246300228812061
 20
-2.221664837423834
 97
        0
 97
        1
330
9A
 75
     2
 76
     1
 98
        1
 10
0.0
 20
0.0
450
        0
451
        0
460
0.0
461
0.0
452
        0
462
0.0
453
        0
470

  0
SPLINE
  5
9C
330
70
100
AcDbEntity
  8
Let It Snow
100
AcDbSpline
210
0.0
220
0.0
230
1.0
 70
     9
 71
     3
 72
    23
 73
    19
 74
     0
 42
0.0000000001
 43
0.0000000001
 40
0.0
 40
0.0
 40
0.0
 40
0.0
 40
1.0
 40
1.0
 40
1.0
 40
2.0
 40
2.0
 40
2.0
 40
3.0
 40
3.0
 40
3.0
 40
4.0
 40
4.0
 40
4.0
 40
5.0
 40
5.0
 40
5.0
 40
6.0
 40
6.0
 40
6.0
 40
6.0
 10
0.2052549211559456
 20
-1.971025663704216
 30
0.0
 10
0.2029872955591574
 20
-1.963981189420362
 30
0.0
 10
0.1379712907848519
 20
-1.978610129578783
 30
0.0
 10
0.0600378733586366
 20
-2.003700665060553
 30
0.0
 10
-0.0178955440675787
 20
-2.02879035283182
 30
0.0
 10
-0.0792350283883252
 20
-2.054840496603522
 30
0.0
 10
-0.0769665550810335
 20
-2.061884970887376
 30
0.0
 10
-0.0769665550810335
 20
-2.061884970887376
 30
0.0
 10
-0.0236896453588113
 20
-2.227370776822706
 30
0.0
 10
-0.0236896453588113
 20
-2.227370776822706
 30
0.0
 10
-0.0106984818930995
 20
-2.216720142057081
 30
0.0
 10
0.0241025774059457
 20
-2.199810012933817
 30
0.0
 10
0.1135216244437061
 20
-2.17101922110439
 30
0.0
 10
0.2044131446259977
 20
-2.141745234287984
 30
0.0
 10
0.2422863067896262
 20
-2.135447592957689
 30
0.0
 10
0.2586225359020394
 20
-2.136791214105692
 30
0.0
 10
0.2586225359020394
 20
-2.136791214105692
 30
0.0
 10
0.2052549211559456
 20
-1.971025663704216
 30
0.0
 10
0.2052549211559456
 20
-1.971025663704216
 30
0.0
  0
HATCH
  5
9D
330
70
100
AcDbEntity
  8
Let It Snow
 62
    18
420
        0
440
 33554687
100
AcDbHatch
 10
0.0
 20
0.0
 30
0.0
210
0.0
220
0.0
230
1.0
  2
SOLID
 70
     1
 71
     1
 91
        1
 92
        1
 93
        1
 72
     4
 94
        3
 73
     0
 74
     0
 95
       23
 96
       19
 40
0.0
 40
0.0
 40
0.0
 40
0.0
 40
1.0
 40
1.0
 40
1.0
 40
2.0
 40
2.0
 40
2.0
 40
3.0
 40
3.0
 40
3.0
 40
4.0
 40
4.0
 40
4.0
 40
5.0
 40
5.0
 40
5.0
 40
6.0
 40
6.0
 40
6.0
 40
6.0
 10
0.2052549211559456
 20
-1.971025663704216
 10
0.2029872955591574
 20
-1.963981189420362
 10
0.1379712907848519
 20
-1.978610129578783
 10
0.0600378733586366
 20
-2.003700665060553
 10
-0.0178955440675787
 20
-2.02879035283182
 10
-0.0792350283883252
 20
-2.054840496603522
 10
-0.0769665550810335
 20
-2.061884970887376
 10
-0.0769665550810335
 20
-2.061884970887376
 10
-0.0236896453588113
 20
-2.227370776822706
 10
-0.0236896453588113
 20
-2.227370776822706
 10
-0.0106984818930995
 20
-2.216720142057081
 10
0.0241025774059457
 20
-2.199810012933817
 10
0.1135216244437061
 20
-2.17101922110439
 10
0.2044131446259977
 20
-2.141745234287984
 10
0.2422863067896262
 20
-2.135447592957689
 10
0.2586225359020394
 20
-2.136791214105692
 10
0.2586225359020394
 20
-2.136791214105692
 10
0.2052549211559456
 20
-1.971025663704216
 10
0.2052549211559456
 20
-1.971025663704216
 97
        0
 97
        1
330
9C
 75
     2
 76
     1
 98
        1
 10
0.0
 20
0.0
450
        0
451
        0
460
0.0
461
0.0
452
        0
462
0.0
453
        0
470

  0
SPLINE
  5
9E
330
70
100
AcDbEntity
  8
Let It Snow
100
AcDbSpline
210
0.0
220
0.0
230
1.0
 70
     9
 71
     3
 72
    50
 73
    46
 74
     0
 42
0.0000000001
 43
0.0000000001
 40
0.0
 40
0.0
 40
0.0
 40
0.0
 40
1.0
 40
1.0
 40
1.0
 40
2.0
 40
2.0
 40
2.0
 40
3.0
 40
3.0
 40
3.0
 40
4.0
 40
4.0
 40
4.0
 40
5.0
 40
5.0
 40
5.0
 40
6.0
 40
6.0
 40
6.0
 40
7.0
 40
7.0
 40
7.0
 40
8.0
 40
8.0
 40
8.0
 40
9.0
 40
9.0
 40
9.0
 40
10.0
 40
10.0
 40
10.0
 40
11.0
 40
11.0
 40
11.0
 40
12.0
 40
12.0
 40
12.0
 40
13.0
 40
13.0
 40
13.0
 40
14.0
 40
14.0
 40
14.0
 40
15.0
 40
15.0
 40
15.0
 40
15.0
 10
0.4229563032631506
 20
-2.656030003981994
 30
0.0
 10
0.4229563032631506
 20
-2.656030003981994
 30
0.0
 10
0.4229563032631506
 20
-2.657048952007168
 30
0.0
 10
0.4229563032631506
 20
-2.657048952007168
 30
0.0
 10
0.4229563032631506
 20
-2.657048952007168
 30
0.0
 10
0.4154693240964839
 20
-2.659246217632168
 30
0.0
 10
0.4154693240964839
 20
-2.659246217632168
 30
0.0
 10
0.3558040680200949
 20
-2.676742962423834
 30
0.0
 10
0.2873700944957894
 20
-2.686386517111334
 30
0.0
 10
0.2167727637666227
 20
-2.687281699403001
 30
0.0
 10
0.2167727637666227
 20
-2.687281699403001
 30
0.0
 10
0.2716433692353727
 20
-2.926295371278001
 30
0.0
 10
0.2716433692353727
 20
-2.926295371278001
 30
0.0
 10
0.2716433692353727
 20
-2.926295371278001
 30
0.0
 10
0.1601931739228727
 20
-2.951875883430779
 30
0.0
 10
0.1601931739228727
 20
-2.951875883430779
 30
0.0
 10
0.1601931739228727
 20
-2.951875883430779
 30
0.0
 10
0.1080623688013449
 20
-2.724811538812723
 30
0.0
 10
0.1080623688013449
 20
-2.724811538812723
 30
0.0
 10
0.1080623688013449
 20
-2.724811538812723
 30
0.0
 10
0.0691422841659283
 20
-2.872937081347446
 30
0.0
 10
0.0691422841659283
 20
-2.872937081347446
 30
0.0
 10
0.0691422841659283
 20
-2.872937081347446
 30
0.0
 10
-0.0379879784208773
 20
-2.844806656000223
 30
0.0
 10
-0.0379879784208773
 20
-2.844806656000223
 30
0.0
 10
-0.0379879784208773
 20
-2.844806656000223
 30
0.0
 10
0.0099992177596783
 20
-2.662162341764112
 30
0.0
 10
0.0099992177596783
 20
-2.662162341764112
 30
0.0
 10
0.0042483497041227
 20
-2.660548300965501
 30
0.0
 10
-0.0014279198271273
 20
-2.658866443326612
 30
0.0
 10
-0.0070092457819884
 20
-2.657089642111334
 30
0.0
 10
-0.0070092457819884
 20
-2.657089642111334
 30
0.0
 10
-0.0128813364395405
 20
-2.655214506477654
 30
0.0
 10
-0.0128813364395405
 20
-2.655214506477654
 30
0.0
 10
-0.1072883120797314
 20
-2.712083165603088
 30
0.0
 10
-0.1688549828154085
 20
-2.804960023784511
 30
0.0
 10
-0.1688549828154085
 20
-2.909968466981126
 30
0.0
 10
-0.1688549828154085
 20
-3.083051454448574
 30
0.0
 10
-0.0017636131865023
 20
-3.223362801562289
 30
0.0
 10
0.2043546526012581
 20
-3.223362801562289
 30
0.0
 10
0.4104737660995221
 20
-3.223362801562289
 30
0.0
 10
0.5775659834389318
 20
-3.083051454448574
 30
0.0
 10
0.5775659834389318
 20
-2.909968466981126
 30
0.0
 10
0.5775659834389318
 20
-2.805464411534078
 30
0.0
 10
0.5165952531871956
 20
-2.71296987078972
 30
0.0
 10
0.4229563032631506
 20
-2.656030003981994
 30
0.0
  0
HATCH
  5
9F
330
70
100
AcDbEntity
  8
Let It Snow
 62
     7
420
 15921906
440
 33554687
100
AcDbHatch
 10
0.0
 20
0.0
 30
0.0
210
0.0
220
0.0
230
1.0
  2
SOLID
 70
     1
 71
     1
 91
        1
 92
        1
 93
        1
 72
     4
 94
        3
 73
     0
 74
     0
 95
       50
 96
       46
 40
0.0
 40
0.0
 40
0.0
 40
0.0
 40
1.0
 40
1.0
 40
1.0
 40
2.0
 40
2.0
 40
2.0
 40
3.0
 40
3.0
 40
3.0
 40
4.0
 40
4.0
 40
4.0
 40
5.0
 40
5.0
 40
5.0
 40
6.0
 40
6.0
 40
6.0
 40
7.0
 40
7.0
 40
7.0
 40
8.0
 40
8.0
 40
8.0
 40
9.0
 40
9.0
 40
9.0
 40
10.0
 40
10.0
 40
10.0
 40
11.0
 40
11.0
 40
11.0
 40
12.0
 40
12.0
 40
12.0
 40
13.0
 40
13.0
 40
13.0
 40
14.0
 40
14.0
 40
14.0
 40
15.0
 40
15.0
 40
15.0
 40
15.0
 10
0.4229563032631506
 20
-2.656030003981994
 10
0.4229563032631506
 20
-2.656030003981994
 10
0.4229563032631506
 20
-2.657048952007168
 10
0.4229563032631506
 20
-2.657048952007168
 10
0.4229563032631506
 20
-2.657048952007168
 10
0.4154693240964839
 20
-2.659246217632168
 10
0.4154693240964839
 20
-2.659246217632168
 10
0.3558040680200949
 20
-2.676742962423834
 10
0.2873700944957894
 20
-2.686386517111334
 10
0.2167727637666227
 20
-2.687281699403001
 10
0.2167727637666227
 20
-2.687281699403001
 10
0.2716433692353727
 20
-2.926295371278001
 10
0.2716433692353727
 20
-2.926295371278001
 10
0.2716433692353727
 20
-2.926295371278001
 10
0.1601931739228727
 20
-2.951875883430779
 10
0.1601931739228727
 20
-2.951875883430779
 10
0.1601931739228727
 20
-2.951875883430779
 10
0.1080623688013449
 20
-2.724811538812723
 10
0.1080623688013449
 20
-2.724811538812723
 10
0.1080623688013449
 20
-2.724811538812723
 10
0.0691422841659283
 20
-2.872937081347446
 10
0.0691422841659283
 20
-2.872937081347446
 10
0.0691422841659283
 20
-2.872937081347446
 10
-0.0379879784208773
 20
-2.844806656000223
 10
-0.0379879784208773
 20
-2.844806656000223
 10
-0.0379879784208773
 20
-2.844806656000223
 10
0.0099992177596783
 20
-2.662162341764112
 10
0.0099992177596783
 20
-2.662162341764112
 10
0.0042483497041227
 20
-2.660548300965501
 10
-0.0014279198271273
 20
-2.658866443326612
 10
-0.0070092457819884
 20
-2.657089642111334
 10
-0.0070092457819884
 20
-2.657089642111334
 10
-0.0128813364395405
 20
-2.655214506477654
 10
-0.0128813364395405
 20
-2.655214506477654
 10
-0.1072883120797314
 20
-2.712083165603088
 10
-0.1688549828154085
 20
-2.804960023784511
 10
-0.1688549828154085
 20
-2.909968466981126
 10
-0.1688549828154085
 20
-3.083051454448574
 10
-0.0017636131865023
 20
-3.223362801562289
 10
0.2043546526012581
 20
-3.223362801562289
 10
0.4104737660995221
 20
-3.223362801562289
 10
0.5775659834389318
 20
-3.083051454448574
 10
0.5775659834389318
 20
-2.909968466981126
 10
0.5775659834389318
 20
-2.805464411534078
 10
0.5165952531871956
 20
-2.71296987078972
 10
0.4229563032631506
 20
-2.656030003981994
 97
        0
 97
        1
330
9E
 75
     2
 76
     1
 98
        1
 10
0.0
 20
0.0
450
        0
451
        0
460
0.0
461
0.0
452
        0
462
0.0
453
        0
470

  0
INSERT
  5
A1
330
70
100
AcDbEntity
  8
Let It Snow
100
AcDbBlockReference
  2
Block_1
 10
0.0
 20
0.0
 30
0.0
  0
CIRCLE
  5
B0
330
70
100
AcDbEntity
  8
Let It Snow
100
AcDbCircle
 10
0.3358384265938494
 20
-2.754583088307665
 30
0.0
 40
0.0285626691498746
  0
HATCH
  5
B1
330
70
100
AcDbEntity
  8
Let It Snow
 62
    18
420
        0
440
 33554687
100
AcDbHatch
 10
0.0
 20
0.0
 30
0.0
210
0.0
220
0.0
230
1.0
  2
SOLID
 70
     1
 71
     1
 91
        1
 92
        1
 93
        1
 72
     2
 10
0.3358384265938494
 20
-2.754583088307665
 40
0.0285626691498746
 50
0.0
 51
360.0
 73
     1
 97
        1
330
B0
 75
     2
 76
     1
 98
        1
 10
0.0
 20
0.0
450
        0
451
        0
460
0.0
461
0.0
452
        0
462
0.0
453
        0
470

  0
CIRCLE
  5
B2
330
70
100
AcDbEntity
  8
Let It Snow
100
AcDbCircle
 10
0.3720698074001455
 20
-2.838809832304415
 30
0.0
 40
0.0285626691498746
  0
HATCH
  5
B3
330
70
100
AcDbEntity
  8
Let It Snow
 62
    18
420
        0
440
 33554687
100
AcDbHatch
 10
0.0
 20
0.0
 30
0.0
210
0.0
220
0.0
230
1.0
  2
SOLID
 70
     1
 71
     1
 91
        1
 92
        1
 93
        1
 72
     2
 10
0.3720698074001455
 20
-2.838809832304415
 40
0.0285626691498746
 50
0.0
 51
360.0
 73
     1
 97
        1
330
B2
 75
     2
 76
     1
 98
        1
 10
0.0
 20
0.0
450
        0
451
        0
460
0.0
461
0.0
452
        0
462
0.0
453
        0
470

  0
CIRCLE
  5
B4
330
70
100
AcDbEntity
  8
Let It Snow
100
AcDbCircle
 10
0.3903818156804119
 20
-2.920116874878847
 30
0.0
 40
0.0285626691498703
  0
HATCH
  5
B5
330
70
100
AcDbEntity
  8
Let It Snow
 62
    18
420
        0
440
 33554687
100
AcDbHatch
 10
0.0
 20
0.0
 30
0.0
210
0.0
220
0.0
230
1.0
  2
SOLID
 70
     1
 71
     1
 91
        1
 92
        1
 93
        1
 72
     2
 10
0.3903818156804119
 20
-2.920116874878847
 40
0.0285626691498703
 50
0.0
 51
360.0
 73
     1
 97
        1
330
B4
 75
     2
 76
     1
 98
        1
 10
0.0
 20
0.0
450
        0
451
        0
460
0.0
461
0.0
452
        0
462
0.0
453
        0
470

  0
CIRCLE
  5
B6
330
70
100
AcDbEntity
  8
Let It Snow
100
AcDbCircle
 10
1.489763171888512
 20
-3.166882664285322
 30
0.0
 40
0.0371932515363653
  0
HATCH
  5
B7
330
70
100
AcDbEntity
  8
Let It Snow
 62
   141
420
  9955839
440
 33554687
100
AcDbHatch
 10
0.0
 20
0.0
 30
0.0
210
0.0
220
0.0
230
1.0
  2
SOLID
 70
     1
 71
     1
 91
        1
 92
        1
 93
        1
 72
     2
 10
1.489763171888512
 20
-3.166882664285322
 40
0.0371932515363653
 50
0.0
 51
360.0
 73
     1
 97
        1
330
B6
 75
     2
 76
     1
 98
        1
 10
0.0
 20
0.0
450
        0
451
        0
460
0.0
461
0.0
452
        0
462
0.0
453
        0
470

  0
CIRCLE
  5
B8
330
70
100
AcDbEntity
  8
Let It Snow
100
AcDbCircle
 10
1.752033110538819
 20
-2.692407758014022
 30
0.0
 40
0.0371932515363653
  0
HATCH
  5
B9
330
70
100
AcDbEntity
  8
Let It Snow
 62
   141
420
  9955839
440
 33554687
100
AcDbHatch
 10
0.0
 20
0.0
 30
0.0
210
0.0
220
0.0
230
1.0
  2
SOLID
 70
     1
 71
     1
 91
        1
 92
        1
 93
        1
 72
     2
 10
1.752033110538819
 20
-2.692407758014022
 40
0.0371932515363653
 50
0.0
 51
360.0
 73
     1
 97
        1
330
B8
 75
     2
 76
     1
 98
        1
 10
0.0
 20
0.0
450
        0
451
        0
460
0.0
461
0.0
452
        0
462
0.0
453
        0
470

  0
CIRCLE
  5
BA
330
70
100
AcDbEntity
  8
Let It Snow
100
AcDbCircle
 10
1.994364398882364
 20
-3.092496161212573
 30
0.0
 40
0.0371932515363653
  0
HATCH
  5
BB
330
70
100
AcDbEntity
  8
Let It Snow
 62
   141
420
  9955839
440
 33554687
100
AcDbHatch
 10
0.0
 20
0.0
 30
0.0
210
0.0
220
0.0
230
1.0
  2
SOLID
 70
     1
 71
     1
 91
        1
 92
        1
 93
        1
 72
     2
 10
1.994364398882364
 20
-3.092496161212573
 40
0.0371932515363653
 50
0.0
 51
360.0
 73
     1
 97
        1
330
BA
 75
     2
 76
     1
 98
        1
 10
0.0
 20
0.0
450
        0
451
        0
460
0.0
461
0.0
452
        0
462
0.0
453
        0
470

  0
CIRCLE
  5
BC
330
70
100
AcDbEntity
  8
Let It Snow
100
AcDbCircle
 10
0.782707957164588
 20
-2.692407758014022
 30
0.0
 40
0.0371932515363717
  0
HATCH
  5
BD
330
70
100
AcDbEntity
  8
Let It Snow
 62
   141
420
  9955839
440
 33554687
100
AcDbHatch
 10
0.0
 20
0.0
 30
0.0
210
0.0
220
0.0
230
1.0
  2
SOLID
 70
     1
 71
     1
 91
        1
 92
        1
 93
        1
 72
     2
 10
0.782707957164588
 20
-2.692407758014022
 40
0.0371932515363717
 50
0.0
 51
360.0
 73
     1
 97
        1
330
BC
 75
     2
 76
     1
 98
        1
 10
0.0
 20
0.0
450
        0
451
        0
460
0.0
461
0.0
452
        0
462
0.0
453
        0
470

  0
CIRCLE
  5
BE
330
70
100
AcDbEntity
  8
Let It Snow
100
AcDbCircle
 10
0.5403727319025695
 20
-3.185871109125204
 30
0.0
 40
0.0371932515363717
  0
HATCH
  5
BF
330
70
100
AcDbEntity
  8
Let It Snow
 62
   141
420
  9955839
440
 33554687
100
AcDbHatch
 10
0.0
 20
0.0
 30
0.0
210
0.0
220
0.0
230
1.0
  2
SOLID
 70
     1
 71
     1
 91
        1
 92
        1
 93
        1
 72
     2
 10
0.5403727319025695
 20
-3.185871109125204
 40
0.0371932515363717
 50
0.0
 51
360.0
 73
     1
 97
        1
330
BE
 75
     2
 76
     1
 98
        1
 10
0.0
 20
0.0
450
        0
451
        0
460
0.0
461
0.0
452
        0
462
0.0
453
        0
470

  0
CIRCLE
  5
C0
330
70
100
AcDbEntity
  8
Let It Snow
100
AcDbCircle
 10
-0.1549660939265196
 20
-3.190187026932821
 30
0.0
 40
0.0371932515363717
  0
HATCH
  5
C1
330
70
100
AcDbEntity
  8
Let It Snow
 62
   141
420
  9955839
440
 33554687
100
AcDbHatch
 10
0.0
 20
0.0
 30
0.0
210
0.0
220
0.0
230
1.0
  2
SOLID
 70
     1
 71
     1
 91
        1
 92
        1
 93
        1
 72
     2
 10
-0.1549660939265196
 20
-3.190187026932821
 40
0.0371932515363717
 50
0.0
 51
360.0
 73
     1
 97
        1
330
C0
 75
     2
 76
     1
 98
        1
 10
0.0
 20
0.0
450
        0
451
        0
460
0.0
461
0.0
452
        0
462
0.0
453
        0
470

  0
CIRCLE
  5
C2
330
70
100
AcDbEntity
  8
Let It Snow
100
AcDbCircle
 10
0.4378257280863712
 20
-2.245414491649935
 30
0.0
 40
0.0371932515363717
  0
HATCH
  5
C3
330
70
100
AcDbEntity
  8
Let It Snow
 62
   141
420
  9955839
440
 33554687
100
AcDbHatch
 10
0.0
 20
0.0
 30
0.0
210
0.0
220
0.0
230
1.0
  2
SOLID
 70
     1
 71
     1
 91
        1
 92
        1
 93
        1
 72
     2
 10
0.4378257280863712
 20
-2.245414491649935
 40
0.0371932515363717
 50
0.0
 51
360.0
 73
     1
 97
        1
330
C2
 75
     2
 76
     1
 98
        1
 10
0.0
 20
0.0
450
        0
451
        0
460
0.0
461
0.0
452
        0
462
0.0
453
        0
470

  0
CIRCLE
  5
C4
330
70
100
AcDbEntity
  8
Let It Snow
100
AcDbCircle
 10
-0.0958622151760361
 20
-2.498048377648078
 30
0.0
 40
0.0371932515363717
  0
HATCH
  5
C5
330
70
100
AcDbEntity
  8
Let It Snow
 62
   141
420
  9955839
440
 33554687
100
AcDbHatch
 10
0.0
 20
0.0
 30
0.0
210
0.0
220
0.0
230
1.0
  2
SOLID
 70
     1
 71
     1
 91
        1
 92
        1
 93
        1
 72
     2
 10
-0.0958622151760361
 20
-2.498048377648078
 40
0.0371932515363717
 50
0.0
 51
360.0
 73
     1
 97
        1
330
C4
 75
     2
 76
     1
 98
        1
 10
0.0
 20
0.0
450
        0
451
        0
460
0.0
461
0.0
452
        0
462
0.0
453
        0
470

  0
CIRCLE
  5
C6
330
70
100
AcDbEntity
  8
Let It Snow
100
AcDbCircle
 10
1.97187175869975
 20
-2.729601009550385
 30
0.0
 40
0.0371932515363653
  0
HATCH
  5
C7
330
70
100
AcDbEntity
  8
Let It Snow
 62
   141
420
  9955839
440
 33554687
100
AcDbHatch
 10
0.0
 20
0.0
 30
0.0
210
0.0
220
0.0
230
1.0
  2
SOLID
 70
     1
 71
     1
 91
        1
 92
        1
 93
        1
 72
     2
 10
1.97187175869975
 20
-2.729601009550385
 40
0.0371932515363653
 50
0.0
 51
360.0
 73
     1
 97
        1
330
C6
 75
     2
 76
     1
 98
        1
 10
0.0
 20
0.0
450
        0
451
        0
460
0.0
461
0.0
452
        0
462
0.0
453
        0
470

  0
CIRCLE
  5
C8
330
70
100
AcDbEntity
  8
Let It Snow
100
AcDbCircle
 10
1.741810409006486
 20
-3.185871109125204
 30
0.0
 40
0.037193251536378
  0
HATCH
  5
C9
330
70
100
AcDbEntity
  8
Let It Snow
 62
   141
420
  9955839
440
 33554687
100
AcDbHatch
 10
0.0
 20
0.0
 30
0.0
210
0.0
220
0.0
230
1.0
  2
SOLID
 70
     1
 71
     1
 91
        1
 92
        1
 93
        1
 72
     2
 10
1.741810409006486
 20
-3.185871109125204
 40
0.037193251536378
 50
0.0
 51
360.0
 73
     1
 97
        1
330
C8
 75
     2
 76
     1
 98
        1
 10
0.0
 20
0.0
450
        0
451
        0
460
0.0
461
0.0
452
        0
462
0.0
453
        0
470

  0
ENDSEC
  0
SECTION
  2
OBJECTS
  0
DICTIONARY
  5
C
330
0
100
AcDbDictionary
281
     1
  3
ACAD_COLOR
350
63
  3
ACAD_DETAILVIEWSTYLE
350
6A
  3
ACAD_GROUP
350
D
  3
ACAD_LAYOUT
350
62
  3
ACAD_MATERIAL
350
10
  3
ACAD_MLEADERSTYLE
350
66
  3
ACAD_MLINESTYLE
350
5F
  3
ACAD_PLOTSETTINGS
350
61
  3
ACAD_PLOTSTYLENAME
350
E
  3
ACAD_SCALELIST
350
42
  3
ACAD_SECTIONVIEWSTYLE
350
68
  3
ACAD_TABLESTYLE
350
64
  3
ACAD_VISUALSTYLE
350
29
  3
ACDB_RECOMPOSE_DATA
350
D4
  3
AcDbVariableDictionary
350
CC
  0
DICTIONARY
  5
63
102
{ACAD_REACTORS
330
C
102
}
330
C
100
AcDbDictionary
281
     1
  0
DICTIONARY
  5
6A
102
{ACAD_REACTORS
330
C
102
}
330
C
100
AcDbDictionary
281
     1
  3
Imperial24
350
6B
  0
DICTIONARY
  5
D
102
{ACAD_REACTORS
330
C
102
}
330
C
100
AcDbDictionary
281
     1
  0
DICTIONARY
  5
62
102
{ACAD_REACTORS
330
C
102
}
330
C
100
AcDbDictionary
281
     1
  3
Layout1
350
6F
  3
Layout2
350
77
  3
Model
350
73
  0
DICTIONARY
  5
10
102
{ACAD_REACTORS
330
C
102
}
330
C
100
AcDbDictionary
281
     1
  3
ByBlock
350
19
  3
ByLayer
350
11
  3
Global
350
21
  0
DICTIONARY
  5
66
102
{ACAD_REACTORS
330
C
102
}
330
C
100
AcDbDictionary
281
     1
  3
Standard
350
67
  0
DICTIONARY
  5
5F
102
{ACAD_REACTORS
330
C
102
}
330
C
100
AcDbDictionary
281
     1
  3
Standard
350
60
  0
DICTIONARY
  5
61
102
{ACAD_REACTORS
330
C
102
}
330
C
100
AcDbDictionary
281
     1
  0
ACDBDICTIONARYWDFLT
  5
E
102
{ACAD_REACTORS
330
C
102
}
330
C
100
AcDbDictionary
281
     1
  3
Normal
350
F
100
AcDbDictionaryWithDefault
340
F
  0
DICTIONARY
  5
42
102
{ACAD_REACTORS
330
C
102
}
330
C
100
AcDbDictionary
281
     1
  3
A0
350
43
  3
A1
350
44
  3
A2
350
45
  3
A3
350
46
  3
A4
350
47
  3
A5
350
48
  3
A6
350
49
  3
A7
350
4A
  3
A8
350
4B
  3
A9
350
4C
  3
B0
350
4D
  3
B1
350
4E
  3
B2
350
4F
  3
B3
350
50
  3
B4
350
51
  3
B5
350
52
  3
B6
350
53
  0
DICTIONARY
  5
68
102
{ACAD_REACTORS
330
C
102
}
330
C
100
AcDbDictionary
281
     1
  3
Imperial24
350
69
  0
DICTIONARY
  5
64
102
{ACAD_REACTORS
330
C
102
}
330
C
100
AcDbDictionary
281
     1
  3
Standard
350
65
  0
DICTIONARY
  5
29
102
{ACAD_REACTORS
330
C
102
}
330
C
100
AcDbDictionary
281
     1
  3
2dWireframe
350
2F
  3
Basic
350
2E
  3
Brighten
350
35
  3
ColorChange
350
39
  3
Conceptual
350
32
  3
Dim
350
34
  3
EdgeColorOff
350
41
  3
Facepattern
350
38
  3
Flat
350
2A
  3
FlatWithEdges
350
2B
  3
Gouraud
350
2C
  3
GouraudWithEdges
350
2D
  3
Hidden
350
31
  3
JitterOff
350
3F
  3
Linepattern
350
37
  3
OverhangOff
350
40
  3
Realistic
350
33
  3
Shaded
350
3E
  3
Shaded with edges
350
3D
  3
Shades of Gray
350
3A
  3
Sketchy
350
3B
  3
Thicken
350
36
  3
Wireframe
350
30
  3
X-Ray
350
3C
  0
XRECORD
  5
D4
102
{ACAD_REACTORS
330
C
102
}
330
C
100
AcDbXrecord
280
     1
 90
        1
330
65
  0
DICTIONARY
  5
CC
102
{ACAD_REACTORS
330
C
102
}
330
C
100
AcDbDictionary
281
     1
  3
CANNOSCALE
350
D1
  3
CMLEADERSTYLE
350
CE
  3
CTABLESTYLE
350
CD
  3
CVIEWDETAILSTYLE
350
CF
  3
CVIEWSECTIONSTYLE
350
D0
  0
ACDBDETAILVIEWSTYLE
  5
6B
102
{ACAD_REACTORS
330
6A
102
}
330
6A
100
AcDbModelDocViewStyle
 70
     0
  3
Imperial24
290
     1
300
Imperial24
 90
        0
100
AcDbDetailViewStyle
 70
     0
 71
     0
 90
        3
 71
     1
340
55
 62
   256
 40
0.24
340
0
 62
   256
 40
0.24
300

 40
0.36
280
     3
 71
     2
340
5D
 90
       25
 62
   256
 71
     3
340
55
 62
   256
 40
0.24
 90
        1
 40
0.75
 90
        1
300
%<\AcVar ViewType \f "%tc1">% %<\AcVar ViewDetailId>%\PSCALE %<\AcVar ViewScale \f "%sn">%
 71
     4
340
5D
 90
       25
 62
   256
340
5D
 90
       25
 62
   256
280
     0
  0
LAYOUT
  5
6F
102
{ACAD_REACTORS
330
62
102
}
330
62
100
AcDbPlotSettings
  1

  2

  4

  6

 40
0.0
 41
0.0
 42
0.0
 43
0.0
 44
0.0
 45
0.0
 46
0.0
 47
0.0
 48
0.0
 49
0.0
140
0.0
141
0.0
142
1.0
143
1.0
 70
   688
 72
     0
 73
     0
 74
     5
  7

 75
    16
147
1.0
 76
     0
 77
     2
 78
   300
148
0.0
149
0.0
100
AcDbLayout
  1
Layout1
 70
     1
 71
     1
 10
0.0
 20
0.0
 11
12.0
 21
9.0
 12
0.0
 22
0.0
 32
0.0
 14
0.0
 24
0.0
 34
0.0
 15
0.0
 25
0.0
 35
0.0
146
0.0
 13
0.0
 23
0.0
 33
0.0
 16
1.0
 26
0.0
 36
0.0
 17
0.0
 27
1.0
 37
0.0
 76
     0
330
6C
  0
LAYOUT
  5
77
102
{ACAD_REACTORS
330
62
102
}
330
62
100
AcDbPlotSettings
  1

  2

  4

  6

 40
0.0
 41
0.0
 42
0.0
 43
0.0
 44
0.0
 45
0.0
 46
0.0
 47
0.0
 48
0.0
 49
0.0
140
0.0
141
0.0
142
1.0
143
1.0
 70
   688
 72
     0
 73
     0
 74
     5
  7

 75
    16
147
1.0
 76
     0
 77
     2
 78
   300
148
0.0
149
0.0
100
AcDbLayout
  1
Layout2
 70
     1
 71
     2
 10
0.0
 20
0.0
 11
12.0
 21
9.0
 12
0.0
 22
0.0
 32
0.0
 14
0.0
 24
0.0
 34
0.0
 15
0.0
 25
0.0
 35
0.0
146
0.0
 13
0.0
 23
0.0
 33
0.0
 16
1.0
 26
0.0
 36
0.0
 17
0.0
 27
1.0
 37
0.0
 76
     0
330
74
  0
LAYOUT
  5
73
102
{ACAD_REACTORS
330
62
102
}
330
62
100
AcDbPlotSettings
  1

  2

  4

  6

 40
0.0
 41
0.0
 42
0.0
 43
0.0
 44
0.0
 45
0.0
 46
0.0
 47
0.0
 48
0.0
 49
0.0
140
0.0
141
0.0
142
1.0
143
1.0
 70
  1712
 72
     0
 73
     0
 74
     0
  7

 75
     0
147
1.0
 76
     0
 77
     2
 78
   300
148
0.0
149
0.0
100
AcDbLayout
  1
Model
 70
     1
 71
     0
 10
0.0
 20
0.0
 11
12.0
 21
9.0
 12
0.0
 22
0.0
 32
0.0
 14
0.0
 24
0.0
 34
0.0
 15
0.0
 25
0.0
 35
0.0
146
0.0
 13
0.0
 23
0.0
 33
0.0
 16
1.0
 26
0.0
 36
0.0
 17
0.0
 27
1.0
 37
0.0
 76
     0
330
70
  0
MATERIAL
  5
19
102
{ACAD_XDICTIONARY
360
1A
102
}
102
{ACAD_REACTORS
330
10
102
}
330
10
100
AcDbMaterial
  1
ByBlock
 72
     0
 43
0.0208333333333333
 43
0.0
 43
0.0
 43
0.0
 43
0.0
 43
0.0208333333333333
 43
0.0
 43
0.0
 43
0.0
 43
0.0
 43
1.0
 43
0.0
 43
0.0
 43
0.0
 43
0.0
 43
1.0
 77
     0
 47
0.0208333333333333
 47
0.0
 47
0.0
 47
0.0
 47
0.0
 47
0.0208333333333333
 47
0.0
 47
0.0
 47
0.0
 47
0.0
 47
1.0
 47
0.0
 47
0.0
 47
0.0
 47
0.0
 47
1.0
171
     0
 49
0.0208333333333333
 49
0.0
 49
0.0
 49
0.0
 49
0.0
 49
0.0208333333333333
 49
0.0
 49
0.0
 49
0.0
 49
0.0
 49
1.0
 49
0.0
 49
0.0
 49
0.0
 49
0.0
 49
1.0
175
     0
142
0.0208333333333333
142
0.0
142
0.0
142
0.0
142
0.0
142
0.0208333333333333
142
0.0
142
0.0
142
0.0
142
0.0
142
1.0
142
0.0
142
0.0
142
0.0
142
0.0
142
1.0
179
     0
144
0.0208333333333333
144
0.0
144
0.0
144
0.0
144
0.0
144
0.0208333333333333
144
0.0
144
0.0
144
0.0
144
0.0
144
1.0
144
0.0
144
0.0
144
0.0
144
0.0
144
1.0
147
0.0208333333333333
147
0.0
147
0.0
147
0.0
147
0.0
147
0.0208333333333333
147
0.0
147
0.0
147
0.0
147
0.0
147
1.0
147
0.0
147
0.0
147
0.0
147
0.0
147
1.0
  0
MATERIAL
  5
11
102
{ACAD_XDICTIONARY
360
12
102
}
102
{ACAD_REACTORS
330
10
102
}
330
10
100
AcDbMaterial
  1
ByLayer
 72
     0
 43
0.0208333333333333
 43
0.0
 43
0.0
 43
0.0
 43
0.0
 43
0.0208333333333333
 43
0.0
 43
0.0
 43
0.0
 43
0.0
 43
1.0
 43
0.0
 43
0.0
 43
0.0
 43
0.0
 43
1.0
 77
     0
 47
0.0208333333333333
 47
0.0
 47
0.0
 47
0.0
 47
0.0
 47
0.0208333333333333
 47
0.0
 47
0.0
 47
0.0
 47
0.0
 47
1.0
 47
0.0
 47
0.0
 47
0.0
 47
0.0
 47
1.0
171
     0
 49
0.0208333333333333
 49
0.0
 49
0.0
 49
0.0
 49
0.0
 49
0.0208333333333333
 49
0.0
 49
0.0
 49
0.0
 49
0.0
 49
1.0
 49
0.0
 49
0.0
 49
0.0
 49
0.0
 49
1.0
175
     0
142
0.0208333333333333
142
0.0
142
0.0
142
0.0
142
0.0
142
0.0208333333333333
142
0.0
142
0.0
142
0.0
142
0.0
142
1.0
142
0.0
142
0.0
142
0.0
142
0.0
142
1.0
179
     0
144
0.0208333333333333
144
0.0
144
0.0
144
0.0
144
0.0
144
0.0208333333333333
144
0.0
144
0.0
144
0.0
144
0.0
144
1.0
144
0.0
144
0.0
144
0.0
144
0.0
144
1.0
147
0.0208333333333333
147
0.0
147
0.0
147
0.0
147
0.0
147
0.0208333333333333
147
0.0
147
0.0
147
0.0
147
0.0
147
1.0
147
0.0
147
0.0
147
0.0
147
0.0
147
1.0
  0
MATERIAL
  5
21
102
{ACAD_XDICTIONARY
360
22
102
}
102
{ACAD_REACTORS
330
10
102
}
330
10
100
AcDbMaterial
  1
Global
 72
     0
 43
0.0208333333333333
 43
0.0
 43
0.0
 43
0.0
 43
0.0
 43
0.0208333333333333
 43
0.0
 43
0.0
 43
0.0
 43
0.0
 43
1.0
 43
0.0
 43
0.0
 43
0.0
 43
0.0
 43
1.0
 77
     0
 47
0.0208333333333333
 47
0.0
 47
0.0
 47
0.0
 47
0.0
 47
0.0208333333333333
 47
0.0
 47
0.0
 47
0.0
 47
0.0
 47
1.0
 47
0.0
 47
0.0
 47
0.0
 47
0.0
 47
1.0
171
     0
 49
0.0208333333333333
 49
0.0
 49
0.0
 49
0.0
 49
0.0
 49
0.0208333333333333
 49
0.0
 49
0.0
 49
0.0
 49
0.0
 49
1.0
 49
0.0
 49
0.0
 49
0.0
 49
0.0
 49
1.0
175
     0
142
0.0208333333333333
142
0.0
142
0.0
142
0.0
142
0.0
142
0.0208333333333333
142
0.0
142
0.0
142
0.0
142
0.0
142
1.0
142
0.0
142
0.0
142
0.0
142
0.0
142
1.0
179
     0
144
0.0208333333333333
144
0.0
144
0.0
144
0.0
144
0.0
144
0.0208333333333333
144
0.0
144
0.0
144
0.0
144
0.0
144
1.0
144
0.0
144
0.0
144
0.0
144
0.0
144
1.0
147
0.0208333333333333
147
0.0
147
0.0
147
0.0
147
0.0
147
0.0208333333333333
147
0.0
147
0.0
147
0.0
147
0.0
147
1.0
147
0.0
147
0.0
147
0.0
147
0.0
147
1.0
  0
MLEADERSTYLE
  5
67
102
{ACAD_REACTORS
330
66
102
}
330
66
100
AcDbMLeaderStyle
179
     2
170
     2
171
     1
172
     0
 90
        2
 40
0.0
 41
0.0
173
     1
 91
-1056964608
340
5B
 92
       -2
290
     1
 42
0.09
291
     1
 43
0.36
  3
Standard
 44
0.18
300

342
55
174
     1
178
     6
175
     1
176
     0
 93
-1056964608
 45
0.18
292
     0
297
     0
 46
0.18
 94
-1056964608
 47
1.0
 49
1.0
140
1.0
293
     1
141
0.0
294
     1
177
     0
142
1.0
295
     1
296
     0
143
0.125
271
     0
272
     9
273
     9
298
     1
  0
MLINESTYLE
  5
60
102
{ACAD_REACTORS
330
5F
102
}
330
5F
100
AcDbMlineStyle
  2
STANDARD
 70
     0
  3

 62
   256
 51
90.0
 52
90.0
 71
     2
 49
0.5
 62
   256
  6
BYLAYER
 49
-0.5
 62
   256
  6
BYLAYER
  0
ACDBPLACEHOLDER
  5
F
102
{ACAD_REACTORS
330
E
102
}
330
E
  0
SCALE
  5
43
102
{ACAD_REACTORS
330
42
102
}
330
42
100
AcDbScale
 70
     0
300
1:1
140
1.0
141
1.0
290
     1
  0
SCALE
  5
44
102
{ACAD_REACTORS
330
42
102
}
330
42
100
AcDbScale
 70
     0
300
1/128" = 1'-0"
140
0.0078125
141
12.0
290
     0
  0
SCALE
  5
45
102
{ACAD_REACTORS
330
42
102
}
330
42
100
AcDbScale
 70
     0
300
1/64" = 1'-0"
140
0.015625
141
12.0
290
     0
  0
SCALE
  5
46
102
{ACAD_REACTORS
330
42
102
}
330
42
100
AcDbScale
 70
     0
300
1/32" = 1'-0"
140
0.03125
141
12.0
290
     0
  0
SCALE
  5
47
102
{ACAD_REACTORS
330
42
102
}
330
42
100
AcDbScale
 70
     0
300
1/16" = 1'-0"
140
0.0625
141
12.0
290
     0
  0
SCALE
  5
48
102
{ACAD_REACTORS
330
42
102
}
330
42
100
AcDbScale
 70
     0
300
3/32" = 1'-0"
140
0.09375
141
12.0
290
     0
  0
SCALE
  5
49
102
{ACAD_REACTORS
330
42
102
}
330
42
100
AcDbScale
 70
     0
300
1/8" = 1'-0"
140
0.125
141
12.0
290
     0
  0
SCALE
  5
4A
102
{ACAD_REACTORS
330
42
102
}
330
42
100
AcDbScale
 70
     0
300
3/16" = 1'-0"
140
0.1875
141
12.0
290
     0
  0
SCALE
  5
4B
102
{ACAD_REACTORS
330
42
102
}
330
42
100
AcDbScale
 70
     0
300
1/4" = 1'-0"
140
0.25
141
12.0
290
     0
  0
SCALE
  5
4C
102
{ACAD_REACTORS
330
42
102
}
330
42
100
AcDbScale
 70
     0
300
3/8" = 1'-0"
140
0.375
141
12.0
290
     0
  0
SCALE
  5
4D
102
{ACAD_REACTORS
330
42
102
}
330
42
100
AcDbScale
 70
     0
300
1/2" = 1'-0"
140
0.5
141
12.0
290
     0
  0
SCALE
  5
4E
102
{ACAD_REACTORS
330
42
102
}
330
42
100
AcDbScale
 70
     0
300
3/4" = 1'-0"
140
0.75
141
12.0
290
     0
  0
SCALE
  5
4F
102
{ACAD_REACTORS
330
42
102
}
330
42
100
AcDbScale
 70
     0
300
1" = 1'-0"
140
1.0
141
12.0
290
     0
  0
SCALE
  5
50
102
{ACAD_REACTORS
330
42
102
}
330
42
100
AcDbScale
 70
     0
300
1-1/2" = 1'-0"
140
1.5
141
12.0
290
     0
  0
SCALE
  5
51
102
{ACAD_REACTORS
330
42
102
}
330
42
100
AcDbScale
 70
     0
300
3" = 1'-0"
140
3.0
141
12.0
290
     0
  0
SCALE
  5
52
102
{ACAD_REACTORS
330
42
102
}
330
42
100
AcDbScale
 70
     0
300
6" = 1'-0"
140
6.0
141
12.0
290
     0
  0
SCALE
  5
53
102
{ACAD_REACTORS
330
42
102
}
330
42
100
AcDbScale
 70
     0
300
1'-0" = 1'-0"
140
12.0
141
12.0
290
     0
  0
ACDBSECTIONVIEWSTYLE
  5
69
102
{ACAD_REACTORS
330
68
102
}
330
68
100
AcDbModelDocViewStyle
 70
     0
  3
Imperial24
290
     1
300
Imperial24
 90
        0
100
AcDbSectionViewStyle
 70
     0
 71
     0
 90
       78
 71
     1
340
55
 62
   256
 40
0.24
340
0
340
0
 62
   256
 40
0.24
300
I, O, Q, S, X, Z
 40
0.48
 90
        3
 40
0.18
 90
        1
 71
     2
340
5D
 90
       25
 62
   256
340
5D
 90
       50
 62
   256
 40
0.24
 40
0.0
 40
0.24
 71
     3
340
55
 62
   256
 40
0.24
 90
        1
 40
0.75
 90
        1
300
%<\AcVar ViewType \f "%tc1">% %<\AcVar ViewSectionStartId>%-%<\AcVar ViewSectionEndId>%\PSCALE %<\AcVar ViewScale \f "%sn">%
 71
     4
 62
   256
 62
   257
300
ANSI31
 40
1.0
 90
        0
290
     0
290
     0
 90
        6
 40
0.0
 40
1.570796326794896
 40
0.2617993877991494
 40
1.308996938995747
 40
-0.2617993877991494
 40
1.832595714594046
  0
TABLESTYLE
  5
65
102
{ACAD_XDICTIONARY
360
D2
102
}
102
{ACAD_REACTORS
330
64
102
}
330
64
100
AcDbTableStyle
280
     0
  3
Standard
 70
     0
 71
     0
 40
0.06
 41
0.06
280
     0
281
     0
  7
Standard
140
0.18
170
     2
 62
     0
 63
     7
283
     0
 90
      512
 91
        0
  1

274
    -2
284
     1
 64
     0
275
    -2
285
     1
 65
     0
276
    -2
286
     1
 66
     0
277
    -2
287
     1
 67
     0
278
    -2
288
     1
 68
     0
279
    -2
289
     1
 69
     0
  7
Standard
140
0.25
170
     5
 62
     0
 63
     7
283
     0
 90
      512
 91
        0
  1

274
    -2
284
     1
 64
     0
275
    -2
285
     1
 65
     0
276
    -2
286
     1
 66
     0
277
    -2
287
     1
 67
     0
278
    -2
288
     1
 68
     0
279
    -2
289
     1
 69
     0
  7
Standard
140
0.18
170
     5
 62
     0
 63
     7
283
     0
 90
      512
 91
        0
  1

274
    -2
284
     1
 64
     0
275
    -2
285
     1
 65
     0
276
    -2
286
     1
 66
     0
277
    -2
287
     1
 67
     0
278
    -2
288
     1
 68
     0
279
    -2
289
     1
 69
     0
  0
VISUALSTYLE
  5
2F
102
{ACAD_REACTORS
330
29
102
}
330
29
100
AcDbVisualStyle
  2
2dWireframe
 70
     4
177
     3
291
     0
 70
    58
 90
        0
176
     1
 90
        2
176
     1
 90
        0
176
     1
 90
        0
176
     1
 40
0.6
176
     1
 40
30.0
176
     1
 62
     7
420
 16777215
176
     1
 90
        1
176
     1
 90
        4
176
     1
 62
     7
176
     1
 62
   257
176
     1
 90
        1
176
     1
 90
        1
176
     1
 40
1.0
176
     1
 90
        0
176
     1
 62
   257
176
     1
 40
1.0
176
     1
 90
        1
176
     1
 90
        6
176
     1
 90
        2
176
     1
 62
     7
176
     1
 90
        5
176
     1
 90
        0
176
     1
 90
        0
176
     1
290
     0
176
     1
 90
        1
176
     1
 40
0.0
176
     1
 90
        0
176
     1
290
     1
176
     1
290
     1
176
     1
290
     0
176
     1
290
     0
176
     1
290
     0
176
     1
290
     0
176
     1
290
     0
176
     1
290
     0
176
     1
290
     0
176
     1
 90
       50
176
     1
 40
0.0
176
     1
 40
1.0
176
     1
 90
        0
176
     1
 62
    18
420
        0
176
     1
 90
       50
176
     1
 90
        3
176
     1
 62
     5
420
      255
176
     1
290
     0
176
     1
 90
       50
176
     1
 90
       50
176
     1
 90
       50
176
     1
290
     0
176
     1
 90
       50
176
     1
 62
   256
176
     0
 40
1.0
176
     0
 90
        2
176
     1
  1
strokes_ogs.tif
176
     1
290
     0
176
     1
 40
1.0
176
     1
 40
1.0
176
     1
  0
VISUALSTYLE
  5
2E
102
{ACAD_REACTORS
330
29
102
}
330
29
100
AcDbVisualStyle
  2
Basic
 70
     7
177
     3
291
     1
 70
    58
 90
        1
176
     1
 90
        0
176
     1
 90
        1
176
     1
 90
        0
176
     1
 40
0.6
176
     1
 40
30.0
176
     1
 62
     7
420
 16777215
176
     1
 90
        0
176
     1
 90
        4
176
     1
 62
     7
176
     1
 62
   257
176
     1
 90
        1
176
     1
 90
        1
176
     1
 40
1.0
176
     1
 90
        8
176
     1
 62
     7
176
     1
 40
1.0
176
     1
 90
        1
176
     1
 90
        6
176
     1
 90
        2
176
     1
 62
     7
176
     1
 90
        5
176
     1
 90
        0
176
     1
 90
        0
176
     1
290
     0
176
     1
 90
        1
176
     1
 40
0.0
176
     1
 90
        0
176
     1
290
     0
176
     1
290
     1
176
     1
290
     1
176
     1
290
     0
176
     1
290
     0
176
     1
290
     0
176
     1
290
     0
176
     1
290
     0
176
     1
290
     0
176
     1
 90
       50
176
     1
 40
0.0
176
     1
 40
1.0
176
     1
 90
        0
176
     1
 62
    18
420
        0
176
     1
 90
       50
176
     1
 90
        3
176
     1
 62
     5
420
      255
176
     1
290
     0
176
     1
 90
       50
176
     1
 90
       50
176
     1
 90
       50
176
     1
290
     0
176
     1
 90
       50
176
     1
 62
   256
176
     0
 40
1.0
176
     0
 90
        2
176
     1
  1
strokes_ogs.tif
176
     1
290
     0
176
     1
 40
1.0
176
     1
 40
1.0
176
     1
  0
VISUALSTYLE
  5
35
102
{ACAD_REACTORS
330
29
102
}
330
29
100
AcDbVisualStyle
  2
Brighten
 70
    12
177
     3
291
     1
 70
    58
 90
        2
176
     1
 90
        2
176
     1
 90
        0
176
     1
 90
        0
176
     1
 40
0.6
176
     1
 40
30.0
176
     1
 62
     7
420
 16777215
176
     1
 90
        1
176
     1
 90
        4
176
     1
 62
     7
176
     1
 62
   257
176
     1
 90
        1
176
     1
 90
        1
176
     1
 40
1.0
176
     1
 90
        8
176
     1
 62
     7
176
     1
 40
1.0
176
     1
 90
        1
176
     1
 90
        6
176
     1
 90
        2
176
     1
 62
     7
176
     1
 90
        5
176
     1
 90
        0
176
     1
 90
        0
176
     1
290
     0
176
     1
 90
        1
176
     1
 40
50.0
176
     1
 90
        0
176
     1
290
     0
176
     1
290
     1
176
     1
290
     1
176
     1
290
     0
176
     1
290
     0
176
     1
290
     0
176
     1
290
     0
176
     1
290
     0
176
     1
290
     0
176
     1
 90
       50
176
     1
 40
0.0
176
     1
 40
1.0
176
     1
 90
        0
176
     1
 62
    18
420
        0
176
     1
 90
       50
176
     1
 90
        3
176
     1
 62
     5
420
      255
176
     1
290
     0
176
     1
 90
       50
176
     1
 90
       50
176
     1
 90
       50
176
     1
290
     0
176
     1
 90
       50
176
     1
 62
   256
176
     0
 40
1.0
176
     0
 90
        2
176
     1
  1
strokes_ogs.tif
176
     1
290
     0
176
     1
 40
1.0
176
     1
 40
1.0
176
     1
  0
VISUALSTYLE
  5
39
102
{ACAD_REACTORS
330
29
102
}
330
29
100
AcDbVisualStyle
  2
ColorChange
 70
    16
177
     3
291
     1
 70
    58
 90
        2
176
     1
 90
        2
176
     1
 90
        3
176
     1
 90
        0
176
     1
 40
0.6
176
     1
 40
30.0
176
     1
 62
     8
420
  8421504
176
     1
 90
        1
176
     1
 90
        4
176
     1
 62
     7
176
     1
 62
   257
176
     1
 90
        1
176
     1
 90
        1
176
     1
 40
1.0
176
     1
 90
        8
176
     1
 62
     8
420
  8421504
176
     1
 40
1.0
176
     1
 90
        1
176
     1
 90
        6
176
     1
 90
        2
176
     1
 62
     7
176
     1
 90
        5
176
     1
 90
        0
176
     1
 90
        0
176
     1
290
     0
176
     1
 90
        1
176
     1
 40
0.0
176
     1
 90
        0
176
     1
290
     0
176
     1
290
     1
176
     1
290
     1
176
     1
290
     0
176
     1
290
     0
176
     1
290
     0
176
     1
290
     0
176
     1
290
     0
176
     1
290
     0
176
     1
 90
       50
176
     1
 40
0.0
176
     1
 40
1.0
176
     1
 90
        0
176
     1
 62
    18
420
        0
176
     1
 90
       50
176
     1
 90
        3
176
     1
 62
     5
420
      255
176
     1
290
     0
176
     1
 90
       50
176
     1
 90
       50
176
     1
 90
       50
176
     1
290
     0
176
     1
 90
       50
176
     1
 62
   256
176
     0
 40
1.0
176
     0
 90
        2
176
     1
  1
strokes_ogs.tif
176
     1
290
     0
176
     1
 40
1.0
176
     1
 40
1.0
176
     1
  0
VISUALSTYLE
  5
32
102
{ACAD_REACTORS
330
29
102
}
330
29
100
AcDbVisualStyle
  2
Conceptual
 70
     9
177
     3
291
     0
 70
    58
 90
        3
176
     1
 90
        2
176
     1
 90
        0
176
     1
 90
        0
176
     1
 40
0.6
176
     1
 40
30.0
176
     1
 62
     7
420
 16777215
176
     1
 90
        2
176
     1
 90
        2
176
     1
 62
     7
176
     1
 62
   257
176
     1
 90
        1
176
     1
 90
        1
176
     1
 40
179.0
176
     1
 90
        8
176
     1
 62
     7
176
     1
 40
1.0
176
     1
 90
        1
176
     1
 90
        6
176
     1
 90
        2
176
     1
 62
     7
176
     1
 90
        3
176
     1
 90
        0
176
     1
 90
        0
176
     1
290
     0
176
     1
 90
        1
176
     1
 40
0.0
176
     1
 90
        0
176
     1
290
     0
176
     1
290
     1
176
     1
290
     1
176
     1
290
     0
176
     1
290
     0
176
     1
290
     0
176
     1
290
     0
176
     1
290
     0
176
     1
290
     0
176
     1
 90
       50
176
     1
 40
0.0
176
     1
 40
1.0
176
     1
 90
        0
176
     1
 62
    18
420
        0
176
     1
 90
       50
176
     1
 90
        3
176
     1
 62
     5
420
      255
176
     1
290
     0
176
     1
 90
       50
176
     1
 90
       50
176
     1
 90
       50
176
     1
290
     0
176
     1
 90
       50
176
     1
 62
   256
176
     0
 40
1.0
176
     0
 90
        2
176
     1
  1
strokes_ogs.tif
176
     1
290
     0
176
     1
 40
1.0
176
     1
 40
1.0
176
     1
  0
VISUALSTYLE
  5
34
102
{ACAD_REACTORS
330
29
102
}
330
29
100
AcDbVisualStyle
  2
Dim
 70
    11
177
     3
291
     1
 70
    58
 90
        2
176
     1
 90
        2
176
     1
 90
        0
176
     1
 90
        0
176
     1
 40
0.6
176
     1
 40
30.0
176
     1
 62
     7
420
 16777215
176
     1
 90
        1
176
     1
 90
        4
176
     1
 62
     7
176
     1
 62
   257
176
     1
 90
        1
176
     1
 90
        1
176
     1
 40
1.0
176
     1
 90
        8
176
     1
 62
     7
176
     1
 40
1.0
176
     1
 90
        1
176
     1
 90
        6
176
     1
 90
        2
176
     1
 62
     7
176
     1
 90
        5
176
     1
 90
        0
176
     1
 90
        0
176
     1
290
     0
176
     1
 90
        1
176
     1
 40
-50.0
176
     1
 90
        0
176
     1
290
     0
176
     1
290
     1
176
     1
290
     1
176
     1
290
     0
176
     1
290
     0
176
     1
290
     0
176
     1
290
     0
176
     1
290
     0
176
     1
290
     0
176
     1
 90
       50
176
     1
 40
0.0
176
     1
 40
1.0
176
     1
 90
        0
176
     1
 62
    18
420
        0
176
     1
 90
       50
176
     1
 90
        3
176
     1
 62
     5
420
      255
176
     1
290
     0
176
     1
 90
       50
176
     1
 90
       50
176
     1
 90
       50
176
     1
290
     0
176
     1
 90
       50
176
     1
 62
   256
176
     0
 40
1.0
176
     0
 90
        2
176
     1
  1
strokes_ogs.tif
176
     1
290
     0
176
     1
 40
1.0
176
     1
 40
1.0
176
     1
  0
VISUALSTYLE
  5
41
102
{ACAD_REACTORS
330
29
102
}
330
29
100
AcDbVisualStyle
  2
EdgeColorOff
 70
    22
177
     3
291
     1
 70
    58
 90
        2
176
     0
 90
        2
176
     0
 90
        0
176
     0
 90
        0
176
     0
 40
0.6
176
     0
 40
30.0
176
     0
 62
     7
420
 16777215
176
     0
 90
        1
176
     0
 90
        4
176
     0
 62
     7
176
     0
 62
   257
176
     0
 90
        1
176
     0
 90
        1
176
     0
 40
1.0
176
     0
 90
        8
176
     2
 62
     7
176
     0
 40
1.0
176
     0
 90
        1
176
     0
 90
        6
176
     0
 90
        2
176
     0
 62
     7
176
     0
 90
        5
176
     0
 90
        0
176
     0
 90
        0
176
     0
290
     0
176
     0
 90
        1
176
     0
 40
0.0
176
     0
 90
        0
176
     0
290
     0
176
     0
290
     1
176
     0
290
     1
176
     0
290
     0
176
     0
290
     0
176
     0
290
     0
176
     0
290
     0
176
     0
290
     0
176
     0
290
     0
176
     0
 90
       50
176
     0
 40
0.0
176
     0
 40
1.0
176
     0
 90
        0
176
     0
 62
    18
420
        0
176
     0
 90
       50
176
     0
 90
        3
176
     0
 62
     5
420
      255
176
     0
290
     0
176
     0
 90
       50
176
     0
 90
       50
176
     0
 90
       50
176
     0
290
     0
176
     0
 90
       50
176
     0
 62
   256
176
     0
 40
1.0
176
     0
 90
        2
176
     0
  1
strokes_ogs.tif
176
     0
290
     0
176
     0
 40
1.0
176
     0
 40
1.0
176
     0
  0
VISUALSTYLE
  5
38
102
{ACAD_REACTORS
330
29
102
}
330
29
100
AcDbVisualStyle
  2
Facepattern
 70
    15
177
     3
291
     1
 70
    58
 90
        2
176
     1
 90
        2
176
     1
 90
        0
176
     1
 90
        0
176
     1
 40
0.6
176
     1
 40
30.0
176
     1
 62
     7
420
 16777215
176
     1
 90
        1
176
     1
 90
        4
176
     1
 62
     7
176
     1
 62
   257
176
     1
 90
        1
176
     1
 90
        1
176
     1
 40
1.0
176
     1
 90
        8
176
     1
 62
     7
176
     1
 40
1.0
176
     1
 90
        1
176
     1
 90
        6
176
     1
 90
        2
176
     1
 62
     7
176
     1
 90
        5
176
     1
 90
        0
176
     1
 90
        0
176
     1
290
     0
176
     1
 90
        1
176
     1
 40
0.0
176
     1
 90
        0
176
     1
290
     0
176
     1
290
     1
176
     1
290
     1
176
     1
290
     0
176
     1
290
     0
176
     1
290
     0
176
     1
290
     0
176
     1
290
     0
176
     1
290
     0
176
     1
 90
       50
176
     1
 40
0.0
176
     1
 40
1.0
176
     1
 90
        0
176
     1
 62
    18
420
        0
176
     1
 90
       50
176
     1
 90
        3
176
     1
 62
     5
420
      255
176
     1
290
     0
176
     1
 90
       50
176
     1
 90
       50
176
     1
 90
       50
176
     1
290
     0
176
     1
 90
       50
176
     1
 62
   256
176
     0
 40
1.0
176
     0
 90
        2
176
     1
  1
strokes_ogs.tif
176
     1
290
     0
176
     1
 40
1.0
176
     1
 40
1.0
176
     1
  0
VISUALSTYLE
  5
2A
102
{ACAD_REACTORS
330
29
102
}
330
29
100
AcDbVisualStyle
  2
Flat
 70
     0
177
     3
291
     1
 70
    58
 90
        2
176
     1
 90
        1
176
     1
 90
        1
176
     1
 90
        2
176
     1
 40
0.6
176
     1
 40
30.0
176
     1
 62
     7
420
 16777215
176
     1
 90
        0
176
     1
 90
        0
176
     1
 62
     7
176
     1
 62
   257
176
     1
 90
        1
176
     1
 90
        1
176
     1
 40
1.0
176
     1
 90
        8
176
     1
 62
     7
176
     1
 40
1.0
176
     1
 90
        1
176
     1
 90
        6
176
     1
 90
        2
176
     1
 62
     7
176
     1
 90
        5
176
     1
 90
        0
176
     1
 90
        0
176
     1
290
     0
176
     1
 90
       13
176
     1
 40
0.0
176
     1
 90
        0
176
     1
290
     0
176
     1
290
     1
176
     1
290
     1
176
     1
290
     0
176
     1
290
     0
176
     1
290
     0
176
     1
290
     0
176
     1
290
     0
176
     1
290
     0
176
     1
 90
       50
176
     1
 40
0.0
176
     1
 40
1.0
176
     1
 90
        0
176
     1
 62
    18
420
        0
176
     1
 90
       50
176
     1
 90
        3
176
     1
 62
     5
420
      255
176
     1
290
     0
176
     1
 90
       50
176
     1
 90
       50
176
     1
 90
       50
176
     1
290
     0
176
     1
 90
       50
176
     1
 62
   256
176
     0
 40
1.0
176
     0
 90
        2
176
     1
  1
strokes_ogs.tif
176
     1
290
     0
176
     1
 40
1.0
176
     1
 40
1.0
176
     1
  0
VISUALSTYLE
  5
2B
102
{ACAD_REACTORS
330
29
102
}
330
29
100
AcDbVisualStyle
  2
FlatWithEdges
 70
     1
177
     3
291
     1
 70
    58
 90
        2
176
     1
 90
        1
176
     1
 90
        1
176
     1
 90
        2
176
     1
 40
0.6
176
     1
 40
30.0
176
     1
 62
     7
420
 16777215
176
     1
 90
        1
176
     1
 90
        0
176
     1
 62
     7
176
     1
 62
   257
176
     1
 90
        1
176
     1
 90
        1
176
     1
 40
1.0
176
     1
 90
        0
176
     1
 62
   257
176
     1
 40
1.0
176
     1
 90
        1
176
     1
 90
        6
176
     1
 90
        2
176
     1
 62
     7
176
     1
 90
        5
176
     1
 90
        0
176
     1
 90
        0
176
     1
290
     0
176
     1
 90
       13
176
     1
 40
0.0
176
     1
 90
        0
176
     1
290
     0
176
     1
290
     1
176
     1
290
     1
176
     1
290
     0
176
     1
290
     0
176
     1
290
     0
176
     1
290
     0
176
     1
290
     0
176
     1
290
     0
176
     1
 90
       50
176
     1
 40
0.0
176
     1
 40
1.0
176
     1
 90
        0
176
     1
 62
    18
420
        0
176
     1
 90
       50
176
     1
 90
        3
176
     1
 62
     5
420
      255
176
     1
290
     0
176
     1
 90
       50
176
     1
 90
       50
176
     1
 90
       50
176
     1
290
     0
176
     1
 90
       50
176
     1
 62
   256
176
     0
 40
1.0
176
     0
 90
        2
176
     1
  1
strokes_ogs.tif
176
     1
290
     0
176
     1
 40
1.0
176
     1
 40
1.0
176
     1
  0
VISUALSTYLE
  5
2C
102
{ACAD_REACTORS
330
29
102
}
330
29
100
AcDbVisualStyle
  2
Gouraud
 70
     2
177
     3
291
     1
 70
    58
 90
        2
176
     1
 90
        2
176
     1
 90
        1
176
     1
 90
        2
176
     1
 40
0.6
176
     1
 40
30.0
176
     1
 62
     7
420
 16777215
176
     1
 90
        0
176
     1
 90
        0
176
     1
 62
     7
176
     1
 62
   257
176
     1
 90
        1
176
     1
 90
        1
176
     1
 40
1.0
176
     1
 90
        0
176
     1
 62
     7
176
     1
 40
1.0
176
     1
 90
        1
176
     1
 90
        6
176
     1
 90
        2
176
     1
 62
     7
176
     1
 90
        5
176
     1
 90
        0
176
     1
 90
        0
176
     1
290
     0
176
     1
 90
       13
176
     1
 40
0.0
176
     1
 90
        0
176
     1
290
     0
176
     1
290
     1
176
     1
290
     1
176
     1
290
     0
176
     1
290
     0
176
     1
290
     0
176
     1
290
     0
176
     1
290
     0
176
     1
290
     0
176
     1
 90
       50
176
     1
 40
0.0
176
     1
 40
1.0
176
     1
 90
        0
176
     1
 62
    18
420
        0
176
     1
 90
       50
176
     1
 90
        3
176
     1
 62
     5
420
      255
176
     1
290
     0
176
     1
 90
       50
176
     1
 90
       50
176
     1
 90
       50
176
     1
290
     0
176
     1
 90
       50
176
     1
 62
   256
176
     0
 40
1.0
176
     0
 90
        2
176
     1
  1
strokes_ogs.tif
176
     1
290
     0
176
     1
 40
1.0
176
     1
 40
1.0
176
     1
  0
VISUALSTYLE
  5
2D
102
{ACAD_REACTORS
330
29
102
}
330
29
100
AcDbVisualStyle
  2
GouraudWithEdges
 70
     3
177
     3
291
     1
 70
    58
 90
        2
176
     1
 90
        2
176
     1
 90
        1
176
     1
 90
        2
176
     1
 40
0.6
176
     1
 40
30.0
176
     1
 62
     7
420
 16777215
176
     1
 90
        1
176
     1
 90
        0
176
     1
 62
     7
176
     1
 62
   257
176
     1
 90
        1
176
     1
 90
        1
176
     1
 40
1.0
176
     1
 90
        0
176
     1
 62
   257
176
     1
 40
1.0
176
     1
 90
        1
176
     1
 90
        6
176
     1
 90
        2
176
     1
 62
     7
176
     1
 90
        5
176
     1
 90
        0
176
     1
 90
        0
176
     1
290
     0
176
     1
 90
       13
176
     1
 40
0.0
176
     1
 90
        0
176
     1
290
     0
176
     1
290
     1
176
     1
290
     1
176
     1
290
     0
176
     1
290
     0
176
     1
290
     0
176
     1
290
     0
176
     1
290
     0
176
     1
290
     0
176
     1
 90
       50
176
     1
 40
0.0
176
     1
 40
1.0
176
     1
 90
        0
176
     1
 62
    18
420
        0
176
     1
 90
       50
176
     1
 90
        3
176
     1
 62
     5
420
      255
176
     1
290
     0
176
     1
 90
       50
176
     1
 90
       50
176
     1
 90
       50
176
     1
290
     0
176
     1
 90
       50
176
     1
 62
   256
176
     0
 40
1.0
176
     0
 90
        2
176
     1
  1
strokes_ogs.tif
176
     1
290
     0
176
     1
 40
1.0
176
     1
 40
1.0
176
     1
  0
VISUALSTYLE
  5
31
102
{ACAD_REACTORS
330
29
102
}
330
29
100
AcDbVisualStyle
  2
Hidden
 70
     6
177
     3
291
     0
 70
    58
 90
        1
176
     1
 90
        2
176
     1
 90
        2
176
     1
 90
        0
176
     1
 40
0.6
176
     1
 40
30.0
176
     1
 62
     7
420
 16777215
176
     1
 90
        2
176
     1
 90
        2
176
     1
 62
     7
176
     1
 62
   257
176
     1
 90
        2
176
     1
 90
        1
176
     1
 40
40.0
176
     1
 90
        0
176
     1
 62
   257
176
     1
 40
1.0
176
     1
 90
        1
176
     1
 90
        6
176
     1
 90
        2
176
     1
 62
     7
176
     1
 90
        3
176
     1
 90
        0
176
     1
 90
        0
176
     1
290
     0
176
     1
 90
        1
176
     1
 40
0.0
176
     1
 90
        0
176
     1
290
     0
176
     1
290
     1
176
     1
290
     1
176
     1
290
     0
176
     1
290
     0
176
     1
290
     0
176
     1
290
     0
176
     1
290
     0
176
     1
290
     0
176
     1
 90
       50
176
     1
 40
0.0
176
     1
 40
1.0
176
     1
 90
        0
176
     1
 62
    18
420
        0
176
     1
 90
       50
176
     1
 90
        3
176
     1
 62
     5
420
      255
176
     1
290
     0
176
     1
 90
       50
176
     1
 90
       50
176
     1
 90
       50
176
     1
290
     0
176
     1
 90
       50
176
     1
 62
   256
176
     0
 40
1.0
176
     0
 90
        2
176
     1
  1
strokes_ogs.tif
176
     1
290
     0
176
     1
 40
1.0
176
     1
 40
1.0
176
     1
  0
VISUALSTYLE
  5
3F
102
{ACAD_REACTORS
330
29
102
}
330
29
100
AcDbVisualStyle
  2
JitterOff
 70
    20
177
     3
291
     1
 70
    58
 90
        2
176
     0
 90
        2
176
     0
 90
        0
176
     0
 90
        0
176
     0
 40
0.6
176
     0
 40
30.0
176
     0
 62
     7
420
 16777215
176
     0
 90
        1
176
     0
 90
        4
176
     0
 62
     7
176
     0
 62
   257
176
     0
 90
        1
176
     0
 90
        1
176
     0
 40
1.0
176
     0
 90
       10
176
     2
 62
     7
176
     0
 40
1.0
176
     0
 90
        1
176
     0
 90
        6
176
     0
 90
        2
176
     0
 62
     7
176
     0
 90
        5
176
     0
 90
        0
176
     0
 90
        0
176
     0
290
     0
176
     0
 90
        1
176
     0
 40
0.0
176
     0
 90
        0
176
     0
290
     0
176
     0
290
     1
176
     0
290
     1
176
     0
290
     0
176
     0
290
     0
176
     0
290
     0
176
     0
290
     0
176
     0
290
     0
176
     0
290
     0
176
     0
 90
       50
176
     0
 40
0.0
176
     0
 40
1.0
176
     0
 90
        0
176
     0
 62
    18
420
        0
176
     0
 90
       50
176
     0
 90
        3
176
     0
 62
     5
420
      255
176
     0
290
     0
176
     0
 90
       50
176
     0
 90
       50
176
     0
 90
       50
176
     0
290
     0
176
     0
 90
       50
176
     0
 62
   256
176
     0
 40
1.0
176
     0
 90
        2
176
     0
  1
strokes_ogs.tif
176
     0
290
     0
176
     0
 40
1.0
176
     0
 40
1.0
176
     0
  0
VISUALSTYLE
  5
37
102
{ACAD_REACTORS
330
29
102
}
330
29
100
AcDbVisualStyle
  2
Linepattern
 70
    14
177
     3
291
     1
 70
    58
 90
        2
176
     1
 90
        2
176
     1
 90
        0
176
     1
 90
        0
176
     1
 40
0.6
176
     1
 40
30.0
176
     1
 62
     7
420
 16777215
176
     1
 90
        1
176
     1
 90
        4
176
     1
 62
     7
176
     1
 62
   257
176
     1
 90
        7
176
     1
 90
        7
176
     1
 40
1.0
176
     1
 90
        8
176
     1
 62
     7
176
     1
 40
1.0
176
     1
 90
        1
176
     1
 90
        6
176
     1
 90
        2
176
     1
 62
     7
176
     1
 90
        5
176
     1
 90
        0
176
     1
 90
        0
176
     1
290
     0
176
     1
 90
        1
176
     1
 40
0.0
176
     1
 90
        0
176
     1
290
     0
176
     1
290
     1
176
     1
290
     1
176
     1
290
     0
176
     1
290
     0
176
     1
290
     0
176
     1
290
     0
176
     1
290
     0
176
     1
290
     0
176
     1
 90
       50
176
     1
 40
0.0
176
     1
 40
1.0
176
     1
 90
        0
176
     1
 62
    18
420
        0
176
     1
 90
       50
176
     1
 90
        3
176
     1
 62
     5
420
      255
176
     1
290
     0
176
     1
 90
       50
176
     1
 90
       50
176
     1
 90
       50
176
     1
290
     0
176
     1
 90
       50
176
     1
 62
   256
176
     0
 40
1.0
176
     0
 90
        2
176
     1
  1
strokes_ogs.tif
176
     1
290
     0
176
     1
 40
1.0
176
     1
 40
1.0
176
     1
  0
VISUALSTYLE
  5
40
102
{ACAD_REACTORS
330
29
102
}
330
29
100
AcDbVisualStyle
  2
OverhangOff
 70
    21
177
     3
291
     1
 70
    58
 90
        2
176
     0
 90
        2
176
     0
 90
        0
176
     0
 90
        0
176
     0
 40
0.6
176
     0
 40
30.0
176
     0
 62
     7
420
 16777215
176
     0
 90
        1
176
     0
 90
        4
176
     0
 62
     7
176
     0
 62
   257
176
     0
 90
        1
176
     0
 90
        1
176
     0
 40
1.0
176
     0
 90
        9
176
     2
 62
     7
176
     0
 40
1.0
176
     0
 90
        1
176
     0
 90
        6
176
     0
 90
        2
176
     0
 62
     7
176
     0
 90
        5
176
     0
 90
        0
176
     0
 90
        0
176
     0
290
     0
176
     0
 90
        1
176
     0
 40
0.0
176
     0
 90
        0
176
     0
290
     0
176
     0
290
     1
176
     0
290
     1
176
     0
290
     0
176
     0
290
     0
176
     0
290
     0
176
     0
290
     0
176
     0
290
     0
176
     0
290
     0
176
     0
 90
       50
176
     0
 40
0.0
176
     0
 40
1.0
176
     0
 90
        0
176
     0
 62
    18
420
        0
176
     0
 90
       50
176
     0
 90
        3
176
     0
 62
     5
420
      255
176
     0
290
     0
176
     0
 90
       50
176
     0
 90
       50
176
     0
 90
       50
176
     0
290
     0
176
     0
 90
       50
176
     0
 62
   256
176
     0
 40
1.0
176
     0
 90
        2
176
     0
  1
strokes_ogs.tif
176
     0
290
     0
176
     0
 40
1.0
176
     0
 40
1.0
176
     0
  0
VISUALSTYLE
  5
33
102
{ACAD_REACTORS
330
29
102
}
330
29
100
AcDbVisualStyle
  2
Realistic
 70
     8
177
     3
291
     0
 70
    58
 90
        2
176
     1
 90
        3
176
     1
 90
        0
176
     1
 90
        2
176
     1
 40
0.6
176
     1
 40
30.0
176
     1
 62
     7
420
 16777215
176
     1
 90
        0
176
     1
 90
        0
176
     1
 62
     7
176
     1
 62
   257
176
     1
 90
        1
176
     1
 90
        1
176
     1
 40
1.0
176
     1
 90
        8
176
     1
 62
   257
176
     1
 40
1.0
176
     1
 90
        1
176
     1
 90
        6
176
     1
 90
        2
176
     1
 62
     7
176
     1
 90
        3
176
     1
 90
        0
176
     1
 90
        0
176
     1
290
     0
176
     1
 90
       13
176
     1
 40
0.0
176
     1
 90
        0
176
     1
290
     0
176
     1
290
     1
176
     1
290
     1
176
     1
290
     0
176
     1
290
     0
176
     1
290
     0
176
     1
290
     0
176
     1
290
     0
176
     1
290
     0
176
     1
 90
       50
176
     1
 40
0.0
176
     1
 40
1.0
176
     1
 90
        0
176
     1
 62
    18
420
        0
176
     1
 90
       50
176
     1
 90
        3
176
     1
 62
     5
420
      255
176
     1
290
     0
176
     1
 90
       50
176
     1
 90
       50
176
     1
 90
       50
176
     1
290
     0
176
     1
 90
       50
176
     1
 62
   256
176
     0
 40
1.0
176
     0
 90
        2
176
     1
  1
strokes_ogs.tif
176
     1
290
     0
176
     1
 40
1.0
176
     1
 40
1.0
176
     1
  0
VISUALSTYLE
  5
3E
102
{ACAD_REACTORS
330
29
102
}
330
29
100
AcDbVisualStyle
  2
Shaded
 70
    27
177
     3
291
     0
 70
    58
 90
        2
176
     1
 90
        2
176
     1
 90
        1
176
     1
 90
        2
176
     1
 40
0.6
176
     1
 40
30.0
176
     1
 62
     7
420
 16777215
176
     1
 90
        0
176
     1
 90
        4
176
     1
 62
     7
176
     1
 62
   257
176
     1
 90
        1
176
     1
 90
        1
176
     1
 40
1.0
176
     1
 90
        8
176
     1
 62
   257
176
     1
 40
1.0
176
     1
 90
        1
176
     1
 90
        6
176
     1
 90
        2
176
     1
 62
     8
420
  7895160
176
     1
 90
        3
176
     1
 90
        0
176
     1
 90
        0
176
     1
290
     0
176
     1
 90
        5
176
     1
 40
0.0
176
     1
 90
        0
176
     1
290
     0
176
     1
290
     1
176
     1
290
     1
176
     1
290
     0
176
     1
290
     0
176
     1
290
     0
176
     1
290
     0
176
     1
290
     0
176
     1
290
     0
176
     1
 90
       50
176
     1
 40
0.0
176
     1
 40
1.0
176
     1
 90
        0
176
     1
 62
    18
420
        0
176
     1
 90
       50
176
     1
 90
        3
176
     1
 62
     5
420
      255
176
     1
290
     0
176
     1
 90
       50
176
     1
 90
       50
176
     1
 90
       50
176
     1
290
     0
176
     1
 90
       50
176
     1
 62
   256
176
     0
 40
1.0
176
     0
 90
        2
176
     1
  1
strokes_ogs.tif
176
     1
290
     0
176
     1
 40
1.0
176
     1
 40
1.0
176
     1
  0
VISUALSTYLE
  5
3D
102
{ACAD_REACTORS
330
29
102
}
330
29
100
AcDbVisualStyle
  2
Shaded with edges
 70
    26
177
     3
291
     0
 70
    58
 90
        2
176
     1
 90
        2
176
     1
 90
        1
176
     1
 90
        2
176
     1
 40
0.6
176
     1
 40
30.0
176
     1
 62
     7
420
 16777215
176
     1
 90
        1
176
     1
 90
        2
176
     1
 62
     7
176
     1
 62
   257
176
     1
 90
        2
176
     1
 90
        1
176
     1
 40
1.0
176
     1
 90
        8
176
     1
 62
   257
176
     1
 40
1.0
176
     1
 90
        1
176
     1
 90
        6
176
     1
 90
        2
176
     1
 62
     7
176
     1
 90
        3
176
     1
 90
        0
176
     1
 90
        0
176
     1
290
     0
176
     1
 90
        5
176
     1
 40
0.0
176
     1
 90
        0
176
     1
290
     0
176
     1
290
     1
176
     1
290
     1
176
     1
290
     0
176
     1
290
     0
176
     1
290
     0
176
     1
290
     0
176
     1
290
     0
176
     1
290
     0
176
     1
 90
       50
176
     1
 40
0.0
176
     1
 40
1.0
176
     1
 90
        0
176
     1
 62
    18
420
        0
176
     1
 90
       50
176
     1
 90
        3
176
     1
 62
     5
420
      255
176
     1
290
     0
176
     1
 90
       50
176
     1
 90
       50
176
     1
 90
       50
176
     1
290
     0
176
     1
 90
       50
176
     1
 62
   256
176
     0
 40
1.0
176
     0
 90
        2
176
     1
  1
strokes_ogs.tif
176
     1
290
     0
176
     1
 40
1.0
176
     1
 40
1.0
176
     1
  0
VISUALSTYLE
  5
3A
102
{ACAD_REACTORS
330
29
102
}
330
29
100
AcDbVisualStyle
  2
Shades of Gray
 70
    23
177
     3
291
     0
 70
    58
 90
        2
176
     1
 90
        2
176
     1
 90
        3
176
     1
 90
        0
176
     1
 40
0.6
176
     1
 40
30.0
176
     1
 62
     7
420
 16777215
176
     1
 90
        2
176
     1
 90
        2
176
     1
 62
     7
176
     1
 62
     7
176
     1
 90
        1
176
     1
 90
        1
176
     1
 40
40.0
176
     1
 90
        8
176
     1
 62
     7
176
     1
 40
1.0
176
     1
 90
        1
176
     1
 90
        6
176
     1
 90
        2
176
     1
 62
     7
176
     1
 90
        3
176
     1
 90
        0
176
     1
 90
        0
176
     1
290
     0
176
     1
 90
        1
176
     1
 40
0.0
176
     1
 90
        0
176
     1
290
     0
176
     1
290
     1
176
     1
290
     1
176
     1
290
     0
176
     1
290
     0
176
     1
290
     0
176
     1
290
     0
176
     1
290
     0
176
     1
290
     0
176
     1
 90
       50
176
     1
 40
0.0
176
     1
 40
1.0
176
     1
 90
        0
176
     1
 62
    18
420
        0
176
     1
 90
       50
176
     1
 90
        3
176
     1
 62
     5
420
      255
176
     1
290
     0
176
     1
 90
       50
176
     1
 90
       50
176
     1
 90
       50
176
     1
290
     0
176
     1
 90
       50
176
     1
 62
   256
176
     0
 40
1.0
176
     0
 90
        2
176
     1
  1
strokes_ogs.tif
176
     1
290
     0
176
     1
 40
1.0
176
     1
 40
1.0
176
     1
  0
VISUALSTYLE
  5
3B
102
{ACAD_REACTORS
330
29
102
}
330
29
100
AcDbVisualStyle
  2
Sketchy
 70
    24
177
     3
291
     0
 70
    58
 90
        1
176
     1
 90
        2
176
     1
 90
        2
176
     1
 90
        0
176
     1
 40
0.6
176
     1
 40
30.0
176
     1
 62
     7
420
 16777215
176
     1
 90
        2
176
     1
 90
        2
176
     1
 62
     7
176
     1
 62
     7
176
     1
 90
        1
176
     1
 90
        1
176
     1
 40
40.0
176
     1
 90
       11
176
     1
 62
     7
176
     1
 40
1.0
176
     1
 90
        1
176
     1
 90
        6
176
     1
 90
        2
176
     1
 62
     7
176
     1
 90
        6
176
     1
 90
        0
176
     1
 90
        0
176
     1
290
     0
176
     1
 90
        1
176
     1
 40
0.0
176
     1
 90
        0
176
     1
290
     0
176
     1
290
     1
176
     1
290
     1
176
     1
290
     0
176
     1
290
     0
176
     1
290
     0
176
     1
290
     0
176
     1
290
     0
176
     1
290
     0
176
     1
 90
       50
176
     1
 40
0.0
176
     1
 40
1.0
176
     1
 90
        0
176
     1
 62
    18
420
        0
176
     1
 90
       50
176
     1
 90
        3
176
     1
 62
     5
420
      255
176
     1
290
     0
176
     1
 90
       50
176
     1
 90
       50
176
     1
 90
       50
176
     1
290
     0
176
     1
 90
       50
176
     1
 62
   256
176
     0
 40
1.0
176
     0
 90
        2
176
     1
  1
strokes_ogs.tif
176
     1
290
     0
176
     1
 40
1.0
176
     1
 40
1.0
176
     1
  0
VISUALSTYLE
  5
36
102
{ACAD_REACTORS
330
29
102
}
330
29
100
AcDbVisualStyle
  2
Thicken
 70
    13
177
     3
291
     1
 70
    58
 90
        2
176
     1
 90
        2
176
     1
 90
        0
176
     1
 90
        0
176
     1
 40
0.6
176
     1
 40
30.0
176
     1
 62
     7
420
 16777215
176
     1
 90
        1
176
     1
 90
        4
176
     1
 62
     7
176
     1
 62
   257
176
     1
 90
        1
176
     1
 90
        1
176
     1
 40
1.0
176
     1
 90
       12
176
     1
 62
     7
176
     1
 40
1.0
176
     1
 90
        1
176
     1
 90
        6
176
     1
 90
        2
176
     1
 62
     7
176
     1
 90
        5
176
     1
 90
        0
176
     1
 90
        0
176
     1
290
     0
176
     1
 90
        1
176
     1
 40
0.0
176
     1
 90
        0
176
     1
290
     0
176
     1
290
     1
176
     1
290
     1
176
     1
290
     0
176
     1
290
     0
176
     1
290
     0
176
     1
290
     0
176
     1
290
     0
176
     1
290
     0
176
     1
 90
       50
176
     1
 40
0.0
176
     1
 40
1.0
176
     1
 90
        0
176
     1
 62
    18
420
        0
176
     1
 90
       50
176
     1
 90
        3
176
     1
 62
     5
420
      255
176
     1
290
     0
176
     1
 90
       50
176
     1
 90
       50
176
     1
 90
       50
176
     1
290
     0
176
     1
 90
       50
176
     1
 62
   256
176
     0
 40
1.0
176
     0
 90
        2
176
     1
  1
strokes_ogs.tif
176
     1
290
     0
176
     1
 40
1.0
176
     1
 40
1.0
176
     1
  0
VISUALSTYLE
  5
30
102
{ACAD_REACTORS
330
29
102
}
330
29
100
AcDbVisualStyle
  2
Wireframe
 70
     5
177
     3
291
     0
 70
    58
 90
        0
176
     1
 90
        2
176
     1
 90
        0
176
     1
 90
        0
176
     1
 40
0.6
176
     1
 40
30.0
176
     1
 62
     7
420
 16777215
176
     1
 90
        1
176
     1
 90
        4
176
     1
 62
     7
176
     1
 62
   257
176
     1
 90
        1
176
     1
 90
        1
176
     1
 40
1.0
176
     1
 90
        0
176
     1
 62
   257
176
     1
 40
1.0
176
     1
 90
        1
176
     1
 90
        6
176
     1
 90
        2
176
     1
 62
     7
176
     1
 90
        3
176
     1
 90
        0
176
     1
 90
        0
176
     1
290
     0
176
     1
 90
        1
176
     1
 40
0.0
176
     1
 90
        0
176
     1
290
     0
176
     1
290
     1
176
     1
290
     1
176
     1
290
     0
176
     1
290
     0
176
     1
290
     0
176
     1
290
     0
176
     1
290
     0
176
     1
290
     0
176
     1
 90
       50
176
     1
 40
0.0
176
     1
 40
1.0
176
     1
 90
        0
176
     1
 62
    18
420
        0
176
     1
 90
       50
176
     1
 90
        3
176
     1
 62
     5
420
      255
176
     1
290
     0
176
     1
 90
       50
176
     1
 90
       50
176
     1
 90
       50
176
     1
290
     0
176
     1
 90
       50
176
     1
 62
   256
176
     0
 40
1.0
176
     0
 90
        2
176
     1
  1
strokes_ogs.tif
176
     1
290
     0
176
     1
 40
1.0
176
     1
 40
1.0
176
     1
  0
VISUALSTYLE
  5
3C
102
{ACAD_REACTORS
330
29
102
}
330
29
100
AcDbVisualStyle
  2
X-Ray
 70
    25
177
     3
291
     0
 70
    58
 90
        2
176
     1
 90
        2
176
     1
 90
        1
176
     1
 90
        1
176
     1
 40
0.5
176
     1
 40
30.0
176
     1
 62
     7
420
 16777215
176
     1
 90
        1
176
     1
 90
        0
176
     1
 62
     7
176
     1
 62
   257
176
     1
 90
        1
176
     1
 90
        1
176
     1
 40
1.0
176
     1
 90
        8
176
     1
 62
     7
176
     1
 40
1.0
176
     1
 90
        1
176
     1
 90
        6
176
     1
 90
        2
176
     1
 62
     7
176
     1
 90
        3
176
     1
 90
        0
176
     1
 90
        0
176
     1
290
     0
176
     1
 90
       13
176
     1
 40
0.0
176
     1
 90
        0
176
     1
290
     0
176
     1
290
     1
176
     1
290
     1
176
     1
290
     0
176
     1
290
     0
176
     1
290
     0
176
     1
290
     0
176
     1
290
     0
176
     1
290
     0
176
     1
 90
       50
176
     1
 40
0.0
176
     1
 40
1.0
176
     1
 90
        0
176
     1
 62
    18
420
        0
176
     1
 90
       50
176
     1
 90
        3
176
     1
 62
     5
420
      255
176
     1
290
     0
176
     1
 90
       50
176
     1
 90
       50
176
     1
 90
       50
176
     1
290
     0
176
     1
 90
       50
176
     1
 62
   256
176
     0
 40
1.0
176
     0
 90
        2
176
     1
  1
strokes_ogs.tif
176
     1
290
     0
176
     1
 40
1.0
176
     1
 40
1.0
176
     1
  0
DICTIONARYVAR
  5
D1
102
{ACAD_REACTORS
330
CC
102
}
330
CC
100
DictionaryVariables
280
     0
  1
1:1
  0
DICTIONARYVAR
  5
CE
102
{ACAD_REACTORS
330
CC
102
}
330
CC
100
DictionaryVariables
280
     0
  1
STANDARD
  0
DICTIONARYVAR
  5
CD
102
{ACAD_REACTORS
330
CC
102
}
330
CC
100
DictionaryVariables
280
     0
  1
STANDARD
  0
DICTIONARYVAR
  5
CF
102
{ACAD_REACTORS
330
CC
102
}
330
CC
100
DictionaryVariables
280
     0
  1
Imperial24
  0
DICTIONARYVAR
  5
D0
102
{ACAD_REACTORS
330
CC
102
}
330
CC
100
DictionaryVariables
280
     0
  1
Imperial24
  0
DICTIONARY
  5
1A
330
19
100
AcDbDictionary
280
     1
281
     1
  3
BUMPTILE
360
1C
  3
DIFFUSETILE
360
1B
  3
OPACITYTILE
360
1F
  3
REFLECTIONTILE
360
1E
  3
REFRACTIONTILE
360
20
  3
SPECULARTILE
360
1D
  0
DICTIONARY
  5
12
330
11
100
AcDbDictionary
280
     1
281
     1
  3
BUMPTILE
360
14
  3
DIFFUSETILE
360
13
  3
OPACITYTILE
360
17
  3
REFLECTIONTILE
360
16
  3
REFRACTIONTILE
360
18
  3
SPECULARTILE
360
15
  0
DICTIONARY
  5
22
330
21
100
AcDbDictionary
280
     1
281
     1
  3
BUMPTILE
360
24
  3
DIFFUSETILE
360
23
  3
OPACITYTILE
360
27
  3
REFLECTIONTILE
360
26
  3
REFRACTIONTILE
360
28
  3
SPECULARTILE
360
25
  0
DICTIONARY
  5
D2
330
65
100
AcDbDictionary
280
     1
281
     1
  3
ACAD_ROUNDTRIP_2008_TABLESTYLE_CELLSTYLEMAP
360
D3
  0
XRECORD
  5
1C
102
{ACAD_REACTORS
330
1A
102
}
330
1A
100
AcDbXrecord
280
     1
270
     1
271
     1
  0
XRECORD
  5
1B
102
{ACAD_REACTORS
330
1A
102
}
330
1A
100
AcDbXrecord
280
     1
270
     1
271
     1
  0
XRECORD
  5
1F
102
{ACAD_REACTORS
330
1A
102
}
330
1A
100
AcDbXrecord
280
     1
270
     1
271
     1
  0
XRECORD
  5
1E
102
{ACAD_REACTORS
330
1A
102
}
330
1A
100
AcDbXrecord
280
     1
270
     1
271
     1
  0
XRECORD
  5
20
102
{ACAD_REACTORS
330
1A
102
}
330
1A
100
AcDbXrecord
280
     1
270
     1
271
     1
  0
XRECORD
  5
1D
102
{ACAD_REACTORS
330
1A
102
}
330
1A
100
AcDbXrecord
280
     1
270
     1
271
     1
  0
XRECORD
  5
14
102
{ACAD_REACTORS
330
12
102
}
330
12
100
AcDbXrecord
280
     1
270
     1
271
     1
  0
XRECORD
  5
13
102
{ACAD_REACTORS
330
12
102
}
330
12
100
AcDbXrecord
280
     1
270
     1
271
     1
  0
XRECORD
  5
17
102
{ACAD_REACTORS
330
12
102
}
330
12
100
AcDbXrecord
280
     1
270
     1
271
     1
  0
XRECORD
  5
16
102
{ACAD_REACTORS
330
12
102
}
330
12
100
AcDbXrecord
280
     1
270
     1
271
     1
  0
XRECORD
  5
18
102
{ACAD_REACTORS
330
12
102
}
330
12
100
AcDbXrecord
280
     1
270
     1
271
     1
  0
XRECORD
  5
15
102
{ACAD_REACTORS
330
12
102
}
330
12
100
AcDbXrecord
280
     1
270
     1
271
     1
  0
XRECORD
  5
24
102
{ACAD_REACTORS
330
22
102
}
330
22
100
AcDbXrecord
280
     1
270
     1
271
     1
  0
XRECORD
  5
23
102
{ACAD_REACTORS
330
22
102
}
330
22
100
AcDbXrecord
280
     1
270
     1
271
     1
  0
XRECORD
  5
27
102
{ACAD_REACTORS
330
22
102
}
330
22
100
AcDbXrecord
280
     1
270
     1
271
     1
  0
XRECORD
  5
26
102
{ACAD_REACTORS
330
22
102
}
330
22
100
AcDbXrecord
280
     1
270
     1
271
     1
  0
XRECORD
  5
28
102
{ACAD_REACTORS
330
22
102
}
330
22
100
AcDbXrecord
280
     1
270
     1
271
     1
  0
XRECORD
  5
25
102
{ACAD_REACTORS
330
22
102
}
330
22
100
AcDbXrecord
280
     1
270
     1
271
     1
  0
CELLSTYLEMAP
  5
D3
102
{ACAD_REACTORS
330
D2
102
}
330
D2
100
AcDbCellStyleMap
 90
        3
300
CELLSTYLE
  1
TABLEFORMAT_BEGIN
 90
        5
170
     1
 91
        0
 92
    32768
 62
   257
 93
        1
300
CONTENTFORMAT
  1
CONTENTFORMAT_BEGIN
 90
        0
 91
        0
 92
      512
 93
        0
300

 40
0.0
140
1.0
 94
        5
 62
     0
340
55
144
0.25
309
CONTENTFORMAT_END
171
     0
 94
        0
309
TABLEFORMAT_END
  1
CELLSTYLE_BEGIN
 90
        1
 91
        1
300
_TITLE
309
CELLSTYLE_END
300
CELLSTYLE
  1
TABLEFORMAT_BEGIN
 90
        5
170
     1
 91
        0
 92
        0
 62
   257
 93
        1
300
CONTENTFORMAT
  1
CONTENTFORMAT_BEGIN
 90
        0
 91
        0
 92
      512
 93
        0
300

 40
0.0
140
1.0
 94
        5
 62
     0
340
55
144
0.18
309
CONTENTFORMAT_END
171
     0
 94
        0
309
TABLEFORMAT_END
  1
CELLSTYLE_BEGIN
 90
        2
 91
        1
300
_HEADER
309
CELLSTYLE_END
300
CELLSTYLE
  1
TABLEFORMAT_BEGIN
 90
        5
170
     1
 91
        0
 92
        0
 62
   257
 93
        1
300
CONTENTFORMAT
  1
CONTENTFORMAT_BEGIN
 90
        0
 91
        0
 92
      512
 93
        0
300

 40
0.0
140
1.0
 94
        2
 62
     0
340
55
144
0.18
309
CONTENTFORMAT_END
171
     0
 94
        0
309
TABLEFORMAT_END
  1
CELLSTYLE_BEGIN
 90
        3
 91
        2
300
_DATA
309
CELLSTYLE_END
  0
ENDSEC
  0
EOF
