  0
SECTION
  2
HEADER
  9
$ACADVER
  1
AC1032
  9
$ACADMAINTVER
 90
      228
  9
$DWGCODEPAGE
  3
ANSI_1252
  9
$REQUIREDVERSIONS
160
                 0
  9
$INSBASE
 10
0.0
 20
0.0
 30
0.0
  9
$EXTMIN
 10
1.000000000000000E+20
 20
1.000000000000000E+20
 30
1.000000000000000E+20
  9
$EXTMAX
 10
-1.000000000000000E+20
 20
-1.000000000000000E+20
 30
-1.000000000000000E+20
  9
$LIMMIN
 10
0.0
 20
0.0
  9
$LIMMAX
 10
12.0
 20
9.0
  9
$ORTHOMODE
 70
     0
  9
$REGENMODE
 70
     1
  9
$FILLMODE
 70
     1
  9
$QTEXTMODE
 70
     0
  9
$MIRRTEXT
 70
     0
  9
$LTSCALE
 40
1.0
  9
$ATTMODE
 70
     1
  9
$TEXTSIZE
 40
0.2
  9
$TRACEWID
 40
0.05
  9
$TEXTSTYLE
  7
Standard
  9
$CLAYER
  8
0
  9
$CELTYPE
  6
ByLayer
  9
$CECOLOR
 62
   256
  9
$CELTSCALE
 40
1.0
  9
$DISPSILH
 70
     0
  9
$DIMSCALE
 40
1.0
  9
$DIMASZ
 40
0.18
  9
$DIMEXO
 40
0.0625
  9
$DIMDLI
 40
0.38
  9
$DIMRND
 40
0.0
  9
$DIMDLE
 40
0.0
  9
$DIMEXE
 40
0.18
  9
$DIMTP
 40
0.0
  9
$DIMTM
 40
0.0
  9
$DIMTXT
 40
0.18
  9
$DIMCEN
 40
0.09
  9
$DIMTSZ
 40
0.0
  9
$DIMTOL
 70
     0
  9
$DIMLIM
 70
     0
  9
$DIMTIH
 70
     1
  9
$DIMTOH
 70
     1
  9
$DIMSE1
 70
     0
  9
$DIMSE2
 70
     0
  9
$DIMTAD
 70
     0
  9
$DIMZIN
 70
     0
  9
$DIMBLK
  1

  9
$DIMASO
 70
     1
  9
$DIMSHO
 70
     1
  9
$DIMPOST
  1

  9
$DIMAPOST
  1

  9
$DIMALT
 70
     0
  9
$DIMALTD
 70
     2
  9
$DIMALTF
 40
25.4
  9
$DIMLFAC
 40
1.0
  9
$DIMTOFL
 70
     0
  9
$DIMTVP
 40
0.0
  9
$DIMTIX
 70
     0
  9
$DIMSOXD
 70
     0
  9
$DIMSAH
 70
     0
  9
$DIMBLK1
  1

  9
$DIMBLK2
  1

  9
$DIMSTYLE
  2
Standard
  9
$DIMCLRD
 70
     0
  9
$DIMCLRE
 70
     0
  9
$DIMCLRT
 70
     0
  9
$DIMTFAC
 40
1.0
  9
$DIMGAP
 40
0.09
  9
$DIMJUST
 70
     0
  9
$DIMSD1
 70
     0
  9
$DIMSD2
 70
     0
  9
$DIMTOLJ
 70
     1
  9
$DIMTZIN
 70
     0
  9
$DIMALTZ
 70
     0
  9
$DIMALTTZ
 70
     0
  9
$DIMUPT
 70
     0
  9
$DIMDEC
 70
     4
  9
$DIMTDEC
 70
     4
  9
$DIMALTU
 70
     2
  9
$DIMALTTD
 70
     2
  9
$DIMTXSTY
  7
Standard
  9
$DIMAUNIT
 70
     0
  9
$DIMADEC
 70
     0
  9
$DIMALTRND
 40
0.0
  9
$DIMAZIN
 70
     0
  9
$DIMDSEP
 70
    46
  9
$DIMATFIT
 70
     3
  9
$DIMFRAC
 70
     0
  9
$DIMLDRBLK
  1

  9
$DIMLUNIT
 70
     2
  9
$DIMLWD
 70
    -2
  9
$DIMLWE
 70
    -2
  9
$DIMTMOVE
 70
     0
  9
$DIMFXL
 40
1.0
  9
$DIMFXLON
 70
     0
  9
$DIMJOGANG
 40
0.7853981633974483
  9
$DIMTFILL
 70
     0
  9
$DIMTFILLCLR
 70
     0
  9
$DIMARCSYM
 70
     0
  9
$DIMLTYPE
  6

  9
$DIMLTEX1
  6

  9
$DIMLTEX2
  6

  9
$DIMTXTDIRECTION
 70
     0
  9
$LUNITS
 70
     2
  9
$LUPREC
 70
     4
  9
$SKETCHINC
 40
0.1
  9
$FILLETRAD
 40
0.0
  9
$AUNITS
 70
     0
  9
$AUPREC
 70
     0
  9
$MENU
  1
.
  9
$ELEVATION
 40
0.0
  9
$PELEVATION
 40
0.0
  9
$THICKNESS
 40
0.0
  9
$LIMCHECK
 70
     0
  9
$CHAMFERA
 40
0.0
  9
$CHAMFERB
 40
0.0
  9
$CHAMFERC
 40
0.0
  9
$CHAMFERD
 40
0.0
  9
$SKPOLY
 70
     0
  9
$TDCREATE
 40
2460272.934895834
  9
$TDUCREATE
 40
2460273.268229166
  9
$TDUPDATE
 40
2460272.934895834
  9
$TDUUPDATE
 40
2460273.268229166
  9
$TDINDWG
 40
0.0000000000
  9
$TDUSRTIMER
 40
0.0000000000
  9
$USRTIMER
 70
     1
  9
$ANGBASE
 50
0.0
  9
$ANGDIR
 70
     0
  9
$PDMODE
 70
     0
  9
$PDSIZE
 40
0.0
  9
$PLINEWID
 40
0.0
  9
$SPLFRAME
 70
     0
  9
$SPLINETYPE
 70
     6
  9
$SPLINESEGS
 70
     8
  9
$HANDSEED
  5
C6
  9
$SURFTAB1
 70
     6
  9
$SURFTAB2
 70
     6
  9
$SURFTYPE
 70
     6
  9
$SURFU
 70
     6
  9
$SURFV
 70
     6
  9
$UCSBASE
  2

  9
$UCSNAME
  2

  9
$UCSORG
 10
0.0
 20
0.0
 30
0.0
  9
$UCSXDIR
 10
1.0
 20
0.0
 30
0.0
  9
$UCSYDIR
 10
0.0
 20
1.0
 30
0.0
  9
$UCSORTHOREF
  2

  9
$UCSORTHOVIEW
 70
     0
  9
$UCSORGTOP
 10
0.0
 20
0.0
 30
0.0
  9
$UCSORGBOTTOM
 10
0.0
 20
0.0
 30
0.0
  9
$UCSORGLEFT
 10
0.0
 20
0.0
 30
0.0
  9
$UCSORGRIGHT
 10
0.0
 20
0.0
 30
0.0
  9
$UCSORGFRONT
 10
0.0
 20
0.0
 30
0.0
  9
$UCSORGBACK
 10
0.0
 20
0.0
 30
0.0
  9
$PUCSBASE
  2

  9
$PUCSNAME
  2

  9
$PUCSORG
 10
0.0
 20
0.0
 30
0.0
  9
$PUCSXDIR
 10
1.0
 20
0.0
 30
0.0
  9
$PUCSYDIR
 10
0.0
 20
1.0
 30
0.0
  9
$PUCSORTHOREF
  2

  9
$PUCSORTHOVIEW
 70
     0
  9
$PUCSORGTOP
 10
0.0
 20
0.0
 30
0.0
  9
$PUCSORGBOTTOM
 10
0.0
 20
0.0
 30
0.0
  9
$PUCSORGLEFT
 10
0.0
 20
0.0
 30
0.0
  9
$PUCSORGRIGHT
 10
0.0
 20
0.0
 30
0.0
  9
$PUCSORGFRONT
 10
0.0
 20
0.0
 30
0.0
  9
$PUCSORGBACK
 10
0.0
 20
0.0
 30
0.0
  9
$USERI1
 70
     0
  9
$USERI2
 70
     0
  9
$USERI3
 70
     0
  9
$USERI4
 70
     0
  9
$USERI5
 70
     0
  9
$USERR1
 40
0.0
  9
$USERR2
 40
0.0
  9
$USERR3
 40
0.0
  9
$USERR4
 40
0.0
  9
$USERR5
 40
0.0
  9
$WORLDVIEW
 70
     1
  9
$SHADEDGE
 70
     3
  9
$SHADEDIF
 70
    70
  9
$TILEMODE
 70
     1
  9
$MAXACTVP
 70
    64
  9
$PINSBASE
 10
0.0
 20
0.0
 30
0.0
  9
$PLIMCHECK
 70
     0
  9
$PEXTMIN
 10
1.000000000000000E+20
 20
1.000000000000000E+20
 30
1.000000000000000E+20
  9
$PEXTMAX
 10
-1.000000000000000E+20
 20
-1.000000000000000E+20
 30
-1.000000000000000E+20
  9
$PLIMMIN
 10
0.0
 20
0.0
  9
$PLIMMAX
 10
12.0
 20
9.0
  9
$UNITMODE
 70
     0
  9
$VISRETAIN
 70
     1
  9
$PLINEGEN
 70
     0
  9
$PSLTSCALE
 70
     1
  9
$TREEDEPTH
 70
  3020
  9
$CMLSTYLE
  2
Standard
  9
$CMLJUST
 70
     0
  9
$CMLSCALE
 40
1.0
  9
$PROXYGRAPHICS
 70
     1
  9
$MEASUREMENT
 70
     0
  9
$CELWEIGHT
370
    -1
  9
$ENDCAPS
280
     0
  9
$JOINSTYLE
280
     0
  9
$LWDISPLAY
290
     1
  9
$INSUNITS
 70
     1
  9
$HYPERLINKBASE
  1

  9
$STYLESHEET
  1

  9
$XEDIT
290
     1
  9
$CEPSNTYPE
380
     0
  9
$PSTYLEMODE
290
     1
  9
$FINGERPRINTGUID
  2
{DEB55978-D83E-684C-A12E-1FAA8CF57244}
  9
$VERSIONGUID
  2
{4A507E9F-3172-9842-AF08-017DB61AE6D5}
  9
$EXTNAMES
290
     1
  9
$PSVPSCALE
 40
0.0
  9
$OLESTARTUP
290
     0
  9
$SORTENTS
280
   127
  9
$INDEXCTL
280
     0
  9
$HIDETEXT
280
     1
  9
$XCLIPFRAME
280
     2
  9
$HALOGAP
280
     0
  9
$OBSCOLOR
 70
   257
  9
$OBSLTYPE
280
     0
  9
$INTERSECTIONDISPLAY
280
     0
  9
$INTERSECTIONCOLOR
 70
   257
  9
$DIMASSOC
280
     2
  9
$PROJECTNAME
  1

  9
$CAMERADISPLAY
290
     0
  9
$LENSLENGTH
 40
50.0
  9
$CAMERAHEIGHT
 40
0.0
  9
$STEPSPERSEC
 40
2.0
  9
$STEPSIZE
 40
6.0
  9
$3DDWFPREC
 40
2.0
  9
$PSOLWIDTH
 40
0.25
  9
$PSOLHEIGHT
 40
4.0
  9
$LOFTANG1
 40
1.570796326794896
  9
$LOFTANG2
 40
1.570796326794896
  9
$LOFTMAG1
 40
0.0
  9
$LOFTMAG2
 40
0.0
  9
$LOFTPARAM
 70
     7
  9
$LOFTNORMALS
280
     1
  9
$LATITUDE
 40
37.795
  9
$LONGITUDE
 40
-122.394
  9
$NORTHDIRECTION
 40
0.0
  9
$TIMEZONE
 70
 -8000
  9
$LIGHTGLYPHDISPLAY
280
     1
  9
$TILEMODELIGHTSYNCH
280
     1
  9
$CMATERIAL
347
11
  9
$SOLIDHIST
280
     0
  9
$SHOWHIST
280
     1
  9
$DWFFRAME
280
     2
  9
$DGNFRAME
280
     0
  9
$REALWORLDSCALE
290
     1
  9
$INTERFERECOLOR
 62
     1
  9
$INTERFEREOBJVS
345
33
  9
$INTERFEREVPVS
346
30
  9
$CSHADOW
280
     0
  9
$SHADOWPLANELOCATION
 40
0.0
  0
ENDSEC
  0
SECTION
  2
CLASSES
  0
CLASS
  1
ACDBDICTIONARYWDFLT
  2
AcDbDictionaryWithDefault
  3
ObjectDBX Classes
 90
        0
 91
        1
280
     0
281
     0
  0
CLASS
  1
MATERIAL
  2
AcDbMaterial
  3
ObjectDBX Classes
 90
     1153
 91
        3
280
     0
281
     0
  0
CLASS
  1
VISUALSTYLE
  2
AcDbVisualStyle
  3
ObjectDBX Classes
 90
     4095
 91
       24
280
     0
281
     0
  0
CLASS
  1
SCALE
  2
AcDbScale
  3
ObjectDBX Classes
 90
     1153
 91
       17
280
     0
281
     0
  0
CLASS
  1
TABLESTYLE
  2
AcDbTableStyle
  3
ObjectDBX Classes
 90
     4095
 91
        1
280
     0
281
     0
  0
CLASS
  1
MLEADERSTYLE
  2
AcDbMLeaderStyle
  3
ACDB_MLEADERSTYLE_CLASS
 90
     4095
 91
        1
280
     0
281
     0
  0
CLASS
  1
ACDBSECTIONVIEWSTYLE
  2
AcDbSectionViewStyle
  3
ObjectDBX Classes
 90
     1025
 91
        1
280
     0
281
     0
  0
CLASS
  1
ACDBDETAILVIEWSTYLE
  2
AcDbDetailViewStyle
  3
ObjectDBX Classes
 90
     1025
 91
        1
280
     0
281
     0
  0
CLASS
  1
DICTIONARYVAR
  2
AcDbDictionaryVar
  3
ObjectDBX Classes
 90
        0
 91
        5
280
     0
281
     0
  0
CLASS
  1
CELLSTYLEMAP
  2
AcDbCellStyleMap
  3
ObjectDBX Classes
 90
     1152
 91
        1
280
     0
281
     0
  0
ENDSEC
  0
SECTION
  2
TABLES
  0
TABLE
  2
VPORT
  5
8
330
0
100
AcDbSymbolTable
 70
     1
  0
VPORT
  5
57
330
8
100
AcDbSymbolTableRecord
100
AcDbViewportTableRecord
  2
*Active
 70
     0
 10
0.0
 20
0.0
 11
1.0
 21
1.0
 12
0.0
 22
0.0
 13
0.0
 23
0.0
 14
1.0
 24
1.0
 15
0.0
 25
0.0
 16
0.0
 26
0.0
 36
1.0
 17
-0.0092103407118
 27
-1.544947506561811
 37
0.0
 40
3.605807086613904
 41
1.251598413331496
 42
50.0
 43
0.0
 44
0.0
 50
0.0
 51
0.0
 71
     0
 72
   100
 73
     1
 74
     1
 75
     0
 76
     0
 77
     0
 78
     0
281
     0
 65
     1
110
0.0
120
0.0
130
0.0
111
1.0
121
0.0
131
0.0
112
0.0
122
1.0
132
0.0
 79
     0
146
0.0
 60
     3
 61
     5
292
     1
282
     1
141
0.0
142
0.0
 63
   250
421
  3355443
  0
ENDTAB
  0
TABLE
  2
LTYPE
  5
5
330
0
100
AcDbSymbolTable
 70
     1
  0
LTYPE
  5
5B
330
5
100
AcDbSymbolTableRecord
100
AcDbLinetypeTableRecord
  2
ByBlock
 70
     0
  3

 72
    65
 73
     0
 40
0.0
  0
LTYPE
  5
5C
330
5
100
AcDbSymbolTableRecord
100
AcDbLinetypeTableRecord
  2
ByLayer
 70
     0
  3

 72
    65
 73
     0
 40
0.0
  0
LTYPE
  5
5D
330
5
100
AcDbSymbolTableRecord
100
AcDbLinetypeTableRecord
  2
Continuous
 70
     0
  3
Solid line
 72
    65
 73
     0
 40
0.0
  0
ENDTAB
  0
TABLE
  2
LAYER
  5
2
330
0
100
AcDbSymbolTable
 70
     8
  0
LAYER
  5
54
330
2
100
AcDbSymbolTableRecord
100
AcDbLayerTableRecord
  2
0
 70
     0
 62
     7
  6
Continuous
370
    -3
390
F
347
21
348
0
  0
LAYER
  5
78
330
2
100
AcDbSymbolTableRecord
100
AcDbLayerTableRecord
  2
Fonts
 70
     1
 62
     7
  6
Continuous
370
     0
390
F
347
21
348
0
  0
LAYER
  5
79
330
2
100
AcDbSymbolTableRecord
100
AcDbLayerTableRecord
  2
Green
 70
     5
 62
     7
  6
Continuous
370
     0
390
F
347
21
348
0
  0
LAYER
  5
7A
330
2
100
AcDbSymbolTableRecord
100
AcDbLayerTableRecord
  2
White
 70
     4
 62
     7
  6
Continuous
370
     0
390
F
347
21
348
0
  0
LAYER
  5
7B
330
2
100
AcDbSymbolTableRecord
100
AcDbLayerTableRecord
  2
Date
 70
     0
 62
     7
  6
Continuous
370
     0
390
F
347
21
348
0
  0
LAYER
  5
87
330
2
100
AcDbSymbolTableRecord
100
AcDbLayerTableRecord
  2
Mr&Mrs with Date
 70
     1
 62
     7
  6
Continuous
370
     0
390
F
347
21
348
0
  0
LAYER
  5
88
330
2
100
AcDbSymbolTableRecord
100
AcDbLayerTableRecord
  2
TML FRIENDSGIVING
 70
     1
 62
     7
  6
Continuous
370
     0
390
F
347
21
348
0
  0
LAYER
  5
89
330
2
100
AcDbSymbolTableRecord
100
AcDbLayerTableRecord
  2
Layer 7
 70
     0
 62
     7
  6
Continuous
370
     0
390
F
347
21
348
0
  0
ENDTAB
  0
TABLE
  2
STYLE
  5
3
330
0
100
AcDbSymbolTable
 70
     2
  0
STYLE
  5
55
330
3
100
AcDbSymbolTableRecord
100
AcDbTextStyleTableRecord
  2
Standard
 70
     0
 40
0.0
 41
1.0
 50
0.0
 71
     0
 42
0.2
  3
txt
  4

  0
STYLE
  5
5A
330
3
100
AcDbSymbolTableRecord
100
AcDbTextStyleTableRecord
  2
Annotative
 70
     0
 40
0.0
 41
1.0
 50
0.0
 71
     0
 42
0.2
  3
txt
  4

1001
AcadAnnotative
1000
AnnotativeData
1002
{
1070
     1
1070
     1
1002
}
  0
ENDTAB
  0
TABLE
  2
VIEW
  5
6
330
0
100
AcDbSymbolTable
 70
     0
  0
ENDTAB
  0
TABLE
  2
UCS
  5
7
330
0
100
AcDbSymbolTable
 70
     0
  0
ENDTAB
  0
TABLE
  2
APPID
  5
9
330
0
100
AcDbSymbolTable
 70
     2
  0
APPID
  5
56
330
9
100
AcDbSymbolTableRecord
100
AcDbRegAppTableRecord
  2
ACAD
 70
     0
  0
APPID
  5
5E
330
9
100
AcDbSymbolTableRecord
100
AcDbRegAppTableRecord
  2
AcadAnnotative
 70
     0
  0
ENDTAB
  0
TABLE
  2
DIMSTYLE
  5
A
330
0
100
AcDbSymbolTable
 70
     2
100
AcDbDimStyleTable
 71
     0
  0
DIMSTYLE
105
58
330
A
100
AcDbSymbolTableRecord
100
AcDbDimStyleTableRecord
  2
Standard
 70
     0
340
55
  0
DIMSTYLE
105
59
330
A
100
AcDbSymbolTableRecord
100
AcDbDimStyleTableRecord
  2
Annotative
 70
     0
340
55
1001
AcadAnnotative
1000
AnnotativeData
1002
{
1070
     1
1070
     1
1002
}
  0
ENDTAB
  0
TABLE
  2
BLOCK_RECORD
  5
1
330
0
100
AcDbSymbolTable
 70
     8
  0
BLOCK_RECORD
  5
70
330
1
100
AcDbSymbolTableRecord
100
AcDbBlockTableRecord
  2
*Model_Space
340
73
 70
     0
280
     1
281
     0
  0
BLOCK_RECORD
  5
6C
330
1
100
AcDbSymbolTableRecord
100
AcDbBlockTableRecord
  2
*Paper_Space
340
6F
 70
     0
280
     1
281
     0
  0
BLOCK_RECORD
  5
74
330
1
100
AcDbSymbolTableRecord
100
AcDbBlockTableRecord
  2
*Paper_Space0
340
77
 70
     0
280
     1
281
     0
  0
BLOCK_RECORD
  5
7E
330
1
100
AcDbSymbolTableRecord
100
AcDbBlockTableRecord
  2
Block_0
340
0
102
{BLKREFS
331
7F
102
}
 70
     0
280
     1
281
     0
  0
BLOCK_RECORD
  5
8C
330
1
100
AcDbSymbolTableRecord
100
AcDbBlockTableRecord
  2
Block_1
340
0
102
{BLKREFS
331
8D
102
}
 70
     0
280
     1
281
     0
  0
BLOCK_RECORD
  5
90
330
1
100
AcDbSymbolTableRecord
100
AcDbBlockTableRecord
  2
Block_2
340
0
102
{BLKREFS
331
91
102
}
 70
     0
280
     1
281
     0
  0
BLOCK_RECORD
  5
99
330
1
100
AcDbSymbolTableRecord
100
AcDbBlockTableRecord
  2
Block_3
340
0
102
{BLKREFS
331
9A
102
}
 70
     0
280
     1
281
     0
  0
BLOCK_RECORD
  5
AB
330
1
100
AcDbSymbolTableRecord
100
AcDbBlockTableRecord
  2
Block_4
340
0
102
{BLKREFS
331
AC
102
}
 70
     0
280
     1
281
     0
  0
BLOCK_RECORD
  5
B1
330
1
100
AcDbSymbolTableRecord
100
AcDbBlockTableRecord
  2
Block_5
340
0
102
{BLKREFS
331
B2
102
}
 70
     0
280
     1
281
     0
  0
BLOCK_RECORD
  5
B7
330
1
100
AcDbSymbolTableRecord
100
AcDbBlockTableRecord
  2
Block_6
340
0
102
{BLKREFS
331
B8
102
}
 70
     0
280
     1
281
     0
  0
ENDTAB
  0
ENDSEC
  0
SECTION
  2
BLOCKS
  0
BLOCK
  5
71
330
70
100
AcDbEntity
  8
0
100
AcDbBlockBegin
  2
*Model_Space
 70
     0
 10
0.0
 20
0.0
 30
0.0
  3
*Model_Space
  1

  0
ENDBLK
  5
72
330
70
100
AcDbEntity
  8
0
100
AcDbBlockEnd
  0
BLOCK
  5
6D
330
6C
100
AcDbEntity
 67
     1
  8
0
100
AcDbBlockBegin
  2
*Paper_Space
 70
     0
 10
0.0
 20
0.0
 30
0.0
  3
*Paper_Space
  1

  0
ENDBLK
  5
6E
330
6C
100
AcDbEntity
 67
     1
  8
0
100
AcDbBlockEnd
  0
BLOCK
  5
75
330
74
100
AcDbEntity
 67
     1
  8
0
100
AcDbBlockBegin
  2
*Paper_Space0
 70
     0
 10
0.0
 20
0.0
 30
0.0
  3
*Paper_Space0
  1

  0
ENDBLK
  5
76
330
74
100
AcDbEntity
 67
     1
  8
0
100
AcDbBlockEnd
  0
BLOCK
  5
80
330
7E
100
AcDbEntity
  8
0
100
AcDbBlockBegin
  2
Block_0
 70
     0
 10
0.0
 20
0.0
 30
0.0
  3
Block_0
  1

  0
SPLINE
  5
82
330
7E
100
AcDbEntity
  8
Date
100
AcDbSpline
210
0.0
220
0.0
230
1.0
 70
    11
 71
     3
 72
    74
 73
    70
 74
     0
 42
0.0000000001
 43
0.0000000001
 40
0.0
 40
0.0
 40
0.0
 40
0.0
 40
1.0
 40
1.0
 40
1.0
 40
2.0
 40
2.0
 40
2.0
 40
3.0
 40
3.0
 40
3.0
 40
4.0
 40
4.0
 40
4.0
 40
5.0
 40
5.0
 40
5.0
 40
6.0
 40
6.0
 40
6.0
 40
7.0
 40
7.0
 40
7.0
 40
8.0
 40
8.0
 40
8.0
 40
9.0
 40
9.0
 40
9.0
 40
10.0
 40
10.0
 40
10.0
 40
11.0
 40
11.0
 40
11.0
 40
12.0
 40
12.0
 40
12.0
 40
13.0
 40
13.0
 40
13.0
 40
14.0
 40
14.0
 40
14.0
 40
15.0
 40
15.0
 40
15.0
 40
16.0
 40
16.0
 40
16.0
 40
17.0
 40
17.0
 40
17.0
 40
18.0
 40
18.0
 40
18.0
 40
19.0
 40
19.0
 40
19.0
 40
20.0
 40
20.0
 40
20.0
 40
21.0
 40
21.0
 40
21.0
 40
22.0
 40
22.0
 40
22.0
 40
23.0
 40
23.0
 40
23.0
 40
23.0
 10
1.631472722596476
 20
-0.0521963544805052
 30
0.0
 10
1.631472722596476
 20
-0.0521963544805052
 30
0.0
 10
1.631472722596476
 20
-0.0254854253868568
 30
0.0
 10
1.631472722596476
 20
-0.0254854253868568
 30
0.0
 10
1.631472722596476
 20
-0.0254854253868568
 30
0.0
 10
1.685442497278043
 20
0.0454553417606828
 30
0.0
 10
1.685442497278043
 20
0.0454553417606828
 30
0.0
 10
1.687893702646963
 20
0.0486274898851712
 30
0.0
 10
1.68978257266652
 20
0.0518933605678614
 30
0.0
 10
1.691109107336766
 20
0.055245744381245
 30
0.0
 10
1.69245006086213
 20
0.0585981281946286
 30
0.0
 10
1.69311332819724
 20
0.0617126008986588
 30
0.0
 10
1.69311332819724
 20
0.0645963719209198
 30
0.0
 10
1.69311332819724
 20
0.0645963719209198
 30
0.0
 10
1.69311332819724
 20
0.064812654747584
 30
0.0
 10
1.69311332819724
 20
0.064812654747584
 30
0.0
 10
1.69311332819724
 20
0.0690662170054187
 30
0.0
 10
1.691743536961666
 20
0.0723465065432265
 30
0.0
 10
1.689003954490519
 20
0.0746535233610328
 30
0.0
 10
1.686264372019372
 20
0.076960540178839
 30
0.0
 10
1.682371281139315
 20
0.0781140485877359
 30
0.0
 10
1.677324681850374
 20
0.0781140485877359
 30
0.0
 10
1.672494365388097
 20
0.0781140485877359
 30
0.0
 10
1.66854359908762
 20
0.0765135556703929
 30
0.0
 10
1.66548680180401
 20
0.0733053604081356
 30
0.0
 10
1.662415585665308
 20
0.0700971651458657
 30
0.0
 10
1.660569972211078
 20
0.0655335975031524
 30
0.0
 10
1.65992112373106
 20
0.0596218669075168
 30
0.0
 10
1.65992112373106
 20
0.0596218669075168
 30
0.0
 10
1.65992112373106
 20
0.0595137254941847
 30
0.0
 10
1.65992112373106
 20
0.0595137254941847
 30
0.0
 10
1.65992112373106
 20
0.0595137254941847
 30
0.0
 10
1.629526177156473
 20
0.0595137254941847
 30
0.0
 10
1.629526177156473
 20
0.0595137254941847
 30
0.0
 10
1.629526177156473
 20
0.0595137254941847
 30
0.0
 10
1.629526177156473
 20
0.0596218669075168
 30
0.0
 10
1.629526177156473
 20
0.0596218669075168
 30
0.0
 10
1.630535497014256
 20
0.0745453819477007
 30
0.0
 10
1.635308138056087
 20
0.0861165131745136
 30
0.0
 10
1.643858519137084
 20
0.0943352605879429
 30
0.0
 10
1.652394481362964
 20
0.1025540080013722
 30
0.0
 10
1.663482580943536
 20
0.1066633817080931
 30
0.0
 10
1.67710839902371
 20
0.1066633817080931
 30
0.0
 10
1.691887725512767
 20
0.1066633817080931
 30
0.0
 10
1.70333629647113
 20
0.103094715068058
 30
0.0
 10
1.711439693043681
 20
0.0959573817879623
 30
0.0
 10
1.71955750847135
 20
0.0888200485078793
 30
0.0
 10
1.7236092067576
 20
0.0787268499299722
 30
0.0
 10
1.7236092067576
 20
0.0656777860542535
 30
0.0
 10
1.7236092067576
 20
0.0656777860542535
 30
0.0
 10
1.7236092067576
 20
0.0655696446409214
 30
0.0
 10
1.7236092067576
 20
0.0655696446409214
 30
0.0
 10
1.7236092067576
 20
0.0584323113608384
 30
0.0
 10
1.722369185218035
 20
0.0513526535012008
 30
0.0
 10
1.719874723283788
 20
0.0443234616344499
 30
0.0
 10
1.717394680204632
 20
0.0372942697676864
 30
0.0
 10
1.713919736122812
 20
0.0309283452360584
 30
0.0
 10
1.709449891038325
 20
0.0252328974670996
 30
0.0
 10
1.709449891038325
 20
0.0252328974670996
 30
0.0
 10
1.670735265064498
 20
-0.0236470213601605
 30
0.0
 10
1.670735265064498
 20
-0.0236470213601605
 30
0.0
 10
1.670735265064498
 20
-0.0236470213601605
 30
0.0
 10
1.724474338064308
 20
-0.0236470213601605
 30
0.0
 10
1.724474338064308
 20
-0.0236470213601605
 30
0.0
 10
1.724474338064308
 20
-0.0236470213601605
 30
0.0
 10
1.724474338064308
 20
-0.0521963544805052
 30
0.0
 10
1.724474338064308
 20
-0.0521963544805052
 30
0.0
 10
1.724474338064308
 20
-0.0521963544805052
 30
0.0
 10
1.631472722596476
 20
-0.0521963544805052
 30
0.0
 10
1.631472722596476
 20
-0.0521963544805052
 30
0.0
  0
SPLINE
  5
83
330
7E
100
AcDbEntity
  8
Date
100
AcDbSpline
210
0.0
220
0.0
230
1.0
 70
     9
 71
     3
 72
    35
 73
    31
 74
     0
 42
0.0000000001
 43
0.0000000001
 40
0.0
 40
0.0
 40
0.0
 40
0.0
 40
1.0
 40
1.0
 40
1.0
 40
2.0
 40
2.0
 40
2.0
 40
3.0
 40
3.0
 40
3.0
 40
4.0
 40
4.0
 40
4.0
 40
5.0
 40
5.0
 40
5.0
 40
6.0
 40
6.0
 40
6.0
 40
7.0
 40
7.0
 40
7.0
 40
8.0
 40
8.0
 40
8.0
 40
9.0
 40
9.0
 40
9.0
 40
10.0
 40
10.0
 40
10.0
 40
10.0
 10
1.795314173226036
 20
-0.0252691425601799
 30
0.0
 10
1.801514280923912
 20
-0.0252691425601799
 30
0.0
 10
1.805955288298188
 20
-0.0231567802863866
 30
0.0
 10
1.8086660330591
 20
-0.0189392651663335
 30
0.0
 10
1.811362358964919
 20
-0.0147217500462805
 30
0.0
 10
1.812717731345376
 20
-0.0089397891466534
 30
0.0
 10
1.812717731345376
 20
-0.0015861730398936
 30
0.0
 10
1.812717731345376
 20
-0.0015861730398936
 30
0.0
 10
1.812717731345376
 20
0.0547555033074584
 30
0.0
 10
1.812717731345376
 20
0.0547555033074584
 30
0.0
 10
1.812717731345376
 20
0.0621812136897815
 30
0.0
 10
1.811362358964919
 20
0.0679848028720598
 30
0.0
 10
1.8086660330591
 20
0.0721662708543439
 30
0.0
 10
1.805955288298188
 20
0.0763477388366154
 30
0.0
 10
1.801514280923912
 20
0.0784384728277448
 30
0.0
 10
1.795314173226036
 20
0.0784384728277448
 30
0.0
 10
1.789186159803724
 20
0.0784384728277448
 30
0.0
 10
1.784745152429473
 20
0.0763477388366154
 30
0.0
 10
1.782005569958325
 20
0.0721662708543439
 30
0.0
 10
1.779265987487178
 20
0.0679848028720598
 30
0.0
 10
1.777896196251605
 20
0.0621812136897815
 30
0.0
 10
1.777896196251605
 20
0.0547555033074584
 30
0.0
 10
1.777896196251605
 20
0.0547555033074584
 30
0.0
 10
1.777896196251605
 20
-0.0015861730398936
 30
0.0
 10
1.777896196251605
 20
-0.0015861730398936
 30
0.0
 10
1.777896196251605
 20
-0.0089397891466534
 30
0.0
 10
1.779265987487178
 20
-0.0147217500462805
 30
0.0
 10
1.782005569958325
 20
-0.0189392651663335
 30
0.0
 10
1.784745152429473
 20
-0.0231567802863866
 30
0.0
 10
1.789186159803724
 20
-0.0252691425601799
 30
0.0
 10
1.795314173226036
 20
-0.0252691425601799
 30
0.0
  0
SPLINE
  5
84
330
7E
100
AcDbEntity
  8
Date
100
AcDbSpline
210
0.0
220
0.0
230
1.0
 70
     9
 71
     3
 72
    35
 73
    31
 74
     0
 42
0.0000000001
 43
0.0000000001
 40
0.0
 40
0.0
 40
0.0
 40
0.0
 40
1.0
 40
1.0
 40
1.0
 40
2.0
 40
2.0
 40
2.0
 40
3.0
 40
3.0
 40
3.0
 40
4.0
 40
4.0
 40
4.0
 40
5.0
 40
5.0
 40
5.0
 40
6.0
 40
6.0
 40
6.0
 40
7.0
 40
7.0
 40
7.0
 40
8.0
 40
8.0
 40
8.0
 40
9.0
 40
9.0
 40
9.0
 40
10.0
 40
10.0
 40
10.0
 40
10.0
 10
1.795314173226036
 20
-0.0538184756805372
 30
0.0
 10
1.779669715430296
 20
-0.0538184756805372
 30
0.0
 10
1.767903929659496
 20
-0.0498028245320307
 30
0.0
 10
1.760060072478962
 20
-0.0417571033799378
 30
0.0
 10
1.752187377588168
 20
-0.0337258010829626
 30
0.0
 10
1.748265448997926
 20
-0.0228539843290416
 30
0.0
 10
1.748265448997926
 20
-0.0091560719733176
 30
0.0
 10
1.748265448997926
 20
-0.0091560719733176
 30
0.0
 10
1.748265448997926
 20
0.0623254022408825
 30
0.0
 10
1.748265448997926
 20
0.0623254022408825
 30
0.0
 10
1.748265448997926
 20
0.0762395974232833
 30
0.0
 10
1.752230634153521
 20
0.0871618801700783
 30
0.0
 10
1.76016100446471
 20
0.0950922504812803
 30
0.0
 10
1.768091374775925
 20
0.1030226207924948
 30
0.0
 10
1.779799485126305
 20
0.1069878059481021
 30
0.0
 10
1.795314173226036
 20
0.1069878059481021
 30
0.0
 10
1.810886536746238
 20
0.1069878059481021
 30
0.0
 10
1.822609065951711
 20
0.1030442490751587
 30
0.0
 10
1.830510598552715
 20
0.0951499259017257
 30
0.0
 10
1.838397712298577
 20
0.0872556027283054
 30
0.0
 10
1.842348478599054
 20
0.0763116916988338
 30
0.0
 10
1.842348478599054
 20
0.0623254022408825
 30
0.0
 10
1.842348478599054
 20
0.0623254022408825
 30
0.0
 10
1.842348478599054
 20
-0.0091560719733176
 30
0.0
 10
1.842348478599054
 20
-0.0091560719733176
 30
0.0
 10
1.842348478599054
 20
-0.0230702671557184
 30
0.0
 10
1.838383293443459
 20
-0.0339925499025134
 30
0.0
 10
1.830452923132245
 20
-0.0419229202137154
 30
0.0
 10
1.822522552821055
 20
-0.0498532905249299
 30
0.0
 10
1.810814442470675
 20
-0.0538184756805372
 30
0.0
 10
1.795314173226036
 20
-0.0538184756805372
 30
0.0
  0
SPLINE
  5
85
330
7E
100
AcDbEntity
  8
Date
100
AcDbSpline
210
0.0
220
0.0
230
1.0
 70
    11
 71
     3
 72
    74
 73
    70
 74
     0
 42
0.0000000001
 43
0.0000000001
 40
0.0
 40
0.0
 40
0.0
 40
0.0
 40
1.0
 40
1.0
 40
1.0
 40
2.0
 40
2.0
 40
2.0
 40
3.0
 40
3.0
 40
3.0
 40
4.0
 40
4.0
 40
4.0
 40
5.0
 40
5.0
 40
5.0
 40
6.0
 40
6.0
 40
6.0
 40
7.0
 40
7.0
 40
7.0
 40
8.0
 40
8.0
 40
8.0
 40
9.0
 40
9.0
 40
9.0
 40
10.0
 40
10.0
 40
10.0
 40
11.0
 40
11.0
 40
11.0
 40
12.0
 40
12.0
 40
12.0
 40
13.0
 40
13.0
 40
13.0
 40
14.0
 40
14.0
 40
14.0
 40
15.0
 40
15.0
 40
15.0
 40
16.0
 40
16.0
 40
16.0
 40
17.0
 40
17.0
 40
17.0
 40
18.0
 40
18.0
 40
18.0
 40
19.0
 40
19.0
 40
19.0
 40
20.0
 40
20.0
 40
20.0
 40
21.0
 40
21.0
 40
21.0
 40
22.0
 40
22.0
 40
22.0
 40
23.0
 40
23.0
 40
23.0
 40
23.0
 10
1.868086134972701
 20
-0.0521963544805052
 30
0.0
 10
1.868086134972701
 20
-0.0521963544805052
 30
0.0
 10
1.868086134972701
 20
-0.0254854253868568
 30
0.0
 10
1.868086134972701
 20
-0.0254854253868568
 30
0.0
 10
1.868086134972701
 20
-0.0254854253868568
 30
0.0
 10
1.922055909654267
 20
0.0454553417606828
 30
0.0
 10
1.922055909654267
 20
0.0454553417606828
 30
0.0
 10
1.924507115023162
 20
0.0486274898851712
 30
0.0
 10
1.926395985042745
 20
0.0518933605678614
 30
0.0
 10
1.927722519712991
 20
0.055245744381245
 30
0.0
 10
1.929063473238354
 20
0.0585981281946286
 30
0.0
 10
1.929726740573465
 20
0.0617126008986588
 30
0.0
 10
1.929726740573465
 20
0.0645963719209198
 30
0.0
 10
1.929726740573465
 20
0.0645963719209198
 30
0.0
 10
1.929726740573465
 20
0.064812654747584
 30
0.0
 10
1.929726740573465
 20
0.064812654747584
 30
0.0
 10
1.929726740573465
 20
0.0690662170054187
 30
0.0
 10
1.928356949337891
 20
0.0723465065432265
 30
0.0
 10
1.925617366866744
 20
0.0746535233610328
 30
0.0
 10
1.922877784395596
 20
0.076960540178839
 30
0.0
 10
1.918984693515565
 20
0.0781140485877359
 30
0.0
 10
1.913938094226599
 20
0.0781140485877359
 30
0.0
 10
1.909107777764322
 20
0.0781140485877359
 30
0.0
 10
1.905157011463845
 20
0.0765135556703929
 30
0.0
 10
1.902100214180235
 20
0.0733053604081356
 30
0.0
 10
1.899028998041533
 20
0.0700971651458657
 30
0.0
 10
1.897183384587302
 20
0.0655335975031524
 30
0.0
 10
1.896534536107285
 20
0.0596218669075168
 30
0.0
 10
1.896534536107285
 20
0.0596218669075168
 30
0.0
 10
1.896534536107285
 20
0.0595137254941847
 30
0.0
 10
1.896534536107285
 20
0.0595137254941847
 30
0.0
 10
1.896534536107285
 20
0.0595137254941847
 30
0.0
 10
1.866139589532672
 20
0.0595137254941847
 30
0.0
 10
1.866139589532672
 20
0.0595137254941847
 30
0.0
 10
1.866139589532672
 20
0.0595137254941847
 30
0.0
 10
1.866139589532672
 20
0.0596218669075168
 30
0.0
 10
1.866139589532672
 20
0.0596218669075168
 30
0.0
 10
1.867148909390455
 20
0.0745453819477007
 30
0.0
 10
1.871921550432312
 20
0.0861165131745136
 30
0.0
 10
1.880471931513309
 20
0.0943352605879429
 30
0.0
 10
1.889007893739188
 20
0.1025540080013722
 30
0.0
 10
1.900095993319761
 20
0.1066633817080931
 30
0.0
 10
1.913721811399934
 20
0.1066633817080931
 30
0.0
 10
1.928501137888992
 20
0.1066633817080931
 30
0.0
 10
1.939949708847355
 20
0.103094715068058
 30
0.0
 10
1.948053105419906
 20
0.0959573817879623
 30
0.0
 10
1.956170920847575
 20
0.0888200485078793
 30
0.0
 10
1.960222619133825
 20
0.0787268499299722
 30
0.0
 10
1.960222619133825
 20
0.0656777860542535
 30
0.0
 10
1.960222619133825
 20
0.0656777860542535
 30
0.0
 10
1.960222619133825
 20
0.0655696446409214
 30
0.0
 10
1.960222619133825
 20
0.0655696446409214
 30
0.0
 10
1.960222619133825
 20
0.0584323113608384
 30
0.0
 10
1.95898259759426
 20
0.0513526535012008
 30
0.0
 10
1.956488135660012
 20
0.0443234616344499
 30
0.0
 10
1.954008092580857
 20
0.0372942697676864
 30
0.0
 10
1.950533148499036
 20
0.0309283452360584
 30
0.0
 10
1.94606330341455
 20
0.0252328974670996
 30
0.0
 10
1.94606330341455
 20
0.0252328974670996
 30
0.0
 10
1.907348677440747
 20
-0.0236470213601605
 30
0.0
 10
1.907348677440747
 20
-0.0236470213601605
 30
0.0
 10
1.907348677440747
 20
-0.0236470213601605
 30
0.0
 10
1.961087750440507
 20
-0.0236470213601605
 30
0.0
 10
1.961087750440507
 20
-0.0236470213601605
 30
0.0
 10
1.961087750440507
 20
-0.0236470213601605
 30
0.0
 10
1.961087750440507
 20
-0.0521963544805052
 30
0.0
 10
1.961087750440507
 20
-0.0521963544805052
 30
0.0
 10
1.961087750440507
 20
-0.0521963544805052
 30
0.0
 10
1.868086134972701
 20
-0.0521963544805052
 30
0.0
 10
1.868086134972701
 20
-0.0521963544805052
 30
0.0
  0
SPLINE
  5
86
330
7E
100
AcDbEntity
  8
Date
100
AcDbSpline
210
0.0
220
0.0
230
1.0
 70
     9
 71
     3
 72
   107
 73
   103
 74
     0
 42
0.0000000001
 43
0.0000000001
 40
0.0
 40
0.0
 40
0.0
 40
0.0
 40
1.0
 40
1.0
 40
1.0
 40
2.0
 40
2.0
 40
2.0
 40
3.0
 40
3.0
 40
3.0
 40
4.0
 40
4.0
 40
4.0
 40
5.0
 40
5.0
 40
5.0
 40
6.0
 40
6.0
 40
6.0
 40
7.0
 40
7.0
 40
7.0
 40
8.0
 40
8.0
 40
8.0
 40
9.0
 40
9.0
 40
9.0
 40
10.0
 40
10.0
 40
10.0
 40
11.0
 40
11.0
 40
11.0
 40
12.0
 40
12.0
 40
12.0
 40
13.0
 40
13.0
 40
13.0
 40
14.0
 40
14.0
 40
14.0
 40
15.0
 40
15.0
 40
15.0
 40
16.0
 40
16.0
 40
16.0
 40
17.0
 40
17.0
 40
17.0
 40
18.0
 40
18.0
 40
18.0
 40
19.0
 40
19.0
 40
19.0
 40
20.0
 40
20.0
 40
20.0
 40
21.0
 40
21.0
 40
21.0
 40
22.0
 40
22.0
 40
22.0
 40
23.0
 40
23.0
 40
23.0
 40
24.0
 40
24.0
 40
24.0
 40
25.0
 40
25.0
 40
25.0
 40
26.0
 40
26.0
 40
26.0
 40
27.0
 40
27.0
 40
27.0
 40
28.0
 40
28.0
 40
28.0
 40
29.0
 40
29.0
 40
29.0
 40
30.0
 40
30.0
 40
30.0
 40
31.0
 40
31.0
 40
31.0
 40
32.0
 40
32.0
 40
32.0
 40
33.0
 40
33.0
 40
33.0
 40
34.0
 40
34.0
 40
34.0
 40
34.0
 10
2.028784275187995
 20
-0.0538184756805372
 30
0.0
 10
2.019339925090106
 20
-0.0538184756805372
 30
0.0
 10
2.01090489485
 20
-0.0520882130671857
 30
0.0
 10
2.003479184467702
 20
-0.04862768784047
 30
0.0
 10
1.996053474085379
 20
-0.0451671626137543
 30
0.0
 10
1.990141743489756
 20
-0.0401566104625822
 30
0.0
 10
1.985743992680808
 20
-0.033596031386954
 30
0.0
 10
1.981346241871884
 20
-0.0270354523113257
 30
0.0
 10
1.978895036502939
 20
-0.0191050820001111
 30
0.0
 10
1.978390376574048
 20
-0.0098049204533355
 30
0.0
 10
1.978390376574048
 20
-0.0098049204533355
 30
0.0
 10
2.009001605975325
 20
-0.0098049204533355
 30
0.0
 10
2.009001605975325
 20
-0.0098049204533355
 30
0.0
 10
2.009708129875788
 20
-0.0146352369156123
 30
0.0
 10
2.011524905619782
 20
-0.0183841392445427
 30
0.0
 10
2.014408676642056
 20
-0.0210516274401395
 30
0.0
 10
2.017278028809187
 20
-0.0237191156357236
 30
0.0
 10
2.020998093427907
 20
-0.0250528597335157
 30
0.0
 10
2.025540032787956
 20
-0.0250528597335157
 30
0.0
 10
2.031163386281352
 20
-0.0250528597335157
 30
0.0
 10
2.035503461669855
 20
-0.0234812045263829
 30
0.0
 10
2.038574677808583
 20
-0.0203451035396888
 30
0.0
 10
2.041631475092168
 20
-0.0172090025529694
 30
0.0
 10
2.043174292589077
 20
-0.012796832888916
 30
0.0
 10
2.043174292589077
 20
-0.0071013851199698
 30
0.0
 10
2.043174292589077
 20
-0.0071013851199698
 30
0.0
 10
2.043174292589077
 20
-0.0034245770665772
 30
0.0
 10
2.043174292589077
 20
-0.0034245770665772
 30
0.0
 10
2.043174292589077
 20
0.002559247804609
 30
0.0
 10
2.041919852194395
 20
0.0071732814402089
 30
0.0
 10
2.039439809115239
 20
0.0104175238402478
 30
0.0
 10
2.036945347181017
 20
0.0136617662402867
 30
0.0
 10
2.033398308823608
 20
0.0152838874403061
 30
0.0
 10
2.028784275187995
 20
0.0152838874403061
 30
0.0
 10
2.028784275187995
 20
0.0152838874403061
 30
0.0
 10
2.015490090775402
 20
0.0152838874403061
 30
0.0
 10
2.015490090775402
 20
0.0152838874403061
 30
0.0
 10
2.015490090775402
 20
0.0152838874403061
 30
0.0
 10
2.015490090775402
 20
0.0438332205606508
 30
0.0
 10
2.015490090775402
 20
0.0438332205606508
 30
0.0
 10
2.015490090775402
 20
0.0438332205606508
 30
0.0
 10
2.028784275187995
 20
0.0438332205606508
 30
0.0
 10
2.028784275187995
 20
0.0438332205606508
 30
0.0
 10
2.032533177516951
 20
0.0438332205606508
 30
0.0
 10
2.035431367394317
 20
0.0452606872166699
 30
0.0
 10
2.037493263675236
 20
0.0481084111011619
 30
0.0
 10
2.039540741101038
 20
0.0509561349856414
 30
0.0
 10
2.040578898669031
 20
0.0549357389963537
 30
0.0
 10
2.040578898669031
 20
0.0600544325608578
 30
0.0
 10
2.040578898669031
 20
0.0600544325608578
 30
0.0
 10
2.040578898669031
 20
0.0627579678942235
 30
0.0
 10
2.040578898669031
 20
0.0627579678942235
 30
0.0
 10
2.040578898669031
 20
0.0675882843565003
 30
0.0
 10
2.039439809115239
 20
0.0713227678303257
 30
0.0
 10
2.037161630007656
 20
0.0739542088881409
 30
0.0
 10
2.03489786975519
 20
0.0765856499459435
 30
0.0
 10
2.031711302775597
 20
0.0778977657610843
 30
0.0
 10
2.027601929068876
 20
0.0778977657610843
 30
0.0
 10
2.0235502307826
 20
0.0778977657610843
 30
0.0
 10
2.020118543266133
 20
0.0763837859743969
 30
0.0
 10
2.017263609954094
 20
0.0733558264010223
 30
0.0
 10
2.014423095497148
 20
0.0703278668276476
 30
0.0
 10
2.012490968912238
 20
0.066038257432044
 30
0.0
 10
2.011481649054454
 20
0.0604869982141989
 30
0.0
 10
2.011481649054454
 20
0.0604869982141989
 30
0.0
 10
1.980985770494069
 20
0.0604869982141989
 30
0.0
 10
1.980985770494069
 20
0.0604869982141989
 30
0.0
 10
1.982283467454104
 20
0.0751221361521554
 30
0.0
 10
1.987373323308398
 20
0.0864769845522915
 30
0.0
 10
1.996240919201833
 20
0.0945515434146197
 30
0.0
 10
2.005108515095268
 20
0.1026261022769353
 30
0.0
 10
2.015922656428756
 20
0.1066633817080931
 30
0.0
 10
2.028683343202247
 20
0.1066633817080931
 30
0.0
 10
2.042597538384623
 20
0.1066633817080931
 30
0.0
 10
2.05335400429764
 20
0.1031163433507219
 30
0.0
 10
2.060952740941274
 20
0.0960150572084078
 30
0.0
 10
2.068565896440051
 20
0.0889137710661064
 30
0.0
 10
2.072372474189427
 20
0.0788349913433043
 30
0.0
 10
2.072372474189427
 20
0.0657859274675982
 30
0.0
 10
2.072372474189427
 20
0.0657859274675982
 30
0.0
 10
2.072372474189427
 20
0.061027705280872
 30
0.0
 10
2.072372474189427
 20
0.061027705280872
 30
0.0
 10
2.072372474189427
 20
0.0537461834496753
 30
0.0
 10
2.070526860735172
 20
0.0474018872006986
 30
0.0
 10
2.066850052681805
 20
0.0419948165339671
 30
0.0
 10
2.063173244628438
 20
0.0365877458672357
 30
0.0
 10
2.057953619078135
 20
0.0325504664360779
 30
0.0
 10
2.05117675717583
 20
0.0298829782404811
 30
0.0
 10
2.058746656109254
 20
0.0281527156271422
 30
0.0
 10
2.064600711284457
 20
0.0241875304715349
 30
0.0
 10
2.068738922701388
 20
0.0179874227736718
 30
0.0
 10
2.072891552973437
 20
0.0117873150758214
 30
0.0
 10
2.074967868109448
 20
0.0038929919023884
 30
0.0
 10
2.074967868109448
 20
-0.0056955467466145
 30
0.0
 10
2.074967868109448
 20
-0.0056955467466145
 30
0.0
 10
2.074967868109448
 20
-0.0104537689333408
 30
0.0
 10
2.074967868109448
 20
-0.0104537689333408
 30
0.0
 10
2.074967868109448
 20
-0.0242237755646152
 30
0.0
 10
2.070930588678316
 20
-0.0348937283469645
 30
0.0
 10
2.062856029815975
 20
-0.0424636272803885
 30
0.0
 10
2.054781470953659
 20
-0.0500335262138126
 30
0.0
 10
2.043419413125952
 20
-0.0538184756805372
 30
0.0
 10
2.028784275187995
 20
-0.0538184756805372
 30
0.0
  0
ENDBLK
  5
81
330
7E
100
AcDbEntity
  8
0
100
AcDbBlockEnd
  0
BLOCK
  5
8E
330
8C
100
AcDbEntity
  8
0
100
AcDbBlockBegin
  2
Block_1
 70
     0
 10
0.0
 20
0.0
 30
0.0
  3
Block_1
  1

  0
INSERT
  5
91
330
8C
100
AcDbEntity
  8
Layer 7
100
AcDbBlockReference
  2
Block_2
 10
0.0
 20
0.0
 30
0.0
  0
INSERT
  5
9A
330
8C
100
AcDbEntity
  8
Layer 7
100
AcDbBlockReference
  2
Block_3
 10
0.0
 20
0.0
 30
0.0
  0
INSERT
  5
AC
330
8C
100
AcDbEntity
  8
Layer 7
100
AcDbBlockReference
  2
Block_4
 10
0.0
 20
0.0
 30
0.0
  0
INSERT
  5
B2
330
8C
100
AcDbEntity
  8
Layer 7
100
AcDbBlockReference
  2
Block_5
 10
0.0
 20
0.0
 30
0.0
  0
INSERT
  5
B8
330
8C
100
AcDbEntity
  8
Layer 7
100
AcDbBlockReference
  2
Block_6
 10
0.0
 20
0.0
 30
0.0
  0
ENDBLK
  5
8F
330
8C
100
AcDbEntity
  8
0
100
AcDbBlockEnd
  0
BLOCK
  5
92
330
90
100
AcDbEntity
  8
0
100
AcDbBlockBegin
  2
Block_2
 70
     0
 10
0.0
 20
0.0
 30
0.0
  3
Block_2
  1

  0
SPLINE
  5
94
330
90
100
AcDbEntity
  8
Layer 7
100
AcDbSpline
210
0.0
220
0.0
230
1.0
 70
     9
 71
     3
 72
    20
 73
    16
 74
     0
 42
0.0000000001
 43
0.0000000001
 40
0.0
 40
0.0
 40
0.0
 40
0.0
 40
1.0
 40
1.0
 40
1.0
 40
2.0
 40
2.0
 40
2.0
 40
3.0
 40
3.0
 40
3.0
 40
4.0
 40
4.0
 40
4.0
 40
5.0
 40
5.0
 40
5.0
 40
5.0
 10
0.5490042190856077
 20
-2.516501779199466
 30
0.0
 10
0.5535639058468355
 20
-2.515554615590821
 30
0.0
 10
0.5608245170750604
 20
-2.514046400862071
 30
0.0
 10
0.5680947359942618
 20
-2.512540875977745
 30
0.0
 10
0.5815330457317157
 20
-2.501030983354085
 30
0.0
 10
0.5851045645942273
 20
-2.486754796526156
 30
0.0
 10
0.580304863502445
 20
-2.470763394644134
 30
0.0
 10
0.5684905411210745
 20
-2.456758206747281
 30
0.0
 10
0.5555145803634534
 20
-2.447433095346973
 30
0.0
 10
0.5401308447541295
 20
-2.453707077245654
 30
0.0
 10
0.5269820005455838
 20
-2.462061591679255
 30
0.0
 10
0.5214826032056786
 20
-2.471607999499484
 30
0.0
 10
0.5189716233792928
 20
-2.48336631776053
 30
0.0
 10
0.5182504379263896
 20
-2.501914251707578
 30
0.0
 10
0.5292047769095866
 20
-2.5119698862647
 30
0.0
 10
0.5490042190856077
 20
-2.516501779199466
 30
0.0
  0
SPLINE
  5
95
330
90
100
AcDbEntity
  8
Layer 7
100
AcDbSpline
210
0.0
220
0.0
230
1.0
 70
     9
 71
     3
 72
   173
 73
   169
 74
     0
 42
0.0000000001
 43
0.0000000001
 40
0.0
 40
0.0
 40
0.0
 40
0.0
 40
1.0
 40
1.0
 40
1.0
 40
2.0
 40
2.0
 40
2.0
 40
3.0
 40
3.0
 40
3.0
 40
4.0
 40
4.0
 40
4.0
 40
5.0
 40
5.0
 40
5.0
 40
6.0
 40
6.0
 40
6.0
 40
7.0
 40
7.0
 40
7.0
 40
8.0
 40
8.0
 40
8.0
 40
9.0
 40
9.0
 40
9.0
 40
10.0
 40
10.0
 40
10.0
 40
11.0
 40
11.0
 40
11.0
 40
12.0
 40
12.0
 40
12.0
 40
13.0
 40
13.0
 40
13.0
 40
14.0
 40
14.0
 40
14.0
 40
15.0
 40
15.0
 40
15.0
 40
16.0
 40
16.0
 40
16.0
 40
17.0
 40
17.0
 40
17.0
 40
18.0
 40
18.0
 40
18.0
 40
19.0
 40
19.0
 40
19.0
 40
20.0
 40
20.0
 40
20.0
 40
21.0
 40
21.0
 40
21.0
 40
22.0
 40
22.0
 40
22.0
 40
23.0
 40
23.0
 40
23.0
 40
24.0
 40
24.0
 40
24.0
 40
25.0
 40
25.0
 40
25.0
 40
26.0
 40
26.0
 40
26.0
 40
27.0
 40
27.0
 40
27.0
 40
28.0
 40
28.0
 40
28.0
 40
29.0
 40
29.0
 40
29.0
 40
30.0
 40
30.0
 40
30.0
 40
31.0
 40
31.0
 40
31.0
 40
32.0
 40
32.0
 40
32.0
 40
33.0
 40
33.0
 40
33.0
 40
34.0
 40
34.0
 40
34.0
 40
35.0
 40
35.0
 40
35.0
 40
36.0
 40
36.0
 40
36.0
 40
37.0
 40
37.0
 40
37.0
 40
38.0
 40
38.0
 40
38.0
 40
39.0
 40
39.0
 40
39.0
 40
40.0
 40
40.0
 40
40.0
 40
41.0
 40
41.0
 40
41.0
 40
42.0
 40
42.0
 40
42.0
 40
43.0
 40
43.0
 40
43.0
 40
44.0
 40
44.0
 40
44.0
 40
45.0
 40
45.0
 40
45.0
 40
46.0
 40
46.0
 40
46.0
 40
47.0
 40
47.0
 40
47.0
 40
48.0
 40
48.0
 40
48.0
 40
49.0
 40
49.0
 40
49.0
 40
50.0
 40
50.0
 40
50.0
 40
51.0
 40
51.0
 40
51.0
 40
52.0
 40
52.0
 40
52.0
 40
53.0
 40
53.0
 40
53.0
 40
54.0
 40
54.0
 40
54.0
 40
55.0
 40
55.0
 40
55.0
 40
56.0
 40
56.0
 40
56.0
 40
56.0
 10
0.1853479627642274
 20
-2.952872052945344
 30
0.0
 10
0.1796051107877853
 20
-2.959570579251627
 30
0.0
 10
0.1712067076042305
 20
-2.959504820359319
 30
0.0
 10
0.1639631730505471
 20
-2.960001445860219
 30
0.0
 10
0.1567861913916128
 20
-2.960493559990456
 30
0.0
 10
0.1484821073367786
 20
-2.959158366141789
 30
0.0
 10
0.1423206268994666
 20
-2.955703601351842
 30
0.0
 10
0.1360668687665086
 20
-2.952197084568145
 30
0.0
 10
0.1318277553587626
 20
-2.945120338129855
 30
0.0
 10
0.1265579106448437
 20
-2.939447382528442
 30
0.0
 10
0.1248515873256161
 20
-2.931233067905319
 30
0.0
 10
0.1230914921519444
 20
-2.922759893237803
 30
0.0
 10
0.121337525225057
 20
-2.91428550342362
 30
0.0
 10
0.1305823828315877
 20
-2.897086615983046
 30
0.0
 10
0.137220902851128
 20
-2.8795261975958
 30
0.0
 10
0.1278884557049069
 20
-2.858974563018439
 30
0.0
 10
0.1410751489089787
 20
-2.844506290043151
 30
0.0
 10
0.1528228654307592
 20
-2.828445390021417
 30
0.0
 10
0.1676658224975477
 20
-2.816083815014154
 30
0.0
 10
0.1892638693676897
 20
-2.798096724034596
 30
0.0
 10
0.2073812926633612
 20
-2.776880597874196
 30
0.0
 10
0.2274597046273609
 20
-2.757533346118811
 30
0.0
 10
0.2437461767764893
 20
-2.741839865157064
 30
0.0
 10
0.2591494562213559
 20
-2.725174930398805
 30
0.0
 10
0.2770942786329189
 20
-2.711334864733468
 30
0.0
 10
0.2865894240130728
 20
-2.704011805365679
 30
0.0
 10
0.2964494250339713
 20
-2.697049238281907
 30
0.0
 10
0.3073666456487874
 20
-2.691680042722635
 30
0.0
 10
0.3165430002568428
 20
-2.687167061496817
 30
0.0
 10
0.3243524204267613
 20
-2.680789184714411
 30
0.0
 10
0.3285947254890718
 20
-2.670184792873113
 30
0.0
 10
0.3285901634082191
 20
-2.669845889360582
 30
0.0
 10
0.3285519141538771
 20
-2.668679656136216
 30
0.0
 10
0.3285625821720007
 20
-2.667513789698179
 30
0.0
 10
0.3286154201226989
 20
-2.661708568323951
 30
0.0
 10
0.3301637747568469
 20
-2.655392076444235
 30
0.0
 10
0.3283772671221641
 20
-2.650224213058537
 30
0.0
 10
0.3260011226162633
 20
-2.643350982571695
 30
0.0
 10
0.3221458896245066
 20
-2.636206642220384
 30
0.0
 10
0.3169413729491073
 20
-2.631253500684199
 30
0.0
 10
0.3062239999488838
 20
-2.621053830982646
 30
0.0
 10
0.3002480937988012
 20
-2.607971508344613
 30
0.0
 10
0.2924192890312345
 20
-2.596004427561865
 30
0.0
 10
0.2921089617183901
 20
-2.595530016679857
 30
0.0
 10
0.291080102658485
 20
-2.595411029964023
 30
0.0
 10
0.2909389518085339
 20
-2.594955476984144
 30
0.0
 10
0.2866895947495701
 20
-2.581238431076017
 30
0.0
 10
0.2796495947155916
 20
-2.567647176567611
 30
0.0
 10
0.2789442812263713
 20
-2.553732382081534
 30
0.0
 10
0.2776686562893423
 20
-2.528567441194025
 30
0.0
 10
0.2756213970308559
 20
-2.502938214350933
 30
0.0
 10
0.2851722901081453
 20
-2.478223325441402
 30
0.0
 10
0.28855906884606
 20
-2.46945917132464
 30
0.0
 10
0.2906852672554123
 20
-2.460236532126423
 30
0.0
 10
0.2962508671988644
 20
-2.452467315706573
 30
0.0
 10
0.3061510178173294
 20
-2.438647409519413
 30
0.0
 10
0.3136641193430654
 20
-2.423206009387058
 30
0.0
 10
0.3262918266758434
 20
-2.411211782906194
 30
0.0
 10
0.3361851804372691
 20
-2.401814766827732
 30
0.0
 10
0.3627277496694003
 20
-2.384197259128869
 30
0.0
 10
0.3744804012408798
 20
-2.378089878536406
 30
0.0
 10
0.3916902811538799
 20
-2.369146599148911
 30
0.0
 10
0.4104266890094171
 20
-2.366057021528705
 30
0.0
 10
0.4288818806271593
 20
-2.363924397295477
 30
0.0
 10
0.4422710167756602
 20
-2.362377152433939
 30
0.0
 10
0.4563410303678918
 20
-2.363206841409338
 30
0.0
 10
0.4703517132915573
 20
-2.365484733321131
 30
0.0
 10
0.4909856561773975
 20
-2.368839459972276
 30
0.0
 10
0.5110156516012441
 20
-2.375077989781579
 30
0.0
 10
0.5272561273450517
 20
-2.386285170780941
 30
0.0
 10
0.5525096296488148
 20
-2.403711899677874
 30
0.0
 10
0.5768239055759068
 20
-2.423262869802859
 30
0.0
 10
0.5887575092529258
 20
-2.454110455201544
 30
0.0
 10
0.5958421644017512
 20
-2.472423393421624
 30
0.0
 10
0.6044955832701868
 20
-2.490039573184049
 30
0.0
 10
0.6072592750395718
 20
-2.508751936546685
 30
0.0
 10
0.6227858387149405
 20
-2.520138797351414
 30
0.0
 10
0.6377220973489682
 20
-2.531092659103276
 30
0.0
 10
0.6532642594619979
 20
-2.542490943929982
 30
0.0
 10
0.6348974048283304
 20
-2.550888647116481
 30
0.0
 10
0.6180259203049065
 20
-2.558602639389517
 30
0.0
 10
0.6020145283564614
 20
-2.565923356027193
 30
0.0
 10
0.6008388305638542
 20
-2.569851044637617
 30
0.0
 10
0.5995630365151152
 20
-2.572552402151081
 30
0.0
 10
0.5992817182135847
 20
-2.575352151033686
 30
0.0
 10
0.5985057641562813
 20
-2.583075155309289
 30
0.0
 10
0.5927225434515878
 20
-2.591567977918632
 30
0.0
 10
0.6024943232395369
 20
-2.597971991639774
 30
0.0
 10
0.6036409215773676
 20
-2.598723402597013
 30
0.0
 10
0.6036667656614251
 20
-2.601286730520187
 30
0.0
 10
0.6040647389927219
 20
-2.603043422597263
 30
0.0
 10
0.6071150956577437
 20
-2.616506002282751
 30
0.0
 10
0.6092562697562648
 20
-2.630022774615326
 30
0.0
 10
0.6156388665010456
 20
-2.64277899025746
 30
0.0
 10
0.6190852904167691
 20
-2.649667069059508
 30
0.0
 10
0.6179312221982071
 20
-2.658849251866766
 30
0.0
 10
0.6189033071491647
 20
-2.667442789011122
 30
0.0
 10
0.6117178107548272
 20
-2.671294401462773
 30
0.0
 10
0.6056197928825088
 20
-2.674563142912397
 30
0.0
 10
0.5995390519131104
 20
-2.677822626500402
 30
0.0
 10
0.595206227278292
 20
-2.674559358010835
 30
0.0
 10
0.5917700249815426
 20
-2.671971411460592
 30
0.0
 10
0.5872872949975974
 20
-2.668595243097191
 30
0.0
 10
0.5868982811676915
 20
-2.660600377485555
 30
0.0
 10
0.5822976950209219
 20
-2.652103777950211
 30
0.0
 10
0.5850425181660563
 20
-2.64173507676724
 30
0.0
 10
0.5871439877047225
 20
-2.633796311428821
 30
0.0
 10
0.5848055019015798
 20
-2.624692544821376
 30
0.0
 10
0.584328373314861
 20
-2.613429115891272
 30
0.0
 10
0.5743842446382183
 20
-2.624372488363986
 30
0.0
 10
0.5666895605407313
 20
-2.633049378144101
 30
0.0
 10
0.5587649985445625
 20
-2.641512088192358
 30
0.0
 10
0.5468941093106423
 20
-2.65418912951956
 30
0.0
 10
0.5468254865759895
 20
-2.654125175062265
 30
0.0
 10
0.540529749783218
 20
-2.68140227593714
 30
0.0
 10
0.5486116891984996
 20
-2.695660532485842
 30
0.0
 10
0.5609336429955267
 20
-2.705519890211613
 30
0.0
 10
0.5743000147065863
 20
-2.714490229071568
 30
0.0
 10
0.5855632301886418
 20
-2.722049119686314
 30
0.0
 10
0.5937913290990133
 20
-2.732866182021527
 30
0.0
 10
0.6031467649718631
 20
-2.742500318842429
 30
0.0
 10
0.620996680252612
 20
-2.760882124667482
 30
0.0
 10
0.6331255772045097
 20
-2.782969776334109
 30
0.0
 10
0.6455337755102164
 20
-2.804941273719805
 30
0.0
 10
0.6458165577526213
 20
-2.805441971029191
 30
0.0
 10
0.6461900726043394
 20
-2.805930993883041
 30
0.0
 10
0.6463186582270357
 20
-2.806473497920175
 30
0.0
 10
0.651626944340377
 20
-2.828881301394151
 30
0.0
 10
0.6630330785768087
 20
-2.850037639551096
 30
0.0
 10
0.6634893353614946
 20
-2.873240456674844
 30
0.0
 10
0.6637987643756055
 20
-2.888974834617707
 30
0.0
 10
0.6665628449785192
 20
-2.904611247164287
 30
0.0
 10
0.6648720415103577
 20
-2.920494970488587
 30
0.0
 10
0.6626762162438934
 20
-2.941123219057948
 30
0.0
 10
0.6577012523393174
 20
-2.9611197633599
 30
0.0
 10
0.6518870085774703
 20
-2.980846324692543
 30
0.0
 10
0.6484333609705825
 20
-2.992564096295886
 30
0.0
 10
0.6431966102276698
 20
-3.004028326213933
 30
0.0
 10
0.6370911043661005
 20
-3.014652597573507
 30
0.0
 10
0.6197121853850073
 20
-3.044894017982616
 30
0.0
 10
0.5982372775572963
 20
-3.071859590205324
 30
0.0
 10
0.5700590560653988
 20
-3.093048632462467
 30
0.0
 10
0.5542869107852716
 20
-3.104908596761838
 30
0.0
 10
0.538277920501135
 20
-3.116275386279463
 30
0.0
 10
0.5189222487566036
 20
-3.121738296162094
 30
0.0
 10
0.5085750688432174
 20
-3.13196947570317
 30
0.0
 10
0.4928446067204833
 20
-3.128185544876057
 30
0.0
 10
0.4811328758230123
 20
-3.136482322275469
 30
0.0
 10
0.4760162626351985
 20
-3.140107102053686
 30
0.0
 10
0.4668496666365501
 20
-3.143529144083635
 30
0.0
 10
0.4584311142221446
 20
-3.138397106889164
 30
0.0
 10
0.4561159611888697
 20
-3.136985732078376
 30
0.0
 10
0.451296551248965
 20
-3.13937783599676
 30
0.0
 10
0.4477162969327916
 20
-3.140354322787086
 30
0.0
 10
0.4273043967383375
 20
-3.145921407103969
 30
0.0
 10
0.4063473033470599
 20
-3.143381797821221
 30
0.0
 10
0.3864526364686627
 20
-3.140386405126137
 30
0.0
 10
0.35146912546035
 20
-3.135118970044029
 30
0.0
 10
0.3181977176015178
 20
-3.122888023579459
 30
0.0
 10
0.2888520152187337
 20
-3.102291647513917
 30
0.0
 10
0.2632933633079422
 20
-3.084353162118809
 30
0.0
 10
0.2346057557926492
 20
-3.056450177627816
 30
0.0
 10
0.2154380358074882
 20
-3.021561332786126
 30
0.0
 10
0.2063179328463573
 20
-3.004961197441111
 30
0.0
 10
0.1977894320294429
 20
-2.988628291417095
 30
0.0
 10
0.1935035789701816
 20
-2.970081399521834
 30
0.0
 10
0.1921111689748234
 20
-2.964056001439201
 30
0.0
 10
0.188154536188007
 20
-2.958622840459484
 30
0.0
 10
0.1853479627642274
 20
-2.952872052945344
 30
0.0
  0
HATCH
  5
96
330
90
100
AcDbEntity
  8
Layer 7
 62
    33
420
 13016173
440
 33554687
100
AcDbHatch
 10
0.0
 20
0.0
 30
0.0
210
0.0
220
0.0
230
1.0
  2
SOLID
 70
     1
 71
     1
 91
        2
 92
        1
 93
        1
 72
     4
 94
        3
 73
     0
 74
     0
 95
       20
 96
       16
 40
0.0
 40
0.0
 40
0.0
 40
0.0
 40
1.0
 40
1.0
 40
1.0
 40
2.0
 40
2.0
 40
2.0
 40
3.0
 40
3.0
 40
3.0
 40
4.0
 40
4.0
 40
4.0
 40
5.0
 40
5.0
 40
5.0
 40
5.0
 10
0.5490042190856077
 20
-2.516501779199466
 10
0.5535639058468355
 20
-2.515554615590821
 10
0.5608245170750604
 20
-2.514046400862071
 10
0.5680947359942618
 20
-2.512540875977745
 10
0.5815330457317157
 20
-2.501030983354085
 10
0.5851045645942273
 20
-2.486754796526156
 10
0.580304863502445
 20
-2.470763394644134
 10
0.5684905411210745
 20
-2.456758206747281
 10
0.5555145803634534
 20
-2.447433095346973
 10
0.5401308447541295
 20
-2.453707077245654
 10
0.5269820005455838
 20
-2.462061591679255
 10
0.5214826032056786
 20
-2.471607999499484
 10
0.5189716233792928
 20
-2.48336631776053
 10
0.5182504379263896
 20
-2.501914251707578
 10
0.5292047769095866
 20
-2.5119698862647
 10
0.5490042190856077
 20
-2.516501779199466
 97
        0
 97
        1
330
94
 92
        1
 93
        1
 72
     4
 94
        3
 73
     0
 74
     0
 95
      173
 96
      169
 40
0.0
 40
0.0
 40
0.0
 40
0.0
 40
1.0
 40
1.0
 40
1.0
 40
2.0
 40
2.0
 40
2.0
 40
3.0
 40
3.0
 40
3.0
 40
4.0
 40
4.0
 40
4.0
 40
5.0
 40
5.0
 40
5.0
 40
6.0
 40
6.0
 40
6.0
 40
7.0
 40
7.0
 40
7.0
 40
8.0
 40
8.0
 40
8.0
 40
9.0
 40
9.0
 40
9.0
 40
10.0
 40
10.0
 40
10.0
 40
11.0
 40
11.0
 40
11.0
 40
12.0
 40
12.0
 40
12.0
 40
13.0
 40
13.0
 40
13.0
 40
14.0
 40
14.0
 40
14.0
 40
15.0
 40
15.0
 40
15.0
 40
16.0
 40
16.0
 40
16.0
 40
17.0
 40
17.0
 40
17.0
 40
18.0
 40
18.0
 40
18.0
 40
19.0
 40
19.0
 40
19.0
 40
20.0
 40
20.0
 40
20.0
 40
21.0
 40
21.0
 40
21.0
 40
22.0
 40
22.0
 40
22.0
 40
23.0
 40
23.0
 40
23.0
 40
24.0
 40
24.0
 40
24.0
 40
25.0
 40
25.0
 40
25.0
 40
26.0
 40
26.0
 40
26.0
 40
27.0
 40
27.0
 40
27.0
 40
28.0
 40
28.0
 40
28.0
 40
29.0
 40
29.0
 40
29.0
 40
30.0
 40
30.0
 40
30.0
 40
31.0
 40
31.0
 40
31.0
 40
32.0
 40
32.0
 40
32.0
 40
33.0
 40
33.0
 40
33.0
 40
34.0
 40
34.0
 40
34.0
 40
35.0
 40
35.0
 40
35.0
 40
36.0
 40
36.0
 40
36.0
 40
37.0
 40
37.0
 40
37.0
 40
38.0
 40
38.0
 40
38.0
 40
39.0
 40
39.0
 40
39.0
 40
40.0
 40
40.0
 40
40.0
 40
41.0
 40
41.0
 40
41.0
 40
42.0
 40
42.0
 40
42.0
 40
43.0
 40
43.0
 40
43.0
 40
44.0
 40
44.0
 40
44.0
 40
45.0
 40
45.0
 40
45.0
 40
46.0
 40
46.0
 40
46.0
 40
47.0
 40
47.0
 40
47.0
 40
48.0
 40
48.0
 40
48.0
 40
49.0
 40
49.0
 40
49.0
 40
50.0
 40
50.0
 40
50.0
 40
51.0
 40
51.0
 40
51.0
 40
52.0
 40
52.0
 40
52.0
 40
53.0
 40
53.0
 40
53.0
 40
54.0
 40
54.0
 40
54.0
 40
55.0
 40
55.0
 40
55.0
 40
56.0
 40
56.0
 40
56.0
 40
56.0
 10
0.1853479627642274
 20
-2.952872052945344
 10
0.1796051107877853
 20
-2.959570579251627
 10
0.1712067076042305
 20
-2.959504820359319
 10
0.1639631730505471
 20
-2.960001445860219
 10
0.1567861913916128
 20
-2.960493559990456
 10
0.1484821073367786
 20
-2.959158366141789
 10
0.1423206268994666
 20
-2.955703601351842
 10
0.1360668687665086
 20
-2.952197084568145
 10
0.1318277553587626
 20
-2.945120338129855
 10
0.1265579106448437
 20
-2.939447382528442
 10
0.1248515873256161
 20
-2.931233067905319
 10
0.1230914921519444
 20
-2.922759893237803
 10
0.121337525225057
 20
-2.91428550342362
 10
0.1305823828315877
 20
-2.897086615983046
 10
0.137220902851128
 20
-2.8795261975958
 10
0.1278884557049069
 20
-2.858974563018439
 10
0.1410751489089787
 20
-2.844506290043151
 10
0.1528228654307592
 20
-2.828445390021417
 10
0.1676658224975477
 20
-2.816083815014154
 10
0.1892638693676897
 20
-2.798096724034596
 10
0.2073812926633612
 20
-2.776880597874196
 10
0.2274597046273609
 20
-2.757533346118811
 10
0.2437461767764893
 20
-2.741839865157064
 10
0.2591494562213559
 20
-2.725174930398805
 10
0.2770942786329189
 20
-2.711334864733468
 10
0.2865894240130728
 20
-2.704011805365679
 10
0.2964494250339713
 20
-2.697049238281907
 10
0.3073666456487874
 20
-2.691680042722635
 10
0.3165430002568428
 20
-2.687167061496817
 10
0.3243524204267613
 20
-2.680789184714411
 10
0.3285947254890718
 20
-2.670184792873113
 10
0.3285901634082191
 20
-2.669845889360582
 10
0.3285519141538771
 20
-2.668679656136216
 10
0.3285625821720007
 20
-2.667513789698179
 10
0.3286154201226989
 20
-2.661708568323951
 10
0.3301637747568469
 20
-2.655392076444235
 10
0.3283772671221641
 20
-2.650224213058537
 10
0.3260011226162633
 20
-2.643350982571695
 10
0.3221458896245066
 20
-2.636206642220384
 10
0.3169413729491073
 20
-2.631253500684199
 10
0.3062239999488838
 20
-2.621053830982646
 10
0.3002480937988012
 20
-2.607971508344613
 10
0.2924192890312345
 20
-2.596004427561865
 10
0.2921089617183901
 20
-2.595530016679857
 10
0.291080102658485
 20
-2.595411029964023
 10
0.2909389518085339
 20
-2.594955476984144
 10
0.2866895947495701
 20
-2.581238431076017
 10
0.2796495947155916
 20
-2.567647176567611
 10
0.2789442812263713
 20
-2.553732382081534
 10
0.2776686562893423
 20
-2.528567441194025
 10
0.2756213970308559
 20
-2.502938214350933
 10
0.2851722901081453
 20
-2.478223325441402
 10
0.28855906884606
 20
-2.46945917132464
 10
0.2906852672554123
 20
-2.460236532126423
 10
0.2962508671988644
 20
-2.452467315706573
 10
0.3061510178173294
 20
-2.438647409519413
 10
0.3136641193430654
 20
-2.423206009387058
 10
0.3262918266758434
 20
-2.411211782906194
 10
0.3361851804372691
 20
-2.401814766827732
 10
0.3627277496694003
 20
-2.384197259128869
 10
0.3744804012408798
 20
-2.378089878536406
 10
0.3916902811538799
 20
-2.369146599148911
 10
0.4104266890094171
 20
-2.366057021528705
 10
0.4288818806271593
 20
-2.363924397295477
 10
0.4422710167756602
 20
-2.362377152433939
 10
0.4563410303678918
 20
-2.363206841409338
 10
0.4703517132915573
 20
-2.365484733321131
 10
0.4909856561773975
 20
-2.368839459972276
 10
0.5110156516012441
 20
-2.375077989781579
 10
0.5272561273450517
 20
-2.386285170780941
 10
0.5525096296488148
 20
-2.403711899677874
 10
0.5768239055759068
 20
-2.423262869802859
 10
0.5887575092529258
 20
-2.454110455201544
 10
0.5958421644017512
 20
-2.472423393421624
 10
0.6044955832701868
 20
-2.490039573184049
 10
0.6072592750395718
 20
-2.508751936546685
 10
0.6227858387149405
 20
-2.520138797351414
 10
0.6377220973489682
 20
-2.531092659103276
 10
0.6532642594619979
 20
-2.542490943929982
 10
0.6348974048283304
 20
-2.550888647116481
 10
0.6180259203049065
 20
-2.558602639389517
 10
0.6020145283564614
 20
-2.565923356027193
 10
0.6008388305638542
 20
-2.569851044637617
 10
0.5995630365151152
 20
-2.572552402151081
 10
0.5992817182135847
 20
-2.575352151033686
 10
0.5985057641562813
 20
-2.583075155309289
 10
0.5927225434515878
 20
-2.591567977918632
 10
0.6024943232395369
 20
-2.597971991639774
 10
0.6036409215773676
 20
-2.598723402597013
 10
0.6036667656614251
 20
-2.601286730520187
 10
0.6040647389927219
 20
-2.603043422597263
 10
0.6071150956577437
 20
-2.616506002282751
 10
0.6092562697562648
 20
-2.630022774615326
 10
0.6156388665010456
 20
-2.64277899025746
 10
0.6190852904167691
 20
-2.649667069059508
 10
0.6179312221982071
 20
-2.658849251866766
 10
0.6189033071491647
 20
-2.667442789011122
 10
0.6117178107548272
 20
-2.671294401462773
 10
0.6056197928825088
 20
-2.674563142912397
 10
0.5995390519131104
 20
-2.677822626500402
 10
0.595206227278292
 20
-2.674559358010835
 10
0.5917700249815426
 20
-2.671971411460592
 10
0.5872872949975974
 20
-2.668595243097191
 10
0.5868982811676915
 20
-2.660600377485555
 10
0.5822976950209219
 20
-2.652103777950211
 10
0.5850425181660563
 20
-2.64173507676724
 10
0.5871439877047225
 20
-2.633796311428821
 10
0.5848055019015798
 20
-2.624692544821376
 10
0.584328373314861
 20
-2.613429115891272
 10
0.5743842446382183
 20
-2.624372488363986
 10
0.5666895605407313
 20
-2.633049378144101
 10
0.5587649985445625
 20
-2.641512088192358
 10
0.5468941093106423
 20
-2.65418912951956
 10
0.5468254865759895
 20
-2.654125175062265
 10
0.540529749783218
 20
-2.68140227593714
 10
0.5486116891984996
 20
-2.695660532485842
 10
0.5609336429955267
 20
-2.705519890211613
 10
0.5743000147065863
 20
-2.714490229071568
 10
0.5855632301886418
 20
-2.722049119686314
 10
0.5937913290990133
 20
-2.732866182021527
 10
0.6031467649718631
 20
-2.742500318842429
 10
0.620996680252612
 20
-2.760882124667482
 10
0.6331255772045097
 20
-2.782969776334109
 10
0.6455337755102164
 20
-2.804941273719805
 10
0.6458165577526213
 20
-2.805441971029191
 10
0.6461900726043394
 20
-2.805930993883041
 10
0.6463186582270357
 20
-2.806473497920175
 10
0.651626944340377
 20
-2.828881301394151
 10
0.6630330785768087
 20
-2.850037639551096
 10
0.6634893353614946
 20
-2.873240456674844
 10
0.6637987643756055
 20
-2.888974834617707
 10
0.6665628449785192
 20
-2.904611247164287
 10
0.6648720415103577
 20
-2.920494970488587
 10
0.6626762162438934
 20
-2.941123219057948
 10
0.6577012523393174
 20
-2.9611197633599
 10
0.6518870085774703
 20
-2.980846324692543
 10
0.6484333609705825
 20
-2.992564096295886
 10
0.6431966102276698
 20
-3.004028326213933
 10
0.6370911043661005
 20
-3.014652597573507
 10
0.6197121853850073
 20
-3.044894017982616
 10
0.5982372775572963
 20
-3.071859590205324
 10
0.5700590560653988
 20
-3.093048632462467
 10
0.5542869107852716
 20
-3.104908596761838
 10
0.538277920501135
 20
-3.116275386279463
 10
0.5189222487566036
 20
-3.121738296162094
 10
0.5085750688432174
 20
-3.13196947570317
 10
0.4928446067204833
 20
-3.128185544876057
 10
0.4811328758230123
 20
-3.136482322275469
 10
0.4760162626351985
 20
-3.140107102053686
 10
0.4668496666365501
 20
-3.143529144083635
 10
0.4584311142221446
 20
-3.138397106889164
 10
0.4561159611888697
 20
-3.136985732078376
 10
0.451296551248965
 20
-3.13937783599676
 10
0.4477162969327916
 20
-3.140354322787086
 10
0.4273043967383375
 20
-3.145921407103969
 10
0.4063473033470599
 20
-3.143381797821221
 10
0.3864526364686627
 20
-3.140386405126137
 10
0.35146912546035
 20
-3.135118970044029
 10
0.3181977176015178
 20
-3.122888023579459
 10
0.2888520152187337
 20
-3.102291647513917
 10
0.2632933633079422
 20
-3.084353162118809
 10
0.2346057557926492
 20
-3.056450177627816
 10
0.2154380358074882
 20
-3.021561332786126
 10
0.2063179328463573
 20
-3.004961197441111
 10
0.1977894320294429
 20
-2.988628291417095
 10
0.1935035789701816
 20
-2.970081399521834
 10
0.1921111689748234
 20
-2.964056001439201
 10
0.188154536188007
 20
-2.958622840459484
 10
0.1853479627642274
 20
-2.952872052945344
 97
        0
 97
        1
330
95
 75
     2
 76
     1
 98
        1
 10
0.0
 20
0.0
450
        0
451
        0
460
0.0
461
0.0
452
        0
462
0.0
453
        0
470

  0
SPLINE
  5
97
330
90
100
AcDbEntity
  8
Layer 7
100
AcDbSpline
210
0.0
220
0.0
230
1.0
 70
     9
 71
     3
 72
   149
 73
   145
 74
     0
 42
0.0000000001
 43
0.0000000001
 40
0.0
 40
0.0
 40
0.0
 40
0.0
 40
1.0
 40
1.0
 40
1.0
 40
2.0
 40
2.0
 40
2.0
 40
3.0
 40
3.0
 40
3.0
 40
4.0
 40
4.0
 40
4.0
 40
5.0
 40
5.0
 40
5.0
 40
6.0
 40
6.0
 40
6.0
 40
7.0
 40
7.0
 40
7.0
 40
8.0
 40
8.0
 40
8.0
 40
9.0
 40
9.0
 40
9.0
 40
10.0
 40
10.0
 40
10.0
 40
11.0
 40
11.0
 40
11.0
 40
12.0
 40
12.0
 40
12.0
 40
13.0
 40
13.0
 40
13.0
 40
14.0
 40
14.0
 40
14.0
 40
15.0
 40
15.0
 40
15.0
 40
16.0
 40
16.0
 40
16.0
 40
17.0
 40
17.0
 40
17.0
 40
18.0
 40
18.0
 40
18.0
 40
19.0
 40
19.0
 40
19.0
 40
20.0
 40
20.0
 40
20.0
 40
21.0
 40
21.0
 40
21.0
 40
22.0
 40
22.0
 40
22.0
 40
23.0
 40
23.0
 40
23.0
 40
24.0
 40
24.0
 40
24.0
 40
25.0
 40
25.0
 40
25.0
 40
26.0
 40
26.0
 40
26.0
 40
27.0
 40
27.0
 40
27.0
 40
28.0
 40
28.0
 40
28.0
 40
29.0
 40
29.0
 40
29.0
 40
30.0
 40
30.0
 40
30.0
 40
31.0
 40
31.0
 40
31.0
 40
32.0
 40
32.0
 40
32.0
 40
33.0
 40
33.0
 40
33.0
 40
34.0
 40
34.0
 40
34.0
 40
35.0
 40
35.0
 40
35.0
 40
36.0
 40
36.0
 40
36.0
 40
37.0
 40
37.0
 40
37.0
 40
38.0
 40
38.0
 40
38.0
 40
39.0
 40
39.0
 40
39.0
 40
40.0
 40
40.0
 40
40.0
 40
41.0
 40
41.0
 40
41.0
 40
42.0
 40
42.0
 40
42.0
 40
43.0
 40
43.0
 40
43.0
 40
44.0
 40
44.0
 40
44.0
 40
45.0
 40
45.0
 40
45.0
 40
46.0
 40
46.0
 40
46.0
 40
47.0
 40
47.0
 40
47.0
 40
48.0
 40
48.0
 40
48.0
 40
48.0
 10
-0.1152220224316301
 20
-3.019925011715637
 30
0.0
 10
-0.1168761483353869
 20
-3.011961977735684
 30
0.0
 10
-0.118892326167712
 20
-3.002256010038738
 30
0.0
 10
-0.120652154508889
 20
-2.993784119931786
 30
0.0
 10
-0.1195785998017729
 20
-2.989939044296963
 30
0.0
 10
-0.1188080666001825
 20
-2.987179328357822
 30
0.0
 10
-0.1184042569754335
 20
-2.985733059018836
 30
0.0
 10
-0.1191773728568377
 20
-2.983023922391086
 30
0.0
 10
-0.1191294631902211
 20
-2.981407435177642
 30
0.0
 10
-0.1198963319069435
 20
-2.980767758303222
 30
0.0
 10
-0.1353846517600661
 20
-2.96784884375476
 30
0.0
 10
-0.1341576232805311
 20
-2.950260537110681
 30
0.0
 10
-0.1318796758343726
 20
-2.933276627304647
 30
0.0
 10
-0.1309935239317939
 20
-2.926669484601335
 30
0.0
 10
-0.1310163800414885
 20
-2.922247095784389
 30
0.0
 10
-0.1350359657968486
 20
-2.916872636540751
 30
0.0
 10
-0.1377388505733026
 20
-2.913258704443023
 30
0.0
 10
-0.1383192239993225
 20
-2.907931394036874
 30
0.0
 10
-0.1394131458573737
 20
-2.903268372795966
 30
0.0
 10
-0.1412529460437528
 20
-2.895425986654951
 30
0.0
 10
-0.1427458852988492
 20
-2.887502267657989
 30
0.0
 10
-0.1442750071836119
 20
-2.880141008457358
 30
0.0
 10
-0.1410074176115535
 20
-2.871542160461988
 30
0.0
 10
-0.1378973778405326
 20
-2.863357893320855
 30
0.0
 10
-0.1347695002065923
 20
-2.855126648296971
 30
0.0
 10
-0.153636586969987
 20
-2.833786922930433
 30
0.0
 10
-0.1546786864099785
 20
-2.797927758204751
 30
0.0
 10
-0.1305881875319351
 20
-2.767409706641981
 30
0.0
 10
-0.1409872573993754
 20
-2.750867553671847
 30
0.0
 10
-0.1400071640261633
 20
-2.732960753293481
 30
0.0
 10
-0.1367454301339421
 20
-2.714887603804552
 30
0.0
 10
-0.1333322701136063
 20
-2.695975613230858
 30
0.0
 10
-0.1226877474452471
 20
-2.681148102862683
 30
0.0
 10
-0.1092949869841075
 20
-2.669028272300515
 30
0.0
 10
-0.1116085443444364
 20
-2.642508295121413
 30
0.0
 10
-0.1105183611727069
 20
-2.618050134026437
 30
0.0
 10
-0.0965588742606593
 20
-2.595069021080209
 30
0.0
 10
-0.0828874578813712
 20
-2.572562142869603
 30
0.0
 10
-0.0631811048150944
 20
-2.55926759581156
 30
0.0
 10
-0.0394421844677279
 20
-2.55118227849165
 30
0.0
 10
-0.0273316928000895
 20
-2.513526940444712
 30
0.0
 10
-0.0058825437948068
 20
-2.486688962635652
 30
0.0
 10
0.0369986463765094
 20
-2.483167824676987
 30
0.0
 10
0.0430251098899943
 20
-2.473979240241962
 30
0.0
 10
0.0478625318879722
 20
-2.463497734934536
 30
0.0
 10
0.0555206614007931
 20
-2.455835424786553
 30
0.0
 10
0.0626172140299559
 20
-2.448734993848903
 30
0.0
 10
0.0721835633807662
 20
-2.443195470720006
 30
0.0
 10
0.081663736269939
 20
-2.439634626653742
 30
0.0
 10
0.0915772128233812
 20
-2.435910976755546
 30
0.0
 10
0.1024915358088063
 20
-2.433195724993639
 30
0.0
 10
0.1123425207200247
 20
-2.43692415620007
 30
0.0
 10
0.121019042596092
 20
-2.428165301822622
 30
0.0
 10
0.1288289430113991
 20
-2.420281263185567
 30
0.0
 10
0.1367574764626624
 20
-2.41227748053681
 30
0.0
 10
0.1499727918321191
 20
-2.411695134428125
 30
0.0
 10
0.1623183171941112
 20
-2.403536681414177
 30
0.0
 10
0.1761996925095369
 20
-2.408204839789782
 30
0.0
 10
0.1819789103431427
 20
-2.40354379532707
 30
0.0
 10
0.1878023392945351
 20
-2.398847058325852
 30
0.0
 10
0.1952388138791119
 20
-2.392849391982988
 30
0.0
 10
0.2068330257198517
 20
-2.39170376891396
 30
0.0
 10
0.2197503710688882
 20
-2.384514553459388
 30
0.0
 10
0.2351079871613516
 20
-2.38881963348308
 30
0.0
 10
0.2437115022345324
 20
-2.38159700774362
 30
0.0
 10
0.2534103054511357
 20
-2.373146635564883
 30
0.0
 10
0.2658797574189167
 20
-2.374884140114595
 30
0.0
 10
0.2753748731881715
 20
-2.376207156987801
 30
0.0
 10
0.2866934678716385
 20
-2.37525015582254
 30
0.0
 10
0.293794827389143
 20
-2.383558348645465
 30
0.0
 10
0.3001034616007701
 20
-2.390939102170527
 30
0.0
 10
0.308556201398081
 20
-2.397414685267524
 30
0.0
 10
0.3089540125877066
 20
-2.410471025732653
 30
0.0
 10
0.3042805374062962
 20
-2.417241907567661
 30
0.0
 10
0.298884333188337
 20
-2.425516083503957
 30
0.0
 10
0.293031522236068
 20
-2.433453572443315
 30
0.0
 10
0.2757338399820179
 20
-2.456912302521004
 30
0.0
 10
0.2697105533132521
 20
-2.484214235692812
 30
0.0
 10
0.2659299788367914
 20
-2.512261031128092
 30
0.0
 10
0.2623925916388872
 20
-2.538503758897276
 30
0.0
 10
0.2667242831408758
 20
-2.564405992322892
 30
0.0
 10
0.2749377088237629
 20
-2.588806310868449
 30
0.0
 10
0.2803140435254616
 20
-2.604778144554453
 30
0.0
 10
0.2894905942795654
 20
-2.620106084271381
 30
0.0
 10
0.2991075138744337
 20
-2.63446303160443
 30
0.0
 10
0.3026073000319608
 20
-2.639687919728329
 30
0.0
 10
0.3083463743062111
 20
-2.643412822747475
 30
0.0
 10
0.3130326120062566
 20
-2.64779298028212
 30
0.0
 10
0.3142990082939403
 20
-2.653889467041683
 30
0.0
 10
0.3155582892170261
 20
-2.659951700126864
 30
0.0
 10
0.3168135042174577
 20
-2.665994359683812
 30
0.0
 10
0.312889966303083
 20
-2.671199971711783
 30
0.0
 10
0.3093259213251636
 20
-2.675554033029761
 30
0.0
 10
0.3027446138876636
 20
-2.67909735139829
 30
0.0
 10
0.2862152110150697
 20
-2.687996549967642
 30
0.0
 10
0.2704650127938824
 20
-2.698995427092717
 30
0.0
 10
0.2561694142536908
 20
-2.711218981503482
 30
0.0
 10
0.2398280786385638
 20
-2.725191533606574
 30
0.0
 10
0.2252104735479684
 20
-2.74121663758486
 30
0.0
 10
0.2101764066348247
 20
-2.756673305196449
 30
0.0
 10
0.1836564799122016
 20
-2.783938496137301
 30
0.0
 10
0.1579317942703634
 20
-2.812010038241144
 30
0.0
 10
0.1306170504553721
 20
-2.838444949465282
 30
0.0
 10
0.1241364179629853
 20
-2.844716783132525
 30
0.0
 10
0.1210773589107879
 20
-2.851393382512393
 30
0.0
 10
0.118016206523445
 20
-2.858835922377566
 30
0.0
 10
0.1169556865333258
 20
-2.861414338862005
 30
0.0
 10
0.1168719823143268
 20
-2.864394558634027
 30
0.0
 10
0.1159368914989929
 20
-2.869330446260467
 30
0.0
 10
0.1169856223150671
 20
-2.874379081981133
 30
0.0
 10
0.118489944382001
 20
-2.881620953780965
 30
0.0
 10
0.1199596136992416
 20
-2.888696005738059
 30
0.0
 10
0.0929949637465421
 20
-2.935524346883817
 30
0.0
 10
0.1242491204806381
 20
-2.974948012112058
 30
0.0
 10
0.1679073595050795
 20
-2.97454686263389
 30
0.0
 10
0.1675673145284817
 20
-2.975065073243386
 30
0.0
 10
0.1672974707369627
 20
-2.975970103033912
 30
0.0
 10
0.1668772858449883
 20
-2.976046249028235
 30
0.0
 10
0.1429179526863511
 20
-2.980391007783383
 30
0.0
 10
0.120910295270101
 20
-2.991756112153754
 30
0.0
 10
0.096615283066045
 20
-2.995208975984471
 30
0.0
 10
0.0880111278778612
 20
-2.996431764433029
 30
0.0
 10
0.0800087667124419
 20
-3.00141768940221
 30
0.0
 10
0.0714834139592111
 20
-3.003795714466958
 30
0.0
 10
0.0625477948258953
 20
-3.006288139391749
 30
0.0
 10
0.0521483316606085
 20
-3.00566837673581
 30
0.0
 10
0.044466162766096
 20
-3.010050711698138
 30
0.0
 10
0.0306786520460491
 20
-3.017915894788453
 30
0.0
 10
0.014761085450055
 20
-3.016783352792193
 30
0.0
 10
0.0011302671866184
 20
-3.022774759281901
 30
0.0
 10
-0.0158553550033579
 20
-3.030240731298236
 30
0.0
 10
-0.0337107045686733
 20
-3.032988816280193
 30
0.0
 10
-0.0513772482891884
 20
-3.037132402731029
 30
0.0
 10
-0.0535778959154969
 20
-3.037648583693706
 30
0.0
 10
-0.0556042474659585
 20
-3.039004392026703
 30
0.0
 10
-0.0576423085354286
 20
-3.040099633362918
 30
0.0
 10
-0.0645112762331716
 20
-3.043790701283114
 30
0.0
 10
-0.0822950423271575
 20
-3.044747597731682
 30
0.0
 10
-0.089531369591201
 20
-3.041434642969129
 30
0.0
 10
-0.0947398495398299
 20
-3.039049962841772
 30
0.0
 10
-0.1002685966356138
 20
-3.036852578960583
 30
0.0
 10
-0.1046485947205787
 20
-3.033323330772645
 30
0.0
 10
-0.1085648665533148
 20
-3.03016783568594
 30
0.0
 10
-0.1111042634909533
 20
-3.025303440411612
 30
0.0
 10
-0.1152220224316301
 20
-3.019925011715637
 30
0.0
  0
HATCH
  5
98
330
90
100
AcDbEntity
  8
Layer 7
 62
    33
420
 13016173
440
 33554687
100
AcDbHatch
 10
0.0
 20
0.0
 30
0.0
210
0.0
220
0.0
230
1.0
  2
SOLID
 70
     1
 71
     1
 91
        1
 92
        1
 93
        1
 72
     4
 94
        3
 73
     0
 74
     0
 95
      149
 96
      145
 40
0.0
 40
0.0
 40
0.0
 40
0.0
 40
1.0
 40
1.0
 40
1.0
 40
2.0
 40
2.0
 40
2.0
 40
3.0
 40
3.0
 40
3.0
 40
4.0
 40
4.0
 40
4.0
 40
5.0
 40
5.0
 40
5.0
 40
6.0
 40
6.0
 40
6.0
 40
7.0
 40
7.0
 40
7.0
 40
8.0
 40
8.0
 40
8.0
 40
9.0
 40
9.0
 40
9.0
 40
10.0
 40
10.0
 40
10.0
 40
11.0
 40
11.0
 40
11.0
 40
12.0
 40
12.0
 40
12.0
 40
13.0
 40
13.0
 40
13.0
 40
14.0
 40
14.0
 40
14.0
 40
15.0
 40
15.0
 40
15.0
 40
16.0
 40
16.0
 40
16.0
 40
17.0
 40
17.0
 40
17.0
 40
18.0
 40
18.0
 40
18.0
 40
19.0
 40
19.0
 40
19.0
 40
20.0
 40
20.0
 40
20.0
 40
21.0
 40
21.0
 40
21.0
 40
22.0
 40
22.0
 40
22.0
 40
23.0
 40
23.0
 40
23.0
 40
24.0
 40
24.0
 40
24.0
 40
25.0
 40
25.0
 40
25.0
 40
26.0
 40
26.0
 40
26.0
 40
27.0
 40
27.0
 40
27.0
 40
28.0
 40
28.0
 40
28.0
 40
29.0
 40
29.0
 40
29.0
 40
30.0
 40
30.0
 40
30.0
 40
31.0
 40
31.0
 40
31.0
 40
32.0
 40
32.0
 40
32.0
 40
33.0
 40
33.0
 40
33.0
 40
34.0
 40
34.0
 40
34.0
 40
35.0
 40
35.0
 40
35.0
 40
36.0
 40
36.0
 40
36.0
 40
37.0
 40
37.0
 40
37.0
 40
38.0
 40
38.0
 40
38.0
 40
39.0
 40
39.0
 40
39.0
 40
40.0
 40
40.0
 40
40.0
 40
41.0
 40
41.0
 40
41.0
 40
42.0
 40
42.0
 40
42.0
 40
43.0
 40
43.0
 40
43.0
 40
44.0
 40
44.0
 40
44.0
 40
45.0
 40
45.0
 40
45.0
 40
46.0
 40
46.0
 40
46.0
 40
47.0
 40
47.0
 40
47.0
 40
48.0
 40
48.0
 40
48.0
 40
48.0
 10
-0.1152220224316301
 20
-3.019925011715637
 10
-0.1168761483353869
 20
-3.011961977735684
 10
-0.118892326167712
 20
-3.002256010038738
 10
-0.120652154508889
 20
-2.993784119931786
 10
-0.1195785998017729
 20
-2.989939044296963
 10
-0.1188080666001825
 20
-2.987179328357822
 10
-0.1184042569754335
 20
-2.985733059018836
 10
-0.1191773728568377
 20
-2.983023922391086
 10
-0.1191294631902211
 20
-2.981407435177642
 10
-0.1198963319069435
 20
-2.980767758303222
 10
-0.1353846517600661
 20
-2.96784884375476
 10
-0.1341576232805311
 20
-2.950260537110681
 10
-0.1318796758343726
 20
-2.933276627304647
 10
-0.1309935239317939
 20
-2.926669484601335
 10
-0.1310163800414885
 20
-2.922247095784389
 10
-0.1350359657968486
 20
-2.916872636540751
 10
-0.1377388505733026
 20
-2.913258704443023
 10
-0.1383192239993225
 20
-2.907931394036874
 10
-0.1394131458573737
 20
-2.903268372795966
 10
-0.1412529460437528
 20
-2.895425986654951
 10
-0.1427458852988492
 20
-2.887502267657989
 10
-0.1442750071836119
 20
-2.880141008457358
 10
-0.1410074176115535
 20
-2.871542160461988
 10
-0.1378973778405326
 20
-2.863357893320855
 10
-0.1347695002065923
 20
-2.855126648296971
 10
-0.153636586969987
 20
-2.833786922930433
 10
-0.1546786864099785
 20
-2.797927758204751
 10
-0.1305881875319351
 20
-2.767409706641981
 10
-0.1409872573993754
 20
-2.750867553671847
 10
-0.1400071640261633
 20
-2.732960753293481
 10
-0.1367454301339421
 20
-2.714887603804552
 10
-0.1333322701136063
 20
-2.695975613230858
 10
-0.1226877474452471
 20
-2.681148102862683
 10
-0.1092949869841075
 20
-2.669028272300515
 10
-0.1116085443444364
 20
-2.642508295121413
 10
-0.1105183611727069
 20
-2.618050134026437
 10
-0.0965588742606593
 20
-2.595069021080209
 10
-0.0828874578813712
 20
-2.572562142869603
 10
-0.0631811048150944
 20
-2.55926759581156
 10
-0.0394421844677279
 20
-2.55118227849165
 10
-0.0273316928000895
 20
-2.513526940444712
 10
-0.0058825437948068
 20
-2.486688962635652
 10
0.0369986463765094
 20
-2.483167824676987
 10
0.0430251098899943
 20
-2.473979240241962
 10
0.0478625318879722
 20
-2.463497734934536
 10
0.0555206614007931
 20
-2.455835424786553
 10
0.0626172140299559
 20
-2.448734993848903
 10
0.0721835633807662
 20
-2.443195470720006
 10
0.081663736269939
 20
-2.439634626653742
 10
0.0915772128233812
 20
-2.435910976755546
 10
0.1024915358088063
 20
-2.433195724993639
 10
0.1123425207200247
 20
-2.43692415620007
 10
0.121019042596092
 20
-2.428165301822622
 10
0.1288289430113991
 20
-2.420281263185567
 10
0.1367574764626624
 20
-2.41227748053681
 10
0.1499727918321191
 20
-2.411695134428125
 10
0.1623183171941112
 20
-2.403536681414177
 10
0.1761996925095369
 20
-2.408204839789782
 10
0.1819789103431427
 20
-2.40354379532707
 10
0.1878023392945351
 20
-2.398847058325852
 10
0.1952388138791119
 20
-2.392849391982988
 10
0.2068330257198517
 20
-2.39170376891396
 10
0.2197503710688882
 20
-2.384514553459388
 10
0.2351079871613516
 20
-2.38881963348308
 10
0.2437115022345324
 20
-2.38159700774362
 10
0.2534103054511357
 20
-2.373146635564883
 10
0.2658797574189167
 20
-2.374884140114595
 10
0.2753748731881715
 20
-2.376207156987801
 10
0.2866934678716385
 20
-2.37525015582254
 10
0.293794827389143
 20
-2.383558348645465
 10
0.3001034616007701
 20
-2.390939102170527
 10
0.308556201398081
 20
-2.397414685267524
 10
0.3089540125877066
 20
-2.410471025732653
 10
0.3042805374062962
 20
-2.417241907567661
 10
0.298884333188337
 20
-2.425516083503957
 10
0.293031522236068
 20
-2.433453572443315
 10
0.2757338399820179
 20
-2.456912302521004
 10
0.2697105533132521
 20
-2.484214235692812
 10
0.2659299788367914
 20
-2.512261031128092
 10
0.2623925916388872
 20
-2.538503758897276
 10
0.2667242831408758
 20
-2.564405992322892
 10
0.2749377088237629
 20
-2.588806310868449
 10
0.2803140435254616
 20
-2.604778144554453
 10
0.2894905942795654
 20
-2.620106084271381
 10
0.2991075138744337
 20
-2.63446303160443
 10
0.3026073000319608
 20
-2.639687919728329
 10
0.3083463743062111
 20
-2.643412822747475
 10
0.3130326120062566
 20
-2.64779298028212
 10
0.3142990082939403
 20
-2.653889467041683
 10
0.3155582892170261
 20
-2.659951700126864
 10
0.3168135042174577
 20
-2.665994359683812
 10
0.312889966303083
 20
-2.671199971711783
 10
0.3093259213251636
 20
-2.675554033029761
 10
0.3027446138876636
 20
-2.67909735139829
 10
0.2862152110150697
 20
-2.687996549967642
 10
0.2704650127938824
 20
-2.698995427092717
 10
0.2561694142536908
 20
-2.711218981503482
 10
0.2398280786385638
 20
-2.725191533606574
 10
0.2252104735479684
 20
-2.74121663758486
 10
0.2101764066348247
 20
-2.756673305196449
 10
0.1836564799122016
 20
-2.783938496137301
 10
0.1579317942703634
 20
-2.812010038241144
 10
0.1306170504553721
 20
-2.838444949465282
 10
0.1241364179629853
 20
-2.844716783132525
 10
0.1210773589107879
 20
-2.851393382512393
 10
0.118016206523445
 20
-2.858835922377566
 10
0.1169556865333258
 20
-2.861414338862005
 10
0.1168719823143268
 20
-2.864394558634027
 10
0.1159368914989929
 20
-2.869330446260467
 10
0.1169856223150671
 20
-2.874379081981133
 10
0.118489944382001
 20
-2.881620953780965
 10
0.1199596136992416
 20
-2.888696005738059
 10
0.0929949637465421
 20
-2.935524346883817
 10
0.1242491204806381
 20
-2.974948012112058
 10
0.1679073595050795
 20
-2.97454686263389
 10
0.1675673145284817
 20
-2.975065073243386
 10
0.1672974707369627
 20
-2.975970103033912
 10
0.1668772858449883
 20
-2.976046249028235
 10
0.1429179526863511
 20
-2.980391007783383
 10
0.120910295270101
 20
-2.991756112153754
 10
0.096615283066045
 20
-2.995208975984471
 10
0.0880111278778612
 20
-2.996431764433029
 10
0.0800087667124419
 20
-3.00141768940221
 10
0.0714834139592111
 20
-3.003795714466958
 10
0.0625477948258953
 20
-3.006288139391749
 10
0.0521483316606085
 20
-3.00566837673581
 10
0.044466162766096
 20
-3.010050711698138
 10
0.0306786520460491
 20
-3.017915894788453
 10
0.014761085450055
 20
-3.016783352792193
 10
0.0011302671866184
 20
-3.022774759281901
 10
-0.0158553550033579
 20
-3.030240731298236
 10
-0.0337107045686733
 20
-3.032988816280193
 10
-0.0513772482891884
 20
-3.037132402731029
 10
-0.0535778959154969
 20
-3.037648583693706
 10
-0.0556042474659585
 20
-3.039004392026703
 10
-0.0576423085354286
 20
-3.040099633362918
 10
-0.0645112762331716
 20
-3.043790701283114
 10
-0.0822950423271575
 20
-3.044747597731682
 10
-0.089531369591201
 20
-3.041434642969129
 10
-0.0947398495398299
 20
-3.039049962841772
 10
-0.1002685966356138
 20
-3.036852578960583
 10
-0.1046485947205787
 20
-3.033323330772645
 10
-0.1085648665533148
 20
-3.03016783568594
 10
-0.1111042634909533
 20
-3.025303440411612
 10
-0.1152220224316301
 20
-3.019925011715637
 97
        0
 97
        1
330
97
 75
     2
 76
     1
 98
        1
 10
0.0
 20
0.0
450
        0
451
        0
460
0.0
461
0.0
452
        0
462
0.0
453
        0
470

  0
ENDBLK
  5
93
330
90
100
AcDbEntity
  8
0
100
AcDbBlockEnd
  0
BLOCK
  5
9B
330
99
100
AcDbEntity
  8
0
100
AcDbBlockBegin
  2
Block_3
 70
     0
 10
0.0
 20
0.0
 30
0.0
  3
Block_3
  1

  0
SPLINE
  5
9D
330
99
100
AcDbEntity
  8
Layer 7
100
AcDbSpline
210
0.0
220
0.0
230
1.0
 70
     9
 71
     3
 72
    86
 73
    82
 74
     0
 42
0.0000000001
 43
0.0000000001
 40
0.0
 40
0.0
 40
0.0
 40
0.0
 40
1.0
 40
1.0
 40
1.0
 40
2.0
 40
2.0
 40
2.0
 40
3.0
 40
3.0
 40
3.0
 40
4.0
 40
4.0
 40
4.0
 40
5.0
 40
5.0
 40
5.0
 40
6.0
 40
6.0
 40
6.0
 40
7.0
 40
7.0
 40
7.0
 40
8.0
 40
8.0
 40
8.0
 40
9.0
 40
9.0
 40
9.0
 40
10.0
 40
10.0
 40
10.0
 40
11.0
 40
11.0
 40
11.0
 40
12.0
 40
12.0
 40
12.0
 40
13.0
 40
13.0
 40
13.0
 40
14.0
 40
14.0
 40
14.0
 40
15.0
 40
15.0
 40
15.0
 40
16.0
 40
16.0
 40
16.0
 40
17.0
 40
17.0
 40
17.0
 40
18.0
 40
18.0
 40
18.0
 40
19.0
 40
19.0
 40
19.0
 40
20.0
 40
20.0
 40
20.0
 40
21.0
 40
21.0
 40
21.0
 40
22.0
 40
22.0
 40
22.0
 40
23.0
 40
23.0
 40
23.0
 40
24.0
 40
24.0
 40
24.0
 40
25.0
 40
25.0
 40
25.0
 40
26.0
 40
26.0
 40
26.0
 40
27.0
 40
27.0
 40
27.0
 40
27.0
 10
0.7834992857599446
 20
-2.936463976372604
 30
0.0
 10
0.7821972024266112
 20
-2.935216146511493
 30
0.0
 10
0.7811121329821668
 20
-2.933317274983714
 30
0.0
 10
0.780250859110639
 20
-2.930780925157326
 30
0.0
 10
0.7793828035550834
 20
-2.928258138698993
 30
0.0
 10
0.7786775084161946
 20
-2.925097873942048
 30
0.0
 10
0.7781349736939723
 20
-2.921313694254548
 30
0.0
 10
0.77759243897175
 20
-2.917529514567048
 30
0.0
 10
0.777165192878
 20
-2.913975912136493
 30
0.0
 10
0.7768396720446668
 20
-2.910652886962882
 30
0.0
 10
0.7765141512113334
 20
-2.907343425157326
 30
0.0
 10
0.7762971373224446
 20
-2.903315104844826
 30
0.0
 10
0.776188630378
 20
-2.898581489393437
 30
0.0
 10
0.7760801234335557
 20
-2.893847873942048
 30
0.0
 10
0.7760258699613334
 20
-2.890226454671214
 30
0.0
 10
0.7760258699613334
 20
-2.887690104844826
 30
0.0
 10
0.7760258699613334
 20
-2.885167318386493
 30
0.0
 10
0.7760258699613334
 20
-2.88169509616427
 30
0.0
 10
0.7760258699613334
 20
-2.877273438178159
 30
0.0
 10
0.7760258699613334
 20
-2.872851780192048
 30
0.0
 10
0.7760258699613334
 20
-2.870491754150382
 30
0.0
 10
0.7760258699613334
 20
-2.870166233317048
 30
0.0
 10
0.7753748282946668
 20
-2.843961806233714
 30
0.0
 10
0.775212067878
 20
-2.813742622205937
 30
0.0
 10
0.7755375887113334
 20
-2.779481554497604
 30
0.0
 10
0.7758631095446668
 20
-2.745234050157326
 30
0.0
 10
0.7774296785550834
 20
-2.715638781060104
 30
0.0
 10
0.780250859110639
 20
-2.690695747205937
 30
0.0
 10
0.7815461607599446
 20
-2.681214952935104
 30
0.0
 10
0.7826854836766112
 20
-2.674039931233715
 30
0.0
 10
0.7836620461766112
 20
-2.669143555365659
 30
0.0
 10
0.7846318269925834
 20
-2.664247179497604
 30
0.0
 10
0.7868494376696668
 20
-2.658957465955937
 30
0.0
 10
0.790321659891889
 20
-2.653274414740659
 30
0.0
 10
0.7937803187460557
 20
-2.647591363525382
 30
0.0
 10
0.7983308287286946
 20
-2.643495226372604
 30
0.0
 10
0.80395962647175
 20
-2.64097243991427
 30
0.0
 10
0.8412046351523056
 20
-2.632441081407326
 30
0.0
 10
0.8700064472182777
 20
-2.63450271335177
 30
0.0
 10
0.890358280985639
 20
-2.647116645643437
 30
0.0
 10
0.9005375887113334
 20
-2.654074653455937
 30
0.0
 10
0.9062748933988334
 20
-2.672059679497604
 30
0.0
 10
0.9075769767321666
 20
-2.701112413872604
 30
0.0
 10
0.9080042228259166
 20
-2.71531326022677
 30
0.0
 10
0.9067631746488334
 20
-2.72849685397677
 30
0.0
 10
0.9038402688328611
 20
-2.740649631754548
 30
0.0
 10
0.900917363016889
 20
-2.752802409532326
 30
0.0
 10
0.897072148173139
 20
-2.759828234185104
 30
0.0
 10
0.892311405985639
 20
-2.761727105712882
 30
0.0
 10
0.88342739990925
 20
-2.765511285400382
 30
0.0
 10
0.8704336933120277
 20
-2.765986003282326
 30
0.0
 10
0.8533302861939722
 20
-2.763151259358715
 30
0.0
 10
0.8533302861939722
 20
-2.763151259358715
 30
0.0
 10
0.8526860262113334
 20
-2.792977105712882
 30
0.0
 10
0.8526860262113334
 20
-2.792977105712882
 30
0.0
 10
0.8641606355863334
 20
-2.792027669948993
 30
0.0
 10
0.873634648173139
 20
-2.794875977240659
 30
0.0
 10
0.8811012822877222
 20
-2.801508464219826
 30
0.0
 10
0.8885746980863334
 20
-2.808127387830937
 30
0.0
 10
0.8919858851523056
 20
-2.819493490261493
 30
0.0
 10
0.891334843485639
 20
-2.835593208143437
 30
0.0
 10
0.8906838018189722
 20
-2.84666091647677
 30
0.0
 10
0.8888459654474445
 20
-2.855178711615659
 30
0.0
 10
0.8858145526870277
 20
-2.861173720296214
 30
0.0
 10
0.883644413798139
 20
-2.865283420817048
 30
0.0
 10
0.8810470288155
 20
-2.868036784532326
 30
0.0
 10
0.8780156160550834
 20
-2.869460938178159
 30
0.0
 10
0.8749842032946666
 20
-2.870885091823993
 30
0.0
 10
0.8701081724786945
 20
-2.871590386962882
 30
0.0
 10
0.8634010869752222
 20
-2.871590386962882
 30
0.0
 10
0.8634010869752222
 20
-2.871590386962882
 30
0.0
 10
0.854957890360639
 20
-2.871590386962882
 30
0.0
 10
0.854957890360639
 20
-2.871590386962882
 30
0.0
 10
0.8562531920099445
 20
-2.894960070122604
 30
0.0
 10
0.8552223760377222
 20
-2.913419814046214
 30
0.0
 10
0.851872224128
 20
-2.926996745469826
 30
0.0
 10
0.8485085088502222
 20
-2.940573676893437
 30
0.0
 10
0.841530155985639
 20
-2.948630317518437
 30
0.0
 10
0.8309236021661945
 20
-2.95115310397677
 30
0.0
 10
0.812294316141889
 20
-2.955249241129548
 30
0.0
 10
0.7964929923571668
 20
-2.950352865261493
 30
0.0
 10
0.7834992857599446
 20
-2.936463976372604
 30
0.0
  0
SPLINE
  5
9E
330
99
100
AcDbEntity
  8
Layer 7
100
AcDbSpline
210
0.0
220
0.0
230
1.0
 70
     9
 71
     3
 72
    98
 73
    94
 74
     0
 42
0.0000000001
 43
0.0000000001
 40
0.0
 40
0.0
 40
0.0
 40
0.0
 40
1.0
 40
1.0
 40
1.0
 40
2.0
 40
2.0
 40
2.0
 40
3.0
 40
3.0
 40
3.0
 40
4.0
 40
4.0
 40
4.0
 40
5.0
 40
5.0
 40
5.0
 40
6.0
 40
6.0
 40
6.0
 40
7.0
 40
7.0
 40
7.0
 40
8.0
 40
8.0
 40
8.0
 40
9.0
 40
9.0
 40
9.0
 40
10.0
 40
10.0
 40
10.0
 40
11.0
 40
11.0
 40
11.0
 40
12.0
 40
12.0
 40
12.0
 40
13.0
 40
13.0
 40
13.0
 40
14.0
 40
14.0
 40
14.0
 40
15.0
 40
15.0
 40
15.0
 40
16.0
 40
16.0
 40
16.0
 40
17.0
 40
17.0
 40
17.0
 40
18.0
 40
18.0
 40
18.0
 40
19.0
 40
19.0
 40
19.0
 40
20.0
 40
20.0
 40
20.0
 40
21.0
 40
21.0
 40
21.0
 40
22.0
 40
22.0
 40
22.0
 40
23.0
 40
23.0
 40
23.0
 40
24.0
 40
24.0
 40
24.0
 40
25.0
 40
25.0
 40
25.0
 40
26.0
 40
26.0
 40
26.0
 40
27.0
 40
27.0
 40
27.0
 40
28.0
 40
28.0
 40
28.0
 40
29.0
 40
29.0
 40
29.0
 40
30.0
 40
30.0
 40
30.0
 40
31.0
 40
31.0
 40
31.0
 40
31.0
 10
0.9390778990411945
 20
-2.895272027587882
 30
0.0
 10
0.9230527796835556
 20
-2.861173720296214
 30
0.0
 10
0.91504361084675
 20
-2.804980686442048
 30
0.0
 10
0.91504361084675
 20
-2.726679362657326
 30
0.0
 10
0.9152538430516111
 20
-2.697640191650382
 30
0.0
 10
0.9160676451349445
 20
-2.677430773247604
 30
0.0
 10
0.9174782354127222
 20
-2.666064670817048
 30
0.0
 10
0.9188820440064722
 20
-2.654698568386493
 30
0.0
 10
0.9216489710898056
 20
-2.645868815782326
 30
0.0
 10
0.925758671610639
 20
-2.639548286268437
 30
0.0
 10
0.9333405943536945
 20
-2.631654406060104
 30
0.0
 10
0.9434656486071666
 20
-2.627463325330937
 30
0.0
 10
0.9561338343710556
 20
-2.627002170817048
 30
0.0
 10
0.9688020201349445
 20
-2.626527452935104
 30
0.0
 10
0.9796798413155
 20
-2.629606337483715
 30
0.0
 10
0.98877407959675
 20
-2.636225261094826
 30
0.0
 10
0.9944028773398056
 20
-2.640023004150382
 30
0.0
 10
0.9984108526002222
 20
-2.645543294948993
 30
0.0
 10
1.000791223693972
 20
-2.652799696858715
 30
0.0
 10
1.003388608676611
 20
-2.659757704671215
 30
0.0
 10
1.003280101732166
 20
-2.675531901719826
 30
0.0
 10
1.000465702860638
 20
-2.700162978108715
 30
0.0
 10
0.996132206766889
 20
-2.757630968560104
 30
0.0
 10
0.9958066859335556
 20
-2.796462891303159
 30
0.0
 10
0.9994959220446666
 20
-2.816658746337882
 30
0.0
 10
1.000146963711333
 20
-2.821080404323993
 30
0.0
 10
1.001605025777305
 20
-2.824240669080937
 30
0.0
 10
1.003876889926611
 20
-2.826125977240659
 30
0.0
 10
1.006155535759944
 20
-2.828024848768437
 30
0.0
 10
1.008047625603694
 20
-2.827712891303159
 30
0.0
 10
1.009559941141888
 20
-2.82517654147677
 30
0.0
 10
1.010645010586333
 20
-2.820768446858714
 30
0.0
 10
1.011675826558555
 20
-2.816184028455937
 30
0.0
 10
1.012645607374527
 20
-2.811450413004548
 30
0.0
 10
1.013622169874527
 20
-2.806716797553159
 30
0.0
 10
1.014381718485638
 20
-2.802376519775382
 30
0.0
 10
1.014924253207861
 20
-2.798429579671215
 30
0.0
 10
1.015460006246055
 20
-2.794482639567048
 30
0.0
 10
1.015894034023833
 20
-2.789504883490659
 30
0.0
 10
1.016219554857166
 20
-2.783509874810104
 30
0.0
 10
1.0165450756905
 20
-2.777514866129548
 30
0.0
 10
1.016816343051611
 20
-2.772849067518437
 30
0.0
 10
1.0170333569405
 20
-2.769539605712882
 30
0.0
 10
1.017250370829388
 20
-2.76621658053927
 30
0.0
 10
1.017304624301611
 20
-2.761171007622604
 30
0.0
 10
1.017196117357166
 20
-2.754389323594826
 30
0.0
 10
1.017087610412722
 20
-2.747594076198993
 30
0.0
 10
1.0170333569405
 20
-2.742941840955937
 30
0.0
 10
1.0170333569405
 20
-2.740419054497604
 30
0.0
 10
1.0170333569405
 20
-2.73789626803927
 30
0.0
 10
1.016816343051611
 20
-2.732837131754548
 30
0.0
 10
1.016382315273833
 20
-2.725255209011493
 30
0.0
 10
1.015948287496055
 20
-2.717686849636493
 30
0.0
 10
1.015677020134944
 20
-2.713183811442048
 30
0.0
 10
1.015575294874527
 20
-2.711759657796215
 30
0.0
 10
1.015460006246055
 20
-2.710349067518437
 30
0.0
 10
1.015134485412722
 20
-2.705601888698993
 30
0.0
 10
1.014598732374527
 20
-2.697558811442048
 30
0.0
 10
1.014056197652305
 20
-2.689502170817048
 30
0.0
 10
1.013784930291194
 20
-2.685175456407326
 30
0.0
 10
1.013784930291194
 20
-2.684537978108715
 30
0.0
 10
1.012916874735638
 20
-2.670323568386493
 30
0.0
 10
1.013459409457861
 20
-2.659594944254548
 30
0.0
 10
1.015412534457861
 20
-2.65232497897677
 30
0.0
 10
1.017358877773833
 20
-2.645068577067048
 30
0.0
 10
1.021360071350222
 20
-2.63938552585177
 30
0.0
 10
1.027429678555083
 20
-2.635289388698993
 30
0.0
 10
1.03088833740925
 20
-2.633078559705937
 30
0.0
 10
1.037547951124527
 20
-2.631423828803159
 30
0.0
 10
1.047401738016888
 20
-2.630311632622604
 30
0.0
 10
1.05725552490925
 20
-2.629212999810104
 30
0.0
 10
1.065210440273833
 20
-2.629294380018437
 30
0.0
 10
1.071280047478694
 20
-2.630542209879548
 30
0.0
 10
1.085352041836308
 20
-2.633702474636493
 30
0.0
 10
1.093042471523808
 20
-2.642233833143437
 30
0.0
 10
1.094337773173113
 20
-2.656122722032326
 30
0.0
 10
1.095850088711308
 20
-2.668126302761493
 30
0.0
 10
1.096772397739085
 20
-2.686274089219826
 30
0.0
 10
1.097097918572419
 20
-2.710579644775382
 30
0.0
 10
1.097423439405752
 20
-2.734898763698993
 30
0.0
 10
1.097152172044641
 20
-2.753358507622604
 30
0.0
 10
1.096290898173113
 20
-2.765986003282326
 30
0.0
 10
1.093252703728669
 20
-2.808927626546214
 30
0.0
 10
1.088491961541169
 20
-2.840503147379548
 30
0.0
 10
1.081995108242583
 20
-2.86069900241427
 30
0.0
 10
1.075281241055083
 20
-2.884068685573993
 30
0.0
 10
1.065969988884944
 20
-2.903247288004548
 30
0.0
 10
1.054061351732166
 20
-2.918234809705937
 30
0.0
 10
1.042152714579388
 20
-2.933235894775382
 30
0.0
 10
1.028399459371055
 20
-2.941835070122604
 30
0.0
 10
1.012808367791194
 20
-2.944045899115659
 30
0.0
 10
0.98206021240925
 20
-2.949105035400382
 30
0.0
 10
0.9574833894925834
 20
-2.93284255710177
 30
0.0
 10
0.9390778990411945
 20
-2.895272027587882
 30
0.0
  0
SPLINE
  5
9F
330
99
100
AcDbEntity
  8
Layer 7
100
AcDbSpline
210
0.0
220
0.0
230
1.0
 70
     9
 71
     3
 72
    71
 73
    67
 74
     0
 42
0.0000000001
 43
0.0000000001
 40
0.0
 40
0.0
 40
0.0
 40
0.0
 40
1.0
 40
1.0
 40
1.0
 40
2.0
 40
2.0
 40
2.0
 40
3.0
 40
3.0
 40
3.0
 40
4.0
 40
4.0
 40
4.0
 40
5.0
 40
5.0
 40
5.0
 40
6.0
 40
6.0
 40
6.0
 40
7.0
 40
7.0
 40
7.0
 40
8.0
 40
8.0
 40
8.0
 40
9.0
 40
9.0
 40
9.0
 40
10.0
 40
10.0
 40
10.0
 40
11.0
 40
11.0
 40
11.0
 40
12.0
 40
12.0
 40
12.0
 40
13.0
 40
13.0
 40
13.0
 40
14.0
 40
14.0
 40
14.0
 40
15.0
 40
15.0
 40
15.0
 40
16.0
 40
16.0
 40
16.0
 40
17.0
 40
17.0
 40
17.0
 40
18.0
 40
18.0
 40
18.0
 40
19.0
 40
19.0
 40
19.0
 40
20.0
 40
20.0
 40
20.0
 40
21.0
 40
21.0
 40
21.0
 40
22.0
 40
22.0
 40
22.0
 40
22.0
 10
1.133644413798113
 20
-2.922263130018437
 30
0.0
 10
1.119131609978669
 20
-2.90647536960177
 30
0.0
 10
1.110579906419641
 20
-2.881383138698993
 30
0.0
 10
1.107982521437002
 20
-2.846959310573993
 30
0.0
 10
1.106246410325891
 20
-2.816034831407326
 30
0.0
 10
1.10792826796478
 20
-2.783821832275382
 30
0.0
 10
1.113014530985613
 20
-2.750361003282326
 30
0.0
 10
1.118100794006446
 20
-2.71690017428927
 30
0.0
 10
1.125519956332835
 20
-2.688634115261493
 30
0.0
 10
1.135265236280752
 20
-2.665589952935104
 30
0.0
 10
1.146305817877974
 20
-2.64475661960177
 30
0.0
 10
1.161951162930058
 20
-2.632291884358715
 30
0.0
 10
1.182201271437002
 20
-2.628182183837882
 30
0.0
 10
1.202444598259919
 20
-2.624086046685104
 30
0.0
 10
1.219920997999502
 20
-2.629606337483715
 30
0.0
 10
1.234650815707835
 20
-2.64475661960177
 30
0.0
 10
1.242463315707835
 20
-2.655485243733715
 30
0.0
 10
1.247861536193946
 20
-2.670092991129548
 30
0.0
 10
1.250899730638391
 20
-2.688552735053159
 30
0.0
 10
1.253937925082835
 20
-2.707026042344826
 30
0.0
 10
1.254371952860613
 20
-2.724780491129548
 30
0.0
 10
1.252201813971724
 20
-2.741829644775382
 30
0.0
 10
1.250465702860613
 20
-2.752883789740659
 30
0.0
 10
1.248078550082835
 20
-2.761171007622604
 30
0.0
 10
1.245040355638391
 20
-2.766691298421215
 30
0.0
 10
1.242029287930058
 20
-2.772225152587882
 30
0.0
 10
1.237580503207835
 20
-2.776090712483715
 30
0.0
 10
1.231721128207835
 20
-2.77830154147677
 30
0.0
 10
1.220463532721724
 20
-2.782411241997604
 30
0.0
 10
1.211593090013391
 20
-2.779725695122604
 30
0.0
 10
1.205103018398808
 20
-2.77024490085177
 30
0.0
 10
1.202498851732141
 20
-2.76646072116427
 30
0.0
 10
1.20076274062103
 20
-2.759679037136493
 30
0.0
 10
1.199901466749502
 20
-2.749886285400382
 30
0.0
 10
1.199901466749502
 20
-2.747987413872604
 30
0.0
 10
1.19935893202728
 20
-2.747037978108715
 30
0.0
 10
1.198280644266863
 20
-2.747037978108715
 30
0.0
 10
1.197195574822419
 20
-2.747037978108715
 30
0.0
 10
1.195893491489085
 20
-2.750523763698993
 30
0.0
 10
1.194381175950891
 20
-2.757468208143437
 30
0.0
 10
1.188745596523808
 20
-2.781773763698993
 30
0.0
 10
1.187775815707835
 20
-2.804817926025382
 30
0.0
 10
1.191458270134919
 20
-2.826600695122604
 30
0.0
 10
1.191892297912696
 20
-2.830072917344826
 30
0.0
 10
1.193513120395335
 20
-2.831185113525382
 30
0.0
 10
1.196327519266863
 20
-2.829910156928159
 30
0.0
 10
1.197195574822419
 20
-2.829611762830937
 30
0.0
 10
1.199033411193946
 20
-2.825502062310104
 30
0.0
 10
1.201854591749502
 20
-2.81760818210177
 30
0.0
 10
1.20704936171478
 20
-2.80308181491427
 30
0.0
 10
1.211593090013391
 20
-2.795825413004548
 30
0.0
 10
1.215499340013391
 20
-2.795825413004548
 30
0.0
 10
1.22719096327728
 20
-2.794875977240659
 30
0.0
 10
1.23622416640228
 20
-2.801033746337882
 30
0.0
 10
1.242626076124502
 20
-2.814285156928159
 30
0.0
 10
1.249000859110613
 20
-2.827550130886493
 30
0.0
 10
1.252310320916169
 20
-2.842225695122604
 30
0.0
 10
1.252527334805058
 20
-2.858325413004548
 30
0.0
 10
1.252527334805058
 20
-2.880745660400382
 30
0.0
 10
1.247101987582835
 20
-2.899842882622604
 30
0.0
 10
1.236278419874502
 20
-2.91563064303927
 30
0.0
 10
1.221765616055058
 20
-2.935840061442048
 30
0.0
 10
1.204879222825891
 20
-2.946338108317048
 30
0.0
 10
1.185612458502974
 20
-2.94712478366427
 30
0.0
 10
1.166332130812002
 20
-2.947911459011493
 30
0.0
 10
1.149011709805058
 20
-2.939624241129548
 30
0.0
 10
1.133644413798113
 20
-2.922263130018437
 30
0.0
  0
SPLINE
  5
A0
330
99
100
AcDbEntity
  8
Layer 7
100
AcDbSpline
210
0.0
220
0.0
230
1.0
 70
     9
 71
     3
 72
   113
 73
   109
 74
     0
 42
0.0000000001
 43
0.0000000001
 40
0.0
 40
0.0
 40
0.0
 40
0.0
 40
1.0
 40
1.0
 40
1.0
 40
2.0
 40
2.0
 40
2.0
 40
3.0
 40
3.0
 40
3.0
 40
4.0
 40
4.0
 40
4.0
 40
5.0
 40
5.0
 40
5.0
 40
6.0
 40
6.0
 40
6.0
 40
7.0
 40
7.0
 40
7.0
 40
8.0
 40
8.0
 40
8.0
 40
9.0
 40
9.0
 40
9.0
 40
10.0
 40
10.0
 40
10.0
 40
11.0
 40
11.0
 40
11.0
 40
12.0
 40
12.0
 40
12.0
 40
13.0
 40
13.0
 40
13.0
 40
14.0
 40
14.0
 40
14.0
 40
15.0
 40
15.0
 40
15.0
 40
16.0
 40
16.0
 40
16.0
 40
17.0
 40
17.0
 40
17.0
 40
18.0
 40
18.0
 40
18.0
 40
19.0
 40
19.0
 40
19.0
 40
20.0
 40
20.0
 40
20.0
 40
21.0
 40
21.0
 40
21.0
 40
22.0
 40
22.0
 40
22.0
 40
23.0
 40
23.0
 40
23.0
 40
24.0
 40
24.0
 40
24.0
 40
25.0
 40
25.0
 40
25.0
 40
26.0
 40
26.0
 40
26.0
 40
27.0
 40
27.0
 40
27.0
 40
28.0
 40
28.0
 40
28.0
 40
29.0
 40
29.0
 40
29.0
 40
30.0
 40
30.0
 40
30.0
 40
31.0
 40
31.0
 40
31.0
 40
32.0
 40
32.0
 40
32.0
 40
33.0
 40
33.0
 40
33.0
 40
34.0
 40
34.0
 40
34.0
 40
35.0
 40
35.0
 40
35.0
 40
36.0
 40
36.0
 40
36.0
 40
36.0
 10
1.359705069180058
 20
-2.938837565782326
 30
0.0
 10
1.35731791640228
 20
-2.935365343560104
 30
0.0
 10
1.355812382548113
 20
-2.931187826198993
 30
0.0
 10
1.355161340881446
 20
-2.926291450330937
 30
0.0
 10
1.35451029921478
 20
-2.921395074462882
 30
0.0
 10
1.354076271437002
 20
-2.910734267171214
 30
0.0
 10
1.353859257548113
 20
-2.894322591823993
 30
0.0
 10
1.353859257548113
 20
-2.892749241129548
 30
0.0
 10
1.353587990187002
 20
-2.887459527587882
 30
0.0
 10
1.35304545546478
 20
-2.878453451198993
 30
0.0
 10
1.352502920742558
 20
-2.869460938178159
 30
0.0
 10
1.352082456332835
 20
-2.862679254150382
 30
0.0
 10
1.351756935499502
 20
-2.858094835747604
 30
0.0
 10
1.351431414666169
 20
-2.853523980712882
 30
0.0
 10
1.350617612582835
 20
-2.848071506754548
 30
0.0
 10
1.349315529249502
 20
-2.841750977240659
 30
0.0
 10
1.348013445916169
 20
-2.835444011094826
 30
0.0
 10
1.346385841749502
 20
-2.830384874810104
 30
0.0
 10
1.344446280117558
 20
-2.826600695122604
 30
0.0
 10
1.344229266228669
 20
-2.831971788872604
 30
0.0
 10
1.344446280117558
 20
-2.842307075330937
 30
0.0
 10
1.345097321784224
 20
-2.857620117865659
 30
0.0
 10
1.345748363450891
 20
-2.872933160400382
 30
0.0
 10
1.345789053555058
 20
-2.886428711615659
 30
0.0
 10
1.345260082200891
 20
-2.898106771511493
 30
0.0
 10
1.344717547478669
 20
-2.909798394775382
 30
0.0
 10
1.343252703728669
 20
-2.91941482272677
 30
0.0
 10
1.340865550950891
 20
-2.926996745469826
 30
0.0
 10
1.337623905985613
 20
-2.937101454671214
 30
0.0
 10
1.333283628207835
 20
-2.943259223768437
 30
0.0
 10
1.327871844353669
 20
-2.945470052761493
 30
0.0
 10
1.317265290534224
 20
-2.94956618991427
 30
0.0
 10
1.307526792270335
 20
-2.95115310397677
 30
0.0
 10
1.298642786193946
 20
-2.950203668212882
 30
0.0
 10
1.277633129075891
 20
-2.946731445990659
 30
0.0
 10
1.266050012756446
 20
-2.937413412136493
 30
0.0
 10
1.263893437235613
 20
-2.922263130018437
 30
0.0
 10
1.263242395568946
 20
-2.918478950330937
 30
0.0
 10
1.263025381680058
 20
-2.882251194254548
 30
0.0
 10
1.263242395568946
 20
-2.81357986178927
 30
0.0
 10
1.263459409457835
 20
-2.744908529323993
 30
0.0
 10
1.263893437235613
 20
-2.706320747205937
 30
0.0
 10
1.26454447890228
 20
-2.697789388698993
 30
0.0
 10
1.265615984978669
 20
-2.682639106580937
 30
0.0
 10
1.266646800950891
 20
-2.672778538004548
 30
0.0
 10
1.267623363450891
 20
-2.66819411960177
 30
0.0
 10
1.268599925950891
 20
-2.663623264567048
 30
0.0
 10
1.270919261888391
 20
-2.658333551025382
 30
0.0
 10
1.274608497999502
 20
-2.65232497897677
 30
0.0
 10
1.28175639296478
 20
-2.641908312310104
 30
0.0
 10
1.292525707200891
 20
-2.63560134616427
 30
0.0
 10
1.306930004075891
 20
-2.633390517171215
 30
0.0
 10
1.321320737582835
 20
-2.631179688178159
 30
0.0
 10
1.332103615187002
 20
-2.63450271335177
 30
0.0
 10
1.33925151015228
 20
-2.643332465955937
 30
0.0
 10
1.341625099562002
 20
-2.646804688178159
 30
0.0
 10
1.343306957200891
 20
-2.650670248073993
 30
0.0
 10
1.344283519700891
 20
-2.654942709011493
 30
0.0
 10
1.345260082200891
 20
-2.659201606580937
 30
0.0
 10
1.34584330702728
 20
-2.666539388698993
 30
0.0
 10
1.346073884284224
 20
-2.676956055365659
 30
0.0
 10
1.346073884284224
 20
-2.676956055365659
 30
0.0
 10
1.346385841749502
 20
-2.693530491129548
 30
0.0
 10
1.346385841749502
 20
-2.693530491129548
 30
0.0
 10
1.346385841749502
 20
-2.693530491129548
 30
0.0
 10
1.350943133416169
 20
-2.68406326022677
 30
0.0
 10
1.350943133416169
 20
-2.68406326022677
 30
0.0
 10
1.361115659457835
 20
-2.661643012830937
 30
0.0
 10
1.370216679423113
 20
-2.648066081407326
 30
0.0
 10
1.378219066575891
 20
-2.643332465955937
 30
0.0
 10
1.384932933763391
 20
-2.641135200330937
 30
0.0
 10
1.391212773173113
 20
-2.641135200330937
 30
0.0
 10
1.397058584805058
 20
-2.643332465955937
 30
0.0
 10
1.402904396437002
 20
-2.645543294948993
 30
0.0
 10
1.407990659457835
 20
-2.649720812310104
 30
0.0
 10
1.412330937235613
 20
-2.655878581407326
 30
0.0
 10
1.416657651645335
 20
-2.662036350504548
 30
0.0
 10
1.420129873867558
 20
-2.668831597900382
 30
0.0
 10
1.422720477166169
 20
-2.67625076022677
 30
0.0
 10
1.425324643832835
 20
-2.683669922553159
 30
0.0
 10
1.426626727166169
 20
-2.691401042344826
 30
0.0
 10
1.426626727166169
 20
-2.69944411960177
 30
0.0
 10
1.426626727166169
 20
-2.70750076022677
 30
0.0
 10
1.425107629943946
 20
-2.714526584879548
 30
0.0
 10
1.422069435499502
 20
-2.720521593560104
 30
0.0
 10
1.417959734978669
 20
-2.726530165608715
 30
0.0
 10
1.411462881680058
 20
-2.733067709011493
 30
0.0
 10
1.402578875603669
 20
-2.740174913872604
 30
0.0
 10
1.393708432895335
 20
-2.747282118733715
 30
0.0
 10
1.387645607374502
 20
-2.753046550157326
 30
0.0
 10
1.384390399041169
 20
-2.757468208143437
 30
0.0
 10
1.401941397305058
 20
-2.764087131754548
 30
0.0
 10
1.414379005812002
 20
-2.772143772379548
 30
0.0
 10
1.421743914666169
 20
-2.781611003282326
 30
0.0
 10
1.430410906853669
 20
-2.793302626546215
 30
0.0
 10
1.43593119765228
 20
-2.807191515435104
 30
0.0
 10
1.438318350430058
 20
-2.823291233317048
 30
0.0
 10
1.44069193983978
 20
-2.839390951198993
 30
0.0
 10
1.440583432895335
 20
-2.860861762830937
 30
0.0
 10
1.437992829596724
 20
-2.887690104844826
 30
0.0
 10
1.43495463515228
 20
-2.917366754150382
 30
0.0
 10
1.430302399909224
 20
-2.935365343560104
 30
0.0
 10
1.424022560499502
 20
-2.941672309705937
 30
0.0
 10
1.416223623867558
 20
-2.948304796685104
 30
0.0
 10
1.40529154921478
 20
-2.951627821858714
 30
0.0
 10
1.391212773173113
 20
-2.951627821858714
 30
0.0
 10
1.377133997131446
 20
-2.951627821858714
 30
0.0
 10
1.366635950256446
 20
-2.947355360921214
 30
0.0
 10
1.359705069180058
 20
-2.938837565782326
 30
0.0
  0
SPLINE
  5
A1
330
99
100
AcDbEntity
  8
Layer 7
100
AcDbSpline
210
0.0
220
0.0
230
1.0
 70
     9
 71
     3
 72
   134
 73
   130
 74
     0
 42
0.0000000001
 43
0.0000000001
 40
0.0
 40
0.0
 40
0.0
 40
0.0
 40
1.0
 40
1.0
 40
1.0
 40
2.0
 40
2.0
 40
2.0
 40
3.0
 40
3.0
 40
3.0
 40
4.0
 40
4.0
 40
4.0
 40
5.0
 40
5.0
 40
5.0
 40
6.0
 40
6.0
 40
6.0
 40
7.0
 40
7.0
 40
7.0
 40
8.0
 40
8.0
 40
8.0
 40
9.0
 40
9.0
 40
9.0
 40
10.0
 40
10.0
 40
10.0
 40
11.0
 40
11.0
 40
11.0
 40
12.0
 40
12.0
 40
12.0
 40
13.0
 40
13.0
 40
13.0
 40
14.0
 40
14.0
 40
14.0
 40
15.0
 40
15.0
 40
15.0
 40
16.0
 40
16.0
 40
16.0
 40
17.0
 40
17.0
 40
17.0
 40
18.0
 40
18.0
 40
18.0
 40
19.0
 40
19.0
 40
19.0
 40
20.0
 40
20.0
 40
20.0
 40
21.0
 40
21.0
 40
21.0
 40
22.0
 40
22.0
 40
22.0
 40
23.0
 40
23.0
 40
23.0
 40
24.0
 40
24.0
 40
24.0
 40
25.0
 40
25.0
 40
25.0
 40
26.0
 40
26.0
 40
26.0
 40
27.0
 40
27.0
 40
27.0
 40
28.0
 40
28.0
 40
28.0
 40
29.0
 40
29.0
 40
29.0
 40
30.0
 40
30.0
 40
30.0
 40
31.0
 40
31.0
 40
31.0
 40
32.0
 40
32.0
 40
32.0
 40
33.0
 40
33.0
 40
33.0
 40
34.0
 40
34.0
 40
34.0
 40
35.0
 40
35.0
 40
35.0
 40
36.0
 40
36.0
 40
36.0
 40
37.0
 40
37.0
 40
37.0
 40
38.0
 40
38.0
 40
38.0
 40
39.0
 40
39.0
 40
39.0
 40
40.0
 40
40.0
 40
40.0
 40
41.0
 40
41.0
 40
41.0
 40
42.0
 40
42.0
 40
42.0
 40
43.0
 40
43.0
 40
43.0
 40
43.0
 10
1.611115659457835
 20
-2.940736437310104
 30
0.0
 10
1.596602855638391
 20
-2.939475044080937
 30
0.0
 10
1.586104808763391
 20
-2.936314779323993
 30
0.0
 10
1.57960795546478
 20
-2.93125564303927
 30
0.0
 10
1.575715268832835
 20
-2.927783420817048
 30
0.0
 10
1.572677074388391
 20
-2.920052301025382
 30
0.0
 10
1.570520498867558
 20
-2.908048720296214
 30
0.0
 10
1.569435429423113
 20
-2.898581489393437
 30
0.0
 10
1.568838641228669
 20
-2.882563151719826
 30
0.0
 10
1.568730134284224
 20
-2.859993707275382
 30
0.0
 10
1.56862162733978
 20
-2.837424262830937
 30
0.0
 10
1.568458866923113
 20
-2.824240669080937
 30
0.0
 10
1.568241853034224
 20
-2.820442926025382
 30
0.0
 10
1.55763529921478
 20
-2.806879557969826
 30
0.0
 10
1.550053376471724
 20
-2.794564019775382
 30
0.0
 10
1.545509648173113
 20
-2.783509874810104
 30
0.0
 10
1.541820412062002
 20
-2.774354601372604
 30
0.0
 10
1.53847026015228
 20
-2.758960178629548
 30
0.0
 10
1.535432065707835
 20
-2.737340169948993
 30
0.0
 10
1.532393871263391
 20
-2.715720161268437
 30
0.0
 10
1.530996844353669
 20
-2.696839952935104
 30
0.0
 10
1.531213858242558
 20
-2.680740235053159
 30
0.0
 10
1.531430872131446
 20
-2.666227431233715
 30
0.0
 10
1.532678701992558
 20
-2.654942709011493
 30
0.0
 10
1.534943784457835
 20
-2.646886068386493
 30
0.0
 10
1.537222430291169
 20
-2.638829427761493
 30
0.0
 10
1.541928919006446
 20
-2.633078559705937
 30
0.0
 10
1.549076813971724
 20
-2.629606337483715
 30
0.0
 10
1.55946635390228
 20
-2.62485915866427
 30
0.0
 10
1.570615442443946
 20
-2.624086046685104
 30
0.0
 10
1.58253764296478
 20
-2.627232748073993
 30
0.0
 10
1.593144196784224
 20
-2.630393012830937
 30
0.0
 10
1.60060404921478
 20
-2.637974935573993
 30
0.0
 10
1.604944326992558
 20
-2.649964952935104
 30
0.0
 10
1.60646342421478
 20
-2.654386610921215
 30
0.0
 10
1.607548493659224
 20
-2.664966038004548
 30
0.0
 10
1.608199535325891
 20
-2.681689670817048
 30
0.0
 10
1.608199535325891
 20
-2.682327149115659
 30
0.0
 10
1.608240225430058
 20
-2.684700738525382
 30
0.0
 10
1.608348732374502
 20
-2.688796875678159
 30
0.0
 10
1.608457239318946
 20
-2.692906576198993
 30
0.0
 10
1.608565746263391
 20
-2.696772136094826
 30
0.0
 10
1.608674253207835
 20
-2.700393555365659
 30
0.0
 10
1.60878276015228
 20
-2.704028538004548
 30
0.0
 10
1.609054027513391
 20
-2.707894097900382
 30
0.0
 10
1.609488055291169
 20
-2.712003798421215
 30
0.0
 10
1.609922083068946
 20
-2.716113498942048
 30
0.0
 10
1.610518871263391
 20
-2.719504340955937
 30
0.0
 10
1.611278419874502
 20
-2.722176324462882
 30
0.0
 10
1.612037968485613
 20
-2.724861871337882
 30
0.0
 10
1.613068784457835
 20
-2.726204644775382
 30
0.0
 10
1.614370867791169
 20
-2.726204644775382
 30
0.0
 10
1.615659387756446
 20
-2.726530165608715
 30
0.0
 10
1.616907217617558
 20
-2.72605544772677
 30
0.0
 10
1.618100794006446
 20
-2.724780491129548
 30
0.0
 10
1.61928080702728
 20
-2.723532661268437
 30
0.0
 10
1.620216679423113
 20
-2.721552409532326
 30
0.0
 10
1.620854157721724
 20
-2.718866862657326
 30
0.0
 10
1.621505199388391
 20
-2.716194879150382
 30
0.0
 10
1.622101987582835
 20
-2.713577149115659
 30
0.0
 10
1.622644522305058
 20
-2.711054362657326
 30
0.0
 10
1.62318705702728
 20
-2.708531576198993
 30
0.0
 10
1.623566831332835
 20
-2.705371311442048
 30
0.0
 10
1.623783845221724
 20
-2.701587131754548
 30
0.0
 10
1.624000859110613
 20
-2.697789388698993
 30
0.0
 10
1.62416361952728
 20
-2.694873264567048
 30
0.0
 10
1.624272126471724
 20
-2.692825195990659
 30
0.0
 10
1.624380633416169
 20
-2.69077712741427
 30
0.0
 10
1.624434886888391
 20
-2.688172960747604
 30
0.0
 10
1.624434886888391
 20
-2.685012695990659
 30
0.0
 10
1.624434886888391
 20
-2.685012695990659
 30
0.0
 10
1.624760407721724
 20
-2.679804362657326
 30
0.0
 10
1.624760407721724
 20
-2.679804362657326
 30
0.0
 10
1.624977421610613
 20
-2.678217448594826
 30
0.0
 10
1.625194435499502
 20
-2.675138564046215
 30
0.0
 10
1.625411449388391
 20
-2.670567709011493
 30
0.0
 10
1.625614899909224
 20
-2.66599685397677
 30
0.0
 10
1.625845477166169
 20
-2.662673828803159
 30
0.0
 10
1.626062491055058
 20
-2.660612196858715
 30
0.0
 10
1.626265941575891
 20
-2.658564128282326
 30
0.0
 10
1.626591462409224
 20
-2.655648004150382
 30
0.0
 10
1.627025490187002
 20
-2.651863824462882
 30
0.0
 10
1.62745951796478
 20
-2.648066081407326
 30
0.0
 10
1.628056306159224
 20
-2.645068577067048
 30
0.0
 10
1.628815854770335
 20
-2.642857748073993
 30
0.0
 10
1.629575403381446
 20
-2.640660482448993
 30
0.0
 10
1.630443458937002
 20
-2.63828689303927
 30
0.0
 10
1.631420021437002
 20
-2.635750543212882
 30
0.0
 10
1.632396583937002
 20
-2.633227756754548
 30
0.0
 10
1.63368510390228
 20
-2.631179688178159
 30
0.0
 10
1.635312708068946
 20
-2.629606337483715
 30
0.0
 10
1.636940312235613
 20
-2.628019423421215
 30
0.0
 10
1.638730676818946
 20
-2.626758030192048
 30
0.0
 10
1.640670238450891
 20
-2.625808594428159
 30
0.0
 10
1.643925446784224
 20
-2.624235243733715
 30
0.0
 10
1.648848949388391
 20
-2.623055230712882
 30
0.0
 10
1.655454309631446
 20
-2.622254991997604
 30
0.0
 10
1.662059669874502
 20
-2.621481880018437
 30
0.0
 10
1.667525707200891
 20
-2.621549696858715
 30
0.0
 10
1.671852421610613
 20
-2.622499132622604
 30
0.0
 10
1.697622820916169
 20
-2.627232748073993
 30
0.0
 10
1.709639965013391
 20
-2.649178277587882
 30
0.0
 10
1.70790385390228
 20
-2.688322157796215
 30
0.0
 10
1.706398320048113
 20
-2.756518772379548
 30
0.0
 10
1.688304787062002
 20
-2.802919054497604
 30
0.0
 10
1.653663945048113
 20
-2.827550130886493
 30
0.0
 10
1.653229917270335
 20
-2.833545139567048
 30
0.0
 10
1.653392677687002
 20
-2.848790365261493
 30
0.0
 10
1.654152226298113
 20
-2.873245117865659
 30
0.0
 10
1.654911774909224
 20
-2.897713433837882
 30
0.0
 10
1.65431498671478
 20
-2.912009223768437
 30
0.0
 10
1.65236186171478
 20
-2.916105360921214
 30
0.0
 10
1.650856327860613
 20
-2.921476454671214
 30
0.0
 10
1.648957456332835
 20
-2.925898112657326
 30
0.0
 10
1.646678810499502
 20
-2.929370334879548
 30
0.0
 10
1.644413728034224
 20
-2.93284255710177
 30
0.0
 10
1.64235209608978
 20
-2.935446723768437
 30
0.0
 10
1.640507478034224
 20
-2.937182834879548
 30
0.0
 10
1.638662859978669
 20
-2.938918945990659
 30
0.0
 10
1.636072256680058
 20
-2.940180339219826
 30
0.0
 10
1.632722104770335
 20
-2.940967014567048
 30
0.0
 10
1.629358389492558
 20
-2.94175368991427
 30
0.0
 10
1.62697123671478
 20
-2.942147027587882
 30
0.0
 10
1.625574209805058
 20
-2.942147027587882
 30
0.0
 10
1.62416361952728
 20
-2.942147027587882
 30
0.0
 10
1.621559452860613
 20
-2.941916450330937
 30
0.0
 10
1.617775273173113
 20
-2.941441732448993
 30
0.0
 10
1.613977530117558
 20
-2.940967014567048
 30
0.0
 10
1.611766701124502
 20
-2.940736437310104
 30
0.0
 10
1.611115659457835
 20
-2.940736437310104
 30
0.0
  0
SPLINE
  5
A2
330
99
100
AcDbEntity
  8
Layer 7
100
AcDbSpline
210
0.0
220
0.0
230
1.0
 70
     9
 71
     3
 72
    32
 73
    28
 74
     0
 42
0.0000000001
 43
0.0000000001
 40
0.0
 40
0.0
 40
0.0
 40
0.0
 40
1.0
 40
1.0
 40
1.0
 40
2.0
 40
2.0
 40
2.0
 40
3.0
 40
3.0
 40
3.0
 40
4.0
 40
4.0
 40
4.0
 40
5.0
 40
5.0
 40
5.0
 40
6.0
 40
6.0
 40
6.0
 40
7.0
 40
7.0
 40
7.0
 40
8.0
 40
8.0
 40
8.0
 40
9.0
 40
9.0
 40
9.0
 40
9.0
 10
1.802426965881446
 20
-2.713414388698993
 30
0.0
 10
1.797883237582835
 20
-2.713414388698993
 30
0.0
 10
1.794302508416169
 20
-2.717605469428159
 30
0.0
 10
1.791711905117558
 20
-2.725974067518437
 30
0.0
 10
1.789107738450891
 20
-2.734342665608715
 30
0.0
 10
1.787805655117558
 20
-2.743579319254548
 30
0.0
 10
1.787805655117558
 20
-2.753670465087882
 30
0.0
 10
1.787805655117558
 20
-2.762201823594826
 30
0.0
 10
1.788782217617558
 20
-2.768359592692048
 30
0.0
 10
1.790735342617558
 20
-2.772143772379548
 30
0.0
 10
1.792688467617558
 20
-2.775927952067048
 30
0.0
 10
1.796581154249502
 20
-2.775778755018437
 30
0.0
 10
1.802426965881446
 20
-2.771669054497604
 30
0.0
 10
1.80848979140228
 20
-2.765036567518437
 30
0.0
 10
1.811731436367558
 20
-2.753670465087882
 30
0.0
 10
1.812165464145335
 20
-2.737570747205937
 30
0.0
 10
1.812165464145335
 20
-2.734098524983715
 30
0.0
 10
1.812111210673113
 20
-2.731657118733715
 30
0.0
 10
1.812002703728669
 20
-2.730232965087882
 30
0.0
 10
1.811894196784224
 20
-2.728808811442048
 30
0.0
 10
1.811622929423113
 20
-2.726448785400382
 30
0.0
 10
1.811202465013391
 20
-2.72312576022677
 30
0.0
 10
1.810754873867558
 20
-2.719816298421215
 30
0.0
 10
1.809791874735613
 20
-2.717374892171215
 30
0.0
 10
1.808272777513391
 20
-2.715787978108715
 30
0.0
 10
1.806753680291169
 20
-2.71421462741427
 30
0.0
 10
1.804800555291169
 20
-2.713414388698993
 30
0.0
 10
1.802426965881446
 20
-2.713414388698993
 30
0.0
  0
SPLINE
  5
A3
330
99
100
AcDbEntity
  8
Layer 7
100
AcDbSpline
210
0.0
220
0.0
230
1.0
 70
     9
 71
     3
 72
    38
 73
    34
 74
     0
 42
0.0000000001
 43
0.0000000001
 40
0.0
 40
0.0
 40
0.0
 40
0.0
 40
1.0
 40
1.0
 40
1.0
 40
2.0
 40
2.0
 40
2.0
 40
3.0
 40
3.0
 40
3.0
 40
4.0
 40
4.0
 40
4.0
 40
5.0
 40
5.0
 40
5.0
 40
6.0
 40
6.0
 40
6.0
 40
7.0
 40
7.0
 40
7.0
 40
8.0
 40
8.0
 40
8.0
 40
9.0
 40
9.0
 40
9.0
 40
10.0
 40
10.0
 40
10.0
 40
11.0
 40
11.0
 40
11.0
 40
11.0
 10
1.716028311367558
 20
-2.823765951198993
 30
0.0
 10
1.716028311367558
 20
-2.805455404323993
 30
0.0
 10
1.717696605638391
 20
-2.786195421685104
 30
0.0
 10
1.721060320916169
 20
-2.765986003282326
 30
0.0
 10
1.724410472825891
 20
-2.745790148247604
 30
0.0
 10
1.729401792270335
 20
-2.72605544772677
 30
0.0
 10
1.736007152513391
 20
-2.706795465087882
 30
0.0
 10
1.742612512756446
 20
-2.687535482448993
 30
0.0
 10
1.751808476298113
 20
-2.671747722032326
 30
0.0
 10
1.763608606506446
 20
-2.659432183837882
 30
0.0
 10
1.77540873671478
 20
-2.647116645643437
 30
0.0
 10
1.788673710673113
 20
-2.64097243991427
 30
0.0
 10
1.803403528381446
 20
-2.64097243991427
 30
0.0
 10
1.81898783827728
 20
-2.641596354844826
 30
0.0
 10
1.832307065707835
 20
-2.648866320122604
 30
0.0
 10
1.843347647305058
 20
-2.662755209011493
 30
0.0
 10
1.854401792270335
 20
-2.676644097900382
 30
0.0
 10
1.862621193312002
 20
-2.694791884358715
 30
0.0
 10
1.868032977166169
 20
-2.717212131754548
 30
0.0
 10
1.87648295546478
 20
-2.751310439046215
 30
0.0
 10
1.878002052687002
 20
-2.786819336615659
 30
0.0
 10
1.872590268832835
 20
-2.823765951198993
 30
0.0
 10
1.867395498867558
 20
-2.861010959879548
 30
0.0
 10
1.856124340013391
 20
-2.891555664740659
 30
0.0
 10
1.838803919006446
 20
-2.915400065782326
 30
0.0
 10
1.821483497999502
 20
-2.939230903455937
 30
0.0
 10
1.800365333937002
 20
-2.949105035400382
 30
0.0
 10
1.775462990187002
 20
-2.944995334879548
 30
0.0
 10
1.756189444180058
 20
-2.940261719428159
 30
0.0
 10
1.74147318983978
 20
-2.926847548421214
 30
0.0
 10
1.731287100430058
 20
-2.904739258490659
 30
0.0
 10
1.721114574388391
 20
-2.882644531928159
 30
0.0
 10
1.716028311367558
 20
-2.855653429497604
 30
0.0
 10
1.716028311367558
 20
-2.823765951198993
 30
0.0
  0
SPLINE
  5
A4
330
99
100
AcDbEntity
  8
Layer 7
100
AcDbSpline
210
0.0
220
0.0
230
1.0
 70
     9
 71
     3
 72
    98
 73
    94
 74
     0
 42
0.0000000001
 43
0.0000000001
 40
0.0
 40
0.0
 40
0.0
 40
0.0
 40
1.0
 40
1.0
 40
1.0
 40
2.0
 40
2.0
 40
2.0
 40
3.0
 40
3.0
 40
3.0
 40
4.0
 40
4.0
 40
4.0
 40
5.0
 40
5.0
 40
5.0
 40
6.0
 40
6.0
 40
6.0
 40
7.0
 40
7.0
 40
7.0
 40
8.0
 40
8.0
 40
8.0
 40
9.0
 40
9.0
 40
9.0
 40
10.0
 40
10.0
 40
10.0
 40
11.0
 40
11.0
 40
11.0
 40
12.0
 40
12.0
 40
12.0
 40
13.0
 40
13.0
 40
13.0
 40
14.0
 40
14.0
 40
14.0
 40
15.0
 40
15.0
 40
15.0
 40
16.0
 40
16.0
 40
16.0
 40
17.0
 40
17.0
 40
17.0
 40
18.0
 40
18.0
 40
18.0
 40
19.0
 40
19.0
 40
19.0
 40
20.0
 40
20.0
 40
20.0
 40
21.0
 40
21.0
 40
21.0
 40
22.0
 40
22.0
 40
22.0
 40
23.0
 40
23.0
 40
23.0
 40
24.0
 40
24.0
 40
24.0
 40
25.0
 40
25.0
 40
25.0
 40
26.0
 40
26.0
 40
26.0
 40
27.0
 40
27.0
 40
27.0
 40
28.0
 40
28.0
 40
28.0
 40
29.0
 40
29.0
 40
29.0
 40
30.0
 40
30.0
 40
30.0
 40
31.0
 40
31.0
 40
31.0
 40
31.0
 10
1.908302616923113
 20
-2.895272027587882
 30
0.0
 10
1.892270715881446
 20
-2.861173720296214
 30
0.0
 10
1.884268328728669
 20
-2.804980686442048
 30
0.0
 10
1.884268328728669
 20
-2.726679362657326
 30
0.0
 10
1.884485342617558
 20
-2.697640191650382
 30
0.0
 10
1.885299144700891
 20
-2.677430773247604
 30
0.0
 10
1.886709734978669
 20
-2.666064670817048
 30
0.0
 10
1.888106761888391
 20
-2.654698568386493
 30
0.0
 10
1.890873688971724
 20
-2.645868815782326
 30
0.0
 10
1.894983389492558
 20
-2.639548286268437
 30
0.0
 10
1.902565312235613
 20
-2.631654406060104
 30
0.0
 10
1.912683584805058
 20
-2.627463325330937
 30
0.0
 10
1.925351770568946
 20
-2.627002170817048
 30
0.0
 10
1.938019956332835
 20
-2.626527452935104
 30
0.0
 10
1.948911340881446
 20
-2.629606337483715
 30
0.0
 10
1.957998797478669
 20
-2.636225261094826
 30
0.0
 10
1.963627595221724
 20
-2.640023004150382
 30
0.0
 10
1.967628788798113
 20
-2.645543294948993
 30
0.0
 10
1.970015941575891
 20
-2.652799696858715
 30
0.0
 10
1.972620108242558
 20
-2.659757704671215
 30
0.0
 10
1.972511601298113
 20
-2.675531901719826
 30
0.0
 10
1.969690420742558
 20
-2.700162978108715
 30
0.0
 10
1.965363706332835
 20
-2.757630968560104
 30
0.0
 10
1.965038185499502
 20
-2.796462891303159
 30
0.0
 10
1.968713858242558
 20
-2.816658746337882
 30
0.0
 10
1.969364899909224
 20
-2.821080404323993
 30
0.0
 10
1.970829743659224
 20
-2.824240669080937
 30
0.0
 10
1.973108389492558
 20
-2.826125977240659
 30
0.0
 10
1.975373471957835
 20
-2.828024848768437
 30
0.0
 10
1.977272343485613
 20
-2.827712891303159
 30
0.0
 10
1.978791440707835
 20
-2.82517654147677
 30
0.0
 10
1.979862946784224
 20
-2.820768446858714
 30
0.0
 10
1.980893762756446
 20
-2.816184028455937
 30
0.0
 10
1.981870325256446
 20
-2.811450413004548
 30
0.0
 10
1.982846887756446
 20
-2.806716797553159
 30
0.0
 10
1.983606436367558
 20
-2.802376519775382
 30
0.0
 10
1.98414897108978
 20
-2.798429579671215
 30
0.0
 10
1.984691505812002
 20
-2.794482639567048
 30
0.0
 10
1.98512553358978
 20
-2.789504883490659
 30
0.0
 10
1.985451054423113
 20
-2.783509874810104
 30
0.0
 10
1.985776575256446
 20
-2.777514866129548
 30
0.0
 10
1.986034279249502
 20
-2.772849067518437
 30
0.0
 10
1.986264856506446
 20
-2.769539605712882
 30
0.0
 10
1.98646830702728
 20
-2.76621658053927
 30
0.0
 10
1.986522560499502
 20
-2.761171007622604
 30
0.0
 10
1.986427616923113
 20
-2.754389323594826
 30
0.0
 10
1.986305546610613
 20
-2.747594076198993
 30
0.0
 10
1.986264856506446
 20
-2.742941840955937
 30
0.0
 10
1.986264856506446
 20
-2.740419054497604
 30
0.0
 10
1.986264856506446
 20
-2.73789626803927
 30
0.0
 10
1.986034279249502
 20
-2.732837131754548
 30
0.0
 10
1.98561381483978
 20
-2.725255209011493
 30
0.0
 10
1.985166223693946
 20
-2.717686849636493
 30
0.0
 10
1.984908519700891
 20
-2.713183811442048
 30
0.0
 10
1.984800012756446
 20
-2.711759657796215
 30
0.0
 10
1.984691505812002
 20
-2.710349067518437
 30
0.0
 10
1.984365984978669
 20
-2.705601888698993
 30
0.0
 10
1.983823450256446
 20
-2.697558811442048
 30
0.0
 10
1.983280915534224
 20
-2.689502170817048
 30
0.0
 10
1.983009648173113
 20
-2.685175456407326
 30
0.0
 10
1.983009648173113
 20
-2.684537978108715
 30
0.0
 10
1.982141592617558
 20
-2.670323568386493
 30
0.0
 10
1.98268412733978
 20
-2.659594944254548
 30
0.0
 10
1.98463725233978
 20
-2.65232497897677
 30
0.0
 10
1.986576813971724
 20
-2.645068577067048
 30
0.0
 10
1.990591570916169
 20
-2.63938552585177
 30
0.0
 10
1.996654396437002
 20
-2.635289388698993
 30
0.0
 10
2.000113055291169
 20
-2.633078559705937
 30
0.0
 10
2.006772669006446
 20
-2.631423828803159
 30
0.0
 10
2.016633237582835
 20
-2.630311632622604
 30
0.0
 10
2.026480242791169
 20
-2.629212999810104
 30
0.0
 10
2.03444193983978
 20
-2.629294380018437
 30
0.0
 10
2.040504765360613
 20
-2.630542209879548
 30
0.0
 10
2.054569978034224
 20
-2.633702474636493
 30
0.0
 10
2.062260407721724
 20
-2.642233833143437
 30
0.0
 10
2.063562491055058
 20
-2.656122722032326
 30
0.0
 10
2.06508158827728
 20
-2.668126302761493
 30
0.0
 10
2.066003897305058
 20
-2.686274089219826
 30
0.0
 10
2.066329418138391
 20
-2.710579644775382
 30
0.0
 10
2.066654938971724
 20
-2.734898763698993
 30
0.0
 10
2.066370108242558
 20
-2.753358507622604
 30
0.0
 10
2.065515616055058
 20
-2.765986003282326
 30
0.0
 10
2.062477421610613
 20
-2.808927626546214
 30
0.0
 10
2.057716679423113
 20
-2.840503147379548
 30
0.0
 10
2.051219826124502
 20
-2.86069900241427
 30
0.0
 10
2.044505958937002
 20
-2.884068685573993
 30
0.0
 10
2.035187925082835
 20
-2.903247288004548
 30
0.0
 10
2.023292851298113
 20
-2.918234809705937
 30
0.0
 10
2.01137065077728
 20
-2.933235894775382
 30
0.0
 10
1.997630958937002
 20
-2.941835070122604
 30
0.0
 10
1.982033085673113
 20
-2.944045899115659
 30
0.0
 10
1.951284930291169
 20
-2.949105035400382
 30
0.0
 10
1.926708107374502
 20
-2.93284255710177
 30
0.0
 10
1.908302616923113
 20
-2.895272027587882
 30
0.0
  0
SPLINE
  5
A5
330
99
100
AcDbEntity
  8
Layer 7
100
AcDbSpline
210
0.0
220
0.0
230
1.0
 70
     9
 71
     3
 72
    80
 73
    76
 74
     0
 42
0.0000000001
 43
0.0000000001
 40
0.0
 40
0.0
 40
0.0
 40
0.0
 40
1.0
 40
1.0
 40
1.0
 40
2.0
 40
2.0
 40
2.0
 40
3.0
 40
3.0
 40
3.0
 40
4.0
 40
4.0
 40
4.0
 40
5.0
 40
5.0
 40
5.0
 40
6.0
 40
6.0
 40
6.0
 40
7.0
 40
7.0
 40
7.0
 40
8.0
 40
8.0
 40
8.0
 40
9.0
 40
9.0
 40
9.0
 40
10.0
 40
10.0
 40
10.0
 40
11.0
 40
11.0
 40
11.0
 40
12.0
 40
12.0
 40
12.0
 40
13.0
 40
13.0
 40
13.0
 40
14.0
 40
14.0
 40
14.0
 40
15.0
 40
15.0
 40
15.0
 40
16.0
 40
16.0
 40
16.0
 40
17.0
 40
17.0
 40
17.0
 40
18.0
 40
18.0
 40
18.0
 40
19.0
 40
19.0
 40
19.0
 40
20.0
 40
20.0
 40
20.0
 40
21.0
 40
21.0
 40
21.0
 40
22.0
 40
22.0
 40
22.0
 40
23.0
 40
23.0
 40
23.0
 40
24.0
 40
24.0
 40
24.0
 40
25.0
 40
25.0
 40
25.0
 40
25.0
 10
0.9920353115663196
 20
-3.121345556940594
 30
0.0
 10
0.985054297045028
 20
-3.118090913440002
 30
0.0
 10
0.9825607589508409
 20
-3.105014116834783
 30
0.0
 10
0.9845591579959192
 20
-3.082115167124988
 30
0.0
 10
0.9868341211945335
 20
-3.061108452008511
 30
0.0
 10
0.987976063506014
 20
-3.047286406086565
 30
0.0
 10
0.987976063506014
 20
-3.04064320709881
 30
0.0
 10
0.987976063506014
 20
-3.04064320709881
 30
0.0
 10
0.9828507052408591
 20
-3.04064320709881
 30
0.0
 10
0.9828507052408591
 20
-3.04064320709881
 30
0.0
 10
0.9787156250739219
 20
-3.04064320709881
 30
0.0
 10
0.9759410621140128
 20
-3.040410316687307
 30
0.0
 10
0.9745180949368355
 20
-3.039932891343773
 30
0.0
 10
0.9730906670474723
 20
-3.039461288260478
 30
0.0
 10
0.9715963284758244
 20
-3.038273547161856
 30
0.0
 10
0.9700306185097057
 20
-3.036375490308197
 30
0.0
 10
0.9660427418438706
 20
-3.02851543892042
 30
0.0
 10
0.9640488035109278
 20
-3.020993078629266
 30
0.0
 10
0.9640488035109278
 20
-3.013808409434785
 30
0.0
 10
0.9637633179330704
 20
-3.007438856680512
 30
0.0
 10
0.9653290278991891
 20
-3.002495757696654
 30
0.0
 10
0.9687503941214446
 20
-2.998967467962579
 30
0.0
 10
0.9715963284758244
 20
-2.995718646722227
 30
0.0
 10
0.9766547760586693
 20
-2.993552765895376
 30
0.0
 10
0.9839168154457082
 20
-2.992464003221685
 30
0.0
 10
0.99773164098724
 20
-2.990024476161301
 30
0.0
 10
1.012759780234697
 20
-2.989215181981383
 30
0.0
 10
1.028996772475946
 20
-2.990024476161301
 30
0.0
 10
1.039537435296299
 20
-2.990432034381405
 30
0.0
 10
1.04654967480269
 20
-2.990973504588181
 30
0.0
 10
1.050042412419416
 20
-2.991654709041768
 30
0.0
 10
1.053530689324007
 20
-2.992330091235064
 30
0.0
 10
1.056483680770068
 20
-2.993616810758567
 30
0.0
 10
1.058905847469809
 20
-2.995514867612175
 30
0.0
 10
1.063607438080326
 20
-2.999578805292685
 30
0.0
 10
1.065958233385572
 20
-3.006763474487216
 30
0.0
 10
1.065958233385572
 20
-3.017063052935377
 30
0.0
 10
1.065958233385572
 20
-3.02438163411648
 30
0.0
 10
1.064107037841596
 20
-3.030273761527167
 30
0.0
 10
1.060404646753618
 20
-3.034745257427781
 30
0.0
 10
1.057554251687078
 20
-3.037184784488165
 30
0.0
 10
1.054668170923327
 20
-3.038681105382011
 30
0.0
 10
1.051750865174476
 20
-3.039222575588736
 30
0.0
 10
1.04882909871349
 20
-3.039764045795411
 30
0.0
 10
1.044662793561479
 20
-3.040031869768654
 30
0.0
 10
1.039251949718441
 20
-3.040031869768654
 30
0.0
 10
1.039394692507383
 20
-3.046675068756409
 30
0.0
 10
1.040068260042643
 20
-3.055821839667689
 30
0.0
 10
1.041281573748594
 20
-3.067478004762783
 30
0.0
 10
1.042490426742384
 20
-3.079134169857878
 30
0.0
 10
1.043168454989805
 20
-3.087331912342379
 30
0.0
 10
1.043311197778747
 20
-3.092071232216236
 30
0.0
 10
1.043453940567688
 20
-3.094918317496674
 30
0.0
 10
1.043525311962159
 20
-3.096746507226902
 30
0.0
 10
1.043525311962159
 20
-3.09756162366711
 30
0.0
 10
1.043525311962159
 20
-3.098376740107318
 30
0.0
 10
1.043525311962159
 20
-3.100274796960977
 30
0.0
 10
1.043525311962159
 20
-3.103255794228036
 30
0.0
 10
1.043525311962159
 20
-3.106236791495146
 30
0.0
 10
1.043382569173218
 20
-3.108437605883737
 30
0.0
 10
1.04309708359536
 20
-3.109858237393811
 30
0.0
 10
1.042811598017477
 20
-3.111284691164175
 30
0.0
 10
1.042383369650679
 20
-3.113048836031212
 30
0.0
 10
1.041816859207099
 20
-3.115144849734633
 30
0.0
 10
1.041245888051359
 20
-3.117246685698344
 30
0.0
 10
1.040389431317761
 20
-3.118876918578759
 30
0.0
 10
1.039251949718441
 20
-3.120023903855401
 30
0.0
 10
1.038110007406961
 20
-3.121176711392232
 30
0.0
 10
1.036758411624254
 20
-3.12195689427075
 30
0.0
 10
1.035192701658135
 20
-3.122364452490854
 30
0.0
 10
1.029349168736138
 20
-3.124122775097601
 30
0.0
 10
1.022229872138041
 20
-3.124937891537809
 30
0.0
 10
1.013830351151707
 20
-3.124803979551238
 30
0.0
 10
1.005421908741052
 20
-3.124670067564617
 30
0.0
 10
0.9981598693540389
 20
-3.123517260027735
 30
0.0
 10
0.9920353115663196
 20
-3.121345556940594
 30
0.0
  0
SPLINE
  5
A6
330
99
100
AcDbEntity
  8
Layer 7
100
AcDbSpline
210
0.0
220
0.0
230
1.0
 70
     9
 71
     3
 72
   110
 73
   106
 74
     0
 42
0.0000000001
 43
0.0000000001
 40
0.0
 40
0.0
 40
0.0
 40
0.0
 40
1.0
 40
1.0
 40
1.0
 40
2.0
 40
2.0
 40
2.0
 40
3.0
 40
3.0
 40
3.0
 40
4.0
 40
4.0
 40
4.0
 40
5.0
 40
5.0
 40
5.0
 40
6.0
 40
6.0
 40
6.0
 40
7.0
 40
7.0
 40
7.0
 40
8.0
 40
8.0
 40
8.0
 40
9.0
 40
9.0
 40
9.0
 40
10.0
 40
10.0
 40
10.0
 40
11.0
 40
11.0
 40
11.0
 40
12.0
 40
12.0
 40
12.0
 40
13.0
 40
13.0
 40
13.0
 40
14.0
 40
14.0
 40
14.0
 40
15.0
 40
15.0
 40
15.0
 40
16.0
 40
16.0
 40
16.0
 40
17.0
 40
17.0
 40
17.0
 40
18.0
 40
18.0
 40
18.0
 40
19.0
 40
19.0
 40
19.0
 40
20.0
 40
20.0
 40
20.0
 40
21.0
 40
21.0
 40
21.0
 40
22.0
 40
22.0
 40
22.0
 40
23.0
 40
23.0
 40
23.0
 40
24.0
 40
24.0
 40
24.0
 40
25.0
 40
25.0
 40
25.0
 40
26.0
 40
26.0
 40
26.0
 40
27.0
 40
27.0
 40
27.0
 40
28.0
 40
28.0
 40
28.0
 40
29.0
 40
29.0
 40
29.0
 40
30.0
 40
30.0
 40
30.0
 40
31.0
 40
31.0
 40
31.0
 40
32.0
 40
32.0
 40
32.0
 40
33.0
 40
33.0
 40
33.0
 40
34.0
 40
34.0
 40
34.0
 40
35.0
 40
35.0
 40
35.0
 40
35.0
 10
1.080486772871785
 20
-3.126224611061312
 30
0.0
 10
1.079059344982447
 20
-3.125549228867965
 30
0.0
 10
1.077814806291421
 20
-3.124087841535861
 30
0.0
 10
1.076748696086572
 20
-3.121852093585579
 30
0.0
 10
1.075678125169563
 20
-3.119616345635247
 30
0.0
 10
1.0748261291481
 20
-3.116705215491618
 30
0.0
 10
1.074183786597915
 20
-3.113112880894403
 30
0.0
 10
1.073541444047704
 20
-3.109526368557428
 30
0.0
 10
1.073010619301359
 20
-3.105864166836731
 30
0.0
 10
1.072582390934561
 20
-3.102137920252895
 30
0.0
 10
1.072154162567736
 20
-3.098411673669059
 30
0.0
 10
1.071868676989879
 20
-3.094208001741637
 30
0.0
 10
1.071725934200938
 20
-3.089532726730971
 30
0.0
 10
1.071583191412021
 20
-3.084857451720305
 30
0.0
 10
1.071476134320315
 20
-3.080892492464676
 30
0.0
 10
1.071404762925845
 20
-3.077637848964084
 30
0.0
 10
1.071333391531374
 20
-3.074389027723782
 30
0.0
 10
1.071297705834139
 20
-3.070831626688257
 30
0.0
 10
1.071297705834139
 20
-3.066965645857508
 30
0.0
 10
1.071297705834139
 20
-3.06310548728705
 30
0.0
 10
1.071297705834139
 20
-3.060770760911888
 30
0.0
 10
1.071297705834139
 20
-3.059955644471629
 30
0.0
 10
1.071297705834139
 20
-3.032853022834463
 30
0.0
 10
1.071868676989879
 20
-3.016725361838704
 30
0.0
 10
1.073010619301359
 20
-3.011572661484504
 30
0.0
 10
1.075428325288915
 20
-3.001954287489929
 30
0.0
 10
1.081552883076634
 20
-2.995514867612175
 30
0.0
 10
1.091384292664467
 20
-2.992260224111633
 30
0.0
 10
1.096647933006402
 20
-2.990367989518265
 30
0.0
 10
1.102669894414551
 20
-2.989995364859901
 30
0.0
 10
1.109436794752481
 20
-2.991142350136442
 30
0.0
 10
1.1161992343782
 20
-2.992295157673374
 30
0.0
 10
1.120936510685977
 20
-2.995107309392071
 30
0.0
 10
1.123644162963551
 20
-2.999578805292685
 30
0.0
 10
1.124210673407156
 20
-3.004731505646936
 30
0.0
 10
1.124603216076694
 20
-3.011101058401209
 30
0.0
 10
1.124817330260106
 20
-3.018687463555503
 30
0.0
 10
1.125031444443518
 20
-3.026279690970088
 30
0.0
 10
1.125067130140753
 20
-3.03257937660093
 30
0.0
 10
1.124924387351812
 20
-3.037592342708269
 30
0.0
 10
1.124924387351812
 20
-3.037592342708269
 30
0.0
 10
1.1247102731684
 20
-3.045114702999424
 30
0.0
 10
1.1247102731684
 20
-3.045114702999424
 30
0.0
 10
1.1247102731684
 20
-3.045114702999424
 30
0.0
 10
1.13496545041087
 20
-3.044299586559216
 30
0.0
 10
1.13496545041087
 20
-3.044299586559216
 30
0.0
 10
1.135821907144519
 20
-3.025598486516501
 30
0.0
 10
1.136812185242736
 20
-3.012050086828038
 30
0.0
 10
1.137954127554217
 20
-3.003648565233536
 30
0.0
 10
1.139952526599295
 20
-2.997820482685938
 30
0.0
 10
1.143797660476189
 20
-2.994129169663842
 30
0.0
 10
1.14949845060927
 20
-2.992568803906856
 30
0.0
 10
1.155190319317979
 20
-2.991008438149871
 30
0.0
 10
1.162380987310573
 20
-2.990705680614938
 30
0.0
 10
1.171070454586899
 20
-2.991654709041768
 30
0.0
 10
1.176485759142097
 20
-2.992330091235064
 30
0.0
 10
1.180652064294109
 20
-2.994193214526982
 30
0.0
 10
1.183569370042934
 20
-2.997244078917522
 30
0.0
 10
1.18648667579181
 20
-3.000289121047772
 30
0.0
 10
1.188270960653476
 20
-3.003514653246914
 30
0.0
 10
1.188913303203662
 20
-3.006897386473787
 30
0.0
 10
1.189555645753898
 20
-3.010285941961001
 30
0.0
 10
1.189734074240024
 20
-3.01428583477832
 30
0.0
 10
1.189448588662192
 20
-3.018891242665606
 30
0.0
 10
1.188021160772829
 20
-3.041254544428966
 30
0.0
 10
1.187307446828173
 20
-3.061783834201858
 30
0.0
 10
1.187307446828173
 20
-3.080484934244572
 30
0.0
 10
1.187450189617114
 20
-3.101899207581102
 30
0.0
 10
1.186379618700104
 20
-3.11491195932313
 30
0.0
 10
1.184104655501464
 20
-3.119517367210366
 30
0.0
 10
1.182106256456386
 20
-3.122905922697579
 30
0.0
 10
1.178689350946266
 20
-3.125380383319654
 30
0.0
 10
1.173853938971104
 20
-3.126934926816349
 30
0.0
 10
1.169009605571672
 20
-3.128495292573334
 30
0.0
 10
1.163808415199885
 20
-3.129135741204941
 30
0.0
 10
1.158250367855746
 20
-3.128867917231748
 30
0.0
 10
1.150560100101958
 20
-3.128460359011594
 30
0.0
 10
1.145251852638466
 20
-3.126399278869914
 30
0.0
 10
1.142334546889641
 20
-3.122667210025787
 30
0.0
 10
1.139417241140765
 20
-3.11894096344195
 30
0.0
 10
1.137383156398451
 20
-3.113415638429336
 30
0.0
 10
1.136250135511292
 20
-3.106102879508524
 30
0.0
 10
1.134251736466214
 20
-3.093631597973171
 30
0.0
 10
1.133966250888331
 20
-3.082924461304906
 30
0.0
 10
1.135393678777695
 20
-3.073981469503678
 30
0.0
 10
1.128131639390681
 20
-3.074389027723782
 30
0.0
 10
1.123996559223744
 20
-3.074662673957264
 30
0.0
 10
1.123001820413365
 20
-3.074796585943886
 30
0.0
 10
1.123001820413365
 20
-3.074796585943886
 30
0.0
 10
1.123215934596777
 20
-3.077637848964084
 30
0.0
 10
1.123215934596777
 20
-3.077637848964084
 30
0.0
 10
1.12350142017461
 20
-3.080624668491433
 30
0.0
 10
1.123675387948626
 20
-3.086045192818876
 30
0.0
 10
1.123751220055257
 20
-3.093905244206704
 30
0.0
 10
1.123818130737567
 20
-3.101765295594532
 30
0.0
 10
1.123782445040332
 20
-3.10677826170182
 30
0.0
 10
1.123644162963551
 20
-3.108944142528722
 30
0.0
 10
1.12350142017461
 20
-3.115453429529856
 30
0.0
 10
1.121507481841692
 20
-3.120431462075505
 30
0.0
 10
1.117662347964798
 20
-3.123889884686099
 30
0.0
 10
1.113817214087854
 20
-3.127342485036453
 30
0.0
 10
1.108687395110539
 20
-3.129205608328422
 30
0.0
 10
1.102277351744962
 20
-3.129479254561904
 30
0.0
 10
1.093306859602913
 20
-3.129747078535097
 30
0.0
 10
1.086040359503739
 20
-3.128664138121646
 30
0.0
 10
1.080486772871785
 20
-3.126224611061312
 30
0.0
  0
SPLINE
  5
A7
330
99
100
AcDbEntity
  8
Layer 7
100
AcDbSpline
210
0.0
220
0.0
230
1.0
 70
    11
 71
     3
 72
    38
 73
    34
 74
     0
 42
0.0000000001
 43
0.0000000001
 40
0.0
 40
0.0
 40
0.0
 40
0.0
 40
1.0
 40
1.0
 40
1.0
 40
2.0
 40
2.0
 40
2.0
 40
3.0
 40
3.0
 40
3.0
 40
4.0
 40
4.0
 40
4.0
 40
5.0
 40
5.0
 40
5.0
 40
6.0
 40
6.0
 40
6.0
 40
7.0
 40
7.0
 40
7.0
 40
8.0
 40
8.0
 40
8.0
 40
9.0
 40
9.0
 40
9.0
 40
10.0
 40
10.0
 40
10.0
 40
11.0
 40
11.0
 40
11.0
 40
11.0
 10
1.25951745518023
 20
-3.054872811240859
 30
0.0
 10
1.25951745518023
 20
-3.054872811240859
 30
0.0
 10
1.259303340996817
 20
-3.055076590350911
 30
0.0
 10
1.259303340996817
 20
-3.055076590350911
 30
0.0
 10
1.259303340996817
 20
-3.055076590350911
 30
0.0
 10
1.259303340996817
 20
-3.055280369460963
 30
0.0
 10
1.259303340996817
 20
-3.055280369460963
 30
0.0
 10
1.259160598207876
 20
-3.055554015694497
 30
0.0
 10
1.258589627052111
 20
-3.057615095836176
 30
0.0
 10
1.257590427529571
 20
-3.061481076666925
 30
0.0
 10
1.256600149431354
 20
-3.065341235237383
 30
0.0
 10
1.25610054967011
 20
-3.067478004762783
 30
0.0
 10
1.25610054967011
 20
-3.067885562982938
 30
0.0
 10
1.25610054967011
 20
-3.068019474969509
 30
0.0
 10
1.256528778036883
 20
-3.06811845339439
 30
0.0
 10
1.257385234770481
 20
-3.068188320517871
 30
0.0
 10
1.258232770079808
 20
-3.068258187641302
 30
0.0
 10
1.259124912510641
 20
-3.068188320517871
 30
0.0
 10
1.260052740638709
 20
-3.067984541407819
 30
0.0
 10
1.260980568766778
 20
-3.067780762297716
 30
0.0
 10
1.261578304195457
 20
-3.067611916749405
 30
0.0
 10
1.261863789773289
 20
-3.067478004762783
 30
0.0
 10
1.262006532562231
 20
-3.066662888322575
 30
0.0
 10
1.262006532562231
 20
-3.065719682156036
 30
0.0
 10
1.261863789773289
 20
-3.064630919482346
 30
0.0
 10
1.261721046984398
 20
-3.063547979068895
 30
0.0
 10
1.261364190012045
 20
-3.061888634887029
 30
0.0
 10
1.260802140280601
 20
-3.059652886936696
 30
0.0
 10
1.260231169124886
 20
-3.057411316726124
 30
0.0
 10
1.259945683547003
 20
-3.056095485901222
 30
0.0
 10
1.259945683547003
 20
-3.055687927681118
 30
0.0
 10
1.259945683547003
 20
-3.055687927681118
 30
0.0
 10
1.25951745518023
 20
-3.054872811240859
 30
0.0
 10
1.25951745518023
 20
-3.054872811240859
 30
0.0
  0
SPLINE
  5
A8
330
99
100
AcDbEntity
  8
Layer 7
100
AcDbSpline
210
0.0
220
0.0
230
1.0
 70
     9
 71
     3
 72
    74
 73
    70
 74
     0
 42
0.0000000001
 43
0.0000000001
 40
0.0
 40
0.0
 40
0.0
 40
0.0
 40
1.0
 40
1.0
 40
1.0
 40
2.0
 40
2.0
 40
2.0
 40
3.0
 40
3.0
 40
3.0
 40
4.0
 40
4.0
 40
4.0
 40
5.0
 40
5.0
 40
5.0
 40
6.0
 40
6.0
 40
6.0
 40
7.0
 40
7.0
 40
7.0
 40
8.0
 40
8.0
 40
8.0
 40
9.0
 40
9.0
 40
9.0
 40
10.0
 40
10.0
 40
10.0
 40
11.0
 40
11.0
 40
11.0
 40
12.0
 40
12.0
 40
12.0
 40
13.0
 40
13.0
 40
13.0
 40
14.0
 40
14.0
 40
14.0
 40
15.0
 40
15.0
 40
15.0
 40
16.0
 40
16.0
 40
16.0
 40
17.0
 40
17.0
 40
17.0
 40
18.0
 40
18.0
 40
18.0
 40
19.0
 40
19.0
 40
19.0
 40
20.0
 40
20.0
 40
20.0
 40
21.0
 40
21.0
 40
21.0
 40
22.0
 40
22.0
 40
22.0
 40
23.0
 40
23.0
 40
23.0
 40
23.0
 10
1.240720014162434
 20
-2.992464003221685
 30
0.0
 10
1.244422405250437
 20
-2.989616917941197
 30
0.0
 10
1.248544103280892
 20
-2.987992507321071
 30
0.0
 10
1.253111872526763
 20
-2.987584949100967
 30
0.0
 10
1.257661798924042
 20
-2.987177390880863
 30
0.0
 10
1.262648875112467
 20
-2.987451037114346
 30
0.0
 10
1.268064179667615
 20
-2.988400065541175
 30
0.0
 10
1.275040733476796
 20
-2.98989056417473
 30
0.0
 10
1.280313295243053
 20
-2.993616810758567
 30
0.0
 10
1.283872943542064
 20
-2.999578805292685
 30
0.0
 10
1.292847896396324
 20
-3.015164996081719
 30
0.0
 10
1.301109135305877
 20
-3.033935963247863
 30
0.0
 10
1.308656660270773
 20
-3.055891706791119
 30
0.0
 10
1.31620418523567
 20
-3.077841628074136
 30
0.0
 10
1.320477547479387
 20
-3.096274904143607
 30
0.0
 10
1.321476747001927
 20
-3.111179890479054
 30
0.0
 10
1.320905775846161
 20
-3.116606237066737
 30
0.0
 10
1.319406976562378
 20
-3.120466395637195
 30
0.0
 10
1.316989270574797
 20
-3.122772010710958
 30
0.0
 10
1.314428821798274
 20
-3.125345449757913
 30
0.0
 10
1.306729632620166
 20
-3.126835948391468
 30
0.0
 10
1.293918467313334
 20
-3.127243506611572
 30
0.0
 10
1.286076535346233
 20
-3.127511330584815
 30
0.0
 10
1.280634466518121
 20
-3.126801014829728
 30
0.0
 10
1.277574417980354
 20
-3.125106737086171
 30
0.0
 10
1.274505448018266
 20
-3.123412459342564
 30
0.0
 10
1.2720520563335
 20
-3.119791013443899
 30
0.0
 10
1.270196400077313
 20
-3.114230754869544
 30
0.0
 10
1.270053657288422
 20
-3.11382319664944
 30
0.0
 10
1.26983954310501
 20
-3.113083769592953
 30
0.0
 10
1.269562978951449
 20
-3.111995006919212
 30
0.0
 10
1.269268571949244
 20
-3.110912066505811
 30
0.0
 10
1.269054457765883
 20
-3.110062016503863
 30
0.0
 10
1.268920636401263
 20
-3.109456501433997
 30
0.0
 10
1.268777893612322
 20
-3.108845164103841
 30
0.0
 10
1.268492408034439
 20
-3.108134848348804
 30
0.0
 10
1.268064179667615
 20
-3.107319731908546
 30
0.0
 10
1.267635951300841
 20
-3.106504615468338
 30
0.0
 10
1.267136351539546
 20
-3.105829233275042
 30
0.0
 10
1.266565380383831
 20
-3.105287763068316
 30
0.0
 10
1.265994409228066
 20
-3.105014116834783
 30
0.0
 10
1.263719446029477
 20
-3.104915138409902
 30
0.0
 10
1.259731569363591
 20
-3.104979183273043
 30
0.0
 10
1.255743692697756
 20
-3.105049050396524
 30
0.0
 10
1.253602550863736
 20
-3.105217895944835
 30
0.0
 10
1.253325986710175
 20
-3.105491542178368
 30
0.0
 10
1.252897758343402
 20
-3.105899100398472
 30
0.0
 10
1.252469529976578
 20
-3.107319731908546
 30
0.0
 10
1.252041301609804
 20
-3.10975925896893
 30
0.0
 10
1.250899359298323
 20
-3.113962930896352
 30
0.0
 10
1.249266738649869
 20
-3.117654243918448
 30
0.0
 10
1.24712559681585
 20
-3.120839020295559
 30
0.0
 10
1.244993376406152
 20
-3.12402379667272
 30
0.0
 10
1.242780863177661
 20
-3.125886919964639
 30
0.0
 10
1.240505899979022
 20
-3.126428390171364
 30
0.0
 10
1.235090595423874
 20
-3.127918888804919
 30
0.0
 10
1.226187013964085
 20
-3.128256579901542
 30
0.0
 10
1.213795155599756
 20
-3.127447285721624
 30
0.0
 10
1.203678260434066
 20
-3.126766081268038
 30
0.0
 10
1.197415420569541
 20
-3.12296996756072
 30
0.0
 10
1.19499771458201
 20
-3.116058944599772
 30
0.0
 10
1.194854971793069
 20
-3.10373321957157
 30
0.0
 10
1.197665220450188
 20
-3.088147028782587
 30
0.0
 10
1.20343738197774
 20
-3.069306194493012
 30
0.0
 10
1.20920062208092
 20
-3.050471182463727
 30
0.0
 10
1.215748947523277
 20
-3.033732184137811
 30
0.0
 10
1.223091279729083
 20
-3.019095021775607
 30
0.0
 10
1.230424690510567
 20
-3.004457859413453
 30
0.0
 10
1.236303909129775
 20
-2.995584734735656
 30
0.0
 10
1.240720014162434
 20
-2.992464003221685
 30
0.0
  0
SPLINE
  5
A9
330
99
100
AcDbEntity
  8
Layer 7
100
AcDbSpline
210
0.0
220
0.0
230
1.0
 70
     9
 71
     3
 72
   104
 73
   100
 74
     0
 42
0.0000000001
 43
0.0000000001
 40
0.0
 40
0.0
 40
0.0
 40
0.0
 40
1.0
 40
1.0
 40
1.0
 40
2.0
 40
2.0
 40
2.0
 40
3.0
 40
3.0
 40
3.0
 40
4.0
 40
4.0
 40
4.0
 40
5.0
 40
5.0
 40
5.0
 40
6.0
 40
6.0
 40
6.0
 40
7.0
 40
7.0
 40
7.0
 40
8.0
 40
8.0
 40
8.0
 40
9.0
 40
9.0
 40
9.0
 40
10.0
 40
10.0
 40
10.0
 40
11.0
 40
11.0
 40
11.0
 40
12.0
 40
12.0
 40
12.0
 40
13.0
 40
13.0
 40
13.0
 40
14.0
 40
14.0
 40
14.0
 40
15.0
 40
15.0
 40
15.0
 40
16.0
 40
16.0
 40
16.0
 40
17.0
 40
17.0
 40
17.0
 40
18.0
 40
18.0
 40
18.0
 40
19.0
 40
19.0
 40
19.0
 40
20.0
 40
20.0
 40
20.0
 40
21.0
 40
21.0
 40
21.0
 40
22.0
 40
22.0
 40
22.0
 40
23.0
 40
23.0
 40
23.0
 40
24.0
 40
24.0
 40
24.0
 40
25.0
 40
25.0
 40
25.0
 40
26.0
 40
26.0
 40
26.0
 40
27.0
 40
27.0
 40
27.0
 40
28.0
 40
28.0
 40
28.0
 40
29.0
 40
29.0
 40
29.0
 40
30.0
 40
30.0
 40
30.0
 40
31.0
 40
31.0
 40
31.0
 40
32.0
 40
32.0
 40
32.0
 40
33.0
 40
33.0
 40
33.0
 40
33.0
 10
1.388565857800939
 20
-3.11687406103998
 30
0.0
 10
1.387852143856283
 20
-3.115383562406425
 30
0.0
 10
1.386781572939273
 20
-3.11277518979773
 30
0.0
 10
1.38535414504991
 20
-3.109048943213893
 30
0.0
 10
1.383935638584868
 20
-3.105322696630006
 30
0.0
 10
1.383150553245741
 20
-3.103185927104605
 30
0.0
 10
1.383007810456799
 20
-3.10264445689788
 30
0.0
 10
1.380723925833889
 20
-3.096950286336954
 30
0.0
 10
1.379448162157788
 20
-3.094109023316756
 30
0.0
 10
1.379162676579906
 20
-3.094109023316756
 30
0.0
 10
1.379019933790964
 20
-3.094109023316756
 30
0.0
 10
1.378948562396494
 20
-3.094376847289948
 30
0.0
 10
1.378948562396494
 20
-3.094918317496674
 30
0.0
 10
1.378805819607552
 20
-3.096140992156986
 30
0.0
 10
1.378627391121426
 20
-3.098714431203991
 30
0.0
 10
1.378413276938014
 20
-3.10264445689788
 30
0.0
 10
1.378199162754602
 20
-3.106574482591768
 30
0.0
 10
1.377949362873954
 20
-3.109695214105739
 30
0.0
 10
1.377663877296122
 20
-3.111995006919212
 30
0.0
 10
1.376950163351415
 20
-3.121753115160698
 30
0.0
 10
1.373105029474522
 20
-3.127103772364661
 30
0.0
 10
1.36612847566534
 20
-3.12805280079154
 30
0.0
 10
1.363425284099927
 20
-3.128460359011594
 30
0.0
 10
1.358830750581091
 20
-3.128699071683386
 30
0.0
 10
1.352344875108933
 20
-3.128768938806867
 30
0.0
 10
1.345867921061047
 20
-3.128832983670008
 30
0.0
 10
1.341059273358799
 20
-3.128734005245127
 30
0.0
 10
1.337927853426562
 20
-3.128460359011594
 30
0.0
 10
1.333797233971785
 20
-3.12805280079154
 30
0.0
 10
1.330951299617431
 20
-3.125479361744535
 30
0.0
 10
1.329381128939126
 20
-3.120734219610438
 30
0.0
 10
1.327810958260872
 20
-3.11585516548967
 30
0.0
 10
1.327034794346016
 20
-3.100105951412615
 30
0.0
 10
1.327034794346016
 20
-3.073474932858693
 30
0.0
 10
1.327034794346016
 20
-3.04684391430472
 30
0.0
 10
1.328025072444284
 20
-3.023298693703029
 30
0.0
 10
1.330023471489362
 20
-3.002833448793277
 30
0.0
 10
1.330594442645077
 20
-2.997546836452455
 30
0.0
 10
1.334118405246903
 20
-2.99396032411548
 30
0.0
 10
1.34059535929479
 20
-2.992056445001581
 30
0.0
 10
1.347081234766948
 20
-2.990164210408213
 30
0.0
 10
1.35366524590654
 20
-2.989349093968005
 30
0.0
 10
1.360356314137839
 20
-2.989616917941197
 30
0.0
 10
1.363353912705456
 20
-2.989756652188109
 30
0.0
 10
1.365950047179214
 20
-2.990333055956524
 30
0.0
 10
1.368162560407654
 20
-2.991346129246494
 30
0.0
 10
1.370366152211823
 20
-2.992365024796804
 30
0.0
 10
1.372391315529865
 20
-2.99396032411548
 30
0.0
 10
1.374246971786002
 20
-2.996126204942381
 30
0.0
 10
1.376093706617818
 20
-2.998292085769233
 30
0.0
 10
1.377628191598887
 20
-3.000393921732943
 30
0.0
 10
1.378841505304787
 20
-3.002425890573224
 30
0.0
 10
1.380045897586417
 20
-3.004457859413453
 30
0.0
 10
1.381758811053663
 20
-3.007438856680512
 30
0.0
 10
1.383971324282103
 20
-3.011368882374401
 30
0.0
 10
1.386174916086272
 20
-3.01530473032863
 30
0.0
 10
1.388137629434115
 20
-3.018623418692363
 30
0.0
 10
1.389841621477039
 20
-3.021330769725939
 30
0.0
 10
1.390127107054922
 20
-3.021062945752696
 30
0.0
 10
1.390127107054922
 20
-3.017604523142103
 30
0.0
 10
1.389841621477039
 20
-3.010961324154297
 30
0.0
 10
1.389841621477039
 20
-3.004865417633557
 30
0.0
 10
1.390020049963216
 20
-3.000562767281255
 30
0.0
 10
1.390376906935519
 20
-2.99805337309744
 30
0.0
 10
1.390733763907873
 20
-2.995549801173915
 30
0.0
 10
1.391197677971932
 20
-2.99392539055379
 30
0.0
 10
1.391768649127647
 20
-2.993174318976722
 30
0.0
 10
1.392330698859091
 20
-2.992434891920235
 30
0.0
 10
1.393615383959462
 20
-2.991584841918286
 30
0.0
 10
1.395613783004541
 20
-2.990635813491508
 30
0.0
 10
1.401448394502242
 20
-2.988330198417745
 30
0.0
 10
1.407613098699332
 20
-2.987317125127724
 30
0.0
 10
1.414090052747218
 20
-2.987584949100967
 30
0.0
 10
1.420575928219427
 20
-2.98785859533445
 30
0.0
 10
1.426017997047539
 20
-2.989483005954575
 30
0.0
 10
1.430434102080147
 20
-2.992464003221685
 30
0.0
 10
1.434421978746033
 20
-2.995177176515552
 30
0.0
 10
1.437062720341297
 20
-2.998734577551077
 30
0.0
 10
1.438338484017397
 20
-3.00313620632821
 30
0.0
 10
1.439623169117819
 20
-3.007543657365684
 30
0.0
 10
1.440408254456946
 20
-3.016929140948756
 30
0.0
 10
1.440693740034829
 20
-3.031292657077427
 30
0.0
 10
1.440979225612661
 20
-3.048642992733498
 30
0.0
 10
1.440658054337594
 20
-3.065242256812502
 30
0.0
 10
1.439730226209525
 20
-3.081096271574728
 30
0.0
 10
1.438802398081457
 20
-3.096950286336954
 30
0.0
 10
1.437490948708121
 20
-3.107861202115271
 30
0.0
 10
1.435778035240875
 20
-3.11382319664944
 30
0.0
 10
1.434065121773679
 20
-3.119791013443899
 30
0.0
 10
1.430862330446972
 20
-3.123854951124409
 30
0.0
 10
1.42616073983648
 20
-3.12602083195126
 30
0.0
 10
1.422315605959536
 20
-3.127377418598193
 30
0.0
 10
1.418042243715818
 20
-3.128186712778111
 30
0.0
 10
1.413349574529598
 20
-3.128460359011594
 30
0.0
 10
1.408647983919106
 20
-3.128734005245127
 30
0.0
 10
1.403839336216909
 20
-3.127953822366609
 30
0.0
 10
1.398923631422955
 20
-3.126125632636431
 30
0.0
 10
1.394007926629051
 20
-3.124291620645913
 30
0.0
 10
1.390555335421696
 20
-3.121211644953973
 30
0.0
 10
1.388565857800939
 20
-3.11687406103998
 30
0.0
  0
SPLINE
  5
AA
330
99
100
AcDbEntity
  8
Layer 7
100
AcDbSpline
210
0.0
220
0.0
230
1.0
 70
     9
 71
     3
 72
   113
 73
   109
 74
     0
 42
0.0000000001
 43
0.0000000001
 40
0.0
 40
0.0
 40
0.0
 40
0.0
 40
1.0
 40
1.0
 40
1.0
 40
2.0
 40
2.0
 40
2.0
 40
3.0
 40
3.0
 40
3.0
 40
4.0
 40
4.0
 40
4.0
 40
5.0
 40
5.0
 40
5.0
 40
6.0
 40
6.0
 40
6.0
 40
7.0
 40
7.0
 40
7.0
 40
8.0
 40
8.0
 40
8.0
 40
9.0
 40
9.0
 40
9.0
 40
10.0
 40
10.0
 40
10.0
 40
11.0
 40
11.0
 40
11.0
 40
12.0
 40
12.0
 40
12.0
 40
13.0
 40
13.0
 40
13.0
 40
14.0
 40
14.0
 40
14.0
 40
15.0
 40
15.0
 40
15.0
 40
16.0
 40
16.0
 40
16.0
 40
17.0
 40
17.0
 40
17.0
 40
18.0
 40
18.0
 40
18.0
 40
19.0
 40
19.0
 40
19.0
 40
20.0
 40
20.0
 40
20.0
 40
21.0
 40
21.0
 40
21.0
 40
22.0
 40
22.0
 40
22.0
 40
23.0
 40
23.0
 40
23.0
 40
24.0
 40
24.0
 40
24.0
 40
25.0
 40
25.0
 40
25.0
 40
26.0
 40
26.0
 40
26.0
 40
27.0
 40
27.0
 40
27.0
 40
28.0
 40
28.0
 40
28.0
 40
29.0
 40
29.0
 40
29.0
 40
30.0
 40
30.0
 40
30.0
 40
31.0
 40
31.0
 40
31.0
 40
32.0
 40
32.0
 40
32.0
 40
33.0
 40
33.0
 40
33.0
 40
34.0
 40
34.0
 40
34.0
 40
35.0
 40
35.0
 40
35.0
 40
36.0
 40
36.0
 40
36.0
 40
36.0
 10
1.509477921452445
 20
-3.12195689427075
 30
0.0
 10
1.50790775077414
 20
-3.120466395637195
 30
0.0
 10
1.506917472675922
 20
-3.118673139468707
 30
0.0
 10
1.506489244309098
 20
-3.116571303505047
 30
0.0
 10
1.506061015942325
 20
-3.114469467541336
 30
0.0
 10
1.505775530364442
 20
-3.109893170955551
 30
0.0
 10
1.5056327875755
 20
-3.102848236007932
 30
0.0
 10
1.5056327875755
 20
-3.102172853814636
 30
0.0
 10
1.505454359089374
 20
-3.099902172302563
 30
0.0
 10
1.505097502117021
 20
-3.096036191471865
 30
0.0
 10
1.504740645144667
 20
-3.092176032901407
 30
0.0
 10
1.504464080991106
 20
-3.089264902757779
 30
0.0
 10
1.504249966807694
 20
-3.087296978780639
 30
0.0
 10
1.504035852624332
 20
-3.08533487706384
 30
0.0
 10
1.503500567165802
 20
-3.082994328428387
 30
0.0
 10
1.502644110432204
 20
-3.08028115513452
 30
0.0
 10
1.501787653698607
 20
-3.077573804100943
 30
0.0
 10
1.500717082781597
 20
-3.075402101013802
 30
0.0
 10
1.499441319105496
 20
-3.073777690393626
 30
0.0
 10
1.499298576316555
 20
-3.076083305467389
 30
0.0
 10
1.499441319105496
 20
-3.080519867806313
 30
0.0
 10
1.499869547472321
 20
-3.087093199670587
 30
0.0
 10
1.500297775839094
 20
-3.093666531534911
 30
0.0
 10
1.500324540112008
 20
-3.099459680520718
 30
0.0
 10
1.499976604564027
 20
-3.104472646628058
 30
0.0
 10
1.499619747591673
 20
-3.109491434995738
 30
0.0
 10
1.49865623376637
 20
-3.113619417539388
 30
0.0
 10
1.497086063088065
 20
-3.11687406103998
 30
0.0
 10
1.494953842678367
 20
-3.121211644953973
 30
0.0
 10
1.492098986899691
 20
-3.123854951124409
 30
0.0
 10
1.48853933860068
 20
-3.124803979551238
 30
0.0
 10
1.481562784791498
 20
-3.126562302157986
 30
0.0
 10
1.475157202138082
 20
-3.127243506611572
 30
0.0
 10
1.46931366921611
 20
-3.126835948391468
 30
0.0
 10
1.455494382962418
 20
-3.125345449757913
 30
0.0
 10
1.447875486603051
 20
-3.121345556940594
 30
0.0
 10
1.446456980138009
 20
-3.1148420921997
 30
0.0
 10
1.446028751771235
 20
-3.113217681579574
 30
0.0
 10
1.445886008982294
 20
-3.097666424352281
 30
0.0
 10
1.446028751771235
 20
-3.068188320517871
 30
0.0
 10
1.446171494560177
 20
-3.03871021668341
 30
0.0
 10
1.446456980138009
 20
-3.022145886166147
 30
0.0
 10
1.446885208504833
 20
-3.018483684445451
 30
0.0
 10
1.447590001025168
 20
-3.011980219704608
 30
0.0
 10
1.448268029272639
 20
-3.007747436475736
 30
0.0
 10
1.448910371822825
 20
-3.005779512498646
 30
0.0
 10
1.449552714373011
 20
-3.003817410781847
 30
0.0
 10
1.451078277929759
 20
-3.001546729269825
 30
0.0
 10
1.453504905341661
 20
-2.998967467962579
 30
0.0
 10
1.458206495952152
 20
-2.994495972061915
 30
0.0
 10
1.46529010685304
 20
-2.991788621028338
 30
0.0
 10
1.474764659468544
 20
-2.990839592601509
 30
0.0
 10
1.484230290659727
 20
-2.98989056417473
 30
0.0
 10
1.491322822984885
 20
-2.991317017945094
 30
0.0
 10
1.496024413595377
 20
-2.995107309392071
 30
0.0
 10
1.49758566284936
 20
-2.996597808025626
 30
0.0
 10
1.498691919463605
 20
-2.998257152207492
 30
0.0
 10
1.499334262013791
 20
-3.000091164198011
 30
0.0
 10
1.499976604564027
 20
-3.001919353928188
 30
0.0
 10
1.500360225809244
 20
-3.005069196743609
 30
0.0
 10
1.500511890022506
 20
-3.009540692644223
 30
0.0
 10
1.500511890022506
 20
-3.009540692644223
 30
0.0
 10
1.500717082781597
 20
-3.016655494715273
 30
0.0
 10
1.500717082781597
 20
-3.016655494715273
 30
0.0
 10
1.500717082781597
 20
-3.016655494715273
 30
0.0
 10
1.503714681349214
 20
-3.012591557034764
 30
0.0
 10
1.503714681349214
 20
-3.012591557034764
 30
0.0
 10
1.510405749580513
 20
-3.002967360779898
 30
0.0
 10
1.516392025291426
 20
-2.997139278232351
 30
0.0
 10
1.521655665633362
 20
-2.995107309392071
 30
0.0
 10
1.526071770666021
 20
-2.994164103225582
 30
0.0
 10
1.530202390120797
 20
-2.994164103225582
 30
0.0
 10
1.534047523997691
 20
-2.995107309392071
 30
0.0
 10
1.537892657874635
 20
-2.9960563378189
 30
0.0
 10
1.541238191990285
 20
-2.997849593987388
 30
0.0
 10
1.544093047768961
 20
-3.000492900157824
 30
0.0
 10
1.546938982123315
 20
-3.00313620632821
 30
0.0
 10
1.549222866746276
 20
-3.006053158732179
 30
0.0
 10
1.55092685878915
 20
-3.00923793510929
 30
0.0
 10
1.552639772256396
 20
-3.012422711486401
 30
0.0
 10
1.553496228989994
 20
-3.015741399850134
 30
0.0
 10
1.553496228989994
 20
-3.019194000200488
 30
0.0
 10
1.553496228989994
 20
-3.022652422811132
 30
0.0
 10
1.552497029467455
 20
-3.025668353639932
 30
0.0
 10
1.550498630422377
 20
-3.028241792686938
 30
0.0
 10
1.547795438856913
 20
-3.030821053994183
 30
0.0
 10
1.543522076613195
 20
-3.03362738345264
 30
0.0
 10
1.537678543691223
 20
-3.036678247843181
 30
0.0
 10
1.531843932193522
 20
-3.03972911223367
 30
0.0
 10
1.527856055527687
 20
-3.042203572855795
 30
0.0
 10
1.525714913693668
 20
-3.044101629709454
 30
0.0
 10
1.53725923674872
 20
-3.046942892729601
 30
0.0
 10
1.545440182839532
 20
-3.050401315340245
 30
0.0
 10
1.550284516238965
 20
-3.054465253020755
 30
0.0
 10
1.555985306372046
 20
-3.059484041388385
 30
0.0
 10
1.559616326065527
 20
-3.065446035922554
 30
0.0
 10
1.561186496743832
 20
-3.072357058883552
 30
0.0
 10
1.562747745997764
 20
-3.0792680818445
 30
0.0
 10
1.562676374603294
 20
-3.088484719879261
 30
0.0
 10
1.56097238256042
 20
-3.100001150727494
 30
0.0
 10
1.558973983515341
 20
-3.112740256235989
 30
0.0
 10
1.555913934977575
 20
-3.120466395637195
 30
0.0
 10
1.551783315522799
 20
-3.123173746670772
 30
0.0
 10
1.546653496545433
 20
-3.12602083195126
 30
0.0
 10
1.539462828552889
 20
-3.127447285721624
 30
0.0
 10
1.530202390120797
 20
-3.127447285721624
 30
0.0
 10
1.520941951688705
 20
-3.127447285721624
 30
0.0
 10
1.514036769273995
 20
-3.125613273731156
 30
0.0
 10
1.509477921452445
 20
-3.12195689427075
 30
0.0
  0
ENDBLK
  5
9C
330
99
100
AcDbEntity
  8
0
100
AcDbBlockEnd
  0
BLOCK
  5
AD
330
AB
100
AcDbEntity
  8
0
100
AcDbBlockBegin
  2
Block_4
 70
     0
 10
0.0
 20
0.0
 30
0.0
  3
Block_4
  1

  0
SPLINE
  5
AF
330
AB
100
AcDbEntity
  8
Layer 7
100
AcDbSpline
210
0.0
220
0.0
230
1.0
 70
     9
 71
     3
 72
    20
 73
    16
 74
     0
 42
0.0000000001
 43
0.0000000001
 40
0.0
 40
0.0
 40
0.0
 40
0.0
 40
1.0
 40
1.0
 40
1.0
 40
2.0
 40
2.0
 40
2.0
 40
3.0
 40
3.0
 40
3.0
 40
4.0
 40
4.0
 40
4.0
 40
5.0
 40
5.0
 40
5.0
 40
5.0
 10
0.729086858270067
 20
-2.722637599203279
 30
0.0
 10
0.9592069755759919
 20
-2.726235182859429
 30
0.0
 10
1.189327092881891
 20
-2.729832766515578
 30
0.0
 10
1.419447210187829
 20
-2.733430350171728
 30
0.0
 10
1.446269225615802
 20
-2.733849672243422
 30
0.0
 10
1.446277446126512
 20
-2.692183134092147
 30
0.0
 10
1.419447210187829
 20
-2.691763683505061
 30
0.0
 10
1.189327092881891
 20
-2.688166099848912
 30
0.0
 10
0.9592069755759919
 20
-2.684568516192762
 30
0.0
 10
0.729086858270067
 20
-2.680970932536613
 30
0.0
 10
0.7022648428420805
 20
-2.680551610464918
 30
0.0
 10
0.7022566223313712
 20
-2.722218148616194
 30
0.0
 10
0.729086858270067
 20
-2.722637599203279
 30
0.0
 10
0.729086858270067
 20
-2.722637599203279
 30
0.0
 10
0.729086858270067
 20
-2.722637599203279
 30
0.0
 10
0.729086858270067
 20
-2.722637599203279
 30
0.0
  0
HATCH
  5
B0
330
AB
100
AcDbEntity
  8
Layer 7
 62
    18
420
        0
440
 33554687
100
AcDbHatch
 10
0.0
 20
0.0
 30
0.0
210
0.0
220
0.0
230
1.0
  2
SOLID
 70
     1
 71
     1
 91
        1
 92
        1
 93
        1
 72
     4
 94
        3
 73
     0
 74
     0
 95
       20
 96
       16
 40
0.0
 40
0.0
 40
0.0
 40
0.0
 40
1.0
 40
1.0
 40
1.0
 40
2.0
 40
2.0
 40
2.0
 40
3.0
 40
3.0
 40
3.0
 40
4.0
 40
4.0
 40
4.0
 40
5.0
 40
5.0
 40
5.0
 40
5.0
 10
0.729086858270067
 20
-2.722637599203279
 10
0.9592069755759919
 20
-2.726235182859429
 10
1.189327092881891
 20
-2.729832766515578
 10
1.419447210187829
 20
-2.733430350171728
 10
1.446269225615802
 20
-2.733849672243422
 10
1.446277446126512
 20
-2.692183134092147
 10
1.419447210187829
 20
-2.691763683505061
 10
1.189327092881891
 20
-2.688166099848912
 10
0.9592069755759919
 20
-2.684568516192762
 10
0.729086858270067
 20
-2.680970932536613
 10
0.7022648428420805
 20
-2.680551610464918
 10
0.7022566223313712
 20
-2.722218148616194
 10
0.729086858270067
 20
-2.722637599203279
 10
0.729086858270067
 20
-2.722637599203279
 10
0.729086858270067
 20
-2.722637599203279
 10
0.729086858270067
 20
-2.722637599203279
 97
        0
 97
        1
330
AF
 75
     2
 76
     1
 98
        1
 10
0.0
 20
0.0
450
        0
451
        0
460
0.0
461
0.0
452
        0
462
0.0
453
        0
470

  0
ENDBLK
  5
AE
330
AB
100
AcDbEntity
  8
0
100
AcDbBlockEnd
  0
BLOCK
  5
B3
330
B1
100
AcDbEntity
  8
0
100
AcDbBlockBegin
  2
Block_5
 70
     0
 10
0.0
 20
0.0
 30
0.0
  3
Block_5
  1

  0
SPLINE
  5
B5
330
B1
100
AcDbEntity
  8
Layer 7
100
AcDbSpline
210
0.0
220
0.0
230
1.0
 70
     9
 71
     3
 72
    20
 73
    16
 74
     0
 42
0.0000000001
 43
0.0000000001
 40
0.0
 40
0.0
 40
0.0
 40
0.0
 40
1.0
 40
1.0
 40
1.0
 40
2.0
 40
2.0
 40
2.0
 40
3.0
 40
3.0
 40
3.0
 40
4.0
 40
4.0
 40
4.0
 40
5.0
 40
5.0
 40
5.0
 40
5.0
 10
0.6933236754844831
 20
-2.807046762624925
 30
0.0
 10
0.9553089885509455
 20
-2.782095434050334
 30
0.0
 10
1.219373089601301
 20
-2.783365993707699
 30
0.0
 10
1.481106143642187
 20
-2.810837215835691
 30
0.0
 10
1.507744442333811
 20
-2.813633143247873
 30
0.0
 10
1.507548079603515
 20
-2.771945866558553
 30
0.0
 10
1.481106143642187
 20
-2.769170549169024
 30
0.0
 10
1.219373064210988
 20
-2.741699324376112
 30
0.0
 10
0.9553089631361393
 20
-2.740428769804136
 30
0.0
 10
0.6933236754844831
 20
-2.765380095958259
 30
0.0
 10
0.6668631918276384
 20
-2.767900177004902
 30
0.0
 10
0.6666007287216063
 20
-2.809591840504885
 30
0.0
 10
0.6933236754844831
 20
-2.807046762624925
 30
0.0
 10
0.6933236754844831
 20
-2.807046762624925
 30
0.0
 10
0.6933236754844831
 20
-2.807046762624925
 30
0.0
 10
0.6933236754844831
 20
-2.807046762624925
 30
0.0
  0
HATCH
  5
B6
330
B1
100
AcDbEntity
  8
Layer 7
 62
    18
420
        0
440
 33554687
100
AcDbHatch
 10
0.0
 20
0.0
 30
0.0
210
0.0
220
0.0
230
1.0
  2
SOLID
 70
     1
 71
     1
 91
        1
 92
        1
 93
        1
 72
     4
 94
        3
 73
     0
 74
     0
 95
       20
 96
       16
 40
0.0
 40
0.0
 40
0.0
 40
0.0
 40
1.0
 40
1.0
 40
1.0
 40
2.0
 40
2.0
 40
2.0
 40
3.0
 40
3.0
 40
3.0
 40
4.0
 40
4.0
 40
4.0
 40
5.0
 40
5.0
 40
5.0
 40
5.0
 10
0.6933236754844831
 20
-2.807046762624925
 10
0.9553089885509455
 20
-2.782095434050334
 10
1.219373089601301
 20
-2.783365993707699
 10
1.481106143642187
 20
-2.810837215835691
 10
1.507744442333811
 20
-2.813633143247873
 10
1.507548079603515
 20
-2.771945866558553
 10
1.481106143642187
 20
-2.769170549169024
 10
1.219373064210988
 20
-2.741699324376112
 10
0.9553089631361393
 20
-2.740428769804136
 10
0.6933236754844831
 20
-2.765380095958259
 10
0.6668631918276384
 20
-2.767900177004902
 10
0.6666007287216063
 20
-2.809591840504885
 10
0.6933236754844831
 20
-2.807046762624925
 10
0.6933236754844831
 20
-2.807046762624925
 10
0.6933236754844831
 20
-2.807046762624925
 10
0.6933236754844831
 20
-2.807046762624925
 97
        0
 97
        1
330
B5
 75
     2
 76
     1
 98
        1
 10
0.0
 20
0.0
450
        0
451
        0
460
0.0
461
0.0
452
        0
462
0.0
453
        0
470

  0
ENDBLK
  5
B4
330
B1
100
AcDbEntity
  8
0
100
AcDbBlockEnd
  0
BLOCK
  5
B9
330
B7
100
AcDbEntity
  8
0
100
AcDbBlockBegin
  2
Block_6
 70
     0
 10
0.0
 20
0.0
 30
0.0
  3
Block_6
  1

  0
SPLINE
  5
BB
330
B7
100
AcDbEntity
  8
Layer 7
100
AcDbSpline
210
0.0
220
0.0
230
1.0
 70
     9
 71
     3
 72
    20
 73
    16
 74
     0
 42
0.0000000001
 43
0.0000000001
 40
0.0
 40
0.0
 40
0.0
 40
0.0
 40
1.0
 40
1.0
 40
1.0
 40
2.0
 40
2.0
 40
2.0
 40
3.0
 40
3.0
 40
3.0
 40
4.0
 40
4.0
 40
4.0
 40
5.0
 40
5.0
 40
5.0
 40
5.0
 10
0.7433309254283308
 20
-2.902040215626357
 30
0.0
 10
0.993128288255813
 20
-2.897770619152879
 30
0.0
 10
1.24292565108327
 20
-2.893501022679402
 30
0.0
 10
1.492723013910765
 20
-2.889231426205924
 30
0.0
 10
1.519505956780044
 20
-2.888773645718856
 30
0.0
 10
1.519589900249431
 20
-2.847105544270233
 30
0.0
 10
1.492723013910765
 20
-2.847564759539257
 30
0.0
 10
1.24292565108327
 20
-2.851834356012735
 30
0.0
 10
0.993128288255813
 20
-2.856103952486212
 30
0.0
 10
0.7433309254283308
 20
-2.86037354895969
 30
0.0
 10
0.7165479825590511
 20
-2.860831329446757
 30
0.0
 10
0.7164640390896517
 20
-2.902499430895381
 30
0.0
 10
0.7433309254283308
 20
-2.902040215626357
 30
0.0
 10
0.7433309254283308
 20
-2.902040215626357
 30
0.0
 10
0.7433309254283308
 20
-2.902040215626357
 30
0.0
 10
0.7433309254283308
 20
-2.902040215626357
 30
0.0
  0
HATCH
  5
BC
330
B7
100
AcDbEntity
  8
Layer 7
 62
    18
420
        0
440
 33554687
100
AcDbHatch
 10
0.0
 20
0.0
 30
0.0
210
0.0
220
0.0
230
1.0
  2
SOLID
 70
     1
 71
     1
 91
        1
 92
        1
 93
        1
 72
     4
 94
        3
 73
     0
 74
     0
 95
       20
 96
       16
 40
0.0
 40
0.0
 40
0.0
 40
0.0
 40
1.0
 40
1.0
 40
1.0
 40
2.0
 40
2.0
 40
2.0
 40
3.0
 40
3.0
 40
3.0
 40
4.0
 40
4.0
 40
4.0
 40
5.0
 40
5.0
 40
5.0
 40
5.0
 10
0.7433309254283308
 20
-2.902040215626357
 10
0.993128288255813
 20
-2.897770619152879
 10
1.24292565108327
 20
-2.893501022679402
 10
1.492723013910765
 20
-2.889231426205924
 10
1.519505956780044
 20
-2.888773645718856
 10
1.519589900249431
 20
-2.847105544270233
 10
1.492723013910765
 20
-2.847564759539257
 10
1.24292565108327
 20
-2.851834356012735
 10
0.993128288255813
 20
-2.856103952486212
 10
0.7433309254283308
 20
-2.86037354895969
 10
0.7165479825590511
 20
-2.860831329446757
 10
0.7164640390896517
 20
-2.902499430895381
 10
0.7433309254283308
 20
-2.902040215626357
 10
0.7433309254283308
 20
-2.902040215626357
 10
0.7433309254283308
 20
-2.902040215626357
 10
0.7433309254283308
 20
-2.902040215626357
 97
        0
 97
        1
330
BB
 75
     2
 76
     1
 98
        1
 10
0.0
 20
0.0
450
        0
451
        0
460
0.0
461
0.0
452
        0
462
0.0
453
        0
470

  0
ENDBLK
  5
BA
330
B7
100
AcDbEntity
  8
0
100
AcDbBlockEnd
  0
ENDSEC
  0
SECTION
  2
ENTITIES
  0
SPLINE
  5
7C
330
70
100
AcDbEntity
  8
Date
100
AcDbSpline
210
0.0
220
0.0
230
1.0
 70
     9
 71
     3
 72
    29
 73
    25
 74
     0
 42
0.0000000001
 43
0.0000000001
 40
0.0
 40
0.0
 40
0.0
 40
0.0
 40
1.0
 40
1.0
 40
1.0
 40
2.0
 40
2.0
 40
2.0
 40
3.0
 40
3.0
 40
3.0
 40
4.0
 40
4.0
 40
4.0
 40
5.0
 40
5.0
 40
5.0
 40
6.0
 40
6.0
 40
6.0
 40
7.0
 40
7.0
 40
7.0
 40
8.0
 40
8.0
 40
8.0
 40
8.0
 10
2.080345981670335
 20
-0.1004368434684137
 30
0.0
 10
2.080345981670335
 20
-0.1004368434684137
 30
0.0
 10
1.624148063595536
 20
-0.1004368434684137
 30
0.0
 10
1.624148063595536
 20
-0.1004368434684137
 30
0.0
 10
1.598035309466417
 20
-0.1004368434684137
 30
0.0
 10
1.576866739718474
 20
-0.0792682737204586
 30
0.0
 10
1.576866739718474
 20
-0.0531555195913522
 30
0.0
 10
1.576866739718474
 20
-0.0531555195913522
 30
0.0
 10
1.576866739718474
 20
0.1063248498589044
 30
0.0
 10
1.576866739718474
 20
0.1063248498589044
 30
0.0
 10
1.576866739718474
 20
0.1324376039880109
 30
0.0
 10
1.598035309466417
 20
0.153606173735966
 30
0.0
 10
1.624148063595536
 20
0.153606173735966
 30
0.0
 10
1.624148063595536
 20
0.153606173735966
 30
0.0
 10
2.080345981670335
 20
0.153606173735966
 30
0.0
 10
2.080345981670335
 20
0.153606173735966
 30
0.0
 10
2.106458735799454
 20
0.153606173735966
 30
0.0
 10
2.127627305547421
 20
0.1324376039880109
 30
0.0
 10
2.127627305547421
 20
0.1063248498588791
 30
0.0
 10
2.127627305547421
 20
0.1063248498588791
 30
0.0
 10
2.127627305547421
 20
-0.0531555195913269
 30
0.0
 10
2.127627305547421
 20
-0.0531555195913269
 30
0.0
 10
2.127627305547421
 20
-0.0792682737204586
 30
0.0
 10
2.106458735799454
 20
-0.1004368434684137
 30
0.0
 10
2.080345981670335
 20
-0.1004368434684137
 30
0.0
  0
HATCH
  5
7D
330
70
100
AcDbEntity
  8
Date
 62
    20
420
 15817252
440
 33554687
100
AcDbHatch
 10
0.0
 20
0.0
 30
0.0
210
0.0
220
0.0
230
1.0
  2
SOLID
 70
     1
 71
     1
 91
        1
 92
        1
 93
        1
 72
     4
 94
        3
 73
     0
 74
     0
 95
       29
 96
       25
 40
0.0
 40
0.0
 40
0.0
 40
0.0
 40
1.0
 40
1.0
 40
1.0
 40
2.0
 40
2.0
 40
2.0
 40
3.0
 40
3.0
 40
3.0
 40
4.0
 40
4.0
 40
4.0
 40
5.0
 40
5.0
 40
5.0
 40
6.0
 40
6.0
 40
6.0
 40
7.0
 40
7.0
 40
7.0
 40
8.0
 40
8.0
 40
8.0
 40
8.0
 10
2.080345981670335
 20
-0.1004368434684137
 10
2.080345981670335
 20
-0.1004368434684137
 10
1.624148063595536
 20
-0.1004368434684137
 10
1.624148063595536
 20
-0.1004368434684137
 10
1.598035309466417
 20
-0.1004368434684137
 10
1.576866739718474
 20
-0.0792682737204586
 10
1.576866739718474
 20
-0.0531555195913522
 10
1.576866739718474
 20
-0.0531555195913522
 10
1.576866739718474
 20
0.1063248498589044
 10
1.576866739718474
 20
0.1063248498589044
 10
1.576866739718474
 20
0.1324376039880109
 10
1.598035309466417
 20
0.153606173735966
 10
1.624148063595536
 20
0.153606173735966
 10
1.624148063595536
 20
0.153606173735966
 10
2.080345981670335
 20
0.153606173735966
 10
2.080345981670335
 20
0.153606173735966
 10
2.106458735799454
 20
0.153606173735966
 10
2.127627305547421
 20
0.1324376039880109
 10
2.127627305547421
 20
0.1063248498588791
 10
2.127627305547421
 20
0.1063248498588791
 10
2.127627305547421
 20
-0.0531555195913269
 10
2.127627305547421
 20
-0.0531555195913269
 10
2.127627305547421
 20
-0.0792682737204586
 10
2.106458735799454
 20
-0.1004368434684137
 10
2.080345981670335
 20
-0.1004368434684137
 97
        0
 97
        1
330
7C
 75
     2
 76
     1
 98
        1
 10
0.0
 20
0.0
450
        0
451
        0
460
0.0
461
0.0
452
        0
462
0.0
453
        0
470

  0
INSERT
  5
7F
330
70
100
AcDbEntity
  8
Date
100
AcDbBlockReference
  2
Block_0
 10
0.0
 20
0.0
 30
0.0
  0
SPLINE
  5
8A
330
70
100
AcDbEntity
  8
Layer 7
100
AcDbSpline
210
0.0
220
0.0
230
1.0
 70
     9
 71
     3
 72
   431
 73
   427
 74
     0
 42
0.0000000001
 43
0.0000000001
 40
0.0
 40
0.0
 40
0.0
 40
0.0
 40
1.0
 40
1.0
 40
1.0
 40
2.0
 40
2.0
 40
2.0
 40
3.0
 40
3.0
 40
3.0
 40
4.0
 40
4.0
 40
4.0
 40
5.0
 40
5.0
 40
5.0
 40
6.0
 40
6.0
 40
6.0
 40
7.0
 40
7.0
 40
7.0
 40
8.0
 40
8.0
 40
8.0
 40
9.0
 40
9.0
 40
9.0
 40
10.0
 40
10.0
 40
10.0
 40
11.0
 40
11.0
 40
11.0
 40
12.0
 40
12.0
 40
12.0
 40
13.0
 40
13.0
 40
13.0
 40
14.0
 40
14.0
 40
14.0
 40
15.0
 40
15.0
 40
15.0
 40
16.0
 40
16.0
 40
16.0
 40
17.0
 40
17.0
 40
17.0
 40
18.0
 40
18.0
 40
18.0
 40
19.0
 40
19.0
 40
19.0
 40
20.0
 40
20.0
 40
20.0
 40
21.0
 40
21.0
 40
21.0
 40
22.0
 40
22.0
 40
22.0
 40
23.0
 40
23.0
 40
23.0
 40
24.0
 40
24.0
 40
24.0
 40
25.0
 40
25.0
 40
25.0
 40
26.0
 40
26.0
 40
26.0
 40
27.0
 40
27.0
 40
27.0
 40
28.0
 40
28.0
 40
28.0
 40
29.0
 40
29.0
 40
29.0
 40
30.0
 40
30.0
 40
30.0
 40
31.0
 40
31.0
 40
31.0
 40
32.0
 40
32.0
 40
32.0
 40
33.0
 40
33.0
 40
33.0
 40
34.0
 40
34.0
 40
34.0
 40
35.0
 40
35.0
 40
35.0
 40
36.0
 40
36.0
 40
36.0
 40
37.0
 40
37.0
 40
37.0
 40
38.0
 40
38.0
 40
38.0
 40
39.0
 40
39.0
 40
39.0
 40
40.0
 40
40.0
 40
40.0
 40
41.0
 40
41.0
 40
41.0
 40
42.0
 40
42.0
 40
42.0
 40
43.0
 40
43.0
 40
43.0
 40
44.0
 40
44.0
 40
44.0
 40
45.0
 40
45.0
 40
45.0
 40
46.0
 40
46.0
 40
46.0
 40
47.0
 40
47.0
 40
47.0
 40
48.0
 40
48.0
 40
48.0
 40
49.0
 40
49.0
 40
49.0
 40
50.0
 40
50.0
 40
50.0
 40
51.0
 40
51.0
 40
51.0
 40
52.0
 40
52.0
 40
52.0
 40
53.0
 40
53.0
 40
53.0
 40
54.0
 40
54.0
 40
54.0
 40
55.0
 40
55.0
 40
55.0
 40
56.0
 40
56.0
 40
56.0
 40
57.0
 40
57.0
 40
57.0
 40
58.0
 40
58.0
 40
58.0
 40
59.0
 40
59.0
 40
59.0
 40
60.0
 40
60.0
 40
60.0
 40
61.0
 40
61.0
 40
61.0
 40
62.0
 40
62.0
 40
62.0
 40
63.0
 40
63.0
 40
63.0
 40
64.0
 40
64.0
 40
64.0
 40
65.0
 40
65.0
 40
65.0
 40
66.0
 40
66.0
 40
66.0
 40
67.0
 40
67.0
 40
67.0
 40
68.0
 40
68.0
 40
68.0
 40
69.0
 40
69.0
 40
69.0
 40
70.0
 40
70.0
 40
70.0
 40
71.0
 40
71.0
 40
71.0
 40
72.0
 40
72.0
 40
72.0
 40
73.0
 40
73.0
 40
73.0
 40
74.0
 40
74.0
 40
74.0
 40
75.0
 40
75.0
 40
75.0
 40
76.0
 40
76.0
 40
76.0
 40
77.0
 40
77.0
 40
77.0
 40
78.0
 40
78.0
 40
78.0
 40
79.0
 40
79.0
 40
79.0
 40
80.0
 40
80.0
 40
80.0
 40
81.0
 40
81.0
 40
81.0
 40
82.0
 40
82.0
 40
82.0
 40
83.0
 40
83.0
 40
83.0
 40
84.0
 40
84.0
 40
84.0
 40
85.0
 40
85.0
 40
85.0
 40
86.0
 40
86.0
 40
86.0
 40
87.0
 40
87.0
 40
87.0
 40
88.0
 40
88.0
 40
88.0
 40
89.0
 40
89.0
 40
89.0
 40
90.0
 40
90.0
 40
90.0
 40
91.0
 40
91.0
 40
91.0
 40
92.0
 40
92.0
 40
92.0
 40
93.0
 40
93.0
 40
93.0
 40
94.0
 40
94.0
 40
94.0
 40
95.0
 40
95.0
 40
95.0
 40
96.0
 40
96.0
 40
96.0
 40
97.0
 40
97.0
 40
97.0
 40
98.0
 40
98.0
 40
98.0
 40
99.0
 40
99.0
 40
99.0
 40
100.0
 40
100.0
 40
100.0
 40
101.0
 40
101.0
 40
101.0
 40
102.0
 40
102.0
 40
102.0
 40
103.0
 40
103.0
 40
103.0
 40
104.0
 40
104.0
 40
104.0
 40
105.0
 40
105.0
 40
105.0
 40
106.0
 40
106.0
 40
106.0
 40
107.0
 40
107.0
 40
107.0
 40
108.0
 40
108.0
 40
108.0
 40
109.0
 40
109.0
 40
109.0
 40
110.0
 40
110.0
 40
110.0
 40
111.0
 40
111.0
 40
111.0
 40
112.0
 40
112.0
 40
112.0
 40
113.0
 40
113.0
 40
113.0
 40
114.0
 40
114.0
 40
114.0
 40
115.0
 40
115.0
 40
115.0
 40
116.0
 40
116.0
 40
116.0
 40
117.0
 40
117.0
 40
117.0
 40
118.0
 40
118.0
 40
118.0
 40
119.0
 40
119.0
 40
119.0
 40
120.0
 40
120.0
 40
120.0
 40
121.0
 40
121.0
 40
121.0
 40
122.0
 40
122.0
 40
122.0
 40
123.0
 40
123.0
 40
123.0
 40
124.0
 40
124.0
 40
124.0
 40
125.0
 40
125.0
 40
125.0
 40
126.0
 40
126.0
 40
126.0
 40
127.0
 40
127.0
 40
127.0
 40
128.0
 40
128.0
 40
128.0
 40
129.0
 40
129.0
 40
129.0
 40
130.0
 40
130.0
 40
130.0
 40
131.0
 40
131.0
 40
131.0
 40
132.0
 40
132.0
 40
132.0
 40
133.0
 40
133.0
 40
133.0
 40
134.0
 40
134.0
 40
134.0
 40
135.0
 40
135.0
 40
135.0
 40
136.0
 40
136.0
 40
136.0
 40
137.0
 40
137.0
 40
137.0
 40
138.0
 40
138.0
 40
138.0
 40
139.0
 40
139.0
 40
139.0
 40
140.0
 40
140.0
 40
140.0
 40
141.0
 40
141.0
 40
141.0
 40
142.0
 40
142.0
 40
142.0
 40
142.0
 10
2.135885020547498
 20
-2.709629303830372
 30
0.0
 10
2.135518809609998
 20
-2.683058665809539
 30
0.0
 10
2.13447443026972
 20
-2.662984881087317
 30
0.0
 10
2.132684065686387
 20
-2.648336443587317
 30
0.0
 10
2.12812677401972
 20
-2.605150679698428
 30
0.0
 10
2.098775645547498
 20
-2.572422272580372
 30
0.0
 10
2.054613319158609
 20
-2.562507450531761
 30
0.0
 10
2.041226274887776
 20
-2.559740523448428
 30
0.0
 10
2.02632013339472
 20
-2.559360749142872
 30
0.0
 10
2.008959022283609
 20
-2.561286747406761
 30
0.0
 10
1.996887624714165
 20
-2.562656647580372
 30
0.0
 10
1.986742225408609
 20
-2.564772532997039
 30
0.0
 10
1.977871782700276
 20
-2.567864980913706
 30
0.0
 10
1.961053206311387
 20
-2.560364438378984
 30
0.0
 10
1.942267941554442
 20
-2.556960032997039
 30
0.0
 10
1.922940142075276
 20
-2.557583947927595
 30
0.0
 10
1.896296600951144
 20
-2.558557967296084
 30
0.0
 10
1.872567488537949
 20
-2.56748012034513
 30
0.0
 10
1.853569448444634
 20
-2.583458615625077
 30
0.0
 10
1.838993066337429
 20
-2.576356497026987
 30
0.0
 10
1.82315359558005
 20
-2.572245948795651
 30
0.0
 10
1.806295176797498
 20
-2.571567780392872
 30
0.0
 10
1.806295176797498
 20
-2.571567780392872
 30
0.0
 10
1.803514686346109
 20
-2.571513526920651
 30
0.0
 10
1.803514686346109
 20
-2.571513526920651
 30
0.0
 10
1.782742388169026
 20
-2.571513526920651
 30
0.0
 10
1.763025489568765
 20
-2.576752377832109
 30
0.0
 10
1.745103194104356
 20
-2.586786727061709
 30
0.0
 10
1.724068953381699
 20
-2.564623335948428
 30
0.0
 10
1.698357046100884
 20
-2.556894759288272
 30
0.0
 10
1.685676144679443
 20
-2.554410119802595
 30
0.0
 10
1.674038774887776
 20
-2.552009403656761
 30
0.0
 10
1.661546912908609
 20
-2.551643192719261
 30
0.0
 10
1.647210432873887
 20
-2.553297923622039
 30
0.0
 10
1.632684065686387
 20
-2.555061161469261
 30
0.0
 10
1.621073822630831
 20
-2.558207862858151
 30
0.0
 10
1.610372325234998
 20
-2.563361942719261
 30
0.0
 10
1.607795285304443
 20
-2.562371816851206
 30
0.0
 10
1.605163991901665
 20
-2.561463071191484
 30
0.0
 10
1.602478445026665
 20
-2.560662832476206
 30
0.0
 10
1.602478445026665
 20
-2.560662832476206
 30
0.0
 10
1.600376122978054
 20
-2.560079607649817
 30
0.0
 10
1.600376122978054
 20
-2.560079607649817
 30
0.0
 10
1.572937429401665
 20
-2.552823205740095
 30
0.0
 10
1.545268158568332
 20
-2.555047598101206
 30
0.0
 10
1.520325124714165
 20
-2.566427263899817
 30
0.0
 10
1.520325124714165
 20
-2.566427263899817
 30
0.0
 10
1.518846717596109
 20
-2.567132559038706
 30
0.0
 10
1.518846717596109
 20
-2.567132559038706
 30
0.0
 10
1.51561948370939
 20
-2.568699975759626
 30
0.0
 10
1.512776262680745
 20
-2.570751435178029
 30
0.0
 10
1.509790626287515
 20
-2.572628266232716
 30
0.0
 10
1.509790626287515
 20
-2.572628266232716
 30
0.0
 10
1.396367808633436
 20
-2.572628266232716
 30
0.0
 10
1.396367808633436
 20
-2.572628266232716
 30
0.0
 10
1.396367808633436
 20
-2.572628266232716
 30
0.0
 10
1.396367808633436
 20
-2.572763052202768
 30
0.0
 10
1.396367808633436
 20
-2.572763052202768
 30
0.0
 10
1.385665463527099
 20
-2.571828875227942
 30
0.0
 10
1.374788490057047
 20
-2.572519759288272
 30
0.0
 10
1.363993744505832
 20
-2.575229889767872
 30
0.0
 10
1.344476057873887
 20
-2.564731842892872
 30
0.0
 10
1.32124200839472
 20
-2.560961226573428
 30
0.0
 10
1.296502425061387
 20
-2.564731842892872
 30
0.0
 10
1.293993201971109
 20
-2.565125180566484
 30
0.0
 10
1.291511105616943
 20
-2.565572771712317
 30
0.0
 10
1.289069699366943
 20
-2.566088179698428
 30
0.0
 10
1.289069699366943
 20
-2.566088179698428
 30
0.0
 10
1.28584161776972
 20
-2.559767650184539
 30
0.0
 10
1.28584161776972
 20
-2.559767650184539
 30
0.0
 10
1.28584161776972
 20
-2.559767650184539
 30
0.0
 10
1.285543223672498
 20
-2.566874855045651
 30
0.0
 10
1.285543223672498
 20
-2.566874855045651
 30
0.0
 10
1.276408295287082
 20
-2.569064491276119
 30
0.0
 10
1.26787269822762
 20
-2.572267141558237
 30
0.0
 10
1.259866920232828
 20
-2.576244599240529
 30
0.0
 10
1.232919898748453
 20
-2.559220029199296
 30
0.0
 10
1.201385068019286
 20
-2.553492049327334
 30
0.0
 10
1.168504920721109
 20
-2.560106734385928
 30
0.0
 10
1.154849999931179
 20
-2.562877900021779
 30
0.0
 10
1.138672292682915
 20
-2.568438033214053
 30
0.0
 10
1.122621742010172
 20
-2.578794512434973
 30
0.0
 10
1.111863448010606
 20
-2.571381284082109
 30
0.0
 10
1.099478397554877
 20
-2.565671953841223
 30
0.0
 10
1.085375037908609
 20
-2.562507450531761
 30
0.0
 10
1.071987993637776
 20
-2.559754086816484
 30
0.0
 10
1.05708185214472
 20
-2.559347185774817
 30
0.0
 10
1.039727522717637
 20
-2.561286747406761
 30
0.0
 10
1.027656125148193
 20
-2.562656647580372
 30
0.0
 10
1.017517507526665
 20
-2.564772532997039
 30
0.0
 10
1.008640283134304
 20
-2.567864980913706
 30
0.0
 10
0.9918217067454154
 20
-2.560364438378984
 30
0.0
 10
0.9732059840891654
 20
-2.556960032997039
 30
0.0
 10
0.953715424193332
 20
-2.557583947927595
 30
0.0
 10
0.9327668022315265
 20
-2.55834943051223
 30
0.0
 10
0.9136644937462834
 20
-2.56412318675138
 30
0.0
 10
0.897195174084825
 20
-2.574278758582977
 30
0.0
 10
0.8708364636898597
 20
-2.565666867578202
 30
0.0
 10
0.8404697780344779
 20
-2.564190155881154
 30
0.0
 10
0.8064893025027938
 20
-2.569785892914574
 30
0.0
 10
0.8064893025027938
 20
-2.569785892914574
 30
0.0
 10
0.7893189262549641
 20
-2.556697242740963
 30
0.0
 10
0.7893189262549641
 20
-2.556697242740963
 30
0.0
 10
0.7893189262549641
 20
-2.556697242740963
 30
0.0
 10
0.7897817761898598
 20
-2.556485315115095
 30
0.0
 10
0.7897817761898598
 20
-2.556485315115095
 30
0.0
 10
0.7897817761898598
 20
-2.556485315115095
 30
0.0
 10
0.7697902193864744
 20
-2.541809750878984
 30
0.0
 10
0.7697902193864744
 20
-2.541809750878984
 30
0.0
 10
0.7697902193864744
 20
-2.541809750878984
 30
0.0
 10
0.667097721285346
 20
-2.463522838172821
 30
0.0
 10
0.667097721285346
 20
-2.463522838172821
 30
0.0
 10
0.6642036376264918
 20
-2.455252574500946
 30
0.0
 10
0.6610908446577418
 20
-2.44742396800138
 30
0.0
 10
0.6581018174224988
 20
-2.440138743934539
 30
0.0
 10
0.656596283568332
 20
-2.436463071191484
 30
0.0
 10
0.6550771863461098
 20
-2.432773835080372
 30
0.0
 10
0.653639469332221
 20
-2.429043908865095
 30
0.0
 10
0.6350440917280543
 20
-2.380975332476206
 30
0.0
 10
0.599318180269721
 20
-2.351556387163706
 30
0.0
 10
0.5668000053565266
 20
-2.329109013031761
 30
0.0
 10
0.5437558430301376
 20
-2.313212745670651
 30
0.0
 10
0.5151032280127766
 20
-2.302389177962317
 30
0.0
 10
0.4816152722836099
 20
-2.296923140635928
 30
0.0
 10
0.4601512423356932
 20
-2.293437355045651
 30
0.0
 10
0.439772281832221
 20
-2.292772750010928
 30
0.0
 10
0.4210412705474988
 20
-2.294929325531761
 30
0.0
 10
0.3974952636030542
 20
-2.297641999142872
 30
0.0
 10
0.3697581759294431
 20
-2.302321361122039
 30
0.0
 10
0.3425907497141654
 20
-2.316454390635928
 30
0.0
 10
0.3391804103586967
 20
-2.318226105588185
 30
0.0
 10
0.3348553913699814
 20
-2.320715831336883
 30
0.0
 10
0.3301548366282279
 20
-2.323555661523515
 30
0.0
 10
0.3097996120188529
 20
-2.309291236881588
 30
0.0
 10
0.2884364596208494
 20
-2.307231300358151
 30
0.0
 10
0.2780019910336098
 20
-2.306308991330372
 30
0.0
 10
0.2780019910336098
 20
-2.306308991330372
 30
0.0
 10
0.2755673664676376
 20
-2.306091977441484
 30
0.0
 10
0.2755673664676376
 20
-2.306091977441484
 30
0.0
 10
0.2501496147315265
 20
-2.302511248274817
 30
0.0
 10
0.2295332952870821
 20
-2.309767650184539
 30
0.0
 10
0.2142405978044432
 20
-2.318516022580372
 30
0.0
 10
0.2040205999745821
 20
-2.319506148448428
 30
0.0
 10
0.1956180934641654
 20
-2.321662723969261
 30
0.0
 10
0.1896569932037487
 20
-2.323195384559539
 30
0.0
 10
0.1887211208079154
 20
-2.323439525184539
 30
0.0
 10
0.1878055934641654
 20
-2.323683665809539
 30
0.0
 10
0.1869104111724987
 20
-2.323900679698428
 30
0.0
 10
0.1869104111724987
 20
-2.323900679698428
 30
0.0
 10
0.1678877874745821
 20
-2.325785987858151
 30
0.0
 10
0.1678877874745821
 20
-2.325785987858151
 30
0.0
 10
0.1678877874745821
 20
-2.325785987858151
 30
0.0
 10
0.1521881889502765
 20
-2.338440610253984
 30
0.0
 10
0.1521881889502765
 20
-2.338440610253984
 30
0.0
 10
0.1444977592627765
 20
-2.339525679698428
 30
0.0
 10
0.1381636663808321
 20
-2.341193973969261
 30
0.0
 10
0.1336741915544432
 20
-2.342373986990095
 30
0.0
 10
0.132887516207221
 20
-2.342577437510928
 30
0.0
 10
0.1321008408599987
 20
-2.342794451399817
 30
0.0
 10
0.1313141655127765
 20
-2.342997901920651
 30
0.0
 10
0.1313141655127765
 20
-2.342997901920651
 30
0.0
 10
0.1066559623877765
 20
-2.344082971365095
 30
0.0
 10
0.1066559623877765
 20
-2.344082971365095
 30
0.0
 10
0.1066559623877765
 20
-2.344082971365095
 30
0.0
 10
0.0837203070058321
 20
-2.367235640635928
 30
0.0
 10
0.0837203070058321
 20
-2.367235640635928
 30
0.0
 10
0.0715878742801376
 20
-2.369283709212317
 30
0.0
 10
0.0622155869537488
 20
-2.372796621538706
 30
0.0
 10
0.0573192110856932
 20
-2.374627676226206
 30
0.0
 10
0.0436337727176376
 20
-2.379781756087317
 30
0.0
 10
0.0237091850440265
 20
-2.389533817719261
 30
0.0
 10
0.0065040526655543
 20
-2.406745731781761
 30
0.0
 10
0.0016754936377765
 20
-2.411574290809539
 30
0.0
 10
-0.0023799534108346
 20
-2.416511356781761
 30
0.0
 10
-0.0058521756330568
 20
-2.421258535601206
 30
0.0
 10
-0.0376514920393068
 20
-2.431526005219261
 30
0.0
 10
-0.0705697863101401
 20
-2.453783492198428
 30
0.0
 10
-0.093064632230279
 20
-2.499152958344261
 30
0.0
 10
-0.1193640028900012
 20
-2.513597945323428
 30
0.0
 10
-0.1403872233761123
 20
-2.533644603309539
 30
0.0
 10
-0.1558019911712512
 20
-2.559008101573428
 30
0.0
 10
-0.1735293132198623
 20
-2.588196469628984
 30
0.0
 10
-0.1788664985497235
 20
-2.617628978309539
 30
0.0
 10
-0.1795175402163901
 20
-2.643684208344261
 30
0.0
 10
-0.192612972074029
 20
-2.661614980913706
 30
0.0
 10
-0.2011375488969457
 20
-2.681308991330372
 30
0.0
 10
-0.2049692003726401
 20
-2.702549225705372
 30
0.0
 10
-0.2077564725080568
 20
-2.717997901920651
 30
0.0
 10
-0.2101029351816679
 20
-2.738098813378984
 30
0.0
 10
-0.2063255371781957
 20
-2.759908709212317
 30
0.0
 10
-0.2206620172129179
 20
-2.792976200531761
 30
0.0
 10
-0.2222082411712512
 20
-2.828634295149817
 30
0.0
 10
-0.2108963922129179
 20
-2.860236942719261
 30
0.0
 10
-0.2108963922129179
 20
-2.860236942719261
 30
0.0
 10
-0.2162878310150012
 20
-2.874424225705372
 30
0.0
 10
-0.2162878310150012
 20
-2.874424225705372
 30
0.0
 10
-0.2162878310150012
 20
-2.874424225705372
 30
0.0
 10
-0.2108692654768068
 20
-2.900574399316484
 30
0.0
 10
-0.2108692654768068
 20
-2.900574399316484
 30
0.0
 10
-0.2096485623518068
 20
-2.906623661469261
 30
0.0
 10
-0.2083736057545846
 20
-2.912889937510928
 30
0.0
 10
-0.2066714030636124
 20
-2.92026840973315
 30
0.0
 10
-0.2058779460323624
 20
-2.924120406260928
 30
0.0
 10
-0.204636897855279
 20
-2.93015610504565
 30
0.0
 10
-0.2020395128726401
 20
-2.937181929698428
 30
0.0
 10
-0.203294124417779
 20
-2.953864872406761
 30
0.0
 10
-0.2026498644351401
 20
-2.979214807302595
 30
0.0
 10
-0.1894120172129179
 20
-3.003642433170651
 30
0.0
 10
-0.1894120172129179
 20
-3.003642433170651
 30
0.0
 10
-0.1798701877858346
 20
-3.049608687510928
 30
0.0
 10
-0.1798701877858346
 20
-3.049608687510928
 30
0.0
 10
-0.1798701877858346
 20
-3.049608687510928
 30
0.0
 10
-0.1685719021955568
 20
-3.064501265635928
 30
0.0
 10
-0.1685719021955568
 20
-3.064501265635928
 30
0.0
 10
-0.1648351942962512
 20
-3.069899486122039
 30
0.0
 10
-0.1585824816226401
 20
-3.078932689247039
 30
0.0
 10
-0.1480844347476401
 20
-3.087409794281761
 30
0.0
 10
-0.1374100640879179
 20
-3.096008969628984
 30
0.0
 10
-0.1266678765879179
 20
-3.100823965288706
 30
0.0
 10
-0.1202524034976401
 20
-3.103699399316484
 30
0.0
 10
-0.1202524034976401
 20
-3.103699399316484
 30
0.0
 10
-0.1182992784976401
 20
-3.104581018240095
 30
0.0
 10
-0.1182992784976401
 20
-3.104581018240095
 30
0.0
 10
-0.1060515571434735
 20
-3.110182689247039
 30
0.0
 10
-0.091050472074029
 20
-3.112936052962317
 30
0.0
 10
-0.0758323731156957
 20
-3.112936052962317
 30
0.0
 10
-0.0592036838795846
 20
-3.112936052962317
 30
0.0
 10
-0.0423172906504179
 20
-3.109653717892872
 30
0.0
 10
-0.0284758735497235
 20
-3.103170427962317
 30
0.0
 10
-0.0272009169525013
 20
-3.102885597233151
 30
0.0
 10
-0.0259191786712513
 20
-3.102614329872039
 30
0.0
 10
-0.0246374403900013
 20
-3.102343062510928
 30
0.0
 10
-0.0097245172129179
 20
-3.099114980913706
 30
0.0
 10
0.0087623534468043
 20
-3.095127350705372
 30
0.0
 10
0.0278934840891654
 20
-3.086907949663706
 30
0.0
 10
0.029738102144721
 20
-3.086419668413706
 30
0.0
 10
0.0316437553565265
 20
-3.086134837684539
 30
0.0
 10
0.0335426268843043
 20
-3.085768626747039
 30
0.0
 10
0.0429691676829154
 20
-3.083964698795651
 30
0.0
 10
0.0564986273183321
 20
-3.081360532128984
 30
0.0
 10
0.0711877549224988
 20
-3.074429651052595
 30
0.0
 10
0.0761044758426376
 20
-3.073737919281761
 30
0.0
 10
0.0826759276655543
 20
-3.072788483517872
 30
0.0
 10
0.0903188855648599
 20
-3.070659034733151
 30
0.0
 10
0.0978804632558321
 20
-3.068543149316484
 30
0.0
 10
0.104078922457221
 20
-3.065966109385928
 30
0.0
 10
0.1086023057037487
 20
-3.064094364594261
 30
0.0
 10
0.1091651854780543
 20
-3.063850223969261
 30
0.0
 10
0.1097280652523598
 20
-3.063619646712317
 30
0.0
 10
0.1102909450266654
 20
-3.063375506087317
 30
0.0
 10
0.1265161240631237
 20
-3.060734887869001
 30
0.0
 10
0.1405330172380369
 20
-3.056254737858151
 30
0.0
 10
0.1531308430301376
 20
-3.052089088444088
 30
0.0
 10
0.1536504895687661
 20
-3.053040219628984
 30
0.0
 10
0.1541650498443737
 20
-3.054037127181067
 30
0.0
 10
0.1546838486724987
 20
-3.054979781260928
 30
0.0
 10
0.184157047457221
 20
-3.108636465288706
 30
0.0
 10
0.2264679741065265
 20
-3.143263743934539
 30
0.0
 10
0.2490848903391654
 20
-3.159132884559539
 30
0.0
 10
0.2861400118669431
 20
-3.185133861122039
 30
0.0
 10
0.3289188747141654
 20
-3.201925310774817
 30
0.0
 10
0.3762211208079154
 20
-3.209046079003984
 30
0.0
 10
0.3900896646447209
 20
-3.211134837684539
 30
0.0
 10
0.4052467284468043
 20
-3.213087962684539
 30
0.0
 10
0.421400699800971
 20
-3.213087962684539
 30
0.0
 10
0.4326447319190266
 20
-3.213087962684539
 30
0.0
 10
0.4443702636030543
 20
-3.21213852692065
 30
0.0
 10
0.4564823512766654
 20
-3.209642867198428
 30
0.0
 10
0.4758847492801376
 20
-3.21213852692065
 30
0.0
 10
0.4960534775787488
 20
-3.20823227692065
 30
0.0
 10
0.5137536728912488
 20
-3.198032624142872
 30
0.0
 10
0.5179820528825682
 20
-3.197173045692352
 30
0.0
 10
0.5236846014394259
 20
-3.195954885698862
 30
0.0
 10
0.5301738253435057
 20
-3.193822046072126
 30
0.0
 10
0.5301738253435057
 20
-3.193822046072126
 30
0.0
 10
1.004263553804877
 20
-3.193822046072126
 30
0.0
 10
1.004263553804877
 20
-3.193822046072126
 30
0.0
 10
1.004263553804877
 20
-3.193822046072126
 30
0.0
 10
1.004263553804877
 20
-3.193773726573428
 30
0.0
 10
1.004263553804877
 20
-3.193773726573428
 30
0.0
 10
1.00709151604446
 20
-3.19396954769973
 30
0.0
 10
1.009916935152533
 20
-3.194173845931067
 30
0.0
 10
1.012824582179443
 20
-3.194221317719261
 30
0.0
 10
1.013814708047498
 20
-3.194248444455372
 30
0.0
 10
1.014798052231526
 20
-3.194248444455372
 30
0.0
 10
1.015774614731526
 20
-3.194248444455372
 30
0.0
 10
1.029087908188557
 20
-3.194248444455372
 30
0.0
 10
1.041002479314859
 20
-3.192614058604678
 30
0.0
 10
1.052187171697672
 20
-3.18957501644973
 30
0.0
 10
1.052187171697672
 20
-3.18957501644973
 30
0.0
 10
1.052653412474582
 20
-3.189786096365095
 30
0.0
 10
1.052653412474582
 20
-3.189786096365095
 30
0.0
 10
1.066454139471109
 20
-3.195848921885928
 30
0.0
 10
1.082248681571804
 20
-3.198927806434539
 30
0.0
 10
1.100315087821804
 20
-3.198927806434539
 30
0.0
 10
1.101963037040554
 20
-3.198927806434539
 30
0.0
 10
1.103638112995415
 20
-3.198900679698428
 30
0.0
 10
1.105326752318332
 20
-3.198846426226206
 30
0.0
 10
1.114387082179443
 20
-3.19846665192065
 30
0.0
 10
1.123094764471109
 20
-3.196933991330372
 30
0.0
 10
1.13130060214472
 20
-3.19431626129565
 30
0.0
 10
1.138312863429443
 20
-3.196350766503984
 30
0.0
 10
1.146179616901665
 20
-3.197761356781761
 30
0.0
 10
1.15498224276972
 20
-3.19822251129565
 30
0.0
 10
1.167625844929009
 20
-3.198832015147647
 30
0.0
 10
1.180130422565727
 20
-3.197335806109018
 30
0.0
 10
1.191910207721977
 20
-3.193933943858584
 30
0.0
 10
1.197518660412949
 20
-3.195272478743567
 30
0.0
 10
1.203284787257568
 20
-3.196323639767872
 30
0.0
 10
1.209357785304443
 20
-3.196730540809539
 30
0.0
 10
1.215244287040554
 20
-3.197110315115095
 30
0.0
 10
1.220683197630832
 20
-3.197313765635928
 30
0.0
 10
1.225755897283609
 20
-3.197313765635928
 30
0.0
 10
1.238383392943332
 20
-3.197313765635928
 30
0.0
 10
1.248786496241943
 20
-3.196106625878984
 30
0.0
 10
1.258213037040554
 20
-3.193597402788706
 30
0.0
 10
1.259094655964165
 20
-3.193366825531761
 30
0.0
 10
1.260003401623887
 20
-3.193122684906761
 30
0.0
 10
1.260912147283609
 20
-3.192837854177595
 30
0.0
 10
1.274326318290554
 20
-3.196744104177595
 30
0.0
 10
1.286967377318332
 20
-3.196974681434539
 30
0.0
 10
1.296244721068332
 20
-3.19663559723315
 30
0.0
 10
1.303148475408609
 20
-3.196418583344261
 30
0.0
 10
1.31035316697762
 20
-3.195871810069522
 30
0.0
 10
1.317601939492811
 20
-3.194774872678029
 30
0.0
 10
1.322256717867377
 20
-3.196090519379418
 30
0.0
 10
1.327031023422932
 20
-3.197148462087751
 30
0.0
 10
1.332024885998887
 20
-3.197639286469261
 30
0.0
 10
1.33662286776972
 20
-3.198032624142872
 30
0.0
 10
1.34199396151972
 20
-3.19822251129565
 30
0.0
 10
1.349155419853054
 20
-3.19822251129565
 30
0.0
 10
1.350443939818332
 20
-3.19822251129565
 30
0.0
 10
1.351773149887776
 20
-3.19822251129565
 30
0.0
 10
1.353170176797498
 20
-3.198208947927595
 30
0.0
 10
1.363193505790554
 20
-3.19810044098315
 30
0.0
 10
1.370409217596109
 20
-3.197639286469261
 30
0.0
 10
1.375617550929443
 20
-3.196852611122039
 30
0.0
 10
1.379211843464165
 20
-3.196364329872039
 30
0.0
 10
1.382724755790554
 20
-3.19565903473315
 30
0.0
 10
1.386129161172498
 20
-3.194736725705372
 30
0.0
 10
1.396478010998887
 20
-3.19736801910815
 30
0.0
 10
1.407030311346109
 20
-3.198385271712317
 30
0.0
 10
1.417460541380832
 20
-3.197774920149817
 30
0.0
 10
1.423989607678574
 20
-3.197402775238793
 30
0.0
 10
1.430295726113904
 20
-3.196377045529591
 30
0.0
 10
1.43645688605314
 20
-3.195011383908497
 30
0.0
 10
1.43645688605314
 20
-3.195011383908497
 30
0.0
 10
1.442082292954182
 20
-3.195269935612056
 30
0.0
 10
1.442082292954182
 20
-3.195269935612056
 30
0.0
 10
1.442082292954182
 20
-3.195269935612056
 30
0.0
 10
1.455668549193332
 20
-3.19504868317065
 30
0.0
 10
1.455668549193332
 20
-3.19504868317065
 30
0.0
 10
1.45771661776972
 20
-3.195360640635928
 30
0.0
 10
1.459818939818332
 20
-3.195631907997039
 30
0.0
 10
1.461961951971109
 20
-3.195862485253984
 30
0.0
 10
1.461961951971109
 20
-3.195862485253984
 30
0.0
 10
1.464593245373887
 20
-3.196106625878984
 30
0.0
 10
1.464593245373887
 20
-3.196106625878984
 30
0.0
 10
1.476040728012776
 20
-3.196852611122039
 30
0.0
 10
1.487895111693332
 20
-3.195984555566484
 30
0.0
 10
1.500644677665554
 20
-3.193271881955372
 30
0.0
 10
1.50984064120722
 20
-3.195672598101206
 30
0.0
 10
1.519755463255832
 20
-3.19687973785815
 30
0.0
 10
1.530321326971109
 20
-3.19687973785815
 30
0.0
 10
1.551439491033609
 20
-3.19687973785815
 30
0.0
 10
1.57002130526972
 20
-3.192512333344261
 30
0.0
 10
1.585551361693331
 20
-3.183899594628984
 30
0.0
 10
1.585551361693331
 20
-3.183899594628984
 30
0.0
 10
1.589932329575276
 20
-3.181268301226206
 30
0.0
 10
1.589932329575276
 20
-3.181268301226206
 30
0.0
 10
1.621928314818331
 20
-3.160326460948428
 30
0.0
 10
1.627774126450276
 20
-3.123000072059539
 30
0.0
 10
1.629781504922498
 20
-3.110196252615095
 30
0.0
 10
1.631035268757134
 20
-3.101719995290876
 30
0.0
 10
1.631587128294894
 20
-3.09384985097664
 30
0.0
 10
1.631704112344373
 20
-3.086302684364227
 30
0.0
 10
1.631704112344373
 20
-3.086302684364227
 30
0.0
 10
1.631818553262342
 20
-3.086302684364227
 30
0.0
 10
1.631818553262342
 20
-3.086302684364227
 30
0.0
 10
1.631818553262342
 20
-3.086302684364227
 30
0.0
 10
1.631818553262342
 20
-3.082571910438446
 30
0.0
 10
1.631818553262342
 20
-3.082571910438446
 30
0.0
 10
1.631815162420328
 20
-3.082204851790442
 30
0.0
 10
1.631824487235866
 20
-3.081826772905893
 30
0.0
 10
1.631818553262342
 20
-3.081461409678897
 30
0.0
 10
1.631818553262342
 20
-3.081461409678897
 30
0.0
 10
1.631818553262342
 20
-3.011165016178463
 30
0.0
 10
1.631818553262342
 20
-3.011165016178463
 30
0.0
 10
1.636963308307915
 20
-3.010775069346866
 30
0.0
 10
1.6423064276113
 20
-3.010057058550425
 30
0.0
 10
1.648702403359998
 20
-3.008552372406761
 30
0.0
 10
1.664083262734998
 20
-3.004944516503984
 30
0.0
 10
1.677375363429443
 20
-2.997945818587317
 30
0.0
 10
1.688212494505831
 20
-2.987732602441484
 30
0.0
 10
1.691538910521456
 20
-2.984603702973167
 30
0.0
 10
1.694692393594373
 20
-2.981030603201032
 30
0.0
 10
1.697764496458956
 20
-2.977174368120737
 30
0.0
 10
1.71807309699064
 20
-2.997978879296952
 30
0.0
 10
1.740745114406005
 20
-3.007932696028723
 30
0.0
 10
1.759013275755831
 20
-3.012417932302595
 30
0.0
 10
1.759013275755831
 20
-3.012417932302595
 30
0.0
 10
1.764262299193331
 20
-3.013503001747039
 30
0.0
 10
1.764262299193331
 20
-3.013503001747039
 30
0.0
 10
1.771898475408609
 20
-3.014750831608151
 30
0.0
 10
1.779412581311387
 20
-3.015374746538706
 30
0.0
 10
1.786791053533609
 20
-3.015374746538706
 30
0.0
 10
1.821782847695936
 20
-3.015374746538706
 30
0.0
 10
1.85362709275887
 20
-3.001163727658497
 30
0.0
 10
1.879525496350449
 20
-2.974459151378116
 30
0.0
 10
1.91112729620939
 20
-3.006924768240095
 30
0.0
 10
1.946678579304009
 20
-3.014276113726206
 30
0.0
 10
1.972053097804442
 20
-3.014276113726206
 30
0.0
 10
1.980109738429442
 20
-3.014276113726206
 30
0.0
 10
1.987121999714165
 20
-3.013557255219261
 30
0.0
 10
1.992669417248887
 20
-3.012675636295651
 30
0.0
 10
2.015808523151665
 20
-3.009244104177595
 30
0.0
 10
2.049079464991943
 20
-2.997525354177595
 30
0.0
 10
2.077793115165554
 20
-2.961392541677595
 30
0.0
 10
2.095140662908609
 20
-2.939541955740095
 30
0.0
 10
2.10859552401972
 20
-2.91245590973315
 30
0.0
 10
2.117777924193331
 20
-2.880866825531761
 30
0.0
 10
2.125875254922498
 20
-2.855191369802595
 30
0.0
 10
2.131476925929443
 20
-2.819180627615095
 30
0.0
 10
2.134908458047498
 20
-2.770664460080372
 30
0.0
 10
2.135912147283609
 20
-2.755853262163706
 30
0.0
 10
2.136224104748887
 20
-2.735901547753984
 30
0.0
 10
2.135885020547498
 20
-2.709629303830372
 30
0.0
  0
HATCH
  5
8B
330
70
100
AcDbEntity
  8
Layer 7
 62
    20
420
 15817252
440
 33554687
100
AcDbHatch
 10
0.0
 20
0.0
 30
0.0
210
0.0
220
0.0
230
1.0
  2
SOLID
 70
     1
 71
     1
 91
        1
 92
        1
 93
        1
 72
     4
 94
        3
 73
     0
 74
     0
 95
      431
 96
      427
 40
0.0
 40
0.0
 40
0.0
 40
0.0
 40
1.0
 40
1.0
 40
1.0
 40
2.0
 40
2.0
 40
2.0
 40
3.0
 40
3.0
 40
3.0
 40
4.0
 40
4.0
 40
4.0
 40
5.0
 40
5.0
 40
5.0
 40
6.0
 40
6.0
 40
6.0
 40
7.0
 40
7.0
 40
7.0
 40
8.0
 40
8.0
 40
8.0
 40
9.0
 40
9.0
 40
9.0
 40
10.0
 40
10.0
 40
10.0
 40
11.0
 40
11.0
 40
11.0
 40
12.0
 40
12.0
 40
12.0
 40
13.0
 40
13.0
 40
13.0
 40
14.0
 40
14.0
 40
14.0
 40
15.0
 40
15.0
 40
15.0
 40
16.0
 40
16.0
 40
16.0
 40
17.0
 40
17.0
 40
17.0
 40
18.0
 40
18.0
 40
18.0
 40
19.0
 40
19.0
 40
19.0
 40
20.0
 40
20.0
 40
20.0
 40
21.0
 40
21.0
 40
21.0
 40
22.0
 40
22.0
 40
22.0
 40
23.0
 40
23.0
 40
23.0
 40
24.0
 40
24.0
 40
24.0
 40
25.0
 40
25.0
 40
25.0
 40
26.0
 40
26.0
 40
26.0
 40
27.0
 40
27.0
 40
27.0
 40
28.0
 40
28.0
 40
28.0
 40
29.0
 40
29.0
 40
29.0
 40
30.0
 40
30.0
 40
30.0
 40
31.0
 40
31.0
 40
31.0
 40
32.0
 40
32.0
 40
32.0
 40
33.0
 40
33.0
 40
33.0
 40
34.0
 40
34.0
 40
34.0
 40
35.0
 40
35.0
 40
35.0
 40
36.0
 40
36.0
 40
36.0
 40
37.0
 40
37.0
 40
37.0
 40
38.0
 40
38.0
 40
38.0
 40
39.0
 40
39.0
 40
39.0
 40
40.0
 40
40.0
 40
40.0
 40
41.0
 40
41.0
 40
41.0
 40
42.0
 40
42.0
 40
42.0
 40
43.0
 40
43.0
 40
43.0
 40
44.0
 40
44.0
 40
44.0
 40
45.0
 40
45.0
 40
45.0
 40
46.0
 40
46.0
 40
46.0
 40
47.0
 40
47.0
 40
47.0
 40
48.0
 40
48.0
 40
48.0
 40
49.0
 40
49.0
 40
49.0
 40
50.0
 40
50.0
 40
50.0
 40
51.0
 40
51.0
 40
51.0
 40
52.0
 40
52.0
 40
52.0
 40
53.0
 40
53.0
 40
53.0
 40
54.0
 40
54.0
 40
54.0
 40
55.0
 40
55.0
 40
55.0
 40
56.0
 40
56.0
 40
56.0
 40
57.0
 40
57.0
 40
57.0
 40
58.0
 40
58.0
 40
58.0
 40
59.0
 40
59.0
 40
59.0
 40
60.0
 40
60.0
 40
60.0
 40
61.0
 40
61.0
 40
61.0
 40
62.0
 40
62.0
 40
62.0
 40
63.0
 40
63.0
 40
63.0
 40
64.0
 40
64.0
 40
64.0
 40
65.0
 40
65.0
 40
65.0
 40
66.0
 40
66.0
 40
66.0
 40
67.0
 40
67.0
 40
67.0
 40
68.0
 40
68.0
 40
68.0
 40
69.0
 40
69.0
 40
69.0
 40
70.0
 40
70.0
 40
70.0
 40
71.0
 40
71.0
 40
71.0
 40
72.0
 40
72.0
 40
72.0
 40
73.0
 40
73.0
 40
73.0
 40
74.0
 40
74.0
 40
74.0
 40
75.0
 40
75.0
 40
75.0
 40
76.0
 40
76.0
 40
76.0
 40
77.0
 40
77.0
 40
77.0
 40
78.0
 40
78.0
 40
78.0
 40
79.0
 40
79.0
 40
79.0
 40
80.0
 40
80.0
 40
80.0
 40
81.0
 40
81.0
 40
81.0
 40
82.0
 40
82.0
 40
82.0
 40
83.0
 40
83.0
 40
83.0
 40
84.0
 40
84.0
 40
84.0
 40
85.0
 40
85.0
 40
85.0
 40
86.0
 40
86.0
 40
86.0
 40
87.0
 40
87.0
 40
87.0
 40
88.0
 40
88.0
 40
88.0
 40
89.0
 40
89.0
 40
89.0
 40
90.0
 40
90.0
 40
90.0
 40
91.0
 40
91.0
 40
91.0
 40
92.0
 40
92.0
 40
92.0
 40
93.0
 40
93.0
 40
93.0
 40
94.0
 40
94.0
 40
94.0
 40
95.0
 40
95.0
 40
95.0
 40
96.0
 40
96.0
 40
96.0
 40
97.0
 40
97.0
 40
97.0
 40
98.0
 40
98.0
 40
98.0
 40
99.0
 40
99.0
 40
99.0
 40
100.0
 40
100.0
 40
100.0
 40
101.0
 40
101.0
 40
101.0
 40
102.0
 40
102.0
 40
102.0
 40
103.0
 40
103.0
 40
103.0
 40
104.0
 40
104.0
 40
104.0
 40
105.0
 40
105.0
 40
105.0
 40
106.0
 40
106.0
 40
106.0
 40
107.0
 40
107.0
 40
107.0
 40
108.0
 40
108.0
 40
108.0
 40
109.0
 40
109.0
 40
109.0
 40
110.0
 40
110.0
 40
110.0
 40
111.0
 40
111.0
 40
111.0
 40
112.0
 40
112.0
 40
112.0
 40
113.0
 40
113.0
 40
113.0
 40
114.0
 40
114.0
 40
114.0
 40
115.0
 40
115.0
 40
115.0
 40
116.0
 40
116.0
 40
116.0
 40
117.0
 40
117.0
 40
117.0
 40
118.0
 40
118.0
 40
118.0
 40
119.0
 40
119.0
 40
119.0
 40
120.0
 40
120.0
 40
120.0
 40
121.0
 40
121.0
 40
121.0
 40
122.0
 40
122.0
 40
122.0
 40
123.0
 40
123.0
 40
123.0
 40
124.0
 40
124.0
 40
124.0
 40
125.0
 40
125.0
 40
125.0
 40
126.0
 40
126.0
 40
126.0
 40
127.0
 40
127.0
 40
127.0
 40
128.0
 40
128.0
 40
128.0
 40
129.0
 40
129.0
 40
129.0
 40
130.0
 40
130.0
 40
130.0
 40
131.0
 40
131.0
 40
131.0
 40
132.0
 40
132.0
 40
132.0
 40
133.0
 40
133.0
 40
133.0
 40
134.0
 40
134.0
 40
134.0
 40
135.0
 40
135.0
 40
135.0
 40
136.0
 40
136.0
 40
136.0
 40
137.0
 40
137.0
 40
137.0
 40
138.0
 40
138.0
 40
138.0
 40
139.0
 40
139.0
 40
139.0
 40
140.0
 40
140.0
 40
140.0
 40
141.0
 40
141.0
 40
141.0
 40
142.0
 40
142.0
 40
142.0
 40
142.0
 10
2.135885020547498
 20
-2.709629303830372
 10
2.135518809609998
 20
-2.683058665809539
 10
2.13447443026972
 20
-2.662984881087317
 10
2.132684065686387
 20
-2.648336443587317
 10
2.12812677401972
 20
-2.605150679698428
 10
2.098775645547498
 20
-2.572422272580372
 10
2.054613319158609
 20
-2.562507450531761
 10
2.041226274887776
 20
-2.559740523448428
 10
2.02632013339472
 20
-2.559360749142872
 10
2.008959022283609
 20
-2.561286747406761
 10
1.996887624714165
 20
-2.562656647580372
 10
1.986742225408609
 20
-2.564772532997039
 10
1.977871782700276
 20
-2.567864980913706
 10
1.961053206311387
 20
-2.560364438378984
 10
1.942267941554442
 20
-2.556960032997039
 10
1.922940142075276
 20
-2.557583947927595
 10
1.896296600951144
 20
-2.558557967296084
 10
1.872567488537949
 20
-2.56748012034513
 10
1.853569448444634
 20
-2.583458615625077
 10
1.838993066337429
 20
-2.576356497026987
 10
1.82315359558005
 20
-2.572245948795651
 10
1.806295176797498
 20
-2.571567780392872
 10
1.806295176797498
 20
-2.571567780392872
 10
1.803514686346109
 20
-2.571513526920651
 10
1.803514686346109
 20
-2.571513526920651
 10
1.782742388169026
 20
-2.571513526920651
 10
1.763025489568765
 20
-2.576752377832109
 10
1.745103194104356
 20
-2.586786727061709
 10
1.724068953381699
 20
-2.564623335948428
 10
1.698357046100884
 20
-2.556894759288272
 10
1.685676144679443
 20
-2.554410119802595
 10
1.674038774887776
 20
-2.552009403656761
 10
1.661546912908609
 20
-2.551643192719261
 10
1.647210432873887
 20
-2.553297923622039
 10
1.632684065686387
 20
-2.555061161469261
 10
1.621073822630831
 20
-2.558207862858151
 10
1.610372325234998
 20
-2.563361942719261
 10
1.607795285304443
 20
-2.562371816851206
 10
1.605163991901665
 20
-2.561463071191484
 10
1.602478445026665
 20
-2.560662832476206
 10
1.602478445026665
 20
-2.560662832476206
 10
1.600376122978054
 20
-2.560079607649817
 10
1.600376122978054
 20
-2.560079607649817
 10
1.572937429401665
 20
-2.552823205740095
 10
1.545268158568332
 20
-2.555047598101206
 10
1.520325124714165
 20
-2.566427263899817
 10
1.520325124714165
 20
-2.566427263899817
 10
1.518846717596109
 20
-2.567132559038706
 10
1.518846717596109
 20
-2.567132559038706
 10
1.51561948370939
 20
-2.568699975759626
 10
1.512776262680745
 20
-2.570751435178029
 10
1.509790626287515
 20
-2.572628266232716
 10
1.509790626287515
 20
-2.572628266232716
 10
1.396367808633436
 20
-2.572628266232716
 10
1.396367808633436
 20
-2.572628266232716
 10
1.396367808633436
 20
-2.572628266232716
 10
1.396367808633436
 20
-2.572763052202768
 10
1.396367808633436
 20
-2.572763052202768
 10
1.385665463527099
 20
-2.571828875227942
 10
1.374788490057047
 20
-2.572519759288272
 10
1.363993744505832
 20
-2.575229889767872
 10
1.344476057873887
 20
-2.564731842892872
 10
1.32124200839472
 20
-2.560961226573428
 10
1.296502425061387
 20
-2.564731842892872
 10
1.293993201971109
 20
-2.565125180566484
 10
1.291511105616943
 20
-2.565572771712317
 10
1.289069699366943
 20
-2.566088179698428
 10
1.289069699366943
 20
-2.566088179698428
 10
1.28584161776972
 20
-2.559767650184539
 10
1.28584161776972
 20
-2.559767650184539
 10
1.28584161776972
 20
-2.559767650184539
 10
1.285543223672498
 20
-2.566874855045651
 10
1.285543223672498
 20
-2.566874855045651
 10
1.276408295287082
 20
-2.569064491276119
 10
1.26787269822762
 20
-2.572267141558237
 10
1.259866920232828
 20
-2.576244599240529
 10
1.232919898748453
 20
-2.559220029199296
 10
1.201385068019286
 20
-2.553492049327334
 10
1.168504920721109
 20
-2.560106734385928
 10
1.154849999931179
 20
-2.562877900021779
 10
1.138672292682915
 20
-2.568438033214053
 10
1.122621742010172
 20
-2.578794512434973
 10
1.111863448010606
 20
-2.571381284082109
 10
1.099478397554877
 20
-2.565671953841223
 10
1.085375037908609
 20
-2.562507450531761
 10
1.071987993637776
 20
-2.559754086816484
 10
1.05708185214472
 20
-2.559347185774817
 10
1.039727522717637
 20
-2.561286747406761
 10
1.027656125148193
 20
-2.562656647580372
 10
1.017517507526665
 20
-2.564772532997039
 10
1.008640283134304
 20
-2.567864980913706
 10
0.9918217067454154
 20
-2.560364438378984
 10
0.9732059840891654
 20
-2.556960032997039
 10
0.953715424193332
 20
-2.557583947927595
 10
0.9327668022315265
 20
-2.55834943051223
 10
0.9136644937462834
 20
-2.56412318675138
 10
0.897195174084825
 20
-2.574278758582977
 10
0.8708364636898597
 20
-2.565666867578202
 10
0.8404697780344779
 20
-2.564190155881154
 10
0.8064893025027938
 20
-2.569785892914574
 10
0.8064893025027938
 20
-2.569785892914574
 10
0.7893189262549641
 20
-2.556697242740963
 10
0.7893189262549641
 20
-2.556697242740963
 10
0.7893189262549641
 20
-2.556697242740963
 10
0.7897817761898598
 20
-2.556485315115095
 10
0.7897817761898598
 20
-2.556485315115095
 10
0.7897817761898598
 20
-2.556485315115095
 10
0.7697902193864744
 20
-2.541809750878984
 10
0.7697902193864744
 20
-2.541809750878984
 10
0.7697902193864744
 20
-2.541809750878984
 10
0.667097721285346
 20
-2.463522838172821
 10
0.667097721285346
 20
-2.463522838172821
 10
0.6642036376264918
 20
-2.455252574500946
 10
0.6610908446577418
 20
-2.44742396800138
 10
0.6581018174224988
 20
-2.440138743934539
 10
0.656596283568332
 20
-2.436463071191484
 10
0.6550771863461098
 20
-2.432773835080372
 10
0.653639469332221
 20
-2.429043908865095
 10
0.6350440917280543
 20
-2.380975332476206
 10
0.599318180269721
 20
-2.351556387163706
 10
0.5668000053565266
 20
-2.329109013031761
 10
0.5437558430301376
 20
-2.313212745670651
 10
0.5151032280127766
 20
-2.302389177962317
 10
0.4816152722836099
 20
-2.296923140635928
 10
0.4601512423356932
 20
-2.293437355045651
 10
0.439772281832221
 20
-2.292772750010928
 10
0.4210412705474988
 20
-2.294929325531761
 10
0.3974952636030542
 20
-2.297641999142872
 10
0.3697581759294431
 20
-2.302321361122039
 10
0.3425907497141654
 20
-2.316454390635928
 10
0.3391804103586967
 20
-2.318226105588185
 10
0.3348553913699814
 20
-2.320715831336883
 10
0.3301548366282279
 20
-2.323555661523515
 10
0.3097996120188529
 20
-2.309291236881588
 10
0.2884364596208494
 20
-2.307231300358151
 10
0.2780019910336098
 20
-2.306308991330372
 10
0.2780019910336098
 20
-2.306308991330372
 10
0.2755673664676376
 20
-2.306091977441484
 10
0.2755673664676376
 20
-2.306091977441484
 10
0.2501496147315265
 20
-2.302511248274817
 10
0.2295332952870821
 20
-2.309767650184539
 10
0.2142405978044432
 20
-2.318516022580372
 10
0.2040205999745821
 20
-2.319506148448428
 10
0.1956180934641654
 20
-2.321662723969261
 10
0.1896569932037487
 20
-2.323195384559539
 10
0.1887211208079154
 20
-2.323439525184539
 10
0.1878055934641654
 20
-2.323683665809539
 10
0.1869104111724987
 20
-2.323900679698428
 10
0.1869104111724987
 20
-2.323900679698428
 10
0.1678877874745821
 20
-2.325785987858151
 10
0.1678877874745821
 20
-2.325785987858151
 10
0.1678877874745821
 20
-2.325785987858151
 10
0.1521881889502765
 20
-2.338440610253984
 10
0.1521881889502765
 20
-2.338440610253984
 10
0.1444977592627765
 20
-2.339525679698428
 10
0.1381636663808321
 20
-2.341193973969261
 10
0.1336741915544432
 20
-2.342373986990095
 10
0.132887516207221
 20
-2.342577437510928
 10
0.1321008408599987
 20
-2.342794451399817
 10
0.1313141655127765
 20
-2.342997901920651
 10
0.1313141655127765
 20
-2.342997901920651
 10
0.1066559623877765
 20
-2.344082971365095
 10
0.1066559623877765
 20
-2.344082971365095
 10
0.1066559623877765
 20
-2.344082971365095
 10
0.0837203070058321
 20
-2.367235640635928
 10
0.0837203070058321
 20
-2.367235640635928
 10
0.0715878742801376
 20
-2.369283709212317
 10
0.0622155869537488
 20
-2.372796621538706
 10
0.0573192110856932
 20
-2.374627676226206
 10
0.0436337727176376
 20
-2.379781756087317
 10
0.0237091850440265
 20
-2.389533817719261
 10
0.0065040526655543
 20
-2.406745731781761
 10
0.0016754936377765
 20
-2.411574290809539
 10
-0.0023799534108346
 20
-2.416511356781761
 10
-0.0058521756330568
 20
-2.421258535601206
 10
-0.0376514920393068
 20
-2.431526005219261
 10
-0.0705697863101401
 20
-2.453783492198428
 10
-0.093064632230279
 20
-2.499152958344261
 10
-0.1193640028900012
 20
-2.513597945323428
 10
-0.1403872233761123
 20
-2.533644603309539
 10
-0.1558019911712512
 20
-2.559008101573428
 10
-0.1735293132198623
 20
-2.588196469628984
 10
-0.1788664985497235
 20
-2.617628978309539
 10
-0.1795175402163901
 20
-2.643684208344261
 10
-0.192612972074029
 20
-2.661614980913706
 10
-0.2011375488969457
 20
-2.681308991330372
 10
-0.2049692003726401
 20
-2.702549225705372
 10
-0.2077564725080568
 20
-2.717997901920651
 10
-0.2101029351816679
 20
-2.738098813378984
 10
-0.2063255371781957
 20
-2.759908709212317
 10
-0.2206620172129179
 20
-2.792976200531761
 10
-0.2222082411712512
 20
-2.828634295149817
 10
-0.2108963922129179
 20
-2.860236942719261
 10
-0.2108963922129179
 20
-2.860236942719261
 10
-0.2162878310150012
 20
-2.874424225705372
 10
-0.2162878310150012
 20
-2.874424225705372
 10
-0.2162878310150012
 20
-2.874424225705372
 10
-0.2108692654768068
 20
-2.900574399316484
 10
-0.2108692654768068
 20
-2.900574399316484
 10
-0.2096485623518068
 20
-2.906623661469261
 10
-0.2083736057545846
 20
-2.912889937510928
 10
-0.2066714030636124
 20
-2.92026840973315
 10
-0.2058779460323624
 20
-2.924120406260928
 10
-0.204636897855279
 20
-2.93015610504565
 10
-0.2020395128726401
 20
-2.937181929698428
 10
-0.203294124417779
 20
-2.953864872406761
 10
-0.2026498644351401
 20
-2.979214807302595
 10
-0.1894120172129179
 20
-3.003642433170651
 10
-0.1894120172129179
 20
-3.003642433170651
 10
-0.1798701877858346
 20
-3.049608687510928
 10
-0.1798701877858346
 20
-3.049608687510928
 10
-0.1798701877858346
 20
-3.049608687510928
 10
-0.1685719021955568
 20
-3.064501265635928
 10
-0.1685719021955568
 20
-3.064501265635928
 10
-0.1648351942962512
 20
-3.069899486122039
 10
-0.1585824816226401
 20
-3.078932689247039
 10
-0.1480844347476401
 20
-3.087409794281761
 10
-0.1374100640879179
 20
-3.096008969628984
 10
-0.1266678765879179
 20
-3.100823965288706
 10
-0.1202524034976401
 20
-3.103699399316484
 10
-0.1202524034976401
 20
-3.103699399316484
 10
-0.1182992784976401
 20
-3.104581018240095
 10
-0.1182992784976401
 20
-3.104581018240095
 10
-0.1060515571434735
 20
-3.110182689247039
 10
-0.091050472074029
 20
-3.112936052962317
 10
-0.0758323731156957
 20
-3.112936052962317
 10
-0.0592036838795846
 20
-3.112936052962317
 10
-0.0423172906504179
 20
-3.109653717892872
 10
-0.0284758735497235
 20
-3.103170427962317
 10
-0.0272009169525013
 20
-3.102885597233151
 10
-0.0259191786712513
 20
-3.102614329872039
 10
-0.0246374403900013
 20
-3.102343062510928
 10
-0.0097245172129179
 20
-3.099114980913706
 10
0.0087623534468043
 20
-3.095127350705372
 10
0.0278934840891654
 20
-3.086907949663706
 10
0.029738102144721
 20
-3.086419668413706
 10
0.0316437553565265
 20
-3.086134837684539
 10
0.0335426268843043
 20
-3.085768626747039
 10
0.0429691676829154
 20
-3.083964698795651
 10
0.0564986273183321
 20
-3.081360532128984
 10
0.0711877549224988
 20
-3.074429651052595
 10
0.0761044758426376
 20
-3.073737919281761
 10
0.0826759276655543
 20
-3.072788483517872
 10
0.0903188855648599
 20
-3.070659034733151
 10
0.0978804632558321
 20
-3.068543149316484
 10
0.104078922457221
 20
-3.065966109385928
 10
0.1086023057037487
 20
-3.064094364594261
 10
0.1091651854780543
 20
-3.063850223969261
 10
0.1097280652523598
 20
-3.063619646712317
 10
0.1102909450266654
 20
-3.063375506087317
 10
0.1265161240631237
 20
-3.060734887869001
 10
0.1405330172380369
 20
-3.056254737858151
 10
0.1531308430301376
 20
-3.052089088444088
 10
0.1536504895687661
 20
-3.053040219628984
 10
0.1541650498443737
 20
-3.054037127181067
 10
0.1546838486724987
 20
-3.054979781260928
 10
0.184157047457221
 20
-3.108636465288706
 10
0.2264679741065265
 20
-3.143263743934539
 10
0.2490848903391654
 20
-3.159132884559539
 10
0.2861400118669431
 20
-3.185133861122039
 10
0.3289188747141654
 20
-3.201925310774817
 10
0.3762211208079154
 20
-3.209046079003984
 10
0.3900896646447209
 20
-3.211134837684539
 10
0.4052467284468043
 20
-3.213087962684539
 10
0.421400699800971
 20
-3.213087962684539
 10
0.4326447319190266
 20
-3.213087962684539
 10
0.4443702636030543
 20
-3.21213852692065
 10
0.4564823512766654
 20
-3.209642867198428
 10
0.4758847492801376
 20
-3.21213852692065
 10
0.4960534775787488
 20
-3.20823227692065
 10
0.5137536728912488
 20
-3.198032624142872
 10
0.5179820528825682
 20
-3.197173045692352
 10
0.5236846014394259
 20
-3.195954885698862
 10
0.5301738253435057
 20
-3.193822046072126
 10
0.5301738253435057
 20
-3.193822046072126
 10
1.004263553804877
 20
-3.193822046072126
 10
1.004263553804877
 20
-3.193822046072126
 10
1.004263553804877
 20
-3.193822046072126
 10
1.004263553804877
 20
-3.193773726573428
 10
1.004263553804877
 20
-3.193773726573428
 10
1.00709151604446
 20
-3.19396954769973
 10
1.009916935152533
 20
-3.194173845931067
 10
1.012824582179443
 20
-3.194221317719261
 10
1.013814708047498
 20
-3.194248444455372
 10
1.014798052231526
 20
-3.194248444455372
 10
1.015774614731526
 20
-3.194248444455372
 10
1.029087908188557
 20
-3.194248444455372
 10
1.041002479314859
 20
-3.192614058604678
 10
1.052187171697672
 20
-3.18957501644973
 10
1.052187171697672
 20
-3.18957501644973
 10
1.052653412474582
 20
-3.189786096365095
 10
1.052653412474582
 20
-3.189786096365095
 10
1.066454139471109
 20
-3.195848921885928
 10
1.082248681571804
 20
-3.198927806434539
 10
1.100315087821804
 20
-3.198927806434539
 10
1.101963037040554
 20
-3.198927806434539
 10
1.103638112995415
 20
-3.198900679698428
 10
1.105326752318332
 20
-3.198846426226206
 10
1.114387082179443
 20
-3.19846665192065
 10
1.123094764471109
 20
-3.196933991330372
 10
1.13130060214472
 20
-3.19431626129565
 10
1.138312863429443
 20
-3.196350766503984
 10
1.146179616901665
 20
-3.197761356781761
 10
1.15498224276972
 20
-3.19822251129565
 10
1.167625844929009
 20
-3.198832015147647
 10
1.180130422565727
 20
-3.197335806109018
 10
1.191910207721977
 20
-3.193933943858584
 10
1.197518660412949
 20
-3.195272478743567
 10
1.203284787257568
 20
-3.196323639767872
 10
1.209357785304443
 20
-3.196730540809539
 10
1.215244287040554
 20
-3.197110315115095
 10
1.220683197630832
 20
-3.197313765635928
 10
1.225755897283609
 20
-3.197313765635928
 10
1.238383392943332
 20
-3.197313765635928
 10
1.248786496241943
 20
-3.196106625878984
 10
1.258213037040554
 20
-3.193597402788706
 10
1.259094655964165
 20
-3.193366825531761
 10
1.260003401623887
 20
-3.193122684906761
 10
1.260912147283609
 20
-3.192837854177595
 10
1.274326318290554
 20
-3.196744104177595
 10
1.286967377318332
 20
-3.196974681434539
 10
1.296244721068332
 20
-3.19663559723315
 10
1.303148475408609
 20
-3.196418583344261
 10
1.31035316697762
 20
-3.195871810069522
 10
1.317601939492811
 20
-3.194774872678029
 10
1.322256717867377
 20
-3.196090519379418
 10
1.327031023422932
 20
-3.197148462087751
 10
1.332024885998887
 20
-3.197639286469261
 10
1.33662286776972
 20
-3.198032624142872
 10
1.34199396151972
 20
-3.19822251129565
 10
1.349155419853054
 20
-3.19822251129565
 10
1.350443939818332
 20
-3.19822251129565
 10
1.351773149887776
 20
-3.19822251129565
 10
1.353170176797498
 20
-3.198208947927595
 10
1.363193505790554
 20
-3.19810044098315
 10
1.370409217596109
 20
-3.197639286469261
 10
1.375617550929443
 20
-3.196852611122039
 10
1.379211843464165
 20
-3.196364329872039
 10
1.382724755790554
 20
-3.19565903473315
 10
1.386129161172498
 20
-3.194736725705372
 10
1.396478010998887
 20
-3.19736801910815
 10
1.407030311346109
 20
-3.198385271712317
 10
1.417460541380832
 20
-3.197774920149817
 10
1.423989607678574
 20
-3.197402775238793
 10
1.430295726113904
 20
-3.196377045529591
 10
1.43645688605314
 20
-3.195011383908497
 10
1.43645688605314
 20
-3.195011383908497
 10
1.442082292954182
 20
-3.195269935612056
 10
1.442082292954182
 20
-3.195269935612056
 10
1.442082292954182
 20
-3.195269935612056
 10
1.455668549193332
 20
-3.19504868317065
 10
1.455668549193332
 20
-3.19504868317065
 10
1.45771661776972
 20
-3.195360640635928
 10
1.459818939818332
 20
-3.195631907997039
 10
1.461961951971109
 20
-3.195862485253984
 10
1.461961951971109
 20
-3.195862485253984
 10
1.464593245373887
 20
-3.196106625878984
 10
1.464593245373887
 20
-3.196106625878984
 10
1.476040728012776
 20
-3.196852611122039
 10
1.487895111693332
 20
-3.195984555566484
 10
1.500644677665554
 20
-3.193271881955372
 10
1.50984064120722
 20
-3.195672598101206
 10
1.519755463255832
 20
-3.19687973785815
 10
1.530321326971109
 20
-3.19687973785815
 10
1.551439491033609
 20
-3.19687973785815
 10
1.57002130526972
 20
-3.192512333344261
 10
1.585551361693331
 20
-3.183899594628984
 10
1.585551361693331
 20
-3.183899594628984
 10
1.589932329575276
 20
-3.181268301226206
 10
1.589932329575276
 20
-3.181268301226206
 10
1.621928314818331
 20
-3.160326460948428
 10
1.627774126450276
 20
-3.123000072059539
 10
1.629781504922498
 20
-3.110196252615095
 10
1.631035268757134
 20
-3.101719995290876
 10
1.631587128294894
 20
-3.09384985097664
 10
1.631704112344373
 20
-3.086302684364227
 10
1.631704112344373
 20
-3.086302684364227
 10
1.631818553262342
 20
-3.086302684364227
 10
1.631818553262342
 20
-3.086302684364227
 10
1.631818553262342
 20
-3.086302684364227
 10
1.631818553262342
 20
-3.082571910438446
 10
1.631818553262342
 20
-3.082571910438446
 10
1.631815162420328
 20
-3.082204851790442
 10
1.631824487235866
 20
-3.081826772905893
 10
1.631818553262342
 20
-3.081461409678897
 10
1.631818553262342
 20
-3.081461409678897
 10
1.631818553262342
 20
-3.011165016178463
 10
1.631818553262342
 20
-3.011165016178463
 10
1.636963308307915
 20
-3.010775069346866
 10
1.6423064276113
 20
-3.010057058550425
 10
1.648702403359998
 20
-3.008552372406761
 10
1.664083262734998
 20
-3.004944516503984
 10
1.677375363429443
 20
-2.997945818587317
 10
1.688212494505831
 20
-2.987732602441484
 10
1.691538910521456
 20
-2.984603702973167
 10
1.694692393594373
 20
-2.981030603201032
 10
1.697764496458956
 20
-2.977174368120737
 10
1.71807309699064
 20
-2.997978879296952
 10
1.740745114406005
 20
-3.007932696028723
 10
1.759013275755831
 20
-3.012417932302595
 10
1.759013275755831
 20
-3.012417932302595
 10
1.764262299193331
 20
-3.013503001747039
 10
1.764262299193331
 20
-3.013503001747039
 10
1.771898475408609
 20
-3.014750831608151
 10
1.779412581311387
 20
-3.015374746538706
 10
1.786791053533609
 20
-3.015374746538706
 10
1.821782847695936
 20
-3.015374746538706
 10
1.85362709275887
 20
-3.001163727658497
 10
1.879525496350449
 20
-2.974459151378116
 10
1.91112729620939
 20
-3.006924768240095
 10
1.946678579304009
 20
-3.014276113726206
 10
1.972053097804442
 20
-3.014276113726206
 10
1.980109738429442
 20
-3.014276113726206
 10
1.987121999714165
 20
-3.013557255219261
 10
1.992669417248887
 20
-3.012675636295651
 10
2.015808523151665
 20
-3.009244104177595
 10
2.049079464991943
 20
-2.997525354177595
 10
2.077793115165554
 20
-2.961392541677595
 10
2.095140662908609
 20
-2.939541955740095
 10
2.10859552401972
 20
-2.91245590973315
 10
2.117777924193331
 20
-2.880866825531761
 10
2.125875254922498
 20
-2.855191369802595
 10
2.131476925929443
 20
-2.819180627615095
 10
2.134908458047498
 20
-2.770664460080372
 10
2.135912147283609
 20
-2.755853262163706
 10
2.136224104748887
 20
-2.735901547753984
 10
2.135885020547498
 20
-2.709629303830372
 97
        0
 97
        1
330
8A
 75
     2
 76
     1
 98
        1
 10
0.0
 20
0.0
450
        0
451
        0
460
0.0
461
0.0
452
        0
462
0.0
453
        0
470

  0
INSERT
  5
8D
330
70
100
AcDbEntity
  8
Layer 7
100
AcDbBlockReference
  2
Block_1
 10
0.0
 20
0.0
 30
0.0
  0
ENDSEC
  0
SECTION
  2
OBJECTS
  0
DICTIONARY
  5
C
330
0
100
AcDbDictionary
281
     1
  3
ACAD_COLOR
350
63
  3
ACAD_DETAILVIEWSTYLE
350
6A
  3
ACAD_GROUP
350
D
  3
ACAD_LAYOUT
350
62
  3
ACAD_MATERIAL
350
10
  3
ACAD_MLEADERSTYLE
350
66
  3
ACAD_MLINESTYLE
350
5F
  3
ACAD_PLOTSETTINGS
350
61
  3
ACAD_PLOTSTYLENAME
350
E
  3
ACAD_SCALELIST
350
42
  3
ACAD_SECTIONVIEWSTYLE
350
68
  3
ACAD_TABLESTYLE
350
64
  3
ACAD_VISUALSTYLE
350
29
  3
ACDB_RECOMPOSE_DATA
350
C5
  3
AcDbVariableDictionary
350
BD
  0
DICTIONARY
  5
63
102
{ACAD_REACTORS
330
C
102
}
330
C
100
AcDbDictionary
281
     1
  0
DICTIONARY
  5
6A
102
{ACAD_REACTORS
330
C
102
}
330
C
100
AcDbDictionary
281
     1
  3
Imperial24
350
6B
  0
DICTIONARY
  5
D
102
{ACAD_REACTORS
330
C
102
}
330
C
100
AcDbDictionary
281
     1
  0
DICTIONARY
  5
62
102
{ACAD_REACTORS
330
C
102
}
330
C
100
AcDbDictionary
281
     1
  3
Layout1
350
6F
  3
Layout2
350
77
  3
Model
350
73
  0
DICTIONARY
  5
10
102
{ACAD_REACTORS
330
C
102
}
330
C
100
AcDbDictionary
281
     1
  3
ByBlock
350
19
  3
ByLayer
350
11
  3
Global
350
21
  0
DICTIONARY
  5
66
102
{ACAD_REACTORS
330
C
102
}
330
C
100
AcDbDictionary
281
     1
  3
Standard
350
67
  0
DICTIONARY
  5
5F
102
{ACAD_REACTORS
330
C
102
}
330
C
100
AcDbDictionary
281
     1
  3
Standard
350
60
  0
DICTIONARY
  5
61
102
{ACAD_REACTORS
330
C
102
}
330
C
100
AcDbDictionary
281
     1
  0
ACDBDICTIONARYWDFLT
  5
E
102
{ACAD_REACTORS
330
C
102
}
330
C
100
AcDbDictionary
281
     1
  3
Normal
350
F
100
AcDbDictionaryWithDefault
340
F
  0
DICTIONARY
  5
42
102
{ACAD_REACTORS
330
C
102
}
330
C
100
AcDbDictionary
281
     1
  3
A0
350
43
  3
A1
350
44
  3
A2
350
45
  3
A3
350
46
  3
A4
350
47
  3
A5
350
48
  3
A6
350
49
  3
A7
350
4A
  3
A8
350
4B
  3
A9
350
4C
  3
B0
350
4D
  3
B1
350
4E
  3
B2
350
4F
  3
B3
350
50
  3
B4
350
51
  3
B5
350
52
  3
B6
350
53
  0
DICTIONARY
  5
68
102
{ACAD_REACTORS
330
C
102
}
330
C
100
AcDbDictionary
281
     1
  3
Imperial24
350
69
  0
DICTIONARY
  5
64
102
{ACAD_REACTORS
330
C
102
}
330
C
100
AcDbDictionary
281
     1
  3
Standard
350
65
  0
DICTIONARY
  5
29
102
{ACAD_REACTORS
330
C
102
}
330
C
100
AcDbDictionary
281
     1
  3
2dWireframe
350
2F
  3
Basic
350
2E
  3
Brighten
350
35
  3
ColorChange
350
39
  3
Conceptual
350
32
  3
Dim
350
34
  3
EdgeColorOff
350
41
  3
Facepattern
350
38
  3
Flat
350
2A
  3
FlatWithEdges
350
2B
  3
Gouraud
350
2C
  3
GouraudWithEdges
350
2D
  3
Hidden
350
31
  3
JitterOff
350
3F
  3
Linepattern
350
37
  3
OverhangOff
350
40
  3
Realistic
350
33
  3
Shaded
350
3E
  3
Shaded with edges
350
3D
  3
Shades of Gray
350
3A
  3
Sketchy
350
3B
  3
Thicken
350
36
  3
Wireframe
350
30
  3
X-Ray
350
3C
  0
XRECORD
  5
C5
102
{ACAD_REACTORS
330
C
102
}
330
C
100
AcDbXrecord
280
     1
 90
        1
330
65
  0
DICTIONARY
  5
BD
102
{ACAD_REACTORS
330
C
102
}
330
C
100
AcDbDictionary
281
     1
  3
CANNOSCALE
350
C2
  3
CMLEADERSTYLE
350
BF
  3
CTABLESTYLE
350
BE
  3
CVIEWDETAILSTYLE
350
C0
  3
CVIEWSECTIONSTYLE
350
C1
  0
ACDBDETAILVIEWSTYLE
  5
6B
102
{ACAD_REACTORS
330
6A
102
}
330
6A
100
AcDbModelDocViewStyle
 70
     0
  3
Imperial24
290
     1
300
Imperial24
 90
        0
100
AcDbDetailViewStyle
 70
     0
 71
     0
 90
        3
 71
     1
340
55
 62
   256
 40
0.24
340
0
 62
   256
 40
0.24
300

 40
0.36
280
     3
 71
     2
340
5D
 90
       25
 62
   256
 71
     3
340
55
 62
   256
 40
0.24
 90
        1
 40
0.75
 90
        1
300
%<\AcVar ViewType \f "%tc1">% %<\AcVar ViewDetailId>%\PSCALE %<\AcVar ViewScale \f "%sn">%
 71
     4
340
5D
 90
       25
 62
   256
340
5D
 90
       25
 62
   256
280
     0
  0
LAYOUT
  5
6F
102
{ACAD_REACTORS
330
62
102
}
330
62
100
AcDbPlotSettings
  1

  2

  4

  6

 40
0.0
 41
0.0
 42
0.0
 43
0.0
 44
0.0
 45
0.0
 46
0.0
 47
0.0
 48
0.0
 49
0.0
140
0.0
141
0.0
142
1.0
143
1.0
 70
   688
 72
     0
 73
     0
 74
     5
  7

 75
    16
147
1.0
 76
     0
 77
     2
 78
   300
148
0.0
149
0.0
100
AcDbLayout
  1
Layout1
 70
     1
 71
     1
 10
0.0
 20
0.0
 11
12.0
 21
9.0
 12
0.0
 22
0.0
 32
0.0
 14
0.0
 24
0.0
 34
0.0
 15
0.0
 25
0.0
 35
0.0
146
0.0
 13
0.0
 23
0.0
 33
0.0
 16
1.0
 26
0.0
 36
0.0
 17
0.0
 27
1.0
 37
0.0
 76
     0
330
6C
  0
LAYOUT
  5
77
102
{ACAD_REACTORS
330
62
102
}
330
62
100
AcDbPlotSettings
  1

  2

  4

  6

 40
0.0
 41
0.0
 42
0.0
 43
0.0
 44
0.0
 45
0.0
 46
0.0
 47
0.0
 48
0.0
 49
0.0
140
0.0
141
0.0
142
1.0
143
1.0
 70
   688
 72
     0
 73
     0
 74
     5
  7

 75
    16
147
1.0
 76
     0
 77
     2
 78
   300
148
0.0
149
0.0
100
AcDbLayout
  1
Layout2
 70
     1
 71
     2
 10
0.0
 20
0.0
 11
12.0
 21
9.0
 12
0.0
 22
0.0
 32
0.0
 14
0.0
 24
0.0
 34
0.0
 15
0.0
 25
0.0
 35
0.0
146
0.0
 13
0.0
 23
0.0
 33
0.0
 16
1.0
 26
0.0
 36
0.0
 17
0.0
 27
1.0
 37
0.0
 76
     0
330
74
  0
LAYOUT
  5
73
102
{ACAD_REACTORS
330
62
102
}
330
62
100
AcDbPlotSettings
  1

  2

  4

  6

 40
0.0
 41
0.0
 42
0.0
 43
0.0
 44
0.0
 45
0.0
 46
0.0
 47
0.0
 48
0.0
 49
0.0
140
0.0
141
0.0
142
1.0
143
1.0
 70
  1712
 72
     0
 73
     0
 74
     0
  7

 75
     0
147
1.0
 76
     0
 77
     2
 78
   300
148
0.0
149
0.0
100
AcDbLayout
  1
Model
 70
     1
 71
     0
 10
0.0
 20
0.0
 11
12.0
 21
9.0
 12
0.0
 22
0.0
 32
0.0
 14
0.0
 24
0.0
 34
0.0
 15
0.0
 25
0.0
 35
0.0
146
0.0
 13
0.0
 23
0.0
 33
0.0
 16
1.0
 26
0.0
 36
0.0
 17
0.0
 27
1.0
 37
0.0
 76
     0
330
70
  0
MATERIAL
  5
19
102
{ACAD_XDICTIONARY
360
1A
102
}
102
{ACAD_REACTORS
330
10
102
}
330
10
100
AcDbMaterial
  1
ByBlock
 72
     0
 43
0.0208333333333333
 43
0.0
 43
0.0
 43
0.0
 43
0.0
 43
0.0208333333333333
 43
0.0
 43
0.0
 43
0.0
 43
0.0
 43
1.0
 43
0.0
 43
0.0
 43
0.0
 43
0.0
 43
1.0
 77
     0
 47
0.0208333333333333
 47
0.0
 47
0.0
 47
0.0
 47
0.0
 47
0.0208333333333333
 47
0.0
 47
0.0
 47
0.0
 47
0.0
 47
1.0
 47
0.0
 47
0.0
 47
0.0
 47
0.0
 47
1.0
171
     0
 49
0.0208333333333333
 49
0.0
 49
0.0
 49
0.0
 49
0.0
 49
0.0208333333333333
 49
0.0
 49
0.0
 49
0.0
 49
0.0
 49
1.0
 49
0.0
 49
0.0
 49
0.0
 49
0.0
 49
1.0
175
     0
142
0.0208333333333333
142
0.0
142
0.0
142
0.0
142
0.0
142
0.0208333333333333
142
0.0
142
0.0
142
0.0
142
0.0
142
1.0
142
0.0
142
0.0
142
0.0
142
0.0
142
1.0
179
     0
144
0.0208333333333333
144
0.0
144
0.0
144
0.0
144
0.0
144
0.0208333333333333
144
0.0
144
0.0
144
0.0
144
0.0
144
1.0
144
0.0
144
0.0
144
0.0
144
0.0
144
1.0
147
0.0208333333333333
147
0.0
147
0.0
147
0.0
147
0.0
147
0.0208333333333333
147
0.0
147
0.0
147
0.0
147
0.0
147
1.0
147
0.0
147
0.0
147
0.0
147
0.0
147
1.0
  0
MATERIAL
  5
11
102
{ACAD_XDICTIONARY
360
12
102
}
102
{ACAD_REACTORS
330
10
102
}
330
10
100
AcDbMaterial
  1
ByLayer
 72
     0
 43
0.0208333333333333
 43
0.0
 43
0.0
 43
0.0
 43
0.0
 43
0.0208333333333333
 43
0.0
 43
0.0
 43
0.0
 43
0.0
 43
1.0
 43
0.0
 43
0.0
 43
0.0
 43
0.0
 43
1.0
 77
     0
 47
0.0208333333333333
 47
0.0
 47
0.0
 47
0.0
 47
0.0
 47
0.0208333333333333
 47
0.0
 47
0.0
 47
0.0
 47
0.0
 47
1.0
 47
0.0
 47
0.0
 47
0.0
 47
0.0
 47
1.0
171
     0
 49
0.0208333333333333
 49
0.0
 49
0.0
 49
0.0
 49
0.0
 49
0.0208333333333333
 49
0.0
 49
0.0
 49
0.0
 49
0.0
 49
1.0
 49
0.0
 49
0.0
 49
0.0
 49
0.0
 49
1.0
175
     0
142
0.0208333333333333
142
0.0
142
0.0
142
0.0
142
0.0
142
0.0208333333333333
142
0.0
142
0.0
142
0.0
142
0.0
142
1.0
142
0.0
142
0.0
142
0.0
142
0.0
142
1.0
179
     0
144
0.0208333333333333
144
0.0
144
0.0
144
0.0
144
0.0
144
0.0208333333333333
144
0.0
144
0.0
144
0.0
144
0.0
144
1.0
144
0.0
144
0.0
144
0.0
144
0.0
144
1.0
147
0.0208333333333333
147
0.0
147
0.0
147
0.0
147
0.0
147
0.0208333333333333
147
0.0
147
0.0
147
0.0
147
0.0
147
1.0
147
0.0
147
0.0
147
0.0
147
0.0
147
1.0
  0
MATERIAL
  5
21
102
{ACAD_XDICTIONARY
360
22
102
}
102
{ACAD_REACTORS
330
10
102
}
330
10
100
AcDbMaterial
  1
Global
 72
     0
 43
0.0208333333333333
 43
0.0
 43
0.0
 43
0.0
 43
0.0
 43
0.0208333333333333
 43
0.0
 43
0.0
 43
0.0
 43
0.0
 43
1.0
 43
0.0
 43
0.0
 43
0.0
 43
0.0
 43
1.0
 77
     0
 47
0.0208333333333333
 47
0.0
 47
0.0
 47
0.0
 47
0.0
 47
0.0208333333333333
 47
0.0
 47
0.0
 47
0.0
 47
0.0
 47
1.0
 47
0.0
 47
0.0
 47
0.0
 47
0.0
 47
1.0
171
     0
 49
0.0208333333333333
 49
0.0
 49
0.0
 49
0.0
 49
0.0
 49
0.0208333333333333
 49
0.0
 49
0.0
 49
0.0
 49
0.0
 49
1.0
 49
0.0
 49
0.0
 49
0.0
 49
0.0
 49
1.0
175
     0
142
0.0208333333333333
142
0.0
142
0.0
142
0.0
142
0.0
142
0.0208333333333333
142
0.0
142
0.0
142
0.0
142
0.0
142
1.0
142
0.0
142
0.0
142
0.0
142
0.0
142
1.0
179
     0
144
0.0208333333333333
144
0.0
144
0.0
144
0.0
144
0.0
144
0.0208333333333333
144
0.0
144
0.0
144
0.0
144
0.0
144
1.0
144
0.0
144
0.0
144
0.0
144
0.0
144
1.0
147
0.0208333333333333
147
0.0
147
0.0
147
0.0
147
0.0
147
0.0208333333333333
147
0.0
147
0.0
147
0.0
147
0.0
147
1.0
147
0.0
147
0.0
147
0.0
147
0.0
147
1.0
  0
MLEADERSTYLE
  5
67
102
{ACAD_REACTORS
330
66
102
}
330
66
100
AcDbMLeaderStyle
179
     2
170
     2
171
     1
172
     0
 90
        2
 40
0.0
 41
0.0
173
     1
 91
-1056964608
340
5B
 92
       -2
290
     1
 42
0.09
291
     1
 43
0.36
  3
Standard
 44
0.18
300

342
55
174
     1
178
     6
175
     1
176
     0
 93
-1056964608
 45
0.18
292
     0
297
     0
 46
0.18
 94
-1056964608
 47
1.0
 49
1.0
140
1.0
293
     1
141
0.0
294
     1
177
     0
142
1.0
295
     1
296
     0
143
0.125
271
     0
272
     9
273
     9
298
     1
  0
MLINESTYLE
  5
60
102
{ACAD_REACTORS
330
5F
102
}
330
5F
100
AcDbMlineStyle
  2
STANDARD
 70
     0
  3

 62
   256
 51
90.0
 52
90.0
 71
     2
 49
0.5
 62
   256
  6
BYLAYER
 49
-0.5
 62
   256
  6
BYLAYER
  0
ACDBPLACEHOLDER
  5
F
102
{ACAD_REACTORS
330
E
102
}
330
E
  0
SCALE
  5
43
102
{ACAD_REACTORS
330
42
102
}
330
42
100
AcDbScale
 70
     0
300
1:1
140
1.0
141
1.0
290
     1
  0
SCALE
  5
44
102
{ACAD_REACTORS
330
42
102
}
330
42
100
AcDbScale
 70
     0
300
1/128" = 1'-0"
140
0.0078125
141
12.0
290
     0
  0
SCALE
  5
45
102
{ACAD_REACTORS
330
42
102
}
330
42
100
AcDbScale
 70
     0
300
1/64" = 1'-0"
140
0.015625
141
12.0
290
     0
  0
SCALE
  5
46
102
{ACAD_REACTORS
330
42
102
}
330
42
100
AcDbScale
 70
     0
300
1/32" = 1'-0"
140
0.03125
141
12.0
290
     0
  0
SCALE
  5
47
102
{ACAD_REACTORS
330
42
102
}
330
42
100
AcDbScale
 70
     0
300
1/16" = 1'-0"
140
0.0625
141
12.0
290
     0
  0
SCALE
  5
48
102
{ACAD_REACTORS
330
42
102
}
330
42
100
AcDbScale
 70
     0
300
3/32" = 1'-0"
140
0.09375
141
12.0
290
     0
  0
SCALE
  5
49
102
{ACAD_REACTORS
330
42
102
}
330
42
100
AcDbScale
 70
     0
300
1/8" = 1'-0"
140
0.125
141
12.0
290
     0
  0
SCALE
  5
4A
102
{ACAD_REACTORS
330
42
102
}
330
42
100
AcDbScale
 70
     0
300
3/16" = 1'-0"
140
0.1875
141
12.0
290
     0
  0
SCALE
  5
4B
102
{ACAD_REACTORS
330
42
102
}
330
42
100
AcDbScale
 70
     0
300
1/4" = 1'-0"
140
0.25
141
12.0
290
     0
  0
SCALE
  5
4C
102
{ACAD_REACTORS
330
42
102
}
330
42
100
AcDbScale
 70
     0
300
3/8" = 1'-0"
140
0.375
141
12.0
290
     0
  0
SCALE
  5
4D
102
{ACAD_REACTORS
330
42
102
}
330
42
100
AcDbScale
 70
     0
300
1/2" = 1'-0"
140
0.5
141
12.0
290
     0
  0
SCALE
  5
4E
102
{ACAD_REACTORS
330
42
102
}
330
42
100
AcDbScale
 70
     0
300
3/4" = 1'-0"
140
0.75
141
12.0
290
     0
  0
SCALE
  5
4F
102
{ACAD_REACTORS
330
42
102
}
330
42
100
AcDbScale
 70
     0
300
1" = 1'-0"
140
1.0
141
12.0
290
     0
  0
SCALE
  5
50
102
{ACAD_REACTORS
330
42
102
}
330
42
100
AcDbScale
 70
     0
300
1-1/2" = 1'-0"
140
1.5
141
12.0
290
     0
  0
SCALE
  5
51
102
{ACAD_REACTORS
330
42
102
}
330
42
100
AcDbScale
 70
     0
300
3" = 1'-0"
140
3.0
141
12.0
290
     0
  0
SCALE
  5
52
102
{ACAD_REACTORS
330
42
102
}
330
42
100
AcDbScale
 70
     0
300
6" = 1'-0"
140
6.0
141
12.0
290
     0
  0
SCALE
  5
53
102
{ACAD_REACTORS
330
42
102
}
330
42
100
AcDbScale
 70
     0
300
1'-0" = 1'-0"
140
12.0
141
12.0
290
     0
  0
ACDBSECTIONVIEWSTYLE
  5
69
102
{ACAD_REACTORS
330
68
102
}
330
68
100
AcDbModelDocViewStyle
 70
     0
  3
Imperial24
290
     1
300
Imperial24
 90
        0
100
AcDbSectionViewStyle
 70
     0
 71
     0
 90
       78
 71
     1
340
55
 62
   256
 40
0.24
340
0
340
0
 62
   256
 40
0.24
300
I, O, Q, S, X, Z
 40
0.48
 90
        3
 40
0.18
 90
        1
 71
     2
340
5D
 90
       25
 62
   256
340
5D
 90
       50
 62
   256
 40
0.24
 40
0.0
 40
0.24
 71
     3
340
55
 62
   256
 40
0.24
 90
        1
 40
0.75
 90
        1
300
%<\AcVar ViewType \f "%tc1">% %<\AcVar ViewSectionStartId>%-%<\AcVar ViewSectionEndId>%\PSCALE %<\AcVar ViewScale \f "%sn">%
 71
     4
 62
   256
 62
   257
300
ANSI31
 40
1.0
 90
        0
290
     0
290
     0
 90
        6
 40
0.0
 40
1.570796326794896
 40
0.2617993877991494
 40
1.308996938995747
 40
-0.2617993877991494
 40
1.832595714594046
  0
TABLESTYLE
  5
65
102
{ACAD_XDICTIONARY
360
C3
102
}
102
{ACAD_REACTORS
330
64
102
}
330
64
100
AcDbTableStyle
280
     0
  3
Standard
 70
     0
 71
     0
 40
0.06
 41
0.06
280
     0
281
     0
  7
Standard
140
0.18
170
     2
 62
     0
 63
     7
283
     0
 90
      512
 91
        0
  1

274
    -2
284
     1
 64
     0
275
    -2
285
     1
 65
     0
276
    -2
286
     1
 66
     0
277
    -2
287
     1
 67
     0
278
    -2
288
     1
 68
     0
279
    -2
289
     1
 69
     0
  7
Standard
140
0.25
170
     5
 62
     0
 63
     7
283
     0
 90
      512
 91
        0
  1

274
    -2
284
     1
 64
     0
275
    -2
285
     1
 65
     0
276
    -2
286
     1
 66
     0
277
    -2
287
     1
 67
     0
278
    -2
288
     1
 68
     0
279
    -2
289
     1
 69
     0
  7
Standard
140
0.18
170
     5
 62
     0
 63
     7
283
     0
 90
      512
 91
        0
  1

274
    -2
284
     1
 64
     0
275
    -2
285
     1
 65
     0
276
    -2
286
     1
 66
     0
277
    -2
287
     1
 67
     0
278
    -2
288
     1
 68
     0
279
    -2
289
     1
 69
     0
  0
VISUALSTYLE
  5
2F
102
{ACAD_REACTORS
330
29
102
}
330
29
100
AcDbVisualStyle
  2
2dWireframe
 70
     4
177
     3
291
     0
 70
    58
 90
        0
176
     1
 90
        2
176
     1
 90
        0
176
     1
 90
        0
176
     1
 40
0.6
176
     1
 40
30.0
176
     1
 62
     7
420
 16777215
176
     1
 90
        1
176
     1
 90
        4
176
     1
 62
     7
176
     1
 62
   257
176
     1
 90
        1
176
     1
 90
        1
176
     1
 40
1.0
176
     1
 90
        0
176
     1
 62
   257
176
     1
 40
1.0
176
     1
 90
        1
176
     1
 90
        6
176
     1
 90
        2
176
     1
 62
     7
176
     1
 90
        5
176
     1
 90
        0
176
     1
 90
        0
176
     1
290
     0
176
     1
 90
        1
176
     1
 40
0.0
176
     1
 90
        0
176
     1
290
     1
176
     1
290
     1
176
     1
290
     0
176
     1
290
     0
176
     1
290
     0
176
     1
290
     0
176
     1
290
     0
176
     1
290
     0
176
     1
290
     0
176
     1
 90
       50
176
     1
 40
0.0
176
     1
 40
1.0
176
     1
 90
        0
176
     1
 62
    18
420
        0
176
     1
 90
       50
176
     1
 90
        3
176
     1
 62
     5
420
      255
176
     1
290
     0
176
     1
 90
       50
176
     1
 90
       50
176
     1
 90
       50
176
     1
290
     0
176
     1
 90
       50
176
     1
 62
   256
176
     0
 40
1.0
176
     0
 90
        2
176
     1
  1
strokes_ogs.tif
176
     1
290
     0
176
     1
 40
1.0
176
     1
 40
1.0
176
     1
  0
VISUALSTYLE
  5
2E
102
{ACAD_REACTORS
330
29
102
}
330
29
100
AcDbVisualStyle
  2
Basic
 70
     7
177
     3
291
     1
 70
    58
 90
        1
176
     1
 90
        0
176
     1
 90
        1
176
     1
 90
        0
176
     1
 40
0.6
176
     1
 40
30.0
176
     1
 62
     7
420
 16777215
176
     1
 90
        0
176
     1
 90
        4
176
     1
 62
     7
176
     1
 62
   257
176
     1
 90
        1
176
     1
 90
        1
176
     1
 40
1.0
176
     1
 90
        8
176
     1
 62
     7
176
     1
 40
1.0
176
     1
 90
        1
176
     1
 90
        6
176
     1
 90
        2
176
     1
 62
     7
176
     1
 90
        5
176
     1
 90
        0
176
     1
 90
        0
176
     1
290
     0
176
     1
 90
        1
176
     1
 40
0.0
176
     1
 90
        0
176
     1
290
     0
176
     1
290
     1
176
     1
290
     1
176
     1
290
     0
176
     1
290
     0
176
     1
290
     0
176
     1
290
     0
176
     1
290
     0
176
     1
290
     0
176
     1
 90
       50
176
     1
 40
0.0
176
     1
 40
1.0
176
     1
 90
        0
176
     1
 62
    18
420
        0
176
     1
 90
       50
176
     1
 90
        3
176
     1
 62
     5
420
      255
176
     1
290
     0
176
     1
 90
       50
176
     1
 90
       50
176
     1
 90
       50
176
     1
290
     0
176
     1
 90
       50
176
     1
 62
   256
176
     0
 40
1.0
176
     0
 90
        2
176
     1
  1
strokes_ogs.tif
176
     1
290
     0
176
     1
 40
1.0
176
     1
 40
1.0
176
     1
  0
VISUALSTYLE
  5
35
102
{ACAD_REACTORS
330
29
102
}
330
29
100
AcDbVisualStyle
  2
Brighten
 70
    12
177
     3
291
     1
 70
    58
 90
        2
176
     1
 90
        2
176
     1
 90
        0
176
     1
 90
        0
176
     1
 40
0.6
176
     1
 40
30.0
176
     1
 62
     7
420
 16777215
176
     1
 90
        1
176
     1
 90
        4
176
     1
 62
     7
176
     1
 62
   257
176
     1
 90
        1
176
     1
 90
        1
176
     1
 40
1.0
176
     1
 90
        8
176
     1
 62
     7
176
     1
 40
1.0
176
     1
 90
        1
176
     1
 90
        6
176
     1
 90
        2
176
     1
 62
     7
176
     1
 90
        5
176
     1
 90
        0
176
     1
 90
        0
176
     1
290
     0
176
     1
 90
        1
176
     1
 40
50.0
176
     1
 90
        0
176
     1
290
     0
176
     1
290
     1
176
     1
290
     1
176
     1
290
     0
176
     1
290
     0
176
     1
290
     0
176
     1
290
     0
176
     1
290
     0
176
     1
290
     0
176
     1
 90
       50
176
     1
 40
0.0
176
     1
 40
1.0
176
     1
 90
        0
176
     1
 62
    18
420
        0
176
     1
 90
       50
176
     1
 90
        3
176
     1
 62
     5
420
      255
176
     1
290
     0
176
     1
 90
       50
176
     1
 90
       50
176
     1
 90
       50
176
     1
290
     0
176
     1
 90
       50
176
     1
 62
   256
176
     0
 40
1.0
176
     0
 90
        2
176
     1
  1
strokes_ogs.tif
176
     1
290
     0
176
     1
 40
1.0
176
     1
 40
1.0
176
     1
  0
VISUALSTYLE
  5
39
102
{ACAD_REACTORS
330
29
102
}
330
29
100
AcDbVisualStyle
  2
ColorChange
 70
    16
177
     3
291
     1
 70
    58
 90
        2
176
     1
 90
        2
176
     1
 90
        3
176
     1
 90
        0
176
     1
 40
0.6
176
     1
 40
30.0
176
     1
 62
     8
420
  8421504
176
     1
 90
        1
176
     1
 90
        4
176
     1
 62
     7
176
     1
 62
   257
176
     1
 90
        1
176
     1
 90
        1
176
     1
 40
1.0
176
     1
 90
        8
176
     1
 62
     8
420
  8421504
176
     1
 40
1.0
176
     1
 90
        1
176
     1
 90
        6
176
     1
 90
        2
176
     1
 62
     7
176
     1
 90
        5
176
     1
 90
        0
176
     1
 90
        0
176
     1
290
     0
176
     1
 90
        1
176
     1
 40
0.0
176
     1
 90
        0
176
     1
290
     0
176
     1
290
     1
176
     1
290
     1
176
     1
290
     0
176
     1
290
     0
176
     1
290
     0
176
     1
290
     0
176
     1
290
     0
176
     1
290
     0
176
     1
 90
       50
176
     1
 40
0.0
176
     1
 40
1.0
176
     1
 90
        0
176
     1
 62
    18
420
        0
176
     1
 90
       50
176
     1
 90
        3
176
     1
 62
     5
420
      255
176
     1
290
     0
176
     1
 90
       50
176
     1
 90
       50
176
     1
 90
       50
176
     1
290
     0
176
     1
 90
       50
176
     1
 62
   256
176
     0
 40
1.0
176
     0
 90
        2
176
     1
  1
strokes_ogs.tif
176
     1
290
     0
176
     1
 40
1.0
176
     1
 40
1.0
176
     1
  0
VISUALSTYLE
  5
32
102
{ACAD_REACTORS
330
29
102
}
330
29
100
AcDbVisualStyle
  2
Conceptual
 70
     9
177
     3
291
     0
 70
    58
 90
        3
176
     1
 90
        2
176
     1
 90
        0
176
     1
 90
        0
176
     1
 40
0.6
176
     1
 40
30.0
176
     1
 62
     7
420
 16777215
176
     1
 90
        2
176
     1
 90
        2
176
     1
 62
     7
176
     1
 62
   257
176
     1
 90
        1
176
     1
 90
        1
176
     1
 40
179.0
176
     1
 90
        8
176
     1
 62
     7
176
     1
 40
1.0
176
     1
 90
        1
176
     1
 90
        6
176
     1
 90
        2
176
     1
 62
     7
176
     1
 90
        3
176
     1
 90
        0
176
     1
 90
        0
176
     1
290
     0
176
     1
 90
        1
176
     1
 40
0.0
176
     1
 90
        0
176
     1
290
     0
176
     1
290
     1
176
     1
290
     1
176
     1
290
     0
176
     1
290
     0
176
     1
290
     0
176
     1
290
     0
176
     1
290
     0
176
     1
290
     0
176
     1
 90
       50
176
     1
 40
0.0
176
     1
 40
1.0
176
     1
 90
        0
176
     1
 62
    18
420
        0
176
     1
 90
       50
176
     1
 90
        3
176
     1
 62
     5
420
      255
176
     1
290
     0
176
     1
 90
       50
176
     1
 90
       50
176
     1
 90
       50
176
     1
290
     0
176
     1
 90
       50
176
     1
 62
   256
176
     0
 40
1.0
176
     0
 90
        2
176
     1
  1
strokes_ogs.tif
176
     1
290
     0
176
     1
 40
1.0
176
     1
 40
1.0
176
     1
  0
VISUALSTYLE
  5
34
102
{ACAD_REACTORS
330
29
102
}
330
29
100
AcDbVisualStyle
  2
Dim
 70
    11
177
     3
291
     1
 70
    58
 90
        2
176
     1
 90
        2
176
     1
 90
        0
176
     1
 90
        0
176
     1
 40
0.6
176
     1
 40
30.0
176
     1
 62
     7
420
 16777215
176
     1
 90
        1
176
     1
 90
        4
176
     1
 62
     7
176
     1
 62
   257
176
     1
 90
        1
176
     1
 90
        1
176
     1
 40
1.0
176
     1
 90
        8
176
     1
 62
     7
176
     1
 40
1.0
176
     1
 90
        1
176
     1
 90
        6
176
     1
 90
        2
176
     1
 62
     7
176
     1
 90
        5
176
     1
 90
        0
176
     1
 90
        0
176
     1
290
     0
176
     1
 90
        1
176
     1
 40
-50.0
176
     1
 90
        0
176
     1
290
     0
176
     1
290
     1
176
     1
290
     1
176
     1
290
     0
176
     1
290
     0
176
     1
290
     0
176
     1
290
     0
176
     1
290
     0
176
     1
290
     0
176
     1
 90
       50
176
     1
 40
0.0
176
     1
 40
1.0
176
     1
 90
        0
176
     1
 62
    18
420
        0
176
     1
 90
       50
176
     1
 90
        3
176
     1
 62
     5
420
      255
176
     1
290
     0
176
     1
 90
       50
176
     1
 90
       50
176
     1
 90
       50
176
     1
290
     0
176
     1
 90
       50
176
     1
 62
   256
176
     0
 40
1.0
176
     0
 90
        2
176
     1
  1
strokes_ogs.tif
176
     1
290
     0
176
     1
 40
1.0
176
     1
 40
1.0
176
     1
  0
VISUALSTYLE
  5
41
102
{ACAD_REACTORS
330
29
102
}
330
29
100
AcDbVisualStyle
  2
EdgeColorOff
 70
    22
177
     3
291
     1
 70
    58
 90
        2
176
     0
 90
        2
176
     0
 90
        0
176
     0
 90
        0
176
     0
 40
0.6
176
     0
 40
30.0
176
     0
 62
     7
420
 16777215
176
     0
 90
        1
176
     0
 90
        4
176
     0
 62
     7
176
     0
 62
   257
176
     0
 90
        1
176
     0
 90
        1
176
     0
 40
1.0
176
     0
 90
        8
176
     2
 62
     7
176
     0
 40
1.0
176
     0
 90
        1
176
     0
 90
        6
176
     0
 90
        2
176
     0
 62
     7
176
     0
 90
        5
176
     0
 90
        0
176
     0
 90
        0
176
     0
290
     0
176
     0
 90
        1
176
     0
 40
0.0
176
     0
 90
        0
176
     0
290
     0
176
     0
290
     1
176
     0
290
     1
176
     0
290
     0
176
     0
290
     0
176
     0
290
     0
176
     0
290
     0
176
     0
290
     0
176
     0
290
     0
176
     0
 90
       50
176
     0
 40
0.0
176
     0
 40
1.0
176
     0
 90
        0
176
     0
 62
    18
420
        0
176
     0
 90
       50
176
     0
 90
        3
176
     0
 62
     5
420
      255
176
     0
290
     0
176
     0
 90
       50
176
     0
 90
       50
176
     0
 90
       50
176
     0
290
     0
176
     0
 90
       50
176
     0
 62
   256
176
     0
 40
1.0
176
     0
 90
        2
176
     0
  1
strokes_ogs.tif
176
     0
290
     0
176
     0
 40
1.0
176
     0
 40
1.0
176
     0
  0
VISUALSTYLE
  5
38
102
{ACAD_REACTORS
330
29
102
}
330
29
100
AcDbVisualStyle
  2
Facepattern
 70
    15
177
     3
291
     1
 70
    58
 90
        2
176
     1
 90
        2
176
     1
 90
        0
176
     1
 90
        0
176
     1
 40
0.6
176
     1
 40
30.0
176
     1
 62
     7
420
 16777215
176
     1
 90
        1
176
     1
 90
        4
176
     1
 62
     7
176
     1
 62
   257
176
     1
 90
        1
176
     1
 90
        1
176
     1
 40
1.0
176
     1
 90
        8
176
     1
 62
     7
176
     1
 40
1.0
176
     1
 90
        1
176
     1
 90
        6
176
     1
 90
        2
176
     1
 62
     7
176
     1
 90
        5
176
     1
 90
        0
176
     1
 90
        0
176
     1
290
     0
176
     1
 90
        1
176
     1
 40
0.0
176
     1
 90
        0
176
     1
290
     0
176
     1
290
     1
176
     1
290
     1
176
     1
290
     0
176
     1
290
     0
176
     1
290
     0
176
     1
290
     0
176
     1
290
     0
176
     1
290
     0
176
     1
 90
       50
176
     1
 40
0.0
176
     1
 40
1.0
176
     1
 90
        0
176
     1
 62
    18
420
        0
176
     1
 90
       50
176
     1
 90
        3
176
     1
 62
     5
420
      255
176
     1
290
     0
176
     1
 90
       50
176
     1
 90
       50
176
     1
 90
       50
176
     1
290
     0
176
     1
 90
       50
176
     1
 62
   256
176
     0
 40
1.0
176
     0
 90
        2
176
     1
  1
strokes_ogs.tif
176
     1
290
     0
176
     1
 40
1.0
176
     1
 40
1.0
176
     1
  0
VISUALSTYLE
  5
2A
102
{ACAD_REACTORS
330
29
102
}
330
29
100
AcDbVisualStyle
  2
Flat
 70
     0
177
     3
291
     1
 70
    58
 90
        2
176
     1
 90
        1
176
     1
 90
        1
176
     1
 90
        2
176
     1
 40
0.6
176
     1
 40
30.0
176
     1
 62
     7
420
 16777215
176
     1
 90
        0
176
     1
 90
        0
176
     1
 62
     7
176
     1
 62
   257
176
     1
 90
        1
176
     1
 90
        1
176
     1
 40
1.0
176
     1
 90
        8
176
     1
 62
     7
176
     1
 40
1.0
176
     1
 90
        1
176
     1
 90
        6
176
     1
 90
        2
176
     1
 62
     7
176
     1
 90
        5
176
     1
 90
        0
176
     1
 90
        0
176
     1
290
     0
176
     1
 90
       13
176
     1
 40
0.0
176
     1
 90
        0
176
     1
290
     0
176
     1
290
     1
176
     1
290
     1
176
     1
290
     0
176
     1
290
     0
176
     1
290
     0
176
     1
290
     0
176
     1
290
     0
176
     1
290
     0
176
     1
 90
       50
176
     1
 40
0.0
176
     1
 40
1.0
176
     1
 90
        0
176
     1
 62
    18
420
        0
176
     1
 90
       50
176
     1
 90
        3
176
     1
 62
     5
420
      255
176
     1
290
     0
176
     1
 90
       50
176
     1
 90
       50
176
     1
 90
       50
176
     1
290
     0
176
     1
 90
       50
176
     1
 62
   256
176
     0
 40
1.0
176
     0
 90
        2
176
     1
  1
strokes_ogs.tif
176
     1
290
     0
176
     1
 40
1.0
176
     1
 40
1.0
176
     1
  0
VISUALSTYLE
  5
2B
102
{ACAD_REACTORS
330
29
102
}
330
29
100
AcDbVisualStyle
  2
FlatWithEdges
 70
     1
177
     3
291
     1
 70
    58
 90
        2
176
     1
 90
        1
176
     1
 90
        1
176
     1
 90
        2
176
     1
 40
0.6
176
     1
 40
30.0
176
     1
 62
     7
420
 16777215
176
     1
 90
        1
176
     1
 90
        0
176
     1
 62
     7
176
     1
 62
   257
176
     1
 90
        1
176
     1
 90
        1
176
     1
 40
1.0
176
     1
 90
        0
176
     1
 62
   257
176
     1
 40
1.0
176
     1
 90
        1
176
     1
 90
        6
176
     1
 90
        2
176
     1
 62
     7
176
     1
 90
        5
176
     1
 90
        0
176
     1
 90
        0
176
     1
290
     0
176
     1
 90
       13
176
     1
 40
0.0
176
     1
 90
        0
176
     1
290
     0
176
     1
290
     1
176
     1
290
     1
176
     1
290
     0
176
     1
290
     0
176
     1
290
     0
176
     1
290
     0
176
     1
290
     0
176
     1
290
     0
176
     1
 90
       50
176
     1
 40
0.0
176
     1
 40
1.0
176
     1
 90
        0
176
     1
 62
    18
420
        0
176
     1
 90
       50
176
     1
 90
        3
176
     1
 62
     5
420
      255
176
     1
290
     0
176
     1
 90
       50
176
     1
 90
       50
176
     1
 90
       50
176
     1
290
     0
176
     1
 90
       50
176
     1
 62
   256
176
     0
 40
1.0
176
     0
 90
        2
176
     1
  1
strokes_ogs.tif
176
     1
290
     0
176
     1
 40
1.0
176
     1
 40
1.0
176
     1
  0
VISUALSTYLE
  5
2C
102
{ACAD_REACTORS
330
29
102
}
330
29
100
AcDbVisualStyle
  2
Gouraud
 70
     2
177
     3
291
     1
 70
    58
 90
        2
176
     1
 90
        2
176
     1
 90
        1
176
     1
 90
        2
176
     1
 40
0.6
176
     1
 40
30.0
176
     1
 62
     7
420
 16777215
176
     1
 90
        0
176
     1
 90
        0
176
     1
 62
     7
176
     1
 62
   257
176
     1
 90
        1
176
     1
 90
        1
176
     1
 40
1.0
176
     1
 90
        0
176
     1
 62
     7
176
     1
 40
1.0
176
     1
 90
        1
176
     1
 90
        6
176
     1
 90
        2
176
     1
 62
     7
176
     1
 90
        5
176
     1
 90
        0
176
     1
 90
        0
176
     1
290
     0
176
     1
 90
       13
176
     1
 40
0.0
176
     1
 90
        0
176
     1
290
     0
176
     1
290
     1
176
     1
290
     1
176
     1
290
     0
176
     1
290
     0
176
     1
290
     0
176
     1
290
     0
176
     1
290
     0
176
     1
290
     0
176
     1
 90
       50
176
     1
 40
0.0
176
     1
 40
1.0
176
     1
 90
        0
176
     1
 62
    18
420
        0
176
     1
 90
       50
176
     1
 90
        3
176
     1
 62
     5
420
      255
176
     1
290
     0
176
     1
 90
       50
176
     1
 90
       50
176
     1
 90
       50
176
     1
290
     0
176
     1
 90
       50
176
     1
 62
   256
176
     0
 40
1.0
176
     0
 90
        2
176
     1
  1
strokes_ogs.tif
176
     1
290
     0
176
     1
 40
1.0
176
     1
 40
1.0
176
     1
  0
VISUALSTYLE
  5
2D
102
{ACAD_REACTORS
330
29
102
}
330
29
100
AcDbVisualStyle
  2
GouraudWithEdges
 70
     3
177
     3
291
     1
 70
    58
 90
        2
176
     1
 90
        2
176
     1
 90
        1
176
     1
 90
        2
176
     1
 40
0.6
176
     1
 40
30.0
176
     1
 62
     7
420
 16777215
176
     1
 90
        1
176
     1
 90
        0
176
     1
 62
     7
176
     1
 62
   257
176
     1
 90
        1
176
     1
 90
        1
176
     1
 40
1.0
176
     1
 90
        0
176
     1
 62
   257
176
     1
 40
1.0
176
     1
 90
        1
176
     1
 90
        6
176
     1
 90
        2
176
     1
 62
     7
176
     1
 90
        5
176
     1
 90
        0
176
     1
 90
        0
176
     1
290
     0
176
     1
 90
       13
176
     1
 40
0.0
176
     1
 90
        0
176
     1
290
     0
176
     1
290
     1
176
     1
290
     1
176
     1
290
     0
176
     1
290
     0
176
     1
290
     0
176
     1
290
     0
176
     1
290
     0
176
     1
290
     0
176
     1
 90
       50
176
     1
 40
0.0
176
     1
 40
1.0
176
     1
 90
        0
176
     1
 62
    18
420
        0
176
     1
 90
       50
176
     1
 90
        3
176
     1
 62
     5
420
      255
176
     1
290
     0
176
     1
 90
       50
176
     1
 90
       50
176
     1
 90
       50
176
     1
290
     0
176
     1
 90
       50
176
     1
 62
   256
176
     0
 40
1.0
176
     0
 90
        2
176
     1
  1
strokes_ogs.tif
176
     1
290
     0
176
     1
 40
1.0
176
     1
 40
1.0
176
     1
  0
VISUALSTYLE
  5
31
102
{ACAD_REACTORS
330
29
102
}
330
29
100
AcDbVisualStyle
  2
Hidden
 70
     6
177
     3
291
     0
 70
    58
 90
        1
176
     1
 90
        2
176
     1
 90
        2
176
     1
 90
        0
176
     1
 40
0.6
176
     1
 40
30.0
176
     1
 62
     7
420
 16777215
176
     1
 90
        2
176
     1
 90
        2
176
     1
 62
     7
176
     1
 62
   257
176
     1
 90
        2
176
     1
 90
        1
176
     1
 40
40.0
176
     1
 90
        0
176
     1
 62
   257
176
     1
 40
1.0
176
     1
 90
        1
176
     1
 90
        6
176
     1
 90
        2
176
     1
 62
     7
176
     1
 90
        3
176
     1
 90
        0
176
     1
 90
        0
176
     1
290
     0
176
     1
 90
        1
176
     1
 40
0.0
176
     1
 90
        0
176
     1
290
     0
176
     1
290
     1
176
     1
290
     1
176
     1
290
     0
176
     1
290
     0
176
     1
290
     0
176
     1
290
     0
176
     1
290
     0
176
     1
290
     0
176
     1
 90
       50
176
     1
 40
0.0
176
     1
 40
1.0
176
     1
 90
        0
176
     1
 62
    18
420
        0
176
     1
 90
       50
176
     1
 90
        3
176
     1
 62
     5
420
      255
176
     1
290
     0
176
     1
 90
       50
176
     1
 90
       50
176
     1
 90
       50
176
     1
290
     0
176
     1
 90
       50
176
     1
 62
   256
176
     0
 40
1.0
176
     0
 90
        2
176
     1
  1
strokes_ogs.tif
176
     1
290
     0
176
     1
 40
1.0
176
     1
 40
1.0
176
     1
  0
VISUALSTYLE
  5
3F
102
{ACAD_REACTORS
330
29
102
}
330
29
100
AcDbVisualStyle
  2
JitterOff
 70
    20
177
     3
291
     1
 70
    58
 90
        2
176
     0
 90
        2
176
     0
 90
        0
176
     0
 90
        0
176
     0
 40
0.6
176
     0
 40
30.0
176
     0
 62
     7
420
 16777215
176
     0
 90
        1
176
     0
 90
        4
176
     0
 62
     7
176
     0
 62
   257
176
     0
 90
        1
176
     0
 90
        1
176
     0
 40
1.0
176
     0
 90
       10
176
     2
 62
     7
176
     0
 40
1.0
176
     0
 90
        1
176
     0
 90
        6
176
     0
 90
        2
176
     0
 62
     7
176
     0
 90
        5
176
     0
 90
        0
176
     0
 90
        0
176
     0
290
     0
176
     0
 90
        1
176
     0
 40
0.0
176
     0
 90
        0
176
     0
290
     0
176
     0
290
     1
176
     0
290
     1
176
     0
290
     0
176
     0
290
     0
176
     0
290
     0
176
     0
290
     0
176
     0
290
     0
176
     0
290
     0
176
     0
 90
       50
176
     0
 40
0.0
176
     0
 40
1.0
176
     0
 90
        0
176
     0
 62
    18
420
        0
176
     0
 90
       50
176
     0
 90
        3
176
     0
 62
     5
420
      255
176
     0
290
     0
176
     0
 90
       50
176
     0
 90
       50
176
     0
 90
       50
176
     0
290
     0
176
     0
 90
       50
176
     0
 62
   256
176
     0
 40
1.0
176
     0
 90
        2
176
     0
  1
strokes_ogs.tif
176
     0
290
     0
176
     0
 40
1.0
176
     0
 40
1.0
176
     0
  0
VISUALSTYLE
  5
37
102
{ACAD_REACTORS
330
29
102
}
330
29
100
AcDbVisualStyle
  2
Linepattern
 70
    14
177
     3
291
     1
 70
    58
 90
        2
176
     1
 90
        2
176
     1
 90
        0
176
     1
 90
        0
176
     1
 40
0.6
176
     1
 40
30.0
176
     1
 62
     7
420
 16777215
176
     1
 90
        1
176
     1
 90
        4
176
     1
 62
     7
176
     1
 62
   257
176
     1
 90
        7
176
     1
 90
        7
176
     1
 40
1.0
176
     1
 90
        8
176
     1
 62
     7
176
     1
 40
1.0
176
     1
 90
        1
176
     1
 90
        6
176
     1
 90
        2
176
     1
 62
     7
176
     1
 90
        5
176
     1
 90
        0
176
     1
 90
        0
176
     1
290
     0
176
     1
 90
        1
176
     1
 40
0.0
176
     1
 90
        0
176
     1
290
     0
176
     1
290
     1
176
     1
290
     1
176
     1
290
     0
176
     1
290
     0
176
     1
290
     0
176
     1
290
     0
176
     1
290
     0
176
     1
290
     0
176
     1
 90
       50
176
     1
 40
0.0
176
     1
 40
1.0
176
     1
 90
        0
176
     1
 62
    18
420
        0
176
     1
 90
       50
176
     1
 90
        3
176
     1
 62
     5
420
      255
176
     1
290
     0
176
     1
 90
       50
176
     1
 90
       50
176
     1
 90
       50
176
     1
290
     0
176
     1
 90
       50
176
     1
 62
   256
176
     0
 40
1.0
176
     0
 90
        2
176
     1
  1
strokes_ogs.tif
176
     1
290
     0
176
     1
 40
1.0
176
     1
 40
1.0
176
     1
  0
VISUALSTYLE
  5
40
102
{ACAD_REACTORS
330
29
102
}
330
29
100
AcDbVisualStyle
  2
OverhangOff
 70
    21
177
     3
291
     1
 70
    58
 90
        2
176
     0
 90
        2
176
     0
 90
        0
176
     0
 90
        0
176
     0
 40
0.6
176
     0
 40
30.0
176
     0
 62
     7
420
 16777215
176
     0
 90
        1
176
     0
 90
        4
176
     0
 62
     7
176
     0
 62
   257
176
     0
 90
        1
176
     0
 90
        1
176
     0
 40
1.0
176
     0
 90
        9
176
     2
 62
     7
176
     0
 40
1.0
176
     0
 90
        1
176
     0
 90
        6
176
     0
 90
        2
176
     0
 62
     7
176
     0
 90
        5
176
     0
 90
        0
176
     0
 90
        0
176
     0
290
     0
176
     0
 90
        1
176
     0
 40
0.0
176
     0
 90
        0
176
     0
290
     0
176
     0
290
     1
176
     0
290
     1
176
     0
290
     0
176
     0
290
     0
176
     0
290
     0
176
     0
290
     0
176
     0
290
     0
176
     0
290
     0
176
     0
 90
       50
176
     0
 40
0.0
176
     0
 40
1.0
176
     0
 90
        0
176
     0
 62
    18
420
        0
176
     0
 90
       50
176
     0
 90
        3
176
     0
 62
     5
420
      255
176
     0
290
     0
176
     0
 90
       50
176
     0
 90
       50
176
     0
 90
       50
176
     0
290
     0
176
     0
 90
       50
176
     0
 62
   256
176
     0
 40
1.0
176
     0
 90
        2
176
     0
  1
strokes_ogs.tif
176
     0
290
     0
176
     0
 40
1.0
176
     0
 40
1.0
176
     0
  0
VISUALSTYLE
  5
33
102
{ACAD_REACTORS
330
29
102
}
330
29
100
AcDbVisualStyle
  2
Realistic
 70
     8
177
     3
291
     0
 70
    58
 90
        2
176
     1
 90
        3
176
     1
 90
        0
176
     1
 90
        2
176
     1
 40
0.6
176
     1
 40
30.0
176
     1
 62
     7
420
 16777215
176
     1
 90
        0
176
     1
 90
        0
176
     1
 62
     7
176
     1
 62
   257
176
     1
 90
        1
176
     1
 90
        1
176
     1
 40
1.0
176
     1
 90
        8
176
     1
 62
   257
176
     1
 40
1.0
176
     1
 90
        1
176
     1
 90
        6
176
     1
 90
        2
176
     1
 62
     7
176
     1
 90
        3
176
     1
 90
        0
176
     1
 90
        0
176
     1
290
     0
176
     1
 90
       13
176
     1
 40
0.0
176
     1
 90
        0
176
     1
290
     0
176
     1
290
     1
176
     1
290
     1
176
     1
290
     0
176
     1
290
     0
176
     1
290
     0
176
     1
290
     0
176
     1
290
     0
176
     1
290
     0
176
     1
 90
       50
176
     1
 40
0.0
176
     1
 40
1.0
176
     1
 90
        0
176
     1
 62
    18
420
        0
176
     1
 90
       50
176
     1
 90
        3
176
     1
 62
     5
420
      255
176
     1
290
     0
176
     1
 90
       50
176
     1
 90
       50
176
     1
 90
       50
176
     1
290
     0
176
     1
 90
       50
176
     1
 62
   256
176
     0
 40
1.0
176
     0
 90
        2
176
     1
  1
strokes_ogs.tif
176
     1
290
     0
176
     1
 40
1.0
176
     1
 40
1.0
176
     1
  0
VISUALSTYLE
  5
3E
102
{ACAD_REACTORS
330
29
102
}
330
29
100
AcDbVisualStyle
  2
Shaded
 70
    27
177
     3
291
     0
 70
    58
 90
        2
176
     1
 90
        2
176
     1
 90
        1
176
     1
 90
        2
176
     1
 40
0.6
176
     1
 40
30.0
176
     1
 62
     7
420
 16777215
176
     1
 90
        0
176
     1
 90
        4
176
     1
 62
     7
176
     1
 62
   257
176
     1
 90
        1
176
     1
 90
        1
176
     1
 40
1.0
176
     1
 90
        8
176
     1
 62
   257
176
     1
 40
1.0
176
     1
 90
        1
176
     1
 90
        6
176
     1
 90
        2
176
     1
 62
     8
420
  7895160
176
     1
 90
        3
176
     1
 90
        0
176
     1
 90
        0
176
     1
290
     0
176
     1
 90
        5
176
     1
 40
0.0
176
     1
 90
        0
176
     1
290
     0
176
     1
290
     1
176
     1
290
     1
176
     1
290
     0
176
     1
290
     0
176
     1
290
     0
176
     1
290
     0
176
     1
290
     0
176
     1
290
     0
176
     1
 90
       50
176
     1
 40
0.0
176
     1
 40
1.0
176
     1
 90
        0
176
     1
 62
    18
420
        0
176
     1
 90
       50
176
     1
 90
        3
176
     1
 62
     5
420
      255
176
     1
290
     0
176
     1
 90
       50
176
     1
 90
       50
176
     1
 90
       50
176
     1
290
     0
176
     1
 90
       50
176
     1
 62
   256
176
     0
 40
1.0
176
     0
 90
        2
176
     1
  1
strokes_ogs.tif
176
     1
290
     0
176
     1
 40
1.0
176
     1
 40
1.0
176
     1
  0
VISUALSTYLE
  5
3D
102
{ACAD_REACTORS
330
29
102
}
330
29
100
AcDbVisualStyle
  2
Shaded with edges
 70
    26
177
     3
291
     0
 70
    58
 90
        2
176
     1
 90
        2
176
     1
 90
        1
176
     1
 90
        2
176
     1
 40
0.6
176
     1
 40
30.0
176
     1
 62
     7
420
 16777215
176
     1
 90
        1
176
     1
 90
        2
176
     1
 62
     7
176
     1
 62
   257
176
     1
 90
        2
176
     1
 90
        1
176
     1
 40
1.0
176
     1
 90
        8
176
     1
 62
   257
176
     1
 40
1.0
176
     1
 90
        1
176
     1
 90
        6
176
     1
 90
        2
176
     1
 62
     7
176
     1
 90
        3
176
     1
 90
        0
176
     1
 90
        0
176
     1
290
     0
176
     1
 90
        5
176
     1
 40
0.0
176
     1
 90
        0
176
     1
290
     0
176
     1
290
     1
176
     1
290
     1
176
     1
290
     0
176
     1
290
     0
176
     1
290
     0
176
     1
290
     0
176
     1
290
     0
176
     1
290
     0
176
     1
 90
       50
176
     1
 40
0.0
176
     1
 40
1.0
176
     1
 90
        0
176
     1
 62
    18
420
        0
176
     1
 90
       50
176
     1
 90
        3
176
     1
 62
     5
420
      255
176
     1
290
     0
176
     1
 90
       50
176
     1
 90
       50
176
     1
 90
       50
176
     1
290
     0
176
     1
 90
       50
176
     1
 62
   256
176
     0
 40
1.0
176
     0
 90
        2
176
     1
  1
strokes_ogs.tif
176
     1
290
     0
176
     1
 40
1.0
176
     1
 40
1.0
176
     1
  0
VISUALSTYLE
  5
3A
102
{ACAD_REACTORS
330
29
102
}
330
29
100
AcDbVisualStyle
  2
Shades of Gray
 70
    23
177
     3
291
     0
 70
    58
 90
        2
176
     1
 90
        2
176
     1
 90
        3
176
     1
 90
        0
176
     1
 40
0.6
176
     1
 40
30.0
176
     1
 62
     7
420
 16777215
176
     1
 90
        2
176
     1
 90
        2
176
     1
 62
     7
176
     1
 62
     7
176
     1
 90
        1
176
     1
 90
        1
176
     1
 40
40.0
176
     1
 90
        8
176
     1
 62
     7
176
     1
 40
1.0
176
     1
 90
        1
176
     1
 90
        6
176
     1
 90
        2
176
     1
 62
     7
176
     1
 90
        3
176
     1
 90
        0
176
     1
 90
        0
176
     1
290
     0
176
     1
 90
        1
176
     1
 40
0.0
176
     1
 90
        0
176
     1
290
     0
176
     1
290
     1
176
     1
290
     1
176
     1
290
     0
176
     1
290
     0
176
     1
290
     0
176
     1
290
     0
176
     1
290
     0
176
     1
290
     0
176
     1
 90
       50
176
     1
 40
0.0
176
     1
 40
1.0
176
     1
 90
        0
176
     1
 62
    18
420
        0
176
     1
 90
       50
176
     1
 90
        3
176
     1
 62
     5
420
      255
176
     1
290
     0
176
     1
 90
       50
176
     1
 90
       50
176
     1
 90
       50
176
     1
290
     0
176
     1
 90
       50
176
     1
 62
   256
176
     0
 40
1.0
176
     0
 90
        2
176
     1
  1
strokes_ogs.tif
176
     1
290
     0
176
     1
 40
1.0
176
     1
 40
1.0
176
     1
  0
VISUALSTYLE
  5
3B
102
{ACAD_REACTORS
330
29
102
}
330
29
100
AcDbVisualStyle
  2
Sketchy
 70
    24
177
     3
291
     0
 70
    58
 90
        1
176
     1
 90
        2
176
     1
 90
        2
176
     1
 90
        0
176
     1
 40
0.6
176
     1
 40
30.0
176
     1
 62
     7
420
 16777215
176
     1
 90
        2
176
     1
 90
        2
176
     1
 62
     7
176
     1
 62
     7
176
     1
 90
        1
176
     1
 90
        1
176
     1
 40
40.0
176
     1
 90
       11
176
     1
 62
     7
176
     1
 40
1.0
176
     1
 90
        1
176
     1
 90
        6
176
     1
 90
        2
176
     1
 62
     7
176
     1
 90
        6
176
     1
 90
        0
176
     1
 90
        0
176
     1
290
     0
176
     1
 90
        1
176
     1
 40
0.0
176
     1
 90
        0
176
     1
290
     0
176
     1
290
     1
176
     1
290
     1
176
     1
290
     0
176
     1
290
     0
176
     1
290
     0
176
     1
290
     0
176
     1
290
     0
176
     1
290
     0
176
     1
 90
       50
176
     1
 40
0.0
176
     1
 40
1.0
176
     1
 90
        0
176
     1
 62
    18
420
        0
176
     1
 90
       50
176
     1
 90
        3
176
     1
 62
     5
420
      255
176
     1
290
     0
176
     1
 90
       50
176
     1
 90
       50
176
     1
 90
       50
176
     1
290
     0
176
     1
 90
       50
176
     1
 62
   256
176
     0
 40
1.0
176
     0
 90
        2
176
     1
  1
strokes_ogs.tif
176
     1
290
     0
176
     1
 40
1.0
176
     1
 40
1.0
176
     1
  0
VISUALSTYLE
  5
36
102
{ACAD_REACTORS
330
29
102
}
330
29
100
AcDbVisualStyle
  2
Thicken
 70
    13
177
     3
291
     1
 70
    58
 90
        2
176
     1
 90
        2
176
     1
 90
        0
176
     1
 90
        0
176
     1
 40
0.6
176
     1
 40
30.0
176
     1
 62
     7
420
 16777215
176
     1
 90
        1
176
     1
 90
        4
176
     1
 62
     7
176
     1
 62
   257
176
     1
 90
        1
176
     1
 90
        1
176
     1
 40
1.0
176
     1
 90
       12
176
     1
 62
     7
176
     1
 40
1.0
176
     1
 90
        1
176
     1
 90
        6
176
     1
 90
        2
176
     1
 62
     7
176
     1
 90
        5
176
     1
 90
        0
176
     1
 90
        0
176
     1
290
     0
176
     1
 90
        1
176
     1
 40
0.0
176
     1
 90
        0
176
     1
290
     0
176
     1
290
     1
176
     1
290
     1
176
     1
290
     0
176
     1
290
     0
176
     1
290
     0
176
     1
290
     0
176
     1
290
     0
176
     1
290
     0
176
     1
 90
       50
176
     1
 40
0.0
176
     1
 40
1.0
176
     1
 90
        0
176
     1
 62
    18
420
        0
176
     1
 90
       50
176
     1
 90
        3
176
     1
 62
     5
420
      255
176
     1
290
     0
176
     1
 90
       50
176
     1
 90
       50
176
     1
 90
       50
176
     1
290
     0
176
     1
 90
       50
176
     1
 62
   256
176
     0
 40
1.0
176
     0
 90
        2
176
     1
  1
strokes_ogs.tif
176
     1
290
     0
176
     1
 40
1.0
176
     1
 40
1.0
176
     1
  0
VISUALSTYLE
  5
30
102
{ACAD_REACTORS
330
29
102
}
330
29
100
AcDbVisualStyle
  2
Wireframe
 70
     5
177
     3
291
     0
 70
    58
 90
        0
176
     1
 90
        2
176
     1
 90
        0
176
     1
 90
        0
176
     1
 40
0.6
176
     1
 40
30.0
176
     1
 62
     7
420
 16777215
176
     1
 90
        1
176
     1
 90
        4
176
     1
 62
     7
176
     1
 62
   257
176
     1
 90
        1
176
     1
 90
        1
176
     1
 40
1.0
176
     1
 90
        0
176
     1
 62
   257
176
     1
 40
1.0
176
     1
 90
        1
176
     1
 90
        6
176
     1
 90
        2
176
     1
 62
     7
176
     1
 90
        3
176
     1
 90
        0
176
     1
 90
        0
176
     1
290
     0
176
     1
 90
        1
176
     1
 40
0.0
176
     1
 90
        0
176
     1
290
     0
176
     1
290
     1
176
     1
290
     1
176
     1
290
     0
176
     1
290
     0
176
     1
290
     0
176
     1
290
     0
176
     1
290
     0
176
     1
290
     0
176
     1
 90
       50
176
     1
 40
0.0
176
     1
 40
1.0
176
     1
 90
        0
176
     1
 62
    18
420
        0
176
     1
 90
       50
176
     1
 90
        3
176
     1
 62
     5
420
      255
176
     1
290
     0
176
     1
 90
       50
176
     1
 90
       50
176
     1
 90
       50
176
     1
290
     0
176
     1
 90
       50
176
     1
 62
   256
176
     0
 40
1.0
176
     0
 90
        2
176
     1
  1
strokes_ogs.tif
176
     1
290
     0
176
     1
 40
1.0
176
     1
 40
1.0
176
     1
  0
VISUALSTYLE
  5
3C
102
{ACAD_REACTORS
330
29
102
}
330
29
100
AcDbVisualStyle
  2
X-Ray
 70
    25
177
     3
291
     0
 70
    58
 90
        2
176
     1
 90
        2
176
     1
 90
        1
176
     1
 90
        1
176
     1
 40
0.5
176
     1
 40
30.0
176
     1
 62
     7
420
 16777215
176
     1
 90
        1
176
     1
 90
        0
176
     1
 62
     7
176
     1
 62
   257
176
     1
 90
        1
176
     1
 90
        1
176
     1
 40
1.0
176
     1
 90
        8
176
     1
 62
     7
176
     1
 40
1.0
176
     1
 90
        1
176
     1
 90
        6
176
     1
 90
        2
176
     1
 62
     7
176
     1
 90
        3
176
     1
 90
        0
176
     1
 90
        0
176
     1
290
     0
176
     1
 90
       13
176
     1
 40
0.0
176
     1
 90
        0
176
     1
290
     0
176
     1
290
     1
176
     1
290
     1
176
     1
290
     0
176
     1
290
     0
176
     1
290
     0
176
     1
290
     0
176
     1
290
     0
176
     1
290
     0
176
     1
 90
       50
176
     1
 40
0.0
176
     1
 40
1.0
176
     1
 90
        0
176
     1
 62
    18
420
        0
176
     1
 90
       50
176
     1
 90
        3
176
     1
 62
     5
420
      255
176
     1
290
     0
176
     1
 90
       50
176
     1
 90
       50
176
     1
 90
       50
176
     1
290
     0
176
     1
 90
       50
176
     1
 62
   256
176
     0
 40
1.0
176
     0
 90
        2
176
     1
  1
strokes_ogs.tif
176
     1
290
     0
176
     1
 40
1.0
176
     1
 40
1.0
176
     1
  0
DICTIONARYVAR
  5
C2
102
{ACAD_REACTORS
330
BD
102
}
330
BD
100
DictionaryVariables
280
     0
  1
1:1
  0
DICTIONARYVAR
  5
BF
102
{ACAD_REACTORS
330
BD
102
}
330
BD
100
DictionaryVariables
280
     0
  1
STANDARD
  0
DICTIONARYVAR
  5
BE
102
{ACAD_REACTORS
330
BD
102
}
330
BD
100
DictionaryVariables
280
     0
  1
STANDARD
  0
DICTIONARYVAR
  5
C0
102
{ACAD_REACTORS
330
BD
102
}
330
BD
100
DictionaryVariables
280
     0
  1
Imperial24
  0
DICTIONARYVAR
  5
C1
102
{ACAD_REACTORS
330
BD
102
}
330
BD
100
DictionaryVariables
280
     0
  1
Imperial24
  0
DICTIONARY
  5
1A
330
19
100
AcDbDictionary
280
     1
281
     1
  3
BUMPTILE
360
1C
  3
DIFFUSETILE
360
1B
  3
OPACITYTILE
360
1F
  3
REFLECTIONTILE
360
1E
  3
REFRACTIONTILE
360
20
  3
SPECULARTILE
360
1D
  0
DICTIONARY
  5
12
330
11
100
AcDbDictionary
280
     1
281
     1
  3
BUMPTILE
360
14
  3
DIFFUSETILE
360
13
  3
OPACITYTILE
360
17
  3
REFLECTIONTILE
360
16
  3
REFRACTIONTILE
360
18
  3
SPECULARTILE
360
15
  0
DICTIONARY
  5
22
330
21
100
AcDbDictionary
280
     1
281
     1
  3
BUMPTILE
360
24
  3
DIFFUSETILE
360
23
  3
OPACITYTILE
360
27
  3
REFLECTIONTILE
360
26
  3
REFRACTIONTILE
360
28
  3
SPECULARTILE
360
25
  0
DICTIONARY
  5
C3
330
65
100
AcDbDictionary
280
     1
281
     1
  3
ACAD_ROUNDTRIP_2008_TABLESTYLE_CELLSTYLEMAP
360
C4
  0
XRECORD
  5
1C
102
{ACAD_REACTORS
330
1A
102
}
330
1A
100
AcDbXrecord
280
     1
270
     1
271
     1
  0
XRECORD
  5
1B
102
{ACAD_REACTORS
330
1A
102
}
330
1A
100
AcDbXrecord
280
     1
270
     1
271
     1
  0
XRECORD
  5
1F
102
{ACAD_REACTORS
330
1A
102
}
330
1A
100
AcDbXrecord
280
     1
270
     1
271
     1
  0
XRECORD
  5
1E
102
{ACAD_REACTORS
330
1A
102
}
330
1A
100
AcDbXrecord
280
     1
270
     1
271
     1
  0
XRECORD
  5
20
102
{ACAD_REACTORS
330
1A
102
}
330
1A
100
AcDbXrecord
280
     1
270
     1
271
     1
  0
XRECORD
  5
1D
102
{ACAD_REACTORS
330
1A
102
}
330
1A
100
AcDbXrecord
280
     1
270
     1
271
     1
  0
XRECORD
  5
14
102
{ACAD_REACTORS
330
12
102
}
330
12
100
AcDbXrecord
280
     1
270
     1
271
     1
  0
XRECORD
  5
13
102
{ACAD_REACTORS
330
12
102
}
330
12
100
AcDbXrecord
280
     1
270
     1
271
     1
  0
XRECORD
  5
17
102
{ACAD_REACTORS
330
12
102
}
330
12
100
AcDbXrecord
280
     1
270
     1
271
     1
  0
XRECORD
  5
16
102
{ACAD_REACTORS
330
12
102
}
330
12
100
AcDbXrecord
280
     1
270
     1
271
     1
  0
XRECORD
  5
18
102
{ACAD_REACTORS
330
12
102
}
330
12
100
AcDbXrecord
280
     1
270
     1
271
     1
  0
XRECORD
  5
15
102
{ACAD_REACTORS
330
12
102
}
330
12
100
AcDbXrecord
280
     1
270
     1
271
     1
  0
XRECORD
  5
24
102
{ACAD_REACTORS
330
22
102
}
330
22
100
AcDbXrecord
280
     1
270
     1
271
     1
  0
XRECORD
  5
23
102
{ACAD_REACTORS
330
22
102
}
330
22
100
AcDbXrecord
280
     1
270
     1
271
     1
  0
XRECORD
  5
27
102
{ACAD_REACTORS
330
22
102
}
330
22
100
AcDbXrecord
280
     1
270
     1
271
     1
  0
XRECORD
  5
26
102
{ACAD_REACTORS
330
22
102
}
330
22
100
AcDbXrecord
280
     1
270
     1
271
     1
  0
XRECORD
  5
28
102
{ACAD_REACTORS
330
22
102
}
330
22
100
AcDbXrecord
280
     1
270
     1
271
     1
  0
XRECORD
  5
25
102
{ACAD_REACTORS
330
22
102
}
330
22
100
AcDbXrecord
280
     1
270
     1
271
     1
  0
CELLSTYLEMAP
  5
C4
102
{ACAD_REACTORS
330
C3
102
}
330
C3
100
AcDbCellStyleMap
 90
        3
300
CELLSTYLE
  1
TABLEFORMAT_BEGIN
 90
        5
170
     1
 91
        0
 92
    32768
 62
   257
 93
        1
300
CONTENTFORMAT
  1
CONTENTFORMAT_BEGIN
 90
        0
 91
        0
 92
      512
 93
        0
300

 40
0.0
140
1.0
 94
        5
 62
     0
340
55
144
0.25
309
CONTENTFORMAT_END
171
     0
 94
        0
309
TABLEFORMAT_END
  1
CELLSTYLE_BEGIN
 90
        1
 91
        1
300
_TITLE
309
CELLSTYLE_END
300
CELLSTYLE
  1
TABLEFORMAT_BEGIN
 90
        5
170
     1
 91
        0
 92
        0
 62
   257
 93
        1
300
CONTENTFORMAT
  1
CONTENTFORMAT_BEGIN
 90
        0
 91
        0
 92
      512
 93
        0
300

 40
0.0
140
1.0
 94
        5
 62
     0
340
55
144
0.18
309
CONTENTFORMAT_END
171
     0
 94
        0
309
TABLEFORMAT_END
  1
CELLSTYLE_BEGIN
 90
        2
 91
        1
300
_HEADER
309
CELLSTYLE_END
300
CELLSTYLE
  1
TABLEFORMAT_BEGIN
 90
        5
170
     1
 91
        0
 92
        0
 62
   257
 93
        1
300
CONTENTFORMAT
  1
CONTENTFORMAT_BEGIN
 90
        0
 91
        0
 92
      512
 93
        0
300

 40
0.0
140
1.0
 94
        2
 62
     0
340
55
144
0.18
309
CONTENTFORMAT_END
171
     0
 94
        0
309
TABLEFORMAT_END
  1
CELLSTYLE_BEGIN
 90
        3
 91
        2
300
_DATA
309
CELLSTYLE_END
  0
ENDSEC
  0
EOF
