  0
SECTION
  2
HEADER
  9
$ACADVER
  1
AC1032
  9
$ACADMAINTVER
 90
      228
  9
$DWGCODEPAGE
  3
ANSI_1252
  9
$REQUIREDVERSIONS
160
                 0
  9
$INSBASE
 10
0.0
 20
0.0
 30
0.0
  9
$EXTMIN
 10
1.000000000000000E+20
 20
1.000000000000000E+20
 30
1.000000000000000E+20
  9
$EXTMAX
 10
-1.000000000000000E+20
 20
-1.000000000000000E+20
 30
-1.000000000000000E+20
  9
$LIMMIN
 10
0.0
 20
0.0
  9
$LIMMAX
 10
12.0
 20
9.0
  9
$ORTHOMODE
 70
     0
  9
$REGENMODE
 70
     1
  9
$FILLMODE
 70
     1
  9
$QTEXTMODE
 70
     0
  9
$MIRRTEXT
 70
     0
  9
$LTSCALE
 40
1.0
  9
$ATTMODE
 70
     1
  9
$TEXTSIZE
 40
0.2
  9
$TRACEWID
 40
0.05
  9
$TEXTSTYLE
  7
Standard
  9
$CLAYER
  8
0
  9
$CELTYPE
  6
ByLayer
  9
$CECOLOR
 62
   256
  9
$CELTSCALE
 40
1.0
  9
$DISPSILH
 70
     0
  9
$DIMSCALE
 40
1.0
  9
$DIMASZ
 40
0.18
  9
$DIMEXO
 40
0.0625
  9
$DIMDLI
 40
0.38
  9
$DIMRND
 40
0.0
  9
$DIMDLE
 40
0.0
  9
$DIMEXE
 40
0.18
  9
$DIMTP
 40
0.0
  9
$DIMTM
 40
0.0
  9
$DIMTXT
 40
0.18
  9
$DIMCEN
 40
0.09
  9
$DIMTSZ
 40
0.0
  9
$DIMTOL
 70
     0
  9
$DIMLIM
 70
     0
  9
$DIMTIH
 70
     1
  9
$DIMTOH
 70
     1
  9
$DIMSE1
 70
     0
  9
$DIMSE2
 70
     0
  9
$DIMTAD
 70
     0
  9
$DIMZIN
 70
     0
  9
$DIMBLK
  1

  9
$DIMASO
 70
     1
  9
$DIMSHO
 70
     1
  9
$DIMPOST
  1

  9
$DIMAPOST
  1

  9
$DIMALT
 70
     0
  9
$DIMALTD
 70
     2
  9
$DIMALTF
 40
25.4
  9
$DIMLFAC
 40
1.0
  9
$DIMTOFL
 70
     0
  9
$DIMTVP
 40
0.0
  9
$DIMTIX
 70
     0
  9
$DIMSOXD
 70
     0
  9
$DIMSAH
 70
     0
  9
$DIMBLK1
  1

  9
$DIMBLK2
  1

  9
$DIMSTYLE
  2
Standard
  9
$DIMCLRD
 70
     0
  9
$DIMCLRE
 70
     0
  9
$DIMCLRT
 70
     0
  9
$DIMTFAC
 40
1.0
  9
$DIMGAP
 40
0.09
  9
$DIMJUST
 70
     0
  9
$DIMSD1
 70
     0
  9
$DIMSD2
 70
     0
  9
$DIMTOLJ
 70
     1
  9
$DIMTZIN
 70
     0
  9
$DIMALTZ
 70
     0
  9
$DIMALTTZ
 70
     0
  9
$DIMUPT
 70
     0
  9
$DIMDEC
 70
     4
  9
$DIMTDEC
 70
     4
  9
$DIMALTU
 70
     2
  9
$DIMALTTD
 70
     2
  9
$DIMTXSTY
  7
Standard
  9
$DIMAUNIT
 70
     0
  9
$DIMADEC
 70
     0
  9
$DIMALTRND
 40
0.0
  9
$DIMAZIN
 70
     0
  9
$DIMDSEP
 70
    46
  9
$DIMATFIT
 70
     3
  9
$DIMFRAC
 70
     0
  9
$DIMLDRBLK
  1

  9
$DIMLUNIT
 70
     2
  9
$DIMLWD
 70
    -2
  9
$DIMLWE
 70
    -2
  9
$DIMTMOVE
 70
     0
  9
$DIMFXL
 40
1.0
  9
$DIMFXLON
 70
     0
  9
$DIMJOGANG
 40
0.7853981633974483
  9
$DIMTFILL
 70
     0
  9
$DIMTFILLCLR
 70
     0
  9
$DIMARCSYM
 70
     0
  9
$DIMLTYPE
  6

  9
$DIMLTEX1
  6

  9
$DIMLTEX2
  6

  9
$DIMTXTDIRECTION
 70
     0
  9
$LUNITS
 70
     2
  9
$LUPREC
 70
     4
  9
$SKETCHINC
 40
0.1
  9
$FILLETRAD
 40
0.0
  9
$AUNITS
 70
     0
  9
$AUPREC
 70
     0
  9
$MENU
  1
.
  9
$ELEVATION
 40
0.0
  9
$PELEVATION
 40
0.0
  9
$THICKNESS
 40
0.0
  9
$LIMCHECK
 70
     0
  9
$CHAMFERA
 40
0.0
  9
$CHAMFERB
 40
0.0
  9
$CHAMFERC
 40
0.0
  9
$CHAMFERD
 40
0.0
  9
$SKPOLY
 70
     0
  9
$TDCREATE
 40
2460274.735370370
  9
$TDUCREATE
 40
2460275.068703704
  9
$TDUPDATE
 40
2460274.735370370
  9
$TDUUPDATE
 40
2460275.068703704
  9
$TDINDWG
 40
0.0000000000
  9
$TDUSRTIMER
 40
0.0000000000
  9
$USRTIMER
 70
     1
  9
$ANGBASE
 50
0.0
  9
$ANGDIR
 70
     0
  9
$PDMODE
 70
     0
  9
$PDSIZE
 40
0.0
  9
$PLINEWID
 40
0.0
  9
$SPLFRAME
 70
     0
  9
$SPLINETYPE
 70
     6
  9
$SPLINESEGS
 70
     8
  9
$HANDSEED
  5
C0
  9
$SURFTAB1
 70
     6
  9
$SURFTAB2
 70
     6
  9
$SURFTYPE
 70
     6
  9
$SURFU
 70
     6
  9
$SURFV
 70
     6
  9
$UCSBASE
  2

  9
$UCSNAME
  2

  9
$UCSORG
 10
0.0
 20
0.0
 30
0.0
  9
$UCSXDIR
 10
1.0
 20
0.0
 30
0.0
  9
$UCSYDIR
 10
0.0
 20
1.0
 30
0.0
  9
$UCSORTHOREF
  2

  9
$UCSORTHOVIEW
 70
     0
  9
$UCSORGTOP
 10
0.0
 20
0.0
 30
0.0
  9
$UCSORGBOTTOM
 10
0.0
 20
0.0
 30
0.0
  9
$UCSORGLEFT
 10
0.0
 20
0.0
 30
0.0
  9
$UCSORGRIGHT
 10
0.0
 20
0.0
 30
0.0
  9
$UCSORGFRONT
 10
0.0
 20
0.0
 30
0.0
  9
$UCSORGBACK
 10
0.0
 20
0.0
 30
0.0
  9
$PUCSBASE
  2

  9
$PUCSNAME
  2

  9
$PUCSORG
 10
0.0
 20
0.0
 30
0.0
  9
$PUCSXDIR
 10
1.0
 20
0.0
 30
0.0
  9
$PUCSYDIR
 10
0.0
 20
1.0
 30
0.0
  9
$PUCSORTHOREF
  2

  9
$PUCSORTHOVIEW
 70
     0
  9
$PUCSORGTOP
 10
0.0
 20
0.0
 30
0.0
  9
$PUCSORGBOTTOM
 10
0.0
 20
0.0
 30
0.0
  9
$PUCSORGLEFT
 10
0.0
 20
0.0
 30
0.0
  9
$PUCSORGRIGHT
 10
0.0
 20
0.0
 30
0.0
  9
$PUCSORGFRONT
 10
0.0
 20
0.0
 30
0.0
  9
$PUCSORGBACK
 10
0.0
 20
0.0
 30
0.0
  9
$USERI1
 70
     0
  9
$USERI2
 70
     0
  9
$USERI3
 70
     0
  9
$USERI4
 70
     0
  9
$USERI5
 70
     0
  9
$USERR1
 40
0.0
  9
$USERR2
 40
0.0
  9
$USERR3
 40
0.0
  9
$USERR4
 40
0.0
  9
$USERR5
 40
0.0
  9
$WORLDVIEW
 70
     1
  9
$SHADEDGE
 70
     3
  9
$SHADEDIF
 70
    70
  9
$TILEMODE
 70
     1
  9
$MAXACTVP
 70
    64
  9
$PINSBASE
 10
0.0
 20
0.0
 30
0.0
  9
$PLIMCHECK
 70
     0
  9
$PEXTMIN
 10
1.000000000000000E+20
 20
1.000000000000000E+20
 30
1.000000000000000E+20
  9
$PEXTMAX
 10
-1.000000000000000E+20
 20
-1.000000000000000E+20
 30
-1.000000000000000E+20
  9
$PLIMMIN
 10
0.0
 20
0.0
  9
$PLIMMAX
 10
12.0
 20
9.0
  9
$UNITMODE
 70
     0
  9
$VISRETAIN
 70
     1
  9
$PLINEGEN
 70
     0
  9
$PSLTSCALE
 70
     1
  9
$TREEDEPTH
 70
  3020
  9
$CMLSTYLE
  2
Standard
  9
$CMLJUST
 70
     0
  9
$CMLSCALE
 40
1.0
  9
$PROXYGRAPHICS
 70
     1
  9
$MEASUREMENT
 70
     0
  9
$CELWEIGHT
370
    -1
  9
$ENDCAPS
280
     0
  9
$JOINSTYLE
280
     0
  9
$LWDISPLAY
290
     1
  9
$INSUNITS
 70
     1
  9
$HYPERLINKBASE
  1

  9
$STYLESHEET
  1

  9
$XEDIT
290
     1
  9
$CEPSNTYPE
380
     0
  9
$PSTYLEMODE
290
     1
  9
$FINGERPRINTGUID
  2
{05D49748-4443-9448-9AA6-54B5A4D39F4A}
  9
$VERSIONGUID
  2
{62F8AFC6-1BE7-6F4F-B271-7FEDADBD13B7}
  9
$EXTNAMES
290
     1
  9
$PSVPSCALE
 40
0.0
  9
$OLESTARTUP
290
     0
  9
$SORTENTS
280
   127
  9
$INDEXCTL
280
     0
  9
$HIDETEXT
280
     1
  9
$XCLIPFRAME
280
     2
  9
$HALOGAP
280
     0
  9
$OBSCOLOR
 70
   257
  9
$OBSLTYPE
280
     0
  9
$INTERSECTIONDISPLAY
280
     0
  9
$INTERSECTIONCOLOR
 70
   257
  9
$DIMASSOC
280
     2
  9
$PROJECTNAME
  1

  9
$CAMERADISPLAY
290
     0
  9
$LENSLENGTH
 40
50.0
  9
$CAMERAHEIGHT
 40
0.0
  9
$STEPSPERSEC
 40
2.0
  9
$STEPSIZE
 40
6.0
  9
$3DDWFPREC
 40
2.0
  9
$PSOLWIDTH
 40
0.25
  9
$PSOLHEIGHT
 40
4.0
  9
$LOFTANG1
 40
1.570796326794896
  9
$LOFTANG2
 40
1.570796326794896
  9
$LOFTMAG1
 40
0.0
  9
$LOFTMAG2
 40
0.0
  9
$LOFTPARAM
 70
     7
  9
$LOFTNORMALS
280
     1
  9
$LATITUDE
 40
37.795
  9
$LONGITUDE
 40
-122.394
  9
$NORTHDIRECTION
 40
0.0
  9
$TIMEZONE
 70
 -8000
  9
$LIGHTGLYPHDISPLAY
280
     1
  9
$TILEMODELIGHTSYNCH
280
     1
  9
$CMATERIAL
347
11
  9
$SOLIDHIST
280
     0
  9
$SHOWHIST
280
     1
  9
$DWFFRAME
280
     2
  9
$DGNFRAME
280
     0
  9
$REALWORLDSCALE
290
     1
  9
$INTERFERECOLOR
 62
     1
  9
$INTERFEREOBJVS
345
33
  9
$INTERFEREVPVS
346
30
  9
$CSHADOW
280
     0
  9
$SHADOWPLANELOCATION
 40
0.0
  0
ENDSEC
  0
SECTION
  2
CLASSES
  0
CLASS
  1
ACDBDICTIONARYWDFLT
  2
AcDbDictionaryWithDefault
  3
ObjectDBX Classes
 90
        0
 91
        1
280
     0
281
     0
  0
CLASS
  1
MATERIAL
  2
AcDbMaterial
  3
ObjectDBX Classes
 90
     1153
 91
        3
280
     0
281
     0
  0
CLASS
  1
VISUALSTYLE
  2
AcDbVisualStyle
  3
ObjectDBX Classes
 90
     4095
 91
       24
280
     0
281
     0
  0
CLASS
  1
SCALE
  2
AcDbScale
  3
ObjectDBX Classes
 90
     1153
 91
       17
280
     0
281
     0
  0
CLASS
  1
TABLESTYLE
  2
AcDbTableStyle
  3
ObjectDBX Classes
 90
     4095
 91
        1
280
     0
281
     0
  0
CLASS
  1
MLEADERSTYLE
  2
AcDbMLeaderStyle
  3
ACDB_MLEADERSTYLE_CLASS
 90
     4095
 91
        1
280
     0
281
     0
  0
CLASS
  1
ACDBSECTIONVIEWSTYLE
  2
AcDbSectionViewStyle
  3
ObjectDBX Classes
 90
     1025
 91
        1
280
     0
281
     0
  0
CLASS
  1
ACDBDETAILVIEWSTYLE
  2
AcDbDetailViewStyle
  3
ObjectDBX Classes
 90
     1025
 91
        1
280
     0
281
     0
  0
CLASS
  1
DICTIONARYVAR
  2
AcDbDictionaryVar
  3
ObjectDBX Classes
 90
        0
 91
        5
280
     0
281
     0
  0
CLASS
  1
CELLSTYLEMAP
  2
AcDbCellStyleMap
  3
ObjectDBX Classes
 90
     1152
 91
        1
280
     0
281
     0
  0
ENDSEC
  0
SECTION
  2
TABLES
  0
TABLE
  2
VPORT
  5
8
330
0
100
AcDbSymbolTable
 70
     1
  0
VPORT
  5
57
330
8
100
AcDbSymbolTableRecord
100
AcDbViewportTableRecord
  2
*Active
 70
     0
 10
0.0
 20
0.0
 11
1.0
 21
1.0
 12
0.0
 22
0.0
 13
0.0
 23
0.0
 14
1.0
 24
1.0
 15
0.0
 25
0.0
 16
0.0
 26
0.0
 36
1.0
 17
-0.0092103407118
 27
-1.544947506561811
 37
0.0
 40
3.605807086613904
 41
1.251598413331496
 42
50.0
 43
0.0
 44
0.0
 50
0.0
 51
0.0
 71
     0
 72
   100
 73
     1
 74
     1
 75
     0
 76
     0
 77
     0
 78
     0
281
     0
 65
     1
110
0.0
120
0.0
130
0.0
111
1.0
121
0.0
131
0.0
112
0.0
122
1.0
132
0.0
 79
     0
146
0.0
 60
     3
 61
     5
292
     1
282
     1
141
0.0
142
0.0
 63
   250
421
  3355443
  0
ENDTAB
  0
TABLE
  2
LTYPE
  5
5
330
0
100
AcDbSymbolTable
 70
     1
  0
LTYPE
  5
5B
330
5
100
AcDbSymbolTableRecord
100
AcDbLinetypeTableRecord
  2
ByBlock
 70
     0
  3

 72
    65
 73
     0
 40
0.0
  0
LTYPE
  5
5C
330
5
100
AcDbSymbolTableRecord
100
AcDbLinetypeTableRecord
  2
ByLayer
 70
     0
  3

 72
    65
 73
     0
 40
0.0
  0
LTYPE
  5
5D
330
5
100
AcDbSymbolTableRecord
100
AcDbLinetypeTableRecord
  2
Continuous
 70
     0
  3
Solid line
 72
    65
 73
     0
 40
0.0
  0
ENDTAB
  0
TABLE
  2
LAYER
  5
2
330
0
100
AcDbSymbolTable
 70
     8
  0
LAYER
  5
54
330
2
100
AcDbSymbolTableRecord
100
AcDbLayerTableRecord
  2
0
 70
     0
 62
     7
  6
Continuous
370
    -3
390
F
347
21
348
0
  0
LAYER
  5
78
330
2
100
AcDbSymbolTableRecord
100
AcDbLayerTableRecord
  2
Fonts
 70
     1
 62
     7
  6
Continuous
370
     0
390
F
347
21
348
0
  0
LAYER
  5
79
330
2
100
AcDbSymbolTableRecord
100
AcDbLayerTableRecord
  2
Green
 70
     5
 62
     7
  6
Continuous
370
     0
390
F
347
21
348
0
  0
LAYER
  5
7A
330
2
100
AcDbSymbolTableRecord
100
AcDbLayerTableRecord
  2
White
 70
     4
 62
     7
  6
Continuous
370
     0
390
F
347
21
348
0
  0
LAYER
  5
7B
330
2
100
AcDbSymbolTableRecord
100
AcDbLayerTableRecord
  2
Date
 70
     0
 62
     7
  6
Continuous
370
     0
390
F
347
21
348
0
  0
LAYER
  5
7C
330
2
100
AcDbSymbolTableRecord
100
AcDbLayerTableRecord
  2
Mr&Mrs with Date
 70
     1
 62
     7
  6
Continuous
370
     0
390
F
347
21
348
0
  0
LAYER
  5
7D
330
2
100
AcDbSymbolTableRecord
100
AcDbLayerTableRecord
  2
TML FRIENDSGIVING
 70
     0
 62
     7
  6
Continuous
370
     0
390
F
347
21
348
0
  0
LAYER
  5
B6
330
2
100
AcDbSymbolTableRecord
100
AcDbLayerTableRecord
  2
Layer 7
 70
     1
 62
     7
  6
Continuous
370
     0
390
F
347
21
348
0
  0
ENDTAB
  0
TABLE
  2
STYLE
  5
3
330
0
100
AcDbSymbolTable
 70
     2
  0
STYLE
  5
55
330
3
100
AcDbSymbolTableRecord
100
AcDbTextStyleTableRecord
  2
Standard
 70
     0
 40
0.0
 41
1.0
 50
0.0
 71
     0
 42
0.2
  3
txt
  4

  0
STYLE
  5
5A
330
3
100
AcDbSymbolTableRecord
100
AcDbTextStyleTableRecord
  2
Annotative
 70
     0
 40
0.0
 41
1.0
 50
0.0
 71
     0
 42
0.2
  3
txt
  4

1001
AcadAnnotative
1000
AnnotativeData
1002
{
1070
     1
1070
     1
1002
}
  0
ENDTAB
  0
TABLE
  2
VIEW
  5
6
330
0
100
AcDbSymbolTable
 70
     0
  0
ENDTAB
  0
TABLE
  2
UCS
  5
7
330
0
100
AcDbSymbolTable
 70
     0
  0
ENDTAB
  0
TABLE
  2
APPID
  5
9
330
0
100
AcDbSymbolTable
 70
     2
  0
APPID
  5
56
330
9
100
AcDbSymbolTableRecord
100
AcDbRegAppTableRecord
  2
ACAD
 70
     0
  0
APPID
  5
5E
330
9
100
AcDbSymbolTableRecord
100
AcDbRegAppTableRecord
  2
AcadAnnotative
 70
     0
  0
ENDTAB
  0
TABLE
  2
DIMSTYLE
  5
A
330
0
100
AcDbSymbolTable
 70
     2
100
AcDbDimStyleTable
 71
     0
  0
DIMSTYLE
105
58
330
A
100
AcDbSymbolTableRecord
100
AcDbDimStyleTableRecord
  2
Standard
 70
     0
340
55
  0
DIMSTYLE
105
59
330
A
100
AcDbSymbolTableRecord
100
AcDbDimStyleTableRecord
  2
Annotative
 70
     0
340
55
1001
AcadAnnotative
1000
AnnotativeData
1002
{
1070
     1
1070
     1
1002
}
  0
ENDTAB
  0
TABLE
  2
BLOCK_RECORD
  5
1
330
0
100
AcDbSymbolTable
 70
     5
  0
BLOCK_RECORD
  5
70
330
1
100
AcDbSymbolTableRecord
100
AcDbBlockTableRecord
  2
*Model_Space
340
73
 70
     0
280
     1
281
     0
  0
BLOCK_RECORD
  5
6C
330
1
100
AcDbSymbolTableRecord
100
AcDbBlockTableRecord
  2
*Paper_Space
340
6F
 70
     0
280
     1
281
     0
  0
BLOCK_RECORD
  5
74
330
1
100
AcDbSymbolTableRecord
100
AcDbBlockTableRecord
  2
*Paper_Space0
340
77
 70
     0
280
     1
281
     0
  0
BLOCK_RECORD
  5
7F
330
1
100
AcDbSymbolTableRecord
100
AcDbBlockTableRecord
  2
Block_0
340
0
102
{BLKREFS
331
80
102
}
 70
     0
280
     1
281
     0
  0
BLOCK_RECORD
  5
83
330
1
100
AcDbSymbolTableRecord
100
AcDbBlockTableRecord
  2
Block_1
340
0
102
{BLKREFS
331
84
102
}
 70
     0
280
     1
281
     0
  0
BLOCK_RECORD
  5
8C
330
1
100
AcDbSymbolTableRecord
100
AcDbBlockTableRecord
  2
Block_2
340
0
102
{BLKREFS
331
8D
102
}
 70
     0
280
     1
281
     0
  0
BLOCK_RECORD
  5
96
330
1
100
AcDbSymbolTableRecord
100
AcDbBlockTableRecord
  2
Block_3
340
0
102
{BLKREFS
331
97
102
}
 70
     0
280
     1
281
     0
  0
ENDTAB
  0
ENDSEC
  0
SECTION
  2
BLOCKS
  0
BLOCK
  5
71
330
70
100
AcDbEntity
  8
0
100
AcDbBlockBegin
  2
*Model_Space
 70
     0
 10
0.0
 20
0.0
 30
0.0
  3
*Model_Space
  1

  0
ENDBLK
  5
72
330
70
100
AcDbEntity
  8
0
100
AcDbBlockEnd
  0
BLOCK
  5
6D
330
6C
100
AcDbEntity
 67
     1
  8
0
100
AcDbBlockBegin
  2
*Paper_Space
 70
     0
 10
0.0
 20
0.0
 30
0.0
  3
*Paper_Space
  1

  0
ENDBLK
  5
6E
330
6C
100
AcDbEntity
 67
     1
  8
0
100
AcDbBlockEnd
  0
BLOCK
  5
75
330
74
100
AcDbEntity
 67
     1
  8
0
100
AcDbBlockBegin
  2
*Paper_Space0
 70
     0
 10
0.0
 20
0.0
 30
0.0
  3
*Paper_Space0
  1

  0
ENDBLK
  5
76
330
74
100
AcDbEntity
 67
     1
  8
0
100
AcDbBlockEnd
  0
BLOCK
  5
81
330
7F
100
AcDbEntity
  8
0
100
AcDbBlockBegin
  2
Block_0
 70
     0
 10
0.0
 20
0.0
 30
0.0
  3
Block_0
  1

  0
INSERT
  5
84
330
7F
100
AcDbEntity
  8
TML FRIENDSGIVING
100
AcDbBlockReference
  2
Block_1
 10
0.0
 20
0.0
 30
0.0
  0
INSERT
  5
8D
330
7F
100
AcDbEntity
  8
TML FRIENDSGIVING
100
AcDbBlockReference
  2
Block_2
 10
0.0
 20
0.0
 30
0.0
  0
INSERT
  5
97
330
7F
100
AcDbEntity
  8
TML FRIENDSGIVING
100
AcDbBlockReference
  2
Block_3
 10
0.0
 20
0.0
 30
0.0
  0
ENDBLK
  5
82
330
7F
100
AcDbEntity
  8
0
100
AcDbBlockEnd
  0
BLOCK
  5
85
330
83
100
AcDbEntity
  8
0
100
AcDbBlockBegin
  2
Block_1
 70
     0
 10
0.0
 20
0.0
 30
0.0
  3
Block_1
  1

  0
SPLINE
  5
87
330
83
100
AcDbEntity
  8
TML FRIENDSGIVING
100
AcDbSpline
210
0.0
220
0.0
230
1.0
 70
     9
 71
     3
 72
    20
 73
    16
 74
     0
 42
0.0000000001
 43
0.0000000001
 40
0.0
 40
0.0
 40
0.0
 40
0.0
 40
1.0
 40
1.0
 40
1.0
 40
2.0
 40
2.0
 40
2.0
 40
3.0
 40
3.0
 40
3.0
 40
4.0
 40
4.0
 40
4.0
 40
5.0
 40
5.0
 40
5.0
 40
5.0
 10
0.5213753613754509
 20
-2.563673733049931
 30
0.0
 10
0.5259350481366785
 20
-2.562726569441312
 30
0.0
 10
0.5331956593649036
 20
-2.561218354712562
 30
0.0
 10
0.5404658782841049
 20
-2.559712829828236
 30
0.0
 10
0.5539041880215589
 20
-2.548202937204576
 30
0.0
 10
0.5574757068840705
 20
-2.533926750376622
 30
0.0
 10
0.5526760057922881
 20
-2.517935348494625
 30
0.0
 10
0.5408616834109176
 20
-2.503930160597772
 30
0.0
 10
0.5278857226532966
 20
-2.494605049197439
 30
0.0
 10
0.5125019870439726
 20
-2.500879031096145
 30
0.0
 10
0.4993531428354269
 20
-2.509233545529746
 30
0.0
 10
0.4938537454955218
 20
-2.518779953349949
 30
0.0
 10
0.4913427656691359
 20
-2.530538271610996
 30
0.0
 10
0.4906215802162327
 20
-2.549086205558043
 30
0.0
 10
0.5015759191994296
 20
-2.559141840115191
 30
0.0
 10
0.5213753613754509
 20
-2.563673733049931
 30
0.0
  0
SPLINE
  5
88
330
83
100
AcDbEntity
  8
TML FRIENDSGIVING
100
AcDbSpline
210
0.0
220
0.0
230
1.0
 70
     9
 71
     3
 72
   173
 73
   169
 74
     0
 42
0.0000000001
 43
0.0000000001
 40
0.0
 40
0.0
 40
0.0
 40
0.0
 40
1.0
 40
1.0
 40
1.0
 40
2.0
 40
2.0
 40
2.0
 40
3.0
 40
3.0
 40
3.0
 40
4.0
 40
4.0
 40
4.0
 40
5.0
 40
5.0
 40
5.0
 40
6.0
 40
6.0
 40
6.0
 40
7.0
 40
7.0
 40
7.0
 40
8.0
 40
8.0
 40
8.0
 40
9.0
 40
9.0
 40
9.0
 40
10.0
 40
10.0
 40
10.0
 40
11.0
 40
11.0
 40
11.0
 40
12.0
 40
12.0
 40
12.0
 40
13.0
 40
13.0
 40
13.0
 40
14.0
 40
14.0
 40
14.0
 40
15.0
 40
15.0
 40
15.0
 40
16.0
 40
16.0
 40
16.0
 40
17.0
 40
17.0
 40
17.0
 40
18.0
 40
18.0
 40
18.0
 40
19.0
 40
19.0
 40
19.0
 40
20.0
 40
20.0
 40
20.0
 40
21.0
 40
21.0
 40
21.0
 40
22.0
 40
22.0
 40
22.0
 40
23.0
 40
23.0
 40
23.0
 40
24.0
 40
24.0
 40
24.0
 40
25.0
 40
25.0
 40
25.0
 40
26.0
 40
26.0
 40
26.0
 40
27.0
 40
27.0
 40
27.0
 40
28.0
 40
28.0
 40
28.0
 40
29.0
 40
29.0
 40
29.0
 40
30.0
 40
30.0
 40
30.0
 40
31.0
 40
31.0
 40
31.0
 40
32.0
 40
32.0
 40
32.0
 40
33.0
 40
33.0
 40
33.0
 40
34.0
 40
34.0
 40
34.0
 40
35.0
 40
35.0
 40
35.0
 40
36.0
 40
36.0
 40
36.0
 40
37.0
 40
37.0
 40
37.0
 40
38.0
 40
38.0
 40
38.0
 40
39.0
 40
39.0
 40
39.0
 40
40.0
 40
40.0
 40
40.0
 40
41.0
 40
41.0
 40
41.0
 40
42.0
 40
42.0
 40
42.0
 40
43.0
 40
43.0
 40
43.0
 40
44.0
 40
44.0
 40
44.0
 40
45.0
 40
45.0
 40
45.0
 40
46.0
 40
46.0
 40
46.0
 40
47.0
 40
47.0
 40
47.0
 40
48.0
 40
48.0
 40
48.0
 40
49.0
 40
49.0
 40
49.0
 40
50.0
 40
50.0
 40
50.0
 40
51.0
 40
51.0
 40
51.0
 40
52.0
 40
52.0
 40
52.0
 40
53.0
 40
53.0
 40
53.0
 40
54.0
 40
54.0
 40
54.0
 40
55.0
 40
55.0
 40
55.0
 40
56.0
 40
56.0
 40
56.0
 40
56.0
 10
0.1577191050540705
 20
-3.00004400679581
 30
0.0
 10
0.1519762530776284
 20
-3.006742533102093
 30
0.0
 10
0.1435778498940736
 20
-3.006676774209785
 30
0.0
 10
0.1363343153403902
 20
-3.00717339971071
 30
0.0
 10
0.1291573336814559
 20
-3.007665513840922
 30
0.0
 10
0.1208532496266217
 20
-3.00633031999228
 30
0.0
 10
0.1146917691893097
 20
-3.002875555202308
 30
0.0
 10
0.1084380110563517
 20
-2.999369038418636
 30
0.0
 10
0.1041988976486057
 20
-2.992292291980321
 30
0.0
 10
0.0989290529346868
 20
-2.986619336378907
 30
0.0
 10
0.0972227296154592
 20
-2.97840502175581
 30
0.0
 10
0.0954626344417875
 20
-2.969931847088294
 30
0.0
 10
0.0937086675149001
 20
-2.961457457274112
 30
0.0
 10
0.1029535251214308
 20
-2.944258569833537
 30
0.0
 10
0.1095920451409711
 20
-2.926698151446266
 30
0.0
 10
0.10025959799475
 20
-2.906146516868905
 30
0.0
 10
0.1134462911988218
 20
-2.891678243893642
 30
0.0
 10
0.1251940077206023
 20
-2.875617343871908
 30
0.0
 10
0.1400369647873908
 20
-2.86325576886462
 30
0.0
 10
0.1616350116575328
 20
-2.845268677885062
 30
0.0
 10
0.1797524349532043
 20
-2.824052551724687
 30
0.0
 10
0.199830846917204
 20
-2.804705299969302
 30
0.0
 10
0.2161173190663324
 20
-2.789011819007555
 30
0.0
 10
0.231520598511199
 20
-2.772346884249271
 30
0.0
 10
0.249465420922762
 20
-2.758506818583934
 30
0.0
 10
0.2589605663029159
 20
-2.75118375921617
 30
0.0
 10
0.2688205673238144
 20
-2.744221192132373
 30
0.0
 10
0.2797377879386305
 20
-2.738851996573127
 30
0.0
 10
0.2889141425466858
 20
-2.734339015347283
 30
0.0
 10
0.2967235627166044
 20
-2.727961138564877
 30
0.0
 10
0.3009658677789149
 20
-2.717356746723579
 30
0.0
 10
0.3009613056980621
 20
-2.717017843211048
 30
0.0
 10
0.3009230564437201
 20
-2.715851609986682
 30
0.0
 10
0.3009337244618437
 20
-2.71468574354867
 30
0.0
 10
0.3009865624125419
 20
-2.708880522174417
 30
0.0
 10
0.30253491704669
 20
-2.702564030294726
 30
0.0
 10
0.3007484094120072
 20
-2.697396166909002
 30
0.0
 10
0.2983722649061065
 20
-2.690522936422186
 30
0.0
 10
0.2945170319143497
 20
-2.68337859607085
 30
0.0
 10
0.2893125152389504
 20
-2.678425454534665
 30
0.0
 10
0.2785951422387269
 20
-2.668225784833137
 30
0.0
 10
0.2726192360886444
 20
-2.655143462195079
 30
0.0
 10
0.2647904313210776
 20
-2.643176381412356
 30
0.0
 10
0.2644801040082332
 20
-2.642701970530323
 30
0.0
 10
0.2634512449483282
 20
-2.642582983814513
 30
0.0
 10
0.2633100940983771
 20
-2.64212743083461
 30
0.0
 10
0.2590607370394133
 20
-2.628410384926483
 30
0.0
 10
0.2520207370054348
 20
-2.614819130418077
 30
0.0
 10
0.2513154235162144
 20
-2.600904335932025
 30
0.0
 10
0.2500397985791854
 20
-2.575739395044517
 30
0.0
 10
0.2479925393206991
 20
-2.550110168201399
 30
0.0
 10
0.2575434323979885
 20
-2.525395279291892
 30
0.0
 10
0.2609302111359031
 20
-2.516631125175131
 30
0.0
 10
0.2630564095452554
 20
-2.507408485976914
 30
0.0
 10
0.2686220094887075
 20
-2.499639269557039
 30
0.0
 10
0.2785221601071726
 20
-2.485819363369905
 30
0.0
 10
0.2860352616329085
 20
-2.470377963237524
 30
0.0
 10
0.2986629689656865
 20
-2.458383736756685
 30
0.0
 10
0.3085563227271121
 20
-2.448986720678198
 30
0.0
 10
0.3350988919592433
 20
-2.431369212979335
 30
0.0
 10
0.3468515435307229
 20
-2.425261832386897
 30
0.0
 10
0.3640614234437231
 20
-2.416318552999377
 30
0.0
 10
0.3827978312992602
 20
-2.41322897537917
 30
0.0
 10
0.4012530229170024
 20
-2.411096351145943
 30
0.0
 10
0.4146421590655033
 20
-2.409549106284404
 30
0.0
 10
0.4287121726577349
 20
-2.410378795259829
 30
0.0
 10
0.4427228555814004
 20
-2.412656687171622
 30
0.0
 10
0.4633567984672406
 20
-2.416011413822742
 30
0.0
 10
0.4833867938910873
 20
-2.42224994363207
 30
0.0
 10
0.4996272696348948
 20
-2.433457124631432
 30
0.0
 10
0.5248807719386579
 20
-2.45088385352834
 30
0.0
 10
0.5491950478657499
 20
-2.470434823653325
 30
0.0
 10
0.5611286515427688
 20
-2.501282409052035
 30
0.0
 10
0.5682133066915942
 20
-2.519595347272115
 30
0.0
 10
0.5768667255600298
 20
-2.537211527034514
 30
0.0
 10
0.5796304173294149
 20
-2.555923890397176
 30
0.0
 10
0.5951569810047836
 20
-2.567310751201905
 30
0.0
 10
0.6100932396388114
 20
-2.578264612953742
 30
0.0
 10
0.6256354017518408
 20
-2.589662897780448
 30
0.0
 10
0.6072685471181735
 20
-2.598060600966947
 30
0.0
 10
0.5903970625947497
 20
-2.605774593240008
 30
0.0
 10
0.5743856706463046
 20
-2.613095309877659
 30
0.0
 10
0.5732099728536974
 20
-2.617022998488108
 30
0.0
 10
0.5719341788049582
 20
-2.619724356001572
 30
0.0
 10
0.5716528605034278
 20
-2.622524104884178
 30
0.0
 10
0.5708769064461245
 20
-2.630247109159755
 30
0.0
 10
0.5650936857414309
 20
-2.638739931769098
 30
0.0
 10
0.57486546552938
 20
-2.645143945490265
 30
0.0
 10
0.5760120638672106
 20
-2.645895356447479
 30
0.0
 10
0.5760379079512683
 20
-2.648458684370678
 30
0.0
 10
0.576435881282565
 20
-2.650215376447754
 30
0.0
 10
0.5794862379475868
 20
-2.663677956133243
 30
0.0
 10
0.5816274120461078
 20
-2.677194728465817
 30
0.0
 10
0.5880100087908886
 20
-2.689950944107951
 30
0.0
 10
0.5914564327066121
 20
-2.696839022909999
 30
0.0
 10
0.5903023644880502
 20
-2.706021205717256
 30
0.0
 10
0.5912744494390078
 20
-2.714614742861587
 30
0.0
 10
0.5840889530446703
 20
-2.718466355313264
 30
0.0
 10
0.5779909351723518
 20
-2.721735096762863
 30
0.0
 10
0.5719101942029536
 20
-2.724994580350867
 30
0.0
 10
0.5675773695681352
 20
-2.721731311861301
 30
0.0
 10
0.5641411672713855
 20
-2.719143365311083
 30
0.0
 10
0.5596584372874406
 20
-2.715767196947682
 30
0.0
 10
0.5592694234575345
 20
-2.707772331336021
 30
0.0
 10
0.5546688373107651
 20
-2.699275731800677
 30
0.0
 10
0.5574136604558994
 20
-2.688907030617731
 30
0.0
 10
0.5595151299945656
 20
-2.680968265279286
 30
0.0
 10
0.5571766441914229
 20
-2.671864498671867
 30
0.0
 10
0.556699515604704
 20
-2.660601069741737
 30
0.0
 10
0.5467553869280614
 20
-2.671544442214477
 30
0.0
 10
0.5390607028305744
 20
-2.680221331994592
 30
0.0
 10
0.5311361408344056
 20
-2.688684042042849
 30
0.0
 10
0.5192652516004854
 20
-2.701361083370051
 30
0.0
 10
0.5191966288658325
 20
-2.70129712891273
 30
0.0
 10
0.5129008920730611
 20
-2.728574229787606
 30
0.0
 10
0.5209828314883427
 20
-2.742832486336308
 30
0.0
 10
0.5333047852853699
 20
-2.752691844062079
 30
0.0
 10
0.5466711569964293
 20
-2.761662182922034
 30
0.0
 10
0.5579343724784849
 20
-2.769221073536805
 30
0.0
 10
0.5661624713888564
 20
-2.780038135871993
 30
0.0
 10
0.5755179072617062
 20
-2.789672272692895
 30
0.0
 10
0.5933678225424552
 20
-2.808054078517948
 30
0.0
 10
0.6054967194943527
 20
-2.830141730184575
 30
0.0
 10
0.6179049178000594
 20
-2.852113227570271
 30
0.0
 10
0.6181877000424644
 20
-2.852613924879657
 30
0.0
 10
0.6185612148941825
 20
-2.853102947733532
 30
0.0
 10
0.6186898005168789
 20
-2.853645451770641
 30
0.0
 10
0.6239980866302201
 20
-2.876053255244642
 30
0.0
 10
0.6354042208666517
 20
-2.897209593401587
 30
0.0
 10
0.6358604776513377
 20
-2.920412410525336
 30
0.0
 10
0.6361699066654485
 20
-2.936146788468199
 30
0.0
 10
0.6389339872683624
 20
-2.951783201014778
 30
0.0
 10
0.6372431838002007
 20
-2.967666924339077
 30
0.0
 10
0.6350473585337366
 20
-2.988295172908414
 30
0.0
 10
0.6300723946291606
 20
-3.00829171721039
 30
0.0
 10
0.6242581508673135
 20
-3.028018278543008
 30
0.0
 10
0.6208045032604256
 20
-3.039736050146378
 30
0.0
 10
0.6155677525175129
 20
-3.051200280064398
 30
0.0
 10
0.6094622466559435
 20
-3.061824551423999
 30
0.0
 10
0.5920833276748505
 20
-3.092065971833108
 30
0.0
 10
0.5706084198471394
 20
-3.119031544055789
 30
0.0
 10
0.5424301983552419
 20
-3.140220586312933
 30
0.0
 10
0.5266580530751146
 20
-3.152080550612304
 30
0.0
 10
0.5106490627909781
 20
-3.163447340129929
 30
0.0
 10
0.4912933910464467
 20
-3.168910250012559
 30
0.0
 10
0.4809462111330605
 20
-3.179141429553636
 30
0.0
 10
0.4652157490103264
 20
-3.175357498726523
 30
0.0
 10
0.4535040181128554
 20
-3.183654276125935
 30
0.0
 10
0.4483874049250416
 20
-3.187279055904177
 30
0.0
 10
0.4392208089263932
 20
-3.190701097934126
 30
0.0
 10
0.4308022565119877
 20
-3.18556906073963
 30
0.0
 10
0.4284871034787127
 20
-3.184157685928867
 30
0.0
 10
0.423667693538808
 20
-3.186549789847251
 30
0.0
 10
0.4200874392226348
 20
-3.187526276637552
 30
0.0
 10
0.3996755390281805
 20
-3.193093360954435
 30
0.0
 10
0.378718445636903
 20
-3.190553751671712
 30
0.0
 10
0.3588237787585058
 20
-3.187558358976603
 30
0.0
 10
0.3238402677501932
 20
-3.18229092389452
 30
0.0
 10
0.2905688598913608
 20
-3.17005997742995
 30
0.0
 10
0.2612231575085767
 20
-3.149463601364383
 30
0.0
 10
0.2356645055977853
 20
-3.1315251159693
 30
0.0
 10
0.2069768980824922
 20
-3.103622131478282
 30
0.0
 10
0.1878091780973313
 20
-3.068733286636592
 30
0.0
 10
0.1786890751362004
 20
-3.052133151291602
 30
0.0
 10
0.170160574319286
 20
-3.035800245267586
 30
0.0
 10
0.1658747212600247
 20
-3.0172533533723
 30
0.0
 10
0.1644823112646665
 20
-3.011227955289693
 30
0.0
 10
0.1605256784778501
 20
-3.005794794309975
 30
0.0
 10
0.1577191050540705
 20
-3.00004400679581
 30
0.0
  0
HATCH
  5
89
330
83
100
AcDbEntity
  8
TML FRIENDSGIVING
 62
    33
420
 13016173
440
 33554687
100
AcDbHatch
 10
0.0
 20
0.0
 30
0.0
210
0.0
220
0.0
230
1.0
  2
SOLID
 70
     1
 71
     1
 91
        2
 92
        1
 93
        1
 72
     4
 94
        3
 73
     0
 74
     0
 95
       20
 96
       16
 40
0.0
 40
0.0
 40
0.0
 40
0.0
 40
1.0
 40
1.0
 40
1.0
 40
2.0
 40
2.0
 40
2.0
 40
3.0
 40
3.0
 40
3.0
 40
4.0
 40
4.0
 40
4.0
 40
5.0
 40
5.0
 40
5.0
 40
5.0
 10
0.5213753613754509
 20
-2.563673733049931
 10
0.5259350481366785
 20
-2.562726569441312
 10
0.5331956593649036
 20
-2.561218354712562
 10
0.5404658782841049
 20
-2.559712829828236
 10
0.5539041880215589
 20
-2.548202937204576
 10
0.5574757068840705
 20
-2.533926750376622
 10
0.5526760057922881
 20
-2.517935348494625
 10
0.5408616834109176
 20
-2.503930160597772
 10
0.5278857226532966
 20
-2.494605049197439
 10
0.5125019870439726
 20
-2.500879031096145
 10
0.4993531428354269
 20
-2.509233545529746
 10
0.4938537454955218
 20
-2.518779953349949
 10
0.4913427656691359
 20
-2.530538271610996
 10
0.4906215802162327
 20
-2.549086205558043
 10
0.5015759191994296
 20
-2.559141840115191
 10
0.5213753613754509
 20
-2.563673733049931
 97
        0
 97
        1
330
87
 92
        1
 93
        1
 72
     4
 94
        3
 73
     0
 74
     0
 95
      173
 96
      169
 40
0.0
 40
0.0
 40
0.0
 40
0.0
 40
1.0
 40
1.0
 40
1.0
 40
2.0
 40
2.0
 40
2.0
 40
3.0
 40
3.0
 40
3.0
 40
4.0
 40
4.0
 40
4.0
 40
5.0
 40
5.0
 40
5.0
 40
6.0
 40
6.0
 40
6.0
 40
7.0
 40
7.0
 40
7.0
 40
8.0
 40
8.0
 40
8.0
 40
9.0
 40
9.0
 40
9.0
 40
10.0
 40
10.0
 40
10.0
 40
11.0
 40
11.0
 40
11.0
 40
12.0
 40
12.0
 40
12.0
 40
13.0
 40
13.0
 40
13.0
 40
14.0
 40
14.0
 40
14.0
 40
15.0
 40
15.0
 40
15.0
 40
16.0
 40
16.0
 40
16.0
 40
17.0
 40
17.0
 40
17.0
 40
18.0
 40
18.0
 40
18.0
 40
19.0
 40
19.0
 40
19.0
 40
20.0
 40
20.0
 40
20.0
 40
21.0
 40
21.0
 40
21.0
 40
22.0
 40
22.0
 40
22.0
 40
23.0
 40
23.0
 40
23.0
 40
24.0
 40
24.0
 40
24.0
 40
25.0
 40
25.0
 40
25.0
 40
26.0
 40
26.0
 40
26.0
 40
27.0
 40
27.0
 40
27.0
 40
28.0
 40
28.0
 40
28.0
 40
29.0
 40
29.0
 40
29.0
 40
30.0
 40
30.0
 40
30.0
 40
31.0
 40
31.0
 40
31.0
 40
32.0
 40
32.0
 40
32.0
 40
33.0
 40
33.0
 40
33.0
 40
34.0
 40
34.0
 40
34.0
 40
35.0
 40
35.0
 40
35.0
 40
36.0
 40
36.0
 40
36.0
 40
37.0
 40
37.0
 40
37.0
 40
38.0
 40
38.0
 40
38.0
 40
39.0
 40
39.0
 40
39.0
 40
40.0
 40
40.0
 40
40.0
 40
41.0
 40
41.0
 40
41.0
 40
42.0
 40
42.0
 40
42.0
 40
43.0
 40
43.0
 40
43.0
 40
44.0
 40
44.0
 40
44.0
 40
45.0
 40
45.0
 40
45.0
 40
46.0
 40
46.0
 40
46.0
 40
47.0
 40
47.0
 40
47.0
 40
48.0
 40
48.0
 40
48.0
 40
49.0
 40
49.0
 40
49.0
 40
50.0
 40
50.0
 40
50.0
 40
51.0
 40
51.0
 40
51.0
 40
52.0
 40
52.0
 40
52.0
 40
53.0
 40
53.0
 40
53.0
 40
54.0
 40
54.0
 40
54.0
 40
55.0
 40
55.0
 40
55.0
 40
56.0
 40
56.0
 40
56.0
 40
56.0
 10
0.1577191050540705
 20
-3.00004400679581
 10
0.1519762530776284
 20
-3.006742533102093
 10
0.1435778498940736
 20
-3.006676774209785
 10
0.1363343153403902
 20
-3.00717339971071
 10
0.1291573336814559
 20
-3.007665513840922
 10
0.1208532496266217
 20
-3.00633031999228
 10
0.1146917691893097
 20
-3.002875555202308
 10
0.1084380110563517
 20
-2.999369038418636
 10
0.1041988976486057
 20
-2.992292291980321
 10
0.0989290529346868
 20
-2.986619336378907
 10
0.0972227296154592
 20
-2.97840502175581
 10
0.0954626344417875
 20
-2.969931847088294
 10
0.0937086675149001
 20
-2.961457457274112
 10
0.1029535251214308
 20
-2.944258569833537
 10
0.1095920451409711
 20
-2.926698151446266
 10
0.10025959799475
 20
-2.906146516868905
 10
0.1134462911988218
 20
-2.891678243893642
 10
0.1251940077206023
 20
-2.875617343871908
 10
0.1400369647873908
 20
-2.86325576886462
 10
0.1616350116575328
 20
-2.845268677885062
 10
0.1797524349532043
 20
-2.824052551724687
 10
0.199830846917204
 20
-2.804705299969302
 10
0.2161173190663324
 20
-2.789011819007555
 10
0.231520598511199
 20
-2.772346884249271
 10
0.249465420922762
 20
-2.758506818583934
 10
0.2589605663029159
 20
-2.75118375921617
 10
0.2688205673238144
 20
-2.744221192132373
 10
0.2797377879386305
 20
-2.738851996573127
 10
0.2889141425466858
 20
-2.734339015347283
 10
0.2967235627166044
 20
-2.727961138564877
 10
0.3009658677789149
 20
-2.717356746723579
 10
0.3009613056980621
 20
-2.717017843211048
 10
0.3009230564437201
 20
-2.715851609986682
 10
0.3009337244618437
 20
-2.71468574354867
 10
0.3009865624125419
 20
-2.708880522174417
 10
0.30253491704669
 20
-2.702564030294726
 10
0.3007484094120072
 20
-2.697396166909002
 10
0.2983722649061065
 20
-2.690522936422186
 10
0.2945170319143497
 20
-2.68337859607085
 10
0.2893125152389504
 20
-2.678425454534665
 10
0.2785951422387269
 20
-2.668225784833137
 10
0.2726192360886444
 20
-2.655143462195079
 10
0.2647904313210776
 20
-2.643176381412356
 10
0.2644801040082332
 20
-2.642701970530323
 10
0.2634512449483282
 20
-2.642582983814513
 10
0.2633100940983771
 20
-2.64212743083461
 10
0.2590607370394133
 20
-2.628410384926483
 10
0.2520207370054348
 20
-2.614819130418077
 10
0.2513154235162144
 20
-2.600904335932025
 10
0.2500397985791854
 20
-2.575739395044517
 10
0.2479925393206991
 20
-2.550110168201399
 10
0.2575434323979885
 20
-2.525395279291892
 10
0.2609302111359031
 20
-2.516631125175131
 10
0.2630564095452554
 20
-2.507408485976914
 10
0.2686220094887075
 20
-2.499639269557039
 10
0.2785221601071726
 20
-2.485819363369905
 10
0.2860352616329085
 20
-2.470377963237524
 10
0.2986629689656865
 20
-2.458383736756685
 10
0.3085563227271121
 20
-2.448986720678198
 10
0.3350988919592433
 20
-2.431369212979335
 10
0.3468515435307229
 20
-2.425261832386897
 10
0.3640614234437231
 20
-2.416318552999377
 10
0.3827978312992602
 20
-2.41322897537917
 10
0.4012530229170024
 20
-2.411096351145943
 10
0.4146421590655033
 20
-2.409549106284404
 10
0.4287121726577349
 20
-2.410378795259829
 10
0.4427228555814004
 20
-2.412656687171622
 10
0.4633567984672406
 20
-2.416011413822742
 10
0.4833867938910873
 20
-2.42224994363207
 10
0.4996272696348948
 20
-2.433457124631432
 10
0.5248807719386579
 20
-2.45088385352834
 10
0.5491950478657499
 20
-2.470434823653325
 10
0.5611286515427688
 20
-2.501282409052035
 10
0.5682133066915942
 20
-2.519595347272115
 10
0.5768667255600298
 20
-2.537211527034514
 10
0.5796304173294149
 20
-2.555923890397176
 10
0.5951569810047836
 20
-2.567310751201905
 10
0.6100932396388114
 20
-2.578264612953742
 10
0.6256354017518408
 20
-2.589662897780448
 10
0.6072685471181735
 20
-2.598060600966947
 10
0.5903970625947497
 20
-2.605774593240008
 10
0.5743856706463046
 20
-2.613095309877659
 10
0.5732099728536974
 20
-2.617022998488108
 10
0.5719341788049582
 20
-2.619724356001572
 10
0.5716528605034278
 20
-2.622524104884178
 10
0.5708769064461245
 20
-2.630247109159755
 10
0.5650936857414309
 20
-2.638739931769098
 10
0.57486546552938
 20
-2.645143945490265
 10
0.5760120638672106
 20
-2.645895356447479
 10
0.5760379079512683
 20
-2.648458684370678
 10
0.576435881282565
 20
-2.650215376447754
 10
0.5794862379475868
 20
-2.663677956133243
 10
0.5816274120461078
 20
-2.677194728465817
 10
0.5880100087908886
 20
-2.689950944107951
 10
0.5914564327066121
 20
-2.696839022909999
 10
0.5903023644880502
 20
-2.706021205717256
 10
0.5912744494390078
 20
-2.714614742861587
 10
0.5840889530446703
 20
-2.718466355313264
 10
0.5779909351723518
 20
-2.721735096762863
 10
0.5719101942029536
 20
-2.724994580350867
 10
0.5675773695681352
 20
-2.721731311861301
 10
0.5641411672713855
 20
-2.719143365311083
 10
0.5596584372874406
 20
-2.715767196947682
 10
0.5592694234575345
 20
-2.707772331336021
 10
0.5546688373107651
 20
-2.699275731800677
 10
0.5574136604558994
 20
-2.688907030617731
 10
0.5595151299945656
 20
-2.680968265279286
 10
0.5571766441914229
 20
-2.671864498671867
 10
0.556699515604704
 20
-2.660601069741737
 10
0.5467553869280614
 20
-2.671544442214477
 10
0.5390607028305744
 20
-2.680221331994592
 10
0.5311361408344056
 20
-2.688684042042849
 10
0.5192652516004854
 20
-2.701361083370051
 10
0.5191966288658325
 20
-2.70129712891273
 10
0.5129008920730611
 20
-2.728574229787606
 10
0.5209828314883427
 20
-2.742832486336308
 10
0.5333047852853699
 20
-2.752691844062079
 10
0.5466711569964293
 20
-2.761662182922034
 10
0.5579343724784849
 20
-2.769221073536805
 10
0.5661624713888564
 20
-2.780038135871993
 10
0.5755179072617062
 20
-2.789672272692895
 10
0.5933678225424552
 20
-2.808054078517948
 10
0.6054967194943527
 20
-2.830141730184575
 10
0.6179049178000594
 20
-2.852113227570271
 10
0.6181877000424644
 20
-2.852613924879657
 10
0.6185612148941825
 20
-2.853102947733532
 10
0.6186898005168789
 20
-2.853645451770641
 10
0.6239980866302201
 20
-2.876053255244642
 10
0.6354042208666517
 20
-2.897209593401587
 10
0.6358604776513377
 20
-2.920412410525336
 10
0.6361699066654485
 20
-2.936146788468199
 10
0.6389339872683624
 20
-2.951783201014778
 10
0.6372431838002007
 20
-2.967666924339077
 10
0.6350473585337366
 20
-2.988295172908414
 10
0.6300723946291606
 20
-3.00829171721039
 10
0.6242581508673135
 20
-3.028018278543008
 10
0.6208045032604256
 20
-3.039736050146378
 10
0.6155677525175129
 20
-3.051200280064398
 10
0.6094622466559435
 20
-3.061824551423999
 10
0.5920833276748505
 20
-3.092065971833108
 10
0.5706084198471394
 20
-3.119031544055789
 10
0.5424301983552419
 20
-3.140220586312933
 10
0.5266580530751146
 20
-3.152080550612304
 10
0.5106490627909781
 20
-3.163447340129929
 10
0.4912933910464467
 20
-3.168910250012559
 10
0.4809462111330605
 20
-3.179141429553636
 10
0.4652157490103264
 20
-3.175357498726523
 10
0.4535040181128554
 20
-3.183654276125935
 10
0.4483874049250416
 20
-3.187279055904177
 10
0.4392208089263932
 20
-3.190701097934126
 10
0.4308022565119877
 20
-3.18556906073963
 10
0.4284871034787127
 20
-3.184157685928867
 10
0.423667693538808
 20
-3.186549789847251
 10
0.4200874392226348
 20
-3.187526276637552
 10
0.3996755390281805
 20
-3.193093360954435
 10
0.378718445636903
 20
-3.190553751671712
 10
0.3588237787585058
 20
-3.187558358976603
 10
0.3238402677501932
 20
-3.18229092389452
 10
0.2905688598913608
 20
-3.17005997742995
 10
0.2612231575085767
 20
-3.149463601364383
 10
0.2356645055977853
 20
-3.1315251159693
 10
0.2069768980824922
 20
-3.103622131478282
 10
0.1878091780973313
 20
-3.068733286636592
 10
0.1786890751362004
 20
-3.052133151291602
 10
0.170160574319286
 20
-3.035800245267586
 10
0.1658747212600247
 20
-3.0172533533723
 10
0.1644823112646665
 20
-3.011227955289693
 10
0.1605256784778501
 20
-3.005794794309975
 10
0.1577191050540705
 20
-3.00004400679581
 97
        0
 97
        1
330
88
 75
     2
 76
     1
 98
        1
 10
0.0
 20
0.0
450
        0
451
        0
460
0.0
461
0.0
452
        0
462
0.0
453
        0
470

  0
SPLINE
  5
8A
330
83
100
AcDbEntity
  8
TML FRIENDSGIVING
100
AcDbSpline
210
0.0
220
0.0
230
1.0
 70
     9
 71
     3
 72
   149
 73
   145
 74
     0
 42
0.0000000001
 43
0.0000000001
 40
0.0
 40
0.0
 40
0.0
 40
0.0
 40
1.0
 40
1.0
 40
1.0
 40
2.0
 40
2.0
 40
2.0
 40
3.0
 40
3.0
 40
3.0
 40
4.0
 40
4.0
 40
4.0
 40
5.0
 40
5.0
 40
5.0
 40
6.0
 40
6.0
 40
6.0
 40
7.0
 40
7.0
 40
7.0
 40
8.0
 40
8.0
 40
8.0
 40
9.0
 40
9.0
 40
9.0
 40
10.0
 40
10.0
 40
10.0
 40
11.0
 40
11.0
 40
11.0
 40
12.0
 40
12.0
 40
12.0
 40
13.0
 40
13.0
 40
13.0
 40
14.0
 40
14.0
 40
14.0
 40
15.0
 40
15.0
 40
15.0
 40
16.0
 40
16.0
 40
16.0
 40
17.0
 40
17.0
 40
17.0
 40
18.0
 40
18.0
 40
18.0
 40
19.0
 40
19.0
 40
19.0
 40
20.0
 40
20.0
 40
20.0
 40
21.0
 40
21.0
 40
21.0
 40
22.0
 40
22.0
 40
22.0
 40
23.0
 40
23.0
 40
23.0
 40
24.0
 40
24.0
 40
24.0
 40
25.0
 40
25.0
 40
25.0
 40
26.0
 40
26.0
 40
26.0
 40
27.0
 40
27.0
 40
27.0
 40
28.0
 40
28.0
 40
28.0
 40
29.0
 40
29.0
 40
29.0
 40
30.0
 40
30.0
 40
30.0
 40
31.0
 40
31.0
 40
31.0
 40
32.0
 40
32.0
 40
32.0
 40
33.0
 40
33.0
 40
33.0
 40
34.0
 40
34.0
 40
34.0
 40
35.0
 40
35.0
 40
35.0
 40
36.0
 40
36.0
 40
36.0
 40
37.0
 40
37.0
 40
37.0
 40
38.0
 40
38.0
 40
38.0
 40
39.0
 40
39.0
 40
39.0
 40
40.0
 40
40.0
 40
40.0
 40
41.0
 40
41.0
 40
41.0
 40
42.0
 40
42.0
 40
42.0
 40
43.0
 40
43.0
 40
43.0
 40
44.0
 40
44.0
 40
44.0
 40
45.0
 40
45.0
 40
45.0
 40
46.0
 40
46.0
 40
46.0
 40
47.0
 40
47.0
 40
47.0
 40
48.0
 40
48.0
 40
48.0
 40
48.0
 10
-0.142850880141787
 20
-3.067096965566128
 30
0.0
 10
-0.1445050060455439
 20
-3.059133931586175
 30
0.0
 10
-0.1465211838778689
 20
-3.049427963889229
 30
0.0
 10
-0.1482810122190459
 20
-3.040956073782278
 30
0.0
 10
-0.1472074575119298
 20
-3.037110998147429
 30
0.0
 10
-0.1464369243103394
 20
-3.034351282208288
 30
0.0
 10
-0.1460331146855904
 20
-3.032905012869302
 30
0.0
 10
-0.1468062305669946
 20
-3.030195876241577
 30
0.0
 10
-0.146758320900378
 20
-3.028579389028108
 30
0.0
 10
-0.1475251896171004
 20
-3.027939712153713
 30
0.0
 10
-0.163013509470223
 20
-3.015020797605251
 30
0.0
 10
-0.161786480990688
 20
-2.997432490961172
 30
0.0
 10
-0.1595085335445295
 20
-2.980448581155137
 30
0.0
 10
-0.1586223816419508
 20
-2.9738414384518
 30
0.0
 10
-0.1586452377516454
 20
-2.969419049634855
 30
0.0
 10
-0.1626648235070054
 20
-2.964044590391217
 30
0.0
 10
-0.1653677082834595
 20
-2.960430658293514
 30
0.0
 10
-0.1659480817094795
 20
-2.955103347887339
 30
0.0
 10
-0.1670420035675306
 20
-2.950440326646432
 30
0.0
 10
-0.1688818037539097
 20
-2.942597940505442
 30
0.0
 10
-0.1703747430090061
 20
-2.93467422150848
 30
0.0
 10
-0.1719038648937688
 20
-2.927312962307849
 30
0.0
 10
-0.1686362753217104
 20
-2.918714114312453
 30
0.0
 10
-0.1655262355506895
 20
-2.910529847171321
 30
0.0
 10
-0.1623983579167493
 20
-2.902298602147462
 30
0.0
 10
-0.1812654446801439
 20
-2.880958876780899
 30
0.0
 10
-0.1823075441201354
 20
-2.845099712055242
 30
0.0
 10
-0.158217045242092
 20
-2.814581660492472
 30
0.0
 10
-0.1686161151095322
 20
-2.798039507522338
 30
0.0
 10
-0.1676360217363203
 20
-2.780132707143972
 30
0.0
 10
-0.164374287844099
 20
-2.762059557655018
 30
0.0
 10
-0.1609611278237632
 20
-2.743147567081349
 30
0.0
 10
-0.150316605155404
 20
-2.728320056713148
 30
0.0
 10
-0.1369238446942644
 20
-2.716200226151006
 30
0.0
 10
-0.1392374020545932
 20
-2.689680248971879
 30
0.0
 10
-0.1381472188828638
 20
-2.665222087876928
 30
0.0
 10
-0.1241877319708161
 20
-2.6422409749307
 30
0.0
 10
-0.1105163155915281
 20
-2.619734096720069
 30
0.0
 10
-0.0908099625252513
 20
-2.606439549662051
 30
0.0
 10
-0.0670710421778848
 20
-2.598354232342141
 30
0.0
 10
-0.0549605505102464
 20
-2.560698894295203
 30
0.0
 10
-0.0335114015049638
 20
-2.533860916486117
 30
0.0
 10
0.0093697886663525
 20
-2.530339778527478
 30
0.0
 10
0.0153962521798374
 20
-2.521151194092428
 30
0.0
 10
0.0202336741778153
 20
-2.510669688785027
 30
0.0
 10
0.0278918036906362
 20
-2.503007378637019
 30
0.0
 10
0.034988356319799
 20
-2.495906947699394
 30
0.0
 10
0.0445547056706093
 20
-2.490367424570472
 30
0.0
 10
0.0540348785597821
 20
-2.486806580504207
 30
0.0
 10
0.0639483551132243
 20
-2.483082930606037
 30
0.0
 10
0.0748626780986494
 20
-2.480367678844105
 30
0.0
 10
0.0847136630098678
 20
-2.484096110050535
 30
0.0
 10
0.0933901848859351
 20
-2.475337255673088
 30
0.0
 10
0.1012000853012422
 20
-2.467453217036033
 30
0.0
 10
0.1091286187525055
 20
-2.459449434387301
 30
0.0
 10
0.1223439341219622
 20
-2.458867088278591
 30
0.0
 10
0.1346894594839543
 20
-2.450708635264668
 30
0.0
 10
0.14857083479938
 20
-2.455376793640273
 30
0.0
 10
0.1543500526329858
 20
-2.450715749177536
 30
0.0
 10
0.1601734815843783
 20
-2.446019012176318
 30
0.0
 10
0.1676099561689549
 20
-2.440021345833479
 30
0.0
 10
0.1792041680096948
 20
-2.438875722764451
 30
0.0
 10
0.1921215133587313
 20
-2.431686507309879
 30
0.0
 10
0.2074791294511947
 20
-2.435991587333546
 30
0.0
 10
0.2160826445243755
 20
-2.428768961594111
 30
0.0
 10
0.2257814477409789
 20
-2.420318589415374
 30
0.0
 10
0.2382508997087598
 20
-2.422056093965086
 30
0.0
 10
0.2477460154780147
 20
-2.423379110838267
 30
0.0
 10
0.2590646101614817
 20
-2.422422109673005
 30
0.0
 10
0.2661659696789861
 20
-2.430730302495956
 30
0.0
 10
0.2724746038906131
 20
-2.438111056020993
 30
0.0
 10
0.2809273436879241
 20
-2.44458663911799
 30
0.0
 10
0.2813251548775497
 20
-2.457642979583144
 30
0.0
 10
0.2766516796961392
 20
-2.464413861418152
 30
0.0
 10
0.27125547547818
 20
-2.472688037354449
 30
0.0
 10
0.2654026645259111
 20
-2.480625526293806
 30
0.0
 10
0.2481049822718609
 20
-2.504084256371495
 30
0.0
 10
0.2420816956030952
 20
-2.531386189543278
 30
0.0
 10
0.2383011211266345
 20
-2.559432984978557
 30
0.0
 10
0.2347637339287303
 20
-2.585675712747767
 30
0.0
 10
0.2390954254307189
 20
-2.611577946173358
 30
0.0
 10
0.2473088511136059
 20
-2.63597826471894
 30
0.0
 10
0.2526851858153046
 20
-2.651950098404919
 30
0.0
 10
0.2618617365694086
 20
-2.667278038121871
 30
0.0
 10
0.2714786561642768
 20
-2.681634985454921
 30
0.0
 10
0.2749784423218039
 20
-2.686859873578795
 30
0.0
 10
0.2807175165960542
 20
-2.690584776597941
 30
0.0
 10
0.2854037542960996
 20
-2.694964934132611
 30
0.0
 10
0.2866701505837833
 20
-2.701061420892175
 30
0.0
 10
0.2879294315068692
 20
-2.70712365397733
 30
0.0
 10
0.2891846465073007
 20
-2.713166313534303
 30
0.0
 10
0.285261108592926
 20
-2.718371925562273
 30
0.0
 10
0.2816970636150068
 20
-2.722725986880226
 30
0.0
 10
0.2751157561775067
 20
-2.726269305248782
 30
0.0
 10
0.2585863533049127
 20
-2.735168503818133
 30
0.0
 10
0.2428361550837255
 20
-2.746167380943183
 30
0.0
 10
0.2285405565435338
 20
-2.758390935353948
 30
0.0
 10
0.2121992209284068
 20
-2.772363487457065
 30
0.0
 10
0.1975816158378115
 20
-2.788388591435325
 30
0.0
 10
0.1825475489246678
 20
-2.803845259046915
 30
0.0
 10
0.1560276222020447
 20
-2.831110449987767
 30
0.0
 10
0.1303029365602065
 20
-2.859181992091635
 30
0.0
 10
0.1029881927452152
 20
-2.885616903315748
 30
0.0
 10
0.0965075602528284
 20
-2.891888736982991
 30
0.0
 10
0.0934485012006311
 20
-2.898565336362859
 30
0.0
 10
0.0903873488132882
 20
-2.906007876228057
 30
0.0
 10
0.0893268288231689
 20
-2.90858629271247
 30
0.0
 10
0.0892431246041699
 20
-2.911566512484518
 30
0.0
 10
0.088308033788836
 20
-2.916502400110933
 30
0.0
 10
0.0893567646049102
 20
-2.921551035831624
 30
0.0
 10
0.0908610866718441
 20
-2.928792907631456
 30
0.0
 10
0.0923307559890848
 20
-2.935867959588525
 30
0.0
 10
0.0653661060363852
 20
-2.982696300734282
 30
0.0
 10
0.0966202627704812
 20
-3.022119965962524
 30
0.0
 10
0.1402785017949226
 20
-3.021718816484356
 30
0.0
 10
0.1399384568183248
 20
-3.022237027093877
 30
0.0
 10
0.1396686130268057
 20
-3.023142056884378
 30
0.0
 10
0.1392484281348314
 20
-3.023218202878726
 30
0.0
 10
0.1152890949761943
 20
-3.027562961633849
 30
0.0
 10
0.0932814375599441
 20
-3.03892806600422
 30
0.0
 10
0.0689864253558881
 20
-3.042380929834962
 30
0.0
 10
0.0603822701677043
 20
-3.043603718283495
 30
0.0
 10
0.052379909002285
 20
-3.048589643252676
 30
0.0
 10
0.0438545562490541
 20
-3.050967668317424
 30
0.0
 10
0.0349189371157384
 20
-3.05346009324224
 30
0.0
 10
0.0245194739504516
 20
-3.052840330586301
 30
0.0
 10
0.0168373050559391
 20
-3.057222665548604
 30
0.0
 10
0.0030497943358922
 20
-3.065087848638919
 30
0.0
 10
-0.012867772260102
 20
-3.063955306642658
 30
0.0
 10
-0.0264985905235386
 20
-3.069946713132367
 30
0.0
 10
-0.0434842127135148
 20
-3.077412685148702
 30
0.0
 10
-0.0613395622788302
 20
-3.080160770130684
 30
0.0
 10
-0.0790061059993453
 20
-3.084304356581519
 30
0.0
 10
-0.0812067536256538
 20
-3.084820537544171
 30
0.0
 10
-0.0832331051761154
 20
-3.086176345877169
 30
0.0
 10
-0.0852711662455855
 20
-3.087271587213384
 30
0.0
 10
-0.0921401339433285
 20
-3.09096265513358
 30
0.0
 10
-0.1099239000373144
 20
-3.091919551582173
 30
0.0
 10
-0.1171602273013579
 20
-3.08860659681962
 30
0.0
 10
-0.1223687072499868
 20
-3.086221916692238
 30
0.0
 10
-0.1278974543457707
 20
-3.084024532811048
 30
0.0
 10
-0.1322774524307356
 20
-3.080495284623111
 30
0.0
 10
-0.1361937242634718
 20
-3.077339789536431
 30
0.0
 10
-0.1387331212011102
 20
-3.072475394262078
 30
0.0
 10
-0.142850880141787
 20
-3.067096965566128
 30
0.0
  0
HATCH
  5
8B
330
83
100
AcDbEntity
  8
TML FRIENDSGIVING
 62
    33
420
 13016173
440
 33554687
100
AcDbHatch
 10
0.0
 20
0.0
 30
0.0
210
0.0
220
0.0
230
1.0
  2
SOLID
 70
     1
 71
     1
 91
        1
 92
        1
 93
        1
 72
     4
 94
        3
 73
     0
 74
     0
 95
      149
 96
      145
 40
0.0
 40
0.0
 40
0.0
 40
0.0
 40
1.0
 40
1.0
 40
1.0
 40
2.0
 40
2.0
 40
2.0
 40
3.0
 40
3.0
 40
3.0
 40
4.0
 40
4.0
 40
4.0
 40
5.0
 40
5.0
 40
5.0
 40
6.0
 40
6.0
 40
6.0
 40
7.0
 40
7.0
 40
7.0
 40
8.0
 40
8.0
 40
8.0
 40
9.0
 40
9.0
 40
9.0
 40
10.0
 40
10.0
 40
10.0
 40
11.0
 40
11.0
 40
11.0
 40
12.0
 40
12.0
 40
12.0
 40
13.0
 40
13.0
 40
13.0
 40
14.0
 40
14.0
 40
14.0
 40
15.0
 40
15.0
 40
15.0
 40
16.0
 40
16.0
 40
16.0
 40
17.0
 40
17.0
 40
17.0
 40
18.0
 40
18.0
 40
18.0
 40
19.0
 40
19.0
 40
19.0
 40
20.0
 40
20.0
 40
20.0
 40
21.0
 40
21.0
 40
21.0
 40
22.0
 40
22.0
 40
22.0
 40
23.0
 40
23.0
 40
23.0
 40
24.0
 40
24.0
 40
24.0
 40
25.0
 40
25.0
 40
25.0
 40
26.0
 40
26.0
 40
26.0
 40
27.0
 40
27.0
 40
27.0
 40
28.0
 40
28.0
 40
28.0
 40
29.0
 40
29.0
 40
29.0
 40
30.0
 40
30.0
 40
30.0
 40
31.0
 40
31.0
 40
31.0
 40
32.0
 40
32.0
 40
32.0
 40
33.0
 40
33.0
 40
33.0
 40
34.0
 40
34.0
 40
34.0
 40
35.0
 40
35.0
 40
35.0
 40
36.0
 40
36.0
 40
36.0
 40
37.0
 40
37.0
 40
37.0
 40
38.0
 40
38.0
 40
38.0
 40
39.0
 40
39.0
 40
39.0
 40
40.0
 40
40.0
 40
40.0
 40
41.0
 40
41.0
 40
41.0
 40
42.0
 40
42.0
 40
42.0
 40
43.0
 40
43.0
 40
43.0
 40
44.0
 40
44.0
 40
44.0
 40
45.0
 40
45.0
 40
45.0
 40
46.0
 40
46.0
 40
46.0
 40
47.0
 40
47.0
 40
47.0
 40
48.0
 40
48.0
 40
48.0
 40
48.0
 10
-0.142850880141787
 20
-3.067096965566128
 10
-0.1445050060455439
 20
-3.059133931586175
 10
-0.1465211838778689
 20
-3.049427963889229
 10
-0.1482810122190459
 20
-3.040956073782278
 10
-0.1472074575119298
 20
-3.037110998147429
 10
-0.1464369243103394
 20
-3.034351282208288
 10
-0.1460331146855904
 20
-3.032905012869302
 10
-0.1468062305669946
 20
-3.030195876241577
 10
-0.146758320900378
 20
-3.028579389028108
 10
-0.1475251896171004
 20
-3.027939712153713
 10
-0.163013509470223
 20
-3.015020797605251
 10
-0.161786480990688
 20
-2.997432490961172
 10
-0.1595085335445295
 20
-2.980448581155137
 10
-0.1586223816419508
 20
-2.9738414384518
 10
-0.1586452377516454
 20
-2.969419049634855
 10
-0.1626648235070054
 20
-2.964044590391217
 10
-0.1653677082834595
 20
-2.960430658293514
 10
-0.1659480817094795
 20
-2.955103347887339
 10
-0.1670420035675306
 20
-2.950440326646432
 10
-0.1688818037539097
 20
-2.942597940505442
 10
-0.1703747430090061
 20
-2.93467422150848
 10
-0.1719038648937688
 20
-2.927312962307849
 10
-0.1686362753217104
 20
-2.918714114312453
 10
-0.1655262355506895
 20
-2.910529847171321
 10
-0.1623983579167493
 20
-2.902298602147462
 10
-0.1812654446801439
 20
-2.880958876780899
 10
-0.1823075441201354
 20
-2.845099712055242
 10
-0.158217045242092
 20
-2.814581660492472
 10
-0.1686161151095322
 20
-2.798039507522338
 10
-0.1676360217363203
 20
-2.780132707143972
 10
-0.164374287844099
 20
-2.762059557655018
 10
-0.1609611278237632
 20
-2.743147567081349
 10
-0.150316605155404
 20
-2.728320056713148
 10
-0.1369238446942644
 20
-2.716200226151006
 10
-0.1392374020545932
 20
-2.689680248971879
 10
-0.1381472188828638
 20
-2.665222087876928
 10
-0.1241877319708161
 20
-2.6422409749307
 10
-0.1105163155915281
 20
-2.619734096720069
 10
-0.0908099625252513
 20
-2.606439549662051
 10
-0.0670710421778848
 20
-2.598354232342141
 10
-0.0549605505102464
 20
-2.560698894295203
 10
-0.0335114015049638
 20
-2.533860916486117
 10
0.0093697886663525
 20
-2.530339778527478
 10
0.0153962521798374
 20
-2.521151194092428
 10
0.0202336741778153
 20
-2.510669688785027
 10
0.0278918036906362
 20
-2.503007378637019
 10
0.034988356319799
 20
-2.495906947699394
 10
0.0445547056706093
 20
-2.490367424570472
 10
0.0540348785597821
 20
-2.486806580504207
 10
0.0639483551132243
 20
-2.483082930606037
 10
0.0748626780986494
 20
-2.480367678844105
 10
0.0847136630098678
 20
-2.484096110050535
 10
0.0933901848859351
 20
-2.475337255673088
 10
0.1012000853012422
 20
-2.467453217036033
 10
0.1091286187525055
 20
-2.459449434387301
 10
0.1223439341219622
 20
-2.458867088278591
 10
0.1346894594839543
 20
-2.450708635264668
 10
0.14857083479938
 20
-2.455376793640273
 10
0.1543500526329858
 20
-2.450715749177536
 10
0.1601734815843783
 20
-2.446019012176318
 10
0.1676099561689549
 20
-2.440021345833479
 10
0.1792041680096948
 20
-2.438875722764451
 10
0.1921215133587313
 20
-2.431686507309879
 10
0.2074791294511947
 20
-2.435991587333546
 10
0.2160826445243755
 20
-2.428768961594111
 10
0.2257814477409789
 20
-2.420318589415374
 10
0.2382508997087598
 20
-2.422056093965086
 10
0.2477460154780147
 20
-2.423379110838267
 10
0.2590646101614817
 20
-2.422422109673005
 10
0.2661659696789861
 20
-2.430730302495956
 10
0.2724746038906131
 20
-2.438111056020993
 10
0.2809273436879241
 20
-2.44458663911799
 10
0.2813251548775497
 20
-2.457642979583144
 10
0.2766516796961392
 20
-2.464413861418152
 10
0.27125547547818
 20
-2.472688037354449
 10
0.2654026645259111
 20
-2.480625526293806
 10
0.2481049822718609
 20
-2.504084256371495
 10
0.2420816956030952
 20
-2.531386189543278
 10
0.2383011211266345
 20
-2.559432984978557
 10
0.2347637339287303
 20
-2.585675712747767
 10
0.2390954254307189
 20
-2.611577946173358
 10
0.2473088511136059
 20
-2.63597826471894
 10
0.2526851858153046
 20
-2.651950098404919
 10
0.2618617365694086
 20
-2.667278038121871
 10
0.2714786561642768
 20
-2.681634985454921
 10
0.2749784423218039
 20
-2.686859873578795
 10
0.2807175165960542
 20
-2.690584776597941
 10
0.2854037542960996
 20
-2.694964934132611
 10
0.2866701505837833
 20
-2.701061420892175
 10
0.2879294315068692
 20
-2.70712365397733
 10
0.2891846465073007
 20
-2.713166313534303
 10
0.285261108592926
 20
-2.718371925562273
 10
0.2816970636150068
 20
-2.722725986880226
 10
0.2751157561775067
 20
-2.726269305248782
 10
0.2585863533049127
 20
-2.735168503818133
 10
0.2428361550837255
 20
-2.746167380943183
 10
0.2285405565435338
 20
-2.758390935353948
 10
0.2121992209284068
 20
-2.772363487457065
 10
0.1975816158378115
 20
-2.788388591435325
 10
0.1825475489246678
 20
-2.803845259046915
 10
0.1560276222020447
 20
-2.831110449987767
 10
0.1303029365602065
 20
-2.859181992091635
 10
0.1029881927452152
 20
-2.885616903315748
 10
0.0965075602528284
 20
-2.891888736982991
 10
0.0934485012006311
 20
-2.898565336362859
 10
0.0903873488132882
 20
-2.906007876228057
 10
0.0893268288231689
 20
-2.90858629271247
 10
0.0892431246041699
 20
-2.911566512484518
 10
0.088308033788836
 20
-2.916502400110933
 10
0.0893567646049102
 20
-2.921551035831624
 10
0.0908610866718441
 20
-2.928792907631456
 10
0.0923307559890848
 20
-2.935867959588525
 10
0.0653661060363852
 20
-2.982696300734282
 10
0.0966202627704812
 20
-3.022119965962524
 10
0.1402785017949226
 20
-3.021718816484356
 10
0.1399384568183248
 20
-3.022237027093877
 10
0.1396686130268057
 20
-3.023142056884378
 10
0.1392484281348314
 20
-3.023218202878726
 10
0.1152890949761943
 20
-3.027562961633849
 10
0.0932814375599441
 20
-3.03892806600422
 10
0.0689864253558881
 20
-3.042380929834962
 10
0.0603822701677043
 20
-3.043603718283495
 10
0.052379909002285
 20
-3.048589643252676
 10
0.0438545562490541
 20
-3.050967668317424
 10
0.0349189371157384
 20
-3.05346009324224
 10
0.0245194739504516
 20
-3.052840330586301
 10
0.0168373050559391
 20
-3.057222665548604
 10
0.0030497943358922
 20
-3.065087848638919
 10
-0.012867772260102
 20
-3.063955306642658
 10
-0.0264985905235386
 20
-3.069946713132367
 10
-0.0434842127135148
 20
-3.077412685148702
 10
-0.0613395622788302
 20
-3.080160770130684
 10
-0.0790061059993453
 20
-3.084304356581519
 10
-0.0812067536256538
 20
-3.084820537544171
 10
-0.0832331051761154
 20
-3.086176345877169
 10
-0.0852711662455855
 20
-3.087271587213384
 10
-0.0921401339433285
 20
-3.09096265513358
 10
-0.1099239000373144
 20
-3.091919551582173
 10
-0.1171602273013579
 20
-3.08860659681962
 10
-0.1223687072499868
 20
-3.086221916692238
 10
-0.1278974543457707
 20
-3.084024532811048
 10
-0.1322774524307356
 20
-3.080495284623111
 10
-0.1361937242634718
 20
-3.077339789536431
 10
-0.1387331212011102
 20
-3.072475394262078
 10
-0.142850880141787
 20
-3.067096965566128
 97
        0
 97
        1
330
8A
 75
     2
 76
     1
 98
        1
 10
0.0
 20
0.0
450
        0
451
        0
460
0.0
461
0.0
452
        0
462
0.0
453
        0
470

  0
ENDBLK
  5
86
330
83
100
AcDbEntity
  8
0
100
AcDbBlockEnd
  0
BLOCK
  5
8E
330
8C
100
AcDbEntity
  8
0
100
AcDbBlockBegin
  2
Block_2
 70
     0
 10
0.0
 20
0.0
 30
0.0
  3
Block_2
  1

  0
SPLINE
  5
90
330
8C
100
AcDbEntity
  8
TML FRIENDSGIVING
100
AcDbSpline
210
0.0
220
0.0
230
1.0
 70
     9
 71
     3
 72
    80
 73
    76
 74
     0
 42
0.0000000001
 43
0.0000000001
 40
0.0
 40
0.0
 40
0.0
 40
0.0
 40
1.0
 40
1.0
 40
1.0
 40
2.0
 40
2.0
 40
2.0
 40
3.0
 40
3.0
 40
3.0
 40
4.0
 40
4.0
 40
4.0
 40
5.0
 40
5.0
 40
5.0
 40
6.0
 40
6.0
 40
6.0
 40
7.0
 40
7.0
 40
7.0
 40
8.0
 40
8.0
 40
8.0
 40
9.0
 40
9.0
 40
9.0
 40
10.0
 40
10.0
 40
10.0
 40
11.0
 40
11.0
 40
11.0
 40
12.0
 40
12.0
 40
12.0
 40
13.0
 40
13.0
 40
13.0
 40
14.0
 40
14.0
 40
14.0
 40
15.0
 40
15.0
 40
15.0
 40
16.0
 40
16.0
 40
16.0
 40
17.0
 40
17.0
 40
17.0
 40
18.0
 40
18.0
 40
18.0
 40
19.0
 40
19.0
 40
19.0
 40
20.0
 40
20.0
 40
20.0
 40
21.0
 40
21.0
 40
21.0
 40
22.0
 40
22.0
 40
22.0
 40
23.0
 40
23.0
 40
23.0
 40
24.0
 40
24.0
 40
24.0
 40
25.0
 40
25.0
 40
25.0
 40
25.0
 10
0.748222467143402
 20
-2.97024137273719
 30
0.0
 10
0.7327604529083752
 20
-2.962660108424945
 30
0.0
 10
0.7272413609428997
 20
-2.932232370395164
 30
0.0
 10
0.7316651912470004
 20
-2.878923931720969
 30
0.0
 10
0.7367051062356293
 20
-2.83003076661915
 30
0.0
 10
0.7392293420957938
 20
-2.797857455316589
 30
0.0
 10
0.7392293420957938
 20
-2.782403997813288
 30
0.0
 10
0.7392293420957938
 20
-2.782403997813288
 30
0.0
 10
0.7278745590908784
 20
-2.782403997813288
 30
0.0
 10
0.7278745590908784
 20
-2.782403997813288
 30
0.0
 10
0.7187274128721507
 20
-2.782403997813288
 30
0.0
 10
0.7125751227586963
 20
-2.781856366982613
 30
0.0
 10
0.7094262454822785
 20
-2.780743991857788
 30
0.0
 10
0.7062688114741352
 20
-2.779648730196413
 30
0.0
 10
0.7029573562948473
 20
-2.776893462579538
 30
0.0
 10
0.69949187994444
 20
-2.772461075543712
 30
0.0
 10
0.6906527760679638
 20
-2.754166783106256
 30
0.0
 10
0.6862375024955883
 20
-2.736659709987887
 30
0.0
 10
0.6862375024955883
 20
-2.719939856188628
 30
0.0
 10
0.6856128610793474
 20
-2.705119596833305
 30
0.0
 10
0.6890783374297548
 20
-2.693602235925507
 30
0.0
 10
0.6966510450102735
 20
-2.68540488692876
 30
0.0
 10
0.7029573562948473
 20
-2.677840736079941
 30
0.0
 10
0.7141581181286433
 20
-2.672792264359612
 30
0.0
 10
0.7302447737799235
 20
-2.670259471767697
 30
0.0
 10
0.7608350897125497
 20
-2.664577801899364
 30
0.0
 10
0.7941207761399357
 20
-2.662695320918904
 30
0.0
 10
0.8300761628668926
 20
-2.664577801899364
 30
0.0
 10
0.8534189270247148
 20
-2.665536155853058
 30
0.0
 10
0.8689493951135823
 20
-2.666802552149015
 30
0.0
 10
0.8766846805969583
 20
-2.668376990787237
 30
0.0
 10
0.8844114093486217
 20
-2.669951429425433
 30
0.0
 10
0.8909487523898809
 20
-2.672946285530744
 30
0.0
 10
0.8963223799159498
 20
-2.677361559103094
 30
0.0
 10
0.9067273656989097
 20
-2.686825304395824
 30
0.0
 10
0.9119298585903834
 20
-2.703545158195083
 30
0.0
 10
0.9119298585903834
 20
-2.727521120500871
 30
0.0
 10
0.9119298585903834
 20
-2.744549016642395
 30
0.0
 10
0.9078311840919973
 20
-2.758274014336368
 30
0.0
 10
0.8996338350952251
 20
-2.768679000119315
 30
0.0
 10
0.8933189670789261
 20
-2.774360669987648
 30
0.0
 10
0.8869270884770608
 20
-2.77783470306978
 30
0.0
 10
0.880466756021355
 20
-2.779083985902287
 30
0.0
 10
0.8739978668339364
 20
-2.78035038219822
 30
0.0
 10
0.8647737100296302
 20
-2.780983580346199
 30
0.0
 10
0.8527857288767361
 20
-2.780983580346199
 30
0.0
 10
0.8531023279507255
 20
-2.7964370378495
 30
0.0
 10
0.8545997560033685
 20
-2.817726186392266
 30
0.0
 10
0.8572865697664029
 20
-2.844851025974472
 30
0.0
 10
0.8599648267977119
 20
-2.871992979020155
 30
0.0
 10
0.861462254850355
 20
-2.891074490776721
 30
0.0
 10
0.8617788539243443
 20
-2.902095561244196
 30
0.0
 10
0.8620868962665957
 20
-2.908735585066223
 30
0.0
 10
0.8622494741694531
 20
-2.912979724004015
 30
0.0
 10
0.8622494741694531
 20
-2.914879318447927
 30
0.0
 10
0.8622494741694531
 20
-2.916778912891863
 30
0.0
 10
0.8622494741694531
 20
-2.921194186464238
 30
0.0
 10
0.8622494741694531
 20
-2.928125139165053
 30
0.0
 10
0.8622494741694531
 20
-2.935073205329343
 30
0.0
 10
0.8619328750954638
 20
-2.940190130903526
 30
0.0
 10
0.861308233679223
 20
-2.943510142814526
 30
0.0
 10
0.8606750355312442
 20
-2.946813041262076
 30
0.0
 10
0.8597252383092886
 20
-2.950920272492187
 30
0.0
 10
0.8584673987450564
 20
-2.95581472304141
 30
0.0
 10
0.8572010024491115
 20
-2.960709173590632
 30
0.0
 10
0.8553099647369132
 20
-2.964491249015029
 30
0.0
 10
0.8527857288767361
 20
-2.9671609493146
 30
0.0
 10
0.850261493016559
 20
-2.969847763077647
 30
0.0
 10
0.8472666369112731
 20
-2.971661790204279
 30
0.0
 10
0.8438011605608657
 20
-2.972603030694497
 30
0.0
 10
0.8308633821860034
 20
-2.976710261924608
 30
0.0
 10
0.8150933256087
 20
-2.978592742905094
 30
0.0
 10
0.7964824340972553
 20
-2.97828470056283
 30
0.0
 10
0.777871542585798
 20
-2.977976658220566
 30
0.0
 10
0.7617848869345178
 20
-2.975289844457544
 30
0.0
 10
0.748222467143402
 20
-2.97024137273719
 30
0.0
  0
HATCH
  5
91
330
8C
100
AcDbEntity
  8
TML FRIENDSGIVING
 62
    20
420
 15817252
440
 33554687
100
AcDbHatch
 10
0.0
 20
0.0
 30
0.0
210
0.0
220
0.0
230
1.0
  2
SOLID
 70
     1
 71
     1
 91
        1
 92
        1
 93
        1
 72
     4
 94
        3
 73
     0
 74
     0
 95
       80
 96
       76
 40
0.0
 40
0.0
 40
0.0
 40
0.0
 40
1.0
 40
1.0
 40
1.0
 40
2.0
 40
2.0
 40
2.0
 40
3.0
 40
3.0
 40
3.0
 40
4.0
 40
4.0
 40
4.0
 40
5.0
 40
5.0
 40
5.0
 40
6.0
 40
6.0
 40
6.0
 40
7.0
 40
7.0
 40
7.0
 40
8.0
 40
8.0
 40
8.0
 40
9.0
 40
9.0
 40
9.0
 40
10.0
 40
10.0
 40
10.0
 40
11.0
 40
11.0
 40
11.0
 40
12.0
 40
12.0
 40
12.0
 40
13.0
 40
13.0
 40
13.0
 40
14.0
 40
14.0
 40
14.0
 40
15.0
 40
15.0
 40
15.0
 40
16.0
 40
16.0
 40
16.0
 40
17.0
 40
17.0
 40
17.0
 40
18.0
 40
18.0
 40
18.0
 40
19.0
 40
19.0
 40
19.0
 40
20.0
 40
20.0
 40
20.0
 40
21.0
 40
21.0
 40
21.0
 40
22.0
 40
22.0
 40
22.0
 40
23.0
 40
23.0
 40
23.0
 40
24.0
 40
24.0
 40
24.0
 40
25.0
 40
25.0
 40
25.0
 40
25.0
 10
0.748222467143402
 20
-2.97024137273719
 10
0.7327604529083752
 20
-2.962660108424945
 10
0.7272413609428997
 20
-2.932232370395164
 10
0.7316651912470004
 20
-2.878923931720969
 10
0.7367051062356293
 20
-2.83003076661915
 10
0.7392293420957938
 20
-2.797857455316589
 10
0.7392293420957938
 20
-2.782403997813288
 10
0.7392293420957938
 20
-2.782403997813288
 10
0.7278745590908784
 20
-2.782403997813288
 10
0.7278745590908784
 20
-2.782403997813288
 10
0.7187274128721507
 20
-2.782403997813288
 10
0.7125751227586963
 20
-2.781856366982613
 10
0.7094262454822785
 20
-2.780743991857788
 10
0.7062688114741352
 20
-2.779648730196413
 10
0.7029573562948473
 20
-2.776893462579538
 10
0.69949187994444
 20
-2.772461075543712
 10
0.6906527760679638
 20
-2.754166783106256
 10
0.6862375024955883
 20
-2.736659709987887
 10
0.6862375024955883
 20
-2.719939856188628
 10
0.6856128610793474
 20
-2.705119596833305
 10
0.6890783374297548
 20
-2.693602235925507
 10
0.6966510450102735
 20
-2.68540488692876
 10
0.7029573562948473
 20
-2.677840736079941
 10
0.7141581181286433
 20
-2.672792264359612
 10
0.7302447737799235
 20
-2.670259471767697
 10
0.7608350897125497
 20
-2.664577801899364
 10
0.7941207761399357
 20
-2.662695320918904
 10
0.8300761628668926
 20
-2.664577801899364
 10
0.8534189270247148
 20
-2.665536155853058
 10
0.8689493951135823
 20
-2.666802552149015
 10
0.8766846805969583
 20
-2.668376990787237
 10
0.8844114093486217
 20
-2.669951429425433
 10
0.8909487523898809
 20
-2.672946285530744
 10
0.8963223799159498
 20
-2.677361559103094
 10
0.9067273656989097
 20
-2.686825304395824
 10
0.9119298585903834
 20
-2.703545158195083
 10
0.9119298585903834
 20
-2.727521120500871
 10
0.9119298585903834
 20
-2.744549016642395
 10
0.9078311840919973
 20
-2.758274014336368
 10
0.8996338350952251
 20
-2.768679000119315
 10
0.8933189670789261
 20
-2.774360669987648
 10
0.8869270884770608
 20
-2.77783470306978
 10
0.880466756021355
 20
-2.779083985902287
 10
0.8739978668339364
 20
-2.78035038219822
 10
0.8647737100296302
 20
-2.780983580346199
 10
0.8527857288767361
 20
-2.780983580346199
 10
0.8531023279507255
 20
-2.7964370378495
 10
0.8545997560033685
 20
-2.817726186392266
 10
0.8572865697664029
 20
-2.844851025974472
 10
0.8599648267977119
 20
-2.871992979020155
 10
0.861462254850355
 20
-2.891074490776721
 10
0.8617788539243443
 20
-2.902095561244196
 10
0.8620868962665957
 20
-2.908735585066223
 10
0.8622494741694531
 20
-2.912979724004015
 10
0.8622494741694531
 20
-2.914879318447927
 10
0.8622494741694531
 20
-2.916778912891863
 10
0.8622494741694531
 20
-2.921194186464238
 10
0.8622494741694531
 20
-2.928125139165053
 10
0.8622494741694531
 20
-2.935073205329343
 10
0.8619328750954638
 20
-2.940190130903526
 10
0.861308233679223
 20
-2.943510142814526
 10
0.8606750355312442
 20
-2.946813041262076
 10
0.8597252383092886
 20
-2.950920272492187
 10
0.8584673987450564
 20
-2.95581472304141
 10
0.8572010024491115
 20
-2.960709173590632
 10
0.8553099647369132
 20
-2.964491249015029
 10
0.8527857288767361
 20
-2.9671609493146
 10
0.850261493016559
 20
-2.969847763077647
 10
0.8472666369112731
 20
-2.971661790204279
 10
0.8438011605608657
 20
-2.972603030694497
 10
0.8308633821860034
 20
-2.976710261924608
 10
0.8150933256087
 20
-2.978592742905094
 10
0.7964824340972553
 20
-2.97828470056283
 10
0.777871542585798
 20
-2.977976658220566
 10
0.7617848869345178
 20
-2.975289844457544
 10
0.748222467143402
 20
-2.97024137273719
 97
        0
 97
        1
330
90
 75
     2
 76
     1
 98
        1
 10
0.0
 20
0.0
450
        0
451
        0
460
0.0
461
0.0
452
        0
462
0.0
453
        0
470

  0
SPLINE
  5
92
330
8C
100
AcDbEntity
  8
TML FRIENDSGIVING
100
AcDbSpline
210
0.0
220
0.0
230
1.0
 70
     9
 71
     3
 72
   140
 73
   136
 74
     0
 42
0.0000000001
 43
0.0000000001
 40
0.0
 40
0.0
 40
0.0
 40
0.0
 40
1.0
 40
1.0
 40
1.0
 40
2.0
 40
2.0
 40
2.0
 40
3.0
 40
3.0
 40
3.0
 40
4.0
 40
4.0
 40
4.0
 40
5.0
 40
5.0
 40
5.0
 40
6.0
 40
6.0
 40
6.0
 40
7.0
 40
7.0
 40
7.0
 40
8.0
 40
8.0
 40
8.0
 40
9.0
 40
9.0
 40
9.0
 40
10.0
 40
10.0
 40
10.0
 40
11.0
 40
11.0
 40
11.0
 40
12.0
 40
12.0
 40
12.0
 40
13.0
 40
13.0
 40
13.0
 40
14.0
 40
14.0
 40
14.0
 40
15.0
 40
15.0
 40
15.0
 40
16.0
 40
16.0
 40
16.0
 40
17.0
 40
17.0
 40
17.0
 40
18.0
 40
18.0
 40
18.0
 40
19.0
 40
19.0
 40
19.0
 40
20.0
 40
20.0
 40
20.0
 40
21.0
 40
21.0
 40
21.0
 40
22.0
 40
22.0
 40
22.0
 40
23.0
 40
23.0
 40
23.0
 40
24.0
 40
24.0
 40
24.0
 40
25.0
 40
25.0
 40
25.0
 40
26.0
 40
26.0
 40
26.0
 40
27.0
 40
27.0
 40
27.0
 40
28.0
 40
28.0
 40
28.0
 40
29.0
 40
29.0
 40
29.0
 40
30.0
 40
30.0
 40
30.0
 40
31.0
 40
31.0
 40
31.0
 40
32.0
 40
32.0
 40
32.0
 40
33.0
 40
33.0
 40
33.0
 40
34.0
 40
34.0
 40
34.0
 40
35.0
 40
35.0
 40
35.0
 40
36.0
 40
36.0
 40
36.0
 40
37.0
 40
37.0
 40
37.0
 40
38.0
 40
38.0
 40
38.0
 40
39.0
 40
39.0
 40
39.0
 40
40.0
 40
40.0
 40
40.0
 40
41.0
 40
41.0
 40
41.0
 40
42.0
 40
42.0
 40
42.0
 40
43.0
 40
43.0
 40
43.0
 40
44.0
 40
44.0
 40
44.0
 40
45.0
 40
45.0
 40
45.0
 40
45.0
 10
1.183784722651378
 20
-2.979705118029919
 30
0.0
 10
1.17810305278307
 20
-2.978438721733962
 30
0.0
 10
1.173841800381827
 20
-2.973715405819323
 30
0.0
 10
1.171009522179398
 20
-2.9655009433591
 30
0.0
 10
1.169743125883441
 20
-2.961410825592439
 30
0.0
 10
1.169109927735462
 20
-2.946744587408248
 30
0.0
 10
1.169109927735462
 20
-2.921502228806502
 30
0.0
 10
1.168793328661447
 20
-2.893110992928339
 30
0.0
 10
1.168322708416376
 20
-2.878923931720969
 30
0.0
 10
1.167698067000098
 20
-2.878923931720969
 30
0.0
 10
1.167056312120419
 20
-2.879557129868948
 30
0.0
 10
1.164147023332386
 20
-2.888387677013699
 30
0.0
 10
1.158944530440951
 20
-2.905415573155222
 30
0.0
 10
1.153733480817714
 20
-2.92244346929672
 30
0.0
 10
1.150499036224017
 20
-2.933652787862254
 30
0.0
 10
1.14924119665976
 20
-2.939009301924847
 30
0.0
 10
1.146083762651616
 20
-2.953196363132216
 30
0.0
 10
1.142772307472366
 20
-2.962044023740418
 30
0.0
 10
1.139306831121959
 20
-2.9655009433591
 30
0.0
 10
1.129526486755215
 20
-2.970549415079453
 30
0.0
 10
1.118488302824314
 20
-2.973390250013608
 30
0.0
 10
1.106183722597456
 20
-2.974023448161586
 30
0.0
 10
1.093879142370547
 20
-2.974656646309565
 30
0.0
 10
1.083003536342466
 20
-2.972294988352233
 30
0.0
 10
1.073539791049761
 20
-2.966921360826189
 30
0.0
 10
1.070698956115582
 20
-2.964730837503439
 30
0.0
 10
1.068251730840971
 20
-2.961479279446267
 30
0.0
 10
1.066206671957641
 20
-2.957218027045023
 30
0.0
 10
1.06414449961086
 20
-2.952973888107256
 30
0.0
 10
1.059814793355775
 20
-2.941850136859026
 30
0.0
 10
1.053191882997225
 20
-2.923863886763809
 30
0.0
 10
1.04246174140855
 20
-2.893590169905185
 30
0.0
 10
1.036472029197966
 20
-2.879557129868948
 30
0.0
 10
1.035214189633734
 20
-2.881764766655149
 30
0.0
 10
1.03457243475403
 20
-2.883972403441323
 30
0.0
 10
1.034341402997344
 20
-2.890903356142138
 30
0.0
 10
1.034503980900202
 20
-2.902574738221043
 30
0.0
 10
1.034658002071334
 20
-2.914246120299973
 30
0.0
 10
1.035214189633734
 20
-2.923863886763809
 30
0.0
 10
1.036155430123977
 20
-2.931445151076053
 30
0.0
 10
1.037729868762186
 20
-2.942483335007004
 30
0.0
 10
1.037182237931498
 20
-2.951621924493995
 30
0.0
 10
1.034503980900202
 20
-2.958878033000549
 30
0.0
 10
1.031817167137167
 20
-2.966134141507078
 30
0.0
 10
1.027239315661934
 20
-2.971353747862015
 30
0.0
 10
1.020778983206229
 20
-2.974502625138433
 30
0.0
 10
1.014310094018797
 20
-2.977651502414851
 30
0.0
 10
1.007772750977538
 20
-2.979790685347198
 30
0.0
 10
1.00114128388725
 20
-2.980885947008573
 30
0.0
 10
0.9945183735286869
 20
-2.981998322133398
 30
0.0
 10
0.9861584466290574
 20
-2.982545952964073
 30
0.0
 10
0.976070059920087
 20
-2.982545952964073
 30
0.0
 10
0.9675475551176001
 20
-2.982220797158359
 30
0.0
 10
0.9608476341734835
 20
-2.981912754816094
 30
0.0
 10
0.9559617403559867
 20
-2.98158759901038
 30
0.0
 10
0.9510672898067644
 20
-2.981279556668116
 30
0.0
 10
0.9446754112048994
 20
-2.980338316177873
 30
0.0
 10
0.9367946612821166
 20
-2.978746764076226
 30
0.0
 10
0.9289053546276084
 20
-2.977172325438004
 30
0.0
 10
0.9225990433430347
 20
-2.974502625138433
 30
0.0
 10
0.9178671706966825
 20
-2.970703436250586
 30
0.0
 10
0.9131352980503177
 20
-2.966921360826189
 30
0.0
 10
0.9098238428710423
 20
-2.962044023740418
 30
0.0
 10
0.9079328051588314
 20
-2.95603719806637
 30
0.0
 10
0.9069915646686013
 20
-2.945324169941159
 30
0.0
 10
0.9112442603381193
 20
-2.910378477558272
 30
0.0
 10
0.9207080056308363
 20
-2.851234347844613
 30
0.0
 10
0.9301717509235661
 20
-2.792107331594428
 30
0.0
 10
0.9391648759711618
 20
-2.743299733809913
 30
0.0
 10
0.9476788240419232
 20
-2.704811554491041
 30
0.0
 10
0.9524106966882881
 20
-2.689974181672242
 30
0.0
 10
0.9587170079728618
 20
-2.680356415208406
 30
0.0
 10
0.96660631462737
 20
-2.67594114163603
 30
0.0
 10
0.9744870645501526
 20
-2.671525868063655
 30
0.0
 10
0.9863124678001895
 20
-2.669010188935216
 30
0.0
 10
1.002091081109218
 20
-2.668376990787237
 30
0.0
 10
1.025750444341017
 20
-2.667743792639258
 30
0.0
 10
1.04246174140855
 20
-2.669403798594758
 30
0.0
 10
1.052242085775257
 20
-2.673339895190287
 30
0.0
 10
1.062022430141963
 20
-2.677293105249266
 30
0.0
 10
1.070228335870461
 20
-2.68651726205356
 30
0.0
 10
1.076851246229011
 20
-2.701012365603193
 30
0.0
 10
1.081583118875376
 20
-2.711434464849591
 30
0.0
 10
1.086623033864018
 20
-2.726733901181786
 30
0.0
 10
1.091988104658361
 20
-2.746910674599702
 30
0.0
 10
1.095453581008769
 20
-2.759540410632325
 30
0.0
 10
1.097507196623812
 20
-2.765838165185161
 30
0.0
 10
1.09814039477179
 20
-2.765838165185161
 30
0.0
 10
1.099090191993784
 20
-2.765838165185161
 30
0.0
 10
1.101605871122198
 20
-2.758428035507499
 30
0.0
 10
1.105713102352334
 20
-2.743607776152152
 30
0.0
 10
1.107912182406784
 20
-2.737926106283844
 30
0.0
 10
1.110282397095842
 20
-2.730430409288878
 30
0.0
 10
1.112806632956006
 20
-2.721120685167281
 30
0.0
 10
1.115330868816171
 20
-2.711828074509159
 30
0.0
 10
1.117375927699514
 20
-2.704417944831498
 30
0.0
 10
1.118958923069435
 20
-2.698890296134297
 30
0.0
 10
1.120533361707657
 20
-2.693379760900547
 30
0.0
 10
1.123528217812892
 20
-2.687698091032239
 30
0.0
 10
1.127952048117044
 20
-2.681862399992774
 30
0.0
 10
1.132367321689394
 20
-2.676026708953309
 30
0.0
 10
1.137886413654844
 20
-2.671525868063655
 30
0.0
 10
1.144509324013395
 20
-2.668376990787237
 30
0.0
 10
1.17699923438997
 20
-2.660795726474967
 30
0.0
 10
1.201762416014894
 20
-2.659067266665639
 30
0.0
 10
1.218807425619868
 20
-2.6631573844323
 30
0.0
 10
1.230786850041012
 20
-2.666648530977883
 30
0.0
 10
1.239685851039616
 20
-2.671046691086808
 30
0.0
 10
1.245538655542481
 20
-2.676420318612877
 30
0.0
 10
1.251357233118495
 20
-2.68177683267547
 30
0.0
 10
1.255704052837043
 20
-2.68870778537631
 30
0.0
 10
1.258544887771222
 20
-2.697230290178797
 30
0.0
 10
1.262635005537857
 20
-2.717424177060188
 30
0.0
 10
1.266194605937269
 20
-2.737532496624276
 30
0.0
 10
1.269189462042605
 20
-2.757555248871085
 30
0.0
 10
1.272184318147891
 20
-2.77759511458137
 30
0.0
 10
1.275418762741588
 20
-2.801639530740986
 30
0.0
 10
1.278892795823745
 20
-2.829722724276886
 30
0.0
 10
1.282349715442402
 20
-2.857788804349335
 30
0.0
 10
1.285190550376581
 20
-2.879385995234365
 30
0.0
 10
1.287398187162731
 20
-2.894531410395403
 30
0.0
 10
1.28803138531071
 20
-2.898313485819799
 30
0.0
 10
1.288818604629846
 20
-2.905415573155222
 30
0.0
 10
1.289776958583539
 20
-2.915820558938169
 30
0.0
 10
1.290718199073782
 20
-2.926242658184592
 30
0.0
 10
1.291813460735132
 20
-2.934440007181365
 30
0.0
 10
1.293079857031089
 20
-2.940429719391936
 30
0.0
 10
1.295920691965269
 20
-2.951793059128577
 30
0.0
 10
1.294893884157722
 20
-2.960298450467613
 30
0.0
 10
1.29001654707195
 20
-2.965980120335946
 30
0.0
 10
1.285122096522728
 20
-2.971661790204279
 30
0.0
 10
1.277301243722073
 20
-2.976231084947762
 30
0.0
 10
1.266588215596837
 20
-2.979705118029919
 30
0.0
 10
1.240404616504848
 20
-2.986002872582755
 30
0.0
 10
1.212800599945795
 20
-2.986002872582755
 30
0.0
 10
1.183784722651378
 20
-2.979705118029919
 30
0.0
  0
HATCH
  5
93
330
8C
100
AcDbEntity
  8
TML FRIENDSGIVING
 62
    20
420
 15817252
440
 33554687
100
AcDbHatch
 10
0.0
 20
0.0
 30
0.0
210
0.0
220
0.0
230
1.0
  2
SOLID
 70
     1
 71
     1
 91
        1
 92
        1
 93
        1
 72
     4
 94
        3
 73
     0
 74
     0
 95
      140
 96
      136
 40
0.0
 40
0.0
 40
0.0
 40
0.0
 40
1.0
 40
1.0
 40
1.0
 40
2.0
 40
2.0
 40
2.0
 40
3.0
 40
3.0
 40
3.0
 40
4.0
 40
4.0
 40
4.0
 40
5.0
 40
5.0
 40
5.0
 40
6.0
 40
6.0
 40
6.0
 40
7.0
 40
7.0
 40
7.0
 40
8.0
 40
8.0
 40
8.0
 40
9.0
 40
9.0
 40
9.0
 40
10.0
 40
10.0
 40
10.0
 40
11.0
 40
11.0
 40
11.0
 40
12.0
 40
12.0
 40
12.0
 40
13.0
 40
13.0
 40
13.0
 40
14.0
 40
14.0
 40
14.0
 40
15.0
 40
15.0
 40
15.0
 40
16.0
 40
16.0
 40
16.0
 40
17.0
 40
17.0
 40
17.0
 40
18.0
 40
18.0
 40
18.0
 40
19.0
 40
19.0
 40
19.0
 40
20.0
 40
20.0
 40
20.0
 40
21.0
 40
21.0
 40
21.0
 40
22.0
 40
22.0
 40
22.0
 40
23.0
 40
23.0
 40
23.0
 40
24.0
 40
24.0
 40
24.0
 40
25.0
 40
25.0
 40
25.0
 40
26.0
 40
26.0
 40
26.0
 40
27.0
 40
27.0
 40
27.0
 40
28.0
 40
28.0
 40
28.0
 40
29.0
 40
29.0
 40
29.0
 40
30.0
 40
30.0
 40
30.0
 40
31.0
 40
31.0
 40
31.0
 40
32.0
 40
32.0
 40
32.0
 40
33.0
 40
33.0
 40
33.0
 40
34.0
 40
34.0
 40
34.0
 40
35.0
 40
35.0
 40
35.0
 40
36.0
 40
36.0
 40
36.0
 40
37.0
 40
37.0
 40
37.0
 40
38.0
 40
38.0
 40
38.0
 40
39.0
 40
39.0
 40
39.0
 40
40.0
 40
40.0
 40
40.0
 40
41.0
 40
41.0
 40
41.0
 40
42.0
 40
42.0
 40
42.0
 40
43.0
 40
43.0
 40
43.0
 40
44.0
 40
44.0
 40
44.0
 40
45.0
 40
45.0
 40
45.0
 40
45.0
 10
1.183784722651378
 20
-2.979705118029919
 10
1.17810305278307
 20
-2.978438721733962
 10
1.173841800381827
 20
-2.973715405819323
 10
1.171009522179398
 20
-2.9655009433591
 10
1.169743125883441
 20
-2.961410825592439
 10
1.169109927735462
 20
-2.946744587408248
 10
1.169109927735462
 20
-2.921502228806502
 10
1.168793328661447
 20
-2.893110992928339
 10
1.168322708416376
 20
-2.878923931720969
 10
1.167698067000098
 20
-2.878923931720969
 10
1.167056312120419
 20
-2.879557129868948
 10
1.164147023332386
 20
-2.888387677013699
 10
1.158944530440951
 20
-2.905415573155222
 10
1.153733480817714
 20
-2.92244346929672
 10
1.150499036224017
 20
-2.933652787862254
 10
1.14924119665976
 20
-2.939009301924847
 10
1.146083762651616
 20
-2.953196363132216
 10
1.142772307472366
 20
-2.962044023740418
 10
1.139306831121959
 20
-2.9655009433591
 10
1.129526486755215
 20
-2.970549415079453
 10
1.118488302824314
 20
-2.973390250013608
 10
1.106183722597456
 20
-2.974023448161586
 10
1.093879142370547
 20
-2.974656646309565
 10
1.083003536342466
 20
-2.972294988352233
 10
1.073539791049761
 20
-2.966921360826189
 10
1.070698956115582
 20
-2.964730837503439
 10
1.068251730840971
 20
-2.961479279446267
 10
1.066206671957641
 20
-2.957218027045023
 10
1.06414449961086
 20
-2.952973888107256
 10
1.059814793355775
 20
-2.941850136859026
 10
1.053191882997225
 20
-2.923863886763809
 10
1.04246174140855
 20
-2.893590169905185
 10
1.036472029197966
 20
-2.879557129868948
 10
1.035214189633734
 20
-2.881764766655149
 10
1.03457243475403
 20
-2.883972403441323
 10
1.034341402997344
 20
-2.890903356142138
 10
1.034503980900202
 20
-2.902574738221043
 10
1.034658002071334
 20
-2.914246120299973
 10
1.035214189633734
 20
-2.923863886763809
 10
1.036155430123977
 20
-2.931445151076053
 10
1.037729868762186
 20
-2.942483335007004
 10
1.037182237931498
 20
-2.951621924493995
 10
1.034503980900202
 20
-2.958878033000549
 10
1.031817167137167
 20
-2.966134141507078
 10
1.027239315661934
 20
-2.971353747862015
 10
1.020778983206229
 20
-2.974502625138433
 10
1.014310094018797
 20
-2.977651502414851
 10
1.007772750977538
 20
-2.979790685347198
 10
1.00114128388725
 20
-2.980885947008573
 10
0.9945183735286869
 20
-2.981998322133398
 10
0.9861584466290574
 20
-2.982545952964073
 10
0.976070059920087
 20
-2.982545952964073
 10
0.9675475551176001
 20
-2.982220797158359
 10
0.9608476341734835
 20
-2.981912754816094
 10
0.9559617403559867
 20
-2.98158759901038
 10
0.9510672898067644
 20
-2.981279556668116
 10
0.9446754112048994
 20
-2.980338316177873
 10
0.9367946612821166
 20
-2.978746764076226
 10
0.9289053546276084
 20
-2.977172325438004
 10
0.9225990433430347
 20
-2.974502625138433
 10
0.9178671706966825
 20
-2.970703436250586
 10
0.9131352980503177
 20
-2.966921360826189
 10
0.9098238428710423
 20
-2.962044023740418
 10
0.9079328051588314
 20
-2.95603719806637
 10
0.9069915646686013
 20
-2.945324169941159
 10
0.9112442603381193
 20
-2.910378477558272
 10
0.9207080056308363
 20
-2.851234347844613
 10
0.9301717509235661
 20
-2.792107331594428
 10
0.9391648759711618
 20
-2.743299733809913
 10
0.9476788240419232
 20
-2.704811554491041
 10
0.9524106966882881
 20
-2.689974181672242
 10
0.9587170079728618
 20
-2.680356415208406
 10
0.96660631462737
 20
-2.67594114163603
 10
0.9744870645501526
 20
-2.671525868063655
 10
0.9863124678001895
 20
-2.669010188935216
 10
1.002091081109218
 20
-2.668376990787237
 10
1.025750444341017
 20
-2.667743792639258
 10
1.04246174140855
 20
-2.669403798594758
 10
1.052242085775257
 20
-2.673339895190287
 10
1.062022430141963
 20
-2.677293105249266
 10
1.070228335870461
 20
-2.68651726205356
 10
1.076851246229011
 20
-2.701012365603193
 10
1.081583118875376
 20
-2.711434464849591
 10
1.086623033864018
 20
-2.726733901181786
 10
1.091988104658361
 20
-2.746910674599702
 10
1.095453581008769
 20
-2.759540410632325
 10
1.097507196623812
 20
-2.765838165185161
 10
1.09814039477179
 20
-2.765838165185161
 10
1.099090191993784
 20
-2.765838165185161
 10
1.101605871122198
 20
-2.758428035507499
 10
1.105713102352334
 20
-2.743607776152152
 10
1.107912182406784
 20
-2.737926106283844
 10
1.110282397095842
 20
-2.730430409288878
 10
1.112806632956006
 20
-2.721120685167281
 10
1.115330868816171
 20
-2.711828074509159
 10
1.117375927699514
 20
-2.704417944831498
 10
1.118958923069435
 20
-2.698890296134297
 10
1.120533361707657
 20
-2.693379760900547
 10
1.123528217812892
 20
-2.687698091032239
 10
1.127952048117044
 20
-2.681862399992774
 10
1.132367321689394
 20
-2.676026708953309
 10
1.137886413654844
 20
-2.671525868063655
 10
1.144509324013395
 20
-2.668376990787237
 10
1.17699923438997
 20
-2.660795726474967
 10
1.201762416014894
 20
-2.659067266665639
 10
1.218807425619868
 20
-2.6631573844323
 10
1.230786850041012
 20
-2.666648530977883
 10
1.239685851039616
 20
-2.671046691086808
 10
1.245538655542481
 20
-2.676420318612877
 10
1.251357233118495
 20
-2.68177683267547
 10
1.255704052837043
 20
-2.68870778537631
 10
1.258544887771222
 20
-2.697230290178797
 10
1.262635005537857
 20
-2.717424177060188
 10
1.266194605937269
 20
-2.737532496624276
 10
1.269189462042605
 20
-2.757555248871085
 10
1.272184318147891
 20
-2.77759511458137
 10
1.275418762741588
 20
-2.801639530740986
 10
1.278892795823745
 20
-2.829722724276886
 10
1.282349715442402
 20
-2.857788804349335
 10
1.285190550376581
 20
-2.879385995234365
 10
1.287398187162731
 20
-2.894531410395403
 10
1.28803138531071
 20
-2.898313485819799
 10
1.288818604629846
 20
-2.905415573155222
 10
1.289776958583539
 20
-2.915820558938169
 10
1.290718199073782
 20
-2.926242658184592
 10
1.291813460735132
 20
-2.934440007181365
 10
1.293079857031089
 20
-2.940429719391936
 10
1.295920691965269
 20
-2.951793059128577
 10
1.294893884157722
 20
-2.960298450467613
 10
1.29001654707195
 20
-2.965980120335946
 10
1.285122096522728
 20
-2.971661790204279
 10
1.277301243722073
 20
-2.976231084947762
 10
1.266588215596837
 20
-2.979705118029919
 10
1.240404616504848
 20
-2.986002872582755
 10
1.212800599945795
 20
-2.986002872582755
 10
1.183784722651378
 20
-2.979705118029919
 97
        0
 97
        1
330
92
 75
     2
 76
     1
 98
        1
 10
0.0
 20
0.0
450
        0
451
        0
460
0.0
461
0.0
452
        0
462
0.0
453
        0
470

  0
SPLINE
  5
94
330
8C
100
AcDbEntity
  8
TML FRIENDSGIVING
100
AcDbSpline
210
0.0
220
0.0
230
1.0
 70
     9
 71
     3
 72
    77
 73
    73
 74
     0
 42
0.0000000001
 43
0.0000000001
 40
0.0
 40
0.0
 40
0.0
 40
0.0
 40
1.0
 40
1.0
 40
1.0
 40
2.0
 40
2.0
 40
2.0
 40
3.0
 40
3.0
 40
3.0
 40
4.0
 40
4.0
 40
4.0
 40
5.0
 40
5.0
 40
5.0
 40
6.0
 40
6.0
 40
6.0
 40
7.0
 40
7.0
 40
7.0
 40
8.0
 40
8.0
 40
8.0
 40
9.0
 40
9.0
 40
9.0
 40
10.0
 40
10.0
 40
10.0
 40
11.0
 40
11.0
 40
11.0
 40
12.0
 40
12.0
 40
12.0
 40
13.0
 40
13.0
 40
13.0
 40
14.0
 40
14.0
 40
14.0
 40
15.0
 40
15.0
 40
15.0
 40
16.0
 40
16.0
 40
16.0
 40
17.0
 40
17.0
 40
17.0
 40
18.0
 40
18.0
 40
18.0
 40
19.0
 40
19.0
 40
19.0
 40
20.0
 40
20.0
 40
20.0
 40
21.0
 40
21.0
 40
21.0
 40
22.0
 40
22.0
 40
22.0
 40
23.0
 40
23.0
 40
23.0
 40
24.0
 40
24.0
 40
24.0
 40
24.0
 10
1.343718595405688
 20
-2.972603030694497
 30
0.0
 10
1.338978166027623
 20
-2.971353747862015
 30
0.0
 10
1.334802480943684
 20
-2.969300132246947
 30
0.0
 10
1.331174426690368
 20
-2.966459297312793
 30
0.0
 10
1.327546372437104
 20
-2.963618462378639
 30
0.0
 10
1.324705537502975
 20
-2.959750819636938
 30
0.0
 10
1.322651921887882
 20
-2.954856369087716
 30
0.0
 10
1.320598306272838
 20
-2.949979032001945
 30
0.0
 10
1.318938300317363
 20
-2.945324169941159
 30
0.0
 10
1.317689017484857
 20
-2.940908896368783
 30
0.0
 10
1.316422621188899
 20
-2.936493622796408
 30
0.0
 10
1.31556694801596
 20
-2.93048679712236
 30
0.0
 10
1.315087771039088
 20
-2.922922646273566
 30
0.0
 10
1.314608594062267
 20
-2.915358495424773
 30
0.0
 10
1.314369005573856
 20
-2.909368783214202
 30
0.0
 10
1.314369005573856
 20
-2.904936396178375
 30
0.0
 10
1.314369005573856
 20
-2.900521122606
 30
0.0
 10
1.31445457289116
 20
-2.894052233418556
 30
0.0
 10
1.314608594062267
 20
-2.885546842079545
 30
0.0
 10
1.314762615233373
 20
-2.877024337277058
 30
0.0
 10
1.314848182550677
 20
-2.871188646237593
 30
0.0
 10
1.314848182550677
 20
-2.868039768961175
 30
0.0
 10
1.315481380698656
 20
-2.787914533047013
 30
0.0
 10
1.316747776994614
 20
-2.737292908135865
 30
0.0
 10
1.318630257975099
 20
-2.716157780764231
 30
0.0
 10
1.319896654271057
 20
-2.703237115852819
 30
0.0
 10
1.322805943059039
 20
-2.693140172412136
 30
0.0
 10
1.327392351265997
 20
-2.685884063905607
 30
0.0
 10
1.331961646009504
 20
-2.678627955399052
 30
0.0
 10
1.338978166027623
 20
-2.673271441336459
 30
0.0
 10
1.348441911320353
 20
-2.669797408254301
 30
0.0
 10
1.383764099899306
 20
-2.660008507155882
 30
0.0
 10
1.409725223966334
 20
-2.659614897496314
 30
0.0
 10
1.426273943130985
 20
-2.668599465812197
 30
0.0
 10
1.442839775759138
 20
-2.677601147591531
 30
0.0
 10
1.451122692073214
 20
-2.696597092030818
 30
0.0
 10
1.451122692073214
 20
-2.72562152605696
 30
0.0
 10
1.451738776757691
 20
-2.743299733809913
 30
0.0
 10
1.451191145927016
 20
-2.766009299819744
 30
0.0
 10
1.449462686117688
 20
-2.793750224086478
 30
0.0
 10
1.447717112844909
 20
-2.821525375280114
 30
0.0
 10
1.445920199181728
 20
-2.844851025974472
 30
0.0
 10
1.444020604737791
 20
-2.863778516559932
 30
0.0
 10
1.444020604737791
 20
-2.863778516559932
 30
0.0
 10
1.441179769803612
 20
-2.892169752438096
 30
0.0
 10
1.441179769803612
 20
-2.892169752438096
 30
0.0
 10
1.461681699027293
 20
-2.88996211565192
 30
0.0
 10
1.474927519744394
 20
-2.888849740527095
 30
0.0
 10
1.480934345418467
 20
-2.888849740527095
 30
0.0
 10
1.503643911428298
 20
-2.887600457694588
 30
0.0
 10
1.515298180043727
 20
-2.89721822415845
 30
0.0
 10
1.515948491655156
 20
-2.917720153382106
 30
0.0
 10
1.515298180043727
 20
-2.938222082605761
 30
0.0
 10
1.50876083700248
 20
-2.953042341961084
 30
0.0
 10
1.496302235604465
 20
-2.962198044911549
 30
0.0
 10
1.483843634206449
 20
-2.971353747862015
 30
0.0
 10
1.46845863055695
 20
-2.976556240753502
 30
0.0
 10
1.45016433811952
 20
-2.977805523585983
 30
0.0
 10
1.446382262695098
 20
-2.977805523585983
 30
0.0
 10
1.439519763848137
 20
-2.977976658220566
 30
0.0
 10
1.429593955042037
 20
-2.97828470056283
 30
0.0
 10
1.419651032772435
 20
-2.978592742905094
 30
0.0
 10
1.412086881923642
 20
-2.978746764076226
 30
0.0
 10
1.406884389032155
 20
-2.978746764076226
 30
0.0
 10
1.401681896140669
 20
-2.978746764076226
 30
0.0
 10
1.394973418464815
 20
-2.978592742905094
 30
0.0
 10
1.386776069468093
 20
-2.97828470056283
 30
0.0
 10
1.378561607007819
 20
-2.977976658220566
 30
0.0
 10
1.370997456159026
 20
-2.977343460072587
 30
0.0
 10
1.364066503458212
 20
-2.976385106118894
 30
0.0
 10
1.357118437293946
 20
-2.975443865628676
 30
0.0
 10
1.350341505764238
 20
-2.974177469332719
 30
0.0
 10
1.343718595405688
 20
-2.972603030694497
 30
0.0
  0
HATCH
  5
95
330
8C
100
AcDbEntity
  8
TML FRIENDSGIVING
 62
    20
420
 15817252
440
 33554687
100
AcDbHatch
 10
0.0
 20
0.0
 30
0.0
210
0.0
220
0.0
230
1.0
  2
SOLID
 70
     1
 71
     1
 91
        1
 92
        1
 93
        1
 72
     4
 94
        3
 73
     0
 74
     0
 95
       77
 96
       73
 40
0.0
 40
0.0
 40
0.0
 40
0.0
 40
1.0
 40
1.0
 40
1.0
 40
2.0
 40
2.0
 40
2.0
 40
3.0
 40
3.0
 40
3.0
 40
4.0
 40
4.0
 40
4.0
 40
5.0
 40
5.0
 40
5.0
 40
6.0
 40
6.0
 40
6.0
 40
7.0
 40
7.0
 40
7.0
 40
8.0
 40
8.0
 40
8.0
 40
9.0
 40
9.0
 40
9.0
 40
10.0
 40
10.0
 40
10.0
 40
11.0
 40
11.0
 40
11.0
 40
12.0
 40
12.0
 40
12.0
 40
13.0
 40
13.0
 40
13.0
 40
14.0
 40
14.0
 40
14.0
 40
15.0
 40
15.0
 40
15.0
 40
16.0
 40
16.0
 40
16.0
 40
17.0
 40
17.0
 40
17.0
 40
18.0
 40
18.0
 40
18.0
 40
19.0
 40
19.0
 40
19.0
 40
20.0
 40
20.0
 40
20.0
 40
21.0
 40
21.0
 40
21.0
 40
22.0
 40
22.0
 40
22.0
 40
23.0
 40
23.0
 40
23.0
 40
24.0
 40
24.0
 40
24.0
 40
24.0
 10
1.343718595405688
 20
-2.972603030694497
 10
1.338978166027623
 20
-2.971353747862015
 10
1.334802480943684
 20
-2.969300132246947
 10
1.331174426690368
 20
-2.966459297312793
 10
1.327546372437104
 20
-2.963618462378639
 10
1.324705537502975
 20
-2.959750819636938
 10
1.322651921887882
 20
-2.954856369087716
 10
1.320598306272838
 20
-2.949979032001945
 10
1.318938300317363
 20
-2.945324169941159
 10
1.317689017484857
 20
-2.940908896368783
 10
1.316422621188899
 20
-2.936493622796408
 10
1.31556694801596
 20
-2.93048679712236
 10
1.315087771039088
 20
-2.922922646273566
 10
1.314608594062267
 20
-2.915358495424773
 10
1.314369005573856
 20
-2.909368783214202
 10
1.314369005573856
 20
-2.904936396178375
 10
1.314369005573856
 20
-2.900521122606
 10
1.31445457289116
 20
-2.894052233418556
 10
1.314608594062267
 20
-2.885546842079545
 10
1.314762615233373
 20
-2.877024337277058
 10
1.314848182550677
 20
-2.871188646237593
 10
1.314848182550677
 20
-2.868039768961175
 10
1.315481380698656
 20
-2.787914533047013
 10
1.316747776994614
 20
-2.737292908135865
 10
1.318630257975099
 20
-2.716157780764231
 10
1.319896654271057
 20
-2.703237115852819
 10
1.322805943059039
 20
-2.693140172412136
 10
1.327392351265997
 20
-2.685884063905607
 10
1.331961646009504
 20
-2.678627955399052
 10
1.338978166027623
 20
-2.673271441336459
 10
1.348441911320353
 20
-2.669797408254301
 10
1.383764099899306
 20
-2.660008507155882
 10
1.409725223966334
 20
-2.659614897496314
 10
1.426273943130985
 20
-2.668599465812197
 10
1.442839775759138
 20
-2.677601147591531
 10
1.451122692073214
 20
-2.696597092030818
 10
1.451122692073214
 20
-2.72562152605696
 10
1.451738776757691
 20
-2.743299733809913
 10
1.451191145927016
 20
-2.766009299819744
 10
1.449462686117688
 20
-2.793750224086478
 10
1.447717112844909
 20
-2.821525375280114
 10
1.445920199181728
 20
-2.844851025974472
 10
1.444020604737791
 20
-2.863778516559932
 10
1.444020604737791
 20
-2.863778516559932
 10
1.441179769803612
 20
-2.892169752438096
 10
1.441179769803612
 20
-2.892169752438096
 10
1.461681699027293
 20
-2.88996211565192
 10
1.474927519744394
 20
-2.888849740527095
 10
1.480934345418467
 20
-2.888849740527095
 10
1.503643911428298
 20
-2.887600457694588
 10
1.515298180043727
 20
-2.89721822415845
 10
1.515948491655156
 20
-2.917720153382106
 10
1.515298180043727
 20
-2.938222082605761
 10
1.50876083700248
 20
-2.953042341961084
 10
1.496302235604465
 20
-2.962198044911549
 10
1.483843634206449
 20
-2.971353747862015
 10
1.46845863055695
 20
-2.976556240753502
 10
1.45016433811952
 20
-2.977805523585983
 10
1.446382262695098
 20
-2.977805523585983
 10
1.439519763848137
 20
-2.977976658220566
 10
1.429593955042037
 20
-2.97828470056283
 10
1.419651032772435
 20
-2.978592742905094
 10
1.412086881923642
 20
-2.978746764076226
 10
1.406884389032155
 20
-2.978746764076226
 10
1.401681896140669
 20
-2.978746764076226
 10
1.394973418464815
 20
-2.978592742905094
 10
1.386776069468093
 20
-2.97828470056283
 10
1.378561607007819
 20
-2.977976658220566
 10
1.370997456159026
 20
-2.977343460072587
 10
1.364066503458212
 20
-2.976385106118894
 10
1.357118437293946
 20
-2.975443865628676
 10
1.350341505764238
 20
-2.974177469332719
 10
1.343718595405688
 20
-2.972603030694497
 97
        0
 97
        1
330
94
 75
     2
 76
     1
 98
        1
 10
0.0
 20
0.0
450
        0
451
        0
460
0.0
461
0.0
452
        0
462
0.0
453
        0
470

  0
ENDBLK
  5
8F
330
8C
100
AcDbEntity
  8
0
100
AcDbBlockEnd
  0
BLOCK
  5
98
330
96
100
AcDbEntity
  8
0
100
AcDbBlockBegin
  2
Block_3
 70
     0
 10
0.0
 20
0.0
 30
0.0
  3
Block_3
  1

  0
SPLINE
  5
9A
330
96
100
AcDbEntity
  8
TML FRIENDSGIVING
100
AcDbSpline
210
0.0
220
0.0
230
1.0
 70
     9
 71
     3
 72
    86
 73
    82
 74
     0
 42
0.0000000001
 43
0.0000000001
 40
0.0
 40
0.0
 40
0.0
 40
0.0
 40
1.0
 40
1.0
 40
1.0
 40
2.0
 40
2.0
 40
2.0
 40
3.0
 40
3.0
 40
3.0
 40
4.0
 40
4.0
 40
4.0
 40
5.0
 40
5.0
 40
5.0
 40
6.0
 40
6.0
 40
6.0
 40
7.0
 40
7.0
 40
7.0
 40
8.0
 40
8.0
 40
8.0
 40
9.0
 40
9.0
 40
9.0
 40
10.0
 40
10.0
 40
10.0
 40
11.0
 40
11.0
 40
11.0
 40
12.0
 40
12.0
 40
12.0
 40
13.0
 40
13.0
 40
13.0
 40
14.0
 40
14.0
 40
14.0
 40
15.0
 40
15.0
 40
15.0
 40
16.0
 40
16.0
 40
16.0
 40
17.0
 40
17.0
 40
17.0
 40
18.0
 40
18.0
 40
18.0
 40
19.0
 40
19.0
 40
19.0
 40
20.0
 40
20.0
 40
20.0
 40
21.0
 40
21.0
 40
21.0
 40
22.0
 40
22.0
 40
22.0
 40
23.0
 40
23.0
 40
23.0
 40
24.0
 40
24.0
 40
24.0
 40
25.0
 40
25.0
 40
25.0
 40
26.0
 40
26.0
 40
26.0
 40
27.0
 40
27.0
 40
27.0
 40
27.0
 10
0.6920400876444117
 20
-3.167957869550112
 30
0.0
 10
0.6910992648829885
 20
-3.167330654375821
 30
0.0
 10
0.6903114214323598
 20
-3.166397480579941
 30
0.0
 10
0.6896918552236128
 20
-3.16514305023136
 30
0.0
 10
0.6890646400493349
 20
-3.163888619882779
 30
0.0
 10
0.6885521593581467
 20
-3.162328230912635
 30
0.0
 10
0.6881620621156041
 20
-3.160446585389788
 30
0.0
 10
0.6877719648730615
 20
-3.158564939866916
 30
0.0
 10
0.6874583572859163
 20
-3.156805677792716
 30
0.0
 10
0.687221239354181
 20
-3.155153501236049
 30
0.0
 10
0.6869917703879765
 20
-3.153516622610494
 30
0.0
 10
0.6868311421116383
 20
-3.151512593639002
 30
0.0
 10
0.6867546524562411
 20
-3.149156712252685
 30
0.0
 10
0.6866705138353002
 20
-3.146816128797404
 30
0.0
 10
0.6866322690076079
 20
-3.145010972929968
 30
0.0
 10
0.6866322690076079
 20
-3.143756542581412
 30
0.0
 10
0.6866322690076079
 20
-3.142502112232806
 30
0.0
 10
0.6866322690076079
 20
-3.140788743951866
 30
0.0
 10
0.6866322690076079
 20
-3.138585841876318
 30
0.0
 10
0.6866322690076079
 20
-3.136398237731883
 30
0.0
 10
0.6866322690076079
 20
-3.135220297038712
 30
0.0
 10
0.6866322690076079
 20
-3.135067317727917
 30
0.0
 10
0.6861656821096555
 20
-3.122064076309824
 30
0.0
 10
0.6860509476265532
 20
-3.107072103851325
 30
0.0
 10
0.6862804165927578
 20
-3.090060804490273
 30
0.0
 10
0.6865175345244931
 20
-3.073064803060308
 30
0.0
 10
0.6876495814244158
 20
-3.058378789223398
 30
0.0
 10
0.6896918552236128
 20
-3.04600276297962
 30
0.0
 10
0.6906326779850486
 20
-3.041306298138023
 30
0.0
 10
0.6914511172978261
 20
-3.037741880196386
 30
0.0
 10
0.692154822127514
 20
-3.035324807085721
 30
0.0
 10
0.6928661759227453
 20
-3.032892436043994
 30
0.0
 10
0.6944648097206078
 20
-3.030261191898211
 30
0.0
 10
0.696973670417732
 20
-3.027446372579485
 30
0.0
 10
0.6994748821493381
 20
-3.024631553260733
 30
0.0
 10
0.702771586297091
 20
-3.022596928427093
 30
0.0
 10
0.706840835964398
 20
-3.021342498078511
 30
0.0
 10
0.7337881415619702
 20
-3.017104971169348
 30
0.0
 10
0.7546239236930508
 20
-3.018129932551725
 30
0.0
 10
0.76934818235764
 20
-3.024386786363467
 30
0.0
 10
0.7767064872071564
 20
-3.027844118787546
 30
0.0
 10
0.7808598754954043
 20
-3.036762812607245
 30
0.0
 10
0.7818006982568401
 20
-3.051173463684689
 30
0.0
 10
0.7821143058439727
 20
-3.058225809912629
 30
0.0
 10
0.7812117279102546
 20
-3.064773324414899
 30
0.0
 10
0.7791006134212037
 20
-3.070800709260462
 30
0.0
 10
0.7769818499665968
 20
-3.076828094106
 30
0.0
 10
0.7741976265100195
 20
-3.080316022392278
 30
0.0
 10
0.770755592017003
 20
-3.081249196188157
 30
0.0
 10
0.7643304609633662
 20
-3.083130841711004
 30
0.0
 10
0.7549298823146526
 20
-3.08337560860827
 30
0.0
 10
0.7425615050364059
 20
-3.08196819894892
 30
0.0
 10
0.7425615050364059
 20
-3.08196819894892
 30
0.0
 10
0.7420872691729099
 20
-3.096761298303363
 30
0.0
 10
0.7420872691729099
 20
-3.096761298303363
 30
0.0
 10
0.7503940457494056
 20
-3.096287062439867
 30
0.0
 10
0.7572475188732899
 20
-3.097709770030329
 30
0.0
 10
0.7626476885445502
 20
-3.100998825212526
 30
0.0
 10
0.7680555071813666
 20
-3.104287880394748
 30
0.0
 10
0.7705184740852676
 20
-3.109917519032225
 30
0.0
 10
0.7700518871873278
 20
-3.117918336987132
 30
0.0
 10
0.7695853002893753
 20
-3.123394996313789
 30
0.0
 10
0.7682467313198787
 20
-3.127632523222978
 30
0.0
 10
0.766059127175418
 20
-3.130600321852524
 30
0.0
 10
0.7644910892397168
 20
-3.132634946686165
 30
0.0
 10
0.7626094437168578
 20
-3.134011760483392
 30
0.0
 10
0.7604218395723971
 20
-3.134715465313067
 30
0.0
 10
0.7582189374968619
 20
-3.135419170142742
 30
0.0
 10
0.7547004133484481
 20
-3.135771022557592
 30
0.0
 10
0.7498433202305251
 20
-3.135771022557592
 30
0.0
 10
0.7498433202305251
 20
-3.135771022557592
 30
0.0
 10
0.7437317967640209
 20
-3.135771022557592
 30
0.0
 10
0.7437317967640209
 20
-3.135771022557592
 30
0.0
 10
0.7446726195254567
 20
-3.14736685431631
 30
0.0
 10
0.7439306698680764
 20
-3.156530315033275
 30
0.0
 10
0.7415059477918805
 20
-3.163261404708514
 30
0.0
 10
0.7390735767501408
 20
-3.169992494383753
 30
0.0
 10
0.7340176105281746
 20
-3.174000552326737
 30
0.0
 10
0.726345698091513
 20
-3.175239684744206
 30
0.0
 10
0.7128758697754922
 20
-3.177274309577872
 30
0.0
 10
0.7014406662931253
 20
-3.174857236467207
 30
0.0
 10
0.6920400876444117
 20
-3.167957869550112
 30
0.0
  0
HATCH
  5
9B
330
96
100
AcDbEntity
  8
TML FRIENDSGIVING
 62
    20
420
 15817252
440
 33554687
100
AcDbHatch
 10
0.0
 20
0.0
 30
0.0
210
0.0
220
0.0
230
1.0
  2
SOLID
 70
     1
 71
     1
 91
        1
 92
        1
 93
        1
 72
     4
 94
        3
 73
     0
 74
     0
 95
       86
 96
       82
 40
0.0
 40
0.0
 40
0.0
 40
0.0
 40
1.0
 40
1.0
 40
1.0
 40
2.0
 40
2.0
 40
2.0
 40
3.0
 40
3.0
 40
3.0
 40
4.0
 40
4.0
 40
4.0
 40
5.0
 40
5.0
 40
5.0
 40
6.0
 40
6.0
 40
6.0
 40
7.0
 40
7.0
 40
7.0
 40
8.0
 40
8.0
 40
8.0
 40
9.0
 40
9.0
 40
9.0
 40
10.0
 40
10.0
 40
10.0
 40
11.0
 40
11.0
 40
11.0
 40
12.0
 40
12.0
 40
12.0
 40
13.0
 40
13.0
 40
13.0
 40
14.0
 40
14.0
 40
14.0
 40
15.0
 40
15.0
 40
15.0
 40
16.0
 40
16.0
 40
16.0
 40
17.0
 40
17.0
 40
17.0
 40
18.0
 40
18.0
 40
18.0
 40
19.0
 40
19.0
 40
19.0
 40
20.0
 40
20.0
 40
20.0
 40
21.0
 40
21.0
 40
21.0
 40
22.0
 40
22.0
 40
22.0
 40
23.0
 40
23.0
 40
23.0
 40
24.0
 40
24.0
 40
24.0
 40
25.0
 40
25.0
 40
25.0
 40
26.0
 40
26.0
 40
26.0
 40
27.0
 40
27.0
 40
27.0
 40
27.0
 10
0.6920400876444117
 20
-3.167957869550112
 10
0.6910992648829885
 20
-3.167330654375821
 10
0.6903114214323598
 20
-3.166397480579941
 10
0.6896918552236128
 20
-3.16514305023136
 10
0.6890646400493349
 20
-3.163888619882779
 10
0.6885521593581467
 20
-3.162328230912635
 10
0.6881620621156041
 20
-3.160446585389788
 10
0.6877719648730615
 20
-3.158564939866916
 10
0.6874583572859163
 20
-3.156805677792716
 10
0.687221239354181
 20
-3.155153501236049
 10
0.6869917703879765
 20
-3.153516622610494
 10
0.6868311421116383
 20
-3.151512593639002
 10
0.6867546524562411
 20
-3.149156712252685
 10
0.6866705138353002
 20
-3.146816128797404
 10
0.6866322690076079
 20
-3.145010972929968
 10
0.6866322690076079
 20
-3.143756542581412
 10
0.6866322690076079
 20
-3.142502112232806
 10
0.6866322690076079
 20
-3.140788743951866
 10
0.6866322690076079
 20
-3.138585841876318
 10
0.6866322690076079
 20
-3.136398237731883
 10
0.6866322690076079
 20
-3.135220297038712
 10
0.6866322690076079
 20
-3.135067317727917
 10
0.6861656821096555
 20
-3.122064076309824
 10
0.6860509476265532
 20
-3.107072103851325
 10
0.6862804165927578
 20
-3.090060804490273
 10
0.6865175345244931
 20
-3.073064803060308
 10
0.6876495814244158
 20
-3.058378789223398
 10
0.6896918552236128
 20
-3.04600276297962
 10
0.6906326779850486
 20
-3.041306298138023
 10
0.6914511172978261
 20
-3.037741880196386
 10
0.692154822127514
 20
-3.035324807085721
 10
0.6928661759227453
 20
-3.032892436043994
 10
0.6944648097206078
 20
-3.030261191898211
 10
0.696973670417732
 20
-3.027446372579485
 10
0.6994748821493381
 20
-3.024631553260733
 10
0.702771586297091
 20
-3.022596928427093
 10
0.706840835964398
 20
-3.021342498078511
 10
0.7337881415619702
 20
-3.017104971169348
 10
0.7546239236930508
 20
-3.018129932551725
 10
0.76934818235764
 20
-3.024386786363467
 10
0.7767064872071564
 20
-3.027844118787546
 10
0.7808598754954043
 20
-3.036762812607245
 10
0.7818006982568401
 20
-3.051173463684689
 10
0.7821143058439727
 20
-3.058225809912629
 10
0.7812117279102546
 20
-3.064773324414899
 10
0.7791006134212037
 20
-3.070800709260462
 10
0.7769818499665968
 20
-3.076828094106
 10
0.7741976265100195
 20
-3.080316022392278
 10
0.770755592017003
 20
-3.081249196188157
 10
0.7643304609633662
 20
-3.083130841711004
 10
0.7549298823146526
 20
-3.08337560860827
 10
0.7425615050364059
 20
-3.08196819894892
 10
0.7425615050364059
 20
-3.08196819894892
 10
0.7420872691729099
 20
-3.096761298303363
 10
0.7420872691729099
 20
-3.096761298303363
 10
0.7503940457494056
 20
-3.096287062439867
 10
0.7572475188732899
 20
-3.097709770030329
 10
0.7626476885445502
 20
-3.100998825212526
 10
0.7680555071813666
 20
-3.104287880394748
 10
0.7705184740852676
 20
-3.109917519032225
 10
0.7700518871873278
 20
-3.117918336987132
 10
0.7695853002893753
 20
-3.123394996313789
 10
0.7682467313198787
 20
-3.127632523222978
 10
0.766059127175418
 20
-3.130600321852524
 10
0.7644910892397168
 20
-3.132634946686165
 10
0.7626094437168578
 20
-3.134011760483392
 10
0.7604218395723971
 20
-3.134715465313067
 10
0.7582189374968619
 20
-3.135419170142742
 10
0.7547004133484481
 20
-3.135771022557592
 10
0.7498433202305251
 20
-3.135771022557592
 10
0.7498433202305251
 20
-3.135771022557592
 10
0.7437317967640209
 20
-3.135771022557592
 10
0.7437317967640209
 20
-3.135771022557592
 10
0.7446726195254567
 20
-3.14736685431631
 10
0.7439306698680764
 20
-3.156530315033275
 10
0.7415059477918805
 20
-3.163261404708514
 10
0.7390735767501408
 20
-3.169992494383753
 10
0.7340176105281746
 20
-3.174000552326737
 10
0.726345698091513
 20
-3.175239684744206
 10
0.7128758697754922
 20
-3.177274309577872
 10
0.7014406662931253
 20
-3.174857236467207
 10
0.6920400876444117
 20
-3.167957869550112
 97
        0
 97
        1
330
9A
 75
     2
 76
     1
 98
        1
 10
0.0
 20
0.0
450
        0
451
        0
460
0.0
461
0.0
452
        0
462
0.0
453
        0
470

  0
SPLINE
  5
9C
330
96
100
AcDbEntity
  8
TML FRIENDSGIVING
100
AcDbSpline
210
0.0
220
0.0
230
1.0
 70
     9
 71
     3
 72
    26
 73
    22
 74
     0
 42
0.0000000001
 43
0.0000000001
 40
0.0
 40
0.0
 40
0.0
 40
0.0
 40
1.0
 40
1.0
 40
1.0
 40
2.0
 40
2.0
 40
2.0
 40
3.0
 40
3.0
 40
3.0
 40
4.0
 40
4.0
 40
4.0
 40
5.0
 40
5.0
 40
5.0
 40
6.0
 40
6.0
 40
6.0
 40
7.0
 40
7.0
 40
7.0
 40
7.0
 10
0.8478265687984832
 20
-3.082427136881328
 30
0.0
 10
0.8484537839727737
 20
-3.081799921707038
 30
0.0
 10
0.8493181170787995
 20
-3.080943237566543
 30
0.0
 10
0.8504119191510174
 20
-3.079841786528782
 30
0.0
 10
0.8515057212232603
 20
-3.078755633422108
 30
0.0
 10
0.8529590246758464
 20
-3.076246772724946
 30
0.0
 10
0.8547565315777648
 20
-3.072330502368458
 30
0.0
 10
0.8565616874452263
 20
-3.068414232011946
 30
0.0
 10
0.8574642653789446
 20
-3.064253194758167
 30
0.0
 10
0.8574642653789446
 20
-3.059877986469271
 30
0.0
 10
0.8574642653789446
 20
-3.056588931287049
 30
0.0
 10
0.856714666756021
 20
-3.054034176796676
 30
0.0
 10
0.8552307674412606
 20
-3.052229020929214
 30
0.0
 10
0.8537392191609443
 20
-3.05043916299284
 30
0.0
 10
0.8522094260529355
 20
-3.049460095403749
 30
0.0
 10
0.8506490370827652
 20
-3.049291818161842
 30
0.0
 10
0.8506490370827652
 20
-3.049291818161842
 30
0.0
 10
0.8485302736281836
 20
-3.049062349195638
 30
0.0
 10
0.8485302736281836
 20
-3.049062349195638
 30
0.0
 10
0.8485302736281836
 20
-3.049062349195638
 30
0.0
 10
0.8478265687984832
 20
-3.082427136881328
 30
0.0
 10
0.8478265687984832
 20
-3.082427136881328
 30
0.0
  0
SPLINE
  5
9D
330
96
100
AcDbEntity
  8
TML FRIENDSGIVING
100
AcDbSpline
210
0.0
220
0.0
230
1.0
 70
     9
 71
     3
 72
    89
 73
    85
 74
     0
 42
0.0000000001
 43
0.0000000001
 40
0.0
 40
0.0
 40
0.0
 40
0.0
 40
1.0
 40
1.0
 40
1.0
 40
2.0
 40
2.0
 40
2.0
 40
3.0
 40
3.0
 40
3.0
 40
4.0
 40
4.0
 40
4.0
 40
5.0
 40
5.0
 40
5.0
 40
6.0
 40
6.0
 40
6.0
 40
7.0
 40
7.0
 40
7.0
 40
8.0
 40
8.0
 40
8.0
 40
9.0
 40
9.0
 40
9.0
 40
10.0
 40
10.0
 40
10.0
 40
11.0
 40
11.0
 40
11.0
 40
12.0
 40
12.0
 40
12.0
 40
13.0
 40
13.0
 40
13.0
 40
14.0
 40
14.0
 40
14.0
 40
15.0
 40
15.0
 40
15.0
 40
16.0
 40
16.0
 40
16.0
 40
17.0
 40
17.0
 40
17.0
 40
18.0
 40
18.0
 40
18.0
 40
19.0
 40
19.0
 40
19.0
 40
20.0
 40
20.0
 40
20.0
 40
21.0
 40
21.0
 40
21.0
 40
22.0
 40
22.0
 40
22.0
 40
23.0
 40
23.0
 40
23.0
 40
24.0
 40
24.0
 40
24.0
 40
25.0
 40
25.0
 40
25.0
 40
26.0
 40
26.0
 40
26.0
 40
27.0
 40
27.0
 40
27.0
 40
28.0
 40
28.0
 40
28.0
 40
28.0
 10
0.8036537928047284
 20
-3.014290151850622
 30
0.0
 10
0.8280922377051764
 20
-3.007084826311888
 30
0.0
 10
0.8527601515718162
 20
-3.008094489763177
 30
0.0
 10
0.8776728323357348
 20
-3.017349738066614
 30
0.0
 10
0.8883201923674732
 20
-3.021418987733947
 30
0.0
 10
0.8966652137716613
 20
-3.027767629132161
 30
0.0
 10
0.9026925986172248
 20
-3.036380364330246
 30
0.0
 10
0.9087199834627755
 20
-3.044993099528356
 30
0.0
 10
0.911741324851088
 20
-3.054233049900731
 30
0.0
 10
0.911741324851088
 20
-3.064100215447372
 30
0.0
 10
0.911741324851088
 20
-3.072881227887339
 30
0.0
 10
0.9092707089816688
 20
-3.081065621015189
 30
0.0
 10
0.9043371262083358
 20
-3.088653394830897
 30
0.0
 10
0.8994035434350154
 20
-3.096256466577718
 30
0.0
 10
0.8920834834131913
 20
-3.102161467974636
 30
0.0
 10
0.8823692971773324
 20
-3.106398994883799
 30
0.0
 10
0.8829965123516103
 20
-3.1067202514365
 30
0.0
 10
0.8844804116663832
 20
-3.107378062472939
 30
0.0
 10
0.8868362930527256
 20
-3.108403023855316
 30
0.0
 10
0.8891845254734992
 20
-3.109412687306606
 30
0.0
 10
0.890668424788272
 20
-3.110085796274132
 30
0.0
 10
0.8912956399625626
 20
-3.110391754895721
 30
0.0
 10
0.8919228551368531
 20
-3.110713011448397
 30
0.0
 10
0.8931390406577166
 20
-3.111340226622688
 30
0.0
 10
0.8949441965251656
 20
-3.112273400418568
 30
0.0
 10
0.8967417034270713
 20
-3.113206574214447
 30
0.0
 10
0.8980343786033447
 20
-3.114002066630619
 30
0.0
 10
0.8988145730884298
 20
-3.11462928180491
 30
0.0
 10
0.8996024165390457
 20
-3.115256496979175
 30
0.0
 10
0.9006197289558787
 20
-3.116143776981844
 30
0.0
 10
0.9018741593044346
 20
-3.117321717675015
 30
0.0
 10
0.9031209406874722
 20
-3.118499658368186
 30
0.0
 10
0.9041382531042927
 20
-3.119708194923507
 30
0.0
 10
0.9049260965549212
 20
-3.120962625272063
 30
0.0
 10
0.9057062910400064
 20
-3.122217055620618
 30
0.0
 10
0.9064941344906223
 20
-3.123639763211081
 30
0.0
 10
0.9072743289757074
 20
-3.125200152181251
 30
0.0
 10
0.9096302103620372
 20
-3.130049596333643
 30
0.0
 10
0.9109534814004721
 20
-3.135924001868387
 30
0.0
 10
0.9112747379531482
 20
-3.142823368785532
 30
0.0
 10
0.9115806965747498
 20
-3.149554458460745
 30
0.0
 10
0.9113894724362504
 20
-3.154495690199635
 30
0.0
 10
0.9106857676065626
 20
-3.15761646813995
 30
0.0
 10
0.9099820627768874
 20
-3.160752544011377
 30
0.0
 10
0.9085287593242759
 20
-3.163659150916575
 30
0.0
 10
0.9063335062142844
 20
-3.166320990924507
 30
0.0
 10
0.9033580586192076
 20
-3.169610046106729
 30
0.0
 10
0.89834798619049
 20
-3.17156818128501
 30
0.0
 10
0.8912956399625626
 20
-3.172195396459275
 30
0.0
 10
0.8684252329978283
 20
-3.17453597991453
 30
0.0
 10
0.8568370502046667
 20
-3.168279126102788
 30
0.0
 10
0.8565234426175088
 20
-3.153394239161848
 30
0.0
 10
0.8558962274432309
 20
-3.138356372910139
 30
0.0
 10
0.8522094260529355
 20
-3.1309215784052
 30
0.0
 10
0.845478336377697
 20
-3.131074557715995
 30
0.0
 10
0.8451647287905517
 20
-3.13248196737537
 30
0.0
 10
0.8448511212034064
 20
-3.137805647391259
 30
0.0
 10
0.8445375136162738
 20
-3.147045597763634
 30
0.0
 10
0.8439102984419958
 20
-3.157234019862951
 30
0.0
 10
0.8428929860251628
 20
-3.163337894363899
 30
0.0
 10
0.8414855763657998
 20
-3.165372519197565
 30
0.0
 10
0.8374086777329491
 20
-3.171017455766104
 30
0.0
 10
0.828398196326778
 20
-3.173296847497062
 30
0.0
 10
0.814461781112805
 20
-3.172195396459275
 30
0.0
 10
0.8110120976542576
 20
-3.172042417148481
 30
0.0
 10
0.8082355231632238
 20
-3.171797650251214
 30
0.0
 10
0.806116759708617
 20
-3.1714916916296
 30
0.0
 10
0.804005645219566
 20
-3.171170435076924
 30
0.0
 10
0.8013361562460911
 20
-3.170543219902608
 30
0.0
 10
0.7981312396848227
 20
-3.169610046106729
 30
0.0
 10
0.7949186741579979
 20
-3.168661574379787
 30
0.0
 10
0.7924480582885659
 20
-3.167147079202853
 30
0.0
 10
0.7907270410420577
 20
-3.165020666782715
 30
0.0
 10
0.7890060237955493
 20
-3.162909552293664
 30
0.0
 10
0.7880652010341135
 20
-3.160201818492497
 30
0.0
 10
0.7879122217233317
 20
-3.156912763310275
 30
0.0
 10
0.7879122217233317
 20
-3.156912763310275
 30
0.0
 10
0.7874379858598357
 20
-3.099591415553176
 30
0.0
 10
0.7874379858598357
 20
-3.099591415553176
 30
0.0
 10
0.7872773575834975
 20
-3.064023725791962
 30
0.0
 10
0.7873614962044383
 20
-3.042560728486629
 30
0.0
 10
0.7876751037915836
 20
-3.0352024236371
 30
0.0
 10
0.7884552982766687
 20
-3.024386786363467
 30
0.0
 10
0.7937866272580752
 20
-3.017426227722024
 30
0.0
 10
0.8036537928047284
 20
-3.014290151850622
 30
0.0
  0
HATCH
  5
9E
330
96
100
AcDbEntity
  8
TML FRIENDSGIVING
 62
    20
420
 15817252
440
 33554687
100
AcDbHatch
 10
0.0
 20
0.0
 30
0.0
210
0.0
220
0.0
230
1.0
  2
SOLID
 70
     1
 71
     1
 91
        2
 92
        1
 93
        1
 72
     4
 94
        3
 73
     0
 74
     0
 95
       26
 96
       22
 40
0.0
 40
0.0
 40
0.0
 40
0.0
 40
1.0
 40
1.0
 40
1.0
 40
2.0
 40
2.0
 40
2.0
 40
3.0
 40
3.0
 40
3.0
 40
4.0
 40
4.0
 40
4.0
 40
5.0
 40
5.0
 40
5.0
 40
6.0
 40
6.0
 40
6.0
 40
7.0
 40
7.0
 40
7.0
 40
7.0
 10
0.8478265687984832
 20
-3.082427136881328
 10
0.8484537839727737
 20
-3.081799921707038
 10
0.8493181170787995
 20
-3.080943237566543
 10
0.8504119191510174
 20
-3.079841786528782
 10
0.8515057212232603
 20
-3.078755633422108
 10
0.8529590246758464
 20
-3.076246772724946
 10
0.8547565315777648
 20
-3.072330502368458
 10
0.8565616874452263
 20
-3.068414232011946
 10
0.8574642653789446
 20
-3.064253194758167
 10
0.8574642653789446
 20
-3.059877986469271
 10
0.8574642653789446
 20
-3.056588931287049
 10
0.856714666756021
 20
-3.054034176796676
 10
0.8552307674412606
 20
-3.052229020929214
 10
0.8537392191609443
 20
-3.05043916299284
 10
0.8522094260529355
 20
-3.049460095403749
 10
0.8506490370827652
 20
-3.049291818161842
 10
0.8506490370827652
 20
-3.049291818161842
 10
0.8485302736281836
 20
-3.049062349195638
 10
0.8485302736281836
 20
-3.049062349195638
 10
0.8485302736281836
 20
-3.049062349195638
 10
0.8478265687984832
 20
-3.082427136881328
 10
0.8478265687984832
 20
-3.082427136881328
 97
        0
 97
        1
330
9C
 92
        1
 93
        1
 72
     4
 94
        3
 73
     0
 74
     0
 95
       89
 96
       85
 40
0.0
 40
0.0
 40
0.0
 40
0.0
 40
1.0
 40
1.0
 40
1.0
 40
2.0
 40
2.0
 40
2.0
 40
3.0
 40
3.0
 40
3.0
 40
4.0
 40
4.0
 40
4.0
 40
5.0
 40
5.0
 40
5.0
 40
6.0
 40
6.0
 40
6.0
 40
7.0
 40
7.0
 40
7.0
 40
8.0
 40
8.0
 40
8.0
 40
9.0
 40
9.0
 40
9.0
 40
10.0
 40
10.0
 40
10.0
 40
11.0
 40
11.0
 40
11.0
 40
12.0
 40
12.0
 40
12.0
 40
13.0
 40
13.0
 40
13.0
 40
14.0
 40
14.0
 40
14.0
 40
15.0
 40
15.0
 40
15.0
 40
16.0
 40
16.0
 40
16.0
 40
17.0
 40
17.0
 40
17.0
 40
18.0
 40
18.0
 40
18.0
 40
19.0
 40
19.0
 40
19.0
 40
20.0
 40
20.0
 40
20.0
 40
21.0
 40
21.0
 40
21.0
 40
22.0
 40
22.0
 40
22.0
 40
23.0
 40
23.0
 40
23.0
 40
24.0
 40
24.0
 40
24.0
 40
25.0
 40
25.0
 40
25.0
 40
26.0
 40
26.0
 40
26.0
 40
27.0
 40
27.0
 40
27.0
 40
28.0
 40
28.0
 40
28.0
 40
28.0
 10
0.8036537928047284
 20
-3.014290151850622
 10
0.8280922377051764
 20
-3.007084826311888
 10
0.8527601515718162
 20
-3.008094489763177
 10
0.8776728323357348
 20
-3.017349738066614
 10
0.8883201923674732
 20
-3.021418987733947
 10
0.8966652137716613
 20
-3.027767629132161
 10
0.9026925986172248
 20
-3.036380364330246
 10
0.9087199834627755
 20
-3.044993099528356
 10
0.911741324851088
 20
-3.054233049900731
 10
0.911741324851088
 20
-3.064100215447372
 10
0.911741324851088
 20
-3.072881227887339
 10
0.9092707089816688
 20
-3.081065621015189
 10
0.9043371262083358
 20
-3.088653394830897
 10
0.8994035434350154
 20
-3.096256466577718
 10
0.8920834834131913
 20
-3.102161467974636
 10
0.8823692971773324
 20
-3.106398994883799
 10
0.8829965123516103
 20
-3.1067202514365
 10
0.8844804116663832
 20
-3.107378062472939
 10
0.8868362930527256
 20
-3.108403023855316
 10
0.8891845254734992
 20
-3.109412687306606
 10
0.890668424788272
 20
-3.110085796274132
 10
0.8912956399625626
 20
-3.110391754895721
 10
0.8919228551368531
 20
-3.110713011448397
 10
0.8931390406577166
 20
-3.111340226622688
 10
0.8949441965251656
 20
-3.112273400418568
 10
0.8967417034270713
 20
-3.113206574214447
 10
0.8980343786033447
 20
-3.114002066630619
 10
0.8988145730884298
 20
-3.11462928180491
 10
0.8996024165390457
 20
-3.115256496979175
 10
0.9006197289558787
 20
-3.116143776981844
 10
0.9018741593044346
 20
-3.117321717675015
 10
0.9031209406874722
 20
-3.118499658368186
 10
0.9041382531042927
 20
-3.119708194923507
 10
0.9049260965549212
 20
-3.120962625272063
 10
0.9057062910400064
 20
-3.122217055620618
 10
0.9064941344906223
 20
-3.123639763211081
 10
0.9072743289757074
 20
-3.125200152181251
 10
0.9096302103620372
 20
-3.130049596333643
 10
0.9109534814004721
 20
-3.135924001868387
 10
0.9112747379531482
 20
-3.142823368785532
 10
0.9115806965747498
 20
-3.149554458460745
 10
0.9113894724362504
 20
-3.154495690199635
 10
0.9106857676065626
 20
-3.15761646813995
 10
0.9099820627768874
 20
-3.160752544011377
 10
0.9085287593242759
 20
-3.163659150916575
 10
0.9063335062142844
 20
-3.166320990924507
 10
0.9033580586192076
 20
-3.169610046106729
 10
0.89834798619049
 20
-3.17156818128501
 10
0.8912956399625626
 20
-3.172195396459275
 10
0.8684252329978283
 20
-3.17453597991453
 10
0.8568370502046667
 20
-3.168279126102788
 10
0.8565234426175088
 20
-3.153394239161848
 10
0.8558962274432309
 20
-3.138356372910139
 10
0.8522094260529355
 20
-3.1309215784052
 10
0.845478336377697
 20
-3.131074557715995
 10
0.8451647287905517
 20
-3.13248196737537
 10
0.8448511212034064
 20
-3.137805647391259
 10
0.8445375136162738
 20
-3.147045597763634
 10
0.8439102984419958
 20
-3.157234019862951
 10
0.8428929860251628
 20
-3.163337894363899
 10
0.8414855763657998
 20
-3.165372519197565
 10
0.8374086777329491
 20
-3.171017455766104
 10
0.828398196326778
 20
-3.173296847497062
 10
0.814461781112805
 20
-3.172195396459275
 10
0.8110120976542576
 20
-3.172042417148481
 10
0.8082355231632238
 20
-3.171797650251214
 10
0.806116759708617
 20
-3.1714916916296
 10
0.804005645219566
 20
-3.171170435076924
 10
0.8013361562460911
 20
-3.170543219902608
 10
0.7981312396848227
 20
-3.169610046106729
 10
0.7949186741579979
 20
-3.168661574379787
 10
0.7924480582885659
 20
-3.167147079202853
 10
0.7907270410420577
 20
-3.165020666782715
 10
0.7890060237955493
 20
-3.162909552293664
 10
0.7880652010341135
 20
-3.160201818492497
 10
0.7879122217233317
 20
-3.156912763310275
 10
0.7879122217233317
 20
-3.156912763310275
 10
0.7874379858598357
 20
-3.099591415553176
 10
0.7874379858598357
 20
-3.099591415553176
 10
0.7872773575834975
 20
-3.064023725791962
 10
0.7873614962044383
 20
-3.042560728486629
 10
0.7876751037915836
 20
-3.0352024236371
 10
0.7884552982766687
 20
-3.024386786363467
 10
0.7937866272580752
 20
-3.017426227722024
 10
0.8036537928047284
 20
-3.014290151850622
 97
        0
 97
        1
330
9D
 75
     2
 76
     1
 98
        1
 10
0.0
 20
0.0
450
        0
451
        0
460
0.0
461
0.0
452
        0
462
0.0
453
        0
470

  0
SPLINE
  5
9F
330
96
100
AcDbEntity
  8
TML FRIENDSGIVING
100
AcDbSpline
210
0.0
220
0.0
230
1.0
 70
     9
 71
     3
 72
    62
 73
    58
 74
     0
 42
0.0000000001
 43
0.0000000001
 40
0.0
 40
0.0
 40
0.0
 40
0.0
 40
1.0
 40
1.0
 40
1.0
 40
2.0
 40
2.0
 40
2.0
 40
3.0
 40
3.0
 40
3.0
 40
4.0
 40
4.0
 40
4.0
 40
5.0
 40
5.0
 40
5.0
 40
6.0
 40
6.0
 40
6.0
 40
7.0
 40
7.0
 40
7.0
 40
8.0
 40
8.0
 40
8.0
 40
9.0
 40
9.0
 40
9.0
 40
10.0
 40
10.0
 40
10.0
 40
11.0
 40
11.0
 40
11.0
 40
12.0
 40
12.0
 40
12.0
 40
13.0
 40
13.0
 40
13.0
 40
14.0
 40
14.0
 40
14.0
 40
15.0
 40
15.0
 40
15.0
 40
16.0
 40
16.0
 40
16.0
 40
17.0
 40
17.0
 40
17.0
 40
18.0
 40
18.0
 40
18.0
 40
19.0
 40
19.0
 40
19.0
 40
19.0
 10
0.9422912932180274
 20
-3.172654334391659
 30
0.0
 10
0.9339845166415569
 20
-3.17156818128501
 30
0.0
 10
0.9275670345534511
 20
-3.168202636447378
 30
0.0
 10
0.9230235490226606
 20
-3.162557699878839
 30
0.0
 10
0.920201080738391
 20
-3.158794408833121
 30
0.0
 10
0.9184800634918827
 20
-3.154495690199635
 30
0.0
 10
0.9178528483175922
 20
-3.14963094811613
 30
0.0
 10
0.9172256331433016
 20
-3.144781503963763
 30
0.0
 10
0.9172256331433016
 20
-3.134746061175216
 30
0.0
 10
0.9178528483175922
 20
-3.119555215612712
 30
0.0
 10
0.9186330428026899
 20
-3.100922335557141
 30
0.0
 10
0.9191072786661607
 20
-3.08501248723385
 30
0.0
 10
0.9192602579769678
 20
-3.071856266504987
 30
0.0
 10
0.9195738655641005
 20
-3.05242789403327
 30
0.0
 10
0.9205146883255237
 20
-3.040373124342143
 30
0.0
 10
0.9220827262612374
 20
-3.035676659500571
 30
0.0
 10
0.9263126042048826
 20
-3.024080827741878
 30
0.0
 10
0.9358661621643907
 20
-3.017808675999049
 30
0.0
 10
0.9507510491053304
 20
-3.016875502203118
 30
0.0
 10
0.9537264967004071
 20
-3.016875502203118
 30
0.0
 10
0.9564648263637359
 20
-3.017181460824733
 30
0.0
 10
0.9589736870608728
 20
-3.017808675999049
 30
0.0
 10
0.9614748987924661
 20
-3.018435891173314
 30
0.0
 10
0.9635936622470605
 20
-3.019460852555665
 30
0.0
 10
0.9653146794935688
 20
-3.020868262215041
 30
0.0
 10
0.9670433457056207
 20
-3.022275671874417
 30
0.0
 10
0.9685654898480859
 20
-3.023575996016208
 30
0.0
 10
0.9698964098520516
 20
-3.024738638778292
 30
0.0
 10
0.9712273298560173
 20
-3.025916579471463
 30
0.0
 10
0.9722828871005427
 20
-3.027675841545689
 30
0.0
 10
0.973070730551184
 20
-3.030031722932032
 30
0.0
 10
0.9738509250362564
 20
-3.032387604318374
 30
0.0
 10
0.9744857891760778
 20
-3.034253951910133
 30
0.0
 10
0.9749523760740178
 20
-3.035676659500571
 30
0.0
 10
0.9754189629719576
 20
-3.037084069159921
 30
0.0
 10
0.9757708153868204
 20
-3.039271673304382
 30
0.0
 10
0.9760079333185432
 20
-3.042254769865015
 30
0.0
 10
0.9762450512502912
 20
-3.045222568494535
 30
0.0
 10
0.9763980305610983
 20
-3.047303087121437
 30
0.0
 10
0.976482169182039
 20
-3.048481027814609
 30
0.0
 10
0.9765586588374365
 20
-3.04965896850778
 30
0.0
 10
0.9765969036651288
 20
-3.051800678858979
 30
0.0
 10
0.9765969036651288
 20
-3.054936754730407
 30
0.0
 10
0.9765969036651288
 20
-3.058072830601834
 30
0.0
 10
0.9765969036651288
 20
-3.05995447612468
 30
0.0
 10
0.9765969036651288
 20
-3.060581691298946
 30
0.0
 10
0.9769105112522741
 20
-3.081096216877363
 30
0.0
 10
0.9780808029799016
 20
-3.098719433481619
 30
0.0
 10
0.9801230767790986
 20
-3.113451341111739
 30
0.0
 10
0.9823106809235468
 20
-3.128489207363473
 30
0.0
 10
0.9826242885106921
 20
-3.140161528777575
 30
0.0
 10
0.9810638995405218
 20
-3.148453007422984
 30
0.0
 10
0.9791822540176756
 20
-3.157386999173745
 30
0.0
 10
0.9744857891760778
 20
-3.163934513676041
 30
0.0
 10
0.9669592070846798
 20
-3.168080252998732
 30
0.0
 10
0.9594402739588126
 20
-3.172225992321449
 30
0.0
 10
0.9512176360032702
 20
-3.173755785429445
 30
0.0
 10
0.9422912932180274
 20
-3.172654334391659
 30
0.0
  0
HATCH
  5
A0
330
96
100
AcDbEntity
  8
TML FRIENDSGIVING
 62
    20
420
 15817252
440
 33554687
100
AcDbHatch
 10
0.0
 20
0.0
 30
0.0
210
0.0
220
0.0
230
1.0
  2
SOLID
 70
     1
 71
     1
 91
        1
 92
        1
 93
        1
 72
     4
 94
        3
 73
     0
 74
     0
 95
       62
 96
       58
 40
0.0
 40
0.0
 40
0.0
 40
0.0
 40
1.0
 40
1.0
 40
1.0
 40
2.0
 40
2.0
 40
2.0
 40
3.0
 40
3.0
 40
3.0
 40
4.0
 40
4.0
 40
4.0
 40
5.0
 40
5.0
 40
5.0
 40
6.0
 40
6.0
 40
6.0
 40
7.0
 40
7.0
 40
7.0
 40
8.0
 40
8.0
 40
8.0
 40
9.0
 40
9.0
 40
9.0
 40
10.0
 40
10.0
 40
10.0
 40
11.0
 40
11.0
 40
11.0
 40
12.0
 40
12.0
 40
12.0
 40
13.0
 40
13.0
 40
13.0
 40
14.0
 40
14.0
 40
14.0
 40
15.0
 40
15.0
 40
15.0
 40
16.0
 40
16.0
 40
16.0
 40
17.0
 40
17.0
 40
17.0
 40
18.0
 40
18.0
 40
18.0
 40
19.0
 40
19.0
 40
19.0
 40
19.0
 10
0.9422912932180274
 20
-3.172654334391659
 10
0.9339845166415569
 20
-3.17156818128501
 10
0.9275670345534511
 20
-3.168202636447378
 10
0.9230235490226606
 20
-3.162557699878839
 10
0.920201080738391
 20
-3.158794408833121
 10
0.9184800634918827
 20
-3.154495690199635
 10
0.9178528483175922
 20
-3.14963094811613
 10
0.9172256331433016
 20
-3.144781503963763
 10
0.9172256331433016
 20
-3.134746061175216
 10
0.9178528483175922
 20
-3.119555215612712
 10
0.9186330428026899
 20
-3.100922335557141
 10
0.9191072786661607
 20
-3.08501248723385
 10
0.9192602579769678
 20
-3.071856266504987
 10
0.9195738655641005
 20
-3.05242789403327
 10
0.9205146883255237
 20
-3.040373124342143
 10
0.9220827262612374
 20
-3.035676659500571
 10
0.9263126042048826
 20
-3.024080827741878
 10
0.9358661621643907
 20
-3.017808675999049
 10
0.9507510491053304
 20
-3.016875502203118
 10
0.9537264967004071
 20
-3.016875502203118
 10
0.9564648263637359
 20
-3.017181460824733
 10
0.9589736870608728
 20
-3.017808675999049
 10
0.9614748987924661
 20
-3.018435891173314
 10
0.9635936622470605
 20
-3.019460852555665
 10
0.9653146794935688
 20
-3.020868262215041
 10
0.9670433457056207
 20
-3.022275671874417
 10
0.9685654898480859
 20
-3.023575996016208
 10
0.9698964098520516
 20
-3.024738638778292
 10
0.9712273298560173
 20
-3.025916579471463
 10
0.9722828871005427
 20
-3.027675841545689
 10
0.973070730551184
 20
-3.030031722932032
 10
0.9738509250362564
 20
-3.032387604318374
 10
0.9744857891760778
 20
-3.034253951910133
 10
0.9749523760740178
 20
-3.035676659500571
 10
0.9754189629719576
 20
-3.037084069159921
 10
0.9757708153868204
 20
-3.039271673304382
 10
0.9760079333185432
 20
-3.042254769865015
 10
0.9762450512502912
 20
-3.045222568494535
 10
0.9763980305610983
 20
-3.047303087121437
 10
0.976482169182039
 20
-3.048481027814609
 10
0.9765586588374365
 20
-3.04965896850778
 10
0.9765969036651288
 20
-3.051800678858979
 10
0.9765969036651288
 20
-3.054936754730407
 10
0.9765969036651288
 20
-3.058072830601834
 10
0.9765969036651288
 20
-3.05995447612468
 10
0.9765969036651288
 20
-3.060581691298946
 10
0.9769105112522741
 20
-3.081096216877363
 10
0.9780808029799016
 20
-3.098719433481619
 10
0.9801230767790986
 20
-3.113451341111739
 10
0.9823106809235468
 20
-3.128489207363473
 10
0.9826242885106921
 20
-3.140161528777575
 10
0.9810638995405218
 20
-3.148453007422984
 10
0.9791822540176756
 20
-3.157386999173745
 10
0.9744857891760778
 20
-3.163934513676041
 10
0.9669592070846798
 20
-3.168080252998732
 10
0.9594402739588126
 20
-3.172225992321449
 10
0.9512176360032702
 20
-3.173755785429445
 10
0.9422912932180274
 20
-3.172654334391659
 97
        0
 97
        1
330
9F
 75
     2
 76
     1
 98
        1
 10
0.0
 20
0.0
450
        0
451
        0
460
0.0
461
0.0
452
        0
462
0.0
453
        0
470

  0
SPLINE
  5
A1
330
96
100
AcDbEntity
  8
TML FRIENDSGIVING
100
AcDbSpline
210
0.0
220
0.0
230
1.0
 70
     9
 71
     3
 72
    89
 73
    85
 74
     0
 42
0.0000000001
 43
0.0000000001
 40
0.0
 40
0.0
 40
0.0
 40
0.0
 40
1.0
 40
1.0
 40
1.0
 40
2.0
 40
2.0
 40
2.0
 40
3.0
 40
3.0
 40
3.0
 40
4.0
 40
4.0
 40
4.0
 40
5.0
 40
5.0
 40
5.0
 40
6.0
 40
6.0
 40
6.0
 40
7.0
 40
7.0
 40
7.0
 40
8.0
 40
8.0
 40
8.0
 40
9.0
 40
9.0
 40
9.0
 40
10.0
 40
10.0
 40
10.0
 40
11.0
 40
11.0
 40
11.0
 40
12.0
 40
12.0
 40
12.0
 40
13.0
 40
13.0
 40
13.0
 40
14.0
 40
14.0
 40
14.0
 40
15.0
 40
15.0
 40
15.0
 40
16.0
 40
16.0
 40
16.0
 40
17.0
 40
17.0
 40
17.0
 40
18.0
 40
18.0
 40
18.0
 40
19.0
 40
19.0
 40
19.0
 40
20.0
 40
20.0
 40
20.0
 40
21.0
 40
21.0
 40
21.0
 40
22.0
 40
22.0
 40
22.0
 40
23.0
 40
23.0
 40
23.0
 40
24.0
 40
24.0
 40
24.0
 40
25.0
 40
25.0
 40
25.0
 40
26.0
 40
26.0
 40
26.0
 40
27.0
 40
27.0
 40
27.0
 40
28.0
 40
28.0
 40
28.0
 40
28.0
 10
0.9953980609625558
 20
-3.160201818492497
 30
0.0
 10
0.9913211623297177
 20
-3.151130145361978
 30
0.0
 10
0.9893630271514741
 20
-3.133659908068541
 30
0.0
 10
0.9895236554278122
 20
-3.107806404543175
 30
0.0
 10
0.9896766347386067
 20
-3.08196819894892
 30
0.0
 10
0.991634769916863
 20
-3.05932726095039
 30
0.0
 10
0.9953980609625558
 20
-3.039898888478672
 30
0.0
 10
0.9974326857962219
 20
-3.031133173969768
 30
0.0
 10
1.000484623046683
 20
-3.025411747745819
 30
0.0
 10
1.004561521679534
 20
-3.022749907737887
 30
0.0
 10
1.008630771346841
 20
-3.020088067729956
 30
0.0
 10
1.015285371366669
 20
-3.01860416841517
 30
0.0
 10
1.024532970704601
 20
-3.018282911862494
 30
0.0
 10
1.040511659717746
 20
-3.017502717377434
 30
0.0
 10
1.055312408037732
 20
-3.018359401517904
 30
0.0
 10
1.068942864630091
 20
-3.020868262215041
 30
0.0
 10
1.075207367407364
 20
-3.021648456700126
 30
0.0
 10
1.079674363282757
 20
-3.025564727056639
 30
0.0
 10
1.082336203290689
 20
-3.032617073284553
 30
0.0
 10
1.084531456400731
 20
-3.039516440201673
 30
0.0
 10
1.083820102605487
 20
-3.046629978153911
 30
0.0
 10
1.080225088801638
 20
-3.054003580934527
 30
0.0
 10
1.078022186726116
 20
-3.057919851291015
 30
0.0
 10
1.074580152233099
 20
-3.060505201643561
 30
0.0
 10
1.069883687391514
 20
-3.061759631992117
 30
0.0
 10
1.067535454970728
 20
-3.062539826477227
 30
0.0
 10
1.064628848065505
 20
-3.062968168547437
 30
0.0
 10
1.061186813572476
 20
-3.063044658202847
 30
0.0
 10
1.057737130113928
 20
-3.063121147858257
 30
0.0
 10
1.054845821139792
 20
-3.062922274754226
 30
0.0
 10
1.052497588718994
 20
-3.062463336821792
 30
0.0
 10
1.052497588718994
 20
-3.062463336821792
 30
0.0
 10
1.049200884571241
 20
-3.061989100958321
 30
0.0
 10
1.049200884571241
 20
-3.061989100958321
 30
0.0
 10
1.049200884571241
 20
-3.061989100958321
 30
0.0
 10
1.048267710775348
 20
-3.069745152015937
 30
0.0
 10
1.048267710775348
 20
-3.069745152015937
 30
0.0
 10
1.052803547340595
 20
-3.069898131326731
 30
0.0
 10
1.057308788043681
 20
-3.070800709260462
 30
0.0
 10
1.061775783919061
 20
-3.072437587886017
 30
0.0
 10
1.066242779794454
 20
-3.074089764442684
 30
0.0
 10
1.069095843940885
 20
-3.076246772724946
 30
0.0
 10
1.070350274289467
 20
-3.078908612732902
 30
0.0
 10
1.071291097050877
 20
-3.081570452740834
 30
0.0
 10
1.07168119429342
 20
-3.085456127235172
 30
0.0
 10
1.071528214982625
 20
-3.090535040353769
 30
0.0
 10
1.071367586706274
 20
-3.095629251403427
 30
0.0
 10
1.070587392221189
 20
-3.0992701590005
 30
0.0
 10
1.069179982561826
 20
-3.10145776314496
 30
0.0
 10
1.06729833703898
 20
-3.104746818327182
 30
0.0
 10
1.062907830818997
 20
-3.10679674109191
 30
0.0
 10
1.056016112867407
 20
-3.10757693557697
 30
0.0
 10
1.054295095620899
 20
-3.10772991488779
 30
0.0
 10
1.052574078374391
 20
-3.107852298336436
 30
0.0
 10
1.050853061127883
 20
-3.10792878799182
 30
0.0
 10
1.049124394915831
 20
-3.10800527764723
 30
0.0
 10
1.047793474911865
 20
-3.108035873509404
 30
0.0
 10
1.046852652150442
 20
-3.108035873509404
 30
0.0
 10
1.046852652150442
 20
-3.108035873509404
 30
0.0
 10
1.045445242491079
 20
-3.108035873509404
 30
0.0
 10
1.045445242491079
 20
-3.108035873509404
 30
0.0
 10
1.045131634903933
 20
-3.109305601789022
 30
0.0
 10
1.044978655593139
 20
-3.111018970070012
 30
0.0
 10
1.044978655593139
 20
-3.113206574214447
 30
0.0
 10
1.044978655593139
 20
-3.11618967077508
 30
0.0
 10
1.045284614214741
 20
-3.117918336987132
 30
0.0
 10
1.045911829389019
 20
-3.118377274919541
 30
0.0
 10
1.046539044563296
 20
-3.118851510783012
 30
0.0
 10
1.048420690086155
 20
-3.118928000438396
 30
0.0
 10
1.05155676595757
 20
-3.118622041816832
 30
0.0
 10
1.065179573584386
 20
-3.118147805953336
 30
0.0
 10
1.074350683266894
 20
-3.120304814235623
 30
0.0
 10
1.079047148108492
 20
-3.12507776873263
 30
0.0
 10
1.083743612950052
 20
-3.129866021160675
 30
0.0
 10
1.084921553643248
 20
-3.13883060877361
 30
0.0
 10
1.082573321222437
 20
-3.151986829502472
 30
0.0
 10
1.081158262597543
 20
-3.159192155041182
 30
0.0
 10
1.079123637763877
 20
-3.164209876435456
 30
0.0
 10
1.076461797755945
 20
-3.167024695754207
 30
0.0
 10
1.072545527399445
 20
-3.17094096611072
 30
0.0
 10
1.066196886001219
 20
-3.173679295774061
 30
0.0
 10
1.057431171492314
 20
-3.175239684744206
 30
0.0
 10
1.021863481731113
 20
-3.178849996479104
 30
0.0
 10
1.001188327876371
 20
-3.17383227508483
 30
0.0
 10
0.9953980609625558
 20
-3.160201818492497
 30
0.0
  0
HATCH
  5
A2
330
96
100
AcDbEntity
  8
TML FRIENDSGIVING
 62
    20
420
 15817252
440
 33554687
100
AcDbHatch
 10
0.0
 20
0.0
 30
0.0
210
0.0
220
0.0
230
1.0
  2
SOLID
 70
     1
 71
     1
 91
        1
 92
        1
 93
        1
 72
     4
 94
        3
 73
     0
 74
     0
 95
       89
 96
       85
 40
0.0
 40
0.0
 40
0.0
 40
0.0
 40
1.0
 40
1.0
 40
1.0
 40
2.0
 40
2.0
 40
2.0
 40
3.0
 40
3.0
 40
3.0
 40
4.0
 40
4.0
 40
4.0
 40
5.0
 40
5.0
 40
5.0
 40
6.0
 40
6.0
 40
6.0
 40
7.0
 40
7.0
 40
7.0
 40
8.0
 40
8.0
 40
8.0
 40
9.0
 40
9.0
 40
9.0
 40
10.0
 40
10.0
 40
10.0
 40
11.0
 40
11.0
 40
11.0
 40
12.0
 40
12.0
 40
12.0
 40
13.0
 40
13.0
 40
13.0
 40
14.0
 40
14.0
 40
14.0
 40
15.0
 40
15.0
 40
15.0
 40
16.0
 40
16.0
 40
16.0
 40
17.0
 40
17.0
 40
17.0
 40
18.0
 40
18.0
 40
18.0
 40
19.0
 40
19.0
 40
19.0
 40
20.0
 40
20.0
 40
20.0
 40
21.0
 40
21.0
 40
21.0
 40
22.0
 40
22.0
 40
22.0
 40
23.0
 40
23.0
 40
23.0
 40
24.0
 40
24.0
 40
24.0
 40
25.0
 40
25.0
 40
25.0
 40
26.0
 40
26.0
 40
26.0
 40
27.0
 40
27.0
 40
27.0
 40
28.0
 40
28.0
 40
28.0
 40
28.0
 10
0.9953980609625558
 20
-3.160201818492497
 10
0.9913211623297177
 20
-3.151130145361978
 10
0.9893630271514741
 20
-3.133659908068541
 10
0.9895236554278122
 20
-3.107806404543175
 10
0.9896766347386067
 20
-3.08196819894892
 10
0.991634769916863
 20
-3.05932726095039
 10
0.9953980609625558
 20
-3.039898888478672
 10
0.9974326857962219
 20
-3.031133173969768
 10
1.000484623046683
 20
-3.025411747745819
 10
1.004561521679534
 20
-3.022749907737887
 10
1.008630771346841
 20
-3.020088067729956
 10
1.015285371366669
 20
-3.01860416841517
 10
1.024532970704601
 20
-3.018282911862494
 10
1.040511659717746
 20
-3.017502717377434
 10
1.055312408037732
 20
-3.018359401517904
 10
1.068942864630091
 20
-3.020868262215041
 10
1.075207367407364
 20
-3.021648456700126
 10
1.079674363282757
 20
-3.025564727056639
 10
1.082336203290689
 20
-3.032617073284553
 10
1.084531456400731
 20
-3.039516440201673
 10
1.083820102605487
 20
-3.046629978153911
 10
1.080225088801638
 20
-3.054003580934527
 10
1.078022186726116
 20
-3.057919851291015
 10
1.074580152233099
 20
-3.060505201643561
 10
1.069883687391514
 20
-3.061759631992117
 10
1.067535454970728
 20
-3.062539826477227
 10
1.064628848065505
 20
-3.062968168547437
 10
1.061186813572476
 20
-3.063044658202847
 10
1.057737130113928
 20
-3.063121147858257
 10
1.054845821139792
 20
-3.062922274754226
 10
1.052497588718994
 20
-3.062463336821792
 10
1.052497588718994
 20
-3.062463336821792
 10
1.049200884571241
 20
-3.061989100958321
 10
1.049200884571241
 20
-3.061989100958321
 10
1.049200884571241
 20
-3.061989100958321
 10
1.048267710775348
 20
-3.069745152015937
 10
1.048267710775348
 20
-3.069745152015937
 10
1.052803547340595
 20
-3.069898131326731
 10
1.057308788043681
 20
-3.070800709260462
 10
1.061775783919061
 20
-3.072437587886017
 10
1.066242779794454
 20
-3.074089764442684
 10
1.069095843940885
 20
-3.076246772724946
 10
1.070350274289467
 20
-3.078908612732902
 10
1.071291097050877
 20
-3.081570452740834
 10
1.07168119429342
 20
-3.085456127235172
 10
1.071528214982625
 20
-3.090535040353769
 10
1.071367586706274
 20
-3.095629251403427
 10
1.070587392221189
 20
-3.0992701590005
 10
1.069179982561826
 20
-3.10145776314496
 10
1.06729833703898
 20
-3.104746818327182
 10
1.062907830818997
 20
-3.10679674109191
 10
1.056016112867407
 20
-3.10757693557697
 10
1.054295095620899
 20
-3.10772991488779
 10
1.052574078374391
 20
-3.107852298336436
 10
1.050853061127883
 20
-3.10792878799182
 10
1.049124394915831
 20
-3.10800527764723
 10
1.047793474911865
 20
-3.108035873509404
 10
1.046852652150442
 20
-3.108035873509404
 10
1.046852652150442
 20
-3.108035873509404
 10
1.045445242491079
 20
-3.108035873509404
 10
1.045445242491079
 20
-3.108035873509404
 10
1.045131634903933
 20
-3.109305601789022
 10
1.044978655593139
 20
-3.111018970070012
 10
1.044978655593139
 20
-3.113206574214447
 10
1.044978655593139
 20
-3.11618967077508
 10
1.045284614214741
 20
-3.117918336987132
 10
1.045911829389019
 20
-3.118377274919541
 10
1.046539044563296
 20
-3.118851510783012
 10
1.048420690086155
 20
-3.118928000438396
 10
1.05155676595757
 20
-3.118622041816832
 10
1.065179573584386
 20
-3.118147805953336
 10
1.074350683266894
 20
-3.120304814235623
 10
1.079047148108492
 20
-3.12507776873263
 10
1.083743612950052
 20
-3.129866021160675
 10
1.084921553643248
 20
-3.13883060877361
 10
1.082573321222437
 20
-3.151986829502472
 10
1.081158262597543
 20
-3.159192155041182
 10
1.079123637763877
 20
-3.164209876435456
 10
1.076461797755945
 20
-3.167024695754207
 10
1.072545527399445
 20
-3.17094096611072
 10
1.066196886001219
 20
-3.173679295774061
 10
1.057431171492314
 20
-3.175239684744206
 10
1.021863481731113
 20
-3.178849996479104
 10
1.001188327876371
 20
-3.17383227508483
 10
0.9953980609625558
 20
-3.160201818492497
 97
        0
 97
        1
330
A1
 75
     2
 76
     1
 98
        1
 10
0.0
 20
0.0
450
        0
451
        0
460
0.0
461
0.0
452
        0
462
0.0
453
        0
470

  0
SPLINE
  5
A3
330
96
100
AcDbEntity
  8
TML FRIENDSGIVING
100
AcDbSpline
210
0.0
220
0.0
230
1.0
 70
     9
 71
     3
 72
   104
 73
   100
 74
     0
 42
0.0000000001
 43
0.0000000001
 40
0.0
 40
0.0
 40
0.0
 40
0.0
 40
1.0
 40
1.0
 40
1.0
 40
2.0
 40
2.0
 40
2.0
 40
3.0
 40
3.0
 40
3.0
 40
4.0
 40
4.0
 40
4.0
 40
5.0
 40
5.0
 40
5.0
 40
6.0
 40
6.0
 40
6.0
 40
7.0
 40
7.0
 40
7.0
 40
8.0
 40
8.0
 40
8.0
 40
9.0
 40
9.0
 40
9.0
 40
10.0
 40
10.0
 40
10.0
 40
11.0
 40
11.0
 40
11.0
 40
12.0
 40
12.0
 40
12.0
 40
13.0
 40
13.0
 40
13.0
 40
14.0
 40
14.0
 40
14.0
 40
15.0
 40
15.0
 40
15.0
 40
16.0
 40
16.0
 40
16.0
 40
17.0
 40
17.0
 40
17.0
 40
18.0
 40
18.0
 40
18.0
 40
19.0
 40
19.0
 40
19.0
 40
20.0
 40
20.0
 40
20.0
 40
21.0
 40
21.0
 40
21.0
 40
22.0
 40
22.0
 40
22.0
 40
23.0
 40
23.0
 40
23.0
 40
24.0
 40
24.0
 40
24.0
 40
25.0
 40
25.0
 40
25.0
 40
26.0
 40
26.0
 40
26.0
 40
27.0
 40
27.0
 40
27.0
 40
28.0
 40
28.0
 40
28.0
 40
29.0
 40
29.0
 40
29.0
 40
30.0
 40
30.0
 40
30.0
 40
31.0
 40
31.0
 40
31.0
 40
32.0
 40
32.0
 40
32.0
 40
33.0
 40
33.0
 40
33.0
 40
33.0
 10
1.161051707663318
 20
-3.163261404708514
 30
0.0
 10
1.160263864212689
 20
-3.161548036427524
 30
0.0
 10
1.159093572485037
 20
-3.158519046073681
 30
0.0
 10
1.157525534549323
 20
-3.154220327440169
 30
0.0
 10
1.15595749661366
 20
-3.149906310875596
 30
0.0
 10
1.155100812473139
 20
-3.147443343971695
 30
0.0
 10
1.154940184196826
 20
-3.146816128797404
 30
0.0
 10
1.152438972465208
 20
-3.140238018432985
 30
0.0
 10
1.151023913840314
 20
-3.136948963250763
 30
0.0
 10
1.150710306253181
 20
-3.136948963250763
 30
0.0
 10
1.150557326942362
 20
-3.136948963250763
 30
0.0
 10
1.150480837286926
 20
-3.137254921872353
 30
0.0
 10
1.150480837286926
 20
-3.137882137046643
 30
0.0
 10
1.150320209010614
 20
-3.139289546706019
 30
0.0
 10
1.150128984872127
 20
-3.142272643266626
 30
0.0
 10
1.149891866940379
 20
-3.146816128797404
 30
0.0
 10
1.149654749008631
 20
-3.151359614328182
 30
0.0
 10
1.149379386249216
 20
-3.154954628132018
 30
0.0
 10
1.149065778662033
 20
-3.15761646813995
 30
0.0
 10
1.148285584176947
 20
-3.168906341277053
 30
0.0
 10
1.144055706233302
 20
-3.175086705433436
 30
0.0
 10
1.136376144831097
 20
-3.176188156471173
 30
0.0
 10
1.133400697236033
 20
-3.176662392334669
 30
0.0
 10
1.128352379979585
 20
-3.176922457163022
 30
0.0
 10
1.121223544096311
 20
-3.177014244749519
 30
0.0
 10
1.114094708212986
 20
-3.177090734404903
 30
0.0
 10
1.10880927302479
 20
-3.176968350956258
 30
0.0
 10
1.10535958956623
 20
-3.176662392334669
 30
0.0
 10
1.100816104035452
 20
-3.176188156471173
 30
0.0
 10
1.097687677129569
 20
-3.173205059910565
 30
0.0
 10
1.095966659883086
 20
-3.167728400583882
 30
0.0
 10
1.094237993671008
 20
-3.162083464015343
 30
0.0
 10
1.093381309530539
 20
-3.143878926030058
 30
0.0
 10
1.093381309530539
 20
-3.113099488696889
 30
0.0
 10
1.093381309530539
 20
-3.082320051363744
 30
0.0
 10
1.094475111602756
 20
-3.055089734041201
 30
0.0
 10
1.096670364712736
 20
-3.031439132591382
 30
0.0
 10
1.097289930921508
 20
-3.025335258090434
 30
0.0
 10
1.101167956450303
 20
-3.021189518767717
 30
0.0
 10
1.108296792333627
 20
-3.018986616692195
 30
0.0
 10
1.115425628216952
 20
-3.016799012547734
 30
0.0
 10
1.122669198583379
 20
-3.015850540820767
 30
0.0
 10
1.130035152398401
 20
-3.016171797373443
 30
0.0
 10
1.133324207580648
 20
-3.016324776684263
 30
0.0
 10
1.13618492069261
 20
-3.016982587720702
 30
0.0
 10
1.138609642768793
 20
-3.018160528413873
 30
0.0
 10
1.141042013810521
 20
-3.019338469107019
 30
0.0
 10
1.143267862782724
 20
-3.021189518767717
 30
0.0
 10
1.145310136581883
 20
-3.023683081533767
 30
0.0
 10
1.147344761415549
 20
-3.026191942230929
 30
0.0
 10
1.149027533834365
 20
-3.028624313272656
 30
0.0
 10
1.150358453838331
 20
-3.030964896727911
 30
0.0
 10
1.151689373842297
 20
-3.033320778114254
 30
0.0
 10
1.153571019365143
 20
-3.036762812607245
 30
0.0
 10
1.15600339040687
 20
-3.041306298138023
 30
0.0
 10
1.158428112483054
 20
-3.045849783668851
 30
0.0
 10
1.160585120765366
 20
-3.049689564369928
 30
0.0
 10
1.162459117322669
 20
-3.052825640241356
 30
0.0
 10
1.162780373875345
 20
-3.05250438368868
 30
0.0
 10
1.162780373875345
 20
-3.048511623676757
 30
0.0
 10
1.162459117322669
 20
-3.040847360205639
 30
0.0
 10
1.162459117322669
 20
-3.033795013977724
 30
0.0
 10
1.162657990426699
 20
-3.028823186376687
 30
0.0
 10
1.16305573663481
 20
-3.025916579471463
 30
0.0
 10
1.163438184911784
 20
-3.023025270497353
 30
0.0
 10
1.163958314568541
 20
-3.021143624974481
 30
0.0
 10
1.164585529742806
 20
-3.020286940833986
 30
0.0
 10
1.165197446986035
 20
-3.019414958762429
 30
0.0
 10
1.166620154576472
 20
-3.018435891173314
 30
0.0
 10
1.168807758720908
 20
-3.017349738066614
 30
0.0
 10
1.175232889774532
 20
-3.014687898058683
 30
0.0
 10
1.182009873243057
 20
-3.013509957365512
 30
0.0
 10
1.189138709126331
 20
-3.013815915987126
 30
0.0
 10
1.196267545009656
 20
-3.014137172539802
 30
0.0
 10
1.202249036062009
 20
-3.016018818062674
 30
0.0
 10
1.207113778145463
 20
-3.019460852555665
 30
0.0
 10
1.211488986434334
 20
-3.022596928427093
 30
0.0
 10
1.214395593339556
 20
-3.026712071887636
 30
0.0
 10
1.215803002998907
 20
-3.031790985006232
 30
0.0
 10
1.217210412658308
 20
-3.036885196055891
 30
0.0
 10
1.218067096798778
 20
-3.047731429191672
 30
0.0
 10
1.218388353351454
 20
-3.064344982344664
 30
0.0
 10
1.21870960990413
 20
-3.084385272059585
 30
0.0
 10
1.218342459558243
 20
-3.103584175565073
 30
0.0
 10
1.217332796106953
 20
-3.121911096999029
 30
0.0
 10
1.216307834724577
 20
-3.140238018432985
 30
0.0
 10
1.214869829203053
 20
-3.152843513642967
 30
0.0
 10
1.212988183680206
 20
-3.159742880560088
 30
0.0
 10
1.21110653815736
 20
-3.166626949546121
 30
0.0
 10
1.207588014008908
 20
-3.17133871231878
 30
0.0
 10
1.202417313303865
 20
-3.17383227508483
 30
0.0
 10
1.198179786394676
 20
-3.175407961986113
 30
0.0
 10
1.193483321553079
 20
-3.176341135781992
 30
0.0
 10
1.188312620848036
 20
-3.176662392334669
 30
0.0
 10
1.183141920142942
 20
-3.176968350956258
 30
0.0
 10
1.17786413392034
 20
-3.176065773022527
 30
0.0
 10
1.172448666317955
 20
-3.173954658533476
 30
0.0
 10
1.167048496646707
 20
-3.171843544044425
 30
0.0
 10
1.163254609738841
 20
-3.168279126102788
 30
0.0
 10
1.161051707663318
 20
-3.163261404708514
 30
0.0
  0
HATCH
  5
A4
330
96
100
AcDbEntity
  8
TML FRIENDSGIVING
 62
    20
420
 15817252
440
 33554687
100
AcDbHatch
 10
0.0
 20
0.0
 30
0.0
210
0.0
220
0.0
230
1.0
  2
SOLID
 70
     1
 71
     1
 91
        1
 92
        1
 93
        1
 72
     4
 94
        3
 73
     0
 74
     0
 95
      104
 96
      100
 40
0.0
 40
0.0
 40
0.0
 40
0.0
 40
1.0
 40
1.0
 40
1.0
 40
2.0
 40
2.0
 40
2.0
 40
3.0
 40
3.0
 40
3.0
 40
4.0
 40
4.0
 40
4.0
 40
5.0
 40
5.0
 40
5.0
 40
6.0
 40
6.0
 40
6.0
 40
7.0
 40
7.0
 40
7.0
 40
8.0
 40
8.0
 40
8.0
 40
9.0
 40
9.0
 40
9.0
 40
10.0
 40
10.0
 40
10.0
 40
11.0
 40
11.0
 40
11.0
 40
12.0
 40
12.0
 40
12.0
 40
13.0
 40
13.0
 40
13.0
 40
14.0
 40
14.0
 40
14.0
 40
15.0
 40
15.0
 40
15.0
 40
16.0
 40
16.0
 40
16.0
 40
17.0
 40
17.0
 40
17.0
 40
18.0
 40
18.0
 40
18.0
 40
19.0
 40
19.0
 40
19.0
 40
20.0
 40
20.0
 40
20.0
 40
21.0
 40
21.0
 40
21.0
 40
22.0
 40
22.0
 40
22.0
 40
23.0
 40
23.0
 40
23.0
 40
24.0
 40
24.0
 40
24.0
 40
25.0
 40
25.0
 40
25.0
 40
26.0
 40
26.0
 40
26.0
 40
27.0
 40
27.0
 40
27.0
 40
28.0
 40
28.0
 40
28.0
 40
29.0
 40
29.0
 40
29.0
 40
30.0
 40
30.0
 40
30.0
 40
31.0
 40
31.0
 40
31.0
 40
32.0
 40
32.0
 40
32.0
 40
33.0
 40
33.0
 40
33.0
 40
33.0
 10
1.161051707663318
 20
-3.163261404708514
 10
1.160263864212689
 20
-3.161548036427524
 10
1.159093572485037
 20
-3.158519046073681
 10
1.157525534549323
 20
-3.154220327440169
 10
1.15595749661366
 20
-3.149906310875596
 10
1.155100812473139
 20
-3.147443343971695
 10
1.154940184196826
 20
-3.146816128797404
 10
1.152438972465208
 20
-3.140238018432985
 10
1.151023913840314
 20
-3.136948963250763
 10
1.150710306253181
 20
-3.136948963250763
 10
1.150557326942362
 20
-3.136948963250763
 10
1.150480837286926
 20
-3.137254921872353
 10
1.150480837286926
 20
-3.137882137046643
 10
1.150320209010614
 20
-3.139289546706019
 10
1.150128984872127
 20
-3.142272643266626
 10
1.149891866940379
 20
-3.146816128797404
 10
1.149654749008631
 20
-3.151359614328182
 10
1.149379386249216
 20
-3.154954628132018
 10
1.149065778662033
 20
-3.15761646813995
 10
1.148285584176947
 20
-3.168906341277053
 10
1.144055706233302
 20
-3.175086705433436
 10
1.136376144831097
 20
-3.176188156471173
 10
1.133400697236033
 20
-3.176662392334669
 10
1.128352379979585
 20
-3.176922457163022
 10
1.121223544096311
 20
-3.177014244749519
 10
1.114094708212986
 20
-3.177090734404903
 10
1.10880927302479
 20
-3.176968350956258
 10
1.10535958956623
 20
-3.176662392334669
 10
1.100816104035452
 20
-3.176188156471173
 10
1.097687677129569
 20
-3.173205059910565
 10
1.095966659883086
 20
-3.167728400583882
 10
1.094237993671008
 20
-3.162083464015343
 10
1.093381309530539
 20
-3.143878926030058
 10
1.093381309530539
 20
-3.113099488696889
 10
1.093381309530539
 20
-3.082320051363744
 10
1.094475111602756
 20
-3.055089734041201
 10
1.096670364712736
 20
-3.031439132591382
 10
1.097289930921508
 20
-3.025335258090434
 10
1.101167956450303
 20
-3.021189518767717
 10
1.108296792333627
 20
-3.018986616692195
 10
1.115425628216952
 20
-3.016799012547734
 10
1.122669198583379
 20
-3.015850540820767
 10
1.130035152398401
 20
-3.016171797373443
 10
1.133324207580648
 20
-3.016324776684263
 10
1.13618492069261
 20
-3.016982587720702
 10
1.138609642768793
 20
-3.018160528413873
 10
1.141042013810521
 20
-3.019338469107019
 10
1.143267862782724
 20
-3.021189518767717
 10
1.145310136581883
 20
-3.023683081533767
 10
1.147344761415549
 20
-3.026191942230929
 10
1.149027533834365
 20
-3.028624313272656
 10
1.150358453838331
 20
-3.030964896727911
 10
1.151689373842297
 20
-3.033320778114254
 10
1.153571019365143
 20
-3.036762812607245
 10
1.15600339040687
 20
-3.041306298138023
 10
1.158428112483054
 20
-3.045849783668851
 10
1.160585120765366
 20
-3.049689564369928
 10
1.162459117322669
 20
-3.052825640241356
 10
1.162780373875345
 20
-3.05250438368868
 10
1.162780373875345
 20
-3.048511623676757
 10
1.162459117322669
 20
-3.040847360205639
 10
1.162459117322669
 20
-3.033795013977724
 10
1.162657990426699
 20
-3.028823186376687
 10
1.16305573663481
 20
-3.025916579471463
 10
1.163438184911784
 20
-3.023025270497353
 10
1.163958314568541
 20
-3.021143624974481
 10
1.164585529742806
 20
-3.020286940833986
 10
1.165197446986035
 20
-3.019414958762429
 10
1.166620154576472
 20
-3.018435891173314
 10
1.168807758720908
 20
-3.017349738066614
 10
1.175232889774532
 20
-3.014687898058683
 10
1.182009873243057
 20
-3.013509957365512
 10
1.189138709126331
 20
-3.013815915987126
 10
1.196267545009656
 20
-3.014137172539802
 10
1.202249036062009
 20
-3.016018818062674
 10
1.207113778145463
 20
-3.019460852555665
 10
1.211488986434334
 20
-3.022596928427093
 10
1.214395593339556
 20
-3.026712071887636
 10
1.215803002998907
 20
-3.031790985006232
 10
1.217210412658308
 20
-3.036885196055891
 10
1.218067096798778
 20
-3.047731429191672
 10
1.218388353351454
 20
-3.064344982344664
 10
1.21870960990413
 20
-3.084385272059585
 10
1.218342459558243
 20
-3.103584175565073
 10
1.217332796106953
 20
-3.121911096999029
 10
1.216307834724577
 20
-3.140238018432985
 10
1.214869829203053
 20
-3.152843513642967
 10
1.212988183680206
 20
-3.159742880560088
 10
1.21110653815736
 20
-3.166626949546121
 10
1.207588014008908
 20
-3.17133871231878
 10
1.202417313303865
 20
-3.17383227508483
 10
1.198179786394676
 20
-3.175407961986113
 10
1.193483321553079
 20
-3.176341135781992
 10
1.188312620848036
 20
-3.176662392334669
 10
1.183141920142942
 20
-3.176968350956258
 10
1.17786413392034
 20
-3.176065773022527
 10
1.172448666317955
 20
-3.173954658533476
 10
1.167048496646707
 20
-3.171843544044425
 10
1.163254609738841
 20
-3.168279126102788
 10
1.161051707663318
 20
-3.163261404708514
 97
        0
 97
        1
330
A3
 75
     2
 76
     1
 98
        1
 10
0.0
 20
0.0
450
        0
451
        0
460
0.0
461
0.0
452
        0
462
0.0
453
        0
470

  0
SPLINE
  5
A5
330
96
100
AcDbEntity
  8
TML FRIENDSGIVING
100
AcDbSpline
210
0.0
220
0.0
230
1.0
 70
     9
 71
     3
 72
    23
 73
    19
 74
     0
 42
0.0000000001
 43
0.0000000001
 40
0.0
 40
0.0
 40
0.0
 40
0.0
 40
1.0
 40
1.0
 40
1.0
 40
2.0
 40
2.0
 40
2.0
 40
3.0
 40
3.0
 40
3.0
 40
4.0
 40
4.0
 40
4.0
 40
5.0
 40
5.0
 40
5.0
 40
6.0
 40
6.0
 40
6.0
 40
6.0
 10
1.283006814233734
 20
-3.080790258255749
 30
0.0
 10
1.283159793544554
 20
-3.077960141005935
 30
0.0
 10
1.282807941129703
 20
-3.075374790653389
 30
0.0
 10
1.281951256989234
 20
-3.073034207198159
 30
0.0
 10
1.281094572848764
 20
-3.070678325811816
 30
0.0
 10
1.280039015604213
 20
-3.069148532703795
 30
0.0
 10
1.278784585255632
 20
-3.06844482787412
 30
0.0
 10
1.277530154907102
 20
-3.067741123044419
 30
0.0
 10
1.276199234903136
 20
-3.067787016837681
 30
0.0
 10
1.274791825243735
 20
-3.068567211322765
 30
0.0
 10
1.274944804554555
 20
-3.071076072019903
 30
0.0
 10
1.27502129420999
 20
-3.075298300998004
 30
0.0
 10
1.27502129420999
 20
-3.081249196188157
 30
0.0
 10
1.27502129420999
 20
-3.087215389309373
 30
0.0
 10
1.275174273520759
 20
-3.09198834380638
 30
0.0
 10
1.275495530073435
 20
-3.095583357610192
 30
0.0
 10
1.279717759051537
 20
-3.093869989329227
 30
0.0
 10
1.282226619748699
 20
-3.088928757590363
 30
0.0
 10
1.283006814233734
 20
-3.080790258255749
 30
0.0
  0
SPLINE
  5
A6
330
96
100
AcDbEntity
  8
TML FRIENDSGIVING
100
AcDbSpline
210
0.0
220
0.0
230
1.0
 70
     9
 71
     3
 72
    41
 73
    37
 74
     0
 42
0.0000000001
 43
0.0000000001
 40
0.0
 40
0.0
 40
0.0
 40
0.0
 40
1.0
 40
1.0
 40
1.0
 40
2.0
 40
2.0
 40
2.0
 40
3.0
 40
3.0
 40
3.0
 40
4.0
 40
4.0
 40
4.0
 40
5.0
 40
5.0
 40
5.0
 40
6.0
 40
6.0
 40
6.0
 40
7.0
 40
7.0
 40
7.0
 40
8.0
 40
8.0
 40
8.0
 40
9.0
 40
9.0
 40
9.0
 40
10.0
 40
10.0
 40
10.0
 40
11.0
 40
11.0
 40
11.0
 40
12.0
 40
12.0
 40
12.0
 40
12.0
 10
1.229907695454787
 20
-3.030505958795502
 30
0.0
 10
1.230534910629052
 20
-3.026268431886314
 30
0.0
 10
1.232722514773538
 20
-3.023025270497353
 30
0.0
 10
1.236485805819231
 20
-3.020745878766395
 30
0.0
 10
1.240249096864924
 20
-3.01848178496655
 30
0.0
 10
1.24595522515776
 20
-3.016951991858554
 30
0.0
 10
1.253634786560016
 20
-3.016171797373443
 30
0.0
 10
1.26726524315235
 20
-3.016018818062674
 30
0.0
 10
1.279289416981302
 20
-3.018084038758463
 30
0.0
 10
1.289707308046823
 20
-3.022398055323037
 30
0.0
 10
1.300125199112395
 20
-3.026712071887636
 30
0.0
 10
1.30881442396584
 20
-3.034177462254723
 30
0.0
 10
1.315790280538395
 20
-3.044840120217536
 30
0.0
 10
1.322750839179813
 20
-3.055487480249287
 30
0.0
 10
1.326560024018767
 20
-3.069041447186236
 30
0.0
 10
1.327187239193083
 20
-3.085486723097321
 30
0.0
 10
1.327493197814672
 20
-3.094267735537313
 30
0.0
 10
1.326942472295791
 20
-3.103507685909688
 30
0.0
 10
1.32553506263639
 20
-3.113206574214447
 30
0.0
 10
1.322873222628459
 20
-3.134042356345541
 30
0.0
 10
1.313006057081818
 20
-3.150885378464737
 30
0.0
 10
1.295933565996468
 20
-3.16373564057201
 30
0.0
 10
1.284490713548519
 20
-3.17234837577007
 30
0.0
 10
1.268596163156315
 20
-3.176035177160378
 30
0.0
 10
1.248234616888718
 20
-3.174780746811822
 30
0.0
 10
1.234604160296334
 20
-3.173205059910565
 30
0.0
 10
1.226526852686068
 20
-3.167728400583882
 30
0.0
 10
1.224033289920043
 20
-3.158335470900738
 30
0.0
 10
1.224033289920043
 20
-3.158335470900738
 30
0.0
 10
1.224033289920043
 20
-3.143527073615207
 30
0.0
 10
1.224033289920043
 20
-3.143527073615207
 30
0.0
 10
1.223712033367367
 20
-3.112502869384772
 30
0.0
 10
1.224660505094309
 20
-3.084538251370379
 30
0.0
 10
1.226848109238744
 20
-3.059633219572004
 30
0.0
 10
1.227949560276505
 20
-3.048052685744373
 30
0.0
 10
1.228959223727795
 20
-3.038338499508502
 30
0.0
 10
1.229907695454787
 20
-3.030505958795502
 30
0.0
  0
HATCH
  5
A7
330
96
100
AcDbEntity
  8
TML FRIENDSGIVING
 62
    20
420
 15817252
440
 33554687
100
AcDbHatch
 10
0.0
 20
0.0
 30
0.0
210
0.0
220
0.0
230
1.0
  2
SOLID
 70
     1
 71
     1
 91
        2
 92
        1
 93
        1
 72
     4
 94
        3
 73
     0
 74
     0
 95
       23
 96
       19
 40
0.0
 40
0.0
 40
0.0
 40
0.0
 40
1.0
 40
1.0
 40
1.0
 40
2.0
 40
2.0
 40
2.0
 40
3.0
 40
3.0
 40
3.0
 40
4.0
 40
4.0
 40
4.0
 40
5.0
 40
5.0
 40
5.0
 40
6.0
 40
6.0
 40
6.0
 40
6.0
 10
1.283006814233734
 20
-3.080790258255749
 10
1.283159793544554
 20
-3.077960141005935
 10
1.282807941129703
 20
-3.075374790653389
 10
1.281951256989234
 20
-3.073034207198159
 10
1.281094572848764
 20
-3.070678325811816
 10
1.280039015604213
 20
-3.069148532703795
 10
1.278784585255632
 20
-3.06844482787412
 10
1.277530154907102
 20
-3.067741123044419
 10
1.276199234903136
 20
-3.067787016837681
 10
1.274791825243735
 20
-3.068567211322765
 10
1.274944804554555
 20
-3.071076072019903
 10
1.27502129420999
 20
-3.075298300998004
 10
1.27502129420999
 20
-3.081249196188157
 10
1.27502129420999
 20
-3.087215389309373
 10
1.275174273520759
 20
-3.09198834380638
 10
1.275495530073435
 20
-3.095583357610192
 10
1.279717759051537
 20
-3.093869989329227
 10
1.282226619748699
 20
-3.088928757590363
 10
1.283006814233734
 20
-3.080790258255749
 97
        0
 97
        1
330
A5
 92
        1
 93
        1
 72
     4
 94
        3
 73
     0
 74
     0
 95
       41
 96
       37
 40
0.0
 40
0.0
 40
0.0
 40
0.0
 40
1.0
 40
1.0
 40
1.0
 40
2.0
 40
2.0
 40
2.0
 40
3.0
 40
3.0
 40
3.0
 40
4.0
 40
4.0
 40
4.0
 40
5.0
 40
5.0
 40
5.0
 40
6.0
 40
6.0
 40
6.0
 40
7.0
 40
7.0
 40
7.0
 40
8.0
 40
8.0
 40
8.0
 40
9.0
 40
9.0
 40
9.0
 40
10.0
 40
10.0
 40
10.0
 40
11.0
 40
11.0
 40
11.0
 40
12.0
 40
12.0
 40
12.0
 40
12.0
 10
1.229907695454787
 20
-3.030505958795502
 10
1.230534910629052
 20
-3.026268431886314
 10
1.232722514773538
 20
-3.023025270497353
 10
1.236485805819231
 20
-3.020745878766395
 10
1.240249096864924
 20
-3.01848178496655
 10
1.24595522515776
 20
-3.016951991858554
 10
1.253634786560016
 20
-3.016171797373443
 10
1.26726524315235
 20
-3.016018818062674
 10
1.279289416981302
 20
-3.018084038758463
 10
1.289707308046823
 20
-3.022398055323037
 10
1.300125199112395
 20
-3.026712071887636
 10
1.30881442396584
 20
-3.034177462254723
 10
1.315790280538395
 20
-3.044840120217536
 10
1.322750839179813
 20
-3.055487480249287
 10
1.326560024018767
 20
-3.069041447186236
 10
1.327187239193083
 20
-3.085486723097321
 10
1.327493197814672
 20
-3.094267735537313
 10
1.326942472295791
 20
-3.103507685909688
 10
1.32553506263639
 20
-3.113206574214447
 10
1.322873222628459
 20
-3.134042356345541
 10
1.313006057081818
 20
-3.150885378464737
 10
1.295933565996468
 20
-3.16373564057201
 10
1.284490713548519
 20
-3.17234837577007
 10
1.268596163156315
 20
-3.176035177160378
 10
1.248234616888718
 20
-3.174780746811822
 10
1.234604160296334
 20
-3.173205059910565
 10
1.226526852686068
 20
-3.167728400583882
 10
1.224033289920043
 20
-3.158335470900738
 10
1.224033289920043
 20
-3.158335470900738
 10
1.224033289920043
 20
-3.143527073615207
 10
1.224033289920043
 20
-3.143527073615207
 10
1.223712033367367
 20
-3.112502869384772
 10
1.224660505094309
 20
-3.084538251370379
 10
1.226848109238744
 20
-3.059633219572004
 10
1.227949560276505
 20
-3.048052685744373
 10
1.228959223727795
 20
-3.038338499508502
 10
1.229907695454787
 20
-3.030505958795502
 97
        0
 97
        1
330
A6
 75
     2
 76
     1
 98
        1
 10
0.0
 20
0.0
450
        0
451
        0
460
0.0
461
0.0
452
        0
462
0.0
453
        0
470

  0
SPLINE
  5
A8
330
96
100
AcDbEntity
  8
TML FRIENDSGIVING
100
AcDbSpline
210
0.0
220
0.0
230
1.0
 70
     9
 71
     3
 72
    89
 73
    85
 74
     0
 42
0.0000000001
 43
0.0000000001
 40
0.0
 40
0.0
 40
0.0
 40
0.0
 40
1.0
 40
1.0
 40
1.0
 40
2.0
 40
2.0
 40
2.0
 40
3.0
 40
3.0
 40
3.0
 40
4.0
 40
4.0
 40
4.0
 40
5.0
 40
5.0
 40
5.0
 40
6.0
 40
6.0
 40
6.0
 40
7.0
 40
7.0
 40
7.0
 40
8.0
 40
8.0
 40
8.0
 40
9.0
 40
9.0
 40
9.0
 40
10.0
 40
10.0
 40
10.0
 40
11.0
 40
11.0
 40
11.0
 40
12.0
 40
12.0
 40
12.0
 40
13.0
 40
13.0
 40
13.0
 40
14.0
 40
14.0
 40
14.0
 40
15.0
 40
15.0
 40
15.0
 40
16.0
 40
16.0
 40
16.0
 40
17.0
 40
17.0
 40
17.0
 40
18.0
 40
18.0
 40
18.0
 40
19.0
 40
19.0
 40
19.0
 40
20.0
 40
20.0
 40
20.0
 40
21.0
 40
21.0
 40
21.0
 40
22.0
 40
22.0
 40
22.0
 40
23.0
 40
23.0
 40
23.0
 40
24.0
 40
24.0
 40
24.0
 40
25.0
 40
25.0
 40
25.0
 40
26.0
 40
26.0
 40
26.0
 40
27.0
 40
27.0
 40
27.0
 40
28.0
 40
28.0
 40
28.0
 40
28.0
 10
1.335172759216877
 20
-3.113206574214447
 30
0.0
 10
1.338461814399074
 20
-3.104593839016362
 30
0.0
 10
1.344030261312228
 20
-3.099667905208586
 30
0.0
 10
1.351862802025253
 20
-3.09841347486003
 30
0.0
 10
1.357186482041116
 20
-3.097633280374919
 30
0.0
 10
1.361882946882714
 20
-3.098795923137029
 30
0.0
 10
1.365952196549996
 20
-3.101931999008431
 30
0.0
 10
1.366900668276987
 20
-3.102712193493516
 30
0.0
 10
1.367986821383662
 20
-3.104043113497507
 30
0.0
 10
1.369241251732192
 20
-3.105924759020328
 30
0.0
 10
1.370495682080824
 20
-3.107806404543175
 30
0.0
 10
1.37167362277397
 20
-3.109336197651196
 30
0.0
 10
1.372775073811731
 20
-3.110514138344367
 30
0.0
 10
1.373861226918405
 20
-3.111692079037538
 30
0.0
 10
1.375039167611602
 20
-3.112120421107773
 30
0.0
 10
1.376293597960132
 20
-3.111799164555097
 30
0.0
 10
1.378649479346474
 20
-3.111018970070012
 30
0.0
 10
1.379031927623448
 20
-3.109137324547166
 30
0.0
 10
1.377471538653329
 20
-3.10616952591762
 30
0.0
 10
1.375589893130482
 20
-3.102084978319226
 30
0.0
 10
1.37152064346315
 20
-3.097709770030329
 30
0.0
 10
1.365248491720295
 20
-3.092998007257645
 30
0.0
 10
1.35600854134792
 20
-3.086588174135107
 30
0.0
 10
1.349506920638911
 20
-3.079107485836958
 30
0.0
 10
1.345743629593218
 20
-3.070571240294257
 30
0.0
 10
1.341995636478562
 20
-3.062034994751557
 30
0.0
 10
1.341674379925886
 20
-3.05305510920756
 30
0.0
 10
1.344810455797313
 20
-3.043662179524365
 30
0.0
 10
1.347778254426884
 20
-3.03504944432628
 30
0.0
 10
1.353346701339988
 20
-3.028195971202396
 30
0.0
 10
1.361485200674602
 20
-3.023101760152738
 30
0.0
 10
1.369638997940304
 20
-3.018007549103079
 30
0.0
 10
1.379506163486944
 20
-3.015391602888383
 30
0.0
 10
1.391101995245662
 20
-3.015223325646502
 30
0.0
 10
1.400188966307218
 20
-3.015223325646502
 30
0.0
 10
1.407271908397332
 20
-3.015743455303208
 30
0.0
 10
1.41236611944699
 20
-3.016753118754523
 30
0.0
 10
1.417460330496649
 20
-3.017778080136875
 30
0.0
 10
1.422263880855805
 20
-3.019843300832664
 30
0.0
 10
1.42682266431767
 20
-3.022979376704092
 30
0.0
 10
1.438571475387208
 20
-3.032219327076467
 30
0.0
 10
1.442564235399054
 20
-3.043264433316304
 30
0.0
 10
1.438800944353412
 20
-3.056114695423578
 30
0.0
 10
1.43629208365625
 20
-3.065201666485134
 30
0.0
 10
1.430341188466071
 20
-3.070219387879407
 30
0.0
 10
1.420948258782926
 20
-3.071152561675287
 30
0.0
 10
1.417965162222319
 20
-3.071626797538783
 30
0.0
 10
1.414829086350891
 20
-3.071305540986107
 30
0.0
 10
1.411540031168644
 20
-3.070219387879407
 30
0.0
 10
1.408250975986447
 20
-3.069117936841646
 30
0.0
 10
1.405986882186627
 20
-3.067312780974184
 30
0.0
 10
1.404732451838046
 20
-3.064803920277047
 30
0.0
 10
1.40410523666373
 20
-3.063870746481168
 30
0.0
 10
1.403279148385435
 20
-3.063243531306902
 30
0.0
 10
1.402254187003058
 20
-3.062922274754226
 30
0.0
 10
1.401244523551769
 20
-3.062616316132612
 30
0.0
 10
1.400418435273422
 20
-3.062769295443406
 30
0.0
 10
1.399791220099157
 20
-3.063396510617672
 30
0.0
 10
1.398689769061396
 20
-3.064650940966278
 30
0.0
 10
1.39876625871678
 20
-3.066180734074249
 30
0.0
 10
1.400020689065361
 20
-3.067985889941711
 30
0.0
 10
1.401275119413942
 20
-3.069775747878086
 30
0.0
 10
1.404732451838046
 20
-3.073263676164338
 30
0.0
 10
1.410362090475498
 20
-3.078434376869431
 30
0.0
 10
1.421804942923396
 20
-3.088469819657954
 30
0.0
 10
1.42939271673913
 20
-3.096608318992568
 30
0.0
 10
1.433156007784822
 20
-3.102880470735398
 30
0.0
 10
1.438479687800685
 20
-3.111799164555097
 30
0.0
 10
1.440988548497847
 20
-3.120580176995063
 30
0.0
 10
1.440682589876258
 20
-3.129192912193148
 30
0.0
 10
1.440361333323582
 20
-3.139840272224874
 30
0.0
 10
1.436368573311634
 20
-3.149003732941865
 30
0.0
 10
1.42868901190948
 20
-3.15668329434407
 30
0.0
 10
1.421024748438311
 20
-3.164362855746276
 30
0.0
 10
1.411616520824079
 20
-3.168829851621669
 30
0.0
 10
1.400494924928857
 20
-3.170084281970225
 30
0.0
 10
1.387812940063465
 20
-3.171797650251214
 30
0.0
 10
1.376446577270952
 20
-3.170742093006689
 30
0.0
 10
1.366426432413492
 20
-3.166902312305587
 30
0.0
 10
1.356406287556031
 20
-3.163062531604459
 30
0.0
 10
1.348573746843006
 20
-3.157310509518361
 30
0.0
 10
1.342928810274467
 20
-3.14963094811613
 30
0.0
 10
1.334622033697996
 20
-3.138509352220934
 30
0.0
 10
1.33203668334545
 20
-3.126378092874422
 30
0.0
 10
1.335172759216877
 20
-3.113206574214447
 30
0.0
  0
HATCH
  5
A9
330
96
100
AcDbEntity
  8
TML FRIENDSGIVING
 62
    20
420
 15817252
440
 33554687
100
AcDbHatch
 10
0.0
 20
0.0
 30
0.0
210
0.0
220
0.0
230
1.0
  2
SOLID
 70
     1
 71
     1
 91
        1
 92
        1
 93
        1
 72
     4
 94
        3
 73
     0
 74
     0
 95
       89
 96
       85
 40
0.0
 40
0.0
 40
0.0
 40
0.0
 40
1.0
 40
1.0
 40
1.0
 40
2.0
 40
2.0
 40
2.0
 40
3.0
 40
3.0
 40
3.0
 40
4.0
 40
4.0
 40
4.0
 40
5.0
 40
5.0
 40
5.0
 40
6.0
 40
6.0
 40
6.0
 40
7.0
 40
7.0
 40
7.0
 40
8.0
 40
8.0
 40
8.0
 40
9.0
 40
9.0
 40
9.0
 40
10.0
 40
10.0
 40
10.0
 40
11.0
 40
11.0
 40
11.0
 40
12.0
 40
12.0
 40
12.0
 40
13.0
 40
13.0
 40
13.0
 40
14.0
 40
14.0
 40
14.0
 40
15.0
 40
15.0
 40
15.0
 40
16.0
 40
16.0
 40
16.0
 40
17.0
 40
17.0
 40
17.0
 40
18.0
 40
18.0
 40
18.0
 40
19.0
 40
19.0
 40
19.0
 40
20.0
 40
20.0
 40
20.0
 40
21.0
 40
21.0
 40
21.0
 40
22.0
 40
22.0
 40
22.0
 40
23.0
 40
23.0
 40
23.0
 40
24.0
 40
24.0
 40
24.0
 40
25.0
 40
25.0
 40
25.0
 40
26.0
 40
26.0
 40
26.0
 40
27.0
 40
27.0
 40
27.0
 40
28.0
 40
28.0
 40
28.0
 40
28.0
 10
1.335172759216877
 20
-3.113206574214447
 10
1.338461814399074
 20
-3.104593839016362
 10
1.344030261312228
 20
-3.099667905208586
 10
1.351862802025253
 20
-3.09841347486003
 10
1.357186482041116
 20
-3.097633280374919
 10
1.361882946882714
 20
-3.098795923137029
 10
1.365952196549996
 20
-3.101931999008431
 10
1.366900668276987
 20
-3.102712193493516
 10
1.367986821383662
 20
-3.104043113497507
 10
1.369241251732192
 20
-3.105924759020328
 10
1.370495682080824
 20
-3.107806404543175
 10
1.37167362277397
 20
-3.109336197651196
 10
1.372775073811731
 20
-3.110514138344367
 10
1.373861226918405
 20
-3.111692079037538
 10
1.375039167611602
 20
-3.112120421107773
 10
1.376293597960132
 20
-3.111799164555097
 10
1.378649479346474
 20
-3.111018970070012
 10
1.379031927623448
 20
-3.109137324547166
 10
1.377471538653329
 20
-3.10616952591762
 10
1.375589893130482
 20
-3.102084978319226
 10
1.37152064346315
 20
-3.097709770030329
 10
1.365248491720295
 20
-3.092998007257645
 10
1.35600854134792
 20
-3.086588174135107
 10
1.349506920638911
 20
-3.079107485836958
 10
1.345743629593218
 20
-3.070571240294257
 10
1.341995636478562
 20
-3.062034994751557
 10
1.341674379925886
 20
-3.05305510920756
 10
1.344810455797313
 20
-3.043662179524365
 10
1.347778254426884
 20
-3.03504944432628
 10
1.353346701339988
 20
-3.028195971202396
 10
1.361485200674602
 20
-3.023101760152738
 10
1.369638997940304
 20
-3.018007549103079
 10
1.379506163486944
 20
-3.015391602888383
 10
1.391101995245662
 20
-3.015223325646502
 10
1.400188966307218
 20
-3.015223325646502
 10
1.407271908397332
 20
-3.015743455303208
 10
1.41236611944699
 20
-3.016753118754523
 10
1.417460330496649
 20
-3.017778080136875
 10
1.422263880855805
 20
-3.019843300832664
 10
1.42682266431767
 20
-3.022979376704092
 10
1.438571475387208
 20
-3.032219327076467
 10
1.442564235399054
 20
-3.043264433316304
 10
1.438800944353412
 20
-3.056114695423578
 10
1.43629208365625
 20
-3.065201666485134
 10
1.430341188466071
 20
-3.070219387879407
 10
1.420948258782926
 20
-3.071152561675287
 10
1.417965162222319
 20
-3.071626797538783
 10
1.414829086350891
 20
-3.071305540986107
 10
1.411540031168644
 20
-3.070219387879407
 10
1.408250975986447
 20
-3.069117936841646
 10
1.405986882186627
 20
-3.067312780974184
 10
1.404732451838046
 20
-3.064803920277047
 10
1.40410523666373
 20
-3.063870746481168
 10
1.403279148385435
 20
-3.063243531306902
 10
1.402254187003058
 20
-3.062922274754226
 10
1.401244523551769
 20
-3.062616316132612
 10
1.400418435273422
 20
-3.062769295443406
 10
1.399791220099157
 20
-3.063396510617672
 10
1.398689769061396
 20
-3.064650940966278
 10
1.39876625871678
 20
-3.066180734074249
 10
1.400020689065361
 20
-3.067985889941711
 10
1.401275119413942
 20
-3.069775747878086
 10
1.404732451838046
 20
-3.073263676164338
 10
1.410362090475498
 20
-3.078434376869431
 10
1.421804942923396
 20
-3.088469819657954
 10
1.42939271673913
 20
-3.096608318992568
 10
1.433156007784822
 20
-3.102880470735398
 10
1.438479687800685
 20
-3.111799164555097
 10
1.440988548497847
 20
-3.120580176995063
 10
1.440682589876258
 20
-3.129192912193148
 10
1.440361333323582
 20
-3.139840272224874
 10
1.436368573311634
 20
-3.149003732941865
 10
1.42868901190948
 20
-3.15668329434407
 10
1.421024748438311
 20
-3.164362855746276
 10
1.411616520824079
 20
-3.168829851621669
 10
1.400494924928857
 20
-3.170084281970225
 10
1.387812940063465
 20
-3.171797650251214
 10
1.376446577270952
 20
-3.170742093006689
 10
1.366426432413492
 20
-3.166902312305587
 10
1.356406287556031
 20
-3.163062531604459
 10
1.348573746843006
 20
-3.157310509518361
 10
1.342928810274467
 20
-3.14963094811613
 10
1.334622033697996
 20
-3.138509352220934
 10
1.33203668334545
 20
-3.126378092874422
 10
1.335172759216877
 20
-3.113206574214447
 97
        0
 97
        1
330
A8
 75
     2
 76
     1
 98
        1
 10
0.0
 20
0.0
450
        0
451
        0
460
0.0
461
0.0
452
        0
462
0.0
453
        0
470

  0
SPLINE
  5
AA
330
96
100
AcDbEntity
  8
TML FRIENDSGIVING
100
AcDbSpline
210
0.0
220
0.0
230
1.0
 70
     9
 71
     3
 72
    98
 73
    94
 74
     0
 42
0.0000000001
 43
0.0000000001
 40
0.0
 40
0.0
 40
0.0
 40
0.0
 40
1.0
 40
1.0
 40
1.0
 40
2.0
 40
2.0
 40
2.0
 40
3.0
 40
3.0
 40
3.0
 40
4.0
 40
4.0
 40
4.0
 40
5.0
 40
5.0
 40
5.0
 40
6.0
 40
6.0
 40
6.0
 40
7.0
 40
7.0
 40
7.0
 40
8.0
 40
8.0
 40
8.0
 40
9.0
 40
9.0
 40
9.0
 40
10.0
 40
10.0
 40
10.0
 40
11.0
 40
11.0
 40
11.0
 40
12.0
 40
12.0
 40
12.0
 40
13.0
 40
13.0
 40
13.0
 40
14.0
 40
14.0
 40
14.0
 40
15.0
 40
15.0
 40
15.0
 40
16.0
 40
16.0
 40
16.0
 40
17.0
 40
17.0
 40
17.0
 40
18.0
 40
18.0
 40
18.0
 40
19.0
 40
19.0
 40
19.0
 40
20.0
 40
20.0
 40
20.0
 40
21.0
 40
21.0
 40
21.0
 40
22.0
 40
22.0
 40
22.0
 40
23.0
 40
23.0
 40
23.0
 40
24.0
 40
24.0
 40
24.0
 40
25.0
 40
25.0
 40
25.0
 40
26.0
 40
26.0
 40
26.0
 40
27.0
 40
27.0
 40
27.0
 40
28.0
 40
28.0
 40
28.0
 40
29.0
 40
29.0
 40
29.0
 40
30.0
 40
30.0
 40
30.0
 40
31.0
 40
31.0
 40
31.0
 40
31.0
 10
1.531032170835209
 20
-3.166428076442091
 30
0.0
 10
1.520920238391277
 20
-3.173725189567297
 30
0.0
 10
1.509997515600085
 20
-3.176417625437377
 30
0.0
 10
1.498248704530598
 20
-3.17453597991453
 30
0.0
 10
1.486499893461111
 20
-3.172654334391659
 30
0.0
 10
1.476510344465774
 20
-3.167529527479852
 30
0.0
 10
1.468295355475776
 20
-3.159146261247971
 30
0.0
 10
1.46006506855469
 20
-3.150778292947153
 30
0.0
 10
1.454542515434796
 20
-3.141094702573455
 30
0.0
 10
1.451727696116045
 20
-3.130126085989028
 30
0.0
 10
1.449371814729703
 20
-3.121054412858559
 30
0.0
 10
1.448316257485203
 20
-3.111217843174042
 30
0.0
 10
1.448545726451407
 20
-3.100646972797701
 30
0.0
 10
1.448790493348699
 20
-3.090060804490273
 30
0.0
 10
1.450304988525608
 20
-3.080239532736868
 30
0.0
 10
1.453135105775446
 20
-3.071152561675287
 30
0.0
 10
1.456730119579282
 20
-3.05862355612069
 30
0.0
 10
1.462803398218056
 20
-3.047700833329498
 30
0.0
 10
1.471339643760731
 20
-3.038369095370676
 30
0.0
 10
1.479875889303406
 20
-3.029052655342891
 30
0.0
 10
1.489712458987924
 20
-3.022428651185211
 30
0.0
 10
1.500834054883145
 20
-3.018512380828724
 30
0.0
 10
1.514464511475479
 20
-3.014137172539802
 30
0.0
 10
1.528171457723247
 20
-3.015223325646502
 30
0.0
 10
1.541954893626401
 20
-3.021801436010921
 30
0.0
 10
1.549466177786749
 20
-3.024784532571553
 30
0.0
 10
1.555264093666109
 20
-3.031561516040028
 30
0.0
 10
1.559348641264477
 20
-3.042132386416369
 30
0.0
 10
1.563417890931759
 20
-3.05270325679271
 30
0.0
 10
1.564672321280391
 20
-3.063014062340673
 30
0.0
 10
1.563096634379083
 20
-3.073034207198159
 30
0.0
 10
1.561536245408913
 20
-3.083054352055594
 30
0.0
 10
1.557466995741631
 20
-3.088928757590363
 30
0.0
 10
1.550888885377187
 20
-3.090657423802415
 30
0.0
 10
1.546330101915322
 20
-3.091284638976705
 30
0.0
 10
1.54261270466289
 20
-3.091131659665885
 30
0.0
 10
1.539721395688704
 20
-3.090183187938919
 30
0.0
 10
1.536814788783532
 20
-3.089250014143039
 30
0.0
 10
1.534749568087691
 20
-3.087949690001222
 30
0.0
 10
1.53349513773911
 20
-3.086312811375667
 30
0.0
 10
1.53224070739058
 20
-3.084660634819
 30
0.0
 10
1.531062766697383
 20
-3.082947266538035
 30
0.0
 10
1.529976613590709
 20
-3.081142110670573
 30
0.0
 10
1.528875162552948
 20
-3.079336954803137
 30
0.0
 10
1.527345369444952
 20
-3.077776565832967
 30
0.0
 10
1.52538723426667
 20
-3.076445645829026
 30
0.0
 10
1.523429099088439
 20
-3.075114725825035
 30
0.0
 10
1.520797854942631
 20
-3.074518106512919
 30
0.0
 10
1.517508799760435
 20
-3.074671085823713
 30
0.0
 10
1.513286570782333
 20
-3.07561955755068
 30
0.0
 10
1.50972215284067
 20
-3.078434376869431
 30
0.0
 10
1.506830843866534
 20
-3.083130841711004
 30
0.0
 10
1.503924236961312
 20
-3.087842604483663
 30
0.0
 10
1.501966101783081
 20
-3.092569665187435
 30
0.0
 10
1.500956438331791
 20
-3.097357917615504
 30
0.0
 10
1.499931476949415
 20
-3.102130872112486
 30
0.0
 10
1.499334857637273
 20
-3.1067202514365
 30
0.0
 10
1.499181878326503
 20
-3.111095459725397
 30
0.0
 10
1.499181878326503
 20
-3.117520590779046
 30
0.0
 10
1.500512798330469
 20
-3.122293545276028
 30
0.0
 10
1.503174638338401
 20
-3.12542962114743
 30
0.0
 10
1.504429068686931
 20
-3.127005308048713
 30
0.0
 10
1.506356608003089
 20
-3.127861992189183
 30
0.0
 10
1.508941958355585
 20
-3.128014971499977
 30
0.0
 10
1.511527308708132
 20
-3.128167950810772
 30
0.0
 10
1.513516039748537
 20
-3.127464245981097
 30
0.0
 10
1.514923449407938
 20
-3.125903857010926
 30
0.0
 10
1.516024900445649
 20
-3.12464942666237
 30
0.0
 10
1.51642264665376
 20
-3.123746848728639
 30
0.0
 10
1.516101390101084
 20
-3.123196123209759
 30
0.0
 10
1.515795431479495
 20
-3.122645397690853
 30
0.0
 10
1.514464511475479
 20
-3.121987586654439
 30
0.0
 10
1.512108630089187
 20
-3.121207392169329
 30
0.0
 10
1.506784950073273
 20
-3.119631705268097
 30
0.0
 10
1.504597345928838
 20
-3.115485965945405
 30
0.0
 10
1.505530519724743
 20
-3.108754876270141
 30
0.0
 10
1.506004755588239
 20
-3.105771779709534
 30
0.0
 10
1.507014419039478
 20
-3.103339408667807
 30
0.0
 10
1.508590105940786
 20
-3.10145776314496
 30
0.0
 10
1.510150494910905
 20
-3.099591415553176
 30
0.0
 10
1.512429886641863
 20
-3.098719433481619
 30
0.0
 10
1.515397685271384
 20
-3.098872412792414
 30
0.0
 10
1.533877586016135
 20
-3.100142141072081
 30
0.0
 10
1.545947653638348
 20
-3.102253255561132
 30
0.0
 10
1.551592590206887
 20
-3.105221054190628
 30
0.0
 10
1.552999999866238
 20
-3.1060165466068
 30
0.0
 10
1.554009663317527
 20
-3.107423956266175
 30
0.0
 10
1.554636878491843
 20
-3.109458581099842
 30
0.0
 10
1.556044288151193
 20
-3.116663906638551
 30
0.0
 10
1.555340583321493
 20
-3.12558260045825
 30
0.0
 10
1.552525764002792
 20
-3.136245258421088
 30
0.0
 10
1.548303535024691
 20
-3.14908022259725
 30
0.0
 10
1.541128805348105
 20
-3.159146261247971
 30
0.0
 10
1.531032170835209
 20
-3.166428076442091
 30
0.0
  0
HATCH
  5
AB
330
96
100
AcDbEntity
  8
TML FRIENDSGIVING
 62
    20
420
 15817252
440
 33554687
100
AcDbHatch
 10
0.0
 20
0.0
 30
0.0
210
0.0
220
0.0
230
1.0
  2
SOLID
 70
     1
 71
     1
 91
        1
 92
        1
 93
        1
 72
     4
 94
        3
 73
     0
 74
     0
 95
       98
 96
       94
 40
0.0
 40
0.0
 40
0.0
 40
0.0
 40
1.0
 40
1.0
 40
1.0
 40
2.0
 40
2.0
 40
2.0
 40
3.0
 40
3.0
 40
3.0
 40
4.0
 40
4.0
 40
4.0
 40
5.0
 40
5.0
 40
5.0
 40
6.0
 40
6.0
 40
6.0
 40
7.0
 40
7.0
 40
7.0
 40
8.0
 40
8.0
 40
8.0
 40
9.0
 40
9.0
 40
9.0
 40
10.0
 40
10.0
 40
10.0
 40
11.0
 40
11.0
 40
11.0
 40
12.0
 40
12.0
 40
12.0
 40
13.0
 40
13.0
 40
13.0
 40
14.0
 40
14.0
 40
14.0
 40
15.0
 40
15.0
 40
15.0
 40
16.0
 40
16.0
 40
16.0
 40
17.0
 40
17.0
 40
17.0
 40
18.0
 40
18.0
 40
18.0
 40
19.0
 40
19.0
 40
19.0
 40
20.0
 40
20.0
 40
20.0
 40
21.0
 40
21.0
 40
21.0
 40
22.0
 40
22.0
 40
22.0
 40
23.0
 40
23.0
 40
23.0
 40
24.0
 40
24.0
 40
24.0
 40
25.0
 40
25.0
 40
25.0
 40
26.0
 40
26.0
 40
26.0
 40
27.0
 40
27.0
 40
27.0
 40
28.0
 40
28.0
 40
28.0
 40
29.0
 40
29.0
 40
29.0
 40
30.0
 40
30.0
 40
30.0
 40
31.0
 40
31.0
 40
31.0
 40
31.0
 10
1.531032170835209
 20
-3.166428076442091
 10
1.520920238391277
 20
-3.173725189567297
 10
1.509997515600085
 20
-3.176417625437377
 10
1.498248704530598
 20
-3.17453597991453
 10
1.486499893461111
 20
-3.172654334391659
 10
1.476510344465774
 20
-3.167529527479852
 10
1.468295355475776
 20
-3.159146261247971
 10
1.46006506855469
 20
-3.150778292947153
 10
1.454542515434796
 20
-3.141094702573455
 10
1.451727696116045
 20
-3.130126085989028
 10
1.449371814729703
 20
-3.121054412858559
 10
1.448316257485203
 20
-3.111217843174042
 10
1.448545726451407
 20
-3.100646972797701
 10
1.448790493348699
 20
-3.090060804490273
 10
1.450304988525608
 20
-3.080239532736868
 10
1.453135105775446
 20
-3.071152561675287
 10
1.456730119579282
 20
-3.05862355612069
 10
1.462803398218056
 20
-3.047700833329498
 10
1.471339643760731
 20
-3.038369095370676
 10
1.479875889303406
 20
-3.029052655342891
 10
1.489712458987924
 20
-3.022428651185211
 10
1.500834054883145
 20
-3.018512380828724
 10
1.514464511475479
 20
-3.014137172539802
 10
1.528171457723247
 20
-3.015223325646502
 10
1.541954893626401
 20
-3.021801436010921
 10
1.549466177786749
 20
-3.024784532571553
 10
1.555264093666109
 20
-3.031561516040028
 10
1.559348641264477
 20
-3.042132386416369
 10
1.563417890931759
 20
-3.05270325679271
 10
1.564672321280391
 20
-3.063014062340673
 10
1.563096634379083
 20
-3.073034207198159
 10
1.561536245408913
 20
-3.083054352055594
 10
1.557466995741631
 20
-3.088928757590363
 10
1.550888885377187
 20
-3.090657423802415
 10
1.546330101915322
 20
-3.091284638976705
 10
1.54261270466289
 20
-3.091131659665885
 10
1.539721395688704
 20
-3.090183187938919
 10
1.536814788783532
 20
-3.089250014143039
 10
1.534749568087691
 20
-3.087949690001222
 10
1.53349513773911
 20
-3.086312811375667
 10
1.53224070739058
 20
-3.084660634819
 10
1.531062766697383
 20
-3.082947266538035
 10
1.529976613590709
 20
-3.081142110670573
 10
1.528875162552948
 20
-3.079336954803137
 10
1.527345369444952
 20
-3.077776565832967
 10
1.52538723426667
 20
-3.076445645829026
 10
1.523429099088439
 20
-3.075114725825035
 10
1.520797854942631
 20
-3.074518106512919
 10
1.517508799760435
 20
-3.074671085823713
 10
1.513286570782333
 20
-3.07561955755068
 10
1.50972215284067
 20
-3.078434376869431
 10
1.506830843866534
 20
-3.083130841711004
 10
1.503924236961312
 20
-3.087842604483663
 10
1.501966101783081
 20
-3.092569665187435
 10
1.500956438331791
 20
-3.097357917615504
 10
1.499931476949415
 20
-3.102130872112486
 10
1.499334857637273
 20
-3.1067202514365
 10
1.499181878326503
 20
-3.111095459725397
 10
1.499181878326503
 20
-3.117520590779046
 10
1.500512798330469
 20
-3.122293545276028
 10
1.503174638338401
 20
-3.12542962114743
 10
1.504429068686931
 20
-3.127005308048713
 10
1.506356608003089
 20
-3.127861992189183
 10
1.508941958355585
 20
-3.128014971499977
 10
1.511527308708132
 20
-3.128167950810772
 10
1.513516039748537
 20
-3.127464245981097
 10
1.514923449407938
 20
-3.125903857010926
 10
1.516024900445649
 20
-3.12464942666237
 10
1.51642264665376
 20
-3.123746848728639
 10
1.516101390101084
 20
-3.123196123209759
 10
1.515795431479495
 20
-3.122645397690853
 10
1.514464511475479
 20
-3.121987586654439
 10
1.512108630089187
 20
-3.121207392169329
 10
1.506784950073273
 20
-3.119631705268097
 10
1.504597345928838
 20
-3.115485965945405
 10
1.505530519724743
 20
-3.108754876270141
 10
1.506004755588239
 20
-3.105771779709534
 10
1.507014419039478
 20
-3.103339408667807
 10
1.508590105940786
 20
-3.10145776314496
 10
1.510150494910905
 20
-3.099591415553176
 10
1.512429886641863
 20
-3.098719433481619
 10
1.515397685271384
 20
-3.098872412792414
 10
1.533877586016135
 20
-3.100142141072081
 10
1.545947653638348
 20
-3.102253255561132
 10
1.551592590206887
 20
-3.105221054190628
 10
1.552999999866238
 20
-3.1060165466068
 10
1.554009663317527
 20
-3.107423956266175
 10
1.554636878491843
 20
-3.109458581099842
 10
1.556044288151193
 20
-3.116663906638551
 10
1.555340583321493
 20
-3.12558260045825
 10
1.552525764002792
 20
-3.136245258421088
 10
1.548303535024691
 20
-3.14908022259725
 10
1.541128805348105
 20
-3.159146261247971
 10
1.531032170835209
 20
-3.166428076442091
 97
        0
 97
        1
330
AA
 75
     2
 76
     1
 98
        1
 10
0.0
 20
0.0
450
        0
451
        0
460
0.0
461
0.0
452
        0
462
0.0
453
        0
470

  0
SPLINE
  5
AC
330
96
100
AcDbEntity
  8
TML FRIENDSGIVING
100
AcDbSpline
210
0.0
220
0.0
230
1.0
 70
     9
 71
     3
 72
    62
 73
    58
 74
     0
 42
0.0000000001
 43
0.0000000001
 40
0.0
 40
0.0
 40
0.0
 40
0.0
 40
1.0
 40
1.0
 40
1.0
 40
2.0
 40
2.0
 40
2.0
 40
3.0
 40
3.0
 40
3.0
 40
4.0
 40
4.0
 40
4.0
 40
5.0
 40
5.0
 40
5.0
 40
6.0
 40
6.0
 40
6.0
 40
7.0
 40
7.0
 40
7.0
 40
8.0
 40
8.0
 40
8.0
 40
9.0
 40
9.0
 40
9.0
 40
10.0
 40
10.0
 40
10.0
 40
11.0
 40
11.0
 40
11.0
 40
12.0
 40
12.0
 40
12.0
 40
13.0
 40
13.0
 40
13.0
 40
14.0
 40
14.0
 40
14.0
 40
15.0
 40
15.0
 40
15.0
 40
16.0
 40
16.0
 40
16.0
 40
17.0
 40
17.0
 40
17.0
 40
18.0
 40
18.0
 40
18.0
 40
19.0
 40
19.0
 40
19.0
 40
19.0
 10
1.594120838609493
 20
-3.172654334391659
 30
0.0
 10
1.585814062033023
 20
-3.17156818128501
 30
0.0
 10
1.579388930979398
 20
-3.168202636447378
 30
0.0
 10
1.574845445448621
 20
-3.162557699878839
 30
0.0
 10
1.572030626129869
 20
-3.158794408833121
 30
0.0
 10
1.570301959917843
 20
-3.154495690199635
 30
0.0
 10
1.569674744743527
 20
-3.14963094811613
 30
0.0
 10
1.569047529569262
 20
-3.144781503963763
 30
0.0
 10
1.569047529569262
 20
-3.134746061175216
 30
0.0
 10
1.569674744743527
 20
-3.119555215612712
 30
0.0
 10
1.570454939228612
 20
-3.100922335557141
 30
0.0
 10
1.570929175092108
 20
-3.08501248723385
 30
0.0
 10
1.571082154402928
 20
-3.071856266504987
 30
0.0
 10
1.571403410955604
 20
-3.05242789403327
 30
0.0
 10
1.572336584751458
 20
-3.040373124342143
 30
0.0
 10
1.573912271652716
 20
-3.035676659500571
 30
0.0
 10
1.578134500630868
 20
-3.024080827741878
 30
0.0
 10
1.587695707555919
 20
-3.017808675999049
 30
0.0
 10
1.602580594496834
 20
-3.016875502203118
 30
0.0
 10
1.605548393126355
 20
-3.016875502203118
 30
0.0
 10
1.608286722789721
 20
-3.017181460824733
 30
0.0
 10
1.610795583486833
 20
-3.017808675999049
 30
0.0
 10
1.613304444183945
 20
-3.018435891173314
 30
0.0
 10
1.615415558672995
 20
-3.019460852555665
 30
0.0
 10
1.617144224885072
 20
-3.020868262215041
 30
0.0
 10
1.618872891097099
 20
-3.022275671874417
 30
0.0
 10
1.620387386274058
 20
-3.023575996016208
 30
0.0
 10
1.621718306278024
 20
-3.024738638778292
 30
0.0
 10
1.623049226281939
 20
-3.025916579471463
 30
0.0
 10
1.62410478352649
 20
-3.027675841545689
 30
0.0
 10
1.624900275942662
 20
-3.030031722932032
 30
0.0
 10
1.625680470427747
 20
-3.032387604318374
 30
0.0
 10
1.626307685602013
 20
-3.034253951910133
 30
0.0
 10
1.626781921465509
 20
-3.035676659500571
 30
0.0
 10
1.627240859397918
 20
-3.037084069159921
 30
0.0
 10
1.627592711812768
 20
-3.039271673304382
 30
0.0
 10
1.627837478710059
 20
-3.042254769865015
 30
0.0
 10
1.628066947676213
 20
-3.045222568494535
 30
0.0
 10
1.628219926987033
 20
-3.047303087121437
 30
0.0
 10
1.628311714573505
 20
-3.048481027814609
 30
0.0
 10
1.62838820422894
 20
-3.04965896850778
 30
0.0
 10
1.628418800091063
 20
-3.051800678858979
 30
0.0
 10
1.628418800091063
 20
-3.054936754730407
 30
0.0
 10
1.628418800091063
 20
-3.058072830601834
 30
0.0
 10
1.628418800091063
 20
-3.05995447612468
 30
0.0
 10
1.628418800091063
 20
-3.060581691298946
 30
0.0
 10
1.62874005664374
 20
-3.081096216877363
 30
0.0
 10
1.629902699405849
 20
-3.098719433481619
 30
0.0
 10
1.631952622170602
 20
-3.113451341111739
 30
0.0
 10
1.634140226315038
 20
-3.128489207363473
 30
0.0
 10
1.634446184936627
 20
-3.140161528777575
 30
0.0
 10
1.632885795966457
 20
-3.148453007422984
 30
0.0
 10
1.63100415044361
 20
-3.157386999173745
 30
0.0
 10
1.626307685602013
 20
-3.163934513676041
 30
0.0
 10
1.618781103510627
 20
-3.168080252998732
 30
0.0
 10
1.611269819350329
 20
-3.172225992321449
 30
0.0
 10
1.603039532429193
 20
-3.173755785429445
 30
0.0
 10
1.594120838609493
 20
-3.172654334391659
 30
0.0
  0
HATCH
  5
AD
330
96
100
AcDbEntity
  8
TML FRIENDSGIVING
 62
    20
420
 15817252
440
 33554687
100
AcDbHatch
 10
0.0
 20
0.0
 30
0.0
210
0.0
220
0.0
230
1.0
  2
SOLID
 70
     1
 71
     1
 91
        1
 92
        1
 93
        1
 72
     4
 94
        3
 73
     0
 74
     0
 95
       62
 96
       58
 40
0.0
 40
0.0
 40
0.0
 40
0.0
 40
1.0
 40
1.0
 40
1.0
 40
2.0
 40
2.0
 40
2.0
 40
3.0
 40
3.0
 40
3.0
 40
4.0
 40
4.0
 40
4.0
 40
5.0
 40
5.0
 40
5.0
 40
6.0
 40
6.0
 40
6.0
 40
7.0
 40
7.0
 40
7.0
 40
8.0
 40
8.0
 40
8.0
 40
9.0
 40
9.0
 40
9.0
 40
10.0
 40
10.0
 40
10.0
 40
11.0
 40
11.0
 40
11.0
 40
12.0
 40
12.0
 40
12.0
 40
13.0
 40
13.0
 40
13.0
 40
14.0
 40
14.0
 40
14.0
 40
15.0
 40
15.0
 40
15.0
 40
16.0
 40
16.0
 40
16.0
 40
17.0
 40
17.0
 40
17.0
 40
18.0
 40
18.0
 40
18.0
 40
19.0
 40
19.0
 40
19.0
 40
19.0
 10
1.594120838609493
 20
-3.172654334391659
 10
1.585814062033023
 20
-3.17156818128501
 10
1.579388930979398
 20
-3.168202636447378
 10
1.574845445448621
 20
-3.162557699878839
 10
1.572030626129869
 20
-3.158794408833121
 10
1.570301959917843
 20
-3.154495690199635
 10
1.569674744743527
 20
-3.14963094811613
 10
1.569047529569262
 20
-3.144781503963763
 10
1.569047529569262
 20
-3.134746061175216
 10
1.569674744743527
 20
-3.119555215612712
 10
1.570454939228612
 20
-3.100922335557141
 10
1.570929175092108
 20
-3.08501248723385
 10
1.571082154402928
 20
-3.071856266504987
 10
1.571403410955604
 20
-3.05242789403327
 10
1.572336584751458
 20
-3.040373124342143
 10
1.573912271652716
 20
-3.035676659500571
 10
1.578134500630868
 20
-3.024080827741878
 10
1.587695707555919
 20
-3.017808675999049
 10
1.602580594496834
 20
-3.016875502203118
 10
1.605548393126355
 20
-3.016875502203118
 10
1.608286722789721
 20
-3.017181460824733
 10
1.610795583486833
 20
-3.017808675999049
 10
1.613304444183945
 20
-3.018435891173314
 10
1.615415558672995
 20
-3.019460852555665
 10
1.617144224885072
 20
-3.020868262215041
 10
1.618872891097099
 20
-3.022275671874417
 10
1.620387386274058
 20
-3.023575996016208
 10
1.621718306278024
 20
-3.024738638778292
 10
1.623049226281939
 20
-3.025916579471463
 10
1.62410478352649
 20
-3.027675841545689
 10
1.624900275942662
 20
-3.030031722932032
 10
1.625680470427747
 20
-3.032387604318374
 10
1.626307685602013
 20
-3.034253951910133
 10
1.626781921465509
 20
-3.035676659500571
 10
1.627240859397918
 20
-3.037084069159921
 10
1.627592711812768
 20
-3.039271673304382
 10
1.627837478710059
 20
-3.042254769865015
 10
1.628066947676213
 20
-3.045222568494535
 10
1.628219926987033
 20
-3.047303087121437
 10
1.628311714573505
 20
-3.048481027814609
 10
1.62838820422894
 20
-3.04965896850778
 10
1.628418800091063
 20
-3.051800678858979
 10
1.628418800091063
 20
-3.054936754730407
 10
1.628418800091063
 20
-3.058072830601834
 10
1.628418800091063
 20
-3.05995447612468
 10
1.628418800091063
 20
-3.060581691298946
 10
1.62874005664374
 20
-3.081096216877363
 10
1.629902699405849
 20
-3.098719433481619
 10
1.631952622170602
 20
-3.113451341111739
 10
1.634140226315038
 20
-3.128489207363473
 10
1.634446184936627
 20
-3.140161528777575
 10
1.632885795966457
 20
-3.148453007422984
 10
1.63100415044361
 20
-3.157386999173745
 10
1.626307685602013
 20
-3.163934513676041
 10
1.618781103510627
 20
-3.168080252998732
 10
1.611269819350329
 20
-3.172225992321449
 10
1.603039532429193
 20
-3.173755785429445
 10
1.594120838609493
 20
-3.172654334391659
 97
        0
 97
        1
330
AC
 75
     2
 76
     1
 98
        1
 10
0.0
 20
0.0
450
        0
451
        0
460
0.0
461
0.0
452
        0
462
0.0
453
        0
470

  0
SPLINE
  5
AE
330
96
100
AcDbEntity
  8
TML FRIENDSGIVING
100
AcDbSpline
210
0.0
220
0.0
230
1.0
 70
     9
 71
     3
 72
    68
 73
    64
 74
     0
 42
0.0000000001
 43
0.0000000001
 40
0.0
 40
0.0
 40
0.0
 40
0.0
 40
1.0
 40
1.0
 40
1.0
 40
2.0
 40
2.0
 40
2.0
 40
3.0
 40
3.0
 40
3.0
 40
4.0
 40
4.0
 40
4.0
 40
5.0
 40
5.0
 40
5.0
 40
6.0
 40
6.0
 40
6.0
 40
7.0
 40
7.0
 40
7.0
 40
8.0
 40
8.0
 40
8.0
 40
9.0
 40
9.0
 40
9.0
 40
10.0
 40
10.0
 40
10.0
 40
11.0
 40
11.0
 40
11.0
 40
12.0
 40
12.0
 40
12.0
 40
13.0
 40
13.0
 40
13.0
 40
14.0
 40
14.0
 40
14.0
 40
15.0
 40
15.0
 40
15.0
 40
16.0
 40
16.0
 40
16.0
 40
17.0
 40
17.0
 40
17.0
 40
18.0
 40
18.0
 40
18.0
 40
19.0
 40
19.0
 40
19.0
 40
20.0
 40
20.0
 40
20.0
 40
21.0
 40
21.0
 40
21.0
 40
21.0
 10
1.677525158858164
 20
-3.157157530207566
 30
0.0
 10
1.661232862257848
 20
-3.120335410097772
 30
0.0
 10
1.650111266362677
 20
-3.085960958960817
 30
0.0
 10
1.644160371172498
 20
-3.054003580934527
 30
0.0
 10
1.642905940823917
 20
-3.047884408502467
 30
0.0
 10
1.642125746338832
 20
-3.042530132624455
 30
0.0
 10
1.641819787717243
 20
-3.037910157438267
 30
0.0
 10
1.641498531164567
 20
-3.03329018225208
 30
0.0
 10
1.642951834617178
 20
-3.029175038791537
 30
0.0
 10
1.646164400143991
 20
-3.025564727056639
 30
0.0
 10
1.649376965670803
 20
-3.021969713252827
 30
0.0
 10
1.654654751893455
 20
-3.018986616692195
 30
0.0
 10
1.662028354674021
 20
-3.016630735305878
 30
0.0
 10
1.682542880252437
 20
-3.012102547706161
 30
0.0
 10
1.694995396151625
 20
-3.014519620816827
 30
0.0
 10
1.699385902371634
 20
-3.023927848431058
 30
0.0
 10
1.701741783757926
 20
-3.030658938106322
 30
0.0
 10
1.704051771351057
 20
-3.040724976756993
 30
0.0
 10
1.706315865150877
 20
-3.054110666452086
 30
0.0
 10
1.708579958950748
 20
-3.06751165407824
 30
0.0
 10
1.710507498266855
 20
-3.077026967210056
 30
0.0
 10
1.712067887236975
 20
-3.082671903778595
 30
0.0
 10
1.713016358963967
 20
-3.077348223762732
 30
0.0
 10
1.714071916208518
 20
-3.069423895463235
 30
0.0
 10
1.715249856901664
 20
-3.058929514742304
 30
0.0
 10
1.71642779759486
 20
-3.048435134021347
 30
0.0
 10
1.717238587942069
 20
-3.041551065035314
 30
0.0
 10
1.717712823805565
 20
-3.038262009853092
 30
0.0
 10
1.718187059669061
 20
-3.033718524322314
 30
0.0
 10
1.71869189139468
 20
-3.030307085691447
 30
0.0
 10
1.719242616913561
 20
-3.028027693960514
 30
0.0
 10
1.719793342432442
 20
-3.025763600160669
 30
0.0
 10
1.720803005883731
 20
-3.023331229118942
 30
0.0
 10
1.722302203129553
 20
-3.020745878766395
 30
0.0
 10
1.723786102444339
 20
-3.018160528413873
 30
0.0
 10
1.725973706588774
 20
-3.016370670477499
 30
0.0
 10
1.728880313493997
 20
-3.015345709095147
 30
0.0
 10
1.731771622468184
 20
-3.014320747712771
 30
0.0
 10
1.735565509376
 20
-3.013892405642511
 30
0.0
 10
1.740277272148684
 20
-3.014045384953331
 30
0.0
 10
1.748737028035975
 20
-3.014045384953331
 30
0.0
 10
1.755315138400419
 20
-3.014917367024887
 30
0.0
 10
1.760011603242016
 20
-3.016630735305878
 30
0.0
 10
1.763147679113444
 20
-3.017900463585495
 30
0.0
 10
1.765809519121376
 20
-3.01996568428131
 30
0.0
 10
1.767997123265811
 20
-3.022856993255446
 30
0.0
 10
1.770184727410246
 20
-3.025763600160669
 30
0.0
 10
1.771362668103443
 20
-3.028853782238861
 30
0.0
 10
1.771515647414263
 20
-3.032142837421083
 30
0.0
 10
1.772464119141204
 20
-3.047027724361997
 30
0.0
 10
1.765641241879469
 20
-3.084155803093381
 30
0.0
 10
1.75107761149123
 20
-3.143527073615207
 30
0.0
 10
1.749348945279153
 20
-3.153715495714525
 30
0.0
 10
1.746411742511807
 20
-3.160676054355967
 30
0.0
 10
1.74226600318909
 20
-3.164439345401685
 30
0.0
 10
1.738120263866373
 20
-3.168202636447378
 30
0.0
 10
1.732674200401864
 20
-3.170543219902608
 30
0.0
 10
1.725943110726651
 20
-3.1714916916296
 30
0.0
 10
1.715280452763838
 20
-3.172899101288951
 30
0.0
 10
1.705137924457732
 20
-3.172470759218716
 30
0.0
 10
1.695515525808382
 20
-3.170191367487783
 30
0.0
 10
1.685877829227895
 20
-3.167927273687938
 30
0.0
 10
1.679881040244506
 20
-3.163582661261191
 30
0.0
 10
1.677525158858164
 20
-3.157157530207566
 30
0.0
  0
HATCH
  5
AF
330
96
100
AcDbEntity
  8
TML FRIENDSGIVING
 62
    20
420
 15817252
440
 33554687
100
AcDbHatch
 10
0.0
 20
0.0
 30
0.0
210
0.0
220
0.0
230
1.0
  2
SOLID
 70
     1
 71
     1
 91
        1
 92
        1
 93
        1
 72
     4
 94
        3
 73
     0
 74
     0
 95
       68
 96
       64
 40
0.0
 40
0.0
 40
0.0
 40
0.0
 40
1.0
 40
1.0
 40
1.0
 40
2.0
 40
2.0
 40
2.0
 40
3.0
 40
3.0
 40
3.0
 40
4.0
 40
4.0
 40
4.0
 40
5.0
 40
5.0
 40
5.0
 40
6.0
 40
6.0
 40
6.0
 40
7.0
 40
7.0
 40
7.0
 40
8.0
 40
8.0
 40
8.0
 40
9.0
 40
9.0
 40
9.0
 40
10.0
 40
10.0
 40
10.0
 40
11.0
 40
11.0
 40
11.0
 40
12.0
 40
12.0
 40
12.0
 40
13.0
 40
13.0
 40
13.0
 40
14.0
 40
14.0
 40
14.0
 40
15.0
 40
15.0
 40
15.0
 40
16.0
 40
16.0
 40
16.0
 40
17.0
 40
17.0
 40
17.0
 40
18.0
 40
18.0
 40
18.0
 40
19.0
 40
19.0
 40
19.0
 40
20.0
 40
20.0
 40
20.0
 40
21.0
 40
21.0
 40
21.0
 40
21.0
 10
1.677525158858164
 20
-3.157157530207566
 10
1.661232862257848
 20
-3.120335410097772
 10
1.650111266362677
 20
-3.085960958960817
 10
1.644160371172498
 20
-3.054003580934527
 10
1.642905940823917
 20
-3.047884408502467
 10
1.642125746338832
 20
-3.042530132624455
 10
1.641819787717243
 20
-3.037910157438267
 10
1.641498531164567
 20
-3.03329018225208
 10
1.642951834617178
 20
-3.029175038791537
 10
1.646164400143991
 20
-3.025564727056639
 10
1.649376965670803
 20
-3.021969713252827
 10
1.654654751893455
 20
-3.018986616692195
 10
1.662028354674021
 20
-3.016630735305878
 10
1.682542880252437
 20
-3.012102547706161
 10
1.694995396151625
 20
-3.014519620816827
 10
1.699385902371634
 20
-3.023927848431058
 10
1.701741783757926
 20
-3.030658938106322
 10
1.704051771351057
 20
-3.040724976756993
 10
1.706315865150877
 20
-3.054110666452086
 10
1.708579958950748
 20
-3.06751165407824
 10
1.710507498266855
 20
-3.077026967210056
 10
1.712067887236975
 20
-3.082671903778595
 10
1.713016358963967
 20
-3.077348223762732
 10
1.714071916208518
 20
-3.069423895463235
 10
1.715249856901664
 20
-3.058929514742304
 10
1.71642779759486
 20
-3.048435134021347
 10
1.717238587942069
 20
-3.041551065035314
 10
1.717712823805565
 20
-3.038262009853092
 10
1.718187059669061
 20
-3.033718524322314
 10
1.71869189139468
 20
-3.030307085691447
 10
1.719242616913561
 20
-3.028027693960514
 10
1.719793342432442
 20
-3.025763600160669
 10
1.720803005883731
 20
-3.023331229118942
 10
1.722302203129553
 20
-3.020745878766395
 10
1.723786102444339
 20
-3.018160528413873
 10
1.725973706588774
 20
-3.016370670477499
 10
1.728880313493997
 20
-3.015345709095147
 10
1.731771622468184
 20
-3.014320747712771
 10
1.735565509376
 20
-3.013892405642511
 10
1.740277272148684
 20
-3.014045384953331
 10
1.748737028035975
 20
-3.014045384953331
 10
1.755315138400419
 20
-3.014917367024887
 10
1.760011603242016
 20
-3.016630735305878
 10
1.763147679113444
 20
-3.017900463585495
 10
1.765809519121376
 20
-3.01996568428131
 10
1.767997123265811
 20
-3.022856993255446
 10
1.770184727410246
 20
-3.025763600160669
 10
1.771362668103443
 20
-3.028853782238861
 10
1.771515647414263
 20
-3.032142837421083
 10
1.772464119141204
 20
-3.047027724361997
 10
1.765641241879469
 20
-3.084155803093381
 10
1.75107761149123
 20
-3.143527073615207
 10
1.749348945279153
 20
-3.153715495714525
 10
1.746411742511807
 20
-3.160676054355967
 10
1.74226600318909
 20
-3.164439345401685
 10
1.738120263866373
 20
-3.168202636447378
 10
1.732674200401864
 20
-3.170543219902608
 10
1.725943110726651
 20
-3.1714916916296
 10
1.715280452763838
 20
-3.172899101288951
 10
1.705137924457732
 20
-3.172470759218716
 10
1.695515525808382
 20
-3.170191367487783
 10
1.685877829227895
 20
-3.167927273687938
 10
1.679881040244506
 20
-3.163582661261191
 10
1.677525158858164
 20
-3.157157530207566
 97
        0
 97
        1
330
AE
 75
     2
 76
     1
 98
        1
 10
0.0
 20
0.0
450
        0
451
        0
460
0.0
461
0.0
452
        0
462
0.0
453
        0
470

  0
SPLINE
  5
B0
330
96
100
AcDbEntity
  8
TML FRIENDSGIVING
100
AcDbSpline
210
0.0
220
0.0
230
1.0
 70
     9
 71
     3
 72
    62
 73
    58
 74
     0
 42
0.0000000001
 43
0.0000000001
 40
0.0
 40
0.0
 40
0.0
 40
0.0
 40
1.0
 40
1.0
 40
1.0
 40
2.0
 40
2.0
 40
2.0
 40
3.0
 40
3.0
 40
3.0
 40
4.0
 40
4.0
 40
4.0
 40
5.0
 40
5.0
 40
5.0
 40
6.0
 40
6.0
 40
6.0
 40
7.0
 40
7.0
 40
7.0
 40
8.0
 40
8.0
 40
8.0
 40
9.0
 40
9.0
 40
9.0
 40
10.0
 40
10.0
 40
10.0
 40
11.0
 40
11.0
 40
11.0
 40
12.0
 40
12.0
 40
12.0
 40
13.0
 40
13.0
 40
13.0
 40
14.0
 40
14.0
 40
14.0
 40
15.0
 40
15.0
 40
15.0
 40
16.0
 40
16.0
 40
16.0
 40
17.0
 40
17.0
 40
17.0
 40
18.0
 40
18.0
 40
18.0
 40
19.0
 40
19.0
 40
19.0
 40
19.0
 10
1.803014087508118
 20
-3.172654334391659
 30
0.0
 10
1.794707310931648
 20
-3.17156818128501
 30
0.0
 10
1.788282179878024
 20
-3.168202636447378
 30
0.0
 10
1.783738694347246
 20
-3.162557699878839
 30
0.0
 10
1.780923875028495
 20
-3.158794408833121
 30
0.0
 10
1.779195208816418
 20
-3.154495690199635
 30
0.0
 10
1.778567993642152
 20
-3.14963094811613
 30
0.0
 10
1.777940778467887
 20
-3.144781503963763
 30
0.0
 10
1.777940778467887
 20
-3.134746061175216
 30
0.0
 10
1.778567993642152
 20
-3.119555215612712
 30
0.0
 10
1.779348188127237
 20
-3.100922335557141
 30
0.0
 10
1.779822423990683
 20
-3.08501248723385
 30
0.0
 10
1.779975403301502
 20
-3.071856266504987
 30
0.0
 10
1.780296659854179
 20
-3.05242789403327
 30
0.0
 10
1.781229833650083
 20
-3.040373124342143
 30
0.0
 10
1.782805520551341
 20
-3.035676659500571
 30
0.0
 10
1.787027749529443
 20
-3.024080827741878
 30
0.0
 10
1.796588956454494
 20
-3.017808675999049
 30
0.0
 10
1.811473843395409
 20
-3.016875502203118
 30
0.0
 10
1.814441642024929
 20
-3.016875502203118
 30
0.0
 10
1.817179971688296
 20
-3.017181460824733
 30
0.0
 10
1.819688832385407
 20
-3.017808675999049
 30
0.0
 10
1.82219769308257
 20
-3.018435891173314
 30
0.0
 10
1.82430880757162
 20
-3.019460852555665
 30
0.0
 10
1.826037473783647
 20
-3.020868262215041
 30
0.0
 10
1.827766139995724
 20
-3.022275671874417
 30
0.0
 10
1.829280635172633
 20
-3.023575996016208
 30
0.0
 10
1.830611555176599
 20
-3.024738638778292
 30
0.0
 10
1.831942475180615
 20
-3.025916579471463
 30
0.0
 10
1.832998032425115
 20
-3.027675841545689
 30
0.0
 10
1.833793524841237
 20
-3.030031722932032
 30
0.0
 10
1.834573719326373
 20
-3.032387604318374
 30
0.0
 10
1.835200934500638
 20
-3.034253951910133
 30
0.0
 10
1.835675170364134
 20
-3.035676659500571
 30
0.0
 10
1.836134108296543
 20
-3.037084069159921
 30
0.0
 10
1.836485960711393
 20
-3.039271673304382
 30
0.0
 10
1.836730727608634
 20
-3.042254769865015
 30
0.0
 10
1.836960196574839
 20
-3.045222568494535
 30
0.0
 10
1.837113175885658
 20
-3.047303087121437
 30
0.0
 10
1.83720496347213
 20
-3.048481027814609
 30
0.0
 10
1.837281453127515
 20
-3.04965896850778
 30
0.0
 10
1.837312048989689
 20
-3.051800678858979
 30
0.0
 10
1.837312048989689
 20
-3.054936754730407
 30
0.0
 10
1.837312048989689
 20
-3.058072830601834
 30
0.0
 10
1.837312048989689
 20
-3.05995447612468
 30
0.0
 10
1.837312048989689
 20
-3.060581691298946
 30
0.0
 10
1.837633305542365
 20
-3.081096216877363
 30
0.0
 10
1.838795948304474
 20
-3.098719433481619
 30
0.0
 10
1.840845871069177
 20
-3.113451341111739
 30
0.0
 10
1.843033475213612
 20
-3.128489207363473
 30
0.0
 10
1.843339433835252
 20
-3.140161528777575
 30
0.0
 10
1.841779044865082
 20
-3.148453007422984
 30
0.0
 10
1.839897399342236
 20
-3.157386999173745
 30
0.0
 10
1.835200934500638
 20
-3.163934513676041
 30
0.0
 10
1.827674352409252
 20
-3.168080252998732
 30
0.0
 10
1.820163068248904
 20
-3.172225992321449
 30
0.0
 10
1.811932781327818
 20
-3.173755785429445
 30
0.0
 10
1.803014087508118
 20
-3.172654334391659
 30
0.0
  0
HATCH
  5
B1
330
96
100
AcDbEntity
  8
TML FRIENDSGIVING
 62
    20
420
 15817252
440
 33554687
100
AcDbHatch
 10
0.0
 20
0.0
 30
0.0
210
0.0
220
0.0
230
1.0
  2
SOLID
 70
     1
 71
     1
 91
        1
 92
        1
 93
        1
 72
     4
 94
        3
 73
     0
 74
     0
 95
       62
 96
       58
 40
0.0
 40
0.0
 40
0.0
 40
0.0
 40
1.0
 40
1.0
 40
1.0
 40
2.0
 40
2.0
 40
2.0
 40
3.0
 40
3.0
 40
3.0
 40
4.0
 40
4.0
 40
4.0
 40
5.0
 40
5.0
 40
5.0
 40
6.0
 40
6.0
 40
6.0
 40
7.0
 40
7.0
 40
7.0
 40
8.0
 40
8.0
 40
8.0
 40
9.0
 40
9.0
 40
9.0
 40
10.0
 40
10.0
 40
10.0
 40
11.0
 40
11.0
 40
11.0
 40
12.0
 40
12.0
 40
12.0
 40
13.0
 40
13.0
 40
13.0
 40
14.0
 40
14.0
 40
14.0
 40
15.0
 40
15.0
 40
15.0
 40
16.0
 40
16.0
 40
16.0
 40
17.0
 40
17.0
 40
17.0
 40
18.0
 40
18.0
 40
18.0
 40
19.0
 40
19.0
 40
19.0
 40
19.0
 10
1.803014087508118
 20
-3.172654334391659
 10
1.794707310931648
 20
-3.17156818128501
 10
1.788282179878024
 20
-3.168202636447378
 10
1.783738694347246
 20
-3.162557699878839
 10
1.780923875028495
 20
-3.158794408833121
 10
1.779195208816418
 20
-3.154495690199635
 10
1.778567993642152
 20
-3.14963094811613
 10
1.777940778467887
 20
-3.144781503963763
 10
1.777940778467887
 20
-3.134746061175216
 10
1.778567993642152
 20
-3.119555215612712
 10
1.779348188127237
 20
-3.100922335557141
 10
1.779822423990683
 20
-3.08501248723385
 10
1.779975403301502
 20
-3.071856266504987
 10
1.780296659854179
 20
-3.05242789403327
 10
1.781229833650083
 20
-3.040373124342143
 10
1.782805520551341
 20
-3.035676659500571
 10
1.787027749529443
 20
-3.024080827741878
 10
1.796588956454494
 20
-3.017808675999049
 10
1.811473843395409
 20
-3.016875502203118
 10
1.814441642024929
 20
-3.016875502203118
 10
1.817179971688296
 20
-3.017181460824733
 10
1.819688832385407
 20
-3.017808675999049
 10
1.82219769308257
 20
-3.018435891173314
 10
1.82430880757162
 20
-3.019460852555665
 10
1.826037473783647
 20
-3.020868262215041
 10
1.827766139995724
 20
-3.022275671874417
 10
1.829280635172633
 20
-3.023575996016208
 10
1.830611555176599
 20
-3.024738638778292
 10
1.831942475180615
 20
-3.025916579471463
 10
1.832998032425115
 20
-3.027675841545689
 10
1.833793524841237
 20
-3.030031722932032
 10
1.834573719326373
 20
-3.032387604318374
 10
1.835200934500638
 20
-3.034253951910133
 10
1.835675170364134
 20
-3.035676659500571
 10
1.836134108296543
 20
-3.037084069159921
 10
1.836485960711393
 20
-3.039271673304382
 10
1.836730727608634
 20
-3.042254769865015
 10
1.836960196574839
 20
-3.045222568494535
 10
1.837113175885658
 20
-3.047303087121437
 10
1.83720496347213
 20
-3.048481027814609
 10
1.837281453127515
 20
-3.04965896850778
 10
1.837312048989689
 20
-3.051800678858979
 10
1.837312048989689
 20
-3.054936754730407
 10
1.837312048989689
 20
-3.058072830601834
 10
1.837312048989689
 20
-3.05995447612468
 10
1.837312048989689
 20
-3.060581691298946
 10
1.837633305542365
 20
-3.081096216877363
 10
1.838795948304474
 20
-3.098719433481619
 10
1.840845871069177
 20
-3.113451341111739
 10
1.843033475213612
 20
-3.128489207363473
 10
1.843339433835252
 20
-3.140161528777575
 10
1.841779044865082
 20
-3.148453007422984
 10
1.839897399342236
 20
-3.157386999173745
 10
1.835200934500638
 20
-3.163934513676041
 10
1.827674352409252
 20
-3.168080252998732
 10
1.820163068248904
 20
-3.172225992321449
 10
1.811932781327818
 20
-3.173755785429445
 10
1.803014087508118
 20
-3.172654334391659
 97
        0
 97
        1
330
B0
 75
     2
 76
     1
 98
        1
 10
0.0
 20
0.0
450
        0
451
        0
460
0.0
461
0.0
452
        0
462
0.0
453
        0
470

  0
SPLINE
  5
B2
330
96
100
AcDbEntity
  8
TML FRIENDSGIVING
100
AcDbSpline
210
0.0
220
0.0
230
1.0
 70
     9
 71
     3
 72
   104
 73
   100
 74
     0
 42
0.0000000001
 43
0.0000000001
 40
0.0
 40
0.0
 40
0.0
 40
0.0
 40
1.0
 40
1.0
 40
1.0
 40
2.0
 40
2.0
 40
2.0
 40
3.0
 40
3.0
 40
3.0
 40
4.0
 40
4.0
 40
4.0
 40
5.0
 40
5.0
 40
5.0
 40
6.0
 40
6.0
 40
6.0
 40
7.0
 40
7.0
 40
7.0
 40
8.0
 40
8.0
 40
8.0
 40
9.0
 40
9.0
 40
9.0
 40
10.0
 40
10.0
 40
10.0
 40
11.0
 40
11.0
 40
11.0
 40
12.0
 40
12.0
 40
12.0
 40
13.0
 40
13.0
 40
13.0
 40
14.0
 40
14.0
 40
14.0
 40
15.0
 40
15.0
 40
15.0
 40
16.0
 40
16.0
 40
16.0
 40
17.0
 40
17.0
 40
17.0
 40
18.0
 40
18.0
 40
18.0
 40
19.0
 40
19.0
 40
19.0
 40
20.0
 40
20.0
 40
20.0
 40
21.0
 40
21.0
 40
21.0
 40
22.0
 40
22.0
 40
22.0
 40
23.0
 40
23.0
 40
23.0
 40
24.0
 40
24.0
 40
24.0
 40
25.0
 40
25.0
 40
25.0
 40
26.0
 40
26.0
 40
26.0
 40
27.0
 40
27.0
 40
27.0
 40
28.0
 40
28.0
 40
28.0
 40
29.0
 40
29.0
 40
29.0
 40
30.0
 40
30.0
 40
30.0
 40
31.0
 40
31.0
 40
31.0
 40
32.0
 40
32.0
 40
32.0
 40
33.0
 40
33.0
 40
33.0
 40
33.0
 10
1.916968376123703
 20
-3.163261404708514
 30
0.0
 10
1.916188181638618
 20
-3.161548036427524
 30
0.0
 10
1.915010240945422
 20
-3.158519046073681
 30
0.0
 10
1.913449851975302
 20
-3.154220327440169
 30
0.0
 10
1.911874165074045
 20
-3.149906310875596
 30
0.0
 10
1.911017480933575
 20
-3.147443343971695
 30
0.0
 10
1.910864501622755
 20
-3.146816128797404
 30
0.0
 10
1.908355640925593
 20
-3.140238018432985
 30
0.0
 10
1.906948231266243
 20
-3.136948963250763
 30
0.0
 10
1.906626974713566
 20
-3.136948963250763
 30
0.0
 10
1.906473995402797
 20
-3.136948963250763
 30
0.0
 10
1.906397505747362
 20
-3.137254921872353
 30
0.0
 10
1.906397505747362
 20
-3.137882137046643
 30
0.0
 10
1.906244526436542
 20
-3.139289546706019
 30
0.0
 10
1.906045653332512
 20
-3.142272643266626
 30
0.0
 10
1.905816184366307
 20
-3.146816128797404
 30
0.0
 10
1.905571417469016
 20
-3.151359614328182
 30
0.0
 10
1.905296054709601
 20
-3.154954628132018
 30
0.0
 10
1.904990096088011
 20
-3.15761646813995
 30
0.0
 10
1.904209901602927
 20
-3.168906341277053
 30
0.0
 10
1.899972374693738
 20
-3.175086705433436
 30
0.0
 10
1.892292813291533
 20
-3.176188156471173
 30
0.0
 10
1.889325014661961
 20
-3.176662392334669
 30
0.0
 10
1.884276697405564
 20
-3.176922457163022
 30
0.0
 10
1.877147861522239
 20
-3.177014244749519
 30
0.0
 10
1.870019025638915
 20
-3.177090734404903
 30
0.0
 10
1.864725941485226
 20
-3.176968350956258
 30
0.0
 10
1.861283906992159
 20
-3.176662392334669
 30
0.0
 10
1.856740421461381
 20
-3.176188156471173
 30
0.0
 10
1.853604345590004
 20
-3.173205059910565
 30
0.0
 10
1.851890977309014
 20
-3.167728400583882
 30
0.0
 10
1.850162311096937
 20
-3.162083464015343
 30
0.0
 10
1.849305626956467
 20
-3.143878926030058
 30
0.0
 10
1.849305626956467
 20
-3.113099488696889
 30
0.0
 10
1.849305626956467
 20
-3.082320051363744
 30
0.0
 10
1.850391780063192
 20
-3.055089734041201
 30
0.0
 10
1.852594682138664
 20
-3.031439132591382
 30
0.0
 10
1.853206599381893
 20
-3.025335258090434
 30
0.0
 10
1.857092273876231
 20
-3.021189518767717
 30
0.0
 10
1.864221109759556
 20
-3.018986616692195
 30
0.0
 10
1.87134994564288
 20
-3.016799012547734
 30
0.0
 10
1.878585867043764
 20
-3.015850540820767
 30
0.0
 10
1.88595946982438
 20
-3.016171797373443
 30
0.0
 10
1.889248525006577
 20
-3.016324776684263
 30
0.0
 10
1.892109238118539
 20
-3.016982587720702
 30
0.0
 10
1.894526311229229
 20
-3.018160528413873
 30
0.0
 10
1.896958682270956
 20
-3.019338469107019
 30
0.0
 10
1.899192180208653
 20
-3.021189518767717
 30
0.0
 10
1.901226805042268
 20
-3.023683081533767
 30
0.0
 10
1.903261429875934
 20
-3.026191942230929
 30
0.0
 10
1.90494420229475
 20
-3.028624313272656
 30
0.0
 10
1.906275122298716
 20
-3.030964896727911
 30
0.0
 10
1.907606042302682
 20
-3.033320778114254
 30
0.0
 10
1.909487687825528
 20
-3.036762812607245
 30
0.0
 10
1.911920058867306
 20
-3.041306298138023
 30
0.0
 10
1.914352429909033
 20
-3.045849783668851
 30
0.0
 10
1.916509438191294
 20
-3.049689564369928
 30
0.0
 10
1.918375785783104
 20
-3.052825640241356
 30
0.0
 10
1.91869704233578
 20
-3.05250438368868
 30
0.0
 10
1.91869704233578
 20
-3.048511623676757
 30
0.0
 10
1.918375785783104
 20
-3.040847360205639
 30
0.0
 10
1.918375785783104
 20
-3.033795013977724
 30
0.0
 10
1.918574658887134
 20
-3.028823186376687
 30
0.0
 10
1.918972405095195
 20
-3.025916579471463
 30
0.0
 10
1.91935485337222
 20
-3.023025270497353
 30
0.0
 10
1.919874983028926
 20
-3.021143624974481
 30
0.0
 10
1.920502198203191
 20
-3.020286940833986
 30
0.0
 10
1.92111411544642
 20
-3.019414958762429
 30
0.0
 10
1.922536823036858
 20
-3.018435891173314
 30
0.0
 10
1.924724427181293
 20
-3.017349738066614
 30
0.0
 10
1.931149558234968
 20
-3.014687898058683
 30
0.0
 10
1.937926541703442
 20
-3.013509957365512
 30
0.0
 10
1.945055377586767
 20
-3.013815915987126
 30
0.0
 10
1.952184213470092
 20
-3.014137172539802
 30
0.0
 10
1.958165704522394
 20
-3.016018818062674
 30
0.0
 10
1.963030446605848
 20
-3.019460852555665
 30
0.0
 10
1.967405654894769
 20
-3.022596928427093
 30
0.0
 10
1.970312261799992
 20
-3.026712071887636
 30
0.0
 10
1.971719671459343
 20
-3.031790985006232
 30
0.0
 10
1.973127081118693
 20
-3.036885196055891
 30
0.0
 10
1.973983765259213
 20
-3.047731429191672
 30
0.0
 10
1.974305021811889
 20
-3.064344982344664
 30
0.0
 10
1.974626278364565
 20
-3.084385272059585
 30
0.0
 10
1.974259128018628
 20
-3.103584175565073
 30
0.0
 10
1.973249464567339
 20
-3.121911096999029
 30
0.0
 10
1.972224503185012
 20
-3.140238018432985
 30
0.0
 10
1.970786497663437
 20
-3.152843513642967
 30
0.0
 10
1.968904852140591
 20
-3.159742880560088
 30
0.0
 10
1.967023206617745
 20
-3.166626949546121
 30
0.0
 10
1.963504682469343
 20
-3.17133871231878
 30
0.0
 10
1.95833398176425
 20
-3.17383227508483
 30
0.0
 10
1.954096454855061
 20
-3.175407961986113
 30
0.0
 10
1.949399990013514
 20
-3.176341135781992
 30
0.0
 10
1.94422928930842
 20
-3.176662392334669
 30
0.0
 10
1.939058588603377
 20
-3.176968350956258
 30
0.0
 10
1.933780802380725
 20
-3.176065773022527
 30
0.0
 10
1.928365334778391
 20
-3.173954658533476
 30
0.0
 10
1.922965165107092
 20
-3.171843544044425
 30
0.0
 10
1.919171278199276
 20
-3.168279126102788
 30
0.0
 10
1.916968376123703
 20
-3.163261404708514
 30
0.0
  0
HATCH
  5
B3
330
96
100
AcDbEntity
  8
TML FRIENDSGIVING
 62
    20
420
 15817252
440
 33554687
100
AcDbHatch
 10
0.0
 20
0.0
 30
0.0
210
0.0
220
0.0
230
1.0
  2
SOLID
 70
     1
 71
     1
 91
        1
 92
        1
 93
        1
 72
     4
 94
        3
 73
     0
 74
     0
 95
      104
 96
      100
 40
0.0
 40
0.0
 40
0.0
 40
0.0
 40
1.0
 40
1.0
 40
1.0
 40
2.0
 40
2.0
 40
2.0
 40
3.0
 40
3.0
 40
3.0
 40
4.0
 40
4.0
 40
4.0
 40
5.0
 40
5.0
 40
5.0
 40
6.0
 40
6.0
 40
6.0
 40
7.0
 40
7.0
 40
7.0
 40
8.0
 40
8.0
 40
8.0
 40
9.0
 40
9.0
 40
9.0
 40
10.0
 40
10.0
 40
10.0
 40
11.0
 40
11.0
 40
11.0
 40
12.0
 40
12.0
 40
12.0
 40
13.0
 40
13.0
 40
13.0
 40
14.0
 40
14.0
 40
14.0
 40
15.0
 40
15.0
 40
15.0
 40
16.0
 40
16.0
 40
16.0
 40
17.0
 40
17.0
 40
17.0
 40
18.0
 40
18.0
 40
18.0
 40
19.0
 40
19.0
 40
19.0
 40
20.0
 40
20.0
 40
20.0
 40
21.0
 40
21.0
 40
21.0
 40
22.0
 40
22.0
 40
22.0
 40
23.0
 40
23.0
 40
23.0
 40
24.0
 40
24.0
 40
24.0
 40
25.0
 40
25.0
 40
25.0
 40
26.0
 40
26.0
 40
26.0
 40
27.0
 40
27.0
 40
27.0
 40
28.0
 40
28.0
 40
28.0
 40
29.0
 40
29.0
 40
29.0
 40
30.0
 40
30.0
 40
30.0
 40
31.0
 40
31.0
 40
31.0
 40
32.0
 40
32.0
 40
32.0
 40
33.0
 40
33.0
 40
33.0
 40
33.0
 10
1.916968376123703
 20
-3.163261404708514
 10
1.916188181638618
 20
-3.161548036427524
 10
1.915010240945422
 20
-3.158519046073681
 10
1.913449851975302
 20
-3.154220327440169
 10
1.911874165074045
 20
-3.149906310875596
 10
1.911017480933575
 20
-3.147443343971695
 10
1.910864501622755
 20
-3.146816128797404
 10
1.908355640925593
 20
-3.140238018432985
 10
1.906948231266243
 20
-3.136948963250763
 10
1.906626974713566
 20
-3.136948963250763
 10
1.906473995402797
 20
-3.136948963250763
 10
1.906397505747362
 20
-3.137254921872353
 10
1.906397505747362
 20
-3.137882137046643
 10
1.906244526436542
 20
-3.139289546706019
 10
1.906045653332512
 20
-3.142272643266626
 10
1.905816184366307
 20
-3.146816128797404
 10
1.905571417469016
 20
-3.151359614328182
 10
1.905296054709601
 20
-3.154954628132018
 10
1.904990096088011
 20
-3.15761646813995
 10
1.904209901602927
 20
-3.168906341277053
 10
1.899972374693738
 20
-3.175086705433436
 10
1.892292813291533
 20
-3.176188156471173
 10
1.889325014661961
 20
-3.176662392334669
 10
1.884276697405564
 20
-3.176922457163022
 10
1.877147861522239
 20
-3.177014244749519
 10
1.870019025638915
 20
-3.177090734404903
 10
1.864725941485226
 20
-3.176968350956258
 10
1.861283906992159
 20
-3.176662392334669
 10
1.856740421461381
 20
-3.176188156471173
 10
1.853604345590004
 20
-3.173205059910565
 10
1.851890977309014
 20
-3.167728400583882
 10
1.850162311096937
 20
-3.162083464015343
 10
1.849305626956467
 20
-3.143878926030058
 10
1.849305626956467
 20
-3.113099488696889
 10
1.849305626956467
 20
-3.082320051363744
 10
1.850391780063192
 20
-3.055089734041201
 10
1.852594682138664
 20
-3.031439132591382
 10
1.853206599381893
 20
-3.025335258090434
 10
1.857092273876231
 20
-3.021189518767717
 10
1.864221109759556
 20
-3.018986616692195
 10
1.87134994564288
 20
-3.016799012547734
 10
1.878585867043764
 20
-3.015850540820767
 10
1.88595946982438
 20
-3.016171797373443
 10
1.889248525006577
 20
-3.016324776684263
 10
1.892109238118539
 20
-3.016982587720702
 10
1.894526311229229
 20
-3.018160528413873
 10
1.896958682270956
 20
-3.019338469107019
 10
1.899192180208653
 20
-3.021189518767717
 10
1.901226805042268
 20
-3.023683081533767
 10
1.903261429875934
 20
-3.026191942230929
 10
1.90494420229475
 20
-3.028624313272656
 10
1.906275122298716
 20
-3.030964896727911
 10
1.907606042302682
 20
-3.033320778114254
 10
1.909487687825528
 20
-3.036762812607245
 10
1.911920058867306
 20
-3.041306298138023
 10
1.914352429909033
 20
-3.045849783668851
 10
1.916509438191294
 20
-3.049689564369928
 10
1.918375785783104
 20
-3.052825640241356
 10
1.91869704233578
 20
-3.05250438368868
 10
1.91869704233578
 20
-3.048511623676757
 10
1.918375785783104
 20
-3.040847360205639
 10
1.918375785783104
 20
-3.033795013977724
 10
1.918574658887134
 20
-3.028823186376687
 10
1.918972405095195
 20
-3.025916579471463
 10
1.91935485337222
 20
-3.023025270497353
 10
1.919874983028926
 20
-3.021143624974481
 10
1.920502198203191
 20
-3.020286940833986
 10
1.92111411544642
 20
-3.019414958762429
 10
1.922536823036858
 20
-3.018435891173314
 10
1.924724427181293
 20
-3.017349738066614
 10
1.931149558234968
 20
-3.014687898058683
 10
1.937926541703442
 20
-3.013509957365512
 10
1.945055377586767
 20
-3.013815915987126
 10
1.952184213470092
 20
-3.014137172539802
 10
1.958165704522394
 20
-3.016018818062674
 10
1.963030446605848
 20
-3.019460852555665
 10
1.967405654894769
 20
-3.022596928427093
 10
1.970312261799992
 20
-3.026712071887636
 10
1.971719671459343
 20
-3.031790985006232
 10
1.973127081118693
 20
-3.036885196055891
 10
1.973983765259213
 20
-3.047731429191672
 10
1.974305021811889
 20
-3.064344982344664
 10
1.974626278364565
 20
-3.084385272059585
 10
1.974259128018628
 20
-3.103584175565073
 10
1.973249464567339
 20
-3.121911096999029
 10
1.972224503185012
 20
-3.140238018432985
 10
1.970786497663437
 20
-3.152843513642967
 10
1.968904852140591
 20
-3.159742880560088
 10
1.967023206617745
 20
-3.166626949546121
 10
1.963504682469343
 20
-3.17133871231878
 10
1.95833398176425
 20
-3.17383227508483
 10
1.954096454855061
 20
-3.175407961986113
 10
1.949399990013514
 20
-3.176341135781992
 10
1.94422928930842
 20
-3.176662392334669
 10
1.939058588603377
 20
-3.176968350956258
 10
1.933780802380725
 20
-3.176065773022527
 10
1.928365334778391
 20
-3.173954658533476
 10
1.922965165107092
 20
-3.171843544044425
 10
1.919171278199276
 20
-3.168279126102788
 10
1.916968376123703
 20
-3.163261404708514
 97
        0
 97
        1
330
B2
 75
     2
 76
     1
 98
        1
 10
0.0
 20
0.0
450
        0
451
        0
460
0.0
461
0.0
452
        0
462
0.0
453
        0
470

  0
SPLINE
  5
B4
330
96
100
AcDbEntity
  8
TML FRIENDSGIVING
100
AcDbSpline
210
0.0
220
0.0
230
1.0
 70
     9
 71
     3
 72
    98
 73
    94
 74
     0
 42
0.0000000001
 43
0.0000000001
 40
0.0
 40
0.0
 40
0.0
 40
0.0
 40
1.0
 40
1.0
 40
1.0
 40
2.0
 40
2.0
 40
2.0
 40
3.0
 40
3.0
 40
3.0
 40
4.0
 40
4.0
 40
4.0
 40
5.0
 40
5.0
 40
5.0
 40
6.0
 40
6.0
 40
6.0
 40
7.0
 40
7.0
 40
7.0
 40
8.0
 40
8.0
 40
8.0
 40
9.0
 40
9.0
 40
9.0
 40
10.0
 40
10.0
 40
10.0
 40
11.0
 40
11.0
 40
11.0
 40
12.0
 40
12.0
 40
12.0
 40
13.0
 40
13.0
 40
13.0
 40
14.0
 40
14.0
 40
14.0
 40
15.0
 40
15.0
 40
15.0
 40
16.0
 40
16.0
 40
16.0
 40
17.0
 40
17.0
 40
17.0
 40
18.0
 40
18.0
 40
18.0
 40
19.0
 40
19.0
 40
19.0
 40
20.0
 40
20.0
 40
20.0
 40
21.0
 40
21.0
 40
21.0
 40
22.0
 40
22.0
 40
22.0
 40
23.0
 40
23.0
 40
23.0
 40
24.0
 40
24.0
 40
24.0
 40
25.0
 40
25.0
 40
25.0
 40
26.0
 40
26.0
 40
26.0
 40
27.0
 40
27.0
 40
27.0
 40
28.0
 40
28.0
 40
28.0
 40
29.0
 40
29.0
 40
29.0
 40
30.0
 40
30.0
 40
30.0
 40
31.0
 40
31.0
 40
31.0
 40
31.0
 10
2.063721428974986
 20
-3.166428076442091
 30
0.0
 10
2.053609496531053
 20
-3.173725189567297
 30
0.0
 10
2.042686773739862
 20
-3.176417625437377
 30
0.0
 10
2.030937962670375
 20
-3.17453597991453
 30
0.0
 10
2.019189151600888
 20
-3.172654334391659
 30
0.0
 10
2.009199602605551
 20
-3.167529527479852
 30
0.0
 10
2.000984613615552
 20
-3.159146261247971
 30
0.0
 10
1.992754326694466
 20
-3.150778292947153
 30
0.0
 10
1.987231773574573
 20
-3.141094702573455
 30
0.0
 10
1.984416954255822
 20
-3.130126085989028
 30
0.0
 10
1.982061072869479
 20
-3.121054412858559
 30
0.0
 10
1.981005515624979
 20
-3.111217843174042
 30
0.0
 10
1.981234984591184
 20
-3.100646972797701
 30
0.0
 10
1.981479751488425
 20
-3.090060804490273
 30
0.0
 10
1.982994246665384
 20
-3.080239532736868
 30
0.0
 10
1.985824363915172
 20
-3.071152561675287
 30
0.0
 10
1.989419377719008
 20
-3.05862355612069
 30
0.0
 10
1.995492656357833
 20
-3.047700833329498
 30
0.0
 10
2.004028901900508
 20
-3.038369095370676
 30
0.0
 10
2.012565147443183
 20
-3.029052655342891
 30
0.0
 10
2.02240171712765
 20
-3.022428651185211
 30
0.0
 10
2.033523313022922
 20
-3.018512380828724
 30
0.0
 10
2.047153769615255
 20
-3.014137172539802
 30
0.0
 10
2.060860715863024
 20
-3.015223325646502
 30
0.0
 10
2.074644151766177
 20
-3.021801436010921
 30
0.0
 10
2.082155435926526
 20
-3.024784532571553
 30
0.0
 10
2.087953351805834
 20
-3.031561516040028
 30
0.0
 10
2.092037899404254
 20
-3.042132386416369
 30
0.0
 10
2.096107149071536
 20
-3.05270325679271
 30
0.0
 10
2.097361579420117
 20
-3.063014062340673
 30
0.0
 10
2.095785892518859
 20
-3.073034207198159
 30
0.0
 10
2.094225503548689
 20
-3.083054352055594
 30
0.0
 10
2.090156253881407
 20
-3.088928757590363
 30
0.0
 10
2.083578143516963
 20
-3.090657423802415
 30
0.0
 10
2.079019360055099
 20
-3.091284638976705
 30
0.0
 10
2.075301962802616
 20
-3.091131659665885
 30
0.0
 10
2.072410653828481
 20
-3.090183187938919
 30
0.0
 10
2.069504046923257
 20
-3.089250014143039
 30
0.0
 10
2.067438826227468
 20
-3.087949690001222
 30
0.0
 10
2.066184395878887
 20
-3.086312811375667
 30
0.0
 10
2.064929965530306
 20
-3.084660634819
 30
0.0
 10
2.06375202483716
 20
-3.082947266538035
 30
0.0
 10
2.062665871730435
 20
-3.081142110670573
 30
0.0
 10
2.061564420692724
 20
-3.079336954803137
 30
0.0
 10
2.060034627584678
 20
-3.077776565832967
 30
0.0
 10
2.058076492406446
 20
-3.076445645829026
 30
0.0
 10
2.056118357228216
 20
-3.075114725825035
 30
0.0
 10
2.053487113082408
 20
-3.074518106512919
 30
0.0
 10
2.050198057900211
 20
-3.074671085823713
 30
0.0
 10
2.045975828922059
 20
-3.07561955755068
 30
0.0
 10
2.042411410980447
 20
-3.078434376869431
 30
0.0
 10
2.039520102006311
 20
-3.083130841711004
 30
0.0
 10
2.036613495101088
 20
-3.087842604483663
 30
0.0
 10
2.034655359922806
 20
-3.092569665187435
 30
0.0
 10
2.033645696471567
 20
-3.097357917615504
 30
0.0
 10
2.032620735089191
 20
-3.102130872112486
 30
0.0
 10
2.032024115777049
 20
-3.1067202514365
 30
0.0
 10
2.03187113646623
 20
-3.111095459725397
 30
0.0
 10
2.03187113646623
 20
-3.117520590779046
 30
0.0
 10
2.033202056470245
 20
-3.122293545276028
 30
0.0
 10
2.035863896478127
 20
-3.12542962114743
 30
0.0
 10
2.037118326826708
 20
-3.127005308048713
 30
0.0
 10
2.039045866142815
 20
-3.127861992189183
 30
0.0
 10
2.041631216495362
 20
-3.128014971499977
 30
0.0
 10
2.044216566847858
 20
-3.128167950810772
 30
0.0
 10
2.046205297888314
 20
-3.127464245981097
 30
0.0
 10
2.047612707547664
 20
-3.125903857010926
 30
0.0
 10
2.048714158585426
 20
-3.12464942666237
 30
0.0
 10
2.049111904793537
 20
-3.123746848728639
 30
0.0
 10
2.048790648240861
 20
-3.123196123209759
 30
0.0
 10
2.048484689619221
 20
-3.122645397690853
 30
0.0
 10
2.047153769615255
 20
-3.121987586654439
 30
0.0
 10
2.044797888228913
 20
-3.121207392169329
 30
0.0
 10
2.03947420821305
 20
-3.119631705268097
 30
0.0
 10
2.037286604068615
 20
-3.115485965945405
 30
0.0
 10
2.038219777864469
 20
-3.108754876270141
 30
0.0
 10
2.038694013727965
 20
-3.105771779709534
 30
0.0
 10
2.039703677179255
 20
-3.103339408667807
 30
0.0
 10
2.041279364080512
 20
-3.10145776314496
 30
0.0
 10
2.042839753050682
 20
-3.099591415553176
 30
0.0
 10
2.04511914478164
 20
-3.098719433481619
 30
0.0
 10
2.04808694341116
 20
-3.098872412792414
 30
0.0
 10
2.066566844155861
 20
-3.100142141072081
 30
0.0
 10
2.078636911778074
 20
-3.102253255561132
 30
0.0
 10
2.084281848346664
 20
-3.105221054190628
 30
0.0
 10
2.085689258006014
 20
-3.1060165466068
 30
0.0
 10
2.086698921457304
 20
-3.107423956266175
 30
0.0
 10
2.087326136631569
 20
-3.109458581099842
 30
0.0
 10
2.08873354629097
 20
-3.116663906638551
 30
0.0
 10
2.08802984146127
 20
-3.12558260045825
 30
0.0
 10
2.085215022142518
 20
-3.136245258421088
 30
0.0
 10
2.080992793164416
 20
-3.14908022259725
 30
0.0
 10
2.073818063487831
 20
-3.159146261247971
 30
0.0
 10
2.063721428974986
 20
-3.166428076442091
 30
0.0
  0
HATCH
  5
B5
330
96
100
AcDbEntity
  8
TML FRIENDSGIVING
 62
    20
420
 15817252
440
 33554687
100
AcDbHatch
 10
0.0
 20
0.0
 30
0.0
210
0.0
220
0.0
230
1.0
  2
SOLID
 70
     1
 71
     1
 91
        1
 92
        1
 93
        1
 72
     4
 94
        3
 73
     0
 74
     0
 95
       98
 96
       94
 40
0.0
 40
0.0
 40
0.0
 40
0.0
 40
1.0
 40
1.0
 40
1.0
 40
2.0
 40
2.0
 40
2.0
 40
3.0
 40
3.0
 40
3.0
 40
4.0
 40
4.0
 40
4.0
 40
5.0
 40
5.0
 40
5.0
 40
6.0
 40
6.0
 40
6.0
 40
7.0
 40
7.0
 40
7.0
 40
8.0
 40
8.0
 40
8.0
 40
9.0
 40
9.0
 40
9.0
 40
10.0
 40
10.0
 40
10.0
 40
11.0
 40
11.0
 40
11.0
 40
12.0
 40
12.0
 40
12.0
 40
13.0
 40
13.0
 40
13.0
 40
14.0
 40
14.0
 40
14.0
 40
15.0
 40
15.0
 40
15.0
 40
16.0
 40
16.0
 40
16.0
 40
17.0
 40
17.0
 40
17.0
 40
18.0
 40
18.0
 40
18.0
 40
19.0
 40
19.0
 40
19.0
 40
20.0
 40
20.0
 40
20.0
 40
21.0
 40
21.0
 40
21.0
 40
22.0
 40
22.0
 40
22.0
 40
23.0
 40
23.0
 40
23.0
 40
24.0
 40
24.0
 40
24.0
 40
25.0
 40
25.0
 40
25.0
 40
26.0
 40
26.0
 40
26.0
 40
27.0
 40
27.0
 40
27.0
 40
28.0
 40
28.0
 40
28.0
 40
29.0
 40
29.0
 40
29.0
 40
30.0
 40
30.0
 40
30.0
 40
31.0
 40
31.0
 40
31.0
 40
31.0
 10
2.063721428974986
 20
-3.166428076442091
 10
2.053609496531053
 20
-3.173725189567297
 10
2.042686773739862
 20
-3.176417625437377
 10
2.030937962670375
 20
-3.17453597991453
 10
2.019189151600888
 20
-3.172654334391659
 10
2.009199602605551
 20
-3.167529527479852
 10
2.000984613615552
 20
-3.159146261247971
 10
1.992754326694466
 20
-3.150778292947153
 10
1.987231773574573
 20
-3.141094702573455
 10
1.984416954255822
 20
-3.130126085989028
 10
1.982061072869479
 20
-3.121054412858559
 10
1.981005515624979
 20
-3.111217843174042
 10
1.981234984591184
 20
-3.100646972797701
 10
1.981479751488425
 20
-3.090060804490273
 10
1.982994246665384
 20
-3.080239532736868
 10
1.985824363915172
 20
-3.071152561675287
 10
1.989419377719008
 20
-3.05862355612069
 10
1.995492656357833
 20
-3.047700833329498
 10
2.004028901900508
 20
-3.038369095370676
 10
2.012565147443183
 20
-3.029052655342891
 10
2.02240171712765
 20
-3.022428651185211
 10
2.033523313022922
 20
-3.018512380828724
 10
2.047153769615255
 20
-3.014137172539802
 10
2.060860715863024
 20
-3.015223325646502
 10
2.074644151766177
 20
-3.021801436010921
 10
2.082155435926526
 20
-3.024784532571553
 10
2.087953351805834
 20
-3.031561516040028
 10
2.092037899404254
 20
-3.042132386416369
 10
2.096107149071536
 20
-3.05270325679271
 10
2.097361579420117
 20
-3.063014062340673
 10
2.095785892518859
 20
-3.073034207198159
 10
2.094225503548689
 20
-3.083054352055594
 10
2.090156253881407
 20
-3.088928757590363
 10
2.083578143516963
 20
-3.090657423802415
 10
2.079019360055099
 20
-3.091284638976705
 10
2.075301962802616
 20
-3.091131659665885
 10
2.072410653828481
 20
-3.090183187938919
 10
2.069504046923257
 20
-3.089250014143039
 10
2.067438826227468
 20
-3.087949690001222
 10
2.066184395878887
 20
-3.086312811375667
 10
2.064929965530306
 20
-3.084660634819
 10
2.06375202483716
 20
-3.082947266538035
 10
2.062665871730435
 20
-3.081142110670573
 10
2.061564420692724
 20
-3.079336954803137
 10
2.060034627584678
 20
-3.077776565832967
 10
2.058076492406446
 20
-3.076445645829026
 10
2.056118357228216
 20
-3.075114725825035
 10
2.053487113082408
 20
-3.074518106512919
 10
2.050198057900211
 20
-3.074671085823713
 10
2.045975828922059
 20
-3.07561955755068
 10
2.042411410980447
 20
-3.078434376869431
 10
2.039520102006311
 20
-3.083130841711004
 10
2.036613495101088
 20
-3.087842604483663
 10
2.034655359922806
 20
-3.092569665187435
 10
2.033645696471567
 20
-3.097357917615504
 10
2.032620735089191
 20
-3.102130872112486
 10
2.032024115777049
 20
-3.1067202514365
 10
2.03187113646623
 20
-3.111095459725397
 10
2.03187113646623
 20
-3.117520590779046
 10
2.033202056470245
 20
-3.122293545276028
 10
2.035863896478127
 20
-3.12542962114743
 10
2.037118326826708
 20
-3.127005308048713
 10
2.039045866142815
 20
-3.127861992189183
 10
2.041631216495362
 20
-3.128014971499977
 10
2.044216566847858
 20
-3.128167950810772
 10
2.046205297888314
 20
-3.127464245981097
 10
2.047612707547664
 20
-3.125903857010926
 10
2.048714158585426
 20
-3.12464942666237
 10
2.049111904793537
 20
-3.123746848728639
 10
2.048790648240861
 20
-3.123196123209759
 10
2.048484689619221
 20
-3.122645397690853
 10
2.047153769615255
 20
-3.121987586654439
 10
2.044797888228913
 20
-3.121207392169329
 10
2.03947420821305
 20
-3.119631705268097
 10
2.037286604068615
 20
-3.115485965945405
 10
2.038219777864469
 20
-3.108754876270141
 10
2.038694013727965
 20
-3.105771779709534
 10
2.039703677179255
 20
-3.103339408667807
 10
2.041279364080512
 20
-3.10145776314496
 10
2.042839753050682
 20
-3.099591415553176
 10
2.04511914478164
 20
-3.098719433481619
 10
2.04808694341116
 20
-3.098872412792414
 10
2.066566844155861
 20
-3.100142141072081
 10
2.078636911778074
 20
-3.102253255561132
 10
2.084281848346664
 20
-3.105221054190628
 10
2.085689258006014
 20
-3.1060165466068
 10
2.086698921457304
 20
-3.107423956266175
 10
2.087326136631569
 20
-3.109458581099842
 10
2.08873354629097
 20
-3.116663906638551
 10
2.08802984146127
 20
-3.12558260045825
 10
2.085215022142518
 20
-3.136245258421088
 10
2.080992793164416
 20
-3.14908022259725
 10
2.073818063487831
 20
-3.159146261247971
 10
2.063721428974986
 20
-3.166428076442091
 97
        0
 97
        1
330
B4
 75
     2
 76
     1
 98
        1
 10
0.0
 20
0.0
450
        0
451
        0
460
0.0
461
0.0
452
        0
462
0.0
453
        0
470

  0
ENDBLK
  5
99
330
96
100
AcDbEntity
  8
0
100
AcDbBlockEnd
  0
ENDSEC
  0
SECTION
  2
ENTITIES
  0
SPLINE
  5
7E
330
70
100
AcDbEntity
  8
TML FRIENDSGIVING
100
AcDbSpline
210
0.0
220
0.0
230
1.0
 70
     9
 71
     3
 72
   566
 73
   562
 74
     0
 42
0.0000000001
 43
0.0000000001
 40
0.0
 40
0.0
 40
0.0
 40
0.0
 40
1.0
 40
1.0
 40
1.0
 40
2.0
 40
2.0
 40
2.0
 40
3.0
 40
3.0
 40
3.0
 40
4.0
 40
4.0
 40
4.0
 40
5.0
 40
5.0
 40
5.0
 40
6.0
 40
6.0
 40
6.0
 40
7.0
 40
7.0
 40
7.0
 40
8.0
 40
8.0
 40
8.0
 40
9.0
 40
9.0
 40
9.0
 40
10.0
 40
10.0
 40
10.0
 40
11.0
 40
11.0
 40
11.0
 40
12.0
 40
12.0
 40
12.0
 40
13.0
 40
13.0
 40
13.0
 40
14.0
 40
14.0
 40
14.0
 40
15.0
 40
15.0
 40
15.0
 40
16.0
 40
16.0
 40
16.0
 40
17.0
 40
17.0
 40
17.0
 40
18.0
 40
18.0
 40
18.0
 40
19.0
 40
19.0
 40
19.0
 40
20.0
 40
20.0
 40
20.0
 40
21.0
 40
21.0
 40
21.0
 40
22.0
 40
22.0
 40
22.0
 40
23.0
 40
23.0
 40
23.0
 40
24.0
 40
24.0
 40
24.0
 40
25.0
 40
25.0
 40
25.0
 40
26.0
 40
26.0
 40
26.0
 40
27.0
 40
27.0
 40
27.0
 40
28.0
 40
28.0
 40
28.0
 40
29.0
 40
29.0
 40
29.0
 40
30.0
 40
30.0
 40
30.0
 40
31.0
 40
31.0
 40
31.0
 40
32.0
 40
32.0
 40
32.0
 40
33.0
 40
33.0
 40
33.0
 40
34.0
 40
34.0
 40
34.0
 40
35.0
 40
35.0
 40
35.0
 40
36.0
 40
36.0
 40
36.0
 40
37.0
 40
37.0
 40
37.0
 40
38.0
 40
38.0
 40
38.0
 40
39.0
 40
39.0
 40
39.0
 40
40.0
 40
40.0
 40
40.0
 40
41.0
 40
41.0
 40
41.0
 40
42.0
 40
42.0
 40
42.0
 40
43.0
 40
43.0
 40
43.0
 40
44.0
 40
44.0
 40
44.0
 40
45.0
 40
45.0
 40
45.0
 40
46.0
 40
46.0
 40
46.0
 40
47.0
 40
47.0
 40
47.0
 40
48.0
 40
48.0
 40
48.0
 40
49.0
 40
49.0
 40
49.0
 40
50.0
 40
50.0
 40
50.0
 40
51.0
 40
51.0
 40
51.0
 40
52.0
 40
52.0
 40
52.0
 40
53.0
 40
53.0
 40
53.0
 40
54.0
 40
54.0
 40
54.0
 40
55.0
 40
55.0
 40
55.0
 40
56.0
 40
56.0
 40
56.0
 40
57.0
 40
57.0
 40
57.0
 40
58.0
 40
58.0
 40
58.0
 40
59.0
 40
59.0
 40
59.0
 40
60.0
 40
60.0
 40
60.0
 40
61.0
 40
61.0
 40
61.0
 40
62.0
 40
62.0
 40
62.0
 40
63.0
 40
63.0
 40
63.0
 40
64.0
 40
64.0
 40
64.0
 40
65.0
 40
65.0
 40
65.0
 40
66.0
 40
66.0
 40
66.0
 40
67.0
 40
67.0
 40
67.0
 40
68.0
 40
68.0
 40
68.0
 40
69.0
 40
69.0
 40
69.0
 40
70.0
 40
70.0
 40
70.0
 40
71.0
 40
71.0
 40
71.0
 40
72.0
 40
72.0
 40
72.0
 40
73.0
 40
73.0
 40
73.0
 40
74.0
 40
74.0
 40
74.0
 40
75.0
 40
75.0
 40
75.0
 40
76.0
 40
76.0
 40
76.0
 40
77.0
 40
77.0
 40
77.0
 40
78.0
 40
78.0
 40
78.0
 40
79.0
 40
79.0
 40
79.0
 40
80.0
 40
80.0
 40
80.0
 40
81.0
 40
81.0
 40
81.0
 40
82.0
 40
82.0
 40
82.0
 40
83.0
 40
83.0
 40
83.0
 40
84.0
 40
84.0
 40
84.0
 40
85.0
 40
85.0
 40
85.0
 40
86.0
 40
86.0
 40
86.0
 40
87.0
 40
87.0
 40
87.0
 40
88.0
 40
88.0
 40
88.0
 40
89.0
 40
89.0
 40
89.0
 40
90.0
 40
90.0
 40
90.0
 40
91.0
 40
91.0
 40
91.0
 40
92.0
 40
92.0
 40
92.0
 40
93.0
 40
93.0
 40
93.0
 40
94.0
 40
94.0
 40
94.0
 40
95.0
 40
95.0
 40
95.0
 40
96.0
 40
96.0
 40
96.0
 40
97.0
 40
97.0
 40
97.0
 40
98.0
 40
98.0
 40
98.0
 40
99.0
 40
99.0
 40
99.0
 40
100.0
 40
100.0
 40
100.0
 40
101.0
 40
101.0
 40
101.0
 40
102.0
 40
102.0
 40
102.0
 40
103.0
 40
103.0
 40
103.0
 40
104.0
 40
104.0
 40
104.0
 40
105.0
 40
105.0
 40
105.0
 40
106.0
 40
106.0
 40
106.0
 40
107.0
 40
107.0
 40
107.0
 40
108.0
 40
108.0
 40
108.0
 40
109.0
 40
109.0
 40
109.0
 40
110.0
 40
110.0
 40
110.0
 40
111.0
 40
111.0
 40
111.0
 40
112.0
 40
112.0
 40
112.0
 40
113.0
 40
113.0
 40
113.0
 40
114.0
 40
114.0
 40
114.0
 40
115.0
 40
115.0
 40
115.0
 40
116.0
 40
116.0
 40
116.0
 40
117.0
 40
117.0
 40
117.0
 40
118.0
 40
118.0
 40
118.0
 40
119.0
 40
119.0
 40
119.0
 40
120.0
 40
120.0
 40
120.0
 40
121.0
 40
121.0
 40
121.0
 40
122.0
 40
122.0
 40
122.0
 40
123.0
 40
123.0
 40
123.0
 40
124.0
 40
124.0
 40
124.0
 40
125.0
 40
125.0
 40
125.0
 40
126.0
 40
126.0
 40
126.0
 40
127.0
 40
127.0
 40
127.0
 40
128.0
 40
128.0
 40
128.0
 40
129.0
 40
129.0
 40
129.0
 40
130.0
 40
130.0
 40
130.0
 40
131.0
 40
131.0
 40
131.0
 40
132.0
 40
132.0
 40
132.0
 40
133.0
 40
133.0
 40
133.0
 40
134.0
 40
134.0
 40
134.0
 40
135.0
 40
135.0
 40
135.0
 40
136.0
 40
136.0
 40
136.0
 40
137.0
 40
137.0
 40
137.0
 40
138.0
 40
138.0
 40
138.0
 40
139.0
 40
139.0
 40
139.0
 40
140.0
 40
140.0
 40
140.0
 40
141.0
 40
141.0
 40
141.0
 40
142.0
 40
142.0
 40
142.0
 40
143.0
 40
143.0
 40
143.0
 40
144.0
 40
144.0
 40
144.0
 40
145.0
 40
145.0
 40
145.0
 40
146.0
 40
146.0
 40
146.0
 40
147.0
 40
147.0
 40
147.0
 40
148.0
 40
148.0
 40
148.0
 40
149.0
 40
149.0
 40
149.0
 40
150.0
 40
150.0
 40
150.0
 40
151.0
 40
151.0
 40
151.0
 40
152.0
 40
152.0
 40
152.0
 40
153.0
 40
153.0
 40
153.0
 40
154.0
 40
154.0
 40
154.0
 40
155.0
 40
155.0
 40
155.0
 40
156.0
 40
156.0
 40
156.0
 40
157.0
 40
157.0
 40
157.0
 40
158.0
 40
158.0
 40
158.0
 40
159.0
 40
159.0
 40
159.0
 40
160.0
 40
160.0
 40
160.0
 40
161.0
 40
161.0
 40
161.0
 40
162.0
 40
162.0
 40
162.0
 40
163.0
 40
163.0
 40
163.0
 40
164.0
 40
164.0
 40
164.0
 40
165.0
 40
165.0
 40
165.0
 40
166.0
 40
166.0
 40
166.0
 40
167.0
 40
167.0
 40
167.0
 40
168.0
 40
168.0
 40
168.0
 40
169.0
 40
169.0
 40
169.0
 40
170.0
 40
170.0
 40
170.0
 40
171.0
 40
171.0
 40
171.0
 40
172.0
 40
172.0
 40
172.0
 40
173.0
 40
173.0
 40
173.0
 40
174.0
 40
174.0
 40
174.0
 40
175.0
 40
175.0
 40
175.0
 40
176.0
 40
176.0
 40
176.0
 40
177.0
 40
177.0
 40
177.0
 40
178.0
 40
178.0
 40
178.0
 40
179.0
 40
179.0
 40
179.0
 40
180.0
 40
180.0
 40
180.0
 40
181.0
 40
181.0
 40
181.0
 40
182.0
 40
182.0
 40
182.0
 40
183.0
 40
183.0
 40
183.0
 40
184.0
 40
184.0
 40
184.0
 40
185.0
 40
185.0
 40
185.0
 40
186.0
 40
186.0
 40
186.0
 40
187.0
 40
187.0
 40
187.0
 40
187.0
 10
2.137471726601132
 20
-3.021986080856726
 30
0.0
 10
2.126539651948355
 20
-2.993679331724782
 30
0.0
 10
2.10836473875391
 20
-2.980658498391449
 30
0.0
 10
2.094394469656688
 20
-2.974690616447004
 30
0.0
 10
2.069871900212243
 20
-2.963324514016449
 30
0.0
 10
2.043748853337243
 20
-2.96152058606506
 30
0.0
 10
2.01876512937891
 20
-2.969563663322004
 30
0.0
 10
2.01876512937891
 20
-2.969563663322004
 30
0.0
 10
2.017449482677521
 20
-2.970011254467837
 30
0.0
 10
2.017449482677521
 20
-2.970011254467837
 30
0.0
 10
2.00969038843924
 20
-2.972744273131032
 30
0.0
 10
2.002394144135855
 20
-2.976432661531639
 30
0.0
 10
1.995400532482209
 20
-2.980692406811587
 30
0.0
 10
1.993996723888459
 20
-2.979525109448306
 30
0.0
 10
1.992738721501306
 20
-2.978237437193532
 30
0.0
 10
1.991231492226132
 20
-2.977159149433115
 30
0.0
 10
1.978685376774743
 20
-2.96826157998867
 30
0.0
 10
1.963914868962243
 20
-2.96335164075256
 30
0.0
 10
1.947259052990021
 20
-2.962592092141449
 30
0.0
 10
1.933885572087243
 20
-2.962090247523393
 30
0.0
 10
1.920946118962243
 20
-2.964097625995615
 30
0.0
 10
1.90865770750391
 20
-2.968790551342837
 30
0.0
 10
1.902255797781688
 20
-2.966566158981726
 30
0.0
 10
1.895406296913632
 20
-2.965291202384504
 30
0.0
 10
1.888177021740021
 20
-2.964952118183115
 30
0.0
 10
1.875413892399743
 20
-2.964436710197004
 30
0.0
 10
1.862528692746966
 20
-2.96603718762756
 30
0.0
 10
1.849874070351132
 20
-2.969902747523393
 30
0.0
 10
1.847635266911462
 20
-2.97059787013624
 30
0.0
 10
1.845555833046445
 20
-2.971500681822438
 30
0.0
 10
1.84345266328733
 20
-2.972372128220007
 30
0.0
 10
1.83966848359983
 20
-2.970615672056813
 30
0.0
 10
1.835746974810768
 20
-2.969054189309417
 30
0.0
 10
1.831495706635855
 20
-2.967976749259504
 30
0.0
 10
1.825202303858077
 20
-2.966416961933115
 30
0.0
 10
1.818488436670577
 20
-2.965616723217837
 30
0.0
 10
1.811543992226132
 20
-2.965616723217837
 30
0.0
 10
1.811543992226132
 20
-2.965616723217837
 30
0.0
 10
1.808532924517799
 20
-2.965711666794226
 30
0.0
 10
1.808532924517799
 20
-2.965711666794226
 30
0.0
 10
1.799246255952261
 20
-2.96628641451558
 30
0.0
 10
1.790636908078997
 20
-2.968150529912716
 30
0.0
 10
1.782696403792973
 20
-2.971040375019052
 30
0.0
 10
1.781268859305125
 20
-2.970335079880164
 30
0.0
 10
1.779886243473962
 20
-2.969542470559417
 30
0.0
 10
1.77840868406641
 20
-2.968939748391449
 30
0.0
 10
1.77840868406641
 20
-2.968939748391449
 30
0.0
 10
1.776713263059466
 20
-2.968288706724782
 30
0.0
 10
1.776713263059466
 20
-2.968288706724782
 30
0.0
 10
1.766703497434466
 20
-2.964653724085893
 30
0.0
 10
1.755039000906688
 20
-2.962849796134504
 30
0.0
 10
1.741082295177521
 20
-2.962781979294226
 30
0.0
 10
1.730272290837243
 20
-2.962578528773393
 30
0.0
 10
1.721117017399743
 20
-2.96386704873867
 30
0.0
 10
1.712884052990021
 20
-2.966823862974782
 30
0.0
 10
1.711527716184466
 20
-2.967298580856726
 30
0.0
 10
1.710198506115021
 20
-2.967813988842837
 30
0.0
 10
1.708882859413632
 20
-2.96838365030117
 30
0.0
 10
1.695129604205299
 20
-2.963026119919226
 30
0.0
 10
1.676547789969188
 20
-2.961005178078949
 30
0.0
 10
1.651659009587243
 20
-2.966498342141449
 30
0.0
 10
1.651659009587243
 20
-2.966498342141449
 30
0.0
 10
1.647264478337243
 20
-2.967678355162282
 30
0.0
 10
1.647264478337243
 20
-2.967678355162282
 30
0.0
 10
1.642861469982209
 20
-2.969090640861066
 30
0.0
 10
1.638804327512591
 20
-2.970729265264278
 30
0.0
 10
1.63495656953733
 20
-2.972513695874087
 30
0.0
 10
1.631062187484379
 20
-2.970675011792056
 30
0.0
 10
1.626992329357209
 20
-2.969092336282074
 30
0.0
 10
1.622606275212243
 20
-2.967976749259504
 30
0.0
 10
1.616858797998702
 20
-2.966551747903167
 30
0.0
 10
1.610730698769101
 20
-2.965846452764278
 30
0.0
 10
1.604426275754778
 20
-2.965720143899261
 30
0.0
 10
1.604426275754778
 20
-2.965720143899261
 30
0.0
 10
1.604426275754778
 20
-2.965186086282074
 30
0.0
 10
1.604426275754778
 20
-2.965186086282074
 30
0.0
 10
1.604426275754778
 20
-2.965186086282074
 30
0.0
 10
1.564532171750872
 20
-2.965186086282074
 30
0.0
 10
1.564532171750872
 20
-2.965186086282074
 30
0.0
 10
1.564532171750872
 20
-2.965186086282074
 30
0.0
 10
1.564532171750872
 20
-2.917481177699174
 30
0.0
 10
1.564532171750872
 20
-2.917481177699174
 30
0.0
 10
1.564544039697921
 20
-2.917176001917924
 30
0.0
 10
1.56459998859115
 20
-2.916919145635372
 30
0.0
 10
1.564609313406688
 20
-2.916612274433115
 30
0.0
 10
1.564609313406688
 20
-2.916612274433115
 30
0.0
 10
1.56466356687891
 20
-2.915066050474782
 30
0.0
 10
1.56466356687891
 20
-2.915066050474782
 30
0.0
 10
1.56466356687891
 20
-2.915066050474782
 30
0.0
 10
1.564609313406688
 20
-2.913519826516449
 30
0.0
 10
1.564609313406688
 20
-2.913519826516449
 30
0.0
 10
1.564599140880646
 20
-2.913198544235632
 30
0.0
 10
1.564544887408424
 20
-2.9129221906115
 30
0.0
 10
1.564532171750872
 20
-2.912603451462195
 30
0.0
 10
1.564532171750872
 20
-2.912603451462195
 30
0.0
 10
1.564532171750872
 20
-2.909334679760806
 30
0.0
 10
1.564532171750872
 20
-2.909334679760806
 30
0.0
 10
1.564532171750872
 20
-2.909334679760806
 30
0.0
 10
1.564257513547747
 20
-2.909334679760806
 30
0.0
 10
1.564257513547747
 20
-2.909334679760806
 30
0.0
 10
1.562285738916671
 20
-2.882920020472612
 30
0.0
 10
1.550474588471792
 20
-2.866524451624955
 30
0.0
 10
1.540520771740021
 20
-2.85739460950256
 30
0.0
 10
1.531691019135855
 20
-2.849310842141449
 30
0.0
 10
1.517096835108077
 20
-2.84018269544006
 30
0.0
 10
1.49496141844141
 20
-2.837971866447004
 30
0.0
 10
1.496005797781688
 20
-2.824991723217837
 30
0.0
 10
1.497023050385855
 20
-2.810465356030337
 30
0.0
 10
1.498053866358077
 20
-2.794135060891449
 30
0.0
 10
1.49984423094141
 20
-2.765448537453949
 30
0.0
 10
1.500441019135855
 20
-2.741224362106726
 30
0.0
 10
1.499803540837243
 20
-2.722086449780337
 30
0.0
 10
1.499532273476132
 20
-2.662828094745615
 30
0.0
 10
1.472364847260855
 20
-2.635633541794226
 30
0.0
 10
1.44955126219141
 20
-2.623236623391449
 30
0.0
 10
1.421217386323355
 20
-2.607842200648393
 30
0.0
 10
1.383931687538632
 20
-2.606879201516449
 30
0.0
 10
1.335524026948355
 20
-2.620293372523393
 30
0.0
 10
1.335524026948355
 20
-2.620293372523393
 30
0.0
 10
1.331780537365021
 20
-2.621500512280337
 30
0.0
 10
1.331780537365021
 20
-2.621500512280337
 30
0.0
 10
1.314658480615889
 20
-2.627788828795094
 30
0.0
 10
1.300681429834639
 20
-2.638316545537716
 30
0.0
 10
1.290543659923615
 20
-2.651765472675303
 30
0.0
 10
1.286937499441844
 20
-2.646817386466535
 30
0.0
 10
1.283021924626306
 20
-2.642127004250824
 30
0.0
 10
1.278503627642799
 20
-2.637966441099782
 30
0.0
 10
1.266988328163632
 20
-2.627387014016449
 30
0.0
 10
1.25191942625391
 20
-2.619493133808115
 30
0.0
 10
1.232455993094188
 20
-2.613823645960893
 30
0.0
 10
1.232455993094188
 20
-2.613823645960893
 30
0.0
 10
1.230245164101132
 20
-2.613240421134504
 30
0.0
 10
1.230245164101132
 20
-2.613240421134504
 30
0.0
 10
1.205505580767799
 20
-2.60729966592617
 30
0.0
 10
1.173862243094188
 20
-2.608954396828949
 30
0.0
 10
1.133538349865021
 20
-2.61838093762756
 30
0.0
 10
1.133538349865021
 20
-2.61838093762756
 30
0.0
 10
1.128424960108077
 20
-2.619574514016449
 30
0.0
 10
1.128424960108077
 20
-2.619574514016449
 30
0.0
 10
1.128424960108077
 20
-2.619574514016449
 30
0.0
 10
1.123677781288632
 20
-2.621839596481726
 30
0.0
 10
1.123677781288632
 20
-2.621839596481726
 30
0.0
 10
1.113111917573355
 20
-2.626871606030337
 30
0.0
 10
1.103821010455299
 20
-2.633626163322004
 30
0.0
 10
1.09597460203516
 20
-2.641926944572004
 30
0.0
 10
1.088372334240021
 20
-2.634846866447004
 30
0.0
 10
1.079854539101145
 20
-2.629380829120615
 30
0.0
 10
1.070448343354617
 20
-2.62558308606506
 30
0.0
 10
1.053833217486562
 20
-2.61889634561367
 30
0.0
 10
1.032375969222673
 20
-2.616292178947004
 30
0.0
 10
1.000210441878923
 20
-2.617146671134504
 30
0.0
 10
0.9764609844136455
 20
-2.618109670266449
 30
0.0
 10
0.957736754812951
 20
-2.622585581724782
 30
0.0
 10
0.9429119935282288
 20
-2.630886362974782
 30
0.0
 10
0.9352224115512322
 20
-2.635196123174435
 30
0.0
 10
0.9285831428880378
 20
-2.641247080748219
 30
0.0
 10
0.9225652460238885
 20
-2.648283925637542
 30
0.0
 10
0.9198457907287496
 20
-2.644902408439191
 30
0.0
 10
0.9169686612799649
 20
-2.641670935999955
 30
0.0
 10
0.9137643155768399
 20
-2.638753116447004
 30
0.0
 10
0.9137643155768399
 20
-2.638753116447004
 30
0.0
 10
0.9119196975212844
 20
-2.637166202384504
 30
0.0
 10
0.9119196975212844
 20
-2.637166202384504
 30
0.0
 10
0.9004179614101733
 20
-2.627698971481726
 30
0.0
 10
0.8867121779900344
 20
-2.621283498391449
 30
0.0
 10
0.8710939596740621
 20
-2.618082543530337
 30
0.0
 10
0.8639392830247565
 20
-2.616631263148393
 30
0.0
 10
0.8512982239969788
 20
-2.614773081724782
 30
0.0
 10
0.8173287687018399
 20
-2.61337605481506
 30
0.0
 10
0.7910014235955032
 20
-2.611990895852386
 30
0.0
 10
0.765831203326406
 20
-2.612657196308115
 30
0.0
 10
0.7421885573845657
 20
-2.614930755878428
 30
0.0
 10
0.7421885573845657
 20
-2.614930755878428
 30
0.0
 10
0.6225757576341317
 20
-2.526132232929209
 30
0.0
 10
0.6225757576341317
 20
-2.526132232929209
 30
0.0
 10
0.6191993266988018
 20
-2.514977210414018
 30
0.0
 10
0.6150277433112149
 20
-2.504660573586761
 30
0.0
 10
0.6111384475212845
 20
-2.495171302210893
 30
0.0
 10
0.6095854418789233
 20
-2.491387122523393
 30
0.0
 10
0.6080256545525345
 20
-2.487575816099782
 30
0.0
 10
0.6065404657504511
 20
-2.483750946308115
 30
0.0
 10
0.5900135017747567
 20
-2.44103990030117
 30
0.0
 10
0.5586956849344789
 20
-2.415106740578949
 30
0.0
 10
0.5273100512539233
 20
-2.393446041794226
 30
0.0
 10
0.5068022387539233
 20
-2.379299448912282
 30
0.0
 10
0.4809911493442011
 20
-2.369615204120615
 30
0.0
 10
0.4506024232157289
 20
-2.364678138148393
 30
0.0
 10
0.4310304831115622
 20
-2.361517873391449
 30
0.0
 10
0.4125910842400345
 20
-2.36083970498867
 30
0.0
 10
0.3957521627990622
 20
-2.362819956724782
 30
0.0
 10
0.3730131762539233
 20
-2.365437686759504
 30
0.0
 10
0.3486465855421177
 20
-2.36960164075256
 30
0.0
 10
0.3245241354553122
 20
-2.382120629467837
 30
0.0
 10
0.3186537402187671
 20
-2.385169844148827
 30
0.0
 10
0.3098723071132983
 20
-2.390468882506032
 30
0.0
 10
0.3006161561258851
 20
-2.396541880552907
 30
0.0
 10
0.2823954665642532
 20
-2.377412445331553
 30
0.0
 10
0.2596641094136455
 20
-2.375226199943098
 30
0.0
 10
0.2484539857157288
 20
-2.374253875995615
 30
0.0
 10
0.2472807543789233
 20
-2.37414536905117
 30
0.0
 10
0.2461210864101733
 20
-2.374063988842837
 30
0.0
 10
0.2450292352817011
 20
-2.373914791794226
 30
0.0
 10
0.2233142830247567
 20
-2.370876597349782
 30
0.0
 10
0.20587857338934
 20
-2.37802449231506
 30
0.0
 10
0.1930747539448955
 20
-2.386121823044226
 30
0.0
 10
0.1824749818094789
 20
-2.386637231030337
 30
0.0
 10
0.1736316658372566
 20
-2.388902313495615
 30
0.0
 10
0.1672161927469789
 20
-2.390543481030337
 30
0.0
 10
0.1655546801601733
 20
-2.390977508808115
 30
0.0
 10
0.1639609844136455
 20
-2.39145222669006
 30
0.0
 10
0.1629301684414233
 20
-2.391642113842837
 30
0.0
 10
0.1629301684414233
 20
-2.391642113842837
 30
0.0
 10
0.14844449135809
 20
-2.39306626748867
 30
0.0
 10
0.14844449135809
 20
-2.39306626748867
 30
0.0
 10
0.14844449135809
 20
-2.39306626748867
 30
0.0
 10
0.13294156167059
 20
-2.405585256203949
 30
0.0
 10
0.13294156167059
 20
-2.405585256203949
 30
0.0
 10
0.1242203160108678
 20
-2.406304114710893
 30
0.0
 10
0.1168418437886455
 20
-2.408257239710893
 30
0.0
 10
0.1113012079379511
 20
-2.409708520092837
 30
0.0
 10
0.1095854418789233
 20
-2.410169674606726
 30
0.0
 10
0.1078968025560066
 20
-2.410698645960893
 30
0.0
 10
0.10706265542059
 20
-2.41088853311367
 30
0.0
 10
0.10706265542059
 20
-2.41088853311367
 30
0.0
 10
0.0880603767747567
 20
-2.411729461933115
 30
0.0
 10
0.0880603767747567
 20
-2.411729461933115
 30
0.0
 10
0.0880603767747567
 20
-2.411729461933115
 30
0.0
 10
0.0658367982157289
 20
-2.434163272697004
 30
0.0
 10
0.0658367982157289
 20
-2.434163272697004
 30
0.0
 10
0.0525107891011456
 20
-2.435478919398393
 30
0.0
 10
0.0419720521219789
 20
-2.43945298623867
 30
0.0
 10
0.0370485495178122
 20
-2.441297604294226
 30
0.0
 10
0.0252891094136456
 20
-2.445705698912282
 30
0.0
 10
0.0082060473476733
 20
-2.454020043530337
 30
0.0
 10
-0.0064220451002433
 20
-2.468654917662282
 30
0.0
 10
-0.0122949834682989
 20
-2.474527856030337
 30
0.0
 10
-0.0168590568189934
 20
-2.480658498391449
 30
0.0
 10
-0.0206432365064934
 20
-2.486436493183115
 30
0.0
 10
-0.0511133428432989
 20
-2.49475083780117
 30
0.0
 10
-0.0837739331210767
 20
-2.515272213669226
 30
0.0
 10
-0.1048446253953822
 20
-2.561563988842837
 30
0.0
 10
-0.1307031865932989
 20
-2.57446275186367
 30
0.0
 10
-0.1511024921488544
 20
-2.593044566099782
 30
0.0
 10
-0.1656559860724656
 20
-2.617011037453949
 30
0.0
 10
-0.18248812582941
 20
-2.644720998391449
 30
0.0
 10
-0.1865300095099656
 20
-2.673231198044226
 30
0.0
 10
-0.18639437582941
 20
-2.698025034849782
 30
0.0
 10
-0.1998763636766322
 20
-2.714802921134504
 30
0.0
 10
-0.2085094474439933
 20
-2.733357608634504
 30
0.0
 10
-0.2121376483988544
 20
-2.753431393356726
 30
0.0
 10
-0.2150537725307989
 20
-2.769585364710893
 30
0.0
 10
-0.2171289678432989
 20
-2.789143741447004
 30
0.0
 10
-0.2122393736592711
 20
-2.809719370787282
 30
0.0
 10
-0.2279660989196878
 20
-2.841864553078949
 30
0.0
 10
-0.2293292174092711
 20
-2.877237816967837
 30
0.0
 10
-0.2161930954474656
 20
-2.907212860370615
 30
0.0
 10
-0.2161930954474656
 20
-2.907212860370615
 30
0.0
 10
-0.2223033927564933
 20
-2.923299014884504
 30
0.0
 10
-0.2223033927564933
 20
-2.923299014884504
 30
0.0
 10
-0.2223033927564933
 20
-2.923299014884504
 30
0.0
 10
-0.2181869105516322
 20
-2.943277856030337
 30
0.0
 10
-0.2181869105516322
 20
-2.943277856030337
 30
0.0
 10
-0.2169797707946878
 20
-2.949232174606726
 30
0.0
 10
-0.2157319409335767
 20
-2.955403507072004
 30
0.0
 10
-0.2142942239196878
 20
-2.96152058606506
 30
0.0
 10
-0.2142942239196878
 20
-2.96152058606506
 30
0.0
 10
-0.2139483580342711
 20
-2.963188880335893
 30
0.0
 10
-0.2139483580342711
 20
-2.963188880335893
 30
0.0
 10
-0.2130870841627433
 20
-2.96737996106506
 30
0.0
 10
-0.2117375290412156
 20
-2.973917504467837
 30
0.0
 10
-0.2085026657599656
 20
-2.98120103311367
 30
0.0
 10
-0.2100963615064933
 20
-2.996120737974782
 30
0.0
 10
-0.2108287833814933
 20
-3.020806067835893
 30
0.0
 10
-0.1973128871141322
 20
-3.04357896280117
 30
0.0
 10
-0.1973128871141322
 20
-3.04357896280117
 30
0.0
 10
-0.1881169235724656
 20
-3.087822669398393
 30
0.0
 10
-0.1881169235724656
 20
-3.087822669398393
 30
0.0
 10
-0.1881169235724656
 20
-3.087822669398393
 30
0.0
 10
-0.1813962747009378
 20
-3.096625295266449
 30
0.0
 10
-0.1813962747009378
 20
-3.096625295266449
 30
0.0
 10
-0.1805689092495489
 20
-3.097710364710893
 30
0.0
 10
-0.1798500507426044
 20
-3.098768307419226
 30
0.0
 10
-0.1791651006557989
 20
-3.099758433287282
 30
0.0
 10
-0.1758420754821878
 20
-3.104559865578949
 30
0.0
 10
-0.1708168476176044
 20
-3.111829830856726
 30
0.0
 10
-0.1626856084682989
 20
-3.118367374259504
 30
0.0
 10
-0.1540999964891322
 20
-3.125271128599782
 30
0.0
 10
-0.1452431171488544
 20
-3.129245195440059
 30
0.0
 10
-0.1393905238328822
 20
-3.131876488842837
 30
0.0
 10
-0.1393905238328822
 20
-3.131876488842837
 30
0.0
 10
-0.1373017651523267
 20
-3.13281236123867
 30
0.0
 10
-0.1373017651523267
 20
-3.13281236123867
 30
0.0
 10
-0.12786166098566
 20
-3.137139075648393
 30
0.0
 10
-0.1158038267842711
 20
-3.139254961065059
 30
0.0
 10
-0.1035221970099656
 20
-3.139254961065059
 30
0.0
 10
-0.0890229565585767
 20
-3.139254961065059
 30
0.0
 10
-0.07421175864191
 20
-3.136298146828949
 30
0.0
 10
-0.0630355433641322
 20
-3.130547278773393
 30
0.0
 10
-0.0609332213155211
 20
-3.130086124259504
 30
0.0
 10
-0.05883089926691
 20
-3.129624969745615
 30
0.0
 10
-0.0567285772182989
 20
-3.129177378599782
 30
0.0
 10
-0.0416257668884378
 20
-3.125908606898393
 30
0.0
 10
-0.0245155780863545
 20
-3.122219370787282
 30
0.0
 10
-0.0069577981384378
 20
-3.114488250995615
 30
0.0
 10
-0.0055675529127433
 20
-3.113945716273393
 30
0.0
 10
-0.0012340568189933
 20
-3.113104787453949
 30
0.0
 10
0.0019329896219789
 20
-3.112494435891449
 30
0.0
 10
0.0113934388407289
 20
-3.110676944572004
 30
0.0
 10
0.0240480612365622
 20
-3.10824910169006
 30
0.0
 10
0.0373740703511456
 20
-3.10141316419006
 30
0.0
 10
0.0382082174865622
 20
-3.10129109387756
 30
0.0
 10
0.0390627096740622
 20
-3.10119615030117
 30
0.0
 10
0.0399104201775344
 20
-3.10107407998867
 30
0.0
 10
0.0443388598476733
 20
-3.10046372842617
 30
0.0
 10
0.0504084670525344
 20
-3.099636362974782
 30
0.0
 10
0.0569731371914233
 20
-3.097805308287282
 30
0.0
 10
0.0633682652296178
 20
-3.096014943703949
 30
0.0
 10
0.0687054505594789
 20
-3.093804114710893
 30
0.0
 10
0.0729846931810067
 20
-3.09201375012756
 30
0.0
 10
0.0743749384067011
 20
-3.091444088669226
 30
0.0
 10
0.0757312752122567
 20
-3.090806610370615
 30
0.0
 10
0.0771283021219789
 20
-3.09033189248867
 30
0.0
 10
0.0938519349344789
 20
-3.087836232766449
 30
0.0
 10
0.1086699145351733
 20
-3.082912730162282
 30
0.0
 10
0.1217789097608678
 20
-3.078572452384504
 30
0.0
 10
0.1266608745503643
 20
-3.076953325322872
 30
0.0
 10
0.1313648201341316
 20
-3.075410492206553
 30
0.0
 10
0.1357610468051386
 20
-3.074093150084157
 30
0.0
 10
0.1388585809848261
 20
-3.080300934101084
 30
0.0
 10
0.1420747946349997
 20
-3.086307810728688
 30
0.0
 10
0.1452842266011455
 20
-3.092149383808115
 30
0.0
 10
0.1727500469136455
 20
-3.142143958460893
 30
0.0
 10
0.2122669197435067
 20
-3.174451901169226
 30
0.0
 10
0.2333647387539233
 20
-3.189249535717837
 30
0.0
 10
0.2677207500386455
 20
-3.21337876748867
 30
0.0
 10
0.3075224535976733
 20
-3.228976640752559
 30
0.0
 10
0.351657653250451
 20
-3.235636254467837
 30
0.0
 10
0.3646242331115622
 20
-3.237589379467837
 30
0.0
 10
0.3787708259935067
 20
-3.239420434155337
 30
0.0
 10
0.3936701858025344
 20
-3.239420434155337
 30
0.0
 10
0.4048124926601733
 20
-3.239420434155337
 30
0.0
 10
0.4163752639275345
 20
-3.238389618183115
 30
0.0
 10
0.42816861245184
 20
-3.235636254467837
 30
0.0
 10
0.4450482239969789
 20
-3.238688012280337
 30
0.0
 10
0.4630400317226733
 20
-3.23522935342617
 30
0.0
 10
0.4784547995178122
 20
-3.225490855162282
 30
0.0
 10
0.4793025100212845
 20
-3.225300968009504
 30
0.0
 10
0.4801637838928122
 20
-3.225151770960893
 30
0.0
 10
0.4810114943962845
 20
-3.224989010544226
 30
0.0
 10
0.484536274669722
 20
-3.22427947685282
 30
0.0
 10
0.4892113980963713
 20
-3.223278330748219
 30
0.0
 10
0.4943832798780553
 20
-3.221687178133202
 30
0.0
 10
0.4943832798780553
 20
-3.221687178133202
 30
0.0
 10
0.7154678746046177
 20
-3.221687178133202
 30
0.0
 10
0.7154678746046177
 20
-3.221687178133202
 30
0.0
 10
0.7161824945590448
 20
-3.221702436922264
 30
0.0
 10
0.7168581198303122
 20
-3.221842309155337
 30
0.0
 10
0.7175769783372567
 20
-3.221842309155337
 30
0.0
 10
0.7229819805073955
 20
-3.221842309155337
 30
0.0
 10
0.7285090529900345
 20
-3.221421844745615
 30
0.0
 10
0.7341378507330899
 20
-3.22058091592617
 30
0.0
 10
0.7469781217291837
 20
-3.218514197718705
 30
0.0
 10
0.7582704733459372
 20
-3.213385549172699
 30
0.0
 10
0.7674164219678989
 20
-3.205771413430511
 30
0.0
 10
0.7726044102491489
 20
-3.209108849682681
 30
0.0
 10
0.7783484966206768
 20
-3.211775746926605
 30
0.0
 10
0.7845867982157289
 20
-3.21362290811367
 30
0.0
 10
0.7898426033372567
 20
-3.215142005335893
 30
0.0
 10
0.7944812752122567
 20
-3.216213511412282
 30
0.0
 10
0.7990996020351733
 20
-3.216932369919226
 30
0.0
 10
0.8023141202643399
 20
-3.21740708780117
 30
0.0
 10
0.8064780742573955
 20
-3.217827552210893
 30
0.0
 10
0.8116118090664233
 20
-3.218071692835893
 30
0.0
 10
0.8278742873650344
 20
-3.219211015752559
 30
0.0
 10
0.8408205221740621
 20
-3.217203637280337
 30
0.0
 10
0.8512100621046176
 20
-3.21337876748867
 30
0.0
 10
0.8605891311150344
 20
-3.216891679815059
 30
0.0
 10
0.8711346497782288
 20
-3.218654917662282
 30
0.0
 10
0.8827381111497565
 20
-3.218641354294226
 30
0.0
 10
0.8869088468268399
 20
-3.218641354294226
 30
0.0
 10
0.8912219978685065
 20
-3.218424340405337
 30
0.0
 10
0.8956572192226733
 20
-3.217963185891449
 30
0.0
 10
0.9039181580790101
 20
-3.217232459437455
 30
0.0
 10
0.9109592415208503
 20
-3.215460744485199
 30
0.0
 10
0.9170780159349128
 20
-3.213165144441795
 30
0.0
 10
0.9230798062994962
 20
-3.215462439906205
 30
0.0
 10
0.9293325189731072
 20
-3.21732401217183
 30
0.0
 10
0.9360760560282288
 20
-3.218207326516449
 30
0.0
 10
0.9360760560282288
 20
-3.218207326516449
 30
0.0
 10
0.9364287035976733
 20
-3.218248016620615
 30
0.0
 10
0.9364287035976733
 20
-3.218248016620615
 30
0.0
 10
0.940219664969201
 20
-3.218722734502559
 30
0.0
 10
0.9439970629726733
 20
-3.218953311759504
 30
0.0
 10
0.9477473342400344
 20
-3.218953311759504
 30
0.0
 10
0.9601662931159024
 20
-3.218953311759504
 30
0.0
 10
0.9722487109218921
 20
-3.216266917174
 30
0.0
 10
0.9835215651970656
 20
-3.211292551939625
 30
0.0
 10
0.9979767247022738
 20
-3.21854471529683
 30
0.0
 10
1.01622538871052
 20
-3.222235646828949
 30
0.0
 10
1.03830316106295
 20
-3.222235646828949
 30
0.0
 10
1.045898647174062
 20
-3.222235646828949
 30
0.0
 10
1.053948506115034
 20
-3.22180161905117
 30
0.0
 10
1.062432392833784
 20
-3.22094712686367
 30
0.0
 10
1.062432392833784
 20
-3.22094712686367
 30
0.0
 10
1.066026685368506
 20
-3.220445282245615
 30
0.0
 10
1.066026685368506
 20
-3.220445282245615
 30
0.0
 10
1.071324028304704
 20
-3.219500085034244
 30
0.0
 10
1.076251769461388
 20
-3.21815392075473
 30
0.0
 10
1.080960801308176
 20
-3.216578874639278
 30
0.0
 10
1.087128742931428
 20
-3.219578074400563
 30
0.0
 10
1.093834133013893
 20
-3.221662594528601
 30
0.0
 10
1.101054083371966
 20
-3.22241197061367
 30
0.0
 10
1.105340107677521
 20
-3.222805308287282
 30
0.0
 10
1.110521314274743
 20
-3.222995195440059
 30
0.0
 10
1.117194491358127
 20
-3.222995195440059
 30
0.0
 10
1.118700025212294
 20
-3.222995195440059
 30
0.0
 10
1.120286939274794
 20
-3.222981632072004
 30
0.0
 10
1.121955233545577
 20
-3.222968068703949
 30
0.0
 10
1.132032816010855
 20
-3.222832435023393
 30
0.0
 10
1.138651739621966
 20
-3.222398407245615
 30
0.0
 10
1.143344664969188
 20
-3.221652422002559
 30
0.0
 10
1.148051153684466
 20
-3.220974253599782
 30
0.0
 10
1.152961092920577
 20
-3.219672170266449
 30
0.0
 10
1.157816778684466
 20
-3.217691918530337
 30
0.0
 10
1.168898050385855
 20
-3.221571041794226
 30
0.0
 10
1.180114955767799
 20
-3.223239336065059
 30
0.0
 10
1.191318297781688
 20
-3.222520477558115
 30
0.0
 10
1.201273809934466
 20
-3.22192368936367
 30
0.0
 10
1.210741040837243
 20
-3.219984127731726
 30
0.0
 10
1.219435159760855
 20
-3.216742482766449
 30
0.0
 10
1.219435159760855
 20
-3.216742482766449
 30
0.0
 10
1.222216497922747
 20
-3.215558231193098
 30
0.0
 10
1.222216497922747
 20
-3.215558231193098
 30
0.0
 10
1.228591280908858
 20
-3.217840267868445
 30
0.0
 10
1.235383985173181
 20
-3.219567054164018
 30
0.0
 10
1.242696335976132
 20
-3.220418155509504
 30
0.0
 10
1.242696335976132
 20
-3.220418155509504
 30
0.0
 10
1.245341192746966
 20
-3.220648732766449
 30
0.0
 10
1.245341192746966
 20
-3.220648732766449
 30
0.0
 10
1.248881231809466
 20
-3.220865746655337
 30
0.0
 10
1.252353454031688
 20
-3.220974253599782
 30
0.0
 10
1.255757859413632
 20
-3.220974253599782
 30
0.0
 10
1.283305059934466
 20
-3.220974253599782
 30
0.0
 10
1.306647616358077
 20
-3.213907738842837
 30
0.0
 10
1.325242993962243
 20
-3.199910343009504
 30
0.0
 10
1.325992370047313
 20
-3.199346615524695
 30
0.0
 10
1.326647650266497
 20
-3.198714223489105
 30
0.0
 10
1.327380919852
 20
-3.198138628057247
 30
0.0
 10
1.334014254541671
 20
-3.20265099106723
 30
0.0
 10
1.341167235769969
 20
-3.206604712855424
 30
0.0
 10
1.349114521740021
 20
-3.209648841273393
 30
0.0
 10
1.361742017399743
 20
-3.214490963669226
 30
0.0
 10
1.375305385455299
 20
-3.216891679815059
 30
0.0
 10
1.389194274344188
 20
-3.216891679815059
 30
0.0
 10
1.394755255246966
 20
-3.216891679815059
 30
0.0
 10
1.400370489621966
 20
-3.216498342141449
 30
0.0
 10
1.405999287365021
 20
-3.215738793530337
 30
0.0
 10
1.420686719548181
 20
-3.214087453469574
 30
0.0
 10
1.434249239893233
 20
-3.209050357657941
 30
0.0
 10
1.446329114567712
 20
-3.20145487154683
 30
0.0
 10
1.459305866954865
 20
-3.210959401711761
 30
0.0
 10
1.474356119233511
 20
-3.217278235804643
 30
0.0
 10
1.490675394135855
 20
-3.219889184155337
 30
0.0
 10
1.495653150212243
 20
-3.220689422870615
 30
0.0
 10
1.500603779552521
 20
-3.221082760544226
 30
0.0
 10
1.505513718788632
 20
-3.221082760544226
 30
0.0
 10
1.522963839502608
 20
-3.221082760544226
 30
0.0
 10
1.539702731104171
 20
-3.215821021449174
 30
0.0
 10
1.554905571273441
 20
-3.206057091870181
 30
0.0
 10
1.564567775592018
 20
-3.212291154912715
 30
0.0
 10
1.575565123953563
 20
-3.21659413342834
 30
0.0
 10
1.587884052990021
 20
-3.218207326516449
 30
0.0
 10
1.587884052990021
 20
-3.218207326516449
 30
0.0
 10
1.588250263927521
 20
-3.218248016620615
 30
0.0
 10
1.588250263927521
 20
-3.218248016620615
 30
0.0
 10
1.592048006983077
 20
-3.218722734502559
 30
0.0
 10
1.595818623302521
 20
-3.218953311759504
 30
0.0
 10
1.59957567625391
 20
-3.218953311759504
 30
0.0
 10
1.614603888059466
 20
-3.218953311759504
 30
0.0
 10
1.629198072087243
 20
-3.215236948912282
 30
0.0
 10
1.642327412365021
 20
-3.20800767373867
 30
0.0
 10
1.646317585704865
 20
-3.205808712692664
 30
0.0
 10
1.649977999658858
 20
-3.203223195657074
 30
0.0
 10
1.653440897065542
 20
-3.200430837258636
 30
0.0
 10
1.661123697358511
 20
-3.206436866175736
 30
0.0
 10
1.671115661062938
 20
-3.211718950322872
 30
0.0
 10
1.684400980073355
 20
-3.21484361123867
 30
0.0
 10
1.689392299517799
 20
-3.216023624259504
 30
0.0
 10
1.694464999170577
 20
-3.216891679815059
 30
0.0
 10
1.699619079031688
 20
-3.217461341273393
 30
0.0
 10
1.699619079031688
 20
-3.217461341273393
 30
0.0
 10
1.719948872325959
 20
-3.219175411911414
 30
0.0
 10
1.719948872325959
 20
-3.219175411911414
 30
0.0
 10
1.719948872325959
 20
-3.219175411911414
 30
0.0
 10
1.737257425385855
 20
-3.216240638148393
 30
0.0
 10
1.737257425385855
 20
-3.216240638148393
 30
0.0
 10
1.747035766043407
 20
-3.214368045646223
 30
0.0
 10
1.755840935042973
 20
-3.21085174247782
 30
0.0
 10
1.763756855724396
 20
-3.206015554055511
 30
0.0
 10
1.773436014253042
 20
-3.212271657571136
 30
0.0
 10
1.784454555377174
 20
-3.216590742586327
 30
0.0
 10
1.796800611149743
 20
-3.218207326516449
 30
0.0
 10
1.796800611149743
 20
-3.218207326516449
 30
0.0
 10
1.797139695351132
 20
-3.218248016620615
 30
0.0
 10
1.797139695351132
 20
-3.218248016620615
 30
0.0
 10
1.800937438406688
 20
-3.218722734502559
 30
0.0
 10
1.804721618094188
 20
-3.218953311759504
 30
0.0
 10
1.808478671045577
 20
-3.218953311759504
 30
0.0
 10
1.817198221284292
 20
-3.218953311759504
 30
0.0
 10
1.825732122922747
 20
-3.217552046297264
 30
0.0
 10
1.833963391911462
 20
-3.215086056442664
 30
0.0
 10
1.84088410046181
 20
-3.218945682364973
 30
0.0
 10
1.848605895437938
 20
-3.221543067347611
 30
0.0
 10
1.856981275212243
 20
-3.22241197061367
 30
0.0
 10
1.861267299517799
 20
-3.222805308287282
 30
0.0
 10
1.866448506115021
 20
-3.222995195440059
 30
0.0
 10
1.873108119830299
 20
-3.222995195440059
 30
0.0
 10
1.874613653684466
 20
-3.222995195440059
 30
0.0
 10
1.876200567746966
 20
-3.222981632072004
 30
0.0
 10
1.877868862017799
 20
-3.222968068703949
 30
0.0
 10
1.887973571219188
 20
-3.222832435023393
 30
0.0
 10
1.894606058198355
 20
-3.222398407245615
 30
0.0
 10
1.89925829344141
 20
-3.221652422002559
 30
0.0
 10
1.903964782156688
 20
-3.220974253599782
 30
0.0
 10
1.908874721392799
 20
-3.219672170266449
 30
0.0
 10
1.913743970524743
 20
-3.217691918530337
 30
0.0
 10
1.924784552121966
 20
-3.22155747842617
 30
0.0
 10
1.936015020871966
 20
-3.22326646280117
 30
0.0
 10
1.94723192625391
 20
-3.222520477558115
 30
0.0
 10
1.957187438406688
 20
-3.22192368936367
 30
0.0
 10
1.966654669309466
 20
-3.219984127731726
 30
0.0
 10
1.975348788233077
 20
-3.216742482766449
 30
0.0
 10
1.975348788233077
 20
-3.216742482766449
 30
0.0
 10
1.979553432330299
 20
-3.214952118183115
 30
0.0
 10
1.979553432330299
 20
-3.214952118183115
 30
0.0
 10
1.983335068886288
 20
-3.213126997469139
 30
0.0
 10
1.986768296425351
 20
-3.210802575268619
 30
0.0
 10
1.990084539914935
 20
-3.208339128545528
 30
0.0
 10
2.000325730507382
 20
-3.213972164841101
 30
0.0
 10
2.011466341944014
 20
-3.217986074075042
 30
0.0
 10
2.023363111149743
 20
-3.219889184155337
 30
0.0
 10
2.028340867226132
 20
-3.220689422870615
 30
0.0
 10
2.03329149656641
 20
-3.221082760544226
 30
0.0
 10
2.038201435802521
 20
-3.221082760544226
 30
0.0
 10
2.057420728337243
 20
-3.221082760544226
 30
0.0
 10
2.075880472260855
 20
-3.215006371655337
 30
0.0
 10
2.09225145750391
 20
-3.203192678078949
 30
0.0
 10
2.110819708371966
 20
-3.189792070440059
 30
0.0
 10
2.124016865490021
 20
-3.171481523565059
 30
0.0
 10
2.131476717920577
 20
-3.148749318703949
 30
0.0
 10
2.131476717920577
 20
-3.148749318703949
 30
0.0
 10
2.132304083371966
 20
-3.145968828252559
 30
0.0
 10
2.132304083371966
 20
-3.145968828252559
 30
0.0
 10
2.136495164101132
 20
-3.130031870787282
 30
0.0
 10
2.137702303858077
 20
-3.115790334328949
 30
0.0
 10
2.13595262937891
 20
-3.102593177210893
 30
0.0
 10
2.139777499170577
 20
-3.095255395092837
 30
0.0
 10
2.142476609413632
 20
-3.086954613842837
 30
0.0
 10
2.14388719969141
 20
-3.077921410717837
 30
0.0
 10
2.146789760455299
 20
-3.059407413322004
 30
0.0
 10
2.144633184934466
 20
-3.040595021828949
 30
0.0
 10
2.137471726601132
 20
-3.021986080856726
 30
0.0
  0
INSERT
  5
80
330
70
100
AcDbEntity
  8
TML FRIENDSGIVING
100
AcDbBlockReference
  2
Block_0
 10
0.0
 20
0.0
 30
0.0
  0
ENDSEC
  0
SECTION
  2
OBJECTS
  0
DICTIONARY
  5
C
330
0
100
AcDbDictionary
281
     1
  3
ACAD_COLOR
350
63
  3
ACAD_DETAILVIEWSTYLE
350
6A
  3
ACAD_GROUP
350
D
  3
ACAD_LAYOUT
350
62
  3
ACAD_MATERIAL
350
10
  3
ACAD_MLEADERSTYLE
350
66
  3
ACAD_MLINESTYLE
350
5F
  3
ACAD_PLOTSETTINGS
350
61
  3
ACAD_PLOTSTYLENAME
350
E
  3
ACAD_SCALELIST
350
42
  3
ACAD_SECTIONVIEWSTYLE
350
68
  3
ACAD_TABLESTYLE
350
64
  3
ACAD_VISUALSTYLE
350
29
  3
ACDB_RECOMPOSE_DATA
350
BF
  3
AcDbVariableDictionary
350
B7
  0
DICTIONARY
  5
63
102
{ACAD_REACTORS
330
C
102
}
330
C
100
AcDbDictionary
281
     1
  0
DICTIONARY
  5
6A
102
{ACAD_REACTORS
330
C
102
}
330
C
100
AcDbDictionary
281
     1
  3
Imperial24
350
6B
  0
DICTIONARY
  5
D
102
{ACAD_REACTORS
330
C
102
}
330
C
100
AcDbDictionary
281
     1
  0
DICTIONARY
  5
62
102
{ACAD_REACTORS
330
C
102
}
330
C
100
AcDbDictionary
281
     1
  3
Layout1
350
6F
  3
Layout2
350
77
  3
Model
350
73
  0
DICTIONARY
  5
10
102
{ACAD_REACTORS
330
C
102
}
330
C
100
AcDbDictionary
281
     1
  3
ByBlock
350
19
  3
ByLayer
350
11
  3
Global
350
21
  0
DICTIONARY
  5
66
102
{ACAD_REACTORS
330
C
102
}
330
C
100
AcDbDictionary
281
     1
  3
Standard
350
67
  0
DICTIONARY
  5
5F
102
{ACAD_REACTORS
330
C
102
}
330
C
100
AcDbDictionary
281
     1
  3
Standard
350
60
  0
DICTIONARY
  5
61
102
{ACAD_REACTORS
330
C
102
}
330
C
100
AcDbDictionary
281
     1
  0
ACDBDICTIONARYWDFLT
  5
E
102
{ACAD_REACTORS
330
C
102
}
330
C
100
AcDbDictionary
281
     1
  3
Normal
350
F
100
AcDbDictionaryWithDefault
340
F
  0
DICTIONARY
  5
42
102
{ACAD_REACTORS
330
C
102
}
330
C
100
AcDbDictionary
281
     1
  3
A0
350
43
  3
A1
350
44
  3
A2
350
45
  3
A3
350
46
  3
A4
350
47
  3
A5
350
48
  3
A6
350
49
  3
A7
350
4A
  3
A8
350
4B
  3
A9
350
4C
  3
B0
350
4D
  3
B1
350
4E
  3
B2
350
4F
  3
B3
350
50
  3
B4
350
51
  3
B5
350
52
  3
B6
350
53
  0
DICTIONARY
  5
68
102
{ACAD_REACTORS
330
C
102
}
330
C
100
AcDbDictionary
281
     1
  3
Imperial24
350
69
  0
DICTIONARY
  5
64
102
{ACAD_REACTORS
330
C
102
}
330
C
100
AcDbDictionary
281
     1
  3
Standard
350
65
  0
DICTIONARY
  5
29
102
{ACAD_REACTORS
330
C
102
}
330
C
100
AcDbDictionary
281
     1
  3
2dWireframe
350
2F
  3
Basic
350
2E
  3
Brighten
350
35
  3
ColorChange
350
39
  3
Conceptual
350
32
  3
Dim
350
34
  3
EdgeColorOff
350
41
  3
Facepattern
350
38
  3
Flat
350
2A
  3
FlatWithEdges
350
2B
  3
Gouraud
350
2C
  3
GouraudWithEdges
350
2D
  3
Hidden
350
31
  3
JitterOff
350
3F
  3
Linepattern
350
37
  3
OverhangOff
350
40
  3
Realistic
350
33
  3
Shaded
350
3E
  3
Shaded with edges
350
3D
  3
Shades of Gray
350
3A
  3
Sketchy
350
3B
  3
Thicken
350
36
  3
Wireframe
350
30
  3
X-Ray
350
3C
  0
XRECORD
  5
BF
102
{ACAD_REACTORS
330
C
102
}
330
C
100
AcDbXrecord
280
     1
 90
        1
330
65
  0
DICTIONARY
  5
B7
102
{ACAD_REACTORS
330
C
102
}
330
C
100
AcDbDictionary
281
     1
  3
CANNOSCALE
350
BC
  3
CMLEADERSTYLE
350
B9
  3
CTABLESTYLE
350
B8
  3
CVIEWDETAILSTYLE
350
BA
  3
CVIEWSECTIONSTYLE
350
BB
  0
ACDBDETAILVIEWSTYLE
  5
6B
102
{ACAD_REACTORS
330
6A
102
}
330
6A
100
AcDbModelDocViewStyle
 70
     0
  3
Imperial24
290
     1
300
Imperial24
 90
        0
100
AcDbDetailViewStyle
 70
     0
 71
     0
 90
        3
 71
     1
340
55
 62
   256
 40
0.24
340
0
 62
   256
 40
0.24
300

 40
0.36
280
     3
 71
     2
340
5D
 90
       25
 62
   256
 71
     3
340
55
 62
   256
 40
0.24
 90
        1
 40
0.75
 90
        1
300
%<\AcVar ViewType \f "%tc1">% %<\AcVar ViewDetailId>%\PSCALE %<\AcVar ViewScale \f "%sn">%
 71
     4
340
5D
 90
       25
 62
   256
340
5D
 90
       25
 62
   256
280
     0
  0
LAYOUT
  5
6F
102
{ACAD_REACTORS
330
62
102
}
330
62
100
AcDbPlotSettings
  1

  2

  4

  6

 40
0.0
 41
0.0
 42
0.0
 43
0.0
 44
0.0
 45
0.0
 46
0.0
 47
0.0
 48
0.0
 49
0.0
140
0.0
141
0.0
142
1.0
143
1.0
 70
   688
 72
     0
 73
     0
 74
     5
  7

 75
    16
147
1.0
 76
     0
 77
     2
 78
   300
148
0.0
149
0.0
100
AcDbLayout
  1
Layout1
 70
     1
 71
     1
 10
0.0
 20
0.0
 11
12.0
 21
9.0
 12
0.0
 22
0.0
 32
0.0
 14
0.0
 24
0.0
 34
0.0
 15
0.0
 25
0.0
 35
0.0
146
0.0
 13
0.0
 23
0.0
 33
0.0
 16
1.0
 26
0.0
 36
0.0
 17
0.0
 27
1.0
 37
0.0
 76
     0
330
6C
  0
LAYOUT
  5
77
102
{ACAD_REACTORS
330
62
102
}
330
62
100
AcDbPlotSettings
  1

  2

  4

  6

 40
0.0
 41
0.0
 42
0.0
 43
0.0
 44
0.0
 45
0.0
 46
0.0
 47
0.0
 48
0.0
 49
0.0
140
0.0
141
0.0
142
1.0
143
1.0
 70
   688
 72
     0
 73
     0
 74
     5
  7

 75
    16
147
1.0
 76
     0
 77
     2
 78
   300
148
0.0
149
0.0
100
AcDbLayout
  1
Layout2
 70
     1
 71
     2
 10
0.0
 20
0.0
 11
12.0
 21
9.0
 12
0.0
 22
0.0
 32
0.0
 14
0.0
 24
0.0
 34
0.0
 15
0.0
 25
0.0
 35
0.0
146
0.0
 13
0.0
 23
0.0
 33
0.0
 16
1.0
 26
0.0
 36
0.0
 17
0.0
 27
1.0
 37
0.0
 76
     0
330
74
  0
LAYOUT
  5
73
102
{ACAD_REACTORS
330
62
102
}
330
62
100
AcDbPlotSettings
  1

  2

  4

  6

 40
0.0
 41
0.0
 42
0.0
 43
0.0
 44
0.0
 45
0.0
 46
0.0
 47
0.0
 48
0.0
 49
0.0
140
0.0
141
0.0
142
1.0
143
1.0
 70
  1712
 72
     0
 73
     0
 74
     0
  7

 75
     0
147
1.0
 76
     0
 77
     2
 78
   300
148
0.0
149
0.0
100
AcDbLayout
  1
Model
 70
     1
 71
     0
 10
0.0
 20
0.0
 11
12.0
 21
9.0
 12
0.0
 22
0.0
 32
0.0
 14
0.0
 24
0.0
 34
0.0
 15
0.0
 25
0.0
 35
0.0
146
0.0
 13
0.0
 23
0.0
 33
0.0
 16
1.0
 26
0.0
 36
0.0
 17
0.0
 27
1.0
 37
0.0
 76
     0
330
70
  0
MATERIAL
  5
19
102
{ACAD_XDICTIONARY
360
1A
102
}
102
{ACAD_REACTORS
330
10
102
}
330
10
100
AcDbMaterial
  1
ByBlock
 72
     0
 43
0.0208333333333333
 43
0.0
 43
0.0
 43
0.0
 43
0.0
 43
0.0208333333333333
 43
0.0
 43
0.0
 43
0.0
 43
0.0
 43
1.0
 43
0.0
 43
0.0
 43
0.0
 43
0.0
 43
1.0
 77
     0
 47
0.0208333333333333
 47
0.0
 47
0.0
 47
0.0
 47
0.0
 47
0.0208333333333333
 47
0.0
 47
0.0
 47
0.0
 47
0.0
 47
1.0
 47
0.0
 47
0.0
 47
0.0
 47
0.0
 47
1.0
171
     0
 49
0.0208333333333333
 49
0.0
 49
0.0
 49
0.0
 49
0.0
 49
0.0208333333333333
 49
0.0
 49
0.0
 49
0.0
 49
0.0
 49
1.0
 49
0.0
 49
0.0
 49
0.0
 49
0.0
 49
1.0
175
     0
142
0.0208333333333333
142
0.0
142
0.0
142
0.0
142
0.0
142
0.0208333333333333
142
0.0
142
0.0
142
0.0
142
0.0
142
1.0
142
0.0
142
0.0
142
0.0
142
0.0
142
1.0
179
     0
144
0.0208333333333333
144
0.0
144
0.0
144
0.0
144
0.0
144
0.0208333333333333
144
0.0
144
0.0
144
0.0
144
0.0
144
1.0
144
0.0
144
0.0
144
0.0
144
0.0
144
1.0
147
0.0208333333333333
147
0.0
147
0.0
147
0.0
147
0.0
147
0.0208333333333333
147
0.0
147
0.0
147
0.0
147
0.0
147
1.0
147
0.0
147
0.0
147
0.0
147
0.0
147
1.0
  0
MATERIAL
  5
11
102
{ACAD_XDICTIONARY
360
12
102
}
102
{ACAD_REACTORS
330
10
102
}
330
10
100
AcDbMaterial
  1
ByLayer
 72
     0
 43
0.0208333333333333
 43
0.0
 43
0.0
 43
0.0
 43
0.0
 43
0.0208333333333333
 43
0.0
 43
0.0
 43
0.0
 43
0.0
 43
1.0
 43
0.0
 43
0.0
 43
0.0
 43
0.0
 43
1.0
 77
     0
 47
0.0208333333333333
 47
0.0
 47
0.0
 47
0.0
 47
0.0
 47
0.0208333333333333
 47
0.0
 47
0.0
 47
0.0
 47
0.0
 47
1.0
 47
0.0
 47
0.0
 47
0.0
 47
0.0
 47
1.0
171
     0
 49
0.0208333333333333
 49
0.0
 49
0.0
 49
0.0
 49
0.0
 49
0.0208333333333333
 49
0.0
 49
0.0
 49
0.0
 49
0.0
 49
1.0
 49
0.0
 49
0.0
 49
0.0
 49
0.0
 49
1.0
175
     0
142
0.0208333333333333
142
0.0
142
0.0
142
0.0
142
0.0
142
0.0208333333333333
142
0.0
142
0.0
142
0.0
142
0.0
142
1.0
142
0.0
142
0.0
142
0.0
142
0.0
142
1.0
179
     0
144
0.0208333333333333
144
0.0
144
0.0
144
0.0
144
0.0
144
0.0208333333333333
144
0.0
144
0.0
144
0.0
144
0.0
144
1.0
144
0.0
144
0.0
144
0.0
144
0.0
144
1.0
147
0.0208333333333333
147
0.0
147
0.0
147
0.0
147
0.0
147
0.0208333333333333
147
0.0
147
0.0
147
0.0
147
0.0
147
1.0
147
0.0
147
0.0
147
0.0
147
0.0
147
1.0
  0
MATERIAL
  5
21
102
{ACAD_XDICTIONARY
360
22
102
}
102
{ACAD_REACTORS
330
10
102
}
330
10
100
AcDbMaterial
  1
Global
 72
     0
 43
0.0208333333333333
 43
0.0
 43
0.0
 43
0.0
 43
0.0
 43
0.0208333333333333
 43
0.0
 43
0.0
 43
0.0
 43
0.0
 43
1.0
 43
0.0
 43
0.0
 43
0.0
 43
0.0
 43
1.0
 77
     0
 47
0.0208333333333333
 47
0.0
 47
0.0
 47
0.0
 47
0.0
 47
0.0208333333333333
 47
0.0
 47
0.0
 47
0.0
 47
0.0
 47
1.0
 47
0.0
 47
0.0
 47
0.0
 47
0.0
 47
1.0
171
     0
 49
0.0208333333333333
 49
0.0
 49
0.0
 49
0.0
 49
0.0
 49
0.0208333333333333
 49
0.0
 49
0.0
 49
0.0
 49
0.0
 49
1.0
 49
0.0
 49
0.0
 49
0.0
 49
0.0
 49
1.0
175
     0
142
0.0208333333333333
142
0.0
142
0.0
142
0.0
142
0.0
142
0.0208333333333333
142
0.0
142
0.0
142
0.0
142
0.0
142
1.0
142
0.0
142
0.0
142
0.0
142
0.0
142
1.0
179
     0
144
0.0208333333333333
144
0.0
144
0.0
144
0.0
144
0.0
144
0.0208333333333333
144
0.0
144
0.0
144
0.0
144
0.0
144
1.0
144
0.0
144
0.0
144
0.0
144
0.0
144
1.0
147
0.0208333333333333
147
0.0
147
0.0
147
0.0
147
0.0
147
0.0208333333333333
147
0.0
147
0.0
147
0.0
147
0.0
147
1.0
147
0.0
147
0.0
147
0.0
147
0.0
147
1.0
  0
MLEADERSTYLE
  5
67
102
{ACAD_REACTORS
330
66
102
}
330
66
100
AcDbMLeaderStyle
179
     2
170
     2
171
     1
172
     0
 90
        2
 40
0.0
 41
0.0
173
     1
 91
-1056964608
340
5B
 92
       -2
290
     1
 42
0.09
291
     1
 43
0.36
  3
Standard
 44
0.18
300

342
55
174
     1
178
     6
175
     1
176
     0
 93
-1056964608
 45
0.18
292
     0
297
     0
 46
0.18
 94
-1056964608
 47
1.0
 49
1.0
140
1.0
293
     1
141
0.0
294
     1
177
     0
142
1.0
295
     1
296
     0
143
0.125
271
     0
272
     9
273
     9
298
     1
  0
MLINESTYLE
  5
60
102
{ACAD_REACTORS
330
5F
102
}
330
5F
100
AcDbMlineStyle
  2
STANDARD
 70
     0
  3

 62
   256
 51
90.0
 52
90.0
 71
     2
 49
0.5
 62
   256
  6
BYLAYER
 49
-0.5
 62
   256
  6
BYLAYER
  0
ACDBPLACEHOLDER
  5
F
102
{ACAD_REACTORS
330
E
102
}
330
E
  0
SCALE
  5
43
102
{ACAD_REACTORS
330
42
102
}
330
42
100
AcDbScale
 70
     0
300
1:1
140
1.0
141
1.0
290
     1
  0
SCALE
  5
44
102
{ACAD_REACTORS
330
42
102
}
330
42
100
AcDbScale
 70
     0
300
1/128" = 1'-0"
140
0.0078125
141
12.0
290
     0
  0
SCALE
  5
45
102
{ACAD_REACTORS
330
42
102
}
330
42
100
AcDbScale
 70
     0
300
1/64" = 1'-0"
140
0.015625
141
12.0
290
     0
  0
SCALE
  5
46
102
{ACAD_REACTORS
330
42
102
}
330
42
100
AcDbScale
 70
     0
300
1/32" = 1'-0"
140
0.03125
141
12.0
290
     0
  0
SCALE
  5
47
102
{ACAD_REACTORS
330
42
102
}
330
42
100
AcDbScale
 70
     0
300
1/16" = 1'-0"
140
0.0625
141
12.0
290
     0
  0
SCALE
  5
48
102
{ACAD_REACTORS
330
42
102
}
330
42
100
AcDbScale
 70
     0
300
3/32" = 1'-0"
140
0.09375
141
12.0
290
     0
  0
SCALE
  5
49
102
{ACAD_REACTORS
330
42
102
}
330
42
100
AcDbScale
 70
     0
300
1/8" = 1'-0"
140
0.125
141
12.0
290
     0
  0
SCALE
  5
4A
102
{ACAD_REACTORS
330
42
102
}
330
42
100
AcDbScale
 70
     0
300
3/16" = 1'-0"
140
0.1875
141
12.0
290
     0
  0
SCALE
  5
4B
102
{ACAD_REACTORS
330
42
102
}
330
42
100
AcDbScale
 70
     0
300
1/4" = 1'-0"
140
0.25
141
12.0
290
     0
  0
SCALE
  5
4C
102
{ACAD_REACTORS
330
42
102
}
330
42
100
AcDbScale
 70
     0
300
3/8" = 1'-0"
140
0.375
141
12.0
290
     0
  0
SCALE
  5
4D
102
{ACAD_REACTORS
330
42
102
}
330
42
100
AcDbScale
 70
     0
300
1/2" = 1'-0"
140
0.5
141
12.0
290
     0
  0
SCALE
  5
4E
102
{ACAD_REACTORS
330
42
102
}
330
42
100
AcDbScale
 70
     0
300
3/4" = 1'-0"
140
0.75
141
12.0
290
     0
  0
SCALE
  5
4F
102
{ACAD_REACTORS
330
42
102
}
330
42
100
AcDbScale
 70
     0
300
1" = 1'-0"
140
1.0
141
12.0
290
     0
  0
SCALE
  5
50
102
{ACAD_REACTORS
330
42
102
}
330
42
100
AcDbScale
 70
     0
300
1-1/2" = 1'-0"
140
1.5
141
12.0
290
     0
  0
SCALE
  5
51
102
{ACAD_REACTORS
330
42
102
}
330
42
100
AcDbScale
 70
     0
300
3" = 1'-0"
140
3.0
141
12.0
290
     0
  0
SCALE
  5
52
102
{ACAD_REACTORS
330
42
102
}
330
42
100
AcDbScale
 70
     0
300
6" = 1'-0"
140
6.0
141
12.0
290
     0
  0
SCALE
  5
53
102
{ACAD_REACTORS
330
42
102
}
330
42
100
AcDbScale
 70
     0
300
1'-0" = 1'-0"
140
12.0
141
12.0
290
     0
  0
ACDBSECTIONVIEWSTYLE
  5
69
102
{ACAD_REACTORS
330
68
102
}
330
68
100
AcDbModelDocViewStyle
 70
     0
  3
Imperial24
290
     1
300
Imperial24
 90
        0
100
AcDbSectionViewStyle
 70
     0
 71
     0
 90
       78
 71
     1
340
55
 62
   256
 40
0.24
340
0
340
0
 62
   256
 40
0.24
300
I, O, Q, S, X, Z
 40
0.48
 90
        3
 40
0.18
 90
        1
 71
     2
340
5D
 90
       25
 62
   256
340
5D
 90
       50
 62
   256
 40
0.24
 40
0.0
 40
0.24
 71
     3
340
55
 62
   256
 40
0.24
 90
        1
 40
0.75
 90
        1
300
%<\AcVar ViewType \f "%tc1">% %<\AcVar ViewSectionStartId>%-%<\AcVar ViewSectionEndId>%\PSCALE %<\AcVar ViewScale \f "%sn">%
 71
     4
 62
   256
 62
   257
300
ANSI31
 40
1.0
 90
        0
290
     0
290
     0
 90
        6
 40
0.0
 40
1.570796326794896
 40
0.2617993877991494
 40
1.308996938995747
 40
-0.2617993877991494
 40
1.832595714594046
  0
TABLESTYLE
  5
65
102
{ACAD_XDICTIONARY
360
BD
102
}
102
{ACAD_REACTORS
330
64
102
}
330
64
100
AcDbTableStyle
280
     0
  3
Standard
 70
     0
 71
     0
 40
0.06
 41
0.06
280
     0
281
     0
  7
Standard
140
0.18
170
     2
 62
     0
 63
     7
283
     0
 90
      512
 91
        0
  1

274
    -2
284
     1
 64
     0
275
    -2
285
     1
 65
     0
276
    -2
286
     1
 66
     0
277
    -2
287
     1
 67
     0
278
    -2
288
     1
 68
     0
279
    -2
289
     1
 69
     0
  7
Standard
140
0.25
170
     5
 62
     0
 63
     7
283
     0
 90
      512
 91
        0
  1

274
    -2
284
     1
 64
     0
275
    -2
285
     1
 65
     0
276
    -2
286
     1
 66
     0
277
    -2
287
     1
 67
     0
278
    -2
288
     1
 68
     0
279
    -2
289
     1
 69
     0
  7
Standard
140
0.18
170
     5
 62
     0
 63
     7
283
     0
 90
      512
 91
        0
  1

274
    -2
284
     1
 64
     0
275
    -2
285
     1
 65
     0
276
    -2
286
     1
 66
     0
277
    -2
287
     1
 67
     0
278
    -2
288
     1
 68
     0
279
    -2
289
     1
 69
     0
  0
VISUALSTYLE
  5
2F
102
{ACAD_REACTORS
330
29
102
}
330
29
100
AcDbVisualStyle
  2
2dWireframe
 70
     4
177
     3
291
     0
 70
    58
 90
        0
176
     1
 90
        2
176
     1
 90
        0
176
     1
 90
        0
176
     1
 40
0.6
176
     1
 40
30.0
176
     1
 62
     7
420
 16777215
176
     1
 90
        1
176
     1
 90
        4
176
     1
 62
     7
176
     1
 62
   257
176
     1
 90
        1
176
     1
 90
        1
176
     1
 40
1.0
176
     1
 90
        0
176
     1
 62
   257
176
     1
 40
1.0
176
     1
 90
        1
176
     1
 90
        6
176
     1
 90
        2
176
     1
 62
     7
176
     1
 90
        5
176
     1
 90
        0
176
     1
 90
        0
176
     1
290
     0
176
     1
 90
        1
176
     1
 40
0.0
176
     1
 90
        0
176
     1
290
     1
176
     1
290
     1
176
     1
290
     0
176
     1
290
     0
176
     1
290
     0
176
     1
290
     0
176
     1
290
     0
176
     1
290
     0
176
     1
290
     0
176
     1
 90
       50
176
     1
 40
0.0
176
     1
 40
1.0
176
     1
 90
        0
176
     1
 62
    18
420
        0
176
     1
 90
       50
176
     1
 90
        3
176
     1
 62
     5
420
      255
176
     1
290
     0
176
     1
 90
       50
176
     1
 90
       50
176
     1
 90
       50
176
     1
290
     0
176
     1
 90
       50
176
     1
 62
   256
176
     0
 40
1.0
176
     0
 90
        2
176
     1
  1
strokes_ogs.tif
176
     1
290
     0
176
     1
 40
1.0
176
     1
 40
1.0
176
     1
  0
VISUALSTYLE
  5
2E
102
{ACAD_REACTORS
330
29
102
}
330
29
100
AcDbVisualStyle
  2
Basic
 70
     7
177
     3
291
     1
 70
    58
 90
        1
176
     1
 90
        0
176
     1
 90
        1
176
     1
 90
        0
176
     1
 40
0.6
176
     1
 40
30.0
176
     1
 62
     7
420
 16777215
176
     1
 90
        0
176
     1
 90
        4
176
     1
 62
     7
176
     1
 62
   257
176
     1
 90
        1
176
     1
 90
        1
176
     1
 40
1.0
176
     1
 90
        8
176
     1
 62
     7
176
     1
 40
1.0
176
     1
 90
        1
176
     1
 90
        6
176
     1
 90
        2
176
     1
 62
     7
176
     1
 90
        5
176
     1
 90
        0
176
     1
 90
        0
176
     1
290
     0
176
     1
 90
        1
176
     1
 40
0.0
176
     1
 90
        0
176
     1
290
     0
176
     1
290
     1
176
     1
290
     1
176
     1
290
     0
176
     1
290
     0
176
     1
290
     0
176
     1
290
     0
176
     1
290
     0
176
     1
290
     0
176
     1
 90
       50
176
     1
 40
0.0
176
     1
 40
1.0
176
     1
 90
        0
176
     1
 62
    18
420
        0
176
     1
 90
       50
176
     1
 90
        3
176
     1
 62
     5
420
      255
176
     1
290
     0
176
     1
 90
       50
176
     1
 90
       50
176
     1
 90
       50
176
     1
290
     0
176
     1
 90
       50
176
     1
 62
   256
176
     0
 40
1.0
176
     0
 90
        2
176
     1
  1
strokes_ogs.tif
176
     1
290
     0
176
     1
 40
1.0
176
     1
 40
1.0
176
     1
  0
VISUALSTYLE
  5
35
102
{ACAD_REACTORS
330
29
102
}
330
29
100
AcDbVisualStyle
  2
Brighten
 70
    12
177
     3
291
     1
 70
    58
 90
        2
176
     1
 90
        2
176
     1
 90
        0
176
     1
 90
        0
176
     1
 40
0.6
176
     1
 40
30.0
176
     1
 62
     7
420
 16777215
176
     1
 90
        1
176
     1
 90
        4
176
     1
 62
     7
176
     1
 62
   257
176
     1
 90
        1
176
     1
 90
        1
176
     1
 40
1.0
176
     1
 90
        8
176
     1
 62
     7
176
     1
 40
1.0
176
     1
 90
        1
176
     1
 90
        6
176
     1
 90
        2
176
     1
 62
     7
176
     1
 90
        5
176
     1
 90
        0
176
     1
 90
        0
176
     1
290
     0
176
     1
 90
        1
176
     1
 40
50.0
176
     1
 90
        0
176
     1
290
     0
176
     1
290
     1
176
     1
290
     1
176
     1
290
     0
176
     1
290
     0
176
     1
290
     0
176
     1
290
     0
176
     1
290
     0
176
     1
290
     0
176
     1
 90
       50
176
     1
 40
0.0
176
     1
 40
1.0
176
     1
 90
        0
176
     1
 62
    18
420
        0
176
     1
 90
       50
176
     1
 90
        3
176
     1
 62
     5
420
      255
176
     1
290
     0
176
     1
 90
       50
176
     1
 90
       50
176
     1
 90
       50
176
     1
290
     0
176
     1
 90
       50
176
     1
 62
   256
176
     0
 40
1.0
176
     0
 90
        2
176
     1
  1
strokes_ogs.tif
176
     1
290
     0
176
     1
 40
1.0
176
     1
 40
1.0
176
     1
  0
VISUALSTYLE
  5
39
102
{ACAD_REACTORS
330
29
102
}
330
29
100
AcDbVisualStyle
  2
ColorChange
 70
    16
177
     3
291
     1
 70
    58
 90
        2
176
     1
 90
        2
176
     1
 90
        3
176
     1
 90
        0
176
     1
 40
0.6
176
     1
 40
30.0
176
     1
 62
     8
420
  8421504
176
     1
 90
        1
176
     1
 90
        4
176
     1
 62
     7
176
     1
 62
   257
176
     1
 90
        1
176
     1
 90
        1
176
     1
 40
1.0
176
     1
 90
        8
176
     1
 62
     8
420
  8421504
176
     1
 40
1.0
176
     1
 90
        1
176
     1
 90
        6
176
     1
 90
        2
176
     1
 62
     7
176
     1
 90
        5
176
     1
 90
        0
176
     1
 90
        0
176
     1
290
     0
176
     1
 90
        1
176
     1
 40
0.0
176
     1
 90
        0
176
     1
290
     0
176
     1
290
     1
176
     1
290
     1
176
     1
290
     0
176
     1
290
     0
176
     1
290
     0
176
     1
290
     0
176
     1
290
     0
176
     1
290
     0
176
     1
 90
       50
176
     1
 40
0.0
176
     1
 40
1.0
176
     1
 90
        0
176
     1
 62
    18
420
        0
176
     1
 90
       50
176
     1
 90
        3
176
     1
 62
     5
420
      255
176
     1
290
     0
176
     1
 90
       50
176
     1
 90
       50
176
     1
 90
       50
176
     1
290
     0
176
     1
 90
       50
176
     1
 62
   256
176
     0
 40
1.0
176
     0
 90
        2
176
     1
  1
strokes_ogs.tif
176
     1
290
     0
176
     1
 40
1.0
176
     1
 40
1.0
176
     1
  0
VISUALSTYLE
  5
32
102
{ACAD_REACTORS
330
29
102
}
330
29
100
AcDbVisualStyle
  2
Conceptual
 70
     9
177
     3
291
     0
 70
    58
 90
        3
176
     1
 90
        2
176
     1
 90
        0
176
     1
 90
        0
176
     1
 40
0.6
176
     1
 40
30.0
176
     1
 62
     7
420
 16777215
176
     1
 90
        2
176
     1
 90
        2
176
     1
 62
     7
176
     1
 62
   257
176
     1
 90
        1
176
     1
 90
        1
176
     1
 40
179.0
176
     1
 90
        8
176
     1
 62
     7
176
     1
 40
1.0
176
     1
 90
        1
176
     1
 90
        6
176
     1
 90
        2
176
     1
 62
     7
176
     1
 90
        3
176
     1
 90
        0
176
     1
 90
        0
176
     1
290
     0
176
     1
 90
        1
176
     1
 40
0.0
176
     1
 90
        0
176
     1
290
     0
176
     1
290
     1
176
     1
290
     1
176
     1
290
     0
176
     1
290
     0
176
     1
290
     0
176
     1
290
     0
176
     1
290
     0
176
     1
290
     0
176
     1
 90
       50
176
     1
 40
0.0
176
     1
 40
1.0
176
     1
 90
        0
176
     1
 62
    18
420
        0
176
     1
 90
       50
176
     1
 90
        3
176
     1
 62
     5
420
      255
176
     1
290
     0
176
     1
 90
       50
176
     1
 90
       50
176
     1
 90
       50
176
     1
290
     0
176
     1
 90
       50
176
     1
 62
   256
176
     0
 40
1.0
176
     0
 90
        2
176
     1
  1
strokes_ogs.tif
176
     1
290
     0
176
     1
 40
1.0
176
     1
 40
1.0
176
     1
  0
VISUALSTYLE
  5
34
102
{ACAD_REACTORS
330
29
102
}
330
29
100
AcDbVisualStyle
  2
Dim
 70
    11
177
     3
291
     1
 70
    58
 90
        2
176
     1
 90
        2
176
     1
 90
        0
176
     1
 90
        0
176
     1
 40
0.6
176
     1
 40
30.0
176
     1
 62
     7
420
 16777215
176
     1
 90
        1
176
     1
 90
        4
176
     1
 62
     7
176
     1
 62
   257
176
     1
 90
        1
176
     1
 90
        1
176
     1
 40
1.0
176
     1
 90
        8
176
     1
 62
     7
176
     1
 40
1.0
176
     1
 90
        1
176
     1
 90
        6
176
     1
 90
        2
176
     1
 62
     7
176
     1
 90
        5
176
     1
 90
        0
176
     1
 90
        0
176
     1
290
     0
176
     1
 90
        1
176
     1
 40
-50.0
176
     1
 90
        0
176
     1
290
     0
176
     1
290
     1
176
     1
290
     1
176
     1
290
     0
176
     1
290
     0
176
     1
290
     0
176
     1
290
     0
176
     1
290
     0
176
     1
290
     0
176
     1
 90
       50
176
     1
 40
0.0
176
     1
 40
1.0
176
     1
 90
        0
176
     1
 62
    18
420
        0
176
     1
 90
       50
176
     1
 90
        3
176
     1
 62
     5
420
      255
176
     1
290
     0
176
     1
 90
       50
176
     1
 90
       50
176
     1
 90
       50
176
     1
290
     0
176
     1
 90
       50
176
     1
 62
   256
176
     0
 40
1.0
176
     0
 90
        2
176
     1
  1
strokes_ogs.tif
176
     1
290
     0
176
     1
 40
1.0
176
     1
 40
1.0
176
     1
  0
VISUALSTYLE
  5
41
102
{ACAD_REACTORS
330
29
102
}
330
29
100
AcDbVisualStyle
  2
EdgeColorOff
 70
    22
177
     3
291
     1
 70
    58
 90
        2
176
     0
 90
        2
176
     0
 90
        0
176
     0
 90
        0
176
     0
 40
0.6
176
     0
 40
30.0
176
     0
 62
     7
420
 16777215
176
     0
 90
        1
176
     0
 90
        4
176
     0
 62
     7
176
     0
 62
   257
176
     0
 90
        1
176
     0
 90
        1
176
     0
 40
1.0
176
     0
 90
        8
176
     2
 62
     7
176
     0
 40
1.0
176
     0
 90
        1
176
     0
 90
        6
176
     0
 90
        2
176
     0
 62
     7
176
     0
 90
        5
176
     0
 90
        0
176
     0
 90
        0
176
     0
290
     0
176
     0
 90
        1
176
     0
 40
0.0
176
     0
 90
        0
176
     0
290
     0
176
     0
290
     1
176
     0
290
     1
176
     0
290
     0
176
     0
290
     0
176
     0
290
     0
176
     0
290
     0
176
     0
290
     0
176
     0
290
     0
176
     0
 90
       50
176
     0
 40
0.0
176
     0
 40
1.0
176
     0
 90
        0
176
     0
 62
    18
420
        0
176
     0
 90
       50
176
     0
 90
        3
176
     0
 62
     5
420
      255
176
     0
290
     0
176
     0
 90
       50
176
     0
 90
       50
176
     0
 90
       50
176
     0
290
     0
176
     0
 90
       50
176
     0
 62
   256
176
     0
 40
1.0
176
     0
 90
        2
176
     0
  1
strokes_ogs.tif
176
     0
290
     0
176
     0
 40
1.0
176
     0
 40
1.0
176
     0
  0
VISUALSTYLE
  5
38
102
{ACAD_REACTORS
330
29
102
}
330
29
100
AcDbVisualStyle
  2
Facepattern
 70
    15
177
     3
291
     1
 70
    58
 90
        2
176
     1
 90
        2
176
     1
 90
        0
176
     1
 90
        0
176
     1
 40
0.6
176
     1
 40
30.0
176
     1
 62
     7
420
 16777215
176
     1
 90
        1
176
     1
 90
        4
176
     1
 62
     7
176
     1
 62
   257
176
     1
 90
        1
176
     1
 90
        1
176
     1
 40
1.0
176
     1
 90
        8
176
     1
 62
     7
176
     1
 40
1.0
176
     1
 90
        1
176
     1
 90
        6
176
     1
 90
        2
176
     1
 62
     7
176
     1
 90
        5
176
     1
 90
        0
176
     1
 90
        0
176
     1
290
     0
176
     1
 90
        1
176
     1
 40
0.0
176
     1
 90
        0
176
     1
290
     0
176
     1
290
     1
176
     1
290
     1
176
     1
290
     0
176
     1
290
     0
176
     1
290
     0
176
     1
290
     0
176
     1
290
     0
176
     1
290
     0
176
     1
 90
       50
176
     1
 40
0.0
176
     1
 40
1.0
176
     1
 90
        0
176
     1
 62
    18
420
        0
176
     1
 90
       50
176
     1
 90
        3
176
     1
 62
     5
420
      255
176
     1
290
     0
176
     1
 90
       50
176
     1
 90
       50
176
     1
 90
       50
176
     1
290
     0
176
     1
 90
       50
176
     1
 62
   256
176
     0
 40
1.0
176
     0
 90
        2
176
     1
  1
strokes_ogs.tif
176
     1
290
     0
176
     1
 40
1.0
176
     1
 40
1.0
176
     1
  0
VISUALSTYLE
  5
2A
102
{ACAD_REACTORS
330
29
102
}
330
29
100
AcDbVisualStyle
  2
Flat
 70
     0
177
     3
291
     1
 70
    58
 90
        2
176
     1
 90
        1
176
     1
 90
        1
176
     1
 90
        2
176
     1
 40
0.6
176
     1
 40
30.0
176
     1
 62
     7
420
 16777215
176
     1
 90
        0
176
     1
 90
        0
176
     1
 62
     7
176
     1
 62
   257
176
     1
 90
        1
176
     1
 90
        1
176
     1
 40
1.0
176
     1
 90
        8
176
     1
 62
     7
176
     1
 40
1.0
176
     1
 90
        1
176
     1
 90
        6
176
     1
 90
        2
176
     1
 62
     7
176
     1
 90
        5
176
     1
 90
        0
176
     1
 90
        0
176
     1
290
     0
176
     1
 90
       13
176
     1
 40
0.0
176
     1
 90
        0
176
     1
290
     0
176
     1
290
     1
176
     1
290
     1
176
     1
290
     0
176
     1
290
     0
176
     1
290
     0
176
     1
290
     0
176
     1
290
     0
176
     1
290
     0
176
     1
 90
       50
176
     1
 40
0.0
176
     1
 40
1.0
176
     1
 90
        0
176
     1
 62
    18
420
        0
176
     1
 90
       50
176
     1
 90
        3
176
     1
 62
     5
420
      255
176
     1
290
     0
176
     1
 90
       50
176
     1
 90
       50
176
     1
 90
       50
176
     1
290
     0
176
     1
 90
       50
176
     1
 62
   256
176
     0
 40
1.0
176
     0
 90
        2
176
     1
  1
strokes_ogs.tif
176
     1
290
     0
176
     1
 40
1.0
176
     1
 40
1.0
176
     1
  0
VISUALSTYLE
  5
2B
102
{ACAD_REACTORS
330
29
102
}
330
29
100
AcDbVisualStyle
  2
FlatWithEdges
 70
     1
177
     3
291
     1
 70
    58
 90
        2
176
     1
 90
        1
176
     1
 90
        1
176
     1
 90
        2
176
     1
 40
0.6
176
     1
 40
30.0
176
     1
 62
     7
420
 16777215
176
     1
 90
        1
176
     1
 90
        0
176
     1
 62
     7
176
     1
 62
   257
176
     1
 90
        1
176
     1
 90
        1
176
     1
 40
1.0
176
     1
 90
        0
176
     1
 62
   257
176
     1
 40
1.0
176
     1
 90
        1
176
     1
 90
        6
176
     1
 90
        2
176
     1
 62
     7
176
     1
 90
        5
176
     1
 90
        0
176
     1
 90
        0
176
     1
290
     0
176
     1
 90
       13
176
     1
 40
0.0
176
     1
 90
        0
176
     1
290
     0
176
     1
290
     1
176
     1
290
     1
176
     1
290
     0
176
     1
290
     0
176
     1
290
     0
176
     1
290
     0
176
     1
290
     0
176
     1
290
     0
176
     1
 90
       50
176
     1
 40
0.0
176
     1
 40
1.0
176
     1
 90
        0
176
     1
 62
    18
420
        0
176
     1
 90
       50
176
     1
 90
        3
176
     1
 62
     5
420
      255
176
     1
290
     0
176
     1
 90
       50
176
     1
 90
       50
176
     1
 90
       50
176
     1
290
     0
176
     1
 90
       50
176
     1
 62
   256
176
     0
 40
1.0
176
     0
 90
        2
176
     1
  1
strokes_ogs.tif
176
     1
290
     0
176
     1
 40
1.0
176
     1
 40
1.0
176
     1
  0
VISUALSTYLE
  5
2C
102
{ACAD_REACTORS
330
29
102
}
330
29
100
AcDbVisualStyle
  2
Gouraud
 70
     2
177
     3
291
     1
 70
    58
 90
        2
176
     1
 90
        2
176
     1
 90
        1
176
     1
 90
        2
176
     1
 40
0.6
176
     1
 40
30.0
176
     1
 62
     7
420
 16777215
176
     1
 90
        0
176
     1
 90
        0
176
     1
 62
     7
176
     1
 62
   257
176
     1
 90
        1
176
     1
 90
        1
176
     1
 40
1.0
176
     1
 90
        0
176
     1
 62
     7
176
     1
 40
1.0
176
     1
 90
        1
176
     1
 90
        6
176
     1
 90
        2
176
     1
 62
     7
176
     1
 90
        5
176
     1
 90
        0
176
     1
 90
        0
176
     1
290
     0
176
     1
 90
       13
176
     1
 40
0.0
176
     1
 90
        0
176
     1
290
     0
176
     1
290
     1
176
     1
290
     1
176
     1
290
     0
176
     1
290
     0
176
     1
290
     0
176
     1
290
     0
176
     1
290
     0
176
     1
290
     0
176
     1
 90
       50
176
     1
 40
0.0
176
     1
 40
1.0
176
     1
 90
        0
176
     1
 62
    18
420
        0
176
     1
 90
       50
176
     1
 90
        3
176
     1
 62
     5
420
      255
176
     1
290
     0
176
     1
 90
       50
176
     1
 90
       50
176
     1
 90
       50
176
     1
290
     0
176
     1
 90
       50
176
     1
 62
   256
176
     0
 40
1.0
176
     0
 90
        2
176
     1
  1
strokes_ogs.tif
176
     1
290
     0
176
     1
 40
1.0
176
     1
 40
1.0
176
     1
  0
VISUALSTYLE
  5
2D
102
{ACAD_REACTORS
330
29
102
}
330
29
100
AcDbVisualStyle
  2
GouraudWithEdges
 70
     3
177
     3
291
     1
 70
    58
 90
        2
176
     1
 90
        2
176
     1
 90
        1
176
     1
 90
        2
176
     1
 40
0.6
176
     1
 40
30.0
176
     1
 62
     7
420
 16777215
176
     1
 90
        1
176
     1
 90
        0
176
     1
 62
     7
176
     1
 62
   257
176
     1
 90
        1
176
     1
 90
        1
176
     1
 40
1.0
176
     1
 90
        0
176
     1
 62
   257
176
     1
 40
1.0
176
     1
 90
        1
176
     1
 90
        6
176
     1
 90
        2
176
     1
 62
     7
176
     1
 90
        5
176
     1
 90
        0
176
     1
 90
        0
176
     1
290
     0
176
     1
 90
       13
176
     1
 40
0.0
176
     1
 90
        0
176
     1
290
     0
176
     1
290
     1
176
     1
290
     1
176
     1
290
     0
176
     1
290
     0
176
     1
290
     0
176
     1
290
     0
176
     1
290
     0
176
     1
290
     0
176
     1
 90
       50
176
     1
 40
0.0
176
     1
 40
1.0
176
     1
 90
        0
176
     1
 62
    18
420
        0
176
     1
 90
       50
176
     1
 90
        3
176
     1
 62
     5
420
      255
176
     1
290
     0
176
     1
 90
       50
176
     1
 90
       50
176
     1
 90
       50
176
     1
290
     0
176
     1
 90
       50
176
     1
 62
   256
176
     0
 40
1.0
176
     0
 90
        2
176
     1
  1
strokes_ogs.tif
176
     1
290
     0
176
     1
 40
1.0
176
     1
 40
1.0
176
     1
  0
VISUALSTYLE
  5
31
102
{ACAD_REACTORS
330
29
102
}
330
29
100
AcDbVisualStyle
  2
Hidden
 70
     6
177
     3
291
     0
 70
    58
 90
        1
176
     1
 90
        2
176
     1
 90
        2
176
     1
 90
        0
176
     1
 40
0.6
176
     1
 40
30.0
176
     1
 62
     7
420
 16777215
176
     1
 90
        2
176
     1
 90
        2
176
     1
 62
     7
176
     1
 62
   257
176
     1
 90
        2
176
     1
 90
        1
176
     1
 40
40.0
176
     1
 90
        0
176
     1
 62
   257
176
     1
 40
1.0
176
     1
 90
        1
176
     1
 90
        6
176
     1
 90
        2
176
     1
 62
     7
176
     1
 90
        3
176
     1
 90
        0
176
     1
 90
        0
176
     1
290
     0
176
     1
 90
        1
176
     1
 40
0.0
176
     1
 90
        0
176
     1
290
     0
176
     1
290
     1
176
     1
290
     1
176
     1
290
     0
176
     1
290
     0
176
     1
290
     0
176
     1
290
     0
176
     1
290
     0
176
     1
290
     0
176
     1
 90
       50
176
     1
 40
0.0
176
     1
 40
1.0
176
     1
 90
        0
176
     1
 62
    18
420
        0
176
     1
 90
       50
176
     1
 90
        3
176
     1
 62
     5
420
      255
176
     1
290
     0
176
     1
 90
       50
176
     1
 90
       50
176
     1
 90
       50
176
     1
290
     0
176
     1
 90
       50
176
     1
 62
   256
176
     0
 40
1.0
176
     0
 90
        2
176
     1
  1
strokes_ogs.tif
176
     1
290
     0
176
     1
 40
1.0
176
     1
 40
1.0
176
     1
  0
VISUALSTYLE
  5
3F
102
{ACAD_REACTORS
330
29
102
}
330
29
100
AcDbVisualStyle
  2
JitterOff
 70
    20
177
     3
291
     1
 70
    58
 90
        2
176
     0
 90
        2
176
     0
 90
        0
176
     0
 90
        0
176
     0
 40
0.6
176
     0
 40
30.0
176
     0
 62
     7
420
 16777215
176
     0
 90
        1
176
     0
 90
        4
176
     0
 62
     7
176
     0
 62
   257
176
     0
 90
        1
176
     0
 90
        1
176
     0
 40
1.0
176
     0
 90
       10
176
     2
 62
     7
176
     0
 40
1.0
176
     0
 90
        1
176
     0
 90
        6
176
     0
 90
        2
176
     0
 62
     7
176
     0
 90
        5
176
     0
 90
        0
176
     0
 90
        0
176
     0
290
     0
176
     0
 90
        1
176
     0
 40
0.0
176
     0
 90
        0
176
     0
290
     0
176
     0
290
     1
176
     0
290
     1
176
     0
290
     0
176
     0
290
     0
176
     0
290
     0
176
     0
290
     0
176
     0
290
     0
176
     0
290
     0
176
     0
 90
       50
176
     0
 40
0.0
176
     0
 40
1.0
176
     0
 90
        0
176
     0
 62
    18
420
        0
176
     0
 90
       50
176
     0
 90
        3
176
     0
 62
     5
420
      255
176
     0
290
     0
176
     0
 90
       50
176
     0
 90
       50
176
     0
 90
       50
176
     0
290
     0
176
     0
 90
       50
176
     0
 62
   256
176
     0
 40
1.0
176
     0
 90
        2
176
     0
  1
strokes_ogs.tif
176
     0
290
     0
176
     0
 40
1.0
176
     0
 40
1.0
176
     0
  0
VISUALSTYLE
  5
37
102
{ACAD_REACTORS
330
29
102
}
330
29
100
AcDbVisualStyle
  2
Linepattern
 70
    14
177
     3
291
     1
 70
    58
 90
        2
176
     1
 90
        2
176
     1
 90
        0
176
     1
 90
        0
176
     1
 40
0.6
176
     1
 40
30.0
176
     1
 62
     7
420
 16777215
176
     1
 90
        1
176
     1
 90
        4
176
     1
 62
     7
176
     1
 62
   257
176
     1
 90
        7
176
     1
 90
        7
176
     1
 40
1.0
176
     1
 90
        8
176
     1
 62
     7
176
     1
 40
1.0
176
     1
 90
        1
176
     1
 90
        6
176
     1
 90
        2
176
     1
 62
     7
176
     1
 90
        5
176
     1
 90
        0
176
     1
 90
        0
176
     1
290
     0
176
     1
 90
        1
176
     1
 40
0.0
176
     1
 90
        0
176
     1
290
     0
176
     1
290
     1
176
     1
290
     1
176
     1
290
     0
176
     1
290
     0
176
     1
290
     0
176
     1
290
     0
176
     1
290
     0
176
     1
290
     0
176
     1
 90
       50
176
     1
 40
0.0
176
     1
 40
1.0
176
     1
 90
        0
176
     1
 62
    18
420
        0
176
     1
 90
       50
176
     1
 90
        3
176
     1
 62
     5
420
      255
176
     1
290
     0
176
     1
 90
       50
176
     1
 90
       50
176
     1
 90
       50
176
     1
290
     0
176
     1
 90
       50
176
     1
 62
   256
176
     0
 40
1.0
176
     0
 90
        2
176
     1
  1
strokes_ogs.tif
176
     1
290
     0
176
     1
 40
1.0
176
     1
 40
1.0
176
     1
  0
VISUALSTYLE
  5
40
102
{ACAD_REACTORS
330
29
102
}
330
29
100
AcDbVisualStyle
  2
OverhangOff
 70
    21
177
     3
291
     1
 70
    58
 90
        2
176
     0
 90
        2
176
     0
 90
        0
176
     0
 90
        0
176
     0
 40
0.6
176
     0
 40
30.0
176
     0
 62
     7
420
 16777215
176
     0
 90
        1
176
     0
 90
        4
176
     0
 62
     7
176
     0
 62
   257
176
     0
 90
        1
176
     0
 90
        1
176
     0
 40
1.0
176
     0
 90
        9
176
     2
 62
     7
176
     0
 40
1.0
176
     0
 90
        1
176
     0
 90
        6
176
     0
 90
        2
176
     0
 62
     7
176
     0
 90
        5
176
     0
 90
        0
176
     0
 90
        0
176
     0
290
     0
176
     0
 90
        1
176
     0
 40
0.0
176
     0
 90
        0
176
     0
290
     0
176
     0
290
     1
176
     0
290
     1
176
     0
290
     0
176
     0
290
     0
176
     0
290
     0
176
     0
290
     0
176
     0
290
     0
176
     0
290
     0
176
     0
 90
       50
176
     0
 40
0.0
176
     0
 40
1.0
176
     0
 90
        0
176
     0
 62
    18
420
        0
176
     0
 90
       50
176
     0
 90
        3
176
     0
 62
     5
420
      255
176
     0
290
     0
176
     0
 90
       50
176
     0
 90
       50
176
     0
 90
       50
176
     0
290
     0
176
     0
 90
       50
176
     0
 62
   256
176
     0
 40
1.0
176
     0
 90
        2
176
     0
  1
strokes_ogs.tif
176
     0
290
     0
176
     0
 40
1.0
176
     0
 40
1.0
176
     0
  0
VISUALSTYLE
  5
33
102
{ACAD_REACTORS
330
29
102
}
330
29
100
AcDbVisualStyle
  2
Realistic
 70
     8
177
     3
291
     0
 70
    58
 90
        2
176
     1
 90
        3
176
     1
 90
        0
176
     1
 90
        2
176
     1
 40
0.6
176
     1
 40
30.0
176
     1
 62
     7
420
 16777215
176
     1
 90
        0
176
     1
 90
        0
176
     1
 62
     7
176
     1
 62
   257
176
     1
 90
        1
176
     1
 90
        1
176
     1
 40
1.0
176
     1
 90
        8
176
     1
 62
   257
176
     1
 40
1.0
176
     1
 90
        1
176
     1
 90
        6
176
     1
 90
        2
176
     1
 62
     7
176
     1
 90
        3
176
     1
 90
        0
176
     1
 90
        0
176
     1
290
     0
176
     1
 90
       13
176
     1
 40
0.0
176
     1
 90
        0
176
     1
290
     0
176
     1
290
     1
176
     1
290
     1
176
     1
290
     0
176
     1
290
     0
176
     1
290
     0
176
     1
290
     0
176
     1
290
     0
176
     1
290
     0
176
     1
 90
       50
176
     1
 40
0.0
176
     1
 40
1.0
176
     1
 90
        0
176
     1
 62
    18
420
        0
176
     1
 90
       50
176
     1
 90
        3
176
     1
 62
     5
420
      255
176
     1
290
     0
176
     1
 90
       50
176
     1
 90
       50
176
     1
 90
       50
176
     1
290
     0
176
     1
 90
       50
176
     1
 62
   256
176
     0
 40
1.0
176
     0
 90
        2
176
     1
  1
strokes_ogs.tif
176
     1
290
     0
176
     1
 40
1.0
176
     1
 40
1.0
176
     1
  0
VISUALSTYLE
  5
3E
102
{ACAD_REACTORS
330
29
102
}
330
29
100
AcDbVisualStyle
  2
Shaded
 70
    27
177
     3
291
     0
 70
    58
 90
        2
176
     1
 90
        2
176
     1
 90
        1
176
     1
 90
        2
176
     1
 40
0.6
176
     1
 40
30.0
176
     1
 62
     7
420
 16777215
176
     1
 90
        0
176
     1
 90
        4
176
     1
 62
     7
176
     1
 62
   257
176
     1
 90
        1
176
     1
 90
        1
176
     1
 40
1.0
176
     1
 90
        8
176
     1
 62
   257
176
     1
 40
1.0
176
     1
 90
        1
176
     1
 90
        6
176
     1
 90
        2
176
     1
 62
     8
420
  7895160
176
     1
 90
        3
176
     1
 90
        0
176
     1
 90
        0
176
     1
290
     0
176
     1
 90
        5
176
     1
 40
0.0
176
     1
 90
        0
176
     1
290
     0
176
     1
290
     1
176
     1
290
     1
176
     1
290
     0
176
     1
290
     0
176
     1
290
     0
176
     1
290
     0
176
     1
290
     0
176
     1
290
     0
176
     1
 90
       50
176
     1
 40
0.0
176
     1
 40
1.0
176
     1
 90
        0
176
     1
 62
    18
420
        0
176
     1
 90
       50
176
     1
 90
        3
176
     1
 62
     5
420
      255
176
     1
290
     0
176
     1
 90
       50
176
     1
 90
       50
176
     1
 90
       50
176
     1
290
     0
176
     1
 90
       50
176
     1
 62
   256
176
     0
 40
1.0
176
     0
 90
        2
176
     1
  1
strokes_ogs.tif
176
     1
290
     0
176
     1
 40
1.0
176
     1
 40
1.0
176
     1
  0
VISUALSTYLE
  5
3D
102
{ACAD_REACTORS
330
29
102
}
330
29
100
AcDbVisualStyle
  2
Shaded with edges
 70
    26
177
     3
291
     0
 70
    58
 90
        2
176
     1
 90
        2
176
     1
 90
        1
176
     1
 90
        2
176
     1
 40
0.6
176
     1
 40
30.0
176
     1
 62
     7
420
 16777215
176
     1
 90
        1
176
     1
 90
        2
176
     1
 62
     7
176
     1
 62
   257
176
     1
 90
        2
176
     1
 90
        1
176
     1
 40
1.0
176
     1
 90
        8
176
     1
 62
   257
176
     1
 40
1.0
176
     1
 90
        1
176
     1
 90
        6
176
     1
 90
        2
176
     1
 62
     7
176
     1
 90
        3
176
     1
 90
        0
176
     1
 90
        0
176
     1
290
     0
176
     1
 90
        5
176
     1
 40
0.0
176
     1
 90
        0
176
     1
290
     0
176
     1
290
     1
176
     1
290
     1
176
     1
290
     0
176
     1
290
     0
176
     1
290
     0
176
     1
290
     0
176
     1
290
     0
176
     1
290
     0
176
     1
 90
       50
176
     1
 40
0.0
176
     1
 40
1.0
176
     1
 90
        0
176
     1
 62
    18
420
        0
176
     1
 90
       50
176
     1
 90
        3
176
     1
 62
     5
420
      255
176
     1
290
     0
176
     1
 90
       50
176
     1
 90
       50
176
     1
 90
       50
176
     1
290
     0
176
     1
 90
       50
176
     1
 62
   256
176
     0
 40
1.0
176
     0
 90
        2
176
     1
  1
strokes_ogs.tif
176
     1
290
     0
176
     1
 40
1.0
176
     1
 40
1.0
176
     1
  0
VISUALSTYLE
  5
3A
102
{ACAD_REACTORS
330
29
102
}
330
29
100
AcDbVisualStyle
  2
Shades of Gray
 70
    23
177
     3
291
     0
 70
    58
 90
        2
176
     1
 90
        2
176
     1
 90
        3
176
     1
 90
        0
176
     1
 40
0.6
176
     1
 40
30.0
176
     1
 62
     7
420
 16777215
176
     1
 90
        2
176
     1
 90
        2
176
     1
 62
     7
176
     1
 62
     7
176
     1
 90
        1
176
     1
 90
        1
176
     1
 40
40.0
176
     1
 90
        8
176
     1
 62
     7
176
     1
 40
1.0
176
     1
 90
        1
176
     1
 90
        6
176
     1
 90
        2
176
     1
 62
     7
176
     1
 90
        3
176
     1
 90
        0
176
     1
 90
        0
176
     1
290
     0
176
     1
 90
        1
176
     1
 40
0.0
176
     1
 90
        0
176
     1
290
     0
176
     1
290
     1
176
     1
290
     1
176
     1
290
     0
176
     1
290
     0
176
     1
290
     0
176
     1
290
     0
176
     1
290
     0
176
     1
290
     0
176
     1
 90
       50
176
     1
 40
0.0
176
     1
 40
1.0
176
     1
 90
        0
176
     1
 62
    18
420
        0
176
     1
 90
       50
176
     1
 90
        3
176
     1
 62
     5
420
      255
176
     1
290
     0
176
     1
 90
       50
176
     1
 90
       50
176
     1
 90
       50
176
     1
290
     0
176
     1
 90
       50
176
     1
 62
   256
176
     0
 40
1.0
176
     0
 90
        2
176
     1
  1
strokes_ogs.tif
176
     1
290
     0
176
     1
 40
1.0
176
     1
 40
1.0
176
     1
  0
VISUALSTYLE
  5
3B
102
{ACAD_REACTORS
330
29
102
}
330
29
100
AcDbVisualStyle
  2
Sketchy
 70
    24
177
     3
291
     0
 70
    58
 90
        1
176
     1
 90
        2
176
     1
 90
        2
176
     1
 90
        0
176
     1
 40
0.6
176
     1
 40
30.0
176
     1
 62
     7
420
 16777215
176
     1
 90
        2
176
     1
 90
        2
176
     1
 62
     7
176
     1
 62
     7
176
     1
 90
        1
176
     1
 90
        1
176
     1
 40
40.0
176
     1
 90
       11
176
     1
 62
     7
176
     1
 40
1.0
176
     1
 90
        1
176
     1
 90
        6
176
     1
 90
        2
176
     1
 62
     7
176
     1
 90
        6
176
     1
 90
        0
176
     1
 90
        0
176
     1
290
     0
176
     1
 90
        1
176
     1
 40
0.0
176
     1
 90
        0
176
     1
290
     0
176
     1
290
     1
176
     1
290
     1
176
     1
290
     0
176
     1
290
     0
176
     1
290
     0
176
     1
290
     0
176
     1
290
     0
176
     1
290
     0
176
     1
 90
       50
176
     1
 40
0.0
176
     1
 40
1.0
176
     1
 90
        0
176
     1
 62
    18
420
        0
176
     1
 90
       50
176
     1
 90
        3
176
     1
 62
     5
420
      255
176
     1
290
     0
176
     1
 90
       50
176
     1
 90
       50
176
     1
 90
       50
176
     1
290
     0
176
     1
 90
       50
176
     1
 62
   256
176
     0
 40
1.0
176
     0
 90
        2
176
     1
  1
strokes_ogs.tif
176
     1
290
     0
176
     1
 40
1.0
176
     1
 40
1.0
176
     1
  0
VISUALSTYLE
  5
36
102
{ACAD_REACTORS
330
29
102
}
330
29
100
AcDbVisualStyle
  2
Thicken
 70
    13
177
     3
291
     1
 70
    58
 90
        2
176
     1
 90
        2
176
     1
 90
        0
176
     1
 90
        0
176
     1
 40
0.6
176
     1
 40
30.0
176
     1
 62
     7
420
 16777215
176
     1
 90
        1
176
     1
 90
        4
176
     1
 62
     7
176
     1
 62
   257
176
     1
 90
        1
176
     1
 90
        1
176
     1
 40
1.0
176
     1
 90
       12
176
     1
 62
     7
176
     1
 40
1.0
176
     1
 90
        1
176
     1
 90
        6
176
     1
 90
        2
176
     1
 62
     7
176
     1
 90
        5
176
     1
 90
        0
176
     1
 90
        0
176
     1
290
     0
176
     1
 90
        1
176
     1
 40
0.0
176
     1
 90
        0
176
     1
290
     0
176
     1
290
     1
176
     1
290
     1
176
     1
290
     0
176
     1
290
     0
176
     1
290
     0
176
     1
290
     0
176
     1
290
     0
176
     1
290
     0
176
     1
 90
       50
176
     1
 40
0.0
176
     1
 40
1.0
176
     1
 90
        0
176
     1
 62
    18
420
        0
176
     1
 90
       50
176
     1
 90
        3
176
     1
 62
     5
420
      255
176
     1
290
     0
176
     1
 90
       50
176
     1
 90
       50
176
     1
 90
       50
176
     1
290
     0
176
     1
 90
       50
176
     1
 62
   256
176
     0
 40
1.0
176
     0
 90
        2
176
     1
  1
strokes_ogs.tif
176
     1
290
     0
176
     1
 40
1.0
176
     1
 40
1.0
176
     1
  0
VISUALSTYLE
  5
30
102
{ACAD_REACTORS
330
29
102
}
330
29
100
AcDbVisualStyle
  2
Wireframe
 70
     5
177
     3
291
     0
 70
    58
 90
        0
176
     1
 90
        2
176
     1
 90
        0
176
     1
 90
        0
176
     1
 40
0.6
176
     1
 40
30.0
176
     1
 62
     7
420
 16777215
176
     1
 90
        1
176
     1
 90
        4
176
     1
 62
     7
176
     1
 62
   257
176
     1
 90
        1
176
     1
 90
        1
176
     1
 40
1.0
176
     1
 90
        0
176
     1
 62
   257
176
     1
 40
1.0
176
     1
 90
        1
176
     1
 90
        6
176
     1
 90
        2
176
     1
 62
     7
176
     1
 90
        3
176
     1
 90
        0
176
     1
 90
        0
176
     1
290
     0
176
     1
 90
        1
176
     1
 40
0.0
176
     1
 90
        0
176
     1
290
     0
176
     1
290
     1
176
     1
290
     1
176
     1
290
     0
176
     1
290
     0
176
     1
290
     0
176
     1
290
     0
176
     1
290
     0
176
     1
290
     0
176
     1
 90
       50
176
     1
 40
0.0
176
     1
 40
1.0
176
     1
 90
        0
176
     1
 62
    18
420
        0
176
     1
 90
       50
176
     1
 90
        3
176
     1
 62
     5
420
      255
176
     1
290
     0
176
     1
 90
       50
176
     1
 90
       50
176
     1
 90
       50
176
     1
290
     0
176
     1
 90
       50
176
     1
 62
   256
176
     0
 40
1.0
176
     0
 90
        2
176
     1
  1
strokes_ogs.tif
176
     1
290
     0
176
     1
 40
1.0
176
     1
 40
1.0
176
     1
  0
VISUALSTYLE
  5
3C
102
{ACAD_REACTORS
330
29
102
}
330
29
100
AcDbVisualStyle
  2
X-Ray
 70
    25
177
     3
291
     0
 70
    58
 90
        2
176
     1
 90
        2
176
     1
 90
        1
176
     1
 90
        1
176
     1
 40
0.5
176
     1
 40
30.0
176
     1
 62
     7
420
 16777215
176
     1
 90
        1
176
     1
 90
        0
176
     1
 62
     7
176
     1
 62
   257
176
     1
 90
        1
176
     1
 90
        1
176
     1
 40
1.0
176
     1
 90
        8
176
     1
 62
     7
176
     1
 40
1.0
176
     1
 90
        1
176
     1
 90
        6
176
     1
 90
        2
176
     1
 62
     7
176
     1
 90
        3
176
     1
 90
        0
176
     1
 90
        0
176
     1
290
     0
176
     1
 90
       13
176
     1
 40
0.0
176
     1
 90
        0
176
     1
290
     0
176
     1
290
     1
176
     1
290
     1
176
     1
290
     0
176
     1
290
     0
176
     1
290
     0
176
     1
290
     0
176
     1
290
     0
176
     1
290
     0
176
     1
 90
       50
176
     1
 40
0.0
176
     1
 40
1.0
176
     1
 90
        0
176
     1
 62
    18
420
        0
176
     1
 90
       50
176
     1
 90
        3
176
     1
 62
     5
420
      255
176
     1
290
     0
176
     1
 90
       50
176
     1
 90
       50
176
     1
 90
       50
176
     1
290
     0
176
     1
 90
       50
176
     1
 62
   256
176
     0
 40
1.0
176
     0
 90
        2
176
     1
  1
strokes_ogs.tif
176
     1
290
     0
176
     1
 40
1.0
176
     1
 40
1.0
176
     1
  0
DICTIONARYVAR
  5
BC
102
{ACAD_REACTORS
330
B7
102
}
330
B7
100
DictionaryVariables
280
     0
  1
1:1
  0
DICTIONARYVAR
  5
B9
102
{ACAD_REACTORS
330
B7
102
}
330
B7
100
DictionaryVariables
280
     0
  1
STANDARD
  0
DICTIONARYVAR
  5
B8
102
{ACAD_REACTORS
330
B7
102
}
330
B7
100
DictionaryVariables
280
     0
  1
STANDARD
  0
DICTIONARYVAR
  5
BA
102
{ACAD_REACTORS
330
B7
102
}
330
B7
100
DictionaryVariables
280
     0
  1
Imperial24
  0
DICTIONARYVAR
  5
BB
102
{ACAD_REACTORS
330
B7
102
}
330
B7
100
DictionaryVariables
280
     0
  1
Imperial24
  0
DICTIONARY
  5
1A
330
19
100
AcDbDictionary
280
     1
281
     1
  3
BUMPTILE
360
1C
  3
DIFFUSETILE
360
1B
  3
OPACITYTILE
360
1F
  3
REFLECTIONTILE
360
1E
  3
REFRACTIONTILE
360
20
  3
SPECULARTILE
360
1D
  0
DICTIONARY
  5
12
330
11
100
AcDbDictionary
280
     1
281
     1
  3
BUMPTILE
360
14
  3
DIFFUSETILE
360
13
  3
OPACITYTILE
360
17
  3
REFLECTIONTILE
360
16
  3
REFRACTIONTILE
360
18
  3
SPECULARTILE
360
15
  0
DICTIONARY
  5
22
330
21
100
AcDbDictionary
280
     1
281
     1
  3
BUMPTILE
360
24
  3
DIFFUSETILE
360
23
  3
OPACITYTILE
360
27
  3
REFLECTIONTILE
360
26
  3
REFRACTIONTILE
360
28
  3
SPECULARTILE
360
25
  0
DICTIONARY
  5
BD
330
65
100
AcDbDictionary
280
     1
281
     1
  3
ACAD_ROUNDTRIP_2008_TABLESTYLE_CELLSTYLEMAP
360
BE
  0
XRECORD
  5
1C
102
{ACAD_REACTORS
330
1A
102
}
330
1A
100
AcDbXrecord
280
     1
270
     1
271
     1
  0
XRECORD
  5
1B
102
{ACAD_REACTORS
330
1A
102
}
330
1A
100
AcDbXrecord
280
     1
270
     1
271
     1
  0
XRECORD
  5
1F
102
{ACAD_REACTORS
330
1A
102
}
330
1A
100
AcDbXrecord
280
     1
270
     1
271
     1
  0
XRECORD
  5
1E
102
{ACAD_REACTORS
330
1A
102
}
330
1A
100
AcDbXrecord
280
     1
270
     1
271
     1
  0
XRECORD
  5
20
102
{ACAD_REACTORS
330
1A
102
}
330
1A
100
AcDbXrecord
280
     1
270
     1
271
     1
  0
XRECORD
  5
1D
102
{ACAD_REACTORS
330
1A
102
}
330
1A
100
AcDbXrecord
280
     1
270
     1
271
     1
  0
XRECORD
  5
14
102
{ACAD_REACTORS
330
12
102
}
330
12
100
AcDbXrecord
280
     1
270
     1
271
     1
  0
XRECORD
  5
13
102
{ACAD_REACTORS
330
12
102
}
330
12
100
AcDbXrecord
280
     1
270
     1
271
     1
  0
XRECORD
  5
17
102
{ACAD_REACTORS
330
12
102
}
330
12
100
AcDbXrecord
280
     1
270
     1
271
     1
  0
XRECORD
  5
16
102
{ACAD_REACTORS
330
12
102
}
330
12
100
AcDbXrecord
280
     1
270
     1
271
     1
  0
XRECORD
  5
18
102
{ACAD_REACTORS
330
12
102
}
330
12
100
AcDbXrecord
280
     1
270
     1
271
     1
  0
XRECORD
  5
15
102
{ACAD_REACTORS
330
12
102
}
330
12
100
AcDbXrecord
280
     1
270
     1
271
     1
  0
XRECORD
  5
24
102
{ACAD_REACTORS
330
22
102
}
330
22
100
AcDbXrecord
280
     1
270
     1
271
     1
  0
XRECORD
  5
23
102
{ACAD_REACTORS
330
22
102
}
330
22
100
AcDbXrecord
280
     1
270
     1
271
     1
  0
XRECORD
  5
27
102
{ACAD_REACTORS
330
22
102
}
330
22
100
AcDbXrecord
280
     1
270
     1
271
     1
  0
XRECORD
  5
26
102
{ACAD_REACTORS
330
22
102
}
330
22
100
AcDbXrecord
280
     1
270
     1
271
     1
  0
XRECORD
  5
28
102
{ACAD_REACTORS
330
22
102
}
330
22
100
AcDbXrecord
280
     1
270
     1
271
     1
  0
XRECORD
  5
25
102
{ACAD_REACTORS
330
22
102
}
330
22
100
AcDbXrecord
280
     1
270
     1
271
     1
  0
CELLSTYLEMAP
  5
BE
102
{ACAD_REACTORS
330
BD
102
}
330
BD
100
AcDbCellStyleMap
 90
        3
300
CELLSTYLE
  1
TABLEFORMAT_BEGIN
 90
        5
170
     1
 91
        0
 92
    32768
 62
   257
 93
        1
300
CONTENTFORMAT
  1
CONTENTFORMAT_BEGIN
 90
        0
 91
        0
 92
      512
 93
        0
300

 40
0.0
140
1.0
 94
        5
 62
     0
340
55
144
0.25
309
CONTENTFORMAT_END
171
     0
 94
        0
309
TABLEFORMAT_END
  1
CELLSTYLE_BEGIN
 90
        1
 91
        1
300
_TITLE
309
CELLSTYLE_END
300
CELLSTYLE
  1
TABLEFORMAT_BEGIN
 90
        5
170
     1
 91
        0
 92
        0
 62
   257
 93
        1
300
CONTENTFORMAT
  1
CONTENTFORMAT_BEGIN
 90
        0
 91
        0
 92
      512
 93
        0
300

 40
0.0
140
1.0
 94
        5
 62
     0
340
55
144
0.18
309
CONTENTFORMAT_END
171
     0
 94
        0
309
TABLEFORMAT_END
  1
CELLSTYLE_BEGIN
 90
        2
 91
        1
300
_HEADER
309
CELLSTYLE_END
300
CELLSTYLE
  1
TABLEFORMAT_BEGIN
 90
        5
170
     1
 91
        0
 92
        0
 62
   257
 93
        1
300
CONTENTFORMAT
  1
CONTENTFORMAT_BEGIN
 90
        0
 91
        0
 92
      512
 93
        0
300

 40
0.0
140
1.0
 94
        2
 62
     0
340
55
144
0.18
309
CONTENTFORMAT_END
171
     0
 94
        0
309
TABLEFORMAT_END
  1
CELLSTYLE_BEGIN
 90
        3
 91
        2
300
_DATA
309
CELLSTYLE_END
  0
ENDSEC
  0
EOF
