  0
SECTION
  2
HEADER
  9
$ACADVER
  1
AC1032
  9
$ACADMAINTVER
 90
      228
  9
$DWGCODEPAGE
  3
ANSI_1252
  9
$REQUIREDVERSIONS
160
                 0
  9
$INSBASE
 10
0.0
 20
0.0
 30
0.0
  9
$EXTMIN
 10
1.000000000000000E+20
 20
1.000000000000000E+20
 30
1.000000000000000E+20
  9
$EXTMAX
 10
-1.000000000000000E+20
 20
-1.000000000000000E+20
 30
-1.000000000000000E+20
  9
$LIMMIN
 10
0.0
 20
0.0
  9
$LIMMAX
 10
12.0
 20
9.0
  9
$ORTHOMODE
 70
     0
  9
$REGENMODE
 70
     1
  9
$FILLMODE
 70
     1
  9
$QTEXTMODE
 70
     0
  9
$MIRRTEXT
 70
     0
  9
$LTSCALE
 40
1.0
  9
$ATTMODE
 70
     1
  9
$TEXTSIZE
 40
0.2
  9
$TRACEWID
 40
0.05
  9
$TEXTSTYLE
  7
Standard
  9
$CLAYER
  8
0
  9
$CELTYPE
  6
ByLayer
  9
$CECOLOR
 62
   256
  9
$CELTSCALE
 40
1.0
  9
$DISPSILH
 70
     0
  9
$DIMSCALE
 40
1.0
  9
$DIMASZ
 40
0.18
  9
$DIMEXO
 40
0.0625
  9
$DIMDLI
 40
0.38
  9
$DIMRND
 40
0.0
  9
$DIMDLE
 40
0.0
  9
$DIMEXE
 40
0.18
  9
$DIMTP
 40
0.0
  9
$DIMTM
 40
0.0
  9
$DIMTXT
 40
0.18
  9
$DIMCEN
 40
0.09
  9
$DIMTSZ
 40
0.0
  9
$DIMTOL
 70
     0
  9
$DIMLIM
 70
     0
  9
$DIMTIH
 70
     1
  9
$DIMTOH
 70
     1
  9
$DIMSE1
 70
     0
  9
$DIMSE2
 70
     0
  9
$DIMTAD
 70
     0
  9
$DIMZIN
 70
     0
  9
$DIMBLK
  1

  9
$DIMASO
 70
     1
  9
$DIMSHO
 70
     1
  9
$DIMPOST
  1

  9
$DIMAPOST
  1

  9
$DIMALT
 70
     0
  9
$DIMALTD
 70
     2
  9
$DIMALTF
 40
25.4
  9
$DIMLFAC
 40
1.0
  9
$DIMTOFL
 70
     0
  9
$DIMTVP
 40
0.0
  9
$DIMTIX
 70
     0
  9
$DIMSOXD
 70
     0
  9
$DIMSAH
 70
     0
  9
$DIMBLK1
  1

  9
$DIMBLK2
  1

  9
$DIMSTYLE
  2
Standard
  9
$DIMCLRD
 70
     0
  9
$DIMCLRE
 70
     0
  9
$DIMCLRT
 70
     0
  9
$DIMTFAC
 40
1.0
  9
$DIMGAP
 40
0.09
  9
$DIMJUST
 70
     0
  9
$DIMSD1
 70
     0
  9
$DIMSD2
 70
     0
  9
$DIMTOLJ
 70
     1
  9
$DIMTZIN
 70
     0
  9
$DIMALTZ
 70
     0
  9
$DIMALTTZ
 70
     0
  9
$DIMUPT
 70
     0
  9
$DIMDEC
 70
     4
  9
$DIMTDEC
 70
     4
  9
$DIMALTU
 70
     2
  9
$DIMALTTD
 70
     2
  9
$DIMTXSTY
  7
Standard
  9
$DIMAUNIT
 70
     0
  9
$DIMADEC
 70
     0
  9
$DIMALTRND
 40
0.0
  9
$DIMAZIN
 70
     0
  9
$DIMDSEP
 70
    46
  9
$DIMATFIT
 70
     3
  9
$DIMFRAC
 70
     0
  9
$DIMLDRBLK
  1

  9
$DIMLUNIT
 70
     2
  9
$DIMLWD
 70
    -2
  9
$DIMLWE
 70
    -2
  9
$DIMTMOVE
 70
     0
  9
$DIMFXL
 40
1.0
  9
$DIMFXLON
 70
     0
  9
$DIMJOGANG
 40
0.7853981633974483
  9
$DIMTFILL
 70
     0
  9
$DIMTFILLCLR
 70
     0
  9
$DIMARCSYM
 70
     0
  9
$DIMLTYPE
  6

  9
$DIMLTEX1
  6

  9
$DIMLTEX2
  6

  9
$DIMTXTDIRECTION
 70
     0
  9
$LUNITS
 70
     2
  9
$LUPREC
 70
     4
  9
$SKETCHINC
 40
0.1
  9
$FILLETRAD
 40
0.0
  9
$AUNITS
 70
     0
  9
$AUPREC
 70
     0
  9
$MENU
  1
.
  9
$ELEVATION
 40
0.0
  9
$PELEVATION
 40
0.0
  9
$THICKNESS
 40
0.0
  9
$LIMCHECK
 70
     0
  9
$CHAMFERA
 40
0.0
  9
$CHAMFERB
 40
0.0
  9
$CHAMFERC
 40
0.0
  9
$CHAMFERD
 40
0.0
  9
$SKPOLY
 70
     0
  9
$TDCREATE
 40
2460340.040162037
  9
$TDUCREATE
 40
2460340.373495370
  9
$TDUPDATE
 40
2460340.040162037
  9
$TDUUPDATE
 40
2460340.373495370
  9
$TDINDWG
 40
0.0000000000
  9
$TDUSRTIMER
 40
0.0000000000
  9
$USRTIMER
 70
     1
  9
$ANGBASE
 50
0.0
  9
$ANGDIR
 70
     0
  9
$PDMODE
 70
     0
  9
$PDSIZE
 40
0.0
  9
$PLINEWID
 40
0.0
  9
$SPLFRAME
 70
     0
  9
$SPLINETYPE
 70
     6
  9
$SPLINESEGS
 70
     8
  9
$HANDSEED
  5
120
  9
$SURFTAB1
 70
     6
  9
$SURFTAB2
 70
     6
  9
$SURFTYPE
 70
     6
  9
$SURFU
 70
     6
  9
$SURFV
 70
     6
  9
$UCSBASE
  2

  9
$UCSNAME
  2

  9
$UCSORG
 10
0.0
 20
0.0
 30
0.0
  9
$UCSXDIR
 10
1.0
 20
0.0
 30
0.0
  9
$UCSYDIR
 10
0.0
 20
1.0
 30
0.0
  9
$UCSORTHOREF
  2

  9
$UCSORTHOVIEW
 70
     0
  9
$UCSORGTOP
 10
0.0
 20
0.0
 30
0.0
  9
$UCSORGBOTTOM
 10
0.0
 20
0.0
 30
0.0
  9
$UCSORGLEFT
 10
0.0
 20
0.0
 30
0.0
  9
$UCSORGRIGHT
 10
0.0
 20
0.0
 30
0.0
  9
$UCSORGFRONT
 10
0.0
 20
0.0
 30
0.0
  9
$UCSORGBACK
 10
0.0
 20
0.0
 30
0.0
  9
$PUCSBASE
  2

  9
$PUCSNAME
  2

  9
$PUCSORG
 10
0.0
 20
0.0
 30
0.0
  9
$PUCSXDIR
 10
1.0
 20
0.0
 30
0.0
  9
$PUCSYDIR
 10
0.0
 20
1.0
 30
0.0
  9
$PUCSORTHOREF
  2

  9
$PUCSORTHOVIEW
 70
     0
  9
$PUCSORGTOP
 10
0.0
 20
0.0
 30
0.0
  9
$PUCSORGBOTTOM
 10
0.0
 20
0.0
 30
0.0
  9
$PUCSORGLEFT
 10
0.0
 20
0.0
 30
0.0
  9
$PUCSORGRIGHT
 10
0.0
 20
0.0
 30
0.0
  9
$PUCSORGFRONT
 10
0.0
 20
0.0
 30
0.0
  9
$PUCSORGBACK
 10
0.0
 20
0.0
 30
0.0
  9
$USERI1
 70
     0
  9
$USERI2
 70
     0
  9
$USERI3
 70
     0
  9
$USERI4
 70
     0
  9
$USERI5
 70
     0
  9
$USERR1
 40
0.0
  9
$USERR2
 40
0.0
  9
$USERR3
 40
0.0
  9
$USERR4
 40
0.0
  9
$USERR5
 40
0.0
  9
$WORLDVIEW
 70
     1
  9
$SHADEDGE
 70
     3
  9
$SHADEDIF
 70
    70
  9
$TILEMODE
 70
     1
  9
$MAXACTVP
 70
    64
  9
$PINSBASE
 10
0.0
 20
0.0
 30
0.0
  9
$PLIMCHECK
 70
     0
  9
$PEXTMIN
 10
1.000000000000000E+20
 20
1.000000000000000E+20
 30
1.000000000000000E+20
  9
$PEXTMAX
 10
-1.000000000000000E+20
 20
-1.000000000000000E+20
 30
-1.000000000000000E+20
  9
$PLIMMIN
 10
0.0
 20
0.0
  9
$PLIMMAX
 10
12.0
 20
9.0
  9
$UNITMODE
 70
     0
  9
$VISRETAIN
 70
     1
  9
$PLINEGEN
 70
     0
  9
$PSLTSCALE
 70
     1
  9
$TREEDEPTH
 70
  3020
  9
$CMLSTYLE
  2
Standard
  9
$CMLJUST
 70
     0
  9
$CMLSCALE
 40
1.0
  9
$PROXYGRAPHICS
 70
     1
  9
$MEASUREMENT
 70
     0
  9
$CELWEIGHT
370
    -1
  9
$ENDCAPS
280
     0
  9
$JOINSTYLE
280
     0
  9
$LWDISPLAY
290
     1
  9
$INSUNITS
 70
     1
  9
$HYPERLINKBASE
  1

  9
$STYLESHEET
  1

  9
$XEDIT
290
     1
  9
$CEPSNTYPE
380
     0
  9
$PSTYLEMODE
290
     1
  9
$FINGERPRINTGUID
  2
{5D38AA82-737F-7D43-AF79-91886AF79696}
  9
$VERSIONGUID
  2
{51888903-B008-844C-AA69-588C42DD4C9F}
  9
$EXTNAMES
290
     1
  9
$PSVPSCALE
 40
0.0
  9
$OLESTARTUP
290
     0
  9
$SORTENTS
280
   127
  9
$INDEXCTL
280
     0
  9
$HIDETEXT
280
     1
  9
$XCLIPFRAME
280
     2
  9
$HALOGAP
280
     0
  9
$OBSCOLOR
 70
   257
  9
$OBSLTYPE
280
     0
  9
$INTERSECTIONDISPLAY
280
     0
  9
$INTERSECTIONCOLOR
 70
   257
  9
$DIMASSOC
280
     2
  9
$PROJECTNAME
  1

  9
$CAMERADISPLAY
290
     0
  9
$LENSLENGTH
 40
50.0
  9
$CAMERAHEIGHT
 40
0.0
  9
$STEPSPERSEC
 40
2.0
  9
$STEPSIZE
 40
6.0
  9
$3DDWFPREC
 40
2.0
  9
$PSOLWIDTH
 40
0.25
  9
$PSOLHEIGHT
 40
4.0
  9
$LOFTANG1
 40
1.570796326794896
  9
$LOFTANG2
 40
1.570796326794896
  9
$LOFTMAG1
 40
0.0
  9
$LOFTMAG2
 40
0.0
  9
$LOFTPARAM
 70
     7
  9
$LOFTNORMALS
280
     1
  9
$LATITUDE
 40
37.795
  9
$LONGITUDE
 40
-122.394
  9
$NORTHDIRECTION
 40
0.0
  9
$TIMEZONE
 70
 -8000
  9
$LIGHTGLYPHDISPLAY
280
     1
  9
$TILEMODELIGHTSYNCH
280
     1
  9
$CMATERIAL
347
11
  9
$SOLIDHIST
280
     0
  9
$SHOWHIST
280
     1
  9
$DWFFRAME
280
     2
  9
$DGNFRAME
280
     0
  9
$REALWORLDSCALE
290
     1
  9
$INTERFERECOLOR
 62
     1
  9
$INTERFEREOBJVS
345
33
  9
$INTERFEREVPVS
346
30
  9
$CSHADOW
280
     0
  9
$SHADOWPLANELOCATION
 40
0.0
  0
ENDSEC
  0
SECTION
  2
CLASSES
  0
CLASS
  1
ACDBDICTIONARYWDFLT
  2
AcDbDictionaryWithDefault
  3
ObjectDBX Classes
 90
        0
 91
        1
280
     0
281
     0
  0
CLASS
  1
MATERIAL
  2
AcDbMaterial
  3
ObjectDBX Classes
 90
     1153
 91
        3
280
     0
281
     0
  0
CLASS
  1
VISUALSTYLE
  2
AcDbVisualStyle
  3
ObjectDBX Classes
 90
     4095
 91
       24
280
     0
281
     0
  0
CLASS
  1
SCALE
  2
AcDbScale
  3
ObjectDBX Classes
 90
     1153
 91
       17
280
     0
281
     0
  0
CLASS
  1
TABLESTYLE
  2
AcDbTableStyle
  3
ObjectDBX Classes
 90
     4095
 91
        1
280
     0
281
     0
  0
CLASS
  1
MLEADERSTYLE
  2
AcDbMLeaderStyle
  3
ACDB_MLEADERSTYLE_CLASS
 90
     4095
 91
        1
280
     0
281
     0
  0
CLASS
  1
ACDBSECTIONVIEWSTYLE
  2
AcDbSectionViewStyle
  3
ObjectDBX Classes
 90
     1025
 91
        1
280
     0
281
     0
  0
CLASS
  1
ACDBDETAILVIEWSTYLE
  2
AcDbDetailViewStyle
  3
ObjectDBX Classes
 90
     1025
 91
        1
280
     0
281
     0
  0
CLASS
  1
DICTIONARYVAR
  2
AcDbDictionaryVar
  3
ObjectDBX Classes
 90
        0
 91
        5
280
     0
281
     0
  0
CLASS
  1
CELLSTYLEMAP
  2
AcDbCellStyleMap
  3
ObjectDBX Classes
 90
     1152
 91
        1
280
     0
281
     0
  0
ENDSEC
  0
SECTION
  2
TABLES
  0
TABLE
  2
VPORT
  5
8
330
0
100
AcDbSymbolTable
 70
     1
  0
VPORT
  5
57
330
8
100
AcDbSymbolTableRecord
100
AcDbViewportTableRecord
  2
*Active
 70
     0
 10
0.0
 20
0.0
 11
1.0
 21
1.0
 12
0.0
 22
0.0
 13
0.0
 23
0.0
 14
1.0
 24
1.0
 15
0.0
 25
0.0
 16
0.0
 26
0.0
 36
1.0
 17
4.25
 27
-5.5
 37
0.0
 40
11.22
 41
0.7727272727272727
 42
50.0
 43
0.0
 44
0.0
 50
0.0
 51
0.0
 71
     0
 72
   100
 73
     1
 74
     1
 75
     0
 76
     0
 77
     0
 78
     0
281
     0
 65
     1
110
0.0
120
0.0
130
0.0
111
1.0
121
0.0
131
0.0
112
0.0
122
1.0
132
0.0
 79
     0
146
0.0
 60
     3
 61
     5
292
     1
282
     1
141
0.0
142
0.0
 63
   250
421
  3355443
  0
ENDTAB
  0
TABLE
  2
LTYPE
  5
5
330
0
100
AcDbSymbolTable
 70
     1
  0
LTYPE
  5
5B
330
5
100
AcDbSymbolTableRecord
100
AcDbLinetypeTableRecord
  2
ByBlock
 70
     0
  3

 72
    65
 73
     0
 40
0.0
  0
LTYPE
  5
5C
330
5
100
AcDbSymbolTableRecord
100
AcDbLinetypeTableRecord
  2
ByLayer
 70
     0
  3

 72
    65
 73
     0
 40
0.0
  0
LTYPE
  5
5D
330
5
100
AcDbSymbolTableRecord
100
AcDbLinetypeTableRecord
  2
Continuous
 70
     0
  3
Solid line
 72
    65
 73
     0
 40
0.0
  0
ENDTAB
  0
TABLE
  2
LAYER
  5
2
330
0
100
AcDbSymbolTable
 70
     2
  0
LAYER
  5
54
330
2
100
AcDbSymbolTableRecord
100
AcDbLayerTableRecord
  2
0
 70
     0
 62
     7
  6
Continuous
370
    -3
390
F
347
21
348
0
  0
LAYER
  5
78
330
2
100
AcDbSymbolTableRecord
100
AcDbLayerTableRecord
  2
Layer 1
 70
     0
 62
     7
  6
Continuous
370
     0
390
F
347
21
348
0
  0
ENDTAB
  0
TABLE
  2
STYLE
  5
3
330
0
100
AcDbSymbolTable
 70
     2
  0
STYLE
  5
55
330
3
100
AcDbSymbolTableRecord
100
AcDbTextStyleTableRecord
  2
Standard
 70
     0
 40
0.0
 41
1.0
 50
0.0
 71
     0
 42
0.2
  3
txt
  4

  0
STYLE
  5
5A
330
3
100
AcDbSymbolTableRecord
100
AcDbTextStyleTableRecord
  2
Annotative
 70
     0
 40
0.0
 41
1.0
 50
0.0
 71
     0
 42
0.2
  3
txt
  4

1001
AcadAnnotative
1000
AnnotativeData
1002
{
1070
     1
1070
     1
1002
}
  0
ENDTAB
  0
TABLE
  2
VIEW
  5
6
330
0
100
AcDbSymbolTable
 70
     0
  0
ENDTAB
  0
TABLE
  2
UCS
  5
7
330
0
100
AcDbSymbolTable
 70
     0
  0
ENDTAB
  0
TABLE
  2
APPID
  5
9
330
0
100
AcDbSymbolTable
 70
     2
  0
APPID
  5
56
330
9
100
AcDbSymbolTableRecord
100
AcDbRegAppTableRecord
  2
ACAD
 70
     0
  0
APPID
  5
5E
330
9
100
AcDbSymbolTableRecord
100
AcDbRegAppTableRecord
  2
AcadAnnotative
 70
     0
  0
ENDTAB
  0
TABLE
  2
DIMSTYLE
  5
A
330
0
100
AcDbSymbolTable
 70
     2
100
AcDbDimStyleTable
 71
     0
  0
DIMSTYLE
105
58
330
A
100
AcDbSymbolTableRecord
100
AcDbDimStyleTableRecord
  2
Standard
 70
     0
340
55
  0
DIMSTYLE
105
59
330
A
100
AcDbSymbolTableRecord
100
AcDbDimStyleTableRecord
  2
Annotative
 70
     0
340
55
1001
AcadAnnotative
1000
AnnotativeData
1002
{
1070
     1
1070
     1
1002
}
  0
ENDTAB
  0
TABLE
  2
BLOCK_RECORD
  5
1
330
0
100
AcDbSymbolTable
 70
     3
  0
BLOCK_RECORD
  5
70
330
1
100
AcDbSymbolTableRecord
100
AcDbBlockTableRecord
  2
*Model_Space
340
73
 70
     0
280
     1
281
     0
  0
BLOCK_RECORD
  5
6C
330
1
100
AcDbSymbolTableRecord
100
AcDbBlockTableRecord
  2
*Paper_Space
340
6F
 70
     0
280
     1
281
     0
  0
BLOCK_RECORD
  5
74
330
1
100
AcDbSymbolTableRecord
100
AcDbBlockTableRecord
  2
*Paper_Space0
340
77
 70
     0
280
     1
281
     0
  0
BLOCK_RECORD
  5
79
330
1
100
AcDbSymbolTableRecord
100
AcDbBlockTableRecord
  2
Block_0
340
0
102
{BLKREFS
331
7A
102
}
 70
     0
280
     1
281
     0
  0
BLOCK_RECORD
  5
7F
330
1
100
AcDbSymbolTableRecord
100
AcDbBlockTableRecord
  2
Block_1
340
0
102
{BLKREFS
331
80
102
}
 70
     0
280
     1
281
     0
  0
ENDTAB
  0
ENDSEC
  0
SECTION
  2
BLOCKS
  0
BLOCK
  5
71
330
70
100
AcDbEntity
  8
0
100
AcDbBlockBegin
  2
*Model_Space
 70
     0
 10
0.0
 20
0.0
 30
0.0
  3
*Model_Space
  1

  0
ENDBLK
  5
72
330
70
100
AcDbEntity
  8
0
100
AcDbBlockEnd
  0
BLOCK
  5
6D
330
6C
100
AcDbEntity
 67
     1
  8
0
100
AcDbBlockBegin
  2
*Paper_Space
 70
     0
 10
0.0
 20
0.0
 30
0.0
  3
*Paper_Space
  1

  0
ENDBLK
  5
6E
330
6C
100
AcDbEntity
 67
     1
  8
0
100
AcDbBlockEnd
  0
BLOCK
  5
75
330
74
100
AcDbEntity
 67
     1
  8
0
100
AcDbBlockBegin
  2
*Paper_Space0
 70
     0
 10
0.0
 20
0.0
 30
0.0
  3
*Paper_Space0
  1

  0
ENDBLK
  5
76
330
74
100
AcDbEntity
 67
     1
  8
0
100
AcDbBlockEnd
  0
BLOCK
  5
7B
330
79
100
AcDbEntity
  8
0
100
AcDbBlockBegin
  2
Block_0
 70
     0
 10
0.0
 20
0.0
 30
0.0
  3
Block_0
  1

  0
LWPOLYLINE
  5
7D
330
79
100
AcDbEntity
  8
Layer 1
 62
   250
420
  2301728
370
    35
100
AcDbPolyline
 90
        4
 70
     1
 43
0.0
 10
6.369999999999991
 20
-6.828888888888892
 10
2.809999999999995
 20
-6.828888888888892
 10
2.809999999999995
 20
-2.238888888888898
 10
6.369999999999991
 20
-2.238888888888898
  0
LWPOLYLINE
  5
7E
330
79
100
AcDbEntity
  8
Layer 1
 62
   250
420
  2301728
370
    35
100
AcDbPolyline
 90
        4
 70
     1
 43
0.0
 10
5.789166666666662
 20
-6.228888888888882
 10
3.429166666666661
 20
-6.228888888888882
 10
3.429166666666661
 20
-2.838888888888883
 10
5.789166666666662
 20
-2.838888888888883
  0
ENDBLK
  5
7C
330
79
100
AcDbEntity
  8
0
100
AcDbBlockEnd
  0
BLOCK
  5
81
330
7F
100
AcDbEntity
  8
0
100
AcDbBlockBegin
  2
Block_1
 70
     0
 10
0.0
 20
0.0
 30
0.0
  3
Block_1
  1

  0
SPLINE
  5
83
330
7F
100
AcDbEntity
  8
Layer 1
100
AcDbSpline
210
0.0
220
0.0
230
1.0
 70
     9
 71
     3
 72
    14
 73
    10
 74
     0
 42
0.0000000001
 43
0.0000000001
 40
0.0
 40
0.0
 40
0.0
 40
0.0
 40
1.0
 40
1.0
 40
1.0
 40
2.0
 40
2.0
 40
2.0
 40
3.0
 40
3.0
 40
3.0
 40
3.0
 10
3.046644422743055
 20
-3.073343912760416
 30
0.0
 10
3.023376372619117
 20
-3.10326897960614
 30
0.0
 10
3.023349290747268
 20
-3.04730009448647
 30
0.0
 10
3.025267996804738
 20
-3.030870919589637
 30
0.0
 10
3.020001735482739
 20
-3.010208562960997
 30
0.0
 10
3.030021468575947
 20
-2.944148213074564
 30
0.0
 10
3.053687856667036
 20
-2.988394142412719
 30
0.0
 10
3.035464324011084
 20
-3.016564904810125
 30
0.0
 10
3.060580942204271
 20
-3.044887811711141
 30
0.0
 10
3.046644422743055
 20
-3.073343912760416
 30
0.0
  0
SPLINE
  5
84
330
7F
100
AcDbEntity
  8
Layer 1
100
AcDbSpline
210
0.0
220
0.0
230
1.0
 70
     9
 71
     3
 72
    11
 73
     7
 74
     0
 42
0.0000000001
 43
0.0000000001
 40
0.0
 40
0.0
 40
0.0
 40
0.0
 40
1.0
 40
1.0
 40
1.0
 40
2.0
 40
2.0
 40
2.0
 40
2.0
 10
3.039618598090277
 20
-2.938897026909721
 30
0.0
 10
3.040957467245675
 20
-2.950185998909546
 30
0.0
 10
3.022776676221762
 20
-2.944626549938409
 30
0.0
 10
3.015483166861018
 20
-2.944860016957552
 30
0.0
 10
2.995735863754349
 20
-2.929783234585531
 30
0.0
 10
3.04456034405262
 20
-2.911513407567301
 30
0.0
 10
3.039618598090277
 20
-2.938897026909721
 30
0.0
  0
SPLINE
  5
85
330
7F
100
AcDbEntity
  8
Layer 1
100
AcDbSpline
210
0.0
220
0.0
230
1.0
 70
     9
 71
     3
 72
    23
 73
    19
 74
     0
 42
0.0000000001
 43
0.0000000001
 40
0.0
 40
0.0
 40
0.0
 40
0.0
 40
1.0
 40
1.0
 40
1.0
 40
2.0
 40
2.0
 40
2.0
 40
3.0
 40
3.0
 40
3.0
 40
4.0
 40
4.0
 40
4.0
 40
5.0
 40
5.0
 40
5.0
 40
6.0
 40
6.0
 40
6.0
 40
6.0
 10
3.089118109809027
 20
-2.974039713541666
 30
0.0
 10
3.061957157369596
 20
-2.972909690561752
 30
0.0
 10
3.077245914343772
 20
-2.905326194636674
 30
0.0
 10
3.077806286714475
 20
-2.886191385413781
 30
0.0
 10
3.068704726744777
 20
-2.870242732538498
 30
0.0
 10
3.036189859483581
 20
-2.888384364005901
 30
0.0
 10
3.020983522036165
 20
-2.88068474344277
 30
0.0
 10
3.000877170675241
 20
-2.863068742616216
 30
0.0
 10
2.970133073548784
 20
-2.887132461064942
 30
0.0
 10
2.951924179261191
 20
-2.877489833268971
 30
0.0
 10
2.925155554563313
 20
-2.840634061345958
 30
0.0
 10
3.07728980069482
 20
-2.856714821689175
 30
0.0
 10
3.092479019636193
 20
-2.861589374062102
 30
0.0
 10
3.101700347692637
 20
-2.876706787555399
 30
0.0
 10
3.09351332127902
 20
-2.906420176419512
 30
0.0
 10
3.096155569829685
 20
-2.924532533092246
 30
0.0
 10
3.093836992795281
 20
-2.93848949774666
 30
0.0
 10
3.102502258721528
 20
-2.96489787091064
 30
0.0
 10
3.089118109809027
 20
-2.974039713541666
 30
0.0
  0
SPLINE
  5
86
330
7F
100
AcDbEntity
  8
Layer 1
100
AcDbSpline
210
0.0
220
0.0
230
1.0
 70
     9
 71
     3
 72
    29
 73
    25
 74
     0
 42
0.0000000001
 43
0.0000000001
 40
0.0
 40
0.0
 40
0.0
 40
0.0
 40
1.0
 40
1.0
 40
1.0
 40
2.0
 40
2.0
 40
2.0
 40
3.0
 40
3.0
 40
3.0
 40
4.0
 40
4.0
 40
4.0
 40
5.0
 40
5.0
 40
5.0
 40
6.0
 40
6.0
 40
6.0
 40
7.0
 40
7.0
 40
7.0
 40
8.0
 40
8.0
 40
8.0
 40
8.0
 10
2.890814887152777
 20
-2.981370713975694
 30
0.0
 10
2.926669554425491
 20
-2.989139171405693
 30
0.0
 10
2.87768409439588
 20
-3.105616466318097
 30
0.0
 10
2.950102132291804
 20
-3.042476692150873
 30
0.0
 10
2.967200683165603
 20
-3.020963947393839
 30
0.0
 10
2.933007133655122
 20
-2.961859563576303
 30
0.0
 10
2.982789656103174
 20
-2.974044762240585
 30
0.0
 10
3.004741342302496
 20
-2.982447480867651
 30
0.0
 10
3.015621399383487
 20
-2.981079656664001
 30
0.0
 10
3.010891917893129
 20
-3.009484501302722
 30
0.0
 10
3.006210401473127
 20
-3.025183964315298
 30
0.0
 10
3.024614453631076
 20
-3.094245042688624
 30
0.0
 10
2.994403041496298
 20
-3.075946755368375
 30
0.0
 10
2.978354347072543
 20
-3.054882010836131
 30
0.0
 10
3.002661278781412
 20
-3.015671341213545
 30
0.0
 10
2.985538851583277
 20
-2.998174995666002
 30
0.0
 10
2.964392257242593
 20
-2.984669733500052
 30
0.0
 10
2.983139752469292
 20
-3.037194839444787
 30
0.0
 10
2.972701314845178
 20
-3.047211039108712
 30
0.0
 10
2.954311129773511
 20
-3.095556266381297
 30
0.0
 10
2.876198861080676
 20
-3.090804683397259
 30
0.0
 10
2.877519262134228
 20
-3.033610835557877
 30
0.0
 10
2.89220376108066
 20
-3.023058149872983
 30
0.0
 10
2.873799918056205
 20
-2.986833265415371
 30
0.0
 10
2.890814887152777
 20
-2.981370713975694
 30
0.0
  0
SPLINE
  5
87
330
7F
100
AcDbEntity
  8
Layer 1
100
AcDbSpline
210
0.0
220
0.0
230
1.0
 70
     9
 71
     3
 72
    26
 73
    22
 74
     0
 42
0.0000000001
 43
0.0000000001
 40
0.0
 40
0.0
 40
0.0
 40
0.0
 40
1.0
 40
1.0
 40
1.0
 40
2.0
 40
2.0
 40
2.0
 40
3.0
 40
3.0
 40
3.0
 40
4.0
 40
4.0
 40
4.0
 40
5.0
 40
5.0
 40
5.0
 40
6.0
 40
6.0
 40
6.0
 40
7.0
 40
7.0
 40
7.0
 40
7.0
 10
2.8837890625
 20
-2.952955457899305
 30
0.0
 10
2.86094876164432
 20
-2.950832768640073
 30
0.0
 10
2.871787968863259
 20
-2.918060521061369
 30
0.0
 10
2.869423784203958
 20
-2.90315113827877
 30
0.0
 10
2.87182645986949
 20
-2.89157215632296
 30
0.0
 10
2.86397679590761
 20
-2.864959642068406
 30
0.0
 10
2.873700621371666
 20
-2.857312592074638
 30
0.0
 10
2.888899756411888
 20
-2.845793691820606
 30
0.0
 10
2.962277801985401
 20
-2.855853817655909
 30
0.0
 10
2.918927745740979
 20
-2.875039256913421
 30
0.0
 10
2.876357129450942
 20
-2.860410233776519
 30
0.0
 10
2.896283553830837
 20
-2.895969666872878
 30
0.0
 10
2.888222023849784
 20
-2.921025075939041
 30
0.0
 10
2.885154067382523
 20
-2.948590737230549
 30
0.0
 10
2.946746256818844
 20
-2.926706493565385
 30
0.0
 10
2.961396273992173
 20
-2.924536916802404
 30
0.0
 10
2.98233978290975
 20
-2.917098460587617
 30
0.0
 10
3.003227245018693
 20
-2.939092509950026
 30
0.0
 10
2.982788560158774
 20
-2.952963410821793
 30
0.0
 10
2.951882051860075
 20
-2.95294454423702
 30
0.0
 10
2.914663519878406
 20
-2.952963324370708
 30
0.0
 10
2.8837890625
 20
-2.952955457899305
 30
0.0
  0
HATCH
  5
88
330
7F
100
AcDbEntity
  8
Layer 1
 62
   250
420
  2301728
440
 33554687
100
AcDbHatch
 10
0.0
 20
0.0
 30
0.0
210
0.0
220
0.0
230
1.0
  2
SOLID
 70
     1
 71
     1
 91
        5
 92
        1
 93
        1
 72
     4
 94
        3
 73
     0
 74
     0
 95
       14
 96
       10
 40
0.0
 40
0.0
 40
0.0
 40
0.0
 40
1.0
 40
1.0
 40
1.0
 40
2.0
 40
2.0
 40
2.0
 40
3.0
 40
3.0
 40
3.0
 40
3.0
 10
3.046644422743055
 20
-3.073343912760416
 10
3.023376372619117
 20
-3.10326897960614
 10
3.023349290747268
 20
-3.04730009448647
 10
3.025267996804738
 20
-3.030870919589637
 10
3.020001735482739
 20
-3.010208562960997
 10
3.030021468575947
 20
-2.944148213074564
 10
3.053687856667036
 20
-2.988394142412719
 10
3.035464324011084
 20
-3.016564904810125
 10
3.060580942204271
 20
-3.044887811711141
 10
3.046644422743055
 20
-3.073343912760416
 97
        0
 97
        1
330
83
 92
        1
 93
        1
 72
     4
 94
        3
 73
     0
 74
     0
 95
       11
 96
        7
 40
0.0
 40
0.0
 40
0.0
 40
0.0
 40
1.0
 40
1.0
 40
1.0
 40
2.0
 40
2.0
 40
2.0
 40
2.0
 10
3.039618598090277
 20
-2.938897026909721
 10
3.040957467245675
 20
-2.950185998909546
 10
3.022776676221762
 20
-2.944626549938409
 10
3.015483166861018
 20
-2.944860016957552
 10
2.995735863754349
 20
-2.929783234585531
 10
3.04456034405262
 20
-2.911513407567301
 10
3.039618598090277
 20
-2.938897026909721
 97
        0
 97
        1
330
84
 92
        1
 93
        1
 72
     4
 94
        3
 73
     0
 74
     0
 95
       23
 96
       19
 40
0.0
 40
0.0
 40
0.0
 40
0.0
 40
1.0
 40
1.0
 40
1.0
 40
2.0
 40
2.0
 40
2.0
 40
3.0
 40
3.0
 40
3.0
 40
4.0
 40
4.0
 40
4.0
 40
5.0
 40
5.0
 40
5.0
 40
6.0
 40
6.0
 40
6.0
 40
6.0
 10
3.089118109809027
 20
-2.974039713541666
 10
3.061957157369596
 20
-2.972909690561752
 10
3.077245914343772
 20
-2.905326194636674
 10
3.077806286714475
 20
-2.886191385413781
 10
3.068704726744777
 20
-2.870242732538498
 10
3.036189859483581
 20
-2.888384364005901
 10
3.020983522036165
 20
-2.88068474344277
 10
3.000877170675241
 20
-2.863068742616216
 10
2.970133073548784
 20
-2.887132461064942
 10
2.951924179261191
 20
-2.877489833268971
 10
2.925155554563313
 20
-2.840634061345958
 10
3.07728980069482
 20
-2.856714821689175
 10
3.092479019636193
 20
-2.861589374062102
 10
3.101700347692637
 20
-2.876706787555399
 10
3.09351332127902
 20
-2.906420176419512
 10
3.096155569829685
 20
-2.924532533092246
 10
3.093836992795281
 20
-2.93848949774666
 10
3.102502258721528
 20
-2.96489787091064
 10
3.089118109809027
 20
-2.974039713541666
 97
        0
 97
        1
330
85
 92
        1
 93
        1
 72
     4
 94
        3
 73
     0
 74
     0
 95
       29
 96
       25
 40
0.0
 40
0.0
 40
0.0
 40
0.0
 40
1.0
 40
1.0
 40
1.0
 40
2.0
 40
2.0
 40
2.0
 40
3.0
 40
3.0
 40
3.0
 40
4.0
 40
4.0
 40
4.0
 40
5.0
 40
5.0
 40
5.0
 40
6.0
 40
6.0
 40
6.0
 40
7.0
 40
7.0
 40
7.0
 40
8.0
 40
8.0
 40
8.0
 40
8.0
 10
2.890814887152777
 20
-2.981370713975694
 10
2.926669554425491
 20
-2.989139171405693
 10
2.87768409439588
 20
-3.105616466318097
 10
2.950102132291804
 20
-3.042476692150873
 10
2.967200683165603
 20
-3.020963947393839
 10
2.933007133655122
 20
-2.961859563576303
 10
2.982789656103174
 20
-2.974044762240585
 10
3.004741342302496
 20
-2.982447480867651
 10
3.015621399383487
 20
-2.981079656664001
 10
3.010891917893129
 20
-3.009484501302722
 10
3.006210401473127
 20
-3.025183964315298
 10
3.024614453631076
 20
-3.094245042688624
 10
2.994403041496298
 20
-3.075946755368375
 10
2.978354347072543
 20
-3.054882010836131
 10
3.002661278781412
 20
-3.015671341213545
 10
2.985538851583277
 20
-2.998174995666002
 10
2.964392257242593
 20
-2.984669733500052
 10
2.983139752469292
 20
-3.037194839444787
 10
2.972701314845178
 20
-3.047211039108712
 10
2.954311129773511
 20
-3.095556266381297
 10
2.876198861080676
 20
-3.090804683397259
 10
2.877519262134228
 20
-3.033610835557877
 10
2.89220376108066
 20
-3.023058149872983
 10
2.873799918056205
 20
-2.986833265415371
 10
2.890814887152777
 20
-2.981370713975694
 97
        0
 97
        1
330
86
 92
        1
 93
        1
 72
     4
 94
        3
 73
     0
 74
     0
 95
       26
 96
       22
 40
0.0
 40
0.0
 40
0.0
 40
0.0
 40
1.0
 40
1.0
 40
1.0
 40
2.0
 40
2.0
 40
2.0
 40
3.0
 40
3.0
 40
3.0
 40
4.0
 40
4.0
 40
4.0
 40
5.0
 40
5.0
 40
5.0
 40
6.0
 40
6.0
 40
6.0
 40
7.0
 40
7.0
 40
7.0
 40
7.0
 10
2.8837890625
 20
-2.952955457899305
 10
2.86094876164432
 20
-2.950832768640073
 10
2.871787968863259
 20
-2.918060521061369
 10
2.869423784203958
 20
-2.90315113827877
 10
2.87182645986949
 20
-2.89157215632296
 10
2.86397679590761
 20
-2.864959642068406
 10
2.873700621371666
 20
-2.857312592074638
 10
2.888899756411888
 20
-2.845793691820606
 10
2.962277801985401
 20
-2.855853817655909
 10
2.918927745740979
 20
-2.875039256913421
 10
2.876357129450942
 20
-2.860410233776519
 10
2.896283553830837
 20
-2.895969666872878
 10
2.888222023849784
 20
-2.921025075939041
 10
2.885154067382523
 20
-2.948590737230549
 10
2.946746256818844
 20
-2.926706493565385
 10
2.961396273992173
 20
-2.924536916802404
 10
2.98233978290975
 20
-2.917098460587617
 10
3.003227245018693
 20
-2.939092509950026
 10
2.982788560158774
 20
-2.952963410821793
 10
2.951882051860075
 20
-2.95294454423702
 10
2.914663519878406
 20
-2.952963324370708
 10
2.8837890625
 20
-2.952955457899305
 97
        0
 97
        1
330
87
 75
     2
 76
     1
 98
        1
 10
0.0
 20
0.0
450
        0
451
        0
460
0.0
461
0.0
452
        0
462
0.0
453
        0
470

  0
SPLINE
  5
89
330
7F
100
AcDbEntity
  8
Layer 1
100
AcDbSpline
210
0.0
220
0.0
230
1.0
 70
     9
 71
     3
 72
    17
 73
    13
 74
     0
 42
0.0000000001
 43
0.0000000001
 40
0.0
 40
0.0
 40
0.0
 40
0.0
 40
1.0
 40
1.0
 40
1.0
 40
2.0
 40
2.0
 40
2.0
 40
3.0
 40
3.0
 40
3.0
 40
4.0
 40
4.0
 40
4.0
 40
4.0
 10
3.013644748263888
 20
-3.227593315972221
 30
0.0
 10
3.00360680809634
 20
-3.234342288869318
 30
0.0
 10
3.018173206505176
 20
-3.250210596818495
 30
0.0
 10
3.013639340000672
 20
-3.261814166328677
 30
0.0
 10
3.017931449059144
 20
-3.2758535551389
 30
0.0
 10
3.002290886447073
 20
-3.304208089133124
 30
0.0
 10
3.020517241188586
 20
-3.308567776036662
 30
0.0
 10
3.039034570031566
 20
-3.304240359398729
 30
0.0
 10
3.023021246910717
 20
-3.276079487270597
 30
0.0
 10
3.027402533988177
 20
-3.261814543016763
 30
0.0
 10
3.026629631157384
 20
-3.24917999661285
 30
0.0
 10
3.03650183159142
 20
-3.199286391141766
 30
0.0
 10
3.013644748263888
 20
-3.227593315972221
 30
0.0
  0
SPLINE
  5
8A
330
7F
100
AcDbEntity
  8
Layer 1
100
AcDbSpline
210
0.0
220
0.0
230
1.0
 70
     9
 71
     3
 72
    20
 73
    16
 74
     0
 42
0.0000000001
 43
0.0000000001
 40
0.0
 40
0.0
 40
0.0
 40
0.0
 40
1.0
 40
1.0
 40
1.0
 40
2.0
 40
2.0
 40
2.0
 40
3.0
 40
3.0
 40
3.0
 40
4.0
 40
4.0
 40
4.0
 40
5.0
 40
5.0
 40
5.0
 40
5.0
 10
3.020372178819444
 20
-3.324144151475694
 30
0.0
 10
2.997132863629429
 20
-3.326308371980454
 30
0.0
 10
2.980154477723367
 20
-3.324576132976037
 30
0.0
 10
2.986151006842975
 20
-3.296639972796305
 30
0.0
 10
2.985102641205824
 20
-3.283143415551206
 30
0.0
 10
2.986259255649984
 20
-3.266279762184227
 30
0.0
 10
2.992876392091652
 20
-3.255094373436791
 30
0.0
 10
2.999732513369938
 20
-3.236647187944413
 30
0.0
 10
2.972351070179342
 20
-3.204770482796813
 30
0.0
 10
3.000199787367048
 20
-3.200092708348102
 30
0.0
 10
3.048861545271481
 20
-3.200245873511663
 30
0.0
 10
3.051079676228356
 20
-3.209200904912815
 30
0.0
 10
3.047866786125432
 20
-3.255094162604475
 30
0.0
 10
3.042912605476696
 20
-3.282328817059869
 30
0.0
 10
3.065234142193415
 20
-3.335476266339797
 30
0.0
 10
3.020372178819444
 20
-3.324144151475694
 30
0.0
  0
SPLINE
  5
8B
330
7F
100
AcDbEntity
  8
Layer 1
100
AcDbSpline
210
0.0
220
0.0
230
1.0
 70
     9
 71
     3
 72
    11
 73
     7
 74
     0
 42
0.0000000001
 43
0.0000000001
 40
0.0
 40
0.0
 40
0.0
 40
0.0
 40
1.0
 40
1.0
 40
1.0
 40
2.0
 40
2.0
 40
2.0
 40
2.0
 10
2.951924641927083
 20
-3.1866455078125
 30
0.0
 10
2.952279433587566
 20
-3.169494152946728
 30
0.0
 10
2.985960793682579
 20
-3.16672589698616
 30
0.0
 10
2.986144984466351
 20
-3.186646356613853
 30
0.0
 10
2.989112169359562
 20
-3.214712387524261
 30
0.0
 10
2.949567871831681
 20
-3.212309248877279
 30
0.0
 10
2.951924641927083
 20
-3.1866455078125
 30
0.0
  0
SPLINE
  5
8C
330
7F
100
AcDbEntity
  8
Layer 1
100
AcDbSpline
210
0.0
220
0.0
230
1.0
 70
     9
 71
     3
 72
    44
 73
    40
 74
     0
 42
0.0000000001
 43
0.0000000001
 40
0.0
 40
0.0
 40
0.0
 40
0.0
 40
1.0
 40
1.0
 40
1.0
 40
2.0
 40
2.0
 40
2.0
 40
3.0
 40
3.0
 40
3.0
 40
4.0
 40
4.0
 40
4.0
 40
5.0
 40
5.0
 40
5.0
 40
6.0
 40
6.0
 40
6.0
 40
7.0
 40
7.0
 40
7.0
 40
8.0
 40
8.0
 40
8.0
 40
9.0
 40
9.0
 40
9.0
 40
10.0
 40
10.0
 40
10.0
 40
11.0
 40
11.0
 40
11.0
 40
12.0
 40
12.0
 40
12.0
 40
13.0
 40
13.0
 40
13.0
 40
13.0
 10
3.089423285590277
 20
-3.13836669921875
 30
0.0
 10
3.11262562881638
 20
-3.155916789191792
 30
0.0
 10
3.0928744064872
 20
-3.188731939001627
 30
0.0
 10
3.096150393723569
 20
-3.214144025875333
 30
0.0
 10
3.096146214636291
 20
-3.239983163823366
 30
0.0
 10
3.096153960815589
 20
-3.270804727350359
 30
0.0
 10
3.096150706291167
 20
-3.296644452866846
 30
0.0
 10
3.106321412092067
 20
-3.311417390999205
 30
0.0
 10
3.100165940440963
 20
-3.321766937949847
 30
0.0
 10
3.096143199242116
 20
-3.33759248938371
 30
0.0
 10
3.094945590476413
 20
-3.341941710961716
 30
0.0
 10
3.09912784636213
 20
-3.36230960738414
 30
0.0
 10
3.092787550667139
 20
-3.364175552348974
 30
0.0
 10
3.056809866717129
 20
-3.366741165997028
 30
0.0
 10
3.015699086697648
 20
-3.364251565771673
 30
0.0
 10
2.979424416497648
 20
-3.365093678010136
 30
0.0
 10
2.946927973777708
 20
-3.373414612344668
 30
0.0
 10
2.945122080820258
 20
-3.342213501896442
 30
0.0
 10
2.945202952134372
 20
-3.316809579336411
 30
0.0
 10
2.953711496859025
 20
-3.286118280975364
 30
0.0
 10
2.98242628231416
 20
-3.31470116171983
 30
0.0
 10
2.971626349404989
 20
-3.335762177752763
 30
0.0
 10
2.958038151064935
 20
-3.356733113435325
 30
0.0
 10
3.040965556194767
 20
-3.339120444576388
 30
0.0
 10
3.054895999819134
 20
-3.344319764247781
 30
0.0
 10
3.093629526414941
 20
-3.360375821936663
 30
0.0
 10
3.069481405548938
 20
-3.303486292777771
 30
0.0
 10
3.075376222008874
 20
-3.282593222684289
 30
0.0
 10
3.073112352436826
 20
-3.249164915332155
 30
0.0
 10
3.078889134657376
 20
-3.211123192543835
 30
0.0
 10
3.075371636284721
 20
-3.179619683159721
 30
0.0
 10
3.048923545285333
 20
-3.228985117677653
 30
0.0
 10
2.964199011978747
 20
-3.176580392206877
 30
0.0
 10
3.000199216776839
 20
-3.13836057054353
 30
0.0
 10
3.023085754165435
 20
-3.137594127512695
 30
0.0
 10
3.010670164231214
 20
-3.178442706573365
 30
0.0
 10
3.03442530237962
 20
-3.179618563434701
 30
0.0
 10
3.061057998800214
 20
-3.17867301644992
 30
0.0
 10
3.064128622201046
 20
-3.141633307896692
 30
0.0
 10
3.089423285590277
 20
-3.13836669921875
 30
0.0
  0
SPLINE
  5
8D
330
7F
100
AcDbEntity
  8
Layer 1
100
AcDbSpline
210
0.0
220
0.0
230
1.0
 70
     9
 71
     3
 72
    20
 73
    16
 74
     0
 42
0.0000000001
 43
0.0000000001
 40
0.0
 40
0.0
 40
0.0
 40
0.0
 40
1.0
 40
1.0
 40
1.0
 40
2.0
 40
2.0
 40
2.0
 40
3.0
 40
3.0
 40
3.0
 40
4.0
 40
4.0
 40
4.0
 40
5.0
 40
5.0
 40
5.0
 40
5.0
 10
2.876146104600694
 20
-3.2825927734375
 30
0.0
 10
2.849897153556311
 20
-3.260369008135322
 30
0.0
 10
2.903496453047005
 20
-3.259865405972668
 30
0.0
 10
2.917701712184376
 20
-3.261819492502
 30
0.0
 10
2.933954553003875
 20
-3.255897689262597
 30
0.0
 10
3.003987453716452
 20
-3.269703387411861
 30
0.0
 10
2.958646930308772
 20
-3.282603982071198
 30
0.0
 10
2.933493177251446
 20
-3.282446608463664
 30
0.0
 10
2.904302927112843
 20
-3.273426934472101
 30
0.0
 10
2.917709828923344
 20
-3.310097210295503
 30
0.0
 10
2.913566779625158
 20
-3.324898979898976
 30
0.0
 10
2.92955151209642
 20
-3.368892634325346
 30
0.0
 10
2.903649800057994
 20
-3.365092388724052
 30
0.0
 10
2.859084313976305
 20
-3.358100527864103
 30
0.0
 10
2.934546193683445
 20
-3.267044547184733
 30
0.0
 10
2.876146104600694
 20
-3.2825927734375
 30
0.0
  0
SPLINE
  5
8E
330
7F
100
AcDbEntity
  8
Layer 1
100
AcDbSpline
210
0.0
220
0.0
230
1.0
 70
     9
 71
     3
 72
    23
 73
    19
 74
     0
 42
0.0000000001
 43
0.0000000001
 40
0.0
 40
0.0
 40
0.0
 40
0.0
 40
1.0
 40
1.0
 40
1.0
 40
2.0
 40
2.0
 40
2.0
 40
3.0
 40
3.0
 40
3.0
 40
4.0
 40
4.0
 40
4.0
 40
5.0
 40
5.0
 40
5.0
 40
6.0
 40
6.0
 40
6.0
 40
6.0
 10
2.876146104600694
 20
-3.241644965277777
 30
0.0
 10
2.860768763709327
 20
-3.215164118242569
 30
0.0
 10
2.873253620929163
 20
-3.175141188101532
 30
0.0
 10
2.869419164153681
 20
-3.145095121104039
 30
0.0
 10
2.877941782238382
 20
-3.13348209478387
 30
0.0
 10
2.954473576599348
 20
-3.134604646913872
 30
0.0
 10
2.965372420340347
 20
-3.145086350028147
 30
0.0
 10
2.957962219323462
 20
-3.176060988356728
 30
0.0
 10
2.908971148331968
 20
-3.149202049234594
 30
0.0
 10
2.890205778877669
 20
-3.159145736557193
 30
0.0
 10
2.866851948943248
 20
-3.198666179783306
 30
0.0
 10
2.931898842479856
 20
-3.167902375697495
 30
0.0
 10
2.945200998055472
 20
-3.18664329749692
 30
0.0
 10
2.941332679277858
 20
-3.218597580257715
 30
0.0
 10
2.891062508858844
 20
-3.18137405557795
 30
0.0
 10
2.887144899176443
 20
-3.208336988435752
 30
0.0
 10
2.888892609683137
 20
-3.220324392658199
 30
0.0
 10
2.894990128687784
 20
-3.240113454588039
 30
0.0
 10
2.876146104600694
 20
-3.241644965277777
 30
0.0
  0
HATCH
  5
8F
330
7F
100
AcDbEntity
  8
Layer 1
 62
   250
420
  2301728
440
 33554687
100
AcDbHatch
 10
0.0
 20
0.0
 30
0.0
210
0.0
220
0.0
230
1.0
  2
SOLID
 70
     1
 71
     1
 91
        6
 92
        1
 93
        1
 72
     4
 94
        3
 73
     0
 74
     0
 95
       17
 96
       13
 40
0.0
 40
0.0
 40
0.0
 40
0.0
 40
1.0
 40
1.0
 40
1.0
 40
2.0
 40
2.0
 40
2.0
 40
3.0
 40
3.0
 40
3.0
 40
4.0
 40
4.0
 40
4.0
 40
4.0
 10
3.013644748263888
 20
-3.227593315972221
 10
3.00360680809634
 20
-3.234342288869318
 10
3.018173206505176
 20
-3.250210596818495
 10
3.013639340000672
 20
-3.261814166328677
 10
3.017931449059144
 20
-3.2758535551389
 10
3.002290886447073
 20
-3.304208089133124
 10
3.020517241188586
 20
-3.308567776036662
 10
3.039034570031566
 20
-3.304240359398729
 10
3.023021246910717
 20
-3.276079487270597
 10
3.027402533988177
 20
-3.261814543016763
 10
3.026629631157384
 20
-3.24917999661285
 10
3.03650183159142
 20
-3.199286391141766
 10
3.013644748263888
 20
-3.227593315972221
 97
        0
 97
        1
330
89
 92
        1
 93
        1
 72
     4
 94
        3
 73
     0
 74
     0
 95
       20
 96
       16
 40
0.0
 40
0.0
 40
0.0
 40
0.0
 40
1.0
 40
1.0
 40
1.0
 40
2.0
 40
2.0
 40
2.0
 40
3.0
 40
3.0
 40
3.0
 40
4.0
 40
4.0
 40
4.0
 40
5.0
 40
5.0
 40
5.0
 40
5.0
 10
3.020372178819444
 20
-3.324144151475694
 10
2.997132863629429
 20
-3.326308371980454
 10
2.980154477723367
 20
-3.324576132976037
 10
2.986151006842975
 20
-3.296639972796305
 10
2.985102641205824
 20
-3.283143415551206
 10
2.986259255649984
 20
-3.266279762184227
 10
2.992876392091652
 20
-3.255094373436791
 10
2.999732513369938
 20
-3.236647187944413
 10
2.972351070179342
 20
-3.204770482796813
 10
3.000199787367048
 20
-3.200092708348102
 10
3.048861545271481
 20
-3.200245873511663
 10
3.051079676228356
 20
-3.209200904912815
 10
3.047866786125432
 20
-3.255094162604475
 10
3.042912605476696
 20
-3.282328817059869
 10
3.065234142193415
 20
-3.335476266339797
 10
3.020372178819444
 20
-3.324144151475694
 97
        0
 97
        1
330
8A
 92
        1
 93
        1
 72
     4
 94
        3
 73
     0
 74
     0
 95
       11
 96
        7
 40
0.0
 40
0.0
 40
0.0
 40
0.0
 40
1.0
 40
1.0
 40
1.0
 40
2.0
 40
2.0
 40
2.0
 40
2.0
 10
2.951924641927083
 20
-3.1866455078125
 10
2.952279433587566
 20
-3.169494152946728
 10
2.985960793682579
 20
-3.16672589698616
 10
2.986144984466351
 20
-3.186646356613853
 10
2.989112169359562
 20
-3.214712387524261
 10
2.949567871831681
 20
-3.212309248877279
 10
2.951924641927083
 20
-3.1866455078125
 97
        0
 97
        1
330
8B
 92
        1
 93
        1
 72
     4
 94
        3
 73
     0
 74
     0
 95
       44
 96
       40
 40
0.0
 40
0.0
 40
0.0
 40
0.0
 40
1.0
 40
1.0
 40
1.0
 40
2.0
 40
2.0
 40
2.0
 40
3.0
 40
3.0
 40
3.0
 40
4.0
 40
4.0
 40
4.0
 40
5.0
 40
5.0
 40
5.0
 40
6.0
 40
6.0
 40
6.0
 40
7.0
 40
7.0
 40
7.0
 40
8.0
 40
8.0
 40
8.0
 40
9.0
 40
9.0
 40
9.0
 40
10.0
 40
10.0
 40
10.0
 40
11.0
 40
11.0
 40
11.0
 40
12.0
 40
12.0
 40
12.0
 40
13.0
 40
13.0
 40
13.0
 40
13.0
 10
3.089423285590277
 20
-3.13836669921875
 10
3.11262562881638
 20
-3.155916789191792
 10
3.0928744064872
 20
-3.188731939001627
 10
3.096150393723569
 20
-3.214144025875333
 10
3.096146214636291
 20
-3.239983163823366
 10
3.096153960815589
 20
-3.270804727350359
 10
3.096150706291167
 20
-3.296644452866846
 10
3.106321412092067
 20
-3.311417390999205
 10
3.100165940440963
 20
-3.321766937949847
 10
3.096143199242116
 20
-3.33759248938371
 10
3.094945590476413
 20
-3.341941710961716
 10
3.09912784636213
 20
-3.36230960738414
 10
3.092787550667139
 20
-3.364175552348974
 10
3.056809866717129
 20
-3.366741165997028
 10
3.015699086697648
 20
-3.364251565771673
 10
2.979424416497648
 20
-3.365093678010136
 10
2.946927973777708
 20
-3.373414612344668
 10
2.945122080820258
 20
-3.342213501896442
 10
2.945202952134372
 20
-3.316809579336411
 10
2.953711496859025
 20
-3.286118280975364
 10
2.98242628231416
 20
-3.31470116171983
 10
2.971626349404989
 20
-3.335762177752763
 10
2.958038151064935
 20
-3.356733113435325
 10
3.040965556194767
 20
-3.339120444576388
 10
3.054895999819134
 20
-3.344319764247781
 10
3.093629526414941
 20
-3.360375821936663
 10
3.069481405548938
 20
-3.303486292777771
 10
3.075376222008874
 20
-3.282593222684289
 10
3.073112352436826
 20
-3.249164915332155
 10
3.078889134657376
 20
-3.211123192543835
 10
3.075371636284721
 20
-3.179619683159721
 10
3.048923545285333
 20
-3.228985117677653
 10
2.964199011978747
 20
-3.176580392206877
 10
3.000199216776839
 20
-3.13836057054353
 10
3.023085754165435
 20
-3.137594127512695
 10
3.010670164231214
 20
-3.178442706573365
 10
3.03442530237962
 20
-3.179618563434701
 10
3.061057998800214
 20
-3.17867301644992
 10
3.064128622201046
 20
-3.141633307896692
 10
3.089423285590277
 20
-3.13836669921875
 97
        0
 97
        1
330
8C
 92
        1
 93
        1
 72
     4
 94
        3
 73
     0
 74
     0
 95
       20
 96
       16
 40
0.0
 40
0.0
 40
0.0
 40
0.0
 40
1.0
 40
1.0
 40
1.0
 40
2.0
 40
2.0
 40
2.0
 40
3.0
 40
3.0
 40
3.0
 40
4.0
 40
4.0
 40
4.0
 40
5.0
 40
5.0
 40
5.0
 40
5.0
 10
2.876146104600694
 20
-3.2825927734375
 10
2.849897153556311
 20
-3.260369008135322
 10
2.903496453047005
 20
-3.259865405972668
 10
2.917701712184376
 20
-3.261819492502
 10
2.933954553003875
 20
-3.255897689262597
 10
3.003987453716452
 20
-3.269703387411861
 10
2.958646930308772
 20
-3.282603982071198
 10
2.933493177251446
 20
-3.282446608463664
 10
2.904302927112843
 20
-3.273426934472101
 10
2.917709828923344
 20
-3.310097210295503
 10
2.913566779625158
 20
-3.324898979898976
 10
2.92955151209642
 20
-3.368892634325346
 10
2.903649800057994
 20
-3.365092388724052
 10
2.859084313976305
 20
-3.358100527864103
 10
2.934546193683445
 20
-3.267044547184733
 10
2.876146104600694
 20
-3.2825927734375
 97
        0
 97
        1
330
8D
 92
        1
 93
        1
 72
     4
 94
        3
 73
     0
 74
     0
 95
       23
 96
       19
 40
0.0
 40
0.0
 40
0.0
 40
0.0
 40
1.0
 40
1.0
 40
1.0
 40
2.0
 40
2.0
 40
2.0
 40
3.0
 40
3.0
 40
3.0
 40
4.0
 40
4.0
 40
4.0
 40
5.0
 40
5.0
 40
5.0
 40
6.0
 40
6.0
 40
6.0
 40
6.0
 10
2.876146104600694
 20
-3.241644965277777
 10
2.860768763709327
 20
-3.215164118242569
 10
2.873253620929163
 20
-3.175141188101532
 10
2.869419164153681
 20
-3.145095121104039
 10
2.877941782238382
 20
-3.13348209478387
 10
2.954473576599348
 20
-3.134604646913872
 10
2.965372420340347
 20
-3.145086350028147
 10
2.957962219323462
 20
-3.176060988356728
 10
2.908971148331968
 20
-3.149202049234594
 10
2.890205778877669
 20
-3.159145736557193
 10
2.866851948943248
 20
-3.198666179783306
 10
2.931898842479856
 20
-3.167902375697495
 10
2.945200998055472
 20
-3.18664329749692
 10
2.941332679277858
 20
-3.218597580257715
 10
2.891062508858844
 20
-3.18137405557795
 10
2.887144899176443
 20
-3.208336988435752
 10
2.888892609683137
 20
-3.220324392658199
 10
2.894990128687784
 20
-3.240113454588039
 10
2.876146104600694
 20
-3.241644965277777
 97
        0
 97
        1
330
8E
 75
     2
 76
     1
 98
        1
 10
0.0
 20
0.0
450
        0
451
        0
460
0.0
461
0.0
452
        0
462
0.0
453
        0
470

  0
SPLINE
  5
90
330
7F
100
AcDbEntity
  8
Layer 1
100
AcDbSpline
210
0.0
220
0.0
230
1.0
 70
     9
 71
     3
 72
    17
 73
    13
 74
     0
 42
0.0000000001
 43
0.0000000001
 40
0.0
 40
0.0
 40
0.0
 40
0.0
 40
1.0
 40
1.0
 40
1.0
 40
2.0
 40
2.0
 40
2.0
 40
3.0
 40
3.0
 40
3.0
 40
4.0
 40
4.0
 40
4.0
 40
4.0
 10
3.013644748263888
 20
-3.512315538194444
 30
0.0
 10
3.00360680809634
 20
-3.51906451109154
 30
0.0
 10
3.018173206505176
 20
-3.534932819040717
 30
0.0
 10
3.013639340000672
 20
-3.5465363885509
 30
0.0
 10
3.017931449059144
 20
-3.560575777361123
 30
0.0
 10
3.002290886447073
 20
-3.588930311355347
 30
0.0
 10
3.020517241188586
 20
-3.593289998258885
 30
0.0
 10
3.039034570031566
 20
-3.588962581620951
 30
0.0
 10
3.023021246910717
 20
-3.560801709492819
 30
0.0
 10
3.027402533988177
 20
-3.546536765238986
 30
0.0
 10
3.026629631157384
 20
-3.533902218835073
 30
0.0
 10
3.03650183159142
 20
-3.484008613363989
 30
0.0
 10
3.013644748263888
 20
-3.512315538194444
 30
0.0
  0
SPLINE
  5
91
330
7F
100
AcDbEntity
  8
Layer 1
100
AcDbSpline
210
0.0
220
0.0
230
1.0
 70
     9
 71
     3
 72
    20
 73
    16
 74
     0
 42
0.0000000001
 43
0.0000000001
 40
0.0
 40
0.0
 40
0.0
 40
0.0
 40
1.0
 40
1.0
 40
1.0
 40
2.0
 40
2.0
 40
2.0
 40
3.0
 40
3.0
 40
3.0
 40
4.0
 40
4.0
 40
4.0
 40
5.0
 40
5.0
 40
5.0
 40
5.0
 10
3.020372178819444
 20
-3.608866373697916
 30
0.0
 10
2.997132863629429
 20
-3.611030594202677
 30
0.0
 10
2.980154477723367
 20
-3.609298355198259
 30
0.0
 10
2.986151006842975
 20
-3.581362195018527
 30
0.0
 10
2.985102641205824
 20
-3.567865637773429
 30
0.0
 10
2.986259255649984
 20
-3.551001984406449
 30
0.0
 10
2.992876392091652
 20
-3.539816595659014
 30
0.0
 10
2.999732513369938
 20
-3.521369410166635
 30
0.0
 10
2.972351070179342
 20
-3.489492705019036
 30
0.0
 10
3.000199787367048
 20
-3.484814930570324
 30
0.0
 10
3.048861545271481
 20
-3.484968095733885
 30
0.0
 10
3.051079676228356
 20
-3.493923127135038
 30
0.0
 10
3.047866786125432
 20
-3.539816384826697
 30
0.0
 10
3.042912605476696
 20
-3.567051039282091
 30
0.0
 10
3.065234142193415
 20
-3.620198488562019
 30
0.0
 10
3.020372178819444
 20
-3.608866373697916
 30
0.0
  0
SPLINE
  5
92
330
7F
100
AcDbEntity
  8
Layer 1
100
AcDbSpline
210
0.0
220
0.0
230
1.0
 70
     9
 71
     3
 72
    11
 73
     7
 74
     0
 42
0.0000000001
 43
0.0000000001
 40
0.0
 40
0.0
 40
0.0
 40
0.0
 40
1.0
 40
1.0
 40
1.0
 40
2.0
 40
2.0
 40
2.0
 40
2.0
 10
2.951924641927083
 20
-3.471367730034721
 30
0.0
 10
2.952279433587566
 20
-3.45421637516895
 30
0.0
 10
2.985960793682579
 20
-3.451448119208382
 30
0.0
 10
2.986144984466351
 20
-3.471368578836075
 30
0.0
 10
2.989112169359562
 20
-3.499434609746483
 30
0.0
 10
2.949567871831681
 20
-3.497031471099502
 30
0.0
 10
2.951924641927083
 20
-3.471367730034721
 30
0.0
  0
SPLINE
  5
93
330
7F
100
AcDbEntity
  8
Layer 1
100
AcDbSpline
210
0.0
220
0.0
230
1.0
 70
     9
 71
     3
 72
    44
 73
    40
 74
     0
 42
0.0000000001
 43
0.0000000001
 40
0.0
 40
0.0
 40
0.0
 40
0.0
 40
1.0
 40
1.0
 40
1.0
 40
2.0
 40
2.0
 40
2.0
 40
3.0
 40
3.0
 40
3.0
 40
4.0
 40
4.0
 40
4.0
 40
5.0
 40
5.0
 40
5.0
 40
6.0
 40
6.0
 40
6.0
 40
7.0
 40
7.0
 40
7.0
 40
8.0
 40
8.0
 40
8.0
 40
9.0
 40
9.0
 40
9.0
 40
10.0
 40
10.0
 40
10.0
 40
11.0
 40
11.0
 40
11.0
 40
12.0
 40
12.0
 40
12.0
 40
13.0
 40
13.0
 40
13.0
 40
13.0
 10
3.089423285590277
 20
-3.423088921440971
 30
0.0
 10
3.11262562881638
 20
-3.440639011414014
 30
0.0
 10
3.0928744064872
 20
-3.473454161223849
 30
0.0
 10
3.096150393723569
 20
-3.498866248097556
 30
0.0
 10
3.096146214636291
 20
-3.524705386045588
 30
0.0
 10
3.096153960815589
 20
-3.555526949572582
 30
0.0
 10
3.096150706291167
 20
-3.581366675089068
 30
0.0
 10
3.106321412092067
 20
-3.596139613221427
 30
0.0
 10
3.100165940440963
 20
-3.606489160172069
 30
0.0
 10
3.096143199242116
 20
-3.622314711605933
 30
0.0
 10
3.094945590476413
 20
-3.626663933183938
 30
0.0
 10
3.09912784636213
 20
-3.647031829606362
 30
0.0
 10
3.092787550667139
 20
-3.648897774571196
 30
0.0
 10
3.056809866717129
 20
-3.65146338821925
 30
0.0
 10
3.015699086697648
 20
-3.648973787993895
 30
0.0
 10
2.979424416497648
 20
-3.649815900232359
 30
0.0
 10
2.946927973777708
 20
-3.65813683456689
 30
0.0
 10
2.945122080820258
 20
-3.626935724118665
 30
0.0
 10
2.945202952134372
 20
-3.601531801558634
 30
0.0
 10
2.953711496859025
 20
-3.570840503197587
 30
0.0
 10
2.98242628231416
 20
-3.599423383942053
 30
0.0
 10
2.971626349404989
 20
-3.620484399974985
 30
0.0
 10
2.958038151064935
 20
-3.641455335657547
 30
0.0
 10
3.040965556194767
 20
-3.62384266679861
 30
0.0
 10
3.054895999819134
 20
-3.629041986470004
 30
0.0
 10
3.093629526414941
 20
-3.645098044158885
 30
0.0
 10
3.069481405548938
 20
-3.588208514999994
 30
0.0
 10
3.075376222008874
 20
-3.567315444906512
 30
0.0
 10
3.073112352436826
 20
-3.533887137554377
 30
0.0
 10
3.078889134657376
 20
-3.495845414766058
 30
0.0
 10
3.075371636284721
 20
-3.464341905381944
 30
0.0
 10
3.048923545285333
 20
-3.513707339899875
 30
0.0
 10
2.964199011978747
 20
-3.461302614429099
 30
0.0
 10
3.000199216776839
 20
-3.423082792765752
 30
0.0
 10
3.023085754165435
 20
-3.422316349734917
 30
0.0
 10
3.010670164231214
 20
-3.463164928795587
 30
0.0
 10
3.03442530237962
 20
-3.464340785656923
 30
0.0
 10
3.061057998800214
 20
-3.463395238672142
 30
0.0
 10
3.064128622201046
 20
-3.426355530118914
 30
0.0
 10
3.089423285590277
 20
-3.423088921440971
 30
0.0
  0
SPLINE
  5
94
330
7F
100
AcDbEntity
  8
Layer 1
100
AcDbSpline
210
0.0
220
0.0
230
1.0
 70
     9
 71
     3
 72
    20
 73
    16
 74
     0
 42
0.0000000001
 43
0.0000000001
 40
0.0
 40
0.0
 40
0.0
 40
0.0
 40
1.0
 40
1.0
 40
1.0
 40
2.0
 40
2.0
 40
2.0
 40
3.0
 40
3.0
 40
3.0
 40
4.0
 40
4.0
 40
4.0
 40
5.0
 40
5.0
 40
5.0
 40
5.0
 10
2.876146104600694
 20
-3.567314995659721
 30
0.0
 10
2.849897153556311
 20
-3.545091230357545
 30
0.0
 10
2.903496453047005
 20
-3.544587628194891
 30
0.0
 10
2.917701712184376
 20
-3.546541714724222
 30
0.0
 10
2.933954553003875
 20
-3.54061991148482
 30
0.0
 10
3.003987453716452
 20
-3.554425609634083
 30
0.0
 10
2.958646930308772
 20
-3.56732620429342
 30
0.0
 10
2.933493177251446
 20
-3.567168830685886
 30
0.0
 10
2.904302927112843
 20
-3.558149156694323
 30
0.0
 10
2.917709828923344
 20
-3.594819432517725
 30
0.0
 10
2.913566779625158
 20
-3.609621202121199
 30
0.0
 10
2.92955151209642
 20
-3.653614856547569
 30
0.0
 10
2.903649800057994
 20
-3.649814610946274
 30
0.0
 10
2.859084313976305
 20
-3.642822750086325
 30
0.0
 10
2.934546193683445
 20
-3.551766769406956
 30
0.0
 10
2.876146104600694
 20
-3.567314995659721
 30
0.0
  0
SPLINE
  5
95
330
7F
100
AcDbEntity
  8
Layer 1
100
AcDbSpline
210
0.0
220
0.0
230
1.0
 70
     9
 71
     3
 72
    23
 73
    19
 74
     0
 42
0.0000000001
 43
0.0000000001
 40
0.0
 40
0.0
 40
0.0
 40
0.0
 40
1.0
 40
1.0
 40
1.0
 40
2.0
 40
2.0
 40
2.0
 40
3.0
 40
3.0
 40
3.0
 40
4.0
 40
4.0
 40
4.0
 40
5.0
 40
5.0
 40
5.0
 40
6.0
 40
6.0
 40
6.0
 40
6.0
 10
2.876146104600694
 20
-3.5263671875
 30
0.0
 10
2.860768763709327
 20
-3.499886340464791
 30
0.0
 10
2.873253620929163
 20
-3.459863410323754
 30
0.0
 10
2.869419164153681
 20
-3.429817343326261
 30
0.0
 10
2.877941782238382
 20
-3.418204317006092
 30
0.0
 10
2.954473576599348
 20
-3.419326869136094
 30
0.0
 10
2.965372420340347
 20
-3.42980857225037
 30
0.0
 10
2.957962219323462
 20
-3.46078321057895
 30
0.0
 10
2.908971148331968
 20
-3.433924271456817
 30
0.0
 10
2.890205778877669
 20
-3.443867958779416
 30
0.0
 10
2.866851948943248
 20
-3.483388402005529
 30
0.0
 10
2.931898842479856
 20
-3.452624597919717
 30
0.0
 10
2.945200998055472
 20
-3.471365519719142
 30
0.0
 10
2.941332679277858
 20
-3.503319802479937
 30
0.0
 10
2.891062508858844
 20
-3.466096277800172
 30
0.0
 10
2.887144899176443
 20
-3.493059210657975
 30
0.0
 10
2.888892609683137
 20
-3.50504661488042
 30
0.0
 10
2.894990128687784
 20
-3.524835676810261
 30
0.0
 10
2.876146104600694
 20
-3.5263671875
 30
0.0
  0
HATCH
  5
96
330
7F
100
AcDbEntity
  8
Layer 1
 62
   250
420
  2301728
440
 33554687
100
AcDbHatch
 10
0.0
 20
0.0
 30
0.0
210
0.0
220
0.0
230
1.0
  2
SOLID
 70
     1
 71
     1
 91
        6
 92
        1
 93
        1
 72
     4
 94
        3
 73
     0
 74
     0
 95
       17
 96
       13
 40
0.0
 40
0.0
 40
0.0
 40
0.0
 40
1.0
 40
1.0
 40
1.0
 40
2.0
 40
2.0
 40
2.0
 40
3.0
 40
3.0
 40
3.0
 40
4.0
 40
4.0
 40
4.0
 40
4.0
 10
3.013644748263888
 20
-3.512315538194444
 10
3.00360680809634
 20
-3.51906451109154
 10
3.018173206505176
 20
-3.534932819040717
 10
3.013639340000672
 20
-3.5465363885509
 10
3.017931449059144
 20
-3.560575777361123
 10
3.002290886447073
 20
-3.588930311355347
 10
3.020517241188586
 20
-3.593289998258885
 10
3.039034570031566
 20
-3.588962581620951
 10
3.023021246910717
 20
-3.560801709492819
 10
3.027402533988177
 20
-3.546536765238986
 10
3.026629631157384
 20
-3.533902218835073
 10
3.03650183159142
 20
-3.484008613363989
 10
3.013644748263888
 20
-3.512315538194444
 97
        0
 97
        1
330
90
 92
        1
 93
        1
 72
     4
 94
        3
 73
     0
 74
     0
 95
       20
 96
       16
 40
0.0
 40
0.0
 40
0.0
 40
0.0
 40
1.0
 40
1.0
 40
1.0
 40
2.0
 40
2.0
 40
2.0
 40
3.0
 40
3.0
 40
3.0
 40
4.0
 40
4.0
 40
4.0
 40
5.0
 40
5.0
 40
5.0
 40
5.0
 10
3.020372178819444
 20
-3.608866373697916
 10
2.997132863629429
 20
-3.611030594202677
 10
2.980154477723367
 20
-3.609298355198259
 10
2.986151006842975
 20
-3.581362195018527
 10
2.985102641205824
 20
-3.567865637773429
 10
2.986259255649984
 20
-3.551001984406449
 10
2.992876392091652
 20
-3.539816595659014
 10
2.999732513369938
 20
-3.521369410166635
 10
2.972351070179342
 20
-3.489492705019036
 10
3.000199787367048
 20
-3.484814930570324
 10
3.048861545271481
 20
-3.484968095733885
 10
3.051079676228356
 20
-3.493923127135038
 10
3.047866786125432
 20
-3.539816384826697
 10
3.042912605476696
 20
-3.567051039282091
 10
3.065234142193415
 20
-3.620198488562019
 10
3.020372178819444
 20
-3.608866373697916
 97
        0
 97
        1
330
91
 92
        1
 93
        1
 72
     4
 94
        3
 73
     0
 74
     0
 95
       11
 96
        7
 40
0.0
 40
0.0
 40
0.0
 40
0.0
 40
1.0
 40
1.0
 40
1.0
 40
2.0
 40
2.0
 40
2.0
 40
2.0
 10
2.951924641927083
 20
-3.471367730034721
 10
2.952279433587566
 20
-3.45421637516895
 10
2.985960793682579
 20
-3.451448119208382
 10
2.986144984466351
 20
-3.471368578836075
 10
2.989112169359562
 20
-3.499434609746483
 10
2.949567871831681
 20
-3.497031471099502
 10
2.951924641927083
 20
-3.471367730034721
 97
        0
 97
        1
330
92
 92
        1
 93
        1
 72
     4
 94
        3
 73
     0
 74
     0
 95
       44
 96
       40
 40
0.0
 40
0.0
 40
0.0
 40
0.0
 40
1.0
 40
1.0
 40
1.0
 40
2.0
 40
2.0
 40
2.0
 40
3.0
 40
3.0
 40
3.0
 40
4.0
 40
4.0
 40
4.0
 40
5.0
 40
5.0
 40
5.0
 40
6.0
 40
6.0
 40
6.0
 40
7.0
 40
7.0
 40
7.0
 40
8.0
 40
8.0
 40
8.0
 40
9.0
 40
9.0
 40
9.0
 40
10.0
 40
10.0
 40
10.0
 40
11.0
 40
11.0
 40
11.0
 40
12.0
 40
12.0
 40
12.0
 40
13.0
 40
13.0
 40
13.0
 40
13.0
 10
3.089423285590277
 20
-3.423088921440971
 10
3.11262562881638
 20
-3.440639011414014
 10
3.0928744064872
 20
-3.473454161223849
 10
3.096150393723569
 20
-3.498866248097556
 10
3.096146214636291
 20
-3.524705386045588
 10
3.096153960815589
 20
-3.555526949572582
 10
3.096150706291167
 20
-3.581366675089068
 10
3.106321412092067
 20
-3.596139613221427
 10
3.100165940440963
 20
-3.606489160172069
 10
3.096143199242116
 20
-3.622314711605933
 10
3.094945590476413
 20
-3.626663933183938
 10
3.09912784636213
 20
-3.647031829606362
 10
3.092787550667139
 20
-3.648897774571196
 10
3.056809866717129
 20
-3.65146338821925
 10
3.015699086697648
 20
-3.648973787993895
 10
2.979424416497648
 20
-3.649815900232359
 10
2.946927973777708
 20
-3.65813683456689
 10
2.945122080820258
 20
-3.626935724118665
 10
2.945202952134372
 20
-3.601531801558634
 10
2.953711496859025
 20
-3.570840503197587
 10
2.98242628231416
 20
-3.599423383942053
 10
2.971626349404989
 20
-3.620484399974985
 10
2.958038151064935
 20
-3.641455335657547
 10
3.040965556194767
 20
-3.62384266679861
 10
3.054895999819134
 20
-3.629041986470004
 10
3.093629526414941
 20
-3.645098044158885
 10
3.069481405548938
 20
-3.588208514999994
 10
3.075376222008874
 20
-3.567315444906512
 10
3.073112352436826
 20
-3.533887137554377
 10
3.078889134657376
 20
-3.495845414766058
 10
3.075371636284721
 20
-3.464341905381944
 10
3.048923545285333
 20
-3.513707339899875
 10
2.964199011978747
 20
-3.461302614429099
 10
3.000199216776839
 20
-3.423082792765752
 10
3.023085754165435
 20
-3.422316349734917
 10
3.010670164231214
 20
-3.463164928795587
 10
3.03442530237962
 20
-3.464340785656923
 10
3.061057998800214
 20
-3.463395238672142
 10
3.064128622201046
 20
-3.426355530118914
 10
3.089423285590277
 20
-3.423088921440971
 97
        0
 97
        1
330
93
 92
        1
 93
        1
 72
     4
 94
        3
 73
     0
 74
     0
 95
       20
 96
       16
 40
0.0
 40
0.0
 40
0.0
 40
0.0
 40
1.0
 40
1.0
 40
1.0
 40
2.0
 40
2.0
 40
2.0
 40
3.0
 40
3.0
 40
3.0
 40
4.0
 40
4.0
 40
4.0
 40
5.0
 40
5.0
 40
5.0
 40
5.0
 10
2.876146104600694
 20
-3.567314995659721
 10
2.849897153556311
 20
-3.545091230357545
 10
2.903496453047005
 20
-3.544587628194891
 10
2.917701712184376
 20
-3.546541714724222
 10
2.933954553003875
 20
-3.54061991148482
 10
3.003987453716452
 20
-3.554425609634083
 10
2.958646930308772
 20
-3.56732620429342
 10
2.933493177251446
 20
-3.567168830685886
 10
2.904302927112843
 20
-3.558149156694323
 10
2.917709828923344
 20
-3.594819432517725
 10
2.913566779625158
 20
-3.609621202121199
 10
2.92955151209642
 20
-3.653614856547569
 10
2.903649800057994
 20
-3.649814610946274
 10
2.859084313976305
 20
-3.642822750086325
 10
2.934546193683445
 20
-3.551766769406956
 10
2.876146104600694
 20
-3.567314995659721
 97
        0
 97
        1
330
94
 92
        1
 93
        1
 72
     4
 94
        3
 73
     0
 74
     0
 95
       23
 96
       19
 40
0.0
 40
0.0
 40
0.0
 40
0.0
 40
1.0
 40
1.0
 40
1.0
 40
2.0
 40
2.0
 40
2.0
 40
3.0
 40
3.0
 40
3.0
 40
4.0
 40
4.0
 40
4.0
 40
5.0
 40
5.0
 40
5.0
 40
6.0
 40
6.0
 40
6.0
 40
6.0
 10
2.876146104600694
 20
-3.5263671875
 10
2.860768763709327
 20
-3.499886340464791
 10
2.873253620929163
 20
-3.459863410323754
 10
2.869419164153681
 20
-3.429817343326261
 10
2.877941782238382
 20
-3.418204317006092
 10
2.954473576599348
 20
-3.419326869136094
 10
2.965372420340347
 20
-3.42980857225037
 10
2.957962219323462
 20
-3.46078321057895
 10
2.908971148331968
 20
-3.433924271456817
 10
2.890205778877669
 20
-3.443867958779416
 10
2.866851948943248
 20
-3.483388402005529
 10
2.931898842479856
 20
-3.452624597919717
 10
2.945200998055472
 20
-3.471365519719142
 10
2.941332679277858
 20
-3.503319802479937
 10
2.891062508858844
 20
-3.466096277800172
 10
2.887144899176443
 20
-3.493059210657975
 10
2.888892609683137
 20
-3.50504661488042
 10
2.894990128687784
 20
-3.524835676810261
 10
2.876146104600694
 20
-3.5263671875
 97
        0
 97
        1
330
95
 75
     2
 76
     1
 98
        1
 10
0.0
 20
0.0
450
        0
451
        0
460
0.0
461
0.0
452
        0
462
0.0
453
        0
470

  0
SPLINE
  5
97
330
7F
100
AcDbEntity
  8
Layer 1
100
AcDbSpline
210
0.0
220
0.0
230
1.0
 70
     9
 71
     3
 72
    17
 73
    13
 74
     0
 42
0.0000000001
 43
0.0000000001
 40
0.0
 40
0.0
 40
0.0
 40
0.0
 40
1.0
 40
1.0
 40
1.0
 40
2.0
 40
2.0
 40
2.0
 40
3.0
 40
3.0
 40
3.0
 40
4.0
 40
4.0
 40
4.0
 40
4.0
 10
3.013644748263888
 20
-3.797037760416666
 30
0.0
 10
3.00360680809634
 20
-3.803786733313763
 30
0.0
 10
3.018173206505176
 20
-3.819655041262939
 30
0.0
 10
3.013639340000672
 20
-3.831258610773122
 30
0.0
 10
3.017931449059144
 20
-3.845297999583344
 30
0.0
 10
3.002290886447073
 20
-3.873652533577569
 30
0.0
 10
3.020517241188586
 20
-3.878012220481107
 30
0.0
 10
3.039034570031566
 20
-3.873684803843174
 30
0.0
 10
3.023021246910717
 20
-3.845523931715042
 30
0.0
 10
3.027402533988177
 20
-3.831258987461207
 30
0.0
 10
3.026629631157384
 20
-3.818624441057295
 30
0.0
 10
3.03650183159142
 20
-3.768730835586211
 30
0.0
 10
3.013644748263888
 20
-3.797037760416666
 30
0.0
  0
SPLINE
  5
98
330
7F
100
AcDbEntity
  8
Layer 1
100
AcDbSpline
210
0.0
220
0.0
230
1.0
 70
     9
 71
     3
 72
    20
 73
    16
 74
     0
 42
0.0000000001
 43
0.0000000001
 40
0.0
 40
0.0
 40
0.0
 40
0.0
 40
1.0
 40
1.0
 40
1.0
 40
2.0
 40
2.0
 40
2.0
 40
3.0
 40
3.0
 40
3.0
 40
4.0
 40
4.0
 40
4.0
 40
5.0
 40
5.0
 40
5.0
 40
5.0
 10
3.020372178819444
 20
-3.893588595920138
 30
0.0
 10
2.997132863629429
 20
-3.895752816424899
 30
0.0
 10
2.980154477723367
 20
-3.894020577420481
 30
0.0
 10
2.986151006842975
 20
-3.866084417240749
 30
0.0
 10
2.985102641205824
 20
-3.852587859995651
 30
0.0
 10
2.986259255649984
 20
-3.835724206628684
 30
0.0
 10
2.992876392091652
 20
-3.824538817881236
 30
0.0
 10
2.999732513369938
 20
-3.806091632388857
 30
0.0
 10
2.972351070179342
 20
-3.774214927241258
 30
0.0
 10
3.000199787367048
 20
-3.769537152792546
 30
0.0
 10
3.048861545271481
 20
-3.769690317956107
 30
0.0
 10
3.051079676228356
 20
-3.77864534935726
 30
0.0
 10
3.047866786125432
 20
-3.82453860704892
 30
0.0
 10
3.042912605476696
 20
-3.851773261504313
 30
0.0
 10
3.065234142193415
 20
-3.904920710784242
 30
0.0
 10
3.020372178819444
 20
-3.893588595920138
 30
0.0
  0
SPLINE
  5
99
330
7F
100
AcDbEntity
  8
Layer 1
100
AcDbSpline
210
0.0
220
0.0
230
1.0
 70
     9
 71
     3
 72
    11
 73
     7
 74
     0
 42
0.0000000001
 43
0.0000000001
 40
0.0
 40
0.0
 40
0.0
 40
0.0
 40
1.0
 40
1.0
 40
1.0
 40
2.0
 40
2.0
 40
2.0
 40
2.0
 10
2.951924641927083
 20
-3.756089952256944
 30
0.0
 10
2.952279433587566
 20
-3.738938597391173
 30
0.0
 10
2.985960793682579
 20
-3.736170341430604
 30
0.0
 10
2.986144984466351
 20
-3.756090801058298
 30
0.0
 10
2.989112169359562
 20
-3.784156831968705
 30
0.0
 10
2.949567871831681
 20
-3.781753693321724
 30
0.0
 10
2.951924641927083
 20
-3.756089952256944
 30
0.0
  0
SPLINE
  5
9A
330
7F
100
AcDbEntity
  8
Layer 1
100
AcDbSpline
210
0.0
220
0.0
230
1.0
 70
     9
 71
     3
 72
    44
 73
    40
 74
     0
 42
0.0000000001
 43
0.0000000001
 40
0.0
 40
0.0
 40
0.0
 40
0.0
 40
1.0
 40
1.0
 40
1.0
 40
2.0
 40
2.0
 40
2.0
 40
3.0
 40
3.0
 40
3.0
 40
4.0
 40
4.0
 40
4.0
 40
5.0
 40
5.0
 40
5.0
 40
6.0
 40
6.0
 40
6.0
 40
7.0
 40
7.0
 40
7.0
 40
8.0
 40
8.0
 40
8.0
 40
9.0
 40
9.0
 40
9.0
 40
10.0
 40
10.0
 40
10.0
 40
11.0
 40
11.0
 40
11.0
 40
12.0
 40
12.0
 40
12.0
 40
13.0
 40
13.0
 40
13.0
 40
13.0
 10
3.089423285590277
 20
-3.707811143663194
 30
0.0
 10
3.11262562881638
 20
-3.725361233636236
 30
0.0
 10
3.0928744064872
 20
-3.758176383446071
 30
0.0
 10
3.096150393723569
 20
-3.783588470319778
 30
0.0
 10
3.096146214636291
 20
-3.80942760826781
 30
0.0
 10
3.096153960815589
 20
-3.840249171794804
 30
0.0
 10
3.096150706291167
 20
-3.86608889731129
 30
0.0
 10
3.106321412092067
 20
-3.880861835443649
 30
0.0
 10
3.100165940440963
 20
-3.891211382394292
 30
0.0
 10
3.096143199242116
 20
-3.907036933828155
 30
0.0
 10
3.094945590476413
 20
-3.911386155406161
 30
0.0
 10
3.09912784636213
 20
-3.931754051828584
 30
0.0
 10
3.092787550667139
 20
-3.933619996793418
 30
0.0
 10
3.056809866717129
 20
-3.936185610441473
 30
0.0
 10
3.015699086697648
 20
-3.933696010216117
 30
0.0
 10
2.979424416497648
 20
-3.934538122454581
 30
0.0
 10
2.946927973777708
 20
-3.942859056789112
 30
0.0
 10
2.945122080820258
 20
-3.911657946340887
 30
0.0
 10
2.945202952134372
 20
-3.886254023780856
 30
0.0
 10
2.953711496859025
 20
-3.855562725419808
 30
0.0
 10
2.98242628231416
 20
-3.884145606164274
 30
0.0
 10
2.971626349404989
 20
-3.905206622197207
 30
0.0
 10
2.958038151064935
 20
-3.926177557879769
 30
0.0
 10
3.040965556194767
 20
-3.908564889020832
 30
0.0
 10
3.054895999819134
 20
-3.913764208692226
 30
0.0
 10
3.093629526414941
 20
-3.929820266381107
 30
0.0
 10
3.069481405548938
 20
-3.872930737222215
 30
0.0
 10
3.075376222008874
 20
-3.852037667128734
 30
0.0
 10
3.073112352436826
 20
-3.818609359776599
 30
0.0
 10
3.078889134657376
 20
-3.78056763698828
 30
0.0
 10
3.075371636284721
 20
-3.749064127604166
 30
0.0
 10
3.048923545285333
 20
-3.798429562122098
 30
0.0
 10
2.964199011978747
 20
-3.746024836651321
 30
0.0
 10
3.000199216776839
 20
-3.707805014987974
 30
0.0
 10
3.023085754165435
 20
-3.70703857195714
 30
0.0
 10
3.010670164231214
 20
-3.747887151017809
 30
0.0
 10
3.03442530237962
 20
-3.749063007879145
 30
0.0
 10
3.061057998800214
 20
-3.748117460894364
 30
0.0
 10
3.064128622201046
 20
-3.711077752341136
 30
0.0
 10
3.089423285590277
 20
-3.707811143663194
 30
0.0
  0
SPLINE
  5
9B
330
7F
100
AcDbEntity
  8
Layer 1
100
AcDbSpline
210
0.0
220
0.0
230
1.0
 70
     9
 71
     3
 72
    20
 73
    16
 74
     0
 42
0.0000000001
 43
0.0000000001
 40
0.0
 40
0.0
 40
0.0
 40
0.0
 40
1.0
 40
1.0
 40
1.0
 40
2.0
 40
2.0
 40
2.0
 40
3.0
 40
3.0
 40
3.0
 40
4.0
 40
4.0
 40
4.0
 40
5.0
 40
5.0
 40
5.0
 40
5.0
 10
2.876146104600694
 20
-3.852037217881944
 30
0.0
 10
2.849897153556311
 20
-3.829813452579767
 30
0.0
 10
2.903496453047005
 20
-3.829309850417113
 30
0.0
 10
2.917701712184376
 20
-3.831263936946445
 30
0.0
 10
2.933954553003875
 20
-3.825342133707042
 30
0.0
 10
3.003987453716452
 20
-3.839147831856305
 30
0.0
 10
2.958646930308772
 20
-3.852048426515643
 30
0.0
 10
2.933493177251446
 20
-3.851891052908108
 30
0.0
 10
2.904302927112843
 20
-3.842871378916545
 30
0.0
 10
2.917709828923344
 20
-3.879541654739947
 30
0.0
 10
2.913566779625158
 20
-3.894343424343421
 30
0.0
 10
2.92955151209642
 20
-3.938337078769791
 30
0.0
 10
2.903649800057994
 20
-3.934536833168496
 30
0.0
 10
2.859084313976305
 20
-3.927544972308547
 30
0.0
 10
2.934546193683445
 20
-3.836488991629178
 30
0.0
 10
2.876146104600694
 20
-3.852037217881944
 30
0.0
  0
SPLINE
  5
9C
330
7F
100
AcDbEntity
  8
Layer 1
100
AcDbSpline
210
0.0
220
0.0
230
1.0
 70
     9
 71
     3
 72
    23
 73
    19
 74
     0
 42
0.0000000001
 43
0.0000000001
 40
0.0
 40
0.0
 40
0.0
 40
0.0
 40
1.0
 40
1.0
 40
1.0
 40
2.0
 40
2.0
 40
2.0
 40
3.0
 40
3.0
 40
3.0
 40
4.0
 40
4.0
 40
4.0
 40
5.0
 40
5.0
 40
5.0
 40
6.0
 40
6.0
 40
6.0
 40
6.0
 10
2.876146104600694
 20
-3.811089409722221
 30
0.0
 10
2.860768763709327
 20
-3.784608562687013
 30
0.0
 10
2.873253620929163
 20
-3.744585632545977
 30
0.0
 10
2.869419164153681
 20
-3.714539565548483
 30
0.0
 10
2.877941782238382
 20
-3.702926539228315
 30
0.0
 10
2.954473576599348
 20
-3.704049091358317
 30
0.0
 10
2.965372420340347
 20
-3.714530794472592
 30
0.0
 10
2.957962219323462
 20
-3.745505432801173
 30
0.0
 10
2.908971148331968
 20
-3.718646493679039
 30
0.0
 10
2.890205778877669
 20
-3.728590181001638
 30
0.0
 10
2.866851948943248
 20
-3.768110624227751
 30
0.0
 10
2.931898842479856
 20
-3.73734682014194
 30
0.0
 10
2.945200998055472
 20
-3.756087741941364
 30
0.0
 10
2.941332679277858
 20
-3.788042024702159
 30
0.0
 10
2.891062508858844
 20
-3.750818500022394
 30
0.0
 10
2.887144899176443
 20
-3.777781432880197
 30
0.0
 10
2.888892609683137
 20
-3.789768837102643
 30
0.0
 10
2.894990128687784
 20
-3.809557899032483
 30
0.0
 10
2.876146104600694
 20
-3.811089409722221
 30
0.0
  0
HATCH
  5
9D
330
7F
100
AcDbEntity
  8
Layer 1
 62
   250
420
  2301728
440
 33554687
100
AcDbHatch
 10
0.0
 20
0.0
 30
0.0
210
0.0
220
0.0
230
1.0
  2
SOLID
 70
     1
 71
     1
 91
        6
 92
        1
 93
        1
 72
     4
 94
        3
 73
     0
 74
     0
 95
       17
 96
       13
 40
0.0
 40
0.0
 40
0.0
 40
0.0
 40
1.0
 40
1.0
 40
1.0
 40
2.0
 40
2.0
 40
2.0
 40
3.0
 40
3.0
 40
3.0
 40
4.0
 40
4.0
 40
4.0
 40
4.0
 10
3.013644748263888
 20
-3.797037760416666
 10
3.00360680809634
 20
-3.803786733313763
 10
3.018173206505176
 20
-3.819655041262939
 10
3.013639340000672
 20
-3.831258610773122
 10
3.017931449059144
 20
-3.845297999583344
 10
3.002290886447073
 20
-3.873652533577569
 10
3.020517241188586
 20
-3.878012220481107
 10
3.039034570031566
 20
-3.873684803843174
 10
3.023021246910717
 20
-3.845523931715042
 10
3.027402533988177
 20
-3.831258987461207
 10
3.026629631157384
 20
-3.818624441057295
 10
3.03650183159142
 20
-3.768730835586211
 10
3.013644748263888
 20
-3.797037760416666
 97
        0
 97
        1
330
97
 92
        1
 93
        1
 72
     4
 94
        3
 73
     0
 74
     0
 95
       20
 96
       16
 40
0.0
 40
0.0
 40
0.0
 40
0.0
 40
1.0
 40
1.0
 40
1.0
 40
2.0
 40
2.0
 40
2.0
 40
3.0
 40
3.0
 40
3.0
 40
4.0
 40
4.0
 40
4.0
 40
5.0
 40
5.0
 40
5.0
 40
5.0
 10
3.020372178819444
 20
-3.893588595920138
 10
2.997132863629429
 20
-3.895752816424899
 10
2.980154477723367
 20
-3.894020577420481
 10
2.986151006842975
 20
-3.866084417240749
 10
2.985102641205824
 20
-3.852587859995651
 10
2.986259255649984
 20
-3.835724206628684
 10
2.992876392091652
 20
-3.824538817881236
 10
2.999732513369938
 20
-3.806091632388857
 10
2.972351070179342
 20
-3.774214927241258
 10
3.000199787367048
 20
-3.769537152792546
 10
3.048861545271481
 20
-3.769690317956107
 10
3.051079676228356
 20
-3.77864534935726
 10
3.047866786125432
 20
-3.82453860704892
 10
3.042912605476696
 20
-3.851773261504313
 10
3.065234142193415
 20
-3.904920710784242
 10
3.020372178819444
 20
-3.893588595920138
 97
        0
 97
        1
330
98
 92
        1
 93
        1
 72
     4
 94
        3
 73
     0
 74
     0
 95
       11
 96
        7
 40
0.0
 40
0.0
 40
0.0
 40
0.0
 40
1.0
 40
1.0
 40
1.0
 40
2.0
 40
2.0
 40
2.0
 40
2.0
 10
2.951924641927083
 20
-3.756089952256944
 10
2.952279433587566
 20
-3.738938597391173
 10
2.985960793682579
 20
-3.736170341430604
 10
2.986144984466351
 20
-3.756090801058298
 10
2.989112169359562
 20
-3.784156831968705
 10
2.949567871831681
 20
-3.781753693321724
 10
2.951924641927083
 20
-3.756089952256944
 97
        0
 97
        1
330
99
 92
        1
 93
        1
 72
     4
 94
        3
 73
     0
 74
     0
 95
       44
 96
       40
 40
0.0
 40
0.0
 40
0.0
 40
0.0
 40
1.0
 40
1.0
 40
1.0
 40
2.0
 40
2.0
 40
2.0
 40
3.0
 40
3.0
 40
3.0
 40
4.0
 40
4.0
 40
4.0
 40
5.0
 40
5.0
 40
5.0
 40
6.0
 40
6.0
 40
6.0
 40
7.0
 40
7.0
 40
7.0
 40
8.0
 40
8.0
 40
8.0
 40
9.0
 40
9.0
 40
9.0
 40
10.0
 40
10.0
 40
10.0
 40
11.0
 40
11.0
 40
11.0
 40
12.0
 40
12.0
 40
12.0
 40
13.0
 40
13.0
 40
13.0
 40
13.0
 10
3.089423285590277
 20
-3.707811143663194
 10
3.11262562881638
 20
-3.725361233636236
 10
3.0928744064872
 20
-3.758176383446071
 10
3.096150393723569
 20
-3.783588470319778
 10
3.096146214636291
 20
-3.80942760826781
 10
3.096153960815589
 20
-3.840249171794804
 10
3.096150706291167
 20
-3.86608889731129
 10
3.106321412092067
 20
-3.880861835443649
 10
3.100165940440963
 20
-3.891211382394292
 10
3.096143199242116
 20
-3.907036933828155
 10
3.094945590476413
 20
-3.911386155406161
 10
3.09912784636213
 20
-3.931754051828584
 10
3.092787550667139
 20
-3.933619996793418
 10
3.056809866717129
 20
-3.936185610441473
 10
3.015699086697648
 20
-3.933696010216117
 10
2.979424416497648
 20
-3.934538122454581
 10
2.946927973777708
 20
-3.942859056789112
 10
2.945122080820258
 20
-3.911657946340887
 10
2.945202952134372
 20
-3.886254023780856
 10
2.953711496859025
 20
-3.855562725419808
 10
2.98242628231416
 20
-3.884145606164274
 10
2.971626349404989
 20
-3.905206622197207
 10
2.958038151064935
 20
-3.926177557879769
 10
3.040965556194767
 20
-3.908564889020832
 10
3.054895999819134
 20
-3.913764208692226
 10
3.093629526414941
 20
-3.929820266381107
 10
3.069481405548938
 20
-3.872930737222215
 10
3.075376222008874
 20
-3.852037667128734
 10
3.073112352436826
 20
-3.818609359776599
 10
3.078889134657376
 20
-3.78056763698828
 10
3.075371636284721
 20
-3.749064127604166
 10
3.048923545285333
 20
-3.798429562122098
 10
2.964199011978747
 20
-3.746024836651321
 10
3.000199216776839
 20
-3.707805014987974
 10
3.023085754165435
 20
-3.70703857195714
 10
3.010670164231214
 20
-3.747887151017809
 10
3.03442530237962
 20
-3.749063007879145
 10
3.061057998800214
 20
-3.748117460894364
 10
3.064128622201046
 20
-3.711077752341136
 10
3.089423285590277
 20
-3.707811143663194
 97
        0
 97
        1
330
9A
 92
        1
 93
        1
 72
     4
 94
        3
 73
     0
 74
     0
 95
       20
 96
       16
 40
0.0
 40
0.0
 40
0.0
 40
0.0
 40
1.0
 40
1.0
 40
1.0
 40
2.0
 40
2.0
 40
2.0
 40
3.0
 40
3.0
 40
3.0
 40
4.0
 40
4.0
 40
4.0
 40
5.0
 40
5.0
 40
5.0
 40
5.0
 10
2.876146104600694
 20
-3.852037217881944
 10
2.849897153556311
 20
-3.829813452579767
 10
2.903496453047005
 20
-3.829309850417113
 10
2.917701712184376
 20
-3.831263936946445
 10
2.933954553003875
 20
-3.825342133707042
 10
3.003987453716452
 20
-3.839147831856305
 10
2.958646930308772
 20
-3.852048426515643
 10
2.933493177251446
 20
-3.851891052908108
 10
2.904302927112843
 20
-3.842871378916545
 10
2.917709828923344
 20
-3.879541654739947
 10
2.913566779625158
 20
-3.894343424343421
 10
2.92955151209642
 20
-3.938337078769791
 10
2.903649800057994
 20
-3.934536833168496
 10
2.859084313976305
 20
-3.927544972308547
 10
2.934546193683445
 20
-3.836488991629178
 10
2.876146104600694
 20
-3.852037217881944
 97
        0
 97
        1
330
9B
 92
        1
 93
        1
 72
     4
 94
        3
 73
     0
 74
     0
 95
       23
 96
       19
 40
0.0
 40
0.0
 40
0.0
 40
0.0
 40
1.0
 40
1.0
 40
1.0
 40
2.0
 40
2.0
 40
2.0
 40
3.0
 40
3.0
 40
3.0
 40
4.0
 40
4.0
 40
4.0
 40
5.0
 40
5.0
 40
5.0
 40
6.0
 40
6.0
 40
6.0
 40
6.0
 10
2.876146104600694
 20
-3.811089409722221
 10
2.860768763709327
 20
-3.784608562687013
 10
2.873253620929163
 20
-3.744585632545977
 10
2.869419164153681
 20
-3.714539565548483
 10
2.877941782238382
 20
-3.702926539228315
 10
2.954473576599348
 20
-3.704049091358317
 10
2.965372420340347
 20
-3.714530794472592
 10
2.957962219323462
 20
-3.745505432801173
 10
2.908971148331968
 20
-3.718646493679039
 10
2.890205778877669
 20
-3.728590181001638
 10
2.866851948943248
 20
-3.768110624227751
 10
2.931898842479856
 20
-3.73734682014194
 10
2.945200998055472
 20
-3.756087741941364
 10
2.941332679277858
 20
-3.788042024702159
 10
2.891062508858844
 20
-3.750818500022394
 10
2.887144899176443
 20
-3.777781432880197
 10
2.888892609683137
 20
-3.789768837102643
 10
2.894990128687784
 20
-3.809557899032483
 10
2.876146104600694
 20
-3.811089409722221
 97
        0
 97
        1
330
9C
 75
     2
 76
     1
 98
        1
 10
0.0
 20
0.0
450
        0
451
        0
460
0.0
461
0.0
452
        0
462
0.0
453
        0
470

  0
SPLINE
  5
9E
330
7F
100
AcDbEntity
  8
Layer 1
100
AcDbSpline
210
0.0
220
0.0
230
1.0
 70
     9
 71
     3
 72
    11
 73
     7
 74
     0
 42
0.0000000001
 43
0.0000000001
 40
0.0
 40
0.0
 40
0.0
 40
0.0
 40
1.0
 40
1.0
 40
1.0
 40
2.0
 40
2.0
 40
2.0
 40
2.0
 10
3.089423285590277
 20
-3.992533365885416
 30
0.0
 10
3.109093316454681
 20
-3.99275470371837
 30
0.0
 10
3.110360708514626
 20
-4.0421379879643
 30
0.0
 10
3.089426550189803
 20
-4.040506148929681
 30
0.0
 10
3.068442821059003
 20
-4.042296262707142
 30
0.0
 10
3.069804268948511
 20
-3.992705276708748
 30
0.0
 10
3.089423285590277
 20
-3.992533365885416
 30
0.0
  0
SPLINE
  5
9F
330
7F
100
AcDbEntity
  8
Layer 1
100
AcDbSpline
210
0.0
220
0.0
230
1.0
 70
     9
 71
     3
 72
    35
 73
    31
 74
     0
 42
0.0000000001
 43
0.0000000001
 40
0.0
 40
0.0
 40
0.0
 40
0.0
 40
1.0
 40
1.0
 40
1.0
 40
2.0
 40
2.0
 40
2.0
 40
3.0
 40
3.0
 40
3.0
 40
4.0
 40
4.0
 40
4.0
 40
5.0
 40
5.0
 40
5.0
 40
6.0
 40
6.0
 40
6.0
 40
7.0
 40
7.0
 40
7.0
 40
8.0
 40
8.0
 40
8.0
 40
9.0
 40
9.0
 40
9.0
 40
10.0
 40
10.0
 40
10.0
 40
10.0
 10
3.075676812065971
 20
-4.116285536024305
 30
0.0
 10
3.112806504675088
 20
-4.124479977758444
 30
0.0
 10
3.101810838289111
 20
-4.170511999541923
 30
0.0
 10
3.103175405796176
 20
-4.198480105174717
 30
0.0
 10
3.106018889891288
 20
-4.222046203654801
 30
0.0
 10
3.05861083011113
 20
-4.226532422868735
 30
0.0
 10
3.048176119643635
 20
-4.212238215710637
 30
0.0
 10
3.090663972346646
 20
-4.190570909618397
 30
0.0
 10
3.082368857485726
 20
-4.205078516394779
 30
0.0
 10
3.082393822774305
 20
-4.150501859271697
 30
0.0
 10
2.998893332440047
 20
-4.111991053393858
 30
0.0
 10
3.041563648796429
 20
-4.141618371389666
 30
0.0
 10
3.027709942088638
 20
-4.184728490265734
 30
0.0
 10
3.036652702060437
 20
-4.222867141847485
 30
0.0
 10
2.991267628424098
 20
-4.222984234086007
 30
0.0
 10
3.000204441194467
 20
-4.184732940075883
 30
0.0
 10
3.006152197602495
 20
-4.167526962923526
 30
0.0
 10
3.006106832712791
 20
-4.160987351555225
 30
0.0
 10
3.000193789322932
 20
-4.143785359026335
 30
0.0
 10
3.006495836245107
 20
-4.132603664591859
 30
0.0
 10
3.008167457648748
 20
-4.115980418930499
 30
0.0
 10
3.006920636333107
 20
-4.102537793141613
 30
0.0
 10
3.010144615327501
 20
-4.084692731425926
 30
0.0
 10
2.994119817102563
 20
-3.952457066526751
 30
0.0
 10
3.027704686097725
 20
-4.006279716448274
 30
0.0
 10
3.027702020847881
 20
-4.029768073871511
 30
0.0
 10
3.027704014234485
 20
-4.058242766407665
 30
0.0
 10
3.027703176717434
 20
-4.0817599983124
 30
0.0
 10
3.019950934345021
 20
-4.124918747572412
 30
0.0
 10
3.03803561124006
 20
-4.129065919556473
 30
0.0
 10
3.075676812065971
 20
-4.116285536024305
 30
0.0
  0
SPLINE
  5
A0
330
7F
100
AcDbEntity
  8
Layer 1
100
AcDbSpline
210
0.0
220
0.0
230
1.0
 70
     9
 71
     3
 72
    11
 73
     7
 74
     0
 42
0.0000000001
 43
0.0000000001
 40
0.0
 40
0.0
 40
0.0
 40
0.0
 40
1.0
 40
1.0
 40
1.0
 40
2.0
 40
2.0
 40
2.0
 40
2.0
 10
2.944898817274305
 20
-4.109259711371527
 30
0.0
 10
2.94637330188737
 20
-4.086593678241456
 30
0.0
 10
2.982798535340672
 20
-4.095142330991822
 30
0.0
 10
2.970715642253859
 20
-4.115371988488795
 30
0.0
 10
2.964029842488356
 20
-4.115910565225552
 30
0.0
 10
2.945537771325651
 20
-4.120121066380369
 30
0.0
 10
2.944898817274305
 20
-4.109259711371527
 30
0.0
  0
SPLINE
  5
A1
330
7F
100
AcDbEntity
  8
Layer 1
100
AcDbSpline
210
0.0
220
0.0
230
1.0
 70
     9
 71
     3
 72
    44
 73
    40
 74
     0
 42
0.0000000001
 43
0.0000000001
 40
0.0
 40
0.0
 40
0.0
 40
0.0
 40
1.0
 40
1.0
 40
1.0
 40
2.0
 40
2.0
 40
2.0
 40
3.0
 40
3.0
 40
3.0
 40
4.0
 40
4.0
 40
4.0
 40
5.0
 40
5.0
 40
5.0
 40
6.0
 40
6.0
 40
6.0
 40
7.0
 40
7.0
 40
7.0
 40
8.0
 40
8.0
 40
8.0
 40
9.0
 40
9.0
 40
9.0
 40
10.0
 40
10.0
 40
10.0
 40
11.0
 40
11.0
 40
11.0
 40
12.0
 40
12.0
 40
12.0
 40
13.0
 40
13.0
 40
13.0
 40
13.0
 10
2.98614501953125
 20
-4.05426025390625
 30
0.0
 10
2.993105786044174
 20
-4.074813146320757
 30
0.0
 10
2.941423730693612
 20
-4.072530129174095
 30
0.0
 10
2.938175504298985
 20
-4.060987853669391
 30
0.0
 10
2.948589016101133
 20
-4.050559736827166
 30
0.0
 10
2.986474052463121
 20
-4.046157639285663
 30
0.0
 10
2.965672403966474
 20
-4.020024337111648
 30
0.0
 10
2.958208238045383
 20
-4.006488417120786
 30
0.0
 10
2.938112609493777
 20
-4.026172102805818
 30
0.0
 10
2.924425290459528
 20
-4.020025142558994
 30
0.0
 10
2.882387459324945
 20
-4.013472507503845
 30
0.0
 10
2.901023368361165
 20
-4.080737872627789
 30
0.0
 10
2.896921270187552
 20
-4.109258090890938
 30
0.0
 10
2.889559690090651
 20
-4.169630900410159
 30
0.0
 10
2.898905239982557
 20
-4.159154437608397
 30
0.0
 10
2.951932707334195
 20
-4.157531245605645
 30
0.0
 10
2.966717720560748
 20
-4.156950802449437
 30
0.0
 10
2.955210143969464
 20
-4.19388711376953
 30
0.0
 10
2.958650543140341
 20
-4.2055037737286
 30
0.0
 10
2.958770211424153
 20
-4.217361201212762
 30
0.0
 10
2.941130469535487
 20
-4.206049592252662
 30
0.0
 10
2.944900494728623
 20
-4.219258183535645
 30
0.0
 10
2.924997252932826
 20
-4.212367149723503
 30
0.0
 10
2.954557559751302
 20
-4.175709657222745
 30
0.0
 10
2.932826691848996
 20
-4.168233925667701
 30
0.0
 10
2.915071945401172
 20
-4.164581549384024
 30
0.0
 10
2.893363268540674
 20
-4.185242326960519
 30
0.0
 10
2.880425854357617
 20
-4.172057828527032
 30
0.0
 10
2.870050872913212
 20
-4.158478514913099
 30
0.0
 10
2.879567662921506
 20
-4.122130445923049
 30
0.0
 10
2.876445348209952
 20
-4.102540416829116
 30
0.0
 10
2.859873910518192
 20
-4.078353445039447
 30
0.0
 10
2.877443310096004
 20
-4.052615107972075
 30
0.0
 10
2.876455992548509
 20
-4.026760038730786
 30
0.0
 10
2.872155309314343
 20
-3.991394387652437
 30
0.0
 10
2.914568651377812
 20
-4.001678635685013
 30
0.0
 10
2.935425967300248
 20
-3.998192534212698
 30
0.0
 10
2.971077408105252
 20
-3.976533733719431
 30
0.0
 10
3.008624221316393
 20
-4.020861063562821
 30
0.0
 10
2.98614501953125
 20
-4.05426025390625
 30
0.0
  0
HATCH
  5
A2
330
7F
100
AcDbEntity
  8
Layer 1
 62
   250
420
  2301728
440
 33554687
100
AcDbHatch
 10
0.0
 20
0.0
 30
0.0
210
0.0
220
0.0
230
1.0
  2
SOLID
 70
     1
 71
     1
 91
        4
 92
        1
 93
        1
 72
     4
 94
        3
 73
     0
 74
     0
 95
       11
 96
        7
 40
0.0
 40
0.0
 40
0.0
 40
0.0
 40
1.0
 40
1.0
 40
1.0
 40
2.0
 40
2.0
 40
2.0
 40
2.0
 10
3.089423285590277
 20
-3.992533365885416
 10
3.109093316454681
 20
-3.99275470371837
 10
3.110360708514626
 20
-4.0421379879643
 10
3.089426550189803
 20
-4.040506148929681
 10
3.068442821059003
 20
-4.042296262707142
 10
3.069804268948511
 20
-3.992705276708748
 10
3.089423285590277
 20
-3.992533365885416
 97
        0
 97
        1
330
9E
 92
        1
 93
        1
 72
     4
 94
        3
 73
     0
 74
     0
 95
       35
 96
       31
 40
0.0
 40
0.0
 40
0.0
 40
0.0
 40
1.0
 40
1.0
 40
1.0
 40
2.0
 40
2.0
 40
2.0
 40
3.0
 40
3.0
 40
3.0
 40
4.0
 40
4.0
 40
4.0
 40
5.0
 40
5.0
 40
5.0
 40
6.0
 40
6.0
 40
6.0
 40
7.0
 40
7.0
 40
7.0
 40
8.0
 40
8.0
 40
8.0
 40
9.0
 40
9.0
 40
9.0
 40
10.0
 40
10.0
 40
10.0
 40
10.0
 10
3.075676812065971
 20
-4.116285536024305
 10
3.112806504675088
 20
-4.124479977758444
 10
3.101810838289111
 20
-4.170511999541923
 10
3.103175405796176
 20
-4.198480105174717
 10
3.106018889891288
 20
-4.222046203654801
 10
3.05861083011113
 20
-4.226532422868735
 10
3.048176119643635
 20
-4.212238215710637
 10
3.090663972346646
 20
-4.190570909618397
 10
3.082368857485726
 20
-4.205078516394779
 10
3.082393822774305
 20
-4.150501859271697
 10
2.998893332440047
 20
-4.111991053393858
 10
3.041563648796429
 20
-4.141618371389666
 10
3.027709942088638
 20
-4.184728490265734
 10
3.036652702060437
 20
-4.222867141847485
 10
2.991267628424098
 20
-4.222984234086007
 10
3.000204441194467
 20
-4.184732940075883
 10
3.006152197602495
 20
-4.167526962923526
 10
3.006106832712791
 20
-4.160987351555225
 10
3.000193789322932
 20
-4.143785359026335
 10
3.006495836245107
 20
-4.132603664591859
 10
3.008167457648748
 20
-4.115980418930499
 10
3.006920636333107
 20
-4.102537793141613
 10
3.010144615327501
 20
-4.084692731425926
 10
2.994119817102563
 20
-3.952457066526751
 10
3.027704686097725
 20
-4.006279716448274
 10
3.027702020847881
 20
-4.029768073871511
 10
3.027704014234485
 20
-4.058242766407665
 10
3.027703176717434
 20
-4.0817599983124
 10
3.019950934345021
 20
-4.124918747572412
 10
3.03803561124006
 20
-4.129065919556473
 10
3.075676812065971
 20
-4.116285536024305
 97
        0
 97
        1
330
9F
 92
        1
 93
        1
 72
     4
 94
        3
 73
     0
 74
     0
 95
       11
 96
        7
 40
0.0
 40
0.0
 40
0.0
 40
0.0
 40
1.0
 40
1.0
 40
1.0
 40
2.0
 40
2.0
 40
2.0
 40
2.0
 10
2.944898817274305
 20
-4.109259711371527
 10
2.94637330188737
 20
-4.086593678241456
 10
2.982798535340672
 20
-4.095142330991822
 10
2.970715642253859
 20
-4.115371988488795
 10
2.964029842488356
 20
-4.115910565225552
 10
2.945537771325651
 20
-4.120121066380369
 10
2.944898817274305
 20
-4.109259711371527
 97
        0
 97
        1
330
A0
 92
        1
 93
        1
 72
     4
 94
        3
 73
     0
 74
     0
 95
       44
 96
       40
 40
0.0
 40
0.0
 40
0.0
 40
0.0
 40
1.0
 40
1.0
 40
1.0
 40
2.0
 40
2.0
 40
2.0
 40
3.0
 40
3.0
 40
3.0
 40
4.0
 40
4.0
 40
4.0
 40
5.0
 40
5.0
 40
5.0
 40
6.0
 40
6.0
 40
6.0
 40
7.0
 40
7.0
 40
7.0
 40
8.0
 40
8.0
 40
8.0
 40
9.0
 40
9.0
 40
9.0
 40
10.0
 40
10.0
 40
10.0
 40
11.0
 40
11.0
 40
11.0
 40
12.0
 40
12.0
 40
12.0
 40
13.0
 40
13.0
 40
13.0
 40
13.0
 10
2.98614501953125
 20
-4.05426025390625
 10
2.993105786044174
 20
-4.074813146320757
 10
2.941423730693612
 20
-4.072530129174095
 10
2.938175504298985
 20
-4.060987853669391
 10
2.948589016101133
 20
-4.050559736827166
 10
2.986474052463121
 20
-4.046157639285663
 10
2.965672403966474
 20
-4.020024337111648
 10
2.958208238045383
 20
-4.006488417120786
 10
2.938112609493777
 20
-4.026172102805818
 10
2.924425290459528
 20
-4.020025142558994
 10
2.882387459324945
 20
-4.013472507503845
 10
2.901023368361165
 20
-4.080737872627789
 10
2.896921270187552
 20
-4.109258090890938
 10
2.889559690090651
 20
-4.169630900410159
 10
2.898905239982557
 20
-4.159154437608397
 10
2.951932707334195
 20
-4.157531245605645
 10
2.966717720560748
 20
-4.156950802449437
 10
2.955210143969464
 20
-4.19388711376953
 10
2.958650543140341
 20
-4.2055037737286
 10
2.958770211424153
 20
-4.217361201212762
 10
2.941130469535487
 20
-4.206049592252662
 10
2.944900494728623
 20
-4.219258183535645
 10
2.924997252932826
 20
-4.212367149723503
 10
2.954557559751302
 20
-4.175709657222745
 10
2.932826691848996
 20
-4.168233925667701
 10
2.915071945401172
 20
-4.164581549384024
 10
2.893363268540674
 20
-4.185242326960519
 10
2.880425854357617
 20
-4.172057828527032
 10
2.870050872913212
 20
-4.158478514913099
 10
2.879567662921506
 20
-4.122130445923049
 10
2.876445348209952
 20
-4.102540416829116
 10
2.859873910518192
 20
-4.078353445039447
 10
2.877443310096004
 20
-4.052615107972075
 10
2.876455992548509
 20
-4.026760038730786
 10
2.872155309314343
 20
-3.991394387652437
 10
2.914568651377812
 20
-4.001678635685013
 10
2.935425967300248
 20
-3.998192534212698
 10
2.971077408105252
 20
-3.976533733719431
 10
3.008624221316393
 20
-4.020861063562821
 10
2.98614501953125
 20
-4.05426025390625
 97
        0
 97
        1
330
A1
 75
     2
 76
     1
 98
        1
 10
0.0
 20
0.0
450
        0
451
        0
460
0.0
461
0.0
452
        0
462
0.0
453
        0
470

  0
SPLINE
  5
A3
330
7F
100
AcDbEntity
  8
Layer 1
100
AcDbSpline
210
0.0
220
0.0
230
1.0
 70
     9
 71
     3
 72
    11
 73
     7
 74
     0
 42
0.0000000001
 43
0.0000000001
 40
0.0
 40
0.0
 40
0.0
 40
0.0
 40
1.0
 40
1.0
 40
1.0
 40
2.0
 40
2.0
 40
2.0
 40
2.0
 10
3.029534233940971
 20
-4.470981174045138
 30
0.0
 10
3.053563533248266
 20
-4.472255562706069
 30
0.0
 10
3.053553895688499
 20
-4.496303430301584
 30
0.0
 10
3.029529952791929
 20
-4.497565178653744
 30
0.0
 10
3.012405504201524
 20
-4.497245969235589
 30
0.0
 10
3.01226239821368
 20
-4.471122369512386
 30
0.0
 10
3.029534233940971
 20
-4.470981174045138
 30
0.0
  0
SPLINE
  5
A4
330
7F
100
AcDbEntity
  8
Layer 1
100
AcDbSpline
210
0.0
220
0.0
230
1.0
 70
     9
 71
     3
 72
    11
 73
     7
 74
     0
 42
0.0000000001
 43
0.0000000001
 40
0.0
 40
0.0
 40
0.0
 40
0.0
 40
1.0
 40
1.0
 40
1.0
 40
2.0
 40
2.0
 40
2.0
 40
2.0
 10
3.049397786458333
 20
-4.337605794270833
 30
0.0
 10
3.04570972182786
 20
-4.352527676928072
 30
0.0
 10
3.016860800102158
 20
-4.356573100696057
 30
0.0
 10
3.016093481938785
 20
-4.33760495242686
 30
0.0
 10
3.016665058001838
 20
-4.318485332664787
 30
0.0
 10
3.045758926503304
 20
-4.322770776592
 30
0.0
 10
3.049397786458333
 20
-4.337605794270833
 30
0.0
  0
SPLINE
  5
A5
330
7F
100
AcDbEntity
  8
Layer 1
100
AcDbSpline
210
0.0
220
0.0
230
1.0
 70
     9
 71
     3
 72
    38
 73
    34
 74
     0
 42
0.0000000001
 43
0.0000000001
 40
0.0
 40
0.0
 40
0.0
 40
0.0
 40
1.0
 40
1.0
 40
1.0
 40
2.0
 40
2.0
 40
2.0
 40
3.0
 40
3.0
 40
3.0
 40
4.0
 40
4.0
 40
4.0
 40
5.0
 40
5.0
 40
5.0
 40
6.0
 40
6.0
 40
6.0
 40
7.0
 40
7.0
 40
7.0
 40
8.0
 40
8.0
 40
8.0
 40
9.0
 40
9.0
 40
9.0
 40
10.0
 40
10.0
 40
10.0
 40
11.0
 40
11.0
 40
11.0
 40
11.0
 10
3.08270263671875
 20
-4.277255588107638
 30
0.0
 10
3.11098590773156
 20
-4.280714876704867
 30
0.0
 10
3.090086768229437
 20
-4.390712444027245
 30
0.0
 10
3.096159438293208
 20
-4.417505010458866
 30
0.0
 10
3.10036074917438
 20
-4.446270588253026
 30
0.0
 10
3.08501662673623
 20
-4.471315921783861
 30
0.0
 10
3.096150216781362
 20
-4.497564110315338
 30
0.0
 10
3.048565085217963
 20
-4.527118524026781
 30
0.0
 10
3.091141414628446
 20
-4.465567858069359
 30
0.0
 10
3.069572009096696
 20
-4.450509541094889
 30
0.0
 10
3.061920411890873
 20
-4.444585548600444
 30
0.0
 10
3.058850037163854
 20
-4.459704030824064
 30
0.0
 10
3.049397398589323
 20
-4.457531035256023
 30
0.0
 10
3.036133500809834
 20
-4.453713531811065
 30
0.0
 10
3.007190544387122
 20
-4.444405500459916
 30
0.0
 10
3.029534609627653
 20
-4.430950641741067
 30
0.0
 10
3.049412980460538
 20
-4.428839338706072
 30
0.0
 10
3.086318714984447
 20
-4.443198986392732
 30
0.0
 10
3.069562767317721
 20
-4.410480623124865
 30
0.0
 10
3.071421115632953
 20
-4.398897934183347
 30
0.0
 10
3.080370581785953
 20
-4.393891342807553
 30
0.0
 10
3.065283130082851
 20
-4.387872716140918
 30
0.0
 10
3.047816918511393
 20
-4.389144317870469
 30
0.0
 10
2.99373092388368
 20
-4.404019592193675
 30
0.0
 10
3.003410455775477
 20
-4.371823070056532
 30
0.0
 10
3.12735122766378
 20
-4.37176475601009
 30
0.0
 10
3.046924952236597
 20
-4.383581003618006
 30
0.0
 10
3.077801298791238
 20
-4.308141363953874
 30
0.0
 10
3.075189766400777
 20
-4.294722736332245
 30
0.0
 10
3.058752567062242
 20
-4.304675200820775
 30
0.0
 10
3.049398599182154
 20
-4.303839753306331
 30
0.0
 10
3.023633594533445
 20
-4.284887464455437
 30
0.0
 10
3.067651602269506
 20
-4.280371694207549
 30
0.0
 10
3.08270263671875
 20
-4.277255588107638
 30
0.0
  0
SPLINE
  5
A6
330
7F
100
AcDbEntity
  8
Layer 1
100
AcDbSpline
210
0.0
220
0.0
230
1.0
 70
     9
 71
     3
 72
    47
 73
    43
 74
     0
 42
0.0000000001
 43
0.0000000001
 40
0.0
 40
0.0
 40
0.0
 40
0.0
 40
1.0
 40
1.0
 40
1.0
 40
2.0
 40
2.0
 40
2.0
 40
3.0
 40
3.0
 40
3.0
 40
4.0
 40
4.0
 40
4.0
 40
5.0
 40
5.0
 40
5.0
 40
6.0
 40
6.0
 40
6.0
 40
7.0
 40
7.0
 40
7.0
 40
8.0
 40
8.0
 40
8.0
 40
9.0
 40
9.0
 40
9.0
 40
10.0
 40
10.0
 40
10.0
 40
11.0
 40
11.0
 40
11.0
 40
12.0
 40
12.0
 40
12.0
 40
13.0
 40
13.0
 40
13.0
 40
14.0
 40
14.0
 40
14.0
 40
14.0
 10
2.942450629340277
 20
-4.283983018663194
 30
0.0
 10
3.03077462596146
 20
-4.267256975457345
 30
0.0
 10
2.970742339355777
 20
-4.375577895611058
 30
0.0
 10
2.968565991349148
 20
-4.31163612044016
 30
0.0
 10
2.958426043759029
 20
-4.301979304150045
 30
0.0
 10
2.932695485382307
 20
-4.30346840114737
 30
0.0
 10
2.915871174837181
 20
-4.303842563767741
 30
0.0
 10
2.89352428307302
 20
-4.31673221712141
 30
0.0
 10
2.89634798774816
 20
-4.345463073297941
 30
0.0
 10
2.909449198619957
 20
-4.364033856020228
 30
0.0
 10
2.931733428652996
 20
-4.364251421359995
 30
0.0
 10
2.959894825687431
 20
-4.379574426205067
 30
0.0
 10
2.975761541077215
 20
-4.390911568503851
 30
0.0
 10
2.975747341239209
 20
-4.408685019507212
 30
0.0
 10
2.9757613456767
 20
-4.433048642553886
 30
0.0
 10
2.975755461784476
 20
-4.450812467709662
 30
0.0
 10
2.982080702066165
 20
-4.462269506714543
 30
0.0
 10
2.989868137754039
 20
-4.491854966542884
 30
0.0
 10
2.975760352165858
 20
-4.497568148138484
 30
0.0
 10
2.956517044564179
 20
-4.514021943756612
 30
0.0
 10
2.909585819300369
 20
-4.499141333136915
 30
0.0
 10
2.882835294131761
 20
-4.503989945491816
 30
0.0
 10
2.868316632760398
 20
-4.492534176038412
 30
0.0
 10
2.865862712091332
 20
-4.45359979176035
 30
0.0
 10
2.891890791057208
 20
-4.46807549589299
 30
0.0
 10
2.899922846557437
 20
-4.478408378623321
 30
0.0
 10
2.891044426109058
 20
-4.487274178602003
 30
0.0
 10
2.909453672077233
 20
-4.484113794289378
 30
0.0
 10
2.916161776339297
 20
-4.454561859676661
 30
0.0
 10
2.892590703221331
 20
-4.424930381594423
 30
0.0
 10
2.915880905985128
 20
-4.397339106272625
 30
0.0
 10
2.942593682050048
 20
-4.405609065803635
 30
0.0
 10
2.925712465348775
 20
-4.455006747537241
 30
0.0
 10
2.926567992952047
 20
-4.476173410182304
 30
0.0
 10
2.935477971594713
 20
-4.503401165475666
 30
0.0
 10
2.971543527360596
 20
-4.478110571790542
 30
0.0
 10
2.955892785407602
 20
-4.457535914170484
 30
0.0
 10
2.950972478585703
 20
-4.436292892212779
 30
0.0
 10
2.970949419655501
 20
-4.388268519752411
 30
0.0
 10
2.936039425711252
 20
-4.397341221947309
 30
0.0
 10
2.861259091350853
 20
-4.378224928378257
 30
0.0
 10
2.847563708868063
 20
-4.274886842830343
 30
0.0
 10
2.942450629340277
 20
-4.283983018663194
 30
0.0
  0
HATCH
  5
A7
330
7F
100
AcDbEntity
  8
Layer 1
 62
   250
420
  2301728
440
 33554687
100
AcDbHatch
 10
0.0
 20
0.0
 30
0.0
210
0.0
220
0.0
230
1.0
  2
SOLID
 70
     1
 71
     1
 91
        4
 92
        1
 93
        1
 72
     4
 94
        3
 73
     0
 74
     0
 95
       11
 96
        7
 40
0.0
 40
0.0
 40
0.0
 40
0.0
 40
1.0
 40
1.0
 40
1.0
 40
2.0
 40
2.0
 40
2.0
 40
2.0
 10
3.029534233940971
 20
-4.470981174045138
 10
3.053563533248266
 20
-4.472255562706069
 10
3.053553895688499
 20
-4.496303430301584
 10
3.029529952791929
 20
-4.497565178653744
 10
3.012405504201524
 20
-4.497245969235589
 10
3.01226239821368
 20
-4.471122369512386
 10
3.029534233940971
 20
-4.470981174045138
 97
        0
 97
        1
330
A3
 92
        1
 93
        1
 72
     4
 94
        3
 73
     0
 74
     0
 95
       11
 96
        7
 40
0.0
 40
0.0
 40
0.0
 40
0.0
 40
1.0
 40
1.0
 40
1.0
 40
2.0
 40
2.0
 40
2.0
 40
2.0
 10
3.049397786458333
 20
-4.337605794270833
 10
3.04570972182786
 20
-4.352527676928072
 10
3.016860800102158
 20
-4.356573100696057
 10
3.016093481938785
 20
-4.33760495242686
 10
3.016665058001838
 20
-4.318485332664787
 10
3.045758926503304
 20
-4.322770776592
 10
3.049397786458333
 20
-4.337605794270833
 97
        0
 97
        1
330
A4
 92
        1
 93
        1
 72
     4
 94
        3
 73
     0
 74
     0
 95
       38
 96
       34
 40
0.0
 40
0.0
 40
0.0
 40
0.0
 40
1.0
 40
1.0
 40
1.0
 40
2.0
 40
2.0
 40
2.0
 40
3.0
 40
3.0
 40
3.0
 40
4.0
 40
4.0
 40
4.0
 40
5.0
 40
5.0
 40
5.0
 40
6.0
 40
6.0
 40
6.0
 40
7.0
 40
7.0
 40
7.0
 40
8.0
 40
8.0
 40
8.0
 40
9.0
 40
9.0
 40
9.0
 40
10.0
 40
10.0
 40
10.0
 40
11.0
 40
11.0
 40
11.0
 40
11.0
 10
3.08270263671875
 20
-4.277255588107638
 10
3.11098590773156
 20
-4.280714876704867
 10
3.090086768229437
 20
-4.390712444027245
 10
3.096159438293208
 20
-4.417505010458866
 10
3.10036074917438
 20
-4.446270588253026
 10
3.08501662673623
 20
-4.471315921783861
 10
3.096150216781362
 20
-4.497564110315338
 10
3.048565085217963
 20
-4.527118524026781
 10
3.091141414628446
 20
-4.465567858069359
 10
3.069572009096696
 20
-4.450509541094889
 10
3.061920411890873
 20
-4.444585548600444
 10
3.058850037163854
 20
-4.459704030824064
 10
3.049397398589323
 20
-4.457531035256023
 10
3.036133500809834
 20
-4.453713531811065
 10
3.007190544387122
 20
-4.444405500459916
 10
3.029534609627653
 20
-4.430950641741067
 10
3.049412980460538
 20
-4.428839338706072
 10
3.086318714984447
 20
-4.443198986392732
 10
3.069562767317721
 20
-4.410480623124865
 10
3.071421115632953
 20
-4.398897934183347
 10
3.080370581785953
 20
-4.393891342807553
 10
3.065283130082851
 20
-4.387872716140918
 10
3.047816918511393
 20
-4.389144317870469
 10
2.99373092388368
 20
-4.404019592193675
 10
3.003410455775477
 20
-4.371823070056532
 10
3.12735122766378
 20
-4.37176475601009
 10
3.046924952236597
 20
-4.383581003618006
 10
3.077801298791238
 20
-4.308141363953874
 10
3.075189766400777
 20
-4.294722736332245
 10
3.058752567062242
 20
-4.304675200820775
 10
3.049398599182154
 20
-4.303839753306331
 10
3.023633594533445
 20
-4.284887464455437
 10
3.067651602269506
 20
-4.280371694207549
 10
3.08270263671875
 20
-4.277255588107638
 97
        0
 97
        1
330
A5
 92
        1
 93
        1
 72
     4
 94
        3
 73
     0
 74
     0
 95
       47
 96
       43
 40
0.0
 40
0.0
 40
0.0
 40
0.0
 40
1.0
 40
1.0
 40
1.0
 40
2.0
 40
2.0
 40
2.0
 40
3.0
 40
3.0
 40
3.0
 40
4.0
 40
4.0
 40
4.0
 40
5.0
 40
5.0
 40
5.0
 40
6.0
 40
6.0
 40
6.0
 40
7.0
 40
7.0
 40
7.0
 40
8.0
 40
8.0
 40
8.0
 40
9.0
 40
9.0
 40
9.0
 40
10.0
 40
10.0
 40
10.0
 40
11.0
 40
11.0
 40
11.0
 40
12.0
 40
12.0
 40
12.0
 40
13.0
 40
13.0
 40
13.0
 40
14.0
 40
14.0
 40
14.0
 40
14.0
 10
2.942450629340277
 20
-4.283983018663194
 10
3.03077462596146
 20
-4.267256975457345
 10
2.970742339355777
 20
-4.375577895611058
 10
2.968565991349148
 20
-4.31163612044016
 10
2.958426043759029
 20
-4.301979304150045
 10
2.932695485382307
 20
-4.30346840114737
 10
2.915871174837181
 20
-4.303842563767741
 10
2.89352428307302
 20
-4.31673221712141
 10
2.89634798774816
 20
-4.345463073297941
 10
2.909449198619957
 20
-4.364033856020228
 10
2.931733428652996
 20
-4.364251421359995
 10
2.959894825687431
 20
-4.379574426205067
 10
2.975761541077215
 20
-4.390911568503851
 10
2.975747341239209
 20
-4.408685019507212
 10
2.9757613456767
 20
-4.433048642553886
 10
2.975755461784476
 20
-4.450812467709662
 10
2.982080702066165
 20
-4.462269506714543
 10
2.989868137754039
 20
-4.491854966542884
 10
2.975760352165858
 20
-4.497568148138484
 10
2.956517044564179
 20
-4.514021943756612
 10
2.909585819300369
 20
-4.499141333136915
 10
2.882835294131761
 20
-4.503989945491816
 10
2.868316632760398
 20
-4.492534176038412
 10
2.865862712091332
 20
-4.45359979176035
 10
2.891890791057208
 20
-4.46807549589299
 10
2.899922846557437
 20
-4.478408378623321
 10
2.891044426109058
 20
-4.487274178602003
 10
2.909453672077233
 20
-4.484113794289378
 10
2.916161776339297
 20
-4.454561859676661
 10
2.892590703221331
 20
-4.424930381594423
 10
2.915880905985128
 20
-4.397339106272625
 10
2.942593682050048
 20
-4.405609065803635
 10
2.925712465348775
 20
-4.455006747537241
 10
2.926567992952047
 20
-4.476173410182304
 10
2.935477971594713
 20
-4.503401165475666
 10
2.971543527360596
 20
-4.478110571790542
 10
2.955892785407602
 20
-4.457535914170484
 10
2.950972478585703
 20
-4.436292892212779
 10
2.970949419655501
 20
-4.388268519752411
 10
2.936039425711252
 20
-4.397341221947309
 10
2.861259091350853
 20
-4.378224928378257
 10
2.847563708868063
 20
-4.274886842830343
 10
2.942450629340277
 20
-4.283983018663194
 97
        0
 97
        1
330
A6
 75
     2
 76
     1
 98
        1
 10
0.0
 20
0.0
450
        0
451
        0
460
0.0
461
0.0
452
        0
462
0.0
453
        0
470

  0
SPLINE
  5
A8
330
7F
100
AcDbEntity
  8
Layer 1
100
AcDbSpline
210
0.0
220
0.0
230
1.0
 70
     9
 71
     3
 72
    17
 73
    13
 74
     0
 42
0.0000000001
 43
0.0000000001
 40
0.0
 40
0.0
 40
0.0
 40
0.0
 40
1.0
 40
1.0
 40
1.0
 40
2.0
 40
2.0
 40
2.0
 40
3.0
 40
3.0
 40
3.0
 40
4.0
 40
4.0
 40
4.0
 40
4.0
 10
3.013644748263888
 20
-4.651204427083333
 30
0.0
 10
3.00360680809634
 20
-4.657953399980429
 30
0.0
 10
3.018173206505176
 20
-4.673821707929605
 30
0.0
 10
3.013639340000672
 20
-4.685425277439788
 30
0.0
 10
3.017931449059144
 20
-4.699464666250011
 30
0.0
 10
3.002290886447073
 20
-4.727819200244235
 30
0.0
 10
3.020517241188586
 20
-4.732178887147774
 30
0.0
 10
3.039034570031566
 20
-4.727851470509841
 30
0.0
 10
3.023021246910717
 20
-4.699690598381708
 30
0.0
 10
3.027402533988177
 20
-4.685425654127874
 30
0.0
 10
3.026629631157384
 20
-4.672791107723961
 30
0.0
 10
3.03650183159142
 20
-4.622897502252877
 30
0.0
 10
3.013644748263888
 20
-4.651204427083333
 30
0.0
  0
SPLINE
  5
A9
330
7F
100
AcDbEntity
  8
Layer 1
100
AcDbSpline
210
0.0
220
0.0
230
1.0
 70
     9
 71
     3
 72
    20
 73
    16
 74
     0
 42
0.0000000001
 43
0.0000000001
 40
0.0
 40
0.0
 40
0.0
 40
0.0
 40
1.0
 40
1.0
 40
1.0
 40
2.0
 40
2.0
 40
2.0
 40
3.0
 40
3.0
 40
3.0
 40
4.0
 40
4.0
 40
4.0
 40
5.0
 40
5.0
 40
5.0
 40
5.0
 10
3.020372178819444
 20
-4.747755262586805
 30
0.0
 10
2.997132863629429
 20
-4.749919483091566
 30
0.0
 10
2.980154477723367
 20
-4.748187244087148
 30
0.0
 10
2.986151006842975
 20
-4.720251083907416
 30
0.0
 10
2.985102641205824
 20
-4.706754526662317
 30
0.0
 10
2.986259255649984
 20
-4.68989087329535
 30
0.0
 10
2.992876392091652
 20
-4.678705484547903
 30
0.0
 10
2.999732513369938
 20
-4.660258299055524
 30
0.0
 10
2.972351070179342
 20
-4.628381593907925
 30
0.0
 10
3.000199787367048
 20
-4.623703819459213
 30
0.0
 10
3.048861545271481
 20
-4.623856984622774
 30
0.0
 10
3.051079676228356
 20
-4.632812016023927
 30
0.0
 10
3.047866786125432
 20
-4.678705273715586
 30
0.0
 10
3.042912605476696
 20
-4.705939928170979
 30
0.0
 10
3.065234142193415
 20
-4.759087377450908
 30
0.0
 10
3.020372178819444
 20
-4.747755262586805
 30
0.0
  0
SPLINE
  5
AA
330
7F
100
AcDbEntity
  8
Layer 1
100
AcDbSpline
210
0.0
220
0.0
230
1.0
 70
     9
 71
     3
 72
    11
 73
     7
 74
     0
 42
0.0000000001
 43
0.0000000001
 40
0.0
 40
0.0
 40
0.0
 40
0.0
 40
1.0
 40
1.0
 40
1.0
 40
2.0
 40
2.0
 40
2.0
 40
2.0
 10
2.951924641927083
 20
-4.61025661892361
 30
0.0
 10
2.952279433587566
 20
-4.59310526405784
 30
0.0
 10
2.985960793682579
 20
-4.590337008097271
 30
0.0
 10
2.986144984466351
 20
-4.610257467724964
 30
0.0
 10
2.989112169359562
 20
-4.638323498635372
 30
0.0
 10
2.949567871831681
 20
-4.63592035998839
 30
0.0
 10
2.951924641927083
 20
-4.61025661892361
 30
0.0
  0
SPLINE
  5
AB
330
7F
100
AcDbEntity
  8
Layer 1
100
AcDbSpline
210
0.0
220
0.0
230
1.0
 70
     9
 71
     3
 72
    44
 73
    40
 74
     0
 42
0.0000000001
 43
0.0000000001
 40
0.0
 40
0.0
 40
0.0
 40
0.0
 40
1.0
 40
1.0
 40
1.0
 40
2.0
 40
2.0
 40
2.0
 40
3.0
 40
3.0
 40
3.0
 40
4.0
 40
4.0
 40
4.0
 40
5.0
 40
5.0
 40
5.0
 40
6.0
 40
6.0
 40
6.0
 40
7.0
 40
7.0
 40
7.0
 40
8.0
 40
8.0
 40
8.0
 40
9.0
 40
9.0
 40
9.0
 40
10.0
 40
10.0
 40
10.0
 40
11.0
 40
11.0
 40
11.0
 40
12.0
 40
12.0
 40
12.0
 40
13.0
 40
13.0
 40
13.0
 40
13.0
 10
3.089423285590277
 20
-4.56197781032986
 30
0.0
 10
3.11262562881638
 20
-4.579527900302903
 30
0.0
 10
3.0928744064872
 20
-4.612343050112738
 30
0.0
 10
3.096150393723569
 20
-4.637755136986444
 30
0.0
 10
3.096146214636291
 20
-4.663594274934476
 30
0.0
 10
3.096153960815589
 20
-4.694415838461471
 30
0.0
 10
3.096150706291167
 20
-4.720255563977957
 30
0.0
 10
3.106321412092067
 20
-4.735028502110316
 30
0.0
 10
3.100165940440963
 20
-4.745378049060958
 30
0.0
 10
3.096143199242116
 20
-4.761203600494821
 30
0.0
 10
3.094945590476413
 20
-4.765552822072828
 30
0.0
 10
3.09912784636213
 20
-4.78592071849525
 30
0.0
 10
3.092787550667139
 20
-4.787786663460084
 30
0.0
 10
3.056809866717129
 20
-4.790352277108139
 30
0.0
 10
3.015699086697648
 20
-4.787862676882784
 30
0.0
 10
2.979424416497648
 20
-4.788704789121248
 30
0.0
 10
2.946927973777708
 20
-4.797025723455779
 30
0.0
 10
2.945122080820258
 20
-4.765824613007553
 30
0.0
 10
2.945202952134372
 20
-4.740420690447522
 30
0.0
 10
2.953711496859025
 20
-4.709729392086475
 30
0.0
 10
2.98242628231416
 20
-4.738312272830941
 30
0.0
 10
2.971626349404989
 20
-4.759373288863874
 30
0.0
 10
2.958038151064935
 20
-4.780344224546436
 30
0.0
 10
3.040965556194767
 20
-4.762731555687499
 30
0.0
 10
3.054895999819134
 20
-4.767930875358893
 30
0.0
 10
3.093629526414941
 20
-4.783986933047773
 30
0.0
 10
3.069481405548938
 20
-4.727097403888882
 30
0.0
 10
3.075376222008874
 20
-4.7062043337954
 30
0.0
 10
3.073112352436826
 20
-4.672776026443266
 30
0.0
 10
3.078889134657376
 20
-4.634734303654946
 30
0.0
 10
3.075371636284721
 20
-4.603230794270833
 30
0.0
 10
3.048923545285333
 20
-4.652596228788764
 30
0.0
 10
2.964199011978747
 20
-4.600191503317987
 30
0.0
 10
3.000199216776839
 20
-4.56197168165464
 30
0.0
 10
3.023085754165435
 20
-4.561205238623807
 30
0.0
 10
3.010670164231214
 20
-4.602053817684476
 30
0.0
 10
3.03442530237962
 20
-4.603229674545811
 30
0.0
 10
3.061057998800214
 20
-4.602284127561031
 30
0.0
 10
3.064128622201046
 20
-4.565244419007803
 30
0.0
 10
3.089423285590277
 20
-4.56197781032986
 30
0.0
  0
SPLINE
  5
AC
330
7F
100
AcDbEntity
  8
Layer 1
100
AcDbSpline
210
0.0
220
0.0
230
1.0
 70
     9
 71
     3
 72
    20
 73
    16
 74
     0
 42
0.0000000001
 43
0.0000000001
 40
0.0
 40
0.0
 40
0.0
 40
0.0
 40
1.0
 40
1.0
 40
1.0
 40
2.0
 40
2.0
 40
2.0
 40
3.0
 40
3.0
 40
3.0
 40
4.0
 40
4.0
 40
4.0
 40
5.0
 40
5.0
 40
5.0
 40
5.0
 10
2.876146104600694
 20
-4.70620388454861
 30
0.0
 10
2.849897153556311
 20
-4.683980119246434
 30
0.0
 10
2.903496453047005
 20
-4.683476517083779
 30
0.0
 10
2.917701712184376
 20
-4.685430603613111
 30
0.0
 10
2.933954553003875
 20
-4.679508800373708
 30
0.0
 10
3.003987453716452
 20
-4.693314498522972
 30
0.0
 10
2.958646930308772
 20
-4.706215093182309
 30
0.0
 10
2.933493177251446
 20
-4.706057719574775
 30
0.0
 10
2.904302927112843
 20
-4.697038045583212
 30
0.0
 10
2.917709828923344
 20
-4.733708321406614
 30
0.0
 10
2.913566779625158
 20
-4.748510091010087
 30
0.0
 10
2.92955151209642
 20
-4.792503745436457
 30
0.0
 10
2.903649800057994
 20
-4.788703499835163
 30
0.0
 10
2.859084313976305
 20
-4.781711638975214
 30
0.0
 10
2.934546193683445
 20
-4.690655658295844
 30
0.0
 10
2.876146104600694
 20
-4.70620388454861
 30
0.0
  0
SPLINE
  5
AD
330
7F
100
AcDbEntity
  8
Layer 1
100
AcDbSpline
210
0.0
220
0.0
230
1.0
 70
     9
 71
     3
 72
    23
 73
    19
 74
     0
 42
0.0000000001
 43
0.0000000001
 40
0.0
 40
0.0
 40
0.0
 40
0.0
 40
1.0
 40
1.0
 40
1.0
 40
2.0
 40
2.0
 40
2.0
 40
3.0
 40
3.0
 40
3.0
 40
4.0
 40
4.0
 40
4.0
 40
5.0
 40
5.0
 40
5.0
 40
6.0
 40
6.0
 40
6.0
 40
6.0
 10
2.876146104600694
 20
-4.665256076388888
 30
0.0
 10
2.860768763709327
 20
-4.638775229353679
 30
0.0
 10
2.873253620929163
 20
-4.598752299212643
 30
0.0
 10
2.869419164153681
 20
-4.568706232215149
 30
0.0
 10
2.877941782238382
 20
-4.557093205894981
 30
0.0
 10
2.954473576599348
 20
-4.558215758024983
 30
0.0
 10
2.965372420340347
 20
-4.568697461139259
 30
0.0
 10
2.957962219323462
 20
-4.599672099467839
 30
0.0
 10
2.908971148331968
 20
-4.572813160345705
 30
0.0
 10
2.890205778877669
 20
-4.582756847668305
 30
0.0
 10
2.866851948943248
 20
-4.622277290894417
 30
0.0
 10
2.931898842479856
 20
-4.591513486808606
 30
0.0
 10
2.945200998055472
 20
-4.610254408608031
 30
0.0
 10
2.941332679277858
 20
-4.642208691368826
 30
0.0
 10
2.891062508858844
 20
-4.604985166689061
 30
0.0
 10
2.887144899176443
 20
-4.631948099546863
 30
0.0
 10
2.888892609683137
 20
-4.643935503769309
 30
0.0
 10
2.894990128687784
 20
-4.663724565699149
 30
0.0
 10
2.876146104600694
 20
-4.665256076388888
 30
0.0
  0
HATCH
  5
AE
330
7F
100
AcDbEntity
  8
Layer 1
 62
   250
420
  2301728
440
 33554687
100
AcDbHatch
 10
0.0
 20
0.0
 30
0.0
210
0.0
220
0.0
230
1.0
  2
SOLID
 70
     1
 71
     1
 91
        6
 92
        1
 93
        1
 72
     4
 94
        3
 73
     0
 74
     0
 95
       17
 96
       13
 40
0.0
 40
0.0
 40
0.0
 40
0.0
 40
1.0
 40
1.0
 40
1.0
 40
2.0
 40
2.0
 40
2.0
 40
3.0
 40
3.0
 40
3.0
 40
4.0
 40
4.0
 40
4.0
 40
4.0
 10
3.013644748263888
 20
-4.651204427083333
 10
3.00360680809634
 20
-4.657953399980429
 10
3.018173206505176
 20
-4.673821707929605
 10
3.013639340000672
 20
-4.685425277439788
 10
3.017931449059144
 20
-4.699464666250011
 10
3.002290886447073
 20
-4.727819200244235
 10
3.020517241188586
 20
-4.732178887147774
 10
3.039034570031566
 20
-4.727851470509841
 10
3.023021246910717
 20
-4.699690598381708
 10
3.027402533988177
 20
-4.685425654127874
 10
3.026629631157384
 20
-4.672791107723961
 10
3.03650183159142
 20
-4.622897502252877
 10
3.013644748263888
 20
-4.651204427083333
 97
        0
 97
        1
330
A8
 92
        1
 93
        1
 72
     4
 94
        3
 73
     0
 74
     0
 95
       20
 96
       16
 40
0.0
 40
0.0
 40
0.0
 40
0.0
 40
1.0
 40
1.0
 40
1.0
 40
2.0
 40
2.0
 40
2.0
 40
3.0
 40
3.0
 40
3.0
 40
4.0
 40
4.0
 40
4.0
 40
5.0
 40
5.0
 40
5.0
 40
5.0
 10
3.020372178819444
 20
-4.747755262586805
 10
2.997132863629429
 20
-4.749919483091566
 10
2.980154477723367
 20
-4.748187244087148
 10
2.986151006842975
 20
-4.720251083907416
 10
2.985102641205824
 20
-4.706754526662317
 10
2.986259255649984
 20
-4.68989087329535
 10
2.992876392091652
 20
-4.678705484547903
 10
2.999732513369938
 20
-4.660258299055524
 10
2.972351070179342
 20
-4.628381593907925
 10
3.000199787367048
 20
-4.623703819459213
 10
3.048861545271481
 20
-4.623856984622774
 10
3.051079676228356
 20
-4.632812016023927
 10
3.047866786125432
 20
-4.678705273715586
 10
3.042912605476696
 20
-4.705939928170979
 10
3.065234142193415
 20
-4.759087377450908
 10
3.020372178819444
 20
-4.747755262586805
 97
        0
 97
        1
330
A9
 92
        1
 93
        1
 72
     4
 94
        3
 73
     0
 74
     0
 95
       11
 96
        7
 40
0.0
 40
0.0
 40
0.0
 40
0.0
 40
1.0
 40
1.0
 40
1.0
 40
2.0
 40
2.0
 40
2.0
 40
2.0
 10
2.951924641927083
 20
-4.61025661892361
 10
2.952279433587566
 20
-4.59310526405784
 10
2.985960793682579
 20
-4.590337008097271
 10
2.986144984466351
 20
-4.610257467724964
 10
2.989112169359562
 20
-4.638323498635372
 10
2.949567871831681
 20
-4.63592035998839
 10
2.951924641927083
 20
-4.61025661892361
 97
        0
 97
        1
330
AA
 92
        1
 93
        1
 72
     4
 94
        3
 73
     0
 74
     0
 95
       44
 96
       40
 40
0.0
 40
0.0
 40
0.0
 40
0.0
 40
1.0
 40
1.0
 40
1.0
 40
2.0
 40
2.0
 40
2.0
 40
3.0
 40
3.0
 40
3.0
 40
4.0
 40
4.0
 40
4.0
 40
5.0
 40
5.0
 40
5.0
 40
6.0
 40
6.0
 40
6.0
 40
7.0
 40
7.0
 40
7.0
 40
8.0
 40
8.0
 40
8.0
 40
9.0
 40
9.0
 40
9.0
 40
10.0
 40
10.0
 40
10.0
 40
11.0
 40
11.0
 40
11.0
 40
12.0
 40
12.0
 40
12.0
 40
13.0
 40
13.0
 40
13.0
 40
13.0
 10
3.089423285590277
 20
-4.56197781032986
 10
3.11262562881638
 20
-4.579527900302903
 10
3.0928744064872
 20
-4.612343050112738
 10
3.096150393723569
 20
-4.637755136986444
 10
3.096146214636291
 20
-4.663594274934476
 10
3.096153960815589
 20
-4.694415838461471
 10
3.096150706291167
 20
-4.720255563977957
 10
3.106321412092067
 20
-4.735028502110316
 10
3.100165940440963
 20
-4.745378049060958
 10
3.096143199242116
 20
-4.761203600494821
 10
3.094945590476413
 20
-4.765552822072828
 10
3.09912784636213
 20
-4.78592071849525
 10
3.092787550667139
 20
-4.787786663460084
 10
3.056809866717129
 20
-4.790352277108139
 10
3.015699086697648
 20
-4.787862676882784
 10
2.979424416497648
 20
-4.788704789121248
 10
2.946927973777708
 20
-4.797025723455779
 10
2.945122080820258
 20
-4.765824613007553
 10
2.945202952134372
 20
-4.740420690447522
 10
2.953711496859025
 20
-4.709729392086475
 10
2.98242628231416
 20
-4.738312272830941
 10
2.971626349404989
 20
-4.759373288863874
 10
2.958038151064935
 20
-4.780344224546436
 10
3.040965556194767
 20
-4.762731555687499
 10
3.054895999819134
 20
-4.767930875358893
 10
3.093629526414941
 20
-4.783986933047773
 10
3.069481405548938
 20
-4.727097403888882
 10
3.075376222008874
 20
-4.7062043337954
 10
3.073112352436826
 20
-4.672776026443266
 10
3.078889134657376
 20
-4.634734303654946
 10
3.075371636284721
 20
-4.603230794270833
 10
3.048923545285333
 20
-4.652596228788764
 10
2.964199011978747
 20
-4.600191503317987
 10
3.000199216776839
 20
-4.56197168165464
 10
3.023085754165435
 20
-4.561205238623807
 10
3.010670164231214
 20
-4.602053817684476
 10
3.03442530237962
 20
-4.603229674545811
 10
3.061057998800214
 20
-4.602284127561031
 10
3.064128622201046
 20
-4.565244419007803
 10
3.089423285590277
 20
-4.56197781032986
 97
        0
 97
        1
330
AB
 92
        1
 93
        1
 72
     4
 94
        3
 73
     0
 74
     0
 95
       20
 96
       16
 40
0.0
 40
0.0
 40
0.0
 40
0.0
 40
1.0
 40
1.0
 40
1.0
 40
2.0
 40
2.0
 40
2.0
 40
3.0
 40
3.0
 40
3.0
 40
4.0
 40
4.0
 40
4.0
 40
5.0
 40
5.0
 40
5.0
 40
5.0
 10
2.876146104600694
 20
-4.70620388454861
 10
2.849897153556311
 20
-4.683980119246434
 10
2.903496453047005
 20
-4.683476517083779
 10
2.917701712184376
 20
-4.685430603613111
 10
2.933954553003875
 20
-4.679508800373708
 10
3.003987453716452
 20
-4.693314498522972
 10
2.958646930308772
 20
-4.706215093182309
 10
2.933493177251446
 20
-4.706057719574775
 10
2.904302927112843
 20
-4.697038045583212
 10
2.917709828923344
 20
-4.733708321406614
 10
2.913566779625158
 20
-4.748510091010087
 10
2.92955151209642
 20
-4.792503745436457
 10
2.903649800057994
 20
-4.788703499835163
 10
2.859084313976305
 20
-4.781711638975214
 10
2.934546193683445
 20
-4.690655658295844
 10
2.876146104600694
 20
-4.70620388454861
 97
        0
 97
        1
330
AC
 92
        1
 93
        1
 72
     4
 94
        3
 73
     0
 74
     0
 95
       23
 96
       19
 40
0.0
 40
0.0
 40
0.0
 40
0.0
 40
1.0
 40
1.0
 40
1.0
 40
2.0
 40
2.0
 40
2.0
 40
3.0
 40
3.0
 40
3.0
 40
4.0
 40
4.0
 40
4.0
 40
5.0
 40
5.0
 40
5.0
 40
6.0
 40
6.0
 40
6.0
 40
6.0
 10
2.876146104600694
 20
-4.665256076388888
 10
2.860768763709327
 20
-4.638775229353679
 10
2.873253620929163
 20
-4.598752299212643
 10
2.869419164153681
 20
-4.568706232215149
 10
2.877941782238382
 20
-4.557093205894981
 10
2.954473576599348
 20
-4.558215758024983
 10
2.965372420340347
 20
-4.568697461139259
 10
2.957962219323462
 20
-4.599672099467839
 10
2.908971148331968
 20
-4.572813160345705
 10
2.890205778877669
 20
-4.582756847668305
 10
2.866851948943248
 20
-4.622277290894417
 10
2.931898842479856
 20
-4.591513486808606
 10
2.945200998055472
 20
-4.610254408608031
 10
2.941332679277858
 20
-4.642208691368826
 10
2.891062508858844
 20
-4.604985166689061
 10
2.887144899176443
 20
-4.631948099546863
 10
2.888892609683137
 20
-4.643935503769309
 10
2.894990128687784
 20
-4.663724565699149
 10
2.876146104600694
 20
-4.665256076388888
 97
        0
 97
        1
330
AD
 75
     2
 76
     1
 98
        1
 10
0.0
 20
0.0
450
        0
451
        0
460
0.0
461
0.0
452
        0
462
0.0
453
        0
470

  0
SPLINE
  5
AF
330
7F
100
AcDbEntity
  8
Layer 1
100
AcDbSpline
210
0.0
220
0.0
230
1.0
 70
     9
 71
     3
 72
    14
 73
    10
 74
     0
 42
0.0000000001
 43
0.0000000001
 40
0.0
 40
0.0
 40
0.0
 40
0.0
 40
1.0
 40
1.0
 40
1.0
 40
2.0
 40
2.0
 40
2.0
 40
3.0
 40
3.0
 40
3.0
 40
3.0
 10
3.046644422743055
 20
-5.066399468315972
 30
0.0
 10
3.023376372619117
 20
-5.096324535161695
 30
0.0
 10
3.023349290747268
 20
-5.040355650042025
 30
0.0
 10
3.025267996804738
 20
-5.023926475145192
 30
0.0
 10
3.020001735482739
 20
-5.003264118516552
 30
0.0
 10
3.030021468575947
 20
-4.93720376863012
 30
0.0
 10
3.053687856667036
 20
-4.981449697968273
 30
0.0
 10
3.035464324011084
 20
-5.009620460365681
 30
0.0
 10
3.060580942204271
 20
-5.037943367266696
 30
0.0
 10
3.046644422743055
 20
-5.066399468315972
 30
0.0
  0
SPLINE
  5
B0
330
7F
100
AcDbEntity
  8
Layer 1
100
AcDbSpline
210
0.0
220
0.0
230
1.0
 70
     9
 71
     3
 72
    11
 73
     7
 74
     0
 42
0.0000000001
 43
0.0000000001
 40
0.0
 40
0.0
 40
0.0
 40
0.0
 40
1.0
 40
1.0
 40
1.0
 40
2.0
 40
2.0
 40
2.0
 40
2.0
 10
3.039618598090277
 20
-4.931952582465277
 30
0.0
 10
3.040957467245675
 20
-4.943241554465101
 30
0.0
 10
3.022776676221762
 20
-4.937682105493965
 30
0.0
 10
3.015483166861018
 20
-4.937915572513108
 30
0.0
 10
2.995735863754349
 20
-4.922838790141086
 30
0.0
 10
3.04456034405262
 20
-4.904568963122856
 30
0.0
 10
3.039618598090277
 20
-4.931952582465277
 30
0.0
  0
SPLINE
  5
B1
330
7F
100
AcDbEntity
  8
Layer 1
100
AcDbSpline
210
0.0
220
0.0
230
1.0
 70
     9
 71
     3
 72
    23
 73
    19
 74
     0
 42
0.0000000001
 43
0.0000000001
 40
0.0
 40
0.0
 40
0.0
 40
0.0
 40
1.0
 40
1.0
 40
1.0
 40
2.0
 40
2.0
 40
2.0
 40
3.0
 40
3.0
 40
3.0
 40
4.0
 40
4.0
 40
4.0
 40
5.0
 40
5.0
 40
5.0
 40
6.0
 40
6.0
 40
6.0
 40
6.0
 10
3.089118109809027
 20
-4.967095269097222
 30
0.0
 10
3.061957157369596
 20
-4.965965246117307
 30
0.0
 10
3.077245914343772
 20
-4.898381750192229
 30
0.0
 10
3.077806286714475
 20
-4.879246940969336
 30
0.0
 10
3.068704726744777
 20
-4.863298288094053
 30
0.0
 10
3.036189859483581
 20
-4.881439919561456
 30
0.0
 10
3.020983522036165
 20
-4.873740298998326
 30
0.0
 10
3.000877170675241
 20
-4.856124298171772
 30
0.0
 10
2.970133073548784
 20
-4.880188016620498
 30
0.0
 10
2.951924179261191
 20
-4.870545388824527
 30
0.0
 10
2.925155554563313
 20
-4.833689616901513
 30
0.0
 10
3.07728980069482
 20
-4.849770377244731
 30
0.0
 10
3.092479019636193
 20
-4.854644929617657
 30
0.0
 10
3.101700347692637
 20
-4.869762343110955
 30
0.0
 10
3.09351332127902
 20
-4.899475731975067
 30
0.0
 10
3.096155569829685
 20
-4.917588088647802
 30
0.0
 10
3.093836992795281
 20
-4.931545053302215
 30
0.0
 10
3.102502258721528
 20
-4.957953426466196
 30
0.0
 10
3.089118109809027
 20
-4.967095269097222
 30
0.0
  0
SPLINE
  5
B2
330
7F
100
AcDbEntity
  8
Layer 1
100
AcDbSpline
210
0.0
220
0.0
230
1.0
 70
     9
 71
     3
 72
    29
 73
    25
 74
     0
 42
0.0000000001
 43
0.0000000001
 40
0.0
 40
0.0
 40
0.0
 40
0.0
 40
1.0
 40
1.0
 40
1.0
 40
2.0
 40
2.0
 40
2.0
 40
3.0
 40
3.0
 40
3.0
 40
4.0
 40
4.0
 40
4.0
 40
5.0
 40
5.0
 40
5.0
 40
6.0
 40
6.0
 40
6.0
 40
7.0
 40
7.0
 40
7.0
 40
8.0
 40
8.0
 40
8.0
 40
8.0
 10
2.890814887152777
 20
-4.97442626953125
 30
0.0
 10
2.926669554425491
 20
-4.982194726961248
 30
0.0
 10
2.87768409439588
 20
-5.098672021873653
 30
0.0
 10
2.950102132291804
 20
-5.035532247706428
 30
0.0
 10
2.967200683165603
 20
-5.014019502949395
 30
0.0
 10
2.933007133655122
 20
-4.954915119131858
 30
0.0
 10
2.982789656103174
 20
-4.96710031779614
 30
0.0
 10
3.004741342302496
 20
-4.975503036423206
 30
0.0
 10
3.015621399383487
 20
-4.974135212219557
 30
0.0
 10
3.010891917893129
 20
-5.002540056858277
 30
0.0
 10
3.006210401473127
 20
-5.018239519870854
 30
0.0
 10
3.024614453631076
 20
-5.08730059824418
 30
0.0
 10
2.994403041496298
 20
-5.069002310923931
 30
0.0
 10
2.978354347072543
 20
-5.047937566391687
 30
0.0
 10
3.002661278781412
 20
-5.0087268967691
 30
0.0
 10
2.985538851583277
 20
-4.991230551221557
 30
0.0
 10
2.964392257242593
 20
-4.977725289055607
 30
0.0
 10
2.983139752469292
 20
-5.030250395000343
 30
0.0
 10
2.972701314845178
 20
-5.040266594664267
 30
0.0
 10
2.954311129773511
 20
-5.088611821936852
 30
0.0
 10
2.876198861080676
 20
-5.083860238952815
 30
0.0
 10
2.877519262134228
 20
-5.026666391113431
 30
0.0
 10
2.89220376108066
 20
-5.016113705428538
 30
0.0
 10
2.873799918056205
 20
-4.979888820970927
 30
0.0
 10
2.890814887152777
 20
-4.97442626953125
 30
0.0
  0
SPLINE
  5
B3
330
7F
100
AcDbEntity
  8
Layer 1
100
AcDbSpline
210
0.0
220
0.0
230
1.0
 70
     9
 71
     3
 72
    26
 73
    22
 74
     0
 42
0.0000000001
 43
0.0000000001
 40
0.0
 40
0.0
 40
0.0
 40
0.0
 40
1.0
 40
1.0
 40
1.0
 40
2.0
 40
2.0
 40
2.0
 40
3.0
 40
3.0
 40
3.0
 40
4.0
 40
4.0
 40
4.0
 40
5.0
 40
5.0
 40
5.0
 40
6.0
 40
6.0
 40
6.0
 40
7.0
 40
7.0
 40
7.0
 40
7.0
 10
2.8837890625
 20
-4.94601101345486
 30
0.0
 10
2.86094876164432
 20
-4.943888324195628
 30
0.0
 10
2.871787968863259
 20
-4.911116076616925
 30
0.0
 10
2.869423784203958
 20
-4.896206693834326
 30
0.0
 10
2.87182645986949
 20
-4.884627711878516
 30
0.0
 10
2.86397679590761
 20
-4.858015197623962
 30
0.0
 10
2.873700621371666
 20
-4.850368147630192
 30
0.0
 10
2.888899756411888
 20
-4.838849247376161
 30
0.0
 10
2.962277801985401
 20
-4.848909373211464
 30
0.0
 10
2.918927745740979
 20
-4.868094812468976
 30
0.0
 10
2.876357129450942
 20
-4.853465789332075
 30
0.0
 10
2.896283553830837
 20
-4.889025222428434
 30
0.0
 10
2.888222023849784
 20
-4.914080631494597
 30
0.0
 10
2.885154067382523
 20
-4.941646292786104
 30
0.0
 10
2.946746256818844
 20
-4.919762049120941
 30
0.0
 10
2.961396273992173
 20
-4.91759247235796
 30
0.0
 10
2.98233978290975
 20
-4.910154016143173
 30
0.0
 10
3.003227245018693
 20
-4.932148065505581
 30
0.0
 10
2.982788560158774
 20
-4.946018966377348
 30
0.0
 10
2.951882051860075
 20
-4.946000099792576
 30
0.0
 10
2.914663519878406
 20
-4.946018879926264
 30
0.0
 10
2.8837890625
 20
-4.94601101345486
 30
0.0
  0
HATCH
  5
B4
330
7F
100
AcDbEntity
  8
Layer 1
 62
   250
420
  2301728
440
 33554687
100
AcDbHatch
 10
0.0
 20
0.0
 30
0.0
210
0.0
220
0.0
230
1.0
  2
SOLID
 70
     1
 71
     1
 91
        5
 92
        1
 93
        1
 72
     4
 94
        3
 73
     0
 74
     0
 95
       14
 96
       10
 40
0.0
 40
0.0
 40
0.0
 40
0.0
 40
1.0
 40
1.0
 40
1.0
 40
2.0
 40
2.0
 40
2.0
 40
3.0
 40
3.0
 40
3.0
 40
3.0
 10
3.046644422743055
 20
-5.066399468315972
 10
3.023376372619117
 20
-5.096324535161695
 10
3.023349290747268
 20
-5.040355650042025
 10
3.025267996804738
 20
-5.023926475145192
 10
3.020001735482739
 20
-5.003264118516552
 10
3.030021468575947
 20
-4.93720376863012
 10
3.053687856667036
 20
-4.981449697968273
 10
3.035464324011084
 20
-5.009620460365681
 10
3.060580942204271
 20
-5.037943367266696
 10
3.046644422743055
 20
-5.066399468315972
 97
        0
 97
        1
330
AF
 92
        1
 93
        1
 72
     4
 94
        3
 73
     0
 74
     0
 95
       11
 96
        7
 40
0.0
 40
0.0
 40
0.0
 40
0.0
 40
1.0
 40
1.0
 40
1.0
 40
2.0
 40
2.0
 40
2.0
 40
2.0
 10
3.039618598090277
 20
-4.931952582465277
 10
3.040957467245675
 20
-4.943241554465101
 10
3.022776676221762
 20
-4.937682105493965
 10
3.015483166861018
 20
-4.937915572513108
 10
2.995735863754349
 20
-4.922838790141086
 10
3.04456034405262
 20
-4.904568963122856
 10
3.039618598090277
 20
-4.931952582465277
 97
        0
 97
        1
330
B0
 92
        1
 93
        1
 72
     4
 94
        3
 73
     0
 74
     0
 95
       23
 96
       19
 40
0.0
 40
0.0
 40
0.0
 40
0.0
 40
1.0
 40
1.0
 40
1.0
 40
2.0
 40
2.0
 40
2.0
 40
3.0
 40
3.0
 40
3.0
 40
4.0
 40
4.0
 40
4.0
 40
5.0
 40
5.0
 40
5.0
 40
6.0
 40
6.0
 40
6.0
 40
6.0
 10
3.089118109809027
 20
-4.967095269097222
 10
3.061957157369596
 20
-4.965965246117307
 10
3.077245914343772
 20
-4.898381750192229
 10
3.077806286714475
 20
-4.879246940969336
 10
3.068704726744777
 20
-4.863298288094053
 10
3.036189859483581
 20
-4.881439919561456
 10
3.020983522036165
 20
-4.873740298998326
 10
3.000877170675241
 20
-4.856124298171772
 10
2.970133073548784
 20
-4.880188016620498
 10
2.951924179261191
 20
-4.870545388824527
 10
2.925155554563313
 20
-4.833689616901513
 10
3.07728980069482
 20
-4.849770377244731
 10
3.092479019636193
 20
-4.854644929617657
 10
3.101700347692637
 20
-4.869762343110955
 10
3.09351332127902
 20
-4.899475731975067
 10
3.096155569829685
 20
-4.917588088647802
 10
3.093836992795281
 20
-4.931545053302215
 10
3.102502258721528
 20
-4.957953426466196
 10
3.089118109809027
 20
-4.967095269097222
 97
        0
 97
        1
330
B1
 92
        1
 93
        1
 72
     4
 94
        3
 73
     0
 74
     0
 95
       29
 96
       25
 40
0.0
 40
0.0
 40
0.0
 40
0.0
 40
1.0
 40
1.0
 40
1.0
 40
2.0
 40
2.0
 40
2.0
 40
3.0
 40
3.0
 40
3.0
 40
4.0
 40
4.0
 40
4.0
 40
5.0
 40
5.0
 40
5.0
 40
6.0
 40
6.0
 40
6.0
 40
7.0
 40
7.0
 40
7.0
 40
8.0
 40
8.0
 40
8.0
 40
8.0
 10
2.890814887152777
 20
-4.97442626953125
 10
2.926669554425491
 20
-4.982194726961248
 10
2.87768409439588
 20
-5.098672021873653
 10
2.950102132291804
 20
-5.035532247706428
 10
2.967200683165603
 20
-5.014019502949395
 10
2.933007133655122
 20
-4.954915119131858
 10
2.982789656103174
 20
-4.96710031779614
 10
3.004741342302496
 20
-4.975503036423206
 10
3.015621399383487
 20
-4.974135212219557
 10
3.010891917893129
 20
-5.002540056858277
 10
3.006210401473127
 20
-5.018239519870854
 10
3.024614453631076
 20
-5.08730059824418
 10
2.994403041496298
 20
-5.069002310923931
 10
2.978354347072543
 20
-5.047937566391687
 10
3.002661278781412
 20
-5.0087268967691
 10
2.985538851583277
 20
-4.991230551221557
 10
2.964392257242593
 20
-4.977725289055607
 10
2.983139752469292
 20
-5.030250395000343
 10
2.972701314845178
 20
-5.040266594664267
 10
2.954311129773511
 20
-5.088611821936852
 10
2.876198861080676
 20
-5.083860238952815
 10
2.877519262134228
 20
-5.026666391113431
 10
2.89220376108066
 20
-5.016113705428538
 10
2.873799918056205
 20
-4.979888820970927
 10
2.890814887152777
 20
-4.97442626953125
 97
        0
 97
        1
330
B2
 92
        1
 93
        1
 72
     4
 94
        3
 73
     0
 74
     0
 95
       26
 96
       22
 40
0.0
 40
0.0
 40
0.0
 40
0.0
 40
1.0
 40
1.0
 40
1.0
 40
2.0
 40
2.0
 40
2.0
 40
3.0
 40
3.0
 40
3.0
 40
4.0
 40
4.0
 40
4.0
 40
5.0
 40
5.0
 40
5.0
 40
6.0
 40
6.0
 40
6.0
 40
7.0
 40
7.0
 40
7.0
 40
7.0
 10
2.8837890625
 20
-4.94601101345486
 10
2.86094876164432
 20
-4.943888324195628
 10
2.871787968863259
 20
-4.911116076616925
 10
2.869423784203958
 20
-4.896206693834326
 10
2.87182645986949
 20
-4.884627711878516
 10
2.86397679590761
 20
-4.858015197623962
 10
2.873700621371666
 20
-4.850368147630192
 10
2.888899756411888
 20
-4.838849247376161
 10
2.962277801985401
 20
-4.848909373211464
 10
2.918927745740979
 20
-4.868094812468976
 10
2.876357129450942
 20
-4.853465789332075
 10
2.896283553830837
 20
-4.889025222428434
 10
2.888222023849784
 20
-4.914080631494597
 10
2.885154067382523
 20
-4.941646292786104
 10
2.946746256818844
 20
-4.919762049120941
 10
2.961396273992173
 20
-4.91759247235796
 10
2.98233978290975
 20
-4.910154016143173
 10
3.003227245018693
 20
-4.932148065505581
 10
2.982788560158774
 20
-4.946018966377348
 10
2.951882051860075
 20
-4.946000099792576
 10
2.914663519878406
 20
-4.946018879926264
 10
2.8837890625
 20
-4.94601101345486
 97
        0
 97
        1
330
B3
 75
     2
 76
     1
 98
        1
 10
0.0
 20
0.0
450
        0
451
        0
460
0.0
461
0.0
452
        0
462
0.0
453
        0
470

  0
SPLINE
  5
B5
330
7F
100
AcDbEntity
  8
Layer 1
100
AcDbSpline
210
0.0
220
0.0
230
1.0
 70
     9
 71
     3
 72
    17
 73
    13
 74
     0
 42
0.0000000001
 43
0.0000000001
 40
0.0
 40
0.0
 40
0.0
 40
0.0
 40
1.0
 40
1.0
 40
1.0
 40
2.0
 40
2.0
 40
2.0
 40
3.0
 40
3.0
 40
3.0
 40
4.0
 40
4.0
 40
4.0
 40
4.0
 10
3.013644748263888
 20
-5.220648871527777
 30
0.0
 10
3.00360680809634
 20
-5.227397844424873
 30
0.0
 10
3.018173206505176
 20
-5.24326615237405
 30
0.0
 10
3.013639340000672
 20
-5.254869721884233
 30
0.0
 10
3.017931449059144
 20
-5.268909110694456
 30
0.0
 10
3.002290886447073
 20
-5.29726364468868
 30
0.0
 10
3.020517241188586
 20
-5.301623331592218
 30
0.0
 10
3.039034570031566
 20
-5.297295914954284
 30
0.0
 10
3.023021246910717
 20
-5.269135042826152
 30
0.0
 10
3.027402533988177
 20
-5.254870098572319
 30
0.0
 10
3.026629631157384
 20
-5.242235552168406
 30
0.0
 10
3.03650183159142
 20
-5.192341946697322
 30
0.0
 10
3.013644748263888
 20
-5.220648871527777
 30
0.0
  0
SPLINE
  5
B6
330
7F
100
AcDbEntity
  8
Layer 1
100
AcDbSpline
210
0.0
220
0.0
230
1.0
 70
     9
 71
     3
 72
    20
 73
    16
 74
     0
 42
0.0000000001
 43
0.0000000001
 40
0.0
 40
0.0
 40
0.0
 40
0.0
 40
1.0
 40
1.0
 40
1.0
 40
2.0
 40
2.0
 40
2.0
 40
3.0
 40
3.0
 40
3.0
 40
4.0
 40
4.0
 40
4.0
 40
5.0
 40
5.0
 40
5.0
 40
5.0
 10
3.020372178819444
 20
-5.31719970703125
 30
0.0
 10
2.997132863629429
 20
-5.31936392753601
 30
0.0
 10
2.980154477723367
 20
-5.317631688531592
 30
0.0
 10
2.986151006842975
 20
-5.28969552835186
 30
0.0
 10
2.985102641205824
 20
-5.276198971106762
 30
0.0
 10
2.986259255649984
 20
-5.259335317739795
 30
0.0
 10
2.992876392091652
 20
-5.248149928992347
 30
0.0
 10
2.999732513369938
 20
-5.229702743499968
 30
0.0
 10
2.972351070179342
 20
-5.197826038352369
 30
0.0
 10
3.000199787367048
 20
-5.193148263903657
 30
0.0
 10
3.048861545271481
 20
-5.193301429067219
 30
0.0
 10
3.051079676228356
 20
-5.202256460468371
 30
0.0
 10
3.047866786125432
 20
-5.24814971816003
 30
0.0
 10
3.042912605476696
 20
-5.275384372615424
 30
0.0
 10
3.065234142193415
 20
-5.328531821895353
 30
0.0
 10
3.020372178819444
 20
-5.31719970703125
 30
0.0
  0
SPLINE
  5
B7
330
7F
100
AcDbEntity
  8
Layer 1
100
AcDbSpline
210
0.0
220
0.0
230
1.0
 70
     9
 71
     3
 72
    11
 73
     7
 74
     0
 42
0.0000000001
 43
0.0000000001
 40
0.0
 40
0.0
 40
0.0
 40
0.0
 40
1.0
 40
1.0
 40
1.0
 40
2.0
 40
2.0
 40
2.0
 40
2.0
 10
2.951924641927083
 20
-5.179701063368055
 30
0.0
 10
2.952279433587566
 20
-5.162549708502283
 30
0.0
 10
2.985960793682579
 20
-5.159781452541715
 30
0.0
 10
2.986144984466351
 20
-5.179701912169409
 30
0.0
 10
2.989112169359562
 20
-5.207767943079816
 30
0.0
 10
2.949567871831681
 20
-5.205364804432835
 30
0.0
 10
2.951924641927083
 20
-5.179701063368055
 30
0.0
  0
SPLINE
  5
B8
330
7F
100
AcDbEntity
  8
Layer 1
100
AcDbSpline
210
0.0
220
0.0
230
1.0
 70
     9
 71
     3
 72
    44
 73
    40
 74
     0
 42
0.0000000001
 43
0.0000000001
 40
0.0
 40
0.0
 40
0.0
 40
0.0
 40
1.0
 40
1.0
 40
1.0
 40
2.0
 40
2.0
 40
2.0
 40
3.0
 40
3.0
 40
3.0
 40
4.0
 40
4.0
 40
4.0
 40
5.0
 40
5.0
 40
5.0
 40
6.0
 40
6.0
 40
6.0
 40
7.0
 40
7.0
 40
7.0
 40
8.0
 40
8.0
 40
8.0
 40
9.0
 40
9.0
 40
9.0
 40
10.0
 40
10.0
 40
10.0
 40
11.0
 40
11.0
 40
11.0
 40
12.0
 40
12.0
 40
12.0
 40
13.0
 40
13.0
 40
13.0
 40
13.0
 10
3.089423285590277
 20
-5.131422254774305
 30
0.0
 10
3.11262562881638
 20
-5.148972344747347
 30
0.0
 10
3.0928744064872
 20
-5.181787494557182
 30
0.0
 10
3.096150393723569
 20
-5.207199581430889
 30
0.0
 10
3.096146214636291
 20
-5.233038719378921
 30
0.0
 10
3.096153960815589
 20
-5.263860282905915
 30
0.0
 10
3.096150706291167
 20
-5.289700008422401
 30
0.0
 10
3.106321412092067
 20
-5.304472946554761
 30
0.0
 10
3.100165940440963
 20
-5.314822493505403
 30
0.0
 10
3.096143199242116
 20
-5.330648044939266
 30
0.0
 10
3.094945590476413
 20
-5.334997266517271
 30
0.0
 10
3.09912784636213
 20
-5.355365162939695
 30
0.0
 10
3.092787550667139
 20
-5.357231107904529
 30
0.0
 10
3.056809866717129
 20
-5.359796721552584
 30
0.0
 10
3.015699086697648
 20
-5.357307121327228
 30
0.0
 10
2.979424416497648
 20
-5.358149233565692
 30
0.0
 10
2.946927973777708
 20
-5.366470167900224
 30
0.0
 10
2.945122080820258
 20
-5.335269057451998
 30
0.0
 10
2.945202952134372
 20
-5.309865134891967
 30
0.0
 10
2.953711496859025
 20
-5.27917383653092
 30
0.0
 10
2.98242628231416
 20
-5.307756717275386
 30
0.0
 10
2.971626349404989
 20
-5.328817733308318
 30
0.0
 10
2.958038151064935
 20
-5.34978866899088
 30
0.0
 10
3.040965556194767
 20
-5.332176000131943
 30
0.0
 10
3.054895999819134
 20
-5.337375319803337
 30
0.0
 10
3.093629526414941
 20
-5.353431377492218
 30
0.0
 10
3.069481405548938
 20
-5.296541848333327
 30
0.0
 10
3.075376222008874
 20
-5.275648778239845
 30
0.0
 10
3.073112352436826
 20
-5.24222047088771
 30
0.0
 10
3.078889134657376
 20
-5.204178748099391
 30
0.0
 10
3.075371636284721
 20
-5.172675238715277
 30
0.0
 10
3.048923545285333
 20
-5.222040673233209
 30
0.0
 10
2.964199011978747
 20
-5.169635947762432
 30
0.0
 10
3.000199216776839
 20
-5.131416126099085
 30
0.0
 10
3.023085754165435
 20
-5.13064968306825
 30
0.0
 10
3.010670164231214
 20
-5.17149826212892
 30
0.0
 10
3.03442530237962
 20
-5.172674118990256
 30
0.0
 10
3.061057998800214
 20
-5.171728572005475
 30
0.0
 10
3.064128622201046
 20
-5.134688863452248
 30
0.0
 10
3.089423285590277
 20
-5.131422254774305
 30
0.0
  0
SPLINE
  5
B9
330
7F
100
AcDbEntity
  8
Layer 1
100
AcDbSpline
210
0.0
220
0.0
230
1.0
 70
     9
 71
     3
 72
    20
 73
    16
 74
     0
 42
0.0000000001
 43
0.0000000001
 40
0.0
 40
0.0
 40
0.0
 40
0.0
 40
1.0
 40
1.0
 40
1.0
 40
2.0
 40
2.0
 40
2.0
 40
3.0
 40
3.0
 40
3.0
 40
4.0
 40
4.0
 40
4.0
 40
5.0
 40
5.0
 40
5.0
 40
5.0
 10
2.876146104600694
 20
-5.275648328993055
 30
0.0
 10
2.849897153556311
 20
-5.253424563690878
 30
0.0
 10
2.903496453047005
 20
-5.252920961528224
 30
0.0
 10
2.917701712184376
 20
-5.254875048057556
 30
0.0
 10
2.933954553003875
 20
-5.248953244818153
 30
0.0
 10
3.003987453716452
 20
-5.262758942967416
 30
0.0
 10
2.958646930308772
 20
-5.275659537626753
 30
0.0
 10
2.933493177251446
 20
-5.275502164019219
 30
0.0
 10
2.904302927112843
 20
-5.266482490027656
 30
0.0
 10
2.917709828923344
 20
-5.303152765851058
 30
0.0
 10
2.913566779625158
 20
-5.317954535454532
 30
0.0
 10
2.92955151209642
 20
-5.361948189880902
 30
0.0
 10
2.903649800057994
 20
-5.358147944279608
 30
0.0
 10
2.859084313976305
 20
-5.351156083419659
 30
0.0
 10
2.934546193683445
 20
-5.260100102740289
 30
0.0
 10
2.876146104600694
 20
-5.275648328993055
 30
0.0
  0
SPLINE
  5
BA
330
7F
100
AcDbEntity
  8
Layer 1
100
AcDbSpline
210
0.0
220
0.0
230
1.0
 70
     9
 71
     3
 72
    23
 73
    19
 74
     0
 42
0.0000000001
 43
0.0000000001
 40
0.0
 40
0.0
 40
0.0
 40
0.0
 40
1.0
 40
1.0
 40
1.0
 40
2.0
 40
2.0
 40
2.0
 40
3.0
 40
3.0
 40
3.0
 40
4.0
 40
4.0
 40
4.0
 40
5.0
 40
5.0
 40
5.0
 40
6.0
 40
6.0
 40
6.0
 40
6.0
 10
2.876146104600694
 20
-5.234700520833333
 30
0.0
 10
2.860768763709327
 20
-5.208219673798124
 30
0.0
 10
2.873253620929163
 20
-5.168196743657087
 30
0.0
 10
2.869419164153681
 20
-5.138150676659594
 30
0.0
 10
2.877941782238382
 20
-5.126537650339425
 30
0.0
 10
2.954473576599348
 20
-5.127660202469428
 30
0.0
 10
2.965372420340347
 20
-5.138141905583703
 30
0.0
 10
2.957962219323462
 20
-5.169116543912283
 30
0.0
 10
2.908971148331968
 20
-5.14225760479015
 30
0.0
 10
2.890205778877669
 20
-5.152201292112749
 30
0.0
 10
2.866851948943248
 20
-5.191721735338862
 30
0.0
 10
2.931898842479856
 20
-5.160957931253051
 30
0.0
 10
2.945200998055472
 20
-5.179698853052475
 30
0.0
 10
2.941332679277858
 20
-5.21165313581327
 30
0.0
 10
2.891062508858844
 20
-5.174429611133505
 30
0.0
 10
2.887144899176443
 20
-5.201392543991308
 30
0.0
 10
2.888892609683137
 20
-5.213379948213754
 30
0.0
 10
2.894990128687784
 20
-5.233169010143594
 30
0.0
 10
2.876146104600694
 20
-5.234700520833333
 30
0.0
  0
HATCH
  5
BB
330
7F
100
AcDbEntity
  8
Layer 1
 62
   250
420
  2301728
440
 33554687
100
AcDbHatch
 10
0.0
 20
0.0
 30
0.0
210
0.0
220
0.0
230
1.0
  2
SOLID
 70
     1
 71
     1
 91
        6
 92
        1
 93
        1
 72
     4
 94
        3
 73
     0
 74
     0
 95
       17
 96
       13
 40
0.0
 40
0.0
 40
0.0
 40
0.0
 40
1.0
 40
1.0
 40
1.0
 40
2.0
 40
2.0
 40
2.0
 40
3.0
 40
3.0
 40
3.0
 40
4.0
 40
4.0
 40
4.0
 40
4.0
 10
3.013644748263888
 20
-5.220648871527777
 10
3.00360680809634
 20
-5.227397844424873
 10
3.018173206505176
 20
-5.24326615237405
 10
3.013639340000672
 20
-5.254869721884233
 10
3.017931449059144
 20
-5.268909110694456
 10
3.002290886447073
 20
-5.29726364468868
 10
3.020517241188586
 20
-5.301623331592218
 10
3.039034570031566
 20
-5.297295914954284
 10
3.023021246910717
 20
-5.269135042826152
 10
3.027402533988177
 20
-5.254870098572319
 10
3.026629631157384
 20
-5.242235552168406
 10
3.03650183159142
 20
-5.192341946697322
 10
3.013644748263888
 20
-5.220648871527777
 97
        0
 97
        1
330
B5
 92
        1
 93
        1
 72
     4
 94
        3
 73
     0
 74
     0
 95
       20
 96
       16
 40
0.0
 40
0.0
 40
0.0
 40
0.0
 40
1.0
 40
1.0
 40
1.0
 40
2.0
 40
2.0
 40
2.0
 40
3.0
 40
3.0
 40
3.0
 40
4.0
 40
4.0
 40
4.0
 40
5.0
 40
5.0
 40
5.0
 40
5.0
 10
3.020372178819444
 20
-5.31719970703125
 10
2.997132863629429
 20
-5.31936392753601
 10
2.980154477723367
 20
-5.317631688531592
 10
2.986151006842975
 20
-5.28969552835186
 10
2.985102641205824
 20
-5.276198971106762
 10
2.986259255649984
 20
-5.259335317739795
 10
2.992876392091652
 20
-5.248149928992347
 10
2.999732513369938
 20
-5.229702743499968
 10
2.972351070179342
 20
-5.197826038352369
 10
3.000199787367048
 20
-5.193148263903657
 10
3.048861545271481
 20
-5.193301429067219
 10
3.051079676228356
 20
-5.202256460468371
 10
3.047866786125432
 20
-5.24814971816003
 10
3.042912605476696
 20
-5.275384372615424
 10
3.065234142193415
 20
-5.328531821895353
 10
3.020372178819444
 20
-5.31719970703125
 97
        0
 97
        1
330
B6
 92
        1
 93
        1
 72
     4
 94
        3
 73
     0
 74
     0
 95
       11
 96
        7
 40
0.0
 40
0.0
 40
0.0
 40
0.0
 40
1.0
 40
1.0
 40
1.0
 40
2.0
 40
2.0
 40
2.0
 40
2.0
 10
2.951924641927083
 20
-5.179701063368055
 10
2.952279433587566
 20
-5.162549708502283
 10
2.985960793682579
 20
-5.159781452541715
 10
2.986144984466351
 20
-5.179701912169409
 10
2.989112169359562
 20
-5.207767943079816
 10
2.949567871831681
 20
-5.205364804432835
 10
2.951924641927083
 20
-5.179701063368055
 97
        0
 97
        1
330
B7
 92
        1
 93
        1
 72
     4
 94
        3
 73
     0
 74
     0
 95
       44
 96
       40
 40
0.0
 40
0.0
 40
0.0
 40
0.0
 40
1.0
 40
1.0
 40
1.0
 40
2.0
 40
2.0
 40
2.0
 40
3.0
 40
3.0
 40
3.0
 40
4.0
 40
4.0
 40
4.0
 40
5.0
 40
5.0
 40
5.0
 40
6.0
 40
6.0
 40
6.0
 40
7.0
 40
7.0
 40
7.0
 40
8.0
 40
8.0
 40
8.0
 40
9.0
 40
9.0
 40
9.0
 40
10.0
 40
10.0
 40
10.0
 40
11.0
 40
11.0
 40
11.0
 40
12.0
 40
12.0
 40
12.0
 40
13.0
 40
13.0
 40
13.0
 40
13.0
 10
3.089423285590277
 20
-5.131422254774305
 10
3.11262562881638
 20
-5.148972344747347
 10
3.0928744064872
 20
-5.181787494557182
 10
3.096150393723569
 20
-5.207199581430889
 10
3.096146214636291
 20
-5.233038719378921
 10
3.096153960815589
 20
-5.263860282905915
 10
3.096150706291167
 20
-5.289700008422401
 10
3.106321412092067
 20
-5.304472946554761
 10
3.100165940440963
 20
-5.314822493505403
 10
3.096143199242116
 20
-5.330648044939266
 10
3.094945590476413
 20
-5.334997266517271
 10
3.09912784636213
 20
-5.355365162939695
 10
3.092787550667139
 20
-5.357231107904529
 10
3.056809866717129
 20
-5.359796721552584
 10
3.015699086697648
 20
-5.357307121327228
 10
2.979424416497648
 20
-5.358149233565692
 10
2.946927973777708
 20
-5.366470167900224
 10
2.945122080820258
 20
-5.335269057451998
 10
2.945202952134372
 20
-5.309865134891967
 10
2.953711496859025
 20
-5.27917383653092
 10
2.98242628231416
 20
-5.307756717275386
 10
2.971626349404989
 20
-5.328817733308318
 10
2.958038151064935
 20
-5.34978866899088
 10
3.040965556194767
 20
-5.332176000131943
 10
3.054895999819134
 20
-5.337375319803337
 10
3.093629526414941
 20
-5.353431377492218
 10
3.069481405548938
 20
-5.296541848333327
 10
3.075376222008874
 20
-5.275648778239845
 10
3.073112352436826
 20
-5.24222047088771
 10
3.078889134657376
 20
-5.204178748099391
 10
3.075371636284721
 20
-5.172675238715277
 10
3.048923545285333
 20
-5.222040673233209
 10
2.964199011978747
 20
-5.169635947762432
 10
3.000199216776839
 20
-5.131416126099085
 10
3.023085754165435
 20
-5.13064968306825
 10
3.010670164231214
 20
-5.17149826212892
 10
3.03442530237962
 20
-5.172674118990256
 10
3.061057998800214
 20
-5.171728572005475
 10
3.064128622201046
 20
-5.134688863452248
 10
3.089423285590277
 20
-5.131422254774305
 97
        0
 97
        1
330
B8
 92
        1
 93
        1
 72
     4
 94
        3
 73
     0
 74
     0
 95
       20
 96
       16
 40
0.0
 40
0.0
 40
0.0
 40
0.0
 40
1.0
 40
1.0
 40
1.0
 40
2.0
 40
2.0
 40
2.0
 40
3.0
 40
3.0
 40
3.0
 40
4.0
 40
4.0
 40
4.0
 40
5.0
 40
5.0
 40
5.0
 40
5.0
 10
2.876146104600694
 20
-5.275648328993055
 10
2.849897153556311
 20
-5.253424563690878
 10
2.903496453047005
 20
-5.252920961528224
 10
2.917701712184376
 20
-5.254875048057556
 10
2.933954553003875
 20
-5.248953244818153
 10
3.003987453716452
 20
-5.262758942967416
 10
2.958646930308772
 20
-5.275659537626753
 10
2.933493177251446
 20
-5.275502164019219
 10
2.904302927112843
 20
-5.266482490027656
 10
2.917709828923344
 20
-5.303152765851058
 10
2.913566779625158
 20
-5.317954535454532
 10
2.92955151209642
 20
-5.361948189880902
 10
2.903649800057994
 20
-5.358147944279608
 10
2.859084313976305
 20
-5.351156083419659
 10
2.934546193683445
 20
-5.260100102740289
 10
2.876146104600694
 20
-5.275648328993055
 97
        0
 97
        1
330
B9
 92
        1
 93
        1
 72
     4
 94
        3
 73
     0
 74
     0
 95
       23
 96
       19
 40
0.0
 40
0.0
 40
0.0
 40
0.0
 40
1.0
 40
1.0
 40
1.0
 40
2.0
 40
2.0
 40
2.0
 40
3.0
 40
3.0
 40
3.0
 40
4.0
 40
4.0
 40
4.0
 40
5.0
 40
5.0
 40
5.0
 40
6.0
 40
6.0
 40
6.0
 40
6.0
 10
2.876146104600694
 20
-5.234700520833333
 10
2.860768763709327
 20
-5.208219673798124
 10
2.873253620929163
 20
-5.168196743657087
 10
2.869419164153681
 20
-5.138150676659594
 10
2.877941782238382
 20
-5.126537650339425
 10
2.954473576599348
 20
-5.127660202469428
 10
2.965372420340347
 20
-5.138141905583703
 10
2.957962219323462
 20
-5.169116543912283
 10
2.908971148331968
 20
-5.14225760479015
 10
2.890205778877669
 20
-5.152201292112749
 10
2.866851948943248
 20
-5.191721735338862
 10
2.931898842479856
 20
-5.160957931253051
 10
2.945200998055472
 20
-5.179698853052475
 10
2.941332679277858
 20
-5.21165313581327
 10
2.891062508858844
 20
-5.174429611133505
 10
2.887144899176443
 20
-5.201392543991308
 10
2.888892609683137
 20
-5.213379948213754
 10
2.894990128687784
 20
-5.233169010143594
 10
2.876146104600694
 20
-5.234700520833333
 97
        0
 97
        1
330
BA
 75
     2
 76
     1
 98
        1
 10
0.0
 20
0.0
450
        0
451
        0
460
0.0
461
0.0
452
        0
462
0.0
453
        0
470

  0
SPLINE
  5
BC
330
7F
100
AcDbEntity
  8
Layer 1
100
AcDbSpline
210
0.0
220
0.0
230
1.0
 70
     9
 71
     3
 72
    11
 73
     7
 74
     0
 42
0.0000000001
 43
0.0000000001
 40
0.0
 40
0.0
 40
0.0
 40
0.0
 40
1.0
 40
1.0
 40
1.0
 40
2.0
 40
2.0
 40
2.0
 40
2.0
 10
3.089423285590277
 20
-5.416151258680555
 30
0.0
 10
3.109091013914634
 20
-5.416369208485648
 30
0.0
 10
3.110360658635714
 20
-5.465762671505495
 30
0.0
 10
3.089426547074026
 20
-5.464124044019184
 30
0.0
 10
3.068444662724826
 20
-5.465922405214314
 30
0.0
 10
3.069805422473905
 20
-5.416319310009561
 30
0.0
 10
3.089423285590277
 20
-5.416151258680555
 30
0.0
  0
SPLINE
  5
BD
330
7F
100
AcDbEntity
  8
Layer 1
100
AcDbSpline
210
0.0
220
0.0
230
1.0
 70
     9
 71
     3
 72
    41
 73
    37
 74
     0
 42
0.0000000001
 43
0.0000000001
 40
0.0
 40
0.0
 40
0.0
 40
0.0
 40
1.0
 40
1.0
 40
1.0
 40
2.0
 40
2.0
 40
2.0
 40
3.0
 40
3.0
 40
3.0
 40
4.0
 40
4.0
 40
4.0
 40
5.0
 40
5.0
 40
5.0
 40
6.0
 40
6.0
 40
6.0
 40
7.0
 40
7.0
 40
7.0
 40
8.0
 40
8.0
 40
8.0
 40
9.0
 40
9.0
 40
9.0
 40
10.0
 40
10.0
 40
10.0
 40
11.0
 40
11.0
 40
11.0
 40
12.0
 40
12.0
 40
12.0
 40
12.0
 10
3.075676812065971
 20
-5.539903428819443
 30
0.0
 10
3.112805559702148
 20
-5.548091425755678
 30
0.0
 10
3.101810751829968
 20
-5.594131921541449
 30
0.0
 10
3.103175407942861
 20
-5.622097993999633
 30
0.0
 10
3.106014764623081
 20
-5.645660426098047
 30
0.0
 10
3.058612309587829
 20
-5.650148623852979
 30
0.0
 10
3.048176123485771
 20
-5.63585611032085
 30
0.0
 10
3.09066065898849
 20
-5.614190713995336
 30
0.0
 10
3.082370089977517
 20
-5.628696531466023
 30
0.0
 10
3.082393822027218
 20
-5.57411975283791
 30
0.0
 10
3.073025733331961
 20
-5.563033404058589
 30
0.0
 10
3.042667703511597
 20
-5.555345918161947
 30
0.0
 10
3.027705953952628
 20
-5.560361187639222
 30
0.0
 10
3.020891884716193
 20
-5.575424766514111
 30
0.0
 10
3.044096300143312
 20
-5.584672584619915
 30
0.0
 10
3.02876856067601
 20
-5.600246059397224
 30
0.0
 10
3.026781385663525
 20
-5.604985004180737
 30
0.0
 10
3.02804076687111
 20
-5.623625591520622
 30
0.0
 10
3.027702743070954
 20
-5.629123856104064
 30
0.0
 10
3.014309750794002
 20
-5.648686113979061
 30
0.0
 10
2.992983566304133
 20
-5.628939182284183
 30
0.0
 10
3.00021175981193
 20
-5.608343913596323
 30
0.0
 10
3.006151498667109
 20
-5.59115015514529
 30
0.0
 10
3.006107053660393
 20
-5.584598364862434
 30
0.0
 10
3.000193788257736
 20
-5.567410033503215
 30
0.0
 10
3.006493527351254
 20
-5.556223996492538
 30
0.0
 10
3.008169046855906
 20
-5.539596153373495
 30
0.0
 10
3.006920632233623
 20
-5.5261488991065
 30
0.0
 10
3.0101448608017
 20
-5.508304688535
 30
0.0
 10
2.994119735632996
 20
-5.376074632196491
 30
0.0
 10
3.027704684267013
 20
-5.429897611522366
 30
0.0
 10
3.027702021037839
 20
-5.453384220886934
 30
0.0
 10
3.027704014097568
 20
-5.481855616662679
 30
0.0
 10
3.027703176717851
 20
-5.505371109411308
 30
0.0
 10
3.019952377383143
 20
-5.548532241608477
 30
0.0
 10
3.038030419348514
 20
-5.552690171092939
 30
0.0
 10
3.075676812065971
 20
-5.539903428819443
 30
0.0
  0
SPLINE
  5
BE
330
7F
100
AcDbEntity
  8
Layer 1
100
AcDbSpline
210
0.0
220
0.0
230
1.0
 70
     9
 71
     3
 72
    11
 73
     7
 74
     0
 42
0.0000000001
 43
0.0000000001
 40
0.0
 40
0.0
 40
0.0
 40
0.0
 40
1.0
 40
1.0
 40
1.0
 40
2.0
 40
2.0
 40
2.0
 40
2.0
 10
2.944898817274305
 20
-5.532877604166666
 30
0.0
 10
2.94638141503684
 20
-5.510205846812596
 30
0.0
 10
2.98279823274466
 20
-5.518764576327637
 30
0.0
 10
2.970715647918028
 20
-5.538983106620258
 30
0.0
 10
2.96403498615555
 20
-5.539542869674556
 30
0.0
 10
2.945543933049697
 20
-5.543727820835
 30
0.0
 10
2.944898817274305
 20
-5.532877604166666
 30
0.0
  0
SPLINE
  5
BF
330
7F
100
AcDbEntity
  8
Layer 1
100
AcDbSpline
210
0.0
220
0.0
230
1.0
 70
     9
 71
     3
 72
    44
 73
    40
 74
     0
 42
0.0000000001
 43
0.0000000001
 40
0.0
 40
0.0
 40
0.0
 40
0.0
 40
1.0
 40
1.0
 40
1.0
 40
2.0
 40
2.0
 40
2.0
 40
3.0
 40
3.0
 40
3.0
 40
4.0
 40
4.0
 40
4.0
 40
5.0
 40
5.0
 40
5.0
 40
6.0
 40
6.0
 40
6.0
 40
7.0
 40
7.0
 40
7.0
 40
8.0
 40
8.0
 40
8.0
 40
9.0
 40
9.0
 40
9.0
 40
10.0
 40
10.0
 40
10.0
 40
11.0
 40
11.0
 40
11.0
 40
12.0
 40
12.0
 40
12.0
 40
13.0
 40
13.0
 40
13.0
 40
13.0
 10
2.98614501953125
 20
-5.477878146701388
 30
0.0
 10
2.993108910173102
 20
-5.498438316510942
 30
0.0
 10
2.94141652993614
 20
-5.496161012070008
 30
0.0
 10
2.938175502563088
 20
-5.484598957584871
 30
0.0
 10
2.948591082322448
 20
-5.474184788460547
 30
0.0
 10
2.986473302206048
 20
-5.46976536570518
 30
0.0
 10
2.965672414894672
 20
-5.443649007327912
 30
0.0
 10
2.958206565433051
 20
-5.430099208607493
 30
0.0
 10
2.938115415341965
 20
-5.44979984218417
 30
0.0
 10
2.924425289793614
 20
-5.443649820535205
 30
0.0
 10
2.88238459610237
 20
-5.437097517858824
 30
0.0
 10
2.901024250668039
 20
-5.504357469225813
 30
0.0
 10
2.896921270469331
 20
-5.532875983898848
 30
0.0
 10
2.889560759452542
 20
-5.593255077443093
 30
0.0
 10
2.898904465690987
 20
-5.582769412560133
 30
0.0
 10
2.951932705706225
 20
-5.581142349493575
 30
0.0
 10
2.966718314966517
 20
-5.580563663501657
 30
0.0
 10
2.955209763759196
 20
-5.617502829152726
 30
0.0
 10
2.958650544050012
 20
-5.629121665894444
 30
0.0
 10
2.9587730734503
 20
-5.640985075697598
 30
0.0
 10
2.941130954306686
 20
-5.62966553115469
 30
0.0
 10
2.944900491792319
 20
-5.64287607400686
 30
0.0
 10
2.924997597000242
 20
-5.635981884087438
 30
0.0
 10
2.954555051419889
 20
-5.599333121709226
 30
0.0
 10
2.932826686170907
 20
-5.591851824704715
 30
0.0
 10
2.915074064123195
 20
-5.588192529756926
 30
0.0
 10
2.893348789796164
 20
-5.608880572214022
 30
0.0
 10
2.880425851404538
 20
-5.595668939293899
 30
0.0
 10
2.870047134160004
 20
-5.582115985522401
 30
0.0
 10
2.87957025311429
 20
-5.545733491408681
 30
0.0
 10
2.876445340941144
 20
-5.526151533165475
 30
0.0
 10
2.859869441896951
 20
-5.501967740849155
 30
0.0
 10
2.877447569294986
 20
-5.476226506384805
 30
0.0
 10
2.876455986070519
 20
-5.450371151495144
 30
0.0
 10
2.872160472358435
 20
-5.415006995676801
 30
0.0
 10
2.914569354321176
 20
-5.425297231484945
 30
0.0
 10
2.935425966761486
 20
-5.421810429650059
 30
0.0
 10
2.971081026736682
 20
-5.400156560479078
 30
0.0
 10
3.008622316682451
 20
-5.444474518472323
 30
0.0
 10
2.98614501953125
 20
-5.477878146701388
 30
0.0
  0
HATCH
  5
C0
330
7F
100
AcDbEntity
  8
Layer 1
 62
   250
420
  2301728
440
 33554687
100
AcDbHatch
 10
0.0
 20
0.0
 30
0.0
210
0.0
220
0.0
230
1.0
  2
SOLID
 70
     1
 71
     1
 91
        4
 92
        1
 93
        1
 72
     4
 94
        3
 73
     0
 74
     0
 95
       11
 96
        7
 40
0.0
 40
0.0
 40
0.0
 40
0.0
 40
1.0
 40
1.0
 40
1.0
 40
2.0
 40
2.0
 40
2.0
 40
2.0
 10
3.089423285590277
 20
-5.416151258680555
 10
3.109091013914634
 20
-5.416369208485648
 10
3.110360658635714
 20
-5.465762671505495
 10
3.089426547074026
 20
-5.464124044019184
 10
3.068444662724826
 20
-5.465922405214314
 10
3.069805422473905
 20
-5.416319310009561
 10
3.089423285590277
 20
-5.416151258680555
 97
        0
 97
        1
330
BC
 92
        1
 93
        1
 72
     4
 94
        3
 73
     0
 74
     0
 95
       41
 96
       37
 40
0.0
 40
0.0
 40
0.0
 40
0.0
 40
1.0
 40
1.0
 40
1.0
 40
2.0
 40
2.0
 40
2.0
 40
3.0
 40
3.0
 40
3.0
 40
4.0
 40
4.0
 40
4.0
 40
5.0
 40
5.0
 40
5.0
 40
6.0
 40
6.0
 40
6.0
 40
7.0
 40
7.0
 40
7.0
 40
8.0
 40
8.0
 40
8.0
 40
9.0
 40
9.0
 40
9.0
 40
10.0
 40
10.0
 40
10.0
 40
11.0
 40
11.0
 40
11.0
 40
12.0
 40
12.0
 40
12.0
 40
12.0
 10
3.075676812065971
 20
-5.539903428819443
 10
3.112805559702148
 20
-5.548091425755678
 10
3.101810751829968
 20
-5.594131921541449
 10
3.103175407942861
 20
-5.622097993999633
 10
3.106014764623081
 20
-5.645660426098047
 10
3.058612309587829
 20
-5.650148623852979
 10
3.048176123485771
 20
-5.63585611032085
 10
3.09066065898849
 20
-5.614190713995336
 10
3.082370089977517
 20
-5.628696531466023
 10
3.082393822027218
 20
-5.57411975283791
 10
3.073025733331961
 20
-5.563033404058589
 10
3.042667703511597
 20
-5.555345918161947
 10
3.027705953952628
 20
-5.560361187639222
 10
3.020891884716193
 20
-5.575424766514111
 10
3.044096300143312
 20
-5.584672584619915
 10
3.02876856067601
 20
-5.600246059397224
 10
3.026781385663525
 20
-5.604985004180737
 10
3.02804076687111
 20
-5.623625591520622
 10
3.027702743070954
 20
-5.629123856104064
 10
3.014309750794002
 20
-5.648686113979061
 10
2.992983566304133
 20
-5.628939182284183
 10
3.00021175981193
 20
-5.608343913596323
 10
3.006151498667109
 20
-5.59115015514529
 10
3.006107053660393
 20
-5.584598364862434
 10
3.000193788257736
 20
-5.567410033503215
 10
3.006493527351254
 20
-5.556223996492538
 10
3.008169046855906
 20
-5.539596153373495
 10
3.006920632233623
 20
-5.5261488991065
 10
3.0101448608017
 20
-5.508304688535
 10
2.994119735632996
 20
-5.376074632196491
 10
3.027704684267013
 20
-5.429897611522366
 10
3.027702021037839
 20
-5.453384220886934
 10
3.027704014097568
 20
-5.481855616662679
 10
3.027703176717851
 20
-5.505371109411308
 10
3.019952377383143
 20
-5.548532241608477
 10
3.038030419348514
 20
-5.552690171092939
 10
3.075676812065971
 20
-5.539903428819443
 97
        0
 97
        1
330
BD
 92
        1
 93
        1
 72
     4
 94
        3
 73
     0
 74
     0
 95
       11
 96
        7
 40
0.0
 40
0.0
 40
0.0
 40
0.0
 40
1.0
 40
1.0
 40
1.0
 40
2.0
 40
2.0
 40
2.0
 40
2.0
 10
2.944898817274305
 20
-5.532877604166666
 10
2.94638141503684
 20
-5.510205846812596
 10
2.98279823274466
 20
-5.518764576327637
 10
2.970715647918028
 20
-5.538983106620258
 10
2.96403498615555
 20
-5.539542869674556
 10
2.945543933049697
 20
-5.543727820835
 10
2.944898817274305
 20
-5.532877604166666
 97
        0
 97
        1
330
BE
 92
        1
 93
        1
 72
     4
 94
        3
 73
     0
 74
     0
 95
       44
 96
       40
 40
0.0
 40
0.0
 40
0.0
 40
0.0
 40
1.0
 40
1.0
 40
1.0
 40
2.0
 40
2.0
 40
2.0
 40
3.0
 40
3.0
 40
3.0
 40
4.0
 40
4.0
 40
4.0
 40
5.0
 40
5.0
 40
5.0
 40
6.0
 40
6.0
 40
6.0
 40
7.0
 40
7.0
 40
7.0
 40
8.0
 40
8.0
 40
8.0
 40
9.0
 40
9.0
 40
9.0
 40
10.0
 40
10.0
 40
10.0
 40
11.0
 40
11.0
 40
11.0
 40
12.0
 40
12.0
 40
12.0
 40
13.0
 40
13.0
 40
13.0
 40
13.0
 10
2.98614501953125
 20
-5.477878146701388
 10
2.993108910173102
 20
-5.498438316510942
 10
2.94141652993614
 20
-5.496161012070008
 10
2.938175502563088
 20
-5.484598957584871
 10
2.948591082322448
 20
-5.474184788460547
 10
2.986473302206048
 20
-5.46976536570518
 10
2.965672414894672
 20
-5.443649007327912
 10
2.958206565433051
 20
-5.430099208607493
 10
2.938115415341965
 20
-5.44979984218417
 10
2.924425289793614
 20
-5.443649820535205
 10
2.88238459610237
 20
-5.437097517858824
 10
2.901024250668039
 20
-5.504357469225813
 10
2.896921270469331
 20
-5.532875983898848
 10
2.889560759452542
 20
-5.593255077443093
 10
2.898904465690987
 20
-5.582769412560133
 10
2.951932705706225
 20
-5.581142349493575
 10
2.966718314966517
 20
-5.580563663501657
 10
2.955209763759196
 20
-5.617502829152726
 10
2.958650544050012
 20
-5.629121665894444
 10
2.9587730734503
 20
-5.640985075697598
 10
2.941130954306686
 20
-5.62966553115469
 10
2.944900491792319
 20
-5.64287607400686
 10
2.924997597000242
 20
-5.635981884087438
 10
2.954555051419889
 20
-5.599333121709226
 10
2.932826686170907
 20
-5.591851824704715
 10
2.915074064123195
 20
-5.588192529756926
 10
2.893348789796164
 20
-5.608880572214022
 10
2.880425851404538
 20
-5.595668939293899
 10
2.870047134160004
 20
-5.582115985522401
 10
2.87957025311429
 20
-5.545733491408681
 10
2.876445340941144
 20
-5.526151533165475
 10
2.859869441896951
 20
-5.501967740849155
 10
2.877447569294986
 20
-5.476226506384805
 10
2.876455986070519
 20
-5.450371151495144
 10
2.872160472358435
 20
-5.415006995676801
 10
2.914569354321176
 20
-5.425297231484945
 10
2.935425966761486
 20
-5.421810429650059
 10
2.971081026736682
 20
-5.400156560479078
 10
3.008622316682451
 20
-5.444474518472323
 10
2.98614501953125
 20
-5.477878146701388
 97
        0
 97
        1
330
BF
 75
     2
 76
     1
 98
        1
 10
0.0
 20
0.0
450
        0
451
        0
460
0.0
461
0.0
452
        0
462
0.0
453
        0
470

  0
SPLINE
  5
C1
330
7F
100
AcDbEntity
  8
Layer 1
100
AcDbSpline
210
0.0
220
0.0
230
1.0
 70
     9
 71
     3
 72
    29
 73
    25
 74
     0
 42
0.0000000001
 43
0.0000000001
 40
0.0
 40
0.0
 40
0.0
 40
0.0
 40
1.0
 40
1.0
 40
1.0
 40
2.0
 40
2.0
 40
2.0
 40
3.0
 40
3.0
 40
3.0
 40
4.0
 40
4.0
 40
4.0
 40
5.0
 40
5.0
 40
5.0
 40
6.0
 40
6.0
 40
6.0
 40
7.0
 40
7.0
 40
7.0
 40
8.0
 40
8.0
 40
8.0
 40
8.0
 10
3.076287163628471
 20
-5.707600911458333
 30
0.0
 10
3.103526516622676
 20
-5.700647822697141
 30
0.0
 10
3.083770229339645
 20
-5.80691553321051
 30
0.0
 10
3.089431051259414
 20
-5.827675551516019
 30
0.0
 10
3.082486360321897
 20
-5.85225142787178
 30
0.0
 10
3.108932906856062
 20
-5.940617562522775
 30
0.0
 10
3.066976194883825
 20
-5.926839573947138
 30
0.0
 10
3.056868350537582
 20
-5.909357780490432
 30
0.0
 10
3.081158011244774
 20
-5.876712730071631
 30
0.0
 10
3.063900864089747
 20
-5.855335066502119
 30
0.0
 10
3.065336643608411
 20
-5.82341517797704
 30
0.0
 10
3.068997216068383
 20
-5.830327248300869
 30
0.0
 10
3.040378610320544
 20
-5.823630265758361
 30
0.0
 10
3.022577985125103
 20
-5.797119821015004
 30
0.0
 10
3.077302786224954
 20
-5.818498334443625
 30
0.0
 10
3.06955993305304
 20
-5.787880037187303
 30
0.0
 10
3.07032862253234
 20
-5.766962205191298
 30
0.0
 10
3.064235676652654
 20
-5.745634574418216
 30
0.0
 10
3.062845760610962
 20
-5.727484052432751
 30
0.0
 10
3.062527443893562
 20
-5.720266188777132
 30
0.0
 10
3.063338806266933
 20
-5.721048826646134
 30
0.0
 10
3.056118527554291
 20
-5.720743700024715
 30
0.0
 10
3.021583721240277
 20
-5.715207633848522
 30
0.0
 10
3.06245236377707
 20
-5.702616672492442
 30
0.0
 10
3.076287163628471
 20
-5.707600911458333
 30
0.0
  0
SPLINE
  5
C2
330
7F
100
AcDbEntity
  8
Layer 1
100
AcDbSpline
210
0.0
220
0.0
230
1.0
 70
     9
 71
     3
 72
    11
 73
     7
 74
     0
 42
0.0000000001
 43
0.0000000001
 40
0.0
 40
0.0
 40
0.0
 40
0.0
 40
1.0
 40
1.0
 40
1.0
 40
2.0
 40
2.0
 40
2.0
 40
2.0
 10
3.016092936197916
 20
-5.707600911458333
 30
0.0
 10
3.04346846195536
 20
-5.704864007124519
 30
0.0
 10
3.041546214249845
 20
-5.743157376630683
 30
0.0
 10
3.016091413901663
 20
-5.740898919820261
 30
0.0
 10
2.999620593607725
 20
-5.740498000005623
 30
0.0
 10
2.997025625078271
 20
-5.707830831190474
 30
0.0
 10
3.016092936197916
 20
-5.707600911458333
 30
0.0
  0
SPLINE
  5
C3
330
7F
100
AcDbEntity
  8
Layer 1
100
AcDbSpline
210
0.0
220
0.0
230
1.0
 70
     9
 71
     3
 72
    29
 73
    25
 74
     0
 42
0.0000000001
 43
0.0000000001
 40
0.0
 40
0.0
 40
0.0
 40
0.0
 40
1.0
 40
1.0
 40
1.0
 40
2.0
 40
2.0
 40
2.0
 40
3.0
 40
3.0
 40
3.0
 40
4.0
 40
4.0
 40
4.0
 40
5.0
 40
5.0
 40
5.0
 40
6.0
 40
6.0
 40
6.0
 40
7.0
 40
7.0
 40
7.0
 40
8.0
 40
8.0
 40
8.0
 40
8.0
 10
3.016092936197916
 20
-5.747314453125
 30
0.0
 10
3.043627081470453
 20
-5.752656906222783
 30
0.0
 10
3.023352394905676
 20
-5.842146992054822
 30
0.0
 10
3.029237526956471
 20
-5.867401832131362
 30
0.0
 10
3.03083615368396
 20
-5.90181247254049
 30
0.0
 10
3.034203462148588
 20
-5.92927539511086
 30
0.0
 10
2.989503441187694
 20
-5.920864466239789
 30
0.0
 10
2.974177548716182
 20
-5.918667926442493
 30
0.0
 10
2.946955375590846
 20
-5.925935640160282
 30
0.0
 10
2.933742418925437
 20
-5.916751733831637
 30
0.0
 10
2.915097255474506
 20
-5.88213656156275
 30
0.0
 10
2.988944163489311
 20
-5.892025462123127
 30
0.0
 10
3.004321876444957
 20
-5.902693927110425
 30
0.0
 10
3.019318273026101
 20
-5.901203793678405
 30
0.0
 10
2.996722779763849
 20
-5.875269457549468
 30
0.0
 10
3.00938549794057
 20
-5.847551474025041
 30
0.0
 10
2.991194239958392
 20
-5.821641567882857
 30
0.0
 10
2.922860195984425
 20
-5.874248812242032
 30
0.0
 10
2.909449518760702
 20
-5.834090312755582
 30
0.0
 10
2.955667622718263
 20
-5.788308965672588
 30
0.0
 10
3.026472320005634
 20
-5.881725483988727
 30
0.0
 10
3.009367760483339
 20
-5.780942670692562
 30
0.0
 10
3.011373028832255
 20
-5.772855367834154
 30
0.0
 10
3.003824820579817
 20
-5.748288937478163
 30
0.0
 10
3.016092936197916
 20
-5.747314453125
 30
0.0
  0
SPLINE
  5
C4
330
7F
100
AcDbEntity
  8
Layer 1
100
AcDbSpline
210
0.0
220
0.0
230
1.0
 70
     9
 71
     3
 72
    11
 73
     7
 74
     0
 42
0.0000000001
 43
0.0000000001
 40
0.0
 40
0.0
 40
0.0
 40
0.0
 40
1.0
 40
1.0
 40
1.0
 40
2.0
 40
2.0
 40
2.0
 40
2.0
 10
2.922593858506944
 20
-5.774210611979166
 30
0.0
 10
2.90397170443335
 20
-5.774002318666715
 30
0.0
 10
2.906298021172169
 20
-5.741129018828991
 30
0.0
 10
2.922594149888645
 20
-5.740899050125108
 30
0.0
 10
2.948046659703448
 20
-5.738593701467
 30
0.0
 10
2.950173279520122
 20
-5.777211136063063
 30
0.0
 10
2.922593858506944
 20
-5.774210611979166
 30
0.0
  0
SPLINE
  5
C5
330
7F
100
AcDbEntity
  8
Layer 1
100
AcDbSpline
210
0.0
220
0.0
230
1.0
 70
     9
 71
     3
 72
    29
 73
    25
 74
     0
 42
0.0000000001
 43
0.0000000001
 40
0.0
 40
0.0
 40
0.0
 40
0.0
 40
1.0
 40
1.0
 40
1.0
 40
2.0
 40
2.0
 40
2.0
 40
3.0
 40
3.0
 40
3.0
 40
4.0
 40
4.0
 40
4.0
 40
5.0
 40
5.0
 40
5.0
 40
6.0
 40
6.0
 40
6.0
 40
7.0
 40
7.0
 40
7.0
 40
8.0
 40
8.0
 40
8.0
 40
8.0
 10
2.929619683159721
 20
-5.727457682291666
 30
0.0
 10
2.863760849213766
 20
-5.716618371243915
 30
0.0
 10
2.90678994203088
 20
-5.77867936631757
 30
0.0
 10
2.894936089867807
 20
-5.815649943187104
 30
0.0
 10
2.885583558978952
 20
-5.846438305236081
 30
0.0
 10
2.896407224334224
 20
-5.880067628852278
 30
0.0
 10
2.896006616004089
 20
-5.914156407635042
 30
0.0
 10
2.88579377259033
 20
-5.945652702453571
 30
0.0
 10
2.861934348235207
 20
-5.915093340848923
 30
0.0
 10
2.869433363519975
 20
-5.894285911637729
 30
0.0
 10
2.869432076380057
 20
-5.860167502190001
 30
0.0
 10
2.869420683600663
 20
-5.82174708810127
 30
0.0
 10
2.869425470222937
 20
-5.787651875232843
 30
0.0
 10
2.868445894197861
 20
-5.752939337795067
 30
0.0
 10
2.862428773932732
 20
-5.70573646007862
 30
0.0
 10
2.909456523116811
 20
-5.707605007661464
 30
0.0
 10
2.938000418154905
 20
-5.705480928381271
 30
0.0
 10
2.95972276972538
 20
-5.696405402266312
 30
0.0
 10
2.982785879400049
 20
-5.720754498958815
 30
0.0
 10
2.985662791664367
 20
-5.73736407803714
 30
0.0
 10
2.992522201030826
 20
-5.83563482771779
 30
0.0
 10
2.962916079050867
 20
-5.787656978682662
 30
0.0
 10
2.962287958798646
 20
-5.760268953355383
 30
0.0
 10
2.972380224250173
 20
-5.717146625803151
 30
0.0
 10
2.929619683159721
 20
-5.727457682291666
 30
0.0
  0
HATCH
  5
C6
330
7F
100
AcDbEntity
  8
Layer 1
 62
   250
420
  2301728
440
 33554687
100
AcDbHatch
 10
0.0
 20
0.0
 30
0.0
210
0.0
220
0.0
230
1.0
  2
SOLID
 70
     1
 71
     1
 91
        5
 92
        1
 93
        1
 72
     4
 94
        3
 73
     0
 74
     0
 95
       29
 96
       25
 40
0.0
 40
0.0
 40
0.0
 40
0.0
 40
1.0
 40
1.0
 40
1.0
 40
2.0
 40
2.0
 40
2.0
 40
3.0
 40
3.0
 40
3.0
 40
4.0
 40
4.0
 40
4.0
 40
5.0
 40
5.0
 40
5.0
 40
6.0
 40
6.0
 40
6.0
 40
7.0
 40
7.0
 40
7.0
 40
8.0
 40
8.0
 40
8.0
 40
8.0
 10
3.076287163628471
 20
-5.707600911458333
 10
3.103526516622676
 20
-5.700647822697141
 10
3.083770229339645
 20
-5.80691553321051
 10
3.089431051259414
 20
-5.827675551516019
 10
3.082486360321897
 20
-5.85225142787178
 10
3.108932906856062
 20
-5.940617562522775
 10
3.066976194883825
 20
-5.926839573947138
 10
3.056868350537582
 20
-5.909357780490432
 10
3.081158011244774
 20
-5.876712730071631
 10
3.063900864089747
 20
-5.855335066502119
 10
3.065336643608411
 20
-5.82341517797704
 10
3.068997216068383
 20
-5.830327248300869
 10
3.040378610320544
 20
-5.823630265758361
 10
3.022577985125103
 20
-5.797119821015004
 10
3.077302786224954
 20
-5.818498334443625
 10
3.06955993305304
 20
-5.787880037187303
 10
3.07032862253234
 20
-5.766962205191298
 10
3.064235676652654
 20
-5.745634574418216
 10
3.062845760610962
 20
-5.727484052432751
 10
3.062527443893562
 20
-5.720266188777132
 10
3.063338806266933
 20
-5.721048826646134
 10
3.056118527554291
 20
-5.720743700024715
 10
3.021583721240277
 20
-5.715207633848522
 10
3.06245236377707
 20
-5.702616672492442
 10
3.076287163628471
 20
-5.707600911458333
 97
        0
 97
        1
330
C1
 92
        1
 93
        1
 72
     4
 94
        3
 73
     0
 74
     0
 95
       11
 96
        7
 40
0.0
 40
0.0
 40
0.0
 40
0.0
 40
1.0
 40
1.0
 40
1.0
 40
2.0
 40
2.0
 40
2.0
 40
2.0
 10
3.016092936197916
 20
-5.707600911458333
 10
3.04346846195536
 20
-5.704864007124519
 10
3.041546214249845
 20
-5.743157376630683
 10
3.016091413901663
 20
-5.740898919820261
 10
2.999620593607725
 20
-5.740498000005623
 10
2.997025625078271
 20
-5.707830831190474
 10
3.016092936197916
 20
-5.707600911458333
 97
        0
 97
        1
330
C2
 92
        1
 93
        1
 72
     4
 94
        3
 73
     0
 74
     0
 95
       29
 96
       25
 40
0.0
 40
0.0
 40
0.0
 40
0.0
 40
1.0
 40
1.0
 40
1.0
 40
2.0
 40
2.0
 40
2.0
 40
3.0
 40
3.0
 40
3.0
 40
4.0
 40
4.0
 40
4.0
 40
5.0
 40
5.0
 40
5.0
 40
6.0
 40
6.0
 40
6.0
 40
7.0
 40
7.0
 40
7.0
 40
8.0
 40
8.0
 40
8.0
 40
8.0
 10
3.016092936197916
 20
-5.747314453125
 10
3.043627081470453
 20
-5.752656906222783
 10
3.023352394905676
 20
-5.842146992054822
 10
3.029237526956471
 20
-5.867401832131362
 10
3.03083615368396
 20
-5.90181247254049
 10
3.034203462148588
 20
-5.92927539511086
 10
2.989503441187694
 20
-5.920864466239789
 10
2.974177548716182
 20
-5.918667926442493
 10
2.946955375590846
 20
-5.925935640160282
 10
2.933742418925437
 20
-5.916751733831637
 10
2.915097255474506
 20
-5.88213656156275
 10
2.988944163489311
 20
-5.892025462123127
 10
3.004321876444957
 20
-5.902693927110425
 10
3.019318273026101
 20
-5.901203793678405
 10
2.996722779763849
 20
-5.875269457549468
 10
3.00938549794057
 20
-5.847551474025041
 10
2.991194239958392
 20
-5.821641567882857
 10
2.922860195984425
 20
-5.874248812242032
 10
2.909449518760702
 20
-5.834090312755582
 10
2.955667622718263
 20
-5.788308965672588
 10
3.026472320005634
 20
-5.881725483988727
 10
3.009367760483339
 20
-5.780942670692562
 10
3.011373028832255
 20
-5.772855367834154
 10
3.003824820579817
 20
-5.748288937478163
 10
3.016092936197916
 20
-5.747314453125
 97
        0
 97
        1
330
C3
 92
        1
 93
        1
 72
     4
 94
        3
 73
     0
 74
     0
 95
       11
 96
        7
 40
0.0
 40
0.0
 40
0.0
 40
0.0
 40
1.0
 40
1.0
 40
1.0
 40
2.0
 40
2.0
 40
2.0
 40
2.0
 10
2.922593858506944
 20
-5.774210611979166
 10
2.90397170443335
 20
-5.774002318666715
 10
2.906298021172169
 20
-5.741129018828991
 10
2.922594149888645
 20
-5.740899050125108
 10
2.948046659703448
 20
-5.738593701467
 10
2.950173279520122
 20
-5.777211136063063
 10
2.922593858506944
 20
-5.774210611979166
 97
        0
 97
        1
330
C4
 92
        1
 93
        1
 72
     4
 94
        3
 73
     0
 74
     0
 95
       29
 96
       25
 40
0.0
 40
0.0
 40
0.0
 40
0.0
 40
1.0
 40
1.0
 40
1.0
 40
2.0
 40
2.0
 40
2.0
 40
3.0
 40
3.0
 40
3.0
 40
4.0
 40
4.0
 40
4.0
 40
5.0
 40
5.0
 40
5.0
 40
6.0
 40
6.0
 40
6.0
 40
7.0
 40
7.0
 40
7.0
 40
8.0
 40
8.0
 40
8.0
 40
8.0
 10
2.929619683159721
 20
-5.727457682291666
 10
2.863760849213766
 20
-5.716618371243915
 10
2.90678994203088
 20
-5.77867936631757
 10
2.894936089867807
 20
-5.815649943187104
 10
2.885583558978952
 20
-5.846438305236081
 10
2.896407224334224
 20
-5.880067628852278
 10
2.896006616004089
 20
-5.914156407635042
 10
2.88579377259033
 20
-5.945652702453571
 10
2.861934348235207
 20
-5.915093340848923
 10
2.869433363519975
 20
-5.894285911637729
 10
2.869432076380057
 20
-5.860167502190001
 10
2.869420683600663
 20
-5.82174708810127
 10
2.869425470222937
 20
-5.787651875232843
 10
2.868445894197861
 20
-5.752939337795067
 10
2.862428773932732
 20
-5.70573646007862
 10
2.909456523116811
 20
-5.707605007661464
 10
2.938000418154905
 20
-5.705480928381271
 10
2.95972276972538
 20
-5.696405402266312
 10
2.982785879400049
 20
-5.720754498958815
 10
2.985662791664367
 20
-5.73736407803714
 10
2.992522201030826
 20
-5.83563482771779
 10
2.962916079050867
 20
-5.787656978682662
 10
2.962287958798646
 20
-5.760268953355383
 10
2.972380224250173
 20
-5.717146625803151
 10
2.929619683159721
 20
-5.727457682291666
 97
        0
 97
        1
330
C5
 75
     2
 76
     1
 98
        1
 10
0.0
 20
0.0
450
        0
451
        0
460
0.0
461
0.0
452
        0
462
0.0
453
        0
470

  0
SPLINE
  5
C7
330
7F
100
AcDbEntity
  8
Layer 1
100
AcDbSpline
210
0.0
220
0.0
230
1.0
 70
     9
 71
     3
 72
    17
 73
    13
 74
     0
 42
0.0000000001
 43
0.0000000001
 40
0.0
 40
0.0
 40
0.0
 40
0.0
 40
1.0
 40
1.0
 40
1.0
 40
2.0
 40
2.0
 40
2.0
 40
3.0
 40
3.0
 40
3.0
 40
4.0
 40
4.0
 40
4.0
 40
4.0
 10
3.013644748263888
 20
-6.074815538194443
 30
0.0
 10
3.00360685428369
 20
-6.081579450055565
 30
0.0
 10
3.018173268143212
 20
-6.097440389627258
 30
0.0
 10
3.013639338911187
 20
-6.109049951157152
 30
0.0
 10
3.01758972047508
 20
-6.122274494582344
 30
0.0
 10
3.000847050400617
 20
-6.161061364085879
 30
0.0
 10
3.025259788496732
 20
-6.154421219770938
 30
0.0
 10
3.035110363340966
 20
-6.144072559462503
 30
0.0
 10
3.023997227618931
 20
-6.123375853420762
 30
0.0
 10
3.027402373774243
 20
-6.109049553948428
 30
0.0
 10
3.026625653643122
 20
-6.096415281332838
 30
0.0
 10
3.036510406474222
 20
-6.046521257481698
 30
0.0
 10
3.013644748263888
 20
-6.074815538194443
 30
0.0
  0
SPLINE
  5
C8
330
7F
100
AcDbEntity
  8
Layer 1
100
AcDbSpline
210
0.0
220
0.0
230
1.0
 70
     9
 71
     3
 72
    20
 73
    16
 74
     0
 42
0.0000000001
 43
0.0000000001
 40
0.0
 40
0.0
 40
0.0
 40
0.0
 40
1.0
 40
1.0
 40
1.0
 40
2.0
 40
2.0
 40
2.0
 40
3.0
 40
3.0
 40
3.0
 40
4.0
 40
4.0
 40
4.0
 40
5.0
 40
5.0
 40
5.0
 40
5.0
 10
3.020372178819444
 20
-6.171373155381943
 30
0.0
 10
2.99713377032247
 20
-6.173534981768094
 30
0.0
 10
2.980154088440233
 20
-6.171815482253956
 30
0.0
 10
2.986151007368599
 20
-6.143875757644965
 30
0.0
 10
2.985102495889489
 20
-6.13037894270115
 30
0.0
 10
2.986259895385286
 20
-6.113509261241157
 30
0.0
 10
2.992876391525025
 20
-6.102323376686879
 30
0.0
 10
2.999730733047499
 20
-6.08387439231218
 30
0.0
 10
2.972355243372349
 20
-6.052000444302721
 30
0.0
 10
3.000199790520014
 20
-6.047321714400291
 30
0.0
 10
3.048857118072874
 20
-6.047474932649442
 30
0.0
 10
3.0510810865696
 20
-6.056432501541621
 30
0.0
 10
3.047866785354813
 20
-6.102323166581779
 30
0.0
 10
3.042911859494993
 20
-6.129561937601465
 30
0.0
 10
3.065235520278823
 20
-6.182706768885332
 30
0.0
 10
3.020372178819444
 20
-6.171373155381943
 30
0.0
  0
SPLINE
  5
C9
330
7F
100
AcDbEntity
  8
Layer 1
100
AcDbSpline
210
0.0
220
0.0
230
1.0
 70
     9
 71
     3
 72
    11
 73
     7
 74
     0
 42
0.0000000001
 43
0.0000000001
 40
0.0
 40
0.0
 40
0.0
 40
0.0
 40
1.0
 40
1.0
 40
1.0
 40
2.0
 40
2.0
 40
2.0
 40
2.0
 10
2.951924641927083
 20
-6.033881293402777
 30
0.0
 10
2.952273535836954
 20
-6.016717028228791
 30
0.0
 10
2.985963589678804
 20
-6.013940801623801
 30
0.0
 10
2.986144984562593
 20
-6.033882143713425
 30
0.0
 10
2.989109512184174
 20
-6.061938730762853
 30
0.0
 10
2.949569206227213
 20
-6.059536326706038
 30
0.0
 10
2.951924641927083
 20
-6.033881293402777
 30
0.0
  0
SPLINE
  5
CA
330
7F
100
AcDbEntity
  8
Layer 1
100
AcDbSpline
210
0.0
220
0.0
230
1.0
 70
     9
 71
     3
 72
    44
 73
    40
 74
     0
 42
0.0000000001
 43
0.0000000001
 40
0.0
 40
0.0
 40
0.0
 40
0.0
 40
1.0
 40
1.0
 40
1.0
 40
2.0
 40
2.0
 40
2.0
 40
3.0
 40
3.0
 40
3.0
 40
4.0
 40
4.0
 40
4.0
 40
5.0
 40
5.0
 40
5.0
 40
6.0
 40
6.0
 40
6.0
 40
7.0
 40
7.0
 40
7.0
 40
8.0
 40
8.0
 40
8.0
 40
9.0
 40
9.0
 40
9.0
 40
10.0
 40
10.0
 40
10.0
 40
11.0
 40
11.0
 40
11.0
 40
12.0
 40
12.0
 40
12.0
 40
13.0
 40
13.0
 40
13.0
 40
13.0
 10
3.089423285590277
 20
-5.985595703125
 30
0.0
 10
3.112623516187391
 20
-6.003142457910016
 30
0.0
 10
3.092875411069043
 20
-6.035960865524176
 30
0.0
 10
3.096150392675503
 20
-6.061373030970622
 30
0.0
 10
3.096146223680547
 20
-6.087214269623927
 30
0.0
 10
3.096153954296558
 20
-6.118038363438245
 30
0.0
 10
3.096150706310974
 20
-6.143880238465271
 30
0.0
 10
3.106324327004573
 20
-6.158648824376263
 30
0.0
 10
3.100167246426533
 20
-6.168991600383429
 30
0.0
 10
3.096143204601162
 20
-6.184814710042473
 30
0.0
 10
3.09494331475168
 20
-6.189160164371009
 30
0.0
 10
3.09913157094661
 20
-6.209541774609558
 30
0.0
 10
3.092787557670779
 20
-6.211397780032686
 30
0.0
 10
3.056814662048749
 20
-6.213982065857887
 30
0.0
 10
3.015697828656382
 20
-6.211474571564647
 30
0.0
 10
2.979424417328901
 20
-6.212322693978749
 30
0.0
 10
2.94693056626958
 20
-6.220642032434877
 30
0.0
 10
2.945121519875013
 20
-6.189448212617207
 30
0.0
 10
2.945202952454893
 20
-6.164045365672816
 30
0.0
 10
2.953692135477366
 20
-6.133343163927141
 30
0.0
 10
2.982431347334845
 20
-6.16191525485154
 30
0.0
 10
2.971626348650766
 20
-6.182984402862277
 30
0.0
 10
2.958701423620166
 20
-6.205248894684776
 30
0.0
 10
3.045574699701596
 20
-6.184290643742794
 30
0.0
 10
3.060239542502308
 20
-6.192619334933346
 30
0.0
 10
3.09232929973008
 20
-6.203786178554461
 30
0.0
 10
3.069136983040278
 20
-6.147333531443311
 30
0.0
 10
3.075378126453225
 20
-6.129817928522798
 30
0.0
 10
3.073111807281596
 20
-6.096393440983092
 30
0.0
 10
3.078889832379811
 20
-6.058349021423231
 30
0.0
 10
3.075371636284721
 20
-6.02685546875
 30
0.0
 10
3.048908731502112
 20
-6.076205435325416
 30
0.0
 10
2.96420636734466
 20
-6.023807338808333
 30
0.0
 10
3.000199206804318
 20
-5.985589566006916
 30
0.0
 10
3.023082538412596
 20
-5.984818616597193
 30
0.0
 10
3.010673623587283
 20
-6.025672053037269
 30
0.0
 10
3.034425302832106
 20
-6.02685434937795
 30
0.0
 10
3.061053394421858
 20
-6.025890752181541
 30
0.0
 10
3.06413378533672
 20
-5.988864251358386
 30
0.0
 10
3.089423285590277
 20
-5.985595703125
 30
0.0
  0
SPLINE
  5
CB
330
7F
100
AcDbEntity
  8
Layer 1
100
AcDbSpline
210
0.0
220
0.0
230
1.0
 70
     9
 71
     3
 72
    20
 73
    16
 74
     0
 42
0.0000000001
 43
0.0000000001
 40
0.0
 40
0.0
 40
0.0
 40
0.0
 40
1.0
 40
1.0
 40
1.0
 40
2.0
 40
2.0
 40
2.0
 40
3.0
 40
3.0
 40
3.0
 40
4.0
 40
4.0
 40
4.0
 40
5.0
 40
5.0
 40
5.0
 40
5.0
 10
2.876146104600694
 20
-6.129814995659722
 30
0.0
 10
2.849891191374454
 20
-6.10760538789984
 30
0.0
 10
2.903505020323614
 20
-6.107101261955626
 30
0.0
 10
2.917701710144165
 20
-6.10905528078226
 30
0.0
 10
2.933949778600979
 20
-6.103132039771101
 30
0.0
 10
3.003989053762527
 20
-6.116942282258175
 30
0.0
 10
2.958646929539099
 20
-6.129826210759599
 30
0.0
 10
2.933491891841438
 20
-6.129666560120818
 30
0.0
 10
2.904303841506677
 20
-6.120663527977158
 30
0.0
 10
2.917709831935086
 20
-6.15732621315644
 30
0.0
 10
2.913566339110717
 20
-6.172128557702635
 30
0.0
 10
2.929552156467454
 20
-6.216121363083831
 30
0.0
 10
2.903649801332095
 20
-6.212321392444992
 30
0.0
 10
2.859083877677575
 20
-6.20531379846736
 30
0.0
 10
2.934547255847822
 20
-6.114289282533743
 30
0.0
 10
2.876146104600694
 20
-6.129814995659722
 30
0.0
  0
SPLINE
  5
CC
330
7F
100
AcDbEntity
  8
Layer 1
100
AcDbSpline
210
0.0
220
0.0
230
1.0
 70
     9
 71
     3
 72
    23
 73
    19
 74
     0
 42
0.0000000001
 43
0.0000000001
 40
0.0
 40
0.0
 40
0.0
 40
0.0
 40
1.0
 40
1.0
 40
1.0
 40
2.0
 40
2.0
 40
2.0
 40
3.0
 40
3.0
 40
3.0
 40
4.0
 40
4.0
 40
4.0
 40
5.0
 40
5.0
 40
5.0
 40
6.0
 40
6.0
 40
6.0
 40
6.0
 10
2.876146104600694
 20
-6.088880750868055
 30
0.0
 10
2.860771776035297
 20
-6.062391374821142
 30
0.0
 10
2.873251620770297
 20
-6.022375107633024
 30
0.0
 10
2.869419169336929
 20
-5.992324122844238
 30
0.0
 10
2.877942286261574
 20
-5.980710590313694
 30
0.0
 10
2.954472033368751
 20
-5.981834415445923
 30
0.0
 10
2.965372420499382
 20
-5.992315355033396
 30
0.0
 10
2.957954472706243
 20
-6.023286637797304
 30
0.0
 10
2.908970571246918
 20
-5.996433943139714
 30
0.0
 10
2.890205776845327
 20
-6.006374737614375
 30
0.0
 10
2.866846851898887
 20
-6.045904034253124
 30
0.0
 10
2.931908841848287
 20
-6.015129686570136
 30
0.0
 10
2.945201004899482
 20
-6.033879075639358
 30
0.0
 10
2.941324429160418
 20
-6.065824911398016
 30
0.0
 10
2.891061452546118
 20
-6.028601271851104
 30
0.0
 10
2.887144897317562
 20
-6.055565993011744
 30
0.0
 10
2.88889302634128
 20
-6.067552573306961
 30
0.0
 10
2.894985431157945
 20
-6.087340688589064
 30
0.0
 10
2.876146104600694
 20
-6.088880750868055
 30
0.0
  0
HATCH
  5
CD
330
7F
100
AcDbEntity
  8
Layer 1
 62
   250
420
  2301728
440
 33554687
100
AcDbHatch
 10
0.0
 20
0.0
 30
0.0
210
0.0
220
0.0
230
1.0
  2
SOLID
 70
     1
 71
     1
 91
        6
 92
        1
 93
        1
 72
     4
 94
        3
 73
     0
 74
     0
 95
       17
 96
       13
 40
0.0
 40
0.0
 40
0.0
 40
0.0
 40
1.0
 40
1.0
 40
1.0
 40
2.0
 40
2.0
 40
2.0
 40
3.0
 40
3.0
 40
3.0
 40
4.0
 40
4.0
 40
4.0
 40
4.0
 10
3.013644748263888
 20
-6.074815538194443
 10
3.00360685428369
 20
-6.081579450055565
 10
3.018173268143212
 20
-6.097440389627258
 10
3.013639338911187
 20
-6.109049951157152
 10
3.01758972047508
 20
-6.122274494582344
 10
3.000847050400617
 20
-6.161061364085879
 10
3.025259788496732
 20
-6.154421219770938
 10
3.035110363340966
 20
-6.144072559462503
 10
3.023997227618931
 20
-6.123375853420762
 10
3.027402373774243
 20
-6.109049553948428
 10
3.026625653643122
 20
-6.096415281332838
 10
3.036510406474222
 20
-6.046521257481698
 10
3.013644748263888
 20
-6.074815538194443
 97
        0
 97
        1
330
C7
 92
        1
 93
        1
 72
     4
 94
        3
 73
     0
 74
     0
 95
       20
 96
       16
 40
0.0
 40
0.0
 40
0.0
 40
0.0
 40
1.0
 40
1.0
 40
1.0
 40
2.0
 40
2.0
 40
2.0
 40
3.0
 40
3.0
 40
3.0
 40
4.0
 40
4.0
 40
4.0
 40
5.0
 40
5.0
 40
5.0
 40
5.0
 10
3.020372178819444
 20
-6.171373155381943
 10
2.99713377032247
 20
-6.173534981768094
 10
2.980154088440233
 20
-6.171815482253956
 10
2.986151007368599
 20
-6.143875757644965
 10
2.985102495889489
 20
-6.13037894270115
 10
2.986259895385286
 20
-6.113509261241157
 10
2.992876391525025
 20
-6.102323376686879
 10
2.999730733047499
 20
-6.08387439231218
 10
2.972355243372349
 20
-6.052000444302721
 10
3.000199790520014
 20
-6.047321714400291
 10
3.048857118072874
 20
-6.047474932649442
 10
3.0510810865696
 20
-6.056432501541621
 10
3.047866785354813
 20
-6.102323166581779
 10
3.042911859494993
 20
-6.129561937601465
 10
3.065235520278823
 20
-6.182706768885332
 10
3.020372178819444
 20
-6.171373155381943
 97
        0
 97
        1
330
C8
 92
        1
 93
        1
 72
     4
 94
        3
 73
     0
 74
     0
 95
       11
 96
        7
 40
0.0
 40
0.0
 40
0.0
 40
0.0
 40
1.0
 40
1.0
 40
1.0
 40
2.0
 40
2.0
 40
2.0
 40
2.0
 10
2.951924641927083
 20
-6.033881293402777
 10
2.952273535836954
 20
-6.016717028228791
 10
2.985963589678804
 20
-6.013940801623801
 10
2.986144984562593
 20
-6.033882143713425
 10
2.989109512184174
 20
-6.061938730762853
 10
2.949569206227213
 20
-6.059536326706038
 10
2.951924641927083
 20
-6.033881293402777
 97
        0
 97
        1
330
C9
 92
        1
 93
        1
 72
     4
 94
        3
 73
     0
 74
     0
 95
       44
 96
       40
 40
0.0
 40
0.0
 40
0.0
 40
0.0
 40
1.0
 40
1.0
 40
1.0
 40
2.0
 40
2.0
 40
2.0
 40
3.0
 40
3.0
 40
3.0
 40
4.0
 40
4.0
 40
4.0
 40
5.0
 40
5.0
 40
5.0
 40
6.0
 40
6.0
 40
6.0
 40
7.0
 40
7.0
 40
7.0
 40
8.0
 40
8.0
 40
8.0
 40
9.0
 40
9.0
 40
9.0
 40
10.0
 40
10.0
 40
10.0
 40
11.0
 40
11.0
 40
11.0
 40
12.0
 40
12.0
 40
12.0
 40
13.0
 40
13.0
 40
13.0
 40
13.0
 10
3.089423285590277
 20
-5.985595703125
 10
3.112623516187391
 20
-6.003142457910016
 10
3.092875411069043
 20
-6.035960865524176
 10
3.096150392675503
 20
-6.061373030970622
 10
3.096146223680547
 20
-6.087214269623927
 10
3.096153954296558
 20
-6.118038363438245
 10
3.096150706310974
 20
-6.143880238465271
 10
3.106324327004573
 20
-6.158648824376263
 10
3.100167246426533
 20
-6.168991600383429
 10
3.096143204601162
 20
-6.184814710042473
 10
3.09494331475168
 20
-6.189160164371009
 10
3.09913157094661
 20
-6.209541774609558
 10
3.092787557670779
 20
-6.211397780032686
 10
3.056814662048749
 20
-6.213982065857887
 10
3.015697828656382
 20
-6.211474571564647
 10
2.979424417328901
 20
-6.212322693978749
 10
2.94693056626958
 20
-6.220642032434877
 10
2.945121519875013
 20
-6.189448212617207
 10
2.945202952454893
 20
-6.164045365672816
 10
2.953692135477366
 20
-6.133343163927141
 10
2.982431347334845
 20
-6.16191525485154
 10
2.971626348650766
 20
-6.182984402862277
 10
2.958701423620166
 20
-6.205248894684776
 10
3.045574699701596
 20
-6.184290643742794
 10
3.060239542502308
 20
-6.192619334933346
 10
3.09232929973008
 20
-6.203786178554461
 10
3.069136983040278
 20
-6.147333531443311
 10
3.075378126453225
 20
-6.129817928522798
 10
3.073111807281596
 20
-6.096393440983092
 10
3.078889832379811
 20
-6.058349021423231
 10
3.075371636284721
 20
-6.02685546875
 10
3.048908731502112
 20
-6.076205435325416
 10
2.96420636734466
 20
-6.023807338808333
 10
3.000199206804318
 20
-5.985589566006916
 10
3.023082538412596
 20
-5.984818616597193
 10
3.010673623587283
 20
-6.025672053037269
 10
3.034425302832106
 20
-6.02685434937795
 10
3.061053394421858
 20
-6.025890752181541
 10
3.06413378533672
 20
-5.988864251358386
 10
3.089423285590277
 20
-5.985595703125
 97
        0
 97
        1
330
CA
 92
        1
 93
        1
 72
     4
 94
        3
 73
     0
 74
     0
 95
       20
 96
       16
 40
0.0
 40
0.0
 40
0.0
 40
0.0
 40
1.0
 40
1.0
 40
1.0
 40
2.0
 40
2.0
 40
2.0
 40
3.0
 40
3.0
 40
3.0
 40
4.0
 40
4.0
 40
4.0
 40
5.0
 40
5.0
 40
5.0
 40
5.0
 10
2.876146104600694
 20
-6.129814995659722
 10
2.849891191374454
 20
-6.10760538789984
 10
2.903505020323614
 20
-6.107101261955626
 10
2.917701710144165
 20
-6.10905528078226
 10
2.933949778600979
 20
-6.103132039771101
 10
3.003989053762527
 20
-6.116942282258175
 10
2.958646929539099
 20
-6.129826210759599
 10
2.933491891841438
 20
-6.129666560120818
 10
2.904303841506677
 20
-6.120663527977158
 10
2.917709831935086
 20
-6.15732621315644
 10
2.913566339110717
 20
-6.172128557702635
 10
2.929552156467454
 20
-6.216121363083831
 10
2.903649801332095
 20
-6.212321392444992
 10
2.859083877677575
 20
-6.20531379846736
 10
2.934547255847822
 20
-6.114289282533743
 10
2.876146104600694
 20
-6.129814995659722
 97
        0
 97
        1
330
CB
 92
        1
 93
        1
 72
     4
 94
        3
 73
     0
 74
     0
 95
       23
 96
       19
 40
0.0
 40
0.0
 40
0.0
 40
0.0
 40
1.0
 40
1.0
 40
1.0
 40
2.0
 40
2.0
 40
2.0
 40
3.0
 40
3.0
 40
3.0
 40
4.0
 40
4.0
 40
4.0
 40
5.0
 40
5.0
 40
5.0
 40
6.0
 40
6.0
 40
6.0
 40
6.0
 10
2.876146104600694
 20
-6.088880750868055
 10
2.860771776035297
 20
-6.062391374821142
 10
2.873251620770297
 20
-6.022375107633024
 10
2.869419169336929
 20
-5.992324122844238
 10
2.877942286261574
 20
-5.980710590313694
 10
2.954472033368751
 20
-5.981834415445923
 10
2.965372420499382
 20
-5.992315355033396
 10
2.957954472706243
 20
-6.023286637797304
 10
2.908970571246918
 20
-5.996433943139714
 10
2.890205776845327
 20
-6.006374737614375
 10
2.866846851898887
 20
-6.045904034253124
 10
2.931908841848287
 20
-6.015129686570136
 10
2.945201004899482
 20
-6.033879075639358
 10
2.941324429160418
 20
-6.065824911398016
 10
2.891061452546118
 20
-6.028601271851104
 10
2.887144897317562
 20
-6.055565993011744
 10
2.88889302634128
 20
-6.067552573306961
 10
2.894985431157945
 20
-6.087340688589064
 10
2.876146104600694
 20
-6.088880750868055
 97
        0
 97
        1
330
CC
 75
     2
 76
     1
 98
        1
 10
0.0
 20
0.0
450
        0
451
        0
460
0.0
461
0.0
452
        0
462
0.0
453
        0
470

  0
SPLINE
  5
CE
330
7F
100
AcDbEntity
  8
Layer 1
100
AcDbSpline
210
0.0
220
0.0
230
1.0
 70
     9
 71
     3
 72
    14
 73
    10
 74
     0
 42
0.0000000001
 43
0.0000000001
 40
0.0
 40
0.0
 40
0.0
 40
0.0
 40
1.0
 40
1.0
 40
1.0
 40
2.0
 40
2.0
 40
2.0
 40
3.0
 40
3.0
 40
3.0
 40
3.0
 10
3.303108870654341
 20
-3.025370279947916
 30
0.0
 10
3.280124986601612
 20
-3.067980368820624
 30
0.0
 10
3.270080936295749
 20
-3.004330053466913
 30
0.0
 10
3.275313982619915
 20
-2.98411928513993
 30
0.0
 10
3.279238950318648
 20
-2.965075357711902
 30
0.0
 10
3.261032155676654
 20
-2.893735246810731
 30
0.0
 10
3.298828068875321
 20
-2.912918459984388
 30
0.0
 10
3.300985882483119
 20
-2.945545436563394
 30
0.0
 10
3.303484330598722
 20
-2.986955634452859
 30
0.0
 10
3.303108870654341
 20
-3.025370279947916
 30
0.0
  0
SPLINE
  5
CF
330
7F
100
AcDbEntity
  8
Layer 1
100
AcDbSpline
210
0.0
220
0.0
230
1.0
 70
     9
 71
     3
 72
    32
 73
    28
 74
     0
 42
0.0000000001
 43
0.0000000001
 40
0.0
 40
0.0
 40
0.0
 40
0.0
 40
1.0
 40
1.0
 40
1.0
 40
2.0
 40
2.0
 40
2.0
 40
3.0
 40
3.0
 40
3.0
 40
4.0
 40
4.0
 40
4.0
 40
5.0
 40
5.0
 40
5.0
 40
6.0
 40
6.0
 40
6.0
 40
7.0
 40
7.0
 40
7.0
 40
8.0
 40
8.0
 40
8.0
 40
9.0
 40
9.0
 40
9.0
 40
9.0
 10
3.358108328119619
 20
-2.853644476996527
 30
0.0
 10
3.374428586559651
 20
-2.86646110451823
 30
0.0
 10
3.360391488815922
 20
-2.908642325740515
 30
0.0
 10
3.364843622182042
 20
-2.929115388267076
 30
0.0
 10
3.366405748498196
 20
-2.956877148564722
 30
0.0
 10
3.370520077633297
 20
-2.979590683350693
 30
0.0
 10
3.365888690679917
 20
-3.00611663120296
 30
0.0
 10
3.389903176189767
 20
-3.087244727711789
 30
0.0
 10
3.356431826705943
 20
-3.075207276664021
 30
0.0
 10
3.291042939266364
 20
-3.072731078493537
 30
0.0
 10
3.253400858254622
 20
-3.031689010305538
 30
0.0
 10
3.378217782536871
 20
-3.077689008802558
 30
0.0
 10
3.344051170960382
 20
-3.032399958710218
 30
0.0
 10
3.344054259438027
 20
-3.004565862816434
 30
0.0
 10
3.344058422683271
 20
-2.970981285255245
 30
0.0
 10
3.344056673517659
 20
-2.943176236467479
 30
0.0
 10
3.33715672411453
 20
-2.871514755852129
 30
0.0
 10
3.374715608561789
 20
-2.874394796226763
 30
0.0
 10
3.292719903176993
 20
-2.871989894609517
 30
0.0
 10
3.270366460376218
 20
-2.866195368998849
 30
0.0
 10
3.291842603471119
 20
-2.908753028522747
 30
0.0
 10
3.262775112265078
 20
-2.891993071062895
 30
0.0
 10
3.261602289256491
 20
-2.883696302736426
 30
0.0
 10
3.258426183961672
 20
-2.858145939739402
 30
0.0
 10
3.268582557413524
 20
-2.853646231499371
 30
0.0
 10
3.296586561555184
 20
-2.853682732492744
 30
0.0
 10
3.330163915672111
 20
-2.853616902966071
 30
0.0
 10
3.358108328119619
 20
-2.853644476996527
 30
0.0
  0
SPLINE
  5
D0
330
7F
100
AcDbEntity
  8
Layer 1
100
AcDbSpline
210
0.0
220
0.0
230
1.0
 70
     9
 71
     3
 72
    11
 73
     7
 74
     0
 42
0.0000000001
 43
0.0000000001
 40
0.0
 40
0.0
 40
0.0
 40
0.0
 40
1.0
 40
1.0
 40
1.0
 40
2.0
 40
2.0
 40
2.0
 40
2.0
 10
3.17936348219948
 20
-2.874423556857638
 30
0.0
 10
3.179722914072928
 20
-2.856505155623633
 30
0.0
 10
3.206495368117
 20
-2.856509835978436
 30
0.0
 10
3.206863164835403
 20
-2.874425324717902
 30
0.0
 10
3.206537463946927
 20
-2.89168167964293
 30
0.0
 10
3.179673690619893
 20
-2.891688480318546
 30
0.0
 10
3.17936348219948
 20
-2.874423556857638
 30
0.0
  0
SPLINE
  5
D1
330
7F
100
AcDbEntity
  8
Layer 1
100
AcDbSpline
210
0.0
220
0.0
230
1.0
 70
     9
 71
     3
 72
    44
 73
    40
 74
     0
 42
0.0000000001
 43
0.0000000001
 40
0.0
 40
0.0
 40
0.0
 40
0.0
 40
1.0
 40
1.0
 40
1.0
 40
2.0
 40
2.0
 40
2.0
 40
3.0
 40
3.0
 40
3.0
 40
4.0
 40
4.0
 40
4.0
 40
5.0
 40
5.0
 40
5.0
 40
6.0
 40
6.0
 40
6.0
 40
7.0
 40
7.0
 40
7.0
 40
8.0
 40
8.0
 40
8.0
 40
9.0
 40
9.0
 40
9.0
 40
10.0
 40
10.0
 40
10.0
 40
11.0
 40
11.0
 40
11.0
 40
12.0
 40
12.0
 40
12.0
 40
13.0
 40
13.0
 40
13.0
 40
13.0
 10
3.151863753466841
 20
-2.936150444878471
 30
0.0
 10
3.172859947770992
 20
-2.936915365937288
 30
0.0
 10
3.159233781030896
 20
-2.953646226283555
 30
0.0
 10
3.165604825160433
 20
-2.963346927433563
 30
0.0
 10
3.187508070645776
 20
-2.965854484529939
 30
0.0
 10
3.205857198578264
 20
-2.971611484030113
 30
0.0
 10
3.230083469545711
 20
-2.971735330559441
 30
0.0
 10
3.25644201513454
 20
-2.998814843248787
 30
0.0
 10
3.190402221704289
 20
-3.005357753667731
 30
0.0
 10
3.213583859803646
 20
-2.984422471788194
 30
0.0
 10
3.19781358193005
 20
-2.986170398362193
 30
0.0
 10
3.182449860268889
 20
-2.998049880263339
 30
0.0
 10
3.169734194911395
 20
-2.982437916428036
 30
0.0
 10
3.156694069475621
 20
-2.986217736282014
 30
0.0
 10
3.154013164705929
 20
-3.004367037240917
 30
0.0
 10
3.165611596351658
 20
-3.01161543006559
 30
0.0
 10
3.174522468131259
 20
-3.017567355700141
 30
0.0
 10
3.194770653239755
 20
-3.008441769958583
 30
0.0
 10
3.206862756294488
 20
-3.011622562839988
 30
0.0
 10
3.217822611431289
 20
-3.022141652086816
 30
0.0
 10
3.213957071399249
 20
-3.03455246780489
 30
0.0
 10
3.198762838210023
 20
-3.033464743773227
 30
0.0
 10
3.188286862927346
 20
-3.042044779858441
 30
0.0
 10
3.179528278071277
 20
-3.037695060155341
 30
0.0
 10
3.169733802789285
 20
-3.033305899252114
 30
0.0
 10
3.145306029623535
 20
-3.054530336111168
 30
0.0
 10
3.168679824969217
 20
-3.067789002023459
 30
0.0
 10
3.193113176623771
 20
-3.059585646143204
 30
0.0
 10
3.208916950478017
 20
-3.056357329669367
 30
0.0
 10
3.226888101322022
 20
-3.066360947974594
 30
0.0
 10
3.241083506322752
 20
-3.059594922022913
 30
0.0
 10
3.244751665469341
 20
-3.034519346216724
 30
0.0
 10
3.279276721331358
 20
-3.047855777970602
 30
0.0
 10
3.261856426786253
 20
-3.073648700396372
 30
0.0
 10
3.258498634751263
 20
-3.084170194217626
 30
0.0
 10
3.136264679823498
 20
-3.085535197698428
 30
0.0
 10
3.138109665065017
 20
-3.073658679284929
 30
0.0
 10
3.148265310343263
 20
-3.043681791091721
 30
0.0
 10
3.122499407938827
 20
-2.93309048639162
 30
0.0
 10
3.151863753466841
 20
-2.936150444878471
 30
0.0
  0
SPLINE
  5
D2
330
7F
100
AcDbEntity
  8
Layer 1
100
AcDbSpline
210
0.0
220
0.0
230
1.0
 70
     9
 71
     3
 72
    17
 73
    13
 74
     0
 42
0.0000000001
 43
0.0000000001
 40
0.0
 40
0.0
 40
0.0
 40
0.0
 40
1.0
 40
1.0
 40
1.0
 40
2.0
 40
2.0
 40
2.0
 40
3.0
 40
3.0
 40
3.0
 40
4.0
 40
4.0
 40
4.0
 40
4.0
 10
3.192967540359202
 20
-2.922397189670138
 30
0.0
 10
3.159638742123231
 20
-2.932777608573878
 30
0.0
 10
3.111585305789553
 20
-2.845948674099569
 30
0.0
 10
3.157973251095136
 20
-2.857908916628464
 30
0.0
 10
3.158304201589076
 20
-2.876269383310525
 30
0.0
 10
3.173589202031368
 20
-2.899265332832934
 30
0.0
 10
3.193108200140765
 20
-2.901925502762979
 30
0.0
 10
3.212100799884688
 20
-2.898803385804184
 30
0.0
 10
3.228437221656286
 20
-2.876264807123321
 30
0.0
 10
3.228390087354088
 20
-2.857926070362837
 30
0.0
 10
3.275786316136367
 20
-2.850551083704241
 30
0.0
 10
3.227218697946176
 20
-2.927813520041417
 30
0.0
 10
3.192967540359202
 20
-2.922397189670138
 30
0.0
  0
HATCH
  5
D3
330
7F
100
AcDbEntity
  8
Layer 1
 62
   250
420
  2301728
440
 33554687
100
AcDbHatch
 10
0.0
 20
0.0
 30
0.0
210
0.0
220
0.0
230
1.0
  2
SOLID
 70
     1
 71
     1
 91
        5
 92
        1
 93
        1
 72
     4
 94
        3
 73
     0
 74
     0
 95
       14
 96
       10
 40
0.0
 40
0.0
 40
0.0
 40
0.0
 40
1.0
 40
1.0
 40
1.0
 40
2.0
 40
2.0
 40
2.0
 40
3.0
 40
3.0
 40
3.0
 40
3.0
 10
3.303108870654341
 20
-3.025370279947916
 10
3.280124986601612
 20
-3.067980368820624
 10
3.270080936295749
 20
-3.004330053466913
 10
3.275313982619915
 20
-2.98411928513993
 10
3.279238950318648
 20
-2.965075357711902
 10
3.261032155676654
 20
-2.893735246810731
 10
3.298828068875321
 20
-2.912918459984388
 10
3.300985882483119
 20
-2.945545436563394
 10
3.303484330598722
 20
-2.986955634452859
 10
3.303108870654341
 20
-3.025370279947916
 97
        0
 97
        1
330
CE
 92
        1
 93
        1
 72
     4
 94
        3
 73
     0
 74
     0
 95
       32
 96
       28
 40
0.0
 40
0.0
 40
0.0
 40
0.0
 40
1.0
 40
1.0
 40
1.0
 40
2.0
 40
2.0
 40
2.0
 40
3.0
 40
3.0
 40
3.0
 40
4.0
 40
4.0
 40
4.0
 40
5.0
 40
5.0
 40
5.0
 40
6.0
 40
6.0
 40
6.0
 40
7.0
 40
7.0
 40
7.0
 40
8.0
 40
8.0
 40
8.0
 40
9.0
 40
9.0
 40
9.0
 40
9.0
 10
3.358108328119619
 20
-2.853644476996527
 10
3.374428586559651
 20
-2.86646110451823
 10
3.360391488815922
 20
-2.908642325740515
 10
3.364843622182042
 20
-2.929115388267076
 10
3.366405748498196
 20
-2.956877148564722
 10
3.370520077633297
 20
-2.979590683350693
 10
3.365888690679917
 20
-3.00611663120296
 10
3.389903176189767
 20
-3.087244727711789
 10
3.356431826705943
 20
-3.075207276664021
 10
3.291042939266364
 20
-3.072731078493537
 10
3.253400858254622
 20
-3.031689010305538
 10
3.378217782536871
 20
-3.077689008802558
 10
3.344051170960382
 20
-3.032399958710218
 10
3.344054259438027
 20
-3.004565862816434
 10
3.344058422683271
 20
-2.970981285255245
 10
3.344056673517659
 20
-2.943176236467479
 10
3.33715672411453
 20
-2.871514755852129
 10
3.374715608561789
 20
-2.874394796226763
 10
3.292719903176993
 20
-2.871989894609517
 10
3.270366460376218
 20
-2.866195368998849
 10
3.291842603471119
 20
-2.908753028522747
 10
3.262775112265078
 20
-2.891993071062895
 10
3.261602289256491
 20
-2.883696302736426
 10
3.258426183961672
 20
-2.858145939739402
 10
3.268582557413524
 20
-2.853646231499371
 10
3.296586561555184
 20
-2.853682732492744
 10
3.330163915672111
 20
-2.853616902966071
 10
3.358108328119619
 20
-2.853644476996527
 97
        0
 97
        1
330
CF
 92
        1
 93
        1
 72
     4
 94
        3
 73
     0
 74
     0
 95
       11
 96
        7
 40
0.0
 40
0.0
 40
0.0
 40
0.0
 40
1.0
 40
1.0
 40
1.0
 40
2.0
 40
2.0
 40
2.0
 40
2.0
 10
3.17936348219948
 20
-2.874423556857638
 10
3.179722914072928
 20
-2.856505155623633
 10
3.206495368117
 20
-2.856509835978436
 10
3.206863164835403
 20
-2.874425324717902
 10
3.206537463946927
 20
-2.89168167964293
 10
3.179673690619893
 20
-2.891688480318546
 10
3.17936348219948
 20
-2.874423556857638
 97
        0
 97
        1
330
D0
 92
        1
 93
        1
 72
     4
 94
        3
 73
     0
 74
     0
 95
       44
 96
       40
 40
0.0
 40
0.0
 40
0.0
 40
0.0
 40
1.0
 40
1.0
 40
1.0
 40
2.0
 40
2.0
 40
2.0
 40
3.0
 40
3.0
 40
3.0
 40
4.0
 40
4.0
 40
4.0
 40
5.0
 40
5.0
 40
5.0
 40
6.0
 40
6.0
 40
6.0
 40
7.0
 40
7.0
 40
7.0
 40
8.0
 40
8.0
 40
8.0
 40
9.0
 40
9.0
 40
9.0
 40
10.0
 40
10.0
 40
10.0
 40
11.0
 40
11.0
 40
11.0
 40
12.0
 40
12.0
 40
12.0
 40
13.0
 40
13.0
 40
13.0
 40
13.0
 10
3.151863753466841
 20
-2.936150444878471
 10
3.172859947770992
 20
-2.936915365937288
 10
3.159233781030896
 20
-2.953646226283555
 10
3.165604825160433
 20
-2.963346927433563
 10
3.187508070645776
 20
-2.965854484529939
 10
3.205857198578264
 20
-2.971611484030113
 10
3.230083469545711
 20
-2.971735330559441
 10
3.25644201513454
 20
-2.998814843248787
 10
3.190402221704289
 20
-3.005357753667731
 10
3.213583859803646
 20
-2.984422471788194
 10
3.19781358193005
 20
-2.986170398362193
 10
3.182449860268889
 20
-2.998049880263339
 10
3.169734194911395
 20
-2.982437916428036
 10
3.156694069475621
 20
-2.986217736282014
 10
3.154013164705929
 20
-3.004367037240917
 10
3.165611596351658
 20
-3.01161543006559
 10
3.174522468131259
 20
-3.017567355700141
 10
3.194770653239755
 20
-3.008441769958583
 10
3.206862756294488
 20
-3.011622562839988
 10
3.217822611431289
 20
-3.022141652086816
 10
3.213957071399249
 20
-3.03455246780489
 10
3.198762838210023
 20
-3.033464743773227
 10
3.188286862927346
 20
-3.042044779858441
 10
3.179528278071277
 20
-3.037695060155341
 10
3.169733802789285
 20
-3.033305899252114
 10
3.145306029623535
 20
-3.054530336111168
 10
3.168679824969217
 20
-3.067789002023459
 10
3.193113176623771
 20
-3.059585646143204
 10
3.208916950478017
 20
-3.056357329669367
 10
3.226888101322022
 20
-3.066360947974594
 10
3.241083506322752
 20
-3.059594922022913
 10
3.244751665469341
 20
-3.034519346216724
 10
3.279276721331358
 20
-3.047855777970602
 10
3.261856426786253
 20
-3.073648700396372
 10
3.258498634751263
 20
-3.084170194217626
 10
3.136264679823498
 20
-3.085535197698428
 10
3.138109665065017
 20
-3.073658679284929
 10
3.148265310343263
 20
-3.043681791091721
 10
3.122499407938827
 20
-2.93309048639162
 10
3.151863753466841
 20
-2.936150444878471
 97
        0
 97
        1
330
D1
 92
        1
 93
        1
 72
     4
 94
        3
 73
     0
 74
     0
 95
       17
 96
       13
 40
0.0
 40
0.0
 40
0.0
 40
0.0
 40
1.0
 40
1.0
 40
1.0
 40
2.0
 40
2.0
 40
2.0
 40
3.0
 40
3.0
 40
3.0
 40
4.0
 40
4.0
 40
4.0
 40
4.0
 10
3.192967540359202
 20
-2.922397189670138
 10
3.159638742123231
 20
-2.932777608573878
 10
3.111585305789553
 20
-2.845948674099569
 10
3.157973251095136
 20
-2.857908916628464
 10
3.158304201589076
 20
-2.876269383310525
 10
3.173589202031368
 20
-2.899265332832934
 10
3.193108200140765
 20
-2.901925502762979
 10
3.212100799884688
 20
-2.898803385804184
 10
3.228437221656286
 20
-2.876264807123321
 10
3.228390087354088
 20
-2.857926070362837
 10
3.275786316136367
 20
-2.850551083704241
 10
3.227218697946176
 20
-2.927813520041417
 10
3.192967540359202
 20
-2.922397189670138
 97
        0
 97
        1
330
D2
 75
     2
 76
     1
 98
        1
 10
0.0
 20
0.0
450
        0
451
        0
460
0.0
461
0.0
452
        0
462
0.0
453
        0
470

  0
SPLINE
  5
D4
330
7F
100
AcDbEntity
  8
Layer 1
100
AcDbSpline
210
0.0
220
0.0
230
1.0
 70
     9
 71
     3
 72
    29
 73
    25
 74
     0
 42
0.0000000001
 43
0.0000000001
 40
0.0
 40
0.0
 40
0.0
 40
0.0
 40
1.0
 40
1.0
 40
1.0
 40
2.0
 40
2.0
 40
2.0
 40
3.0
 40
3.0
 40
3.0
 40
4.0
 40
4.0
 40
4.0
 40
5.0
 40
5.0
 40
5.0
 40
6.0
 40
6.0
 40
6.0
 40
7.0
 40
7.0
 40
7.0
 40
8.0
 40
8.0
 40
8.0
 40
8.0
 10
3.344965424473785
 20
-3.145094129774305
 30
0.0
 10
3.372205030050609
 20
-3.138144044428802
 30
0.0
 10
3.352448309750027
 20
-3.244414725333803
 30
0.0
 10
3.358109312618277
 20
-3.265175550668736
 30
0.0
 10
3.351167395823633
 20
-3.289736080139732
 30
0.0
 10
3.377606344835473
 20
-3.378136650942817
 30
0.0
 10
3.335654449996165
 20
-3.364326015608841
 30
0.0
 10
3.325543220741009
 20
-3.346860597386971
 30
0.0
 10
3.349839123257639
 20
-3.31420085215772
 30
0.0
 10
3.332579121404175
 20
-3.292828289109327
 30
0.0
 10
3.334017254898058
 20
-3.260897360074611
 30
0.0
 10
3.337669806000298
 20
-3.267827637672287
 30
0.0
 10
3.309056871045906
 20
-3.261123487220364
 30
0.0
 10
3.291254939223487
 20
-3.234603656616943
 30
0.0
 10
3.345968954837505
 20
-3.255997672338114
 30
0.0
 10
3.33823819881675
 20
-3.225380037024668
 30
0.0
 10
3.339007978598538
 20
-3.204463268827073
 30
0.0
 10
3.332914553913547
 20
-3.183130507629799
 30
0.0
 10
3.331524018026723
 20
-3.164977270267222
 30
0.0
 10
3.331205572064466
 20
-3.157755877447761
 30
0.0
 10
3.33201526069427
 20
-3.158537296251589
 30
0.0
 10
3.324796789742397
 20
-3.15823013162219
 30
0.0
 10
3.290260440823822
 20
-3.152710819545328
 30
0.0
 10
3.331132992874042
 20
-3.140105606968732
 30
0.0
 10
3.344965424473785
 20
-3.145094129774305
 30
0.0
  0
SPLINE
  5
D5
330
7F
100
AcDbEntity
  8
Layer 1
100
AcDbSpline
210
0.0
220
0.0
230
1.0
 70
     9
 71
     3
 72
    11
 73
     7
 74
     0
 42
0.0000000001
 43
0.0000000001
 40
0.0
 40
0.0
 40
0.0
 40
0.0
 40
1.0
 40
1.0
 40
1.0
 40
2.0
 40
2.0
 40
2.0
 40
2.0
 10
3.28477119704323
 20
-3.145094129774305
 30
0.0
 10
3.312152811968492
 20
-3.142356996715407
 30
0.0
 10
3.310216730567781
 20
-3.180656670125396
 30
0.0
 10
3.284769674580552
 20
-3.178398919919787
 30
0.0
 10
3.268310969793269
 20
-3.177994442314974
 30
0.0
 10
3.265695247847171
 20
-3.145326114508318
 30
0.0
 10
3.28477119704323
 20
-3.145094129774305
 30
0.0
  0
SPLINE
  5
D6
330
7F
100
AcDbEntity
  8
Layer 1
100
AcDbSpline
210
0.0
220
0.0
230
1.0
 70
     9
 71
     3
 72
    35
 73
    31
 74
     0
 42
0.0000000001
 43
0.0000000001
 40
0.0
 40
0.0
 40
0.0
 40
0.0
 40
1.0
 40
1.0
 40
1.0
 40
2.0
 40
2.0
 40
2.0
 40
3.0
 40
3.0
 40
3.0
 40
4.0
 40
4.0
 40
4.0
 40
5.0
 40
5.0
 40
5.0
 40
6.0
 40
6.0
 40
6.0
 40
7.0
 40
7.0
 40
7.0
 40
8.0
 40
8.0
 40
8.0
 40
9.0
 40
9.0
 40
9.0
 40
10.0
 40
10.0
 40
10.0
 40
10.0
 10
3.28477119704323
 20
-3.184814453125
 30
0.0
 10
3.312305780304932
 20
-3.190127520057798
 30
0.0
 10
3.292030398504594
 20
-3.279654243001219
 30
0.0
 10
3.297915788292129
 20
-3.304895048926103
 30
0.0
 10
3.299513376282119
 20
-3.339302701807418
 30
0.0
 10
3.302883314556247
 20
-3.36677663829889
 30
0.0
 10
3.258181703653071
 20
-3.358364467702295
 30
0.0
 10
3.2393734267958
 20
-3.362039448885537
 30
0.0
 10
3.168168203007073
 20
-3.357474730883382
 30
0.0
 10
3.211430771706659
 20
-3.331777163178432
 30
0.0
 10
3.233646802062215
 20
-3.328173991075004
 30
0.0
 10
3.259400893559801
 20
-3.335925871108694
 30
0.0
 10
3.278049155494537
 20
-3.338518100370783
 30
0.0
 10
3.284843150227616
 20
-3.327110378788044
 30
0.0
 10
3.270746171854423
 20
-3.32294787519115
 30
0.0
 10
3.271322726437599
 20
-3.311923584423311
 30
0.0
 10
3.269533718215673
 20
-3.301703418988128
 30
0.0
 10
3.284093648840515
 20
-3.293818567791769
 30
0.0
 10
3.278052625582947
 20
-3.285034205656693
 30
0.0
 10
3.257773925554576
 20
-3.262416462546702
 30
0.0
 10
3.209776003204979
 20
-3.301138323865731
 30
0.0
 10
3.182104296656727
 20
-3.280902798118454
 30
0.0
 10
3.166011183224339
 20
-3.258897980712238
 30
0.0
 10
3.217338975484292
 20
-3.258821464965661
 30
0.0
 10
3.231598740033872
 20
-3.258447015900034
 30
0.0
 10
3.246400262102825
 20
-3.258978550493338
 30
0.0
 10
3.276063224484838
 20
-3.280993500142686
 30
0.0
 10
3.280798854693936
 20
-3.257230336599832
 30
0.0
 10
3.280896855182997
 20
-3.237662516436178
 30
0.0
 10
3.268939717000623
 20
-3.197398189989105
 30
0.0
 10
3.28477119704323
 20
-3.184814453125
 30
0.0
  0
SPLINE
  5
D7
330
7F
100
AcDbEntity
  8
Layer 1
100
AcDbSpline
210
0.0
220
0.0
230
1.0
 70
     9
 71
     3
 72
    11
 73
     7
 74
     0
 42
0.0000000001
 43
0.0000000001
 40
0.0
 40
0.0
 40
0.0
 40
0.0
 40
1.0
 40
1.0
 40
1.0
 40
2.0
 40
2.0
 40
2.0
 40
2.0
 10
3.191272119352257
 20
-3.211703830295138
 30
0.0
 10
3.172655284209516
 20
-3.211495715418966
 30
0.0
 10
3.174969791883288
 20
-3.178625497966372
 30
0.0
 10
3.191272410442744
 20
-3.178399042440382
 30
0.0
 10
3.216731475707875
 20
-3.176090063132581
 30
0.0
 10
3.218848050843171
 20
-3.21470021502009
 30
0.0
 10
3.191272119352257
 20
-3.211703830295138
 30
0.0
  0
SPLINE
  5
D8
330
7F
100
AcDbEntity
  8
Layer 1
100
AcDbSpline
210
0.0
220
0.0
230
1.0
 70
     9
 71
     3
 72
    29
 73
    25
 74
     0
 42
0.0000000001
 43
0.0000000001
 40
0.0
 40
0.0
 40
0.0
 40
0.0
 40
1.0
 40
1.0
 40
1.0
 40
2.0
 40
2.0
 40
2.0
 40
3.0
 40
3.0
 40
3.0
 40
4.0
 40
4.0
 40
4.0
 40
5.0
 40
5.0
 40
5.0
 40
6.0
 40
6.0
 40
6.0
 40
7.0
 40
7.0
 40
7.0
 40
8.0
 40
8.0
 40
8.0
 40
8.0
 10
3.198297944005035
 20
-3.164950900607638
 30
0.0
 10
3.132440895320946
 20
-3.154112048261531
 30
0.0
 10
3.175467447927303
 20
-3.21617362778967
 30
0.0
 10
3.163614350524931
 20
-3.253143160239813
 30
0.0
 10
3.154262379175381
 20
-3.283937104947843
 30
0.0
 10
3.165083660821222
 20
-3.317558109300559
 30
0.0
 10
3.164684877975509
 20
-3.351649626358607
 30
0.0
 10
3.15447665643526
 20
-3.383138463154864
 30
0.0
 10
3.130611956723883
 20
-3.352594181628647
 30
0.0
 10
3.138111623399039
 20
-3.331785910748648
 30
0.0
 10
3.138110342876277
 20
-3.297665412500413
 30
0.0
 10
3.138098940372868
 20
-3.259242370183717
 30
0.0
 10
3.138103731080629
 20
-3.225145093519788
 30
0.0
 10
3.137122503259142
 20
-3.190429772150574
 30
0.0
 10
3.131109309508549
 20
-3.143237515980015
 30
0.0
 10
3.178134787995746
 20
-3.145098226784221
 30
0.0
 10
3.206681170734175
 20
-3.142972609496571
 30
0.0
 10
3.228391991723469
 20
-3.133900301787825
 30
0.0
 10
3.251464137141409
 20
-3.158240942390749
 30
0.0
 10
3.254338912773656
 20
-3.174853016250469
 30
0.0
 10
3.261201025193157
 20
-3.273132726460074
 30
0.0
 10
3.231594341599879
 20
-3.225150194943454
 30
0.0
 10
3.230967470359119
 20
-3.19776225894802
 30
0.0
 10
3.24105518218366
 20
-3.154639075035561
 30
0.0
 10
3.198297944005035
 20
-3.164950900607638
 30
0.0
  0
HATCH
  5
D9
330
7F
100
AcDbEntity
  8
Layer 1
 62
   250
420
  2301728
440
 33554687
100
AcDbHatch
 10
0.0
 20
0.0
 30
0.0
210
0.0
220
0.0
230
1.0
  2
SOLID
 70
     1
 71
     1
 91
        5
 92
        1
 93
        1
 72
     4
 94
        3
 73
     0
 74
     0
 95
       29
 96
       25
 40
0.0
 40
0.0
 40
0.0
 40
0.0
 40
1.0
 40
1.0
 40
1.0
 40
2.0
 40
2.0
 40
2.0
 40
3.0
 40
3.0
 40
3.0
 40
4.0
 40
4.0
 40
4.0
 40
5.0
 40
5.0
 40
5.0
 40
6.0
 40
6.0
 40
6.0
 40
7.0
 40
7.0
 40
7.0
 40
8.0
 40
8.0
 40
8.0
 40
8.0
 10
3.344965424473785
 20
-3.145094129774305
 10
3.372205030050609
 20
-3.138144044428802
 10
3.352448309750027
 20
-3.244414725333803
 10
3.358109312618277
 20
-3.265175550668736
 10
3.351167395823633
 20
-3.289736080139732
 10
3.377606344835473
 20
-3.378136650942817
 10
3.335654449996165
 20
-3.364326015608841
 10
3.325543220741009
 20
-3.346860597386971
 10
3.349839123257639
 20
-3.31420085215772
 10
3.332579121404175
 20
-3.292828289109327
 10
3.334017254898058
 20
-3.260897360074611
 10
3.337669806000298
 20
-3.267827637672287
 10
3.309056871045906
 20
-3.261123487220364
 10
3.291254939223487
 20
-3.234603656616943
 10
3.345968954837505
 20
-3.255997672338114
 10
3.33823819881675
 20
-3.225380037024668
 10
3.339007978598538
 20
-3.204463268827073
 10
3.332914553913547
 20
-3.183130507629799
 10
3.331524018026723
 20
-3.164977270267222
 10
3.331205572064466
 20
-3.157755877447761
 10
3.33201526069427
 20
-3.158537296251589
 10
3.324796789742397
 20
-3.15823013162219
 10
3.290260440823822
 20
-3.152710819545328
 10
3.331132992874042
 20
-3.140105606968732
 10
3.344965424473785
 20
-3.145094129774305
 97
        0
 97
        1
330
D4
 92
        1
 93
        1
 72
     4
 94
        3
 73
     0
 74
     0
 95
       11
 96
        7
 40
0.0
 40
0.0
 40
0.0
 40
0.0
 40
1.0
 40
1.0
 40
1.0
 40
2.0
 40
2.0
 40
2.0
 40
2.0
 10
3.28477119704323
 20
-3.145094129774305
 10
3.312152811968492
 20
-3.142356996715407
 10
3.310216730567781
 20
-3.180656670125396
 10
3.284769674580552
 20
-3.178398919919787
 10
3.268310969793269
 20
-3.177994442314974
 10
3.265695247847171
 20
-3.145326114508318
 10
3.28477119704323
 20
-3.145094129774305
 97
        0
 97
        1
330
D5
 92
        1
 93
        1
 72
     4
 94
        3
 73
     0
 74
     0
 95
       35
 96
       31
 40
0.0
 40
0.0
 40
0.0
 40
0.0
 40
1.0
 40
1.0
 40
1.0
 40
2.0
 40
2.0
 40
2.0
 40
3.0
 40
3.0
 40
3.0
 40
4.0
 40
4.0
 40
4.0
 40
5.0
 40
5.0
 40
5.0
 40
6.0
 40
6.0
 40
6.0
 40
7.0
 40
7.0
 40
7.0
 40
8.0
 40
8.0
 40
8.0
 40
9.0
 40
9.0
 40
9.0
 40
10.0
 40
10.0
 40
10.0
 40
10.0
 10
3.28477119704323
 20
-3.184814453125
 10
3.312305780304932
 20
-3.190127520057798
 10
3.292030398504594
 20
-3.279654243001219
 10
3.297915788292129
 20
-3.304895048926103
 10
3.299513376282119
 20
-3.339302701807418
 10
3.302883314556247
 20
-3.36677663829889
 10
3.258181703653071
 20
-3.358364467702295
 10
3.2393734267958
 20
-3.362039448885537
 10
3.168168203007073
 20
-3.357474730883382
 10
3.211430771706659
 20
-3.331777163178432
 10
3.233646802062215
 20
-3.328173991075004
 10
3.259400893559801
 20
-3.335925871108694
 10
3.278049155494537
 20
-3.338518100370783
 10
3.284843150227616
 20
-3.327110378788044
 10
3.270746171854423
 20
-3.32294787519115
 10
3.271322726437599
 20
-3.311923584423311
 10
3.269533718215673
 20
-3.301703418988128
 10
3.284093648840515
 20
-3.293818567791769
 10
3.278052625582947
 20
-3.285034205656693
 10
3.257773925554576
 20
-3.262416462546702
 10
3.209776003204979
 20
-3.301138323865731
 10
3.182104296656727
 20
-3.280902798118454
 10
3.166011183224339
 20
-3.258897980712238
 10
3.217338975484292
 20
-3.258821464965661
 10
3.231598740033872
 20
-3.258447015900034
 10
3.246400262102825
 20
-3.258978550493338
 10
3.276063224484838
 20
-3.280993500142686
 10
3.280798854693936
 20
-3.257230336599832
 10
3.280896855182997
 20
-3.237662516436178
 10
3.268939717000623
 20
-3.197398189989105
 10
3.28477119704323
 20
-3.184814453125
 97
        0
 97
        1
330
D6
 92
        1
 93
        1
 72
     4
 94
        3
 73
     0
 74
     0
 95
       11
 96
        7
 40
0.0
 40
0.0
 40
0.0
 40
0.0
 40
1.0
 40
1.0
 40
1.0
 40
2.0
 40
2.0
 40
2.0
 40
2.0
 10
3.191272119352257
 20
-3.211703830295138
 10
3.172655284209516
 20
-3.211495715418966
 10
3.174969791883288
 20
-3.178625497966372
 10
3.191272410442744
 20
-3.178399042440382
 10
3.216731475707875
 20
-3.176090063132581
 10
3.218848050843171
 20
-3.21470021502009
 10
3.191272119352257
 20
-3.211703830295138
 97
        0
 97
        1
330
D7
 92
        1
 93
        1
 72
     4
 94
        3
 73
     0
 74
     0
 95
       29
 96
       25
 40
0.0
 40
0.0
 40
0.0
 40
0.0
 40
1.0
 40
1.0
 40
1.0
 40
2.0
 40
2.0
 40
2.0
 40
3.0
 40
3.0
 40
3.0
 40
4.0
 40
4.0
 40
4.0
 40
5.0
 40
5.0
 40
5.0
 40
6.0
 40
6.0
 40
6.0
 40
7.0
 40
7.0
 40
7.0
 40
8.0
 40
8.0
 40
8.0
 40
8.0
 10
3.198297944005035
 20
-3.164950900607638
 10
3.132440895320946
 20
-3.154112048261531
 10
3.175467447927303
 20
-3.21617362778967
 10
3.163614350524931
 20
-3.253143160239813
 10
3.154262379175381
 20
-3.283937104947843
 10
3.165083660821222
 20
-3.317558109300559
 10
3.164684877975509
 20
-3.351649626358607
 10
3.15447665643526
 20
-3.383138463154864
 10
3.130611956723883
 20
-3.352594181628647
 10
3.138111623399039
 20
-3.331785910748648
 10
3.138110342876277
 20
-3.297665412500413
 10
3.138098940372868
 20
-3.259242370183717
 10
3.138103731080629
 20
-3.225145093519788
 10
3.137122503259142
 20
-3.190429772150574
 10
3.131109309508549
 20
-3.143237515980015
 10
3.178134787995746
 20
-3.145098226784221
 10
3.206681170734175
 20
-3.142972609496571
 10
3.228391991723469
 20
-3.133900301787825
 10
3.251464137141409
 20
-3.158240942390749
 10
3.254338912773656
 20
-3.174853016250469
 10
3.261201025193157
 20
-3.273132726460074
 10
3.231594341599879
 20
-3.225150194943454
 10
3.230967470359119
 20
-3.19776225894802
 10
3.24105518218366
 20
-3.154639075035561
 10
3.198297944005035
 20
-3.164950900607638
 97
        0
 97
        1
330
D8
 75
     2
 76
     1
 98
        1
 10
0.0
 20
0.0
450
        0
451
        0
460
0.0
461
0.0
452
        0
462
0.0
453
        0
470

  0
SPLINE
  5
DA
330
7F
100
AcDbEntity
  8
Layer 1
100
AcDbSpline
210
0.0
220
0.0
230
1.0
 70
     9
 71
     3
 72
    11
 73
     7
 74
     0
 42
0.0000000001
 43
0.0000000001
 40
0.0
 40
0.0
 40
0.0
 40
0.0
 40
1.0
 40
1.0
 40
1.0
 40
2.0
 40
2.0
 40
2.0
 40
2.0
 10
3.303102088970313
 20
-3.622314453125
 30
0.0
 10
3.320693967332026
 20
-3.622658128051575
 30
0.0
 10
3.320691772858897
 20
-3.64947856048151
 30
0.0
 10
3.303100477626988
 20
-3.649814143568429
 30
0.0
 10
3.285519453587463
 20
-3.649471556255611
 30
0.0
 10
3.2855149028016
 20
-3.622657907334428
 30
0.0
 10
3.303102088970313
 20
-3.622314453125
 30
0.0
  0
SPLINE
  5
DB
330
7F
100
AcDbEntity
  8
Layer 1
100
AcDbSpline
210
0.0
220
0.0
230
1.0
 70
     9
 71
     3
 72
    17
 73
    13
 74
     0
 42
0.0000000001
 43
0.0000000001
 40
0.0
 40
0.0
 40
0.0
 40
0.0
 40
1.0
 40
1.0
 40
1.0
 40
2.0
 40
2.0
 40
2.0
 40
3.0
 40
3.0
 40
3.0
 40
4.0
 40
4.0
 40
4.0
 40
4.0
 10
3.303102088970313
 20
-3.608866373697916
 30
0.0
 10
3.280089965711554
 20
-3.608539869671529
 30
0.0
 10
3.292143694213323
 20
-3.574975201112427
 30
0.0
 10
3.289353426532733
 20
-3.560594155366061
 30
0.0
 10
3.292456427236818
 20
-3.544776627203721
 30
0.0
 10
3.279617789495205
 20
-3.508752886416522
 30
0.0
 10
3.303099448145985
 20
-3.505593941129922
 30
0.0
 10
3.326592146746583
 20
-3.508733800261855
 30
0.0
 10
3.313755976675401
 20
-3.544785155617672
 30
0.0
 10
3.316858278892039
 20
-3.560593534069312
 30
0.0
 10
3.314096410883671
 20
-3.57505119497206
 30
0.0
 10
3.326077263034259
 20
-3.608372209111368
 30
0.0
 10
3.303102088970313
 20
-3.608866373697916
 30
0.0
  0
SPLINE
  5
DC
330
7F
100
AcDbEntity
  8
Layer 1
100
AcDbSpline
210
0.0
220
0.0
230
1.0
 70
     9
 71
     3
 72
    26
 73
    22
 74
     0
 42
0.0000000001
 43
0.0000000001
 40
0.0
 40
0.0
 40
0.0
 40
0.0
 40
1.0
 40
1.0
 40
1.0
 40
2.0
 40
2.0
 40
2.0
 40
3.0
 40
3.0
 40
3.0
 40
4.0
 40
4.0
 40
4.0
 40
5.0
 40
5.0
 40
5.0
 40
6.0
 40
6.0
 40
6.0
 40
7.0
 40
7.0
 40
7.0
 40
7.0
 10
3.351075721782813
 20
-3.471062554253471
 30
0.0
 10
3.380176737255232
 20
-3.48206375516405
 30
0.0
 10
3.358489156378507
 20
-3.541252333364139
 30
0.0
 10
3.364838350955665
 20
-3.567311627591063
 30
0.0
 10
3.364803698423795
 20
-3.587569784728556
 30
0.0
 10
3.364847197137312
 20
-3.615870603028825
 30
0.0
 10
3.364828921656491
 20
-3.636060822106274
 30
0.0
 10
3.363792804436898
 20
-3.659815745180973
 30
0.0
 10
3.325917649207263
 20
-3.647341888507993
 30
0.0
 10
3.340685981079673
 20
-3.628273323525086
 30
0.0
 10
3.3373774630634
 20
-3.587800977916685
 30
0.0
 10
3.354803322449849
 20
-3.53356892546022
 30
0.0
 10
3.33734053085229
 20
-3.491839997591657
 30
0.0
 10
3.329395236462889
 20
-3.483859456563196
 30
0.0
 10
3.299326624695443
 20
-3.502514291881298
 30
0.0
 10
3.296075469388976
 20
-3.484815325357582
 30
0.0
 10
3.288889546849784
 20
-3.470481433273751
 30
0.0
 10
3.28768119958128
 20
-3.413179793957573
 30
0.0
 10
3.309064499840941
 20
-3.427358208943928
 30
0.0
 10
3.30900689924998
 20
-3.466729755935476
 30
0.0
 10
3.308035451688599
 20
-3.477817512952015
 30
0.0
 10
3.351075721782813
 20
-3.471062554253471
 30
0.0
  0
SPLINE
  5
DD
330
7F
100
AcDbEntity
  8
Layer 1
100
AcDbSpline
210
0.0
220
0.0
230
1.0
 70
     9
 71
     3
 72
    11
 73
     7
 74
     0
 42
0.0000000001
 43
0.0000000001
 40
0.0
 40
0.0
 40
0.0
 40
0.0
 40
1.0
 40
1.0
 40
1.0
 40
2.0
 40
2.0
 40
2.0
 40
2.0
 10
3.206856429248091
 20
-3.615288628472221
 30
0.0
 10
3.192225440504103
 20
-3.616751080423897
 30
0.0
 10
3.178223022865419
 20
-3.603280391866506
 30
0.0
 10
3.191272313103834
 20
-3.592365546307796
 30
0.0
 10
3.213618312253212
 20
-3.575041846791337
 30
0.0
 10
3.247003059355834
 20
-3.611247189696213
 30
0.0
 10
3.206856429248091
 20
-3.615288628472221
 30
0.0
  0
SPLINE
  5
DE
330
7F
100
AcDbEntity
  8
Layer 1
100
AcDbSpline
210
0.0
220
0.0
230
1.0
 70
     9
 71
     3
 72
    11
 73
     7
 74
     0
 42
0.0000000001
 43
0.0000000001
 40
0.0
 40
0.0
 40
0.0
 40
0.0
 40
1.0
 40
1.0
 40
1.0
 40
2.0
 40
2.0
 40
2.0
 40
2.0
 10
3.18607734938698
 20
-3.567314995659721
 30
0.0
 10
3.110839621092243
 20
-3.60698818869682
 30
0.0
 10
3.217678021123409
 20
-3.660440737026141
 30
0.0
 10
3.249177354667873
 20
-3.611460109865409
 30
0.0
 10
3.268232274300367
 20
-3.578319530350856
 30
0.0
 10
3.212963328596452
 20
-3.560743741439346
 30
0.0
 10
3.18607734938698
 20
-3.567314995659721
 30
0.0
  0
SPLINE
  5
DF
330
7F
100
AcDbEntity
  8
Layer 1
100
AcDbSpline
210
0.0
220
0.0
230
1.0
 70
     9
 71
     3
 72
    11
 73
     7
 74
     0
 42
0.0000000001
 43
0.0000000001
 40
0.0
 40
0.0
 40
0.0
 40
0.0
 40
1.0
 40
1.0
 40
1.0
 40
2.0
 40
2.0
 40
2.0
 40
2.0
 10
3.179051524734202
 20
-3.649814181857638
 30
0.0
 10
3.039310301642242
 20
-3.576484251594302
 30
0.0
 10
3.282390893621835
 20
-3.477956999762997
 30
0.0
 10
3.274691083719226
 20
-3.612086797861416
 30
0.0
 10
3.259728932003617
 20
-3.649907731665153
 30
0.0
 10
3.214669507890448
 20
-3.652101248317118
 30
0.0
 10
3.179051524734202
 20
-3.649814181857638
 30
0.0
  0
SPLINE
  5
E0
330
7F
100
AcDbEntity
  8
Layer 1
100
AcDbSpline
210
0.0
220
0.0
230
1.0
 70
     9
 71
     3
 72
    26
 73
    22
 74
     0
 42
0.0000000001
 43
0.0000000001
 40
0.0
 40
0.0
 40
0.0
 40
0.0
 40
1.0
 40
1.0
 40
1.0
 40
2.0
 40
2.0
 40
2.0
 40
3.0
 40
3.0
 40
3.0
 40
4.0
 40
4.0
 40
4.0
 40
5.0
 40
5.0
 40
5.0
 40
6.0
 40
6.0
 40
6.0
 40
7.0
 40
7.0
 40
7.0
 40
7.0
 10
3.220602902772396
 20
-3.49856228298611
 30
0.0
 10
3.24166973902081
 20
-3.501541720675036
 30
0.0
 10
3.252243252030476
 20
-3.491572752809259
 30
0.0
 10
3.248098089793996
 20
-3.471059056484654
 30
0.0
 10
3.247693109238853
 20
-3.464082365093796
 30
0.0
 10
3.250801191152832
 20
-3.454894673355384
 30
0.0
 10
3.240920109964601
 20
-3.453498959640985
 30
0.0
 10
3.221984230977
 20
-3.445140514623605
 30
0.0
 10
3.106026880184559
 20
-3.462822031081132
 30
0.0
 10
3.151846335878568
 20
-3.430115218894469
 30
0.0
 10
3.216102400463606
 20
-3.4338084710448
 30
0.0
 10
3.287767284050952
 20
-3.405223451902631
 30
0.0
 10
3.267652618209025
 20
-3.501319285005921
 30
0.0
 10
3.251518671748915
 20
-3.519754474065141
 30
0.0
 10
3.223765050959918
 20
-3.521003490553539
 30
0.0
 10
3.199823104032121
 20
-3.519337985918733
 30
0.0
 10
3.184063126644774
 20
-3.516276152487029
 30
0.0
 10
3.148248119312382
 20
-3.529012122358405
 30
0.0
 10
3.14512861652367
 20
-3.50559746796566
 30
0.0
 10
3.158265090128629
 20
-3.488908087601695
 30
0.0
 10
3.199569768157617
 20
-3.502978109170423
 30
0.0
 10
3.220602902772396
 20
-3.49856228298611
 30
0.0
  0
HATCH
  5
E1
330
7F
100
AcDbEntity
  8
Layer 1
 62
   250
420
  2301728
440
 33554687
100
AcDbHatch
 10
0.0
 20
0.0
 30
0.0
210
0.0
220
0.0
230
1.0
  2
SOLID
 70
     1
 71
     1
 91
        7
 92
        1
 93
        1
 72
     4
 94
        3
 73
     0
 74
     0
 95
       11
 96
        7
 40
0.0
 40
0.0
 40
0.0
 40
0.0
 40
1.0
 40
1.0
 40
1.0
 40
2.0
 40
2.0
 40
2.0
 40
2.0
 10
3.303102088970313
 20
-3.622314453125
 10
3.320693967332026
 20
-3.622658128051575
 10
3.320691772858897
 20
-3.64947856048151
 10
3.303100477626988
 20
-3.649814143568429
 10
3.285519453587463
 20
-3.649471556255611
 10
3.2855149028016
 20
-3.622657907334428
 10
3.303102088970313
 20
-3.622314453125
 97
        0
 97
        1
330
DA
 92
        1
 93
        1
 72
     4
 94
        3
 73
     0
 74
     0
 95
       17
 96
       13
 40
0.0
 40
0.0
 40
0.0
 40
0.0
 40
1.0
 40
1.0
 40
1.0
 40
2.0
 40
2.0
 40
2.0
 40
3.0
 40
3.0
 40
3.0
 40
4.0
 40
4.0
 40
4.0
 40
4.0
 10
3.303102088970313
 20
-3.608866373697916
 10
3.280089965711554
 20
-3.608539869671529
 10
3.292143694213323
 20
-3.574975201112427
 10
3.289353426532733
 20
-3.560594155366061
 10
3.292456427236818
 20
-3.544776627203721
 10
3.279617789495205
 20
-3.508752886416522
 10
3.303099448145985
 20
-3.505593941129922
 10
3.326592146746583
 20
-3.508733800261855
 10
3.313755976675401
 20
-3.544785155617672
 10
3.316858278892039
 20
-3.560593534069312
 10
3.314096410883671
 20
-3.57505119497206
 10
3.326077263034259
 20
-3.608372209111368
 10
3.303102088970313
 20
-3.608866373697916
 97
        0
 97
        1
330
DB
 92
        1
 93
        1
 72
     4
 94
        3
 73
     0
 74
     0
 95
       26
 96
       22
 40
0.0
 40
0.0
 40
0.0
 40
0.0
 40
1.0
 40
1.0
 40
1.0
 40
2.0
 40
2.0
 40
2.0
 40
3.0
 40
3.0
 40
3.0
 40
4.0
 40
4.0
 40
4.0
 40
5.0
 40
5.0
 40
5.0
 40
6.0
 40
6.0
 40
6.0
 40
7.0
 40
7.0
 40
7.0
 40
7.0
 10
3.351075721782813
 20
-3.471062554253471
 10
3.380176737255232
 20
-3.48206375516405
 10
3.358489156378507
 20
-3.541252333364139
 10
3.364838350955665
 20
-3.567311627591063
 10
3.364803698423795
 20
-3.587569784728556
 10
3.364847197137312
 20
-3.615870603028825
 10
3.364828921656491
 20
-3.636060822106274
 10
3.363792804436898
 20
-3.659815745180973
 10
3.325917649207263
 20
-3.647341888507993
 10
3.340685981079673
 20
-3.628273323525086
 10
3.3373774630634
 20
-3.587800977916685
 10
3.354803322449849
 20
-3.53356892546022
 10
3.33734053085229
 20
-3.491839997591657
 10
3.329395236462889
 20
-3.483859456563196
 10
3.299326624695443
 20
-3.502514291881298
 10
3.296075469388976
 20
-3.484815325357582
 10
3.288889546849784
 20
-3.470481433273751
 10
3.28768119958128
 20
-3.413179793957573
 10
3.309064499840941
 20
-3.427358208943928
 10
3.30900689924998
 20
-3.466729755935476
 10
3.308035451688599
 20
-3.477817512952015
 10
3.351075721782813
 20
-3.471062554253471
 97
        0
 97
        1
330
DC
 92
        1
 93
        1
 72
     4
 94
        3
 73
     0
 74
     0
 95
       11
 96
        7
 40
0.0
 40
0.0
 40
0.0
 40
0.0
 40
1.0
 40
1.0
 40
1.0
 40
2.0
 40
2.0
 40
2.0
 40
2.0
 10
3.206856429248091
 20
-3.615288628472221
 10
3.192225440504103
 20
-3.616751080423897
 10
3.178223022865419
 20
-3.603280391866506
 10
3.191272313103834
 20
-3.592365546307796
 10
3.213618312253212
 20
-3.575041846791337
 10
3.247003059355834
 20
-3.611247189696213
 10
3.206856429248091
 20
-3.615288628472221
 97
        0
 97
        1
330
DD
 92
        1
 93
        1
 72
     4
 94
        3
 73
     0
 74
     0
 95
       11
 96
        7
 40
0.0
 40
0.0
 40
0.0
 40
0.0
 40
1.0
 40
1.0
 40
1.0
 40
2.0
 40
2.0
 40
2.0
 40
2.0
 10
3.18607734938698
 20
-3.567314995659721
 10
3.110839621092243
 20
-3.60698818869682
 10
3.217678021123409
 20
-3.660440737026141
 10
3.249177354667873
 20
-3.611460109865409
 10
3.268232274300367
 20
-3.578319530350856
 10
3.212963328596452
 20
-3.560743741439346
 10
3.18607734938698
 20
-3.567314995659721
 97
        0
 97
        1
330
DE
 92
        1
 93
        1
 72
     4
 94
        3
 73
     0
 74
     0
 95
       11
 96
        7
 40
0.0
 40
0.0
 40
0.0
 40
0.0
 40
1.0
 40
1.0
 40
1.0
 40
2.0
 40
2.0
 40
2.0
 40
2.0
 10
3.179051524734202
 20
-3.649814181857638
 10
3.039310301642242
 20
-3.576484251594302
 10
3.282390893621835
 20
-3.477956999762997
 10
3.274691083719226
 20
-3.612086797861416
 10
3.259728932003617
 20
-3.649907731665153
 10
3.214669507890448
 20
-3.652101248317118
 10
3.179051524734202
 20
-3.649814181857638
 97
        0
 97
        1
330
DF
 92
        1
 93
        1
 72
     4
 94
        3
 73
     0
 74
     0
 95
       26
 96
       22
 40
0.0
 40
0.0
 40
0.0
 40
0.0
 40
1.0
 40
1.0
 40
1.0
 40
2.0
 40
2.0
 40
2.0
 40
3.0
 40
3.0
 40
3.0
 40
4.0
 40
4.0
 40
4.0
 40
5.0
 40
5.0
 40
5.0
 40
6.0
 40
6.0
 40
6.0
 40
7.0
 40
7.0
 40
7.0
 40
7.0
 10
3.220602902772396
 20
-3.49856228298611
 10
3.24166973902081
 20
-3.501541720675036
 10
3.252243252030476
 20
-3.491572752809259
 10
3.248098089793996
 20
-3.471059056484654
 10
3.247693109238853
 20
-3.464082365093796
 10
3.250801191152832
 20
-3.454894673355384
 10
3.240920109964601
 20
-3.453498959640985
 10
3.221984230977
 20
-3.445140514623605
 10
3.106026880184559
 20
-3.462822031081132
 10
3.151846335878568
 20
-3.430115218894469
 10
3.216102400463606
 20
-3.4338084710448
 10
3.287767284050952
 20
-3.405223451902631
 10
3.267652618209025
 20
-3.501319285005921
 10
3.251518671748915
 20
-3.519754474065141
 10
3.223765050959918
 20
-3.521003490553539
 10
3.199823104032121
 20
-3.519337985918733
 10
3.184063126644774
 20
-3.516276152487029
 10
3.148248119312382
 20
-3.529012122358405
 10
3.14512861652367
 20
-3.50559746796566
 10
3.158265090128629
 20
-3.488908087601695
 10
3.199569768157617
 20
-3.502978109170423
 10
3.220602902772396
 20
-3.49856228298611
 97
        0
 97
        1
330
E0
 75
     2
 76
     1
 98
        1
 10
0.0
 20
0.0
450
        0
451
        0
460
0.0
461
0.0
452
        0
462
0.0
453
        0
470

  0
SPLINE
  5
E2
330
7F
100
AcDbEntity
  8
Layer 1
100
AcDbSpline
210
0.0
220
0.0
230
1.0
 70
     9
 71
     3
 72
    11
 73
     7
 74
     0
 42
0.0000000001
 43
0.0000000001
 40
0.0
 40
0.0
 40
0.0
 40
0.0
 40
1.0
 40
1.0
 40
1.0
 40
2.0
 40
2.0
 40
2.0
 40
2.0
 10
3.298212494786285
 20
-3.901536729600694
 30
0.0
 10
3.32224179409358
 20
-3.902811118261625
 30
0.0
 10
3.322232156533813
 20
-3.92685898585714
 30
0.0
 10
3.298208213637242
 20
-3.928120734209301
 30
0.0
 10
3.281083765046837
 20
-3.927801524791144
 30
0.0
 10
3.280940659058993
 20
-3.901677925067941
 30
0.0
 10
3.298212494786285
 20
-3.901536729600694
 30
0.0
  0
SPLINE
  5
E3
330
7F
100
AcDbEntity
  8
Layer 1
100
AcDbSpline
210
0.0
220
0.0
230
1.0
 70
     9
 71
     3
 72
    11
 73
     7
 74
     0
 42
0.0000000001
 43
0.0000000001
 40
0.0
 40
0.0
 40
0.0
 40
0.0
 40
1.0
 40
1.0
 40
1.0
 40
2.0
 40
2.0
 40
2.0
 40
2.0
 10
3.318076047303646
 20
-3.768161349826388
 30
0.0
 10
3.314387982673173
 20
-3.783083232483628
 30
0.0
 10
3.285539060947472
 20
-3.787128656251613
 30
0.0
 10
3.284771742784098
 20
-3.768160507982416
 30
0.0
 10
3.285343318847152
 20
-3.749040888220342
 30
0.0
 10
3.314437187348617
 20
-3.753326332147556
 30
0.0
 10
3.318076047303646
 20
-3.768161349826388
 30
0.0
  0
SPLINE
  5
E4
330
7F
100
AcDbEntity
  8
Layer 1
100
AcDbSpline
210
0.0
220
0.0
230
1.0
 70
     9
 71
     3
 72
    38
 73
    34
 74
     0
 42
0.0000000001
 43
0.0000000001
 40
0.0
 40
0.0
 40
0.0
 40
0.0
 40
1.0
 40
1.0
 40
1.0
 40
2.0
 40
2.0
 40
2.0
 40
3.0
 40
3.0
 40
3.0
 40
4.0
 40
4.0
 40
4.0
 40
5.0
 40
5.0
 40
5.0
 40
6.0
 40
6.0
 40
6.0
 40
7.0
 40
7.0
 40
7.0
 40
8.0
 40
8.0
 40
8.0
 40
9.0
 40
9.0
 40
9.0
 40
10.0
 40
10.0
 40
10.0
 40
11.0
 40
11.0
 40
11.0
 40
11.0
 10
3.351380897564063
 20
-3.707811143663194
 30
0.0
 10
3.379664168576873
 20
-3.711270432260423
 30
0.0
 10
3.35876502907475
 20
-3.821267999582801
 30
0.0
 10
3.364837699138522
 20
-3.848060566014421
 30
0.0
 10
3.369039010019693
 20
-3.876826143808582
 30
0.0
 10
3.353694887581544
 20
-3.901871477339416
 30
0.0
 10
3.364828477626676
 20
-3.928119665870895
 30
0.0
 10
3.317243346063277
 20
-3.957674079582337
 30
0.0
 10
3.359819675473759
 20
-3.896123413624915
 30
0.0
 10
3.33825026994201
 20
-3.881065096650445
 30
0.0
 10
3.330598672736186
 20
-3.875141104156
 30
0.0
 10
3.327528298009168
 20
-3.890259586379619
 30
0.0
 10
3.318075659434637
 20
-3.888086590811578
 30
0.0
 10
3.304811761655148
 20
-3.884269087366621
 30
0.0
 10
3.275868805232435
 20
-3.874961056015472
 30
0.0
 10
3.298212870472967
 20
-3.861506197296623
 30
0.0
 10
3.318091241305852
 20
-3.859394894261627
 30
0.0
 10
3.354996975829761
 20
-3.873754541948288
 30
0.0
 10
3.338241028163035
 20
-3.84103617868042
 30
0.0
 10
3.340099376478267
 20
-3.829453489738903
 30
0.0
 10
3.349048842631266
 20
-3.824446898363109
 30
0.0
 10
3.333961390928164
 20
-3.818428271696474
 30
0.0
 10
3.316495179356707
 20
-3.819699873426025
 30
0.0
 10
3.262409184728994
 20
-3.83457514774923
 30
0.0
 10
3.27208871662079
 20
-3.802378625612087
 30
0.0
 10
3.396029488509093
 20
-3.802320311565646
 30
0.0
 10
3.31560321308191
 20
-3.814136559173562
 30
0.0
 10
3.346479559636552
 20
-3.738696919509429
 30
0.0
 10
3.343868027246091
 20
-3.7252782918878
 30
0.0
 10
3.327430827907555
 20
-3.73523075637633
 30
0.0
 10
3.318076860027467
 20
-3.734395308861886
 30
0.0
 10
3.292311855378759
 20
-3.715443020010992
 30
0.0
 10
3.33632986311482
 20
-3.710927249763105
 30
0.0
 10
3.351380897564063
 20
-3.707811143663194
 30
0.0
  0
SPLINE
  5
E5
330
7F
100
AcDbEntity
  8
Layer 1
100
AcDbSpline
210
0.0
220
0.0
230
1.0
 70
     9
 71
     3
 72
    47
 73
    43
 74
     0
 42
0.0000000001
 43
0.0000000001
 40
0.0
 40
0.0
 40
0.0
 40
0.0
 40
1.0
 40
1.0
 40
1.0
 40
2.0
 40
2.0
 40
2.0
 40
3.0
 40
3.0
 40
3.0
 40
4.0
 40
4.0
 40
4.0
 40
5.0
 40
5.0
 40
5.0
 40
6.0
 40
6.0
 40
6.0
 40
7.0
 40
7.0
 40
7.0
 40
8.0
 40
8.0
 40
8.0
 40
9.0
 40
9.0
 40
9.0
 40
10.0
 40
10.0
 40
10.0
 40
11.0
 40
11.0
 40
11.0
 40
12.0
 40
12.0
 40
12.0
 40
13.0
 40
13.0
 40
13.0
 40
14.0
 40
14.0
 40
14.0
 40
14.0
 10
3.211128890185591
 20
-3.71453857421875
 30
0.0
 10
3.299452886807696
 20
-3.697812531013293
 30
0.0
 10
3.239420600200294
 20
-3.806133451166513
 30
0.0
 10
3.237244252194462
 20
-3.742191675995715
 30
0.0
 10
3.227104304604128
 20
-3.732534859705601
 30
0.0
 10
3.201373746227785
 20
-3.734023956702925
 30
0.0
 10
3.184549435682495
 20
-3.734398119323297
 30
0.0
 10
3.162202543918321
 20
-3.747287772676966
 30
0.0
 10
3.165026248593486
 20
-3.776018628853496
 30
0.0
 10
3.178127459465271
 20
-3.794589411575783
 30
0.0
 10
3.200411689498107
 20
-3.79480697691555
 30
0.0
 10
3.228573086532883
 20
-3.810129981760622
 30
0.0
 10
3.244439801922516
 20
-3.821467124059406
 30
0.0
 10
3.244425602084573
 20
-3.839240575062767
 30
0.0
 10
3.244439606521975
 20
-3.863604198109442
 30
0.0
 10
3.244433722629789
 20
-3.881368023265217
 30
0.0
 10
3.250758962910758
 20
-3.892825062270098
 30
0.0
 10
3.25854639859987
 20
-3.92241052209844
 30
0.0
 10
3.244438613011172
 20
-3.928123703694041
 30
0.0
 10
3.225195305409404
 20
-3.944577499312167
 30
0.0
 10
3.178264080145746
 20
-3.92969688869247
 30
0.0
 10
3.151513554977074
 20
-3.934545501047371
 30
0.0
 10
3.136994893605863
 20
-3.923089731593967
 30
0.0
 10
3.134540972936532
 20
-3.884155347315905
 30
0.0
 10
3.160569051902522
 20
-3.898631051448546
 30
0.0
 10
3.168601107402903
 20
-3.908963934178877
 30
0.0
 10
3.159722686954258
 20
-3.917829734157559
 30
0.0
 10
3.178131932922547
 20
-3.914669349844934
 30
0.0
 10
3.184840037184484
 20
-3.885117415232217
 30
0.0
 10
3.161268964066733
 20
-3.855485937149978
 30
0.0
 10
3.184559166830442
 20
-3.82789466182818
 30
0.0
 10
3.211271942895185
 20
-3.836164621359191
 30
0.0
 10
3.194390726194215
 20
-3.885562303092797
 30
0.0
 10
3.19524625379736
 20
-3.906728965737859
 30
0.0
 10
3.204156233866115
 20
-3.933956729936994
 30
0.0
 10
3.240221809298077
 20
-3.908666103984248
 30
0.0
 10
3.224571046249227
 20
-3.888091469733985
 30
0.0
 10
3.219650739431004
 20
-3.866848447768347
 30
0.0
 10
3.239627680500827
 20
-3.818824075307967
 30
0.0
 10
3.204717686556566
 20
-3.827896777502865
 30
0.0
 10
3.129937352196507
 20
-3.808780483933901
 30
0.0
 10
3.116241969713099
 20
-3.705442398385899
 30
0.0
 10
3.211128890185591
 20
-3.71453857421875
 30
0.0
  0
HATCH
  5
E6
330
7F
100
AcDbEntity
  8
Layer 1
 62
   250
420
  2301728
440
 33554687
100
AcDbHatch
 10
0.0
 20
0.0
 30
0.0
210
0.0
220
0.0
230
1.0
  2
SOLID
 70
     1
 71
     1
 91
        4
 92
        1
 93
        1
 72
     4
 94
        3
 73
     0
 74
     0
 95
       11
 96
        7
 40
0.0
 40
0.0
 40
0.0
 40
0.0
 40
1.0
 40
1.0
 40
1.0
 40
2.0
 40
2.0
 40
2.0
 40
2.0
 10
3.298212494786285
 20
-3.901536729600694
 10
3.32224179409358
 20
-3.902811118261625
 10
3.322232156533813
 20
-3.92685898585714
 10
3.298208213637242
 20
-3.928120734209301
 10
3.281083765046837
 20
-3.927801524791144
 10
3.280940659058993
 20
-3.901677925067941
 10
3.298212494786285
 20
-3.901536729600694
 97
        0
 97
        1
330
E2
 92
        1
 93
        1
 72
     4
 94
        3
 73
     0
 74
     0
 95
       11
 96
        7
 40
0.0
 40
0.0
 40
0.0
 40
0.0
 40
1.0
 40
1.0
 40
1.0
 40
2.0
 40
2.0
 40
2.0
 40
2.0
 10
3.318076047303646
 20
-3.768161349826388
 10
3.314387982673173
 20
-3.783083232483628
 10
3.285539060947472
 20
-3.787128656251613
 10
3.284771742784098
 20
-3.768160507982416
 10
3.285343318847152
 20
-3.749040888220342
 10
3.314437187348617
 20
-3.753326332147556
 10
3.318076047303646
 20
-3.768161349826388
 97
        0
 97
        1
330
E3
 92
        1
 93
        1
 72
     4
 94
        3
 73
     0
 74
     0
 95
       38
 96
       34
 40
0.0
 40
0.0
 40
0.0
 40
0.0
 40
1.0
 40
1.0
 40
1.0
 40
2.0
 40
2.0
 40
2.0
 40
3.0
 40
3.0
 40
3.0
 40
4.0
 40
4.0
 40
4.0
 40
5.0
 40
5.0
 40
5.0
 40
6.0
 40
6.0
 40
6.0
 40
7.0
 40
7.0
 40
7.0
 40
8.0
 40
8.0
 40
8.0
 40
9.0
 40
9.0
 40
9.0
 40
10.0
 40
10.0
 40
10.0
 40
11.0
 40
11.0
 40
11.0
 40
11.0
 10
3.351380897564063
 20
-3.707811143663194
 10
3.379664168576873
 20
-3.711270432260423
 10
3.35876502907475
 20
-3.821267999582801
 10
3.364837699138522
 20
-3.848060566014421
 10
3.369039010019693
 20
-3.876826143808582
 10
3.353694887581544
 20
-3.901871477339416
 10
3.364828477626676
 20
-3.928119665870895
 10
3.317243346063277
 20
-3.957674079582337
 10
3.359819675473759
 20
-3.896123413624915
 10
3.33825026994201
 20
-3.881065096650445
 10
3.330598672736186
 20
-3.875141104156
 10
3.327528298009168
 20
-3.890259586379619
 10
3.318075659434637
 20
-3.888086590811578
 10
3.304811761655148
 20
-3.884269087366621
 10
3.275868805232435
 20
-3.874961056015472
 10
3.298212870472967
 20
-3.861506197296623
 10
3.318091241305852
 20
-3.859394894261627
 10
3.354996975829761
 20
-3.873754541948288
 10
3.338241028163035
 20
-3.84103617868042
 10
3.340099376478267
 20
-3.829453489738903
 10
3.349048842631266
 20
-3.824446898363109
 10
3.333961390928164
 20
-3.818428271696474
 10
3.316495179356707
 20
-3.819699873426025
 10
3.262409184728994
 20
-3.83457514774923
 10
3.27208871662079
 20
-3.802378625612087
 10
3.396029488509093
 20
-3.802320311565646
 10
3.31560321308191
 20
-3.814136559173562
 10
3.346479559636552
 20
-3.738696919509429
 10
3.343868027246091
 20
-3.7252782918878
 10
3.327430827907555
 20
-3.73523075637633
 10
3.318076860027467
 20
-3.734395308861886
 10
3.292311855378759
 20
-3.715443020010992
 10
3.33632986311482
 20
-3.710927249763105
 10
3.351380897564063
 20
-3.707811143663194
 97
        0
 97
        1
330
E4
 92
        1
 93
        1
 72
     4
 94
        3
 73
     0
 74
     0
 95
       47
 96
       43
 40
0.0
 40
0.0
 40
0.0
 40
0.0
 40
1.0
 40
1.0
 40
1.0
 40
2.0
 40
2.0
 40
2.0
 40
3.0
 40
3.0
 40
3.0
 40
4.0
 40
4.0
 40
4.0
 40
5.0
 40
5.0
 40
5.0
 40
6.0
 40
6.0
 40
6.0
 40
7.0
 40
7.0
 40
7.0
 40
8.0
 40
8.0
 40
8.0
 40
9.0
 40
9.0
 40
9.0
 40
10.0
 40
10.0
 40
10.0
 40
11.0
 40
11.0
 40
11.0
 40
12.0
 40
12.0
 40
12.0
 40
13.0
 40
13.0
 40
13.0
 40
14.0
 40
14.0
 40
14.0
 40
14.0
 10
3.211128890185591
 20
-3.71453857421875
 10
3.299452886807696
 20
-3.697812531013293
 10
3.239420600200294
 20
-3.806133451166513
 10
3.237244252194462
 20
-3.742191675995715
 10
3.227104304604128
 20
-3.732534859705601
 10
3.201373746227785
 20
-3.734023956702925
 10
3.184549435682495
 20
-3.734398119323297
 10
3.162202543918321
 20
-3.747287772676966
 10
3.165026248593486
 20
-3.776018628853496
 10
3.178127459465271
 20
-3.794589411575783
 10
3.200411689498107
 20
-3.79480697691555
 10
3.228573086532883
 20
-3.810129981760622
 10
3.244439801922516
 20
-3.821467124059406
 10
3.244425602084573
 20
-3.839240575062767
 10
3.244439606521975
 20
-3.863604198109442
 10
3.244433722629789
 20
-3.881368023265217
 10
3.250758962910758
 20
-3.892825062270098
 10
3.25854639859987
 20
-3.92241052209844
 10
3.244438613011172
 20
-3.928123703694041
 10
3.225195305409404
 20
-3.944577499312167
 10
3.178264080145746
 20
-3.92969688869247
 10
3.151513554977074
 20
-3.934545501047371
 10
3.136994893605863
 20
-3.923089731593967
 10
3.134540972936532
 20
-3.884155347315905
 10
3.160569051902522
 20
-3.898631051448546
 10
3.168601107402903
 20
-3.908963934178877
 10
3.159722686954258
 20
-3.917829734157559
 10
3.178131932922547
 20
-3.914669349844934
 10
3.184840037184484
 20
-3.885117415232217
 10
3.161268964066733
 20
-3.855485937149978
 10
3.184559166830442
 20
-3.82789466182818
 10
3.211271942895185
 20
-3.836164621359191
 10
3.194390726194215
 20
-3.885562303092797
 10
3.19524625379736
 20
-3.906728965737859
 10
3.204156233866115
 20
-3.933956729936994
 10
3.240221809298077
 20
-3.908666103984248
 10
3.224571046249227
 20
-3.888091469733985
 10
3.219650739431004
 20
-3.866848447768347
 10
3.239627680500827
 20
-3.818824075307967
 10
3.204717686556566
 20
-3.827896777502865
 10
3.129937352196507
 20
-3.808780483933901
 10
3.116241969713099
 20
-3.705442398385899
 10
3.211128890185591
 20
-3.71453857421875
 97
        0
 97
        1
330
E5
 75
     2
 76
     1
 98
        1
 10
0.0
 20
0.0
450
        0
451
        0
460
0.0
461
0.0
452
        0
462
0.0
453
        0
470

  0
SPLINE
  5
E7
330
7F
100
AcDbEntity
  8
Layer 1
100
AcDbSpline
210
0.0
220
0.0
230
1.0
 70
     9
 71
     3
 72
    14
 73
    10
 74
     0
 42
0.0000000001
 43
0.0000000001
 40
0.0
 40
0.0
 40
0.0
 40
0.0
 40
1.0
 40
1.0
 40
1.0
 40
2.0
 40
2.0
 40
2.0
 40
3.0
 40
3.0
 40
3.0
 40
3.0
 10
3.303102088970313
 20
-4.164259168836805
 30
0.0
 10
3.280118204917584
 20
-4.206869257709513
 30
0.0
 10
3.270074154611721
 20
-4.143218942355803
 30
0.0
 10
3.275307200935887
 20
-4.123008174028819
 30
0.0
 10
3.279232168634621
 20
-4.10396424660079
 30
0.0
 10
3.261025373992626
 20
-4.03262413569962
 30
0.0
 10
3.298821287191294
 20
-4.051807348873277
 30
0.0
 10
3.300979100799092
 20
-4.084434325452282
 30
0.0
 10
3.303477548914694
 20
-4.125844523341748
 30
0.0
 10
3.303102088970313
 20
-4.164259168836805
 30
0.0
  0
SPLINE
  5
E8
330
7F
100
AcDbEntity
  8
Layer 1
100
AcDbSpline
210
0.0
220
0.0
230
1.0
 70
     9
 71
     3
 72
    32
 73
    28
 74
     0
 42
0.0000000001
 43
0.0000000001
 40
0.0
 40
0.0
 40
0.0
 40
0.0
 40
1.0
 40
1.0
 40
1.0
 40
2.0
 40
2.0
 40
2.0
 40
3.0
 40
3.0
 40
3.0
 40
4.0
 40
4.0
 40
4.0
 40
5.0
 40
5.0
 40
5.0
 40
6.0
 40
6.0
 40
6.0
 40
7.0
 40
7.0
 40
7.0
 40
8.0
 40
8.0
 40
8.0
 40
9.0
 40
9.0
 40
9.0
 40
9.0
 10
3.358101546435591
 20
-3.992533365885416
 30
0.0
 10
3.374421804875623
 20
-4.005349993407119
 30
0.0
 10
3.360384707131894
 20
-4.047531214629404
 30
0.0
 10
3.364836840498014
 20
-4.068004277155965
 30
0.0
 10
3.366398966814168
 20
-4.095766037453611
 30
0.0
 10
3.37051329594927
 20
-4.118479572239581
 30
0.0
 10
3.365881908995889
 20
-4.145005520091848
 30
0.0
 10
3.38989639450574
 20
-4.226133616600678
 30
0.0
 10
3.356425045021915
 20
-4.21409616555291
 30
0.0
 10
3.291036157582336
 20
-4.211619967382426
 30
0.0
 10
3.253394076570593
 20
-4.170577899194427
 30
0.0
 10
3.378211000852843
 20
-4.216577897691447
 30
0.0
 10
3.344044389276354
 20
-4.171288847599107
 30
0.0
 10
3.344047477753999
 20
-4.143454751705323
 30
0.0
 10
3.344051640999244
 20
-4.109870174144134
 30
0.0
 10
3.34404989183363
 20
-4.082065125356368
 30
0.0
 10
3.337149942430503
 20
-4.010403644741018
 30
0.0
 10
3.37470882687776
 20
-4.013283685115652
 30
0.0
 10
3.292713121492965
 20
-4.010878783498406
 30
0.0
 10
3.27035967869219
 20
-4.005084257887738
 30
0.0
 10
3.291835821787091
 20
-4.047641917411636
 30
0.0
 10
3.262768330581049
 20
-4.030881959951784
 30
0.0
 10
3.261595507572463
 20
-4.022585191625315
 30
0.0
 10
3.258419402277644
 20
-3.997034828628291
 30
0.0
 10
3.268575775729497
 20
-3.99253512038826
 30
0.0
 10
3.296579779871156
 20
-3.992571621381633
 30
0.0
 10
3.330157133988083
 20
-3.99250579185496
 30
0.0
 10
3.358101546435591
 20
-3.992533365885416
 30
0.0
  0
SPLINE
  5
E9
330
7F
100
AcDbEntity
  8
Layer 1
100
AcDbSpline
210
0.0
220
0.0
230
1.0
 70
     9
 71
     3
 72
    11
 73
     7
 74
     0
 42
0.0000000001
 43
0.0000000001
 40
0.0
 40
0.0
 40
0.0
 40
0.0
 40
1.0
 40
1.0
 40
1.0
 40
2.0
 40
2.0
 40
2.0
 40
2.0
 10
3.179356700515452
 20
-4.013312445746527
 30
0.0
 10
3.1797161323889
 20
-3.995394044512522
 30
0.0
 10
3.206488586432972
 20
-3.995398724867325
 30
0.0
 10
3.206856383151375
 20
-4.013314213606792
 30
0.0
 10
3.2065306822629
 20
-4.030570568531818
 30
0.0
 10
3.179666908935864
 20
-4.030577369207435
 30
0.0
 10
3.179356700515452
 20
-4.013312445746527
 30
0.0
  0
SPLINE
  5
EA
330
7F
100
AcDbEntity
  8
Layer 1
100
AcDbSpline
210
0.0
220
0.0
230
1.0
 70
     9
 71
     3
 72
    44
 73
    40
 74
     0
 42
0.0000000001
 43
0.0000000001
 40
0.0
 40
0.0
 40
0.0
 40
0.0
 40
1.0
 40
1.0
 40
1.0
 40
2.0
 40
2.0
 40
2.0
 40
3.0
 40
3.0
 40
3.0
 40
4.0
 40
4.0
 40
4.0
 40
5.0
 40
5.0
 40
5.0
 40
6.0
 40
6.0
 40
6.0
 40
7.0
 40
7.0
 40
7.0
 40
8.0
 40
8.0
 40
8.0
 40
9.0
 40
9.0
 40
9.0
 40
10.0
 40
10.0
 40
10.0
 40
11.0
 40
11.0
 40
11.0
 40
12.0
 40
12.0
 40
12.0
 40
13.0
 40
13.0
 40
13.0
 40
13.0
 10
3.151856971782813
 20
-4.07503933376736
 30
0.0
 10
3.172853166086964
 20
-4.075804254826177
 30
0.0
 10
3.159226999346868
 20
-4.092535115172444
 30
0.0
 10
3.165598043476405
 20
-4.102235816322452
 30
0.0
 10
3.187501288961748
 20
-4.104743373418829
 30
0.0
 10
3.205850416894236
 20
-4.110500372919002
 30
0.0
 10
3.230076687861684
 20
-4.11062421944833
 30
0.0
 10
3.256435233450512
 20
-4.137703732137676
 30
0.0
 10
3.190395440020261
 20
-4.14424664255662
 30
0.0
 10
3.213577078119619
 20
-4.123311360677083
 30
0.0
 10
3.197806800246022
 20
-4.125059287251082
 30
0.0
 10
3.18244307858486
 20
-4.136938769152227
 30
0.0
 10
3.169727413227367
 20
-4.121326805316925
 30
0.0
 10
3.156687287791593
 20
-4.125106625170903
 30
0.0
 10
3.154006383021901
 20
-4.143255926129805
 30
0.0
 10
3.165604814667631
 20
-4.150504318954479
 30
0.0
 10
3.174515686447231
 20
-4.156456244589031
 30
0.0
 10
3.194763871555728
 20
-4.147330658847471
 30
0.0
 10
3.20685597461046
 20
-4.150511451728877
 30
0.0
 10
3.217815829747261
 20
-4.161030540975704
 30
0.0
 10
3.213950289715221
 20
-4.173441356693779
 30
0.0
 10
3.198756056525995
 20
-4.172353632662116
 30
0.0
 10
3.188280081243318
 20
-4.18093366874733
 30
0.0
 10
3.179521496387248
 20
-4.17658394904423
 30
0.0
 10
3.169727021105257
 20
-4.172194788141003
 30
0.0
 10
3.145299247939508
 20
-4.193419225000058
 30
0.0
 10
3.168673043285189
 20
-4.206677890912348
 30
0.0
 10
3.193106394939743
 20
-4.198474535032093
 30
0.0
 10
3.208910168793989
 20
-4.195246218558269
 30
0.0
 10
3.226881319637994
 20
-4.205249836863483
 30
0.0
 10
3.241076724638724
 20
-4.198483810911802
 30
0.0
 10
3.244744883785314
 20
-4.173408235105613
 30
0.0
 10
3.27926993964733
 20
-4.186744666859491
 30
0.0
 10
3.261849645102226
 20
-4.212537589285261
 30
0.0
 10
3.258491853067236
 20
-4.223059083106514
 30
0.0
 10
3.136257898139471
 20
-4.224424086587317
 30
0.0
 10
3.13810288338099
 20
-4.212547568173818
 30
0.0
 10
3.148258528659236
 20
-4.18257067998061
 30
0.0
 10
3.122492626254799
 20
-4.071979375280508
 30
0.0
 10
3.151856971782813
 20
-4.07503933376736
 30
0.0
  0
SPLINE
  5
EB
330
7F
100
AcDbEntity
  8
Layer 1
100
AcDbSpline
210
0.0
220
0.0
230
1.0
 70
     9
 71
     3
 72
    17
 73
    13
 74
     0
 42
0.0000000001
 43
0.0000000001
 40
0.0
 40
0.0
 40
0.0
 40
0.0
 40
1.0
 40
1.0
 40
1.0
 40
2.0
 40
2.0
 40
2.0
 40
3.0
 40
3.0
 40
3.0
 40
4.0
 40
4.0
 40
4.0
 40
4.0
 10
3.192960758675174
 20
-4.061286078559027
 30
0.0
 10
3.159631960439203
 20
-4.071666497462766
 30
0.0
 10
3.111578524105526
 20
-3.984837562988458
 30
0.0
 10
3.157966469411108
 20
-3.996797805517353
 30
0.0
 10
3.158297419905049
 20
-4.015158272199414
 30
0.0
 10
3.17358242034734
 20
-4.038154221721823
 30
0.0
 10
3.193101418456737
 20
-4.040814391651868
 30
0.0
 10
3.21209401820066
 20
-4.037692274693073
 30
0.0
 10
3.228430439972258
 20
-4.01515369601221
 30
0.0
 10
3.22838330567006
 20
-3.996814959251726
 30
0.0
 10
3.27577953445234
 20
-3.98943997259313
 30
0.0
 10
3.227211916262149
 20
-4.066702408930305
 30
0.0
 10
3.192960758675174
 20
-4.061286078559027
 30
0.0
  0
HATCH
  5
EC
330
7F
100
AcDbEntity
  8
Layer 1
 62
   250
420
  2301728
440
 33554687
100
AcDbHatch
 10
0.0
 20
0.0
 30
0.0
210
0.0
220
0.0
230
1.0
  2
SOLID
 70
     1
 71
     1
 91
        5
 92
        1
 93
        1
 72
     4
 94
        3
 73
     0
 74
     0
 95
       14
 96
       10
 40
0.0
 40
0.0
 40
0.0
 40
0.0
 40
1.0
 40
1.0
 40
1.0
 40
2.0
 40
2.0
 40
2.0
 40
3.0
 40
3.0
 40
3.0
 40
3.0
 10
3.303102088970313
 20
-4.164259168836805
 10
3.280118204917584
 20
-4.206869257709513
 10
3.270074154611721
 20
-4.143218942355803
 10
3.275307200935887
 20
-4.123008174028819
 10
3.279232168634621
 20
-4.10396424660079
 10
3.261025373992626
 20
-4.03262413569962
 10
3.298821287191294
 20
-4.051807348873277
 10
3.300979100799092
 20
-4.084434325452282
 10
3.303477548914694
 20
-4.125844523341748
 10
3.303102088970313
 20
-4.164259168836805
 97
        0
 97
        1
330
E7
 92
        1
 93
        1
 72
     4
 94
        3
 73
     0
 74
     0
 95
       32
 96
       28
 40
0.0
 40
0.0
 40
0.0
 40
0.0
 40
1.0
 40
1.0
 40
1.0
 40
2.0
 40
2.0
 40
2.0
 40
3.0
 40
3.0
 40
3.0
 40
4.0
 40
4.0
 40
4.0
 40
5.0
 40
5.0
 40
5.0
 40
6.0
 40
6.0
 40
6.0
 40
7.0
 40
7.0
 40
7.0
 40
8.0
 40
8.0
 40
8.0
 40
9.0
 40
9.0
 40
9.0
 40
9.0
 10
3.358101546435591
 20
-3.992533365885416
 10
3.374421804875623
 20
-4.005349993407119
 10
3.360384707131894
 20
-4.047531214629404
 10
3.364836840498014
 20
-4.068004277155965
 10
3.366398966814168
 20
-4.095766037453611
 10
3.37051329594927
 20
-4.118479572239581
 10
3.365881908995889
 20
-4.145005520091848
 10
3.38989639450574
 20
-4.226133616600678
 10
3.356425045021915
 20
-4.21409616555291
 10
3.291036157582336
 20
-4.211619967382426
 10
3.253394076570593
 20
-4.170577899194427
 10
3.378211000852843
 20
-4.216577897691447
 10
3.344044389276354
 20
-4.171288847599107
 10
3.344047477753999
 20
-4.143454751705323
 10
3.344051640999244
 20
-4.109870174144134
 10
3.34404989183363
 20
-4.082065125356368
 10
3.337149942430503
 20
-4.010403644741018
 10
3.37470882687776
 20
-4.013283685115652
 10
3.292713121492965
 20
-4.010878783498406
 10
3.27035967869219
 20
-4.005084257887738
 10
3.291835821787091
 20
-4.047641917411636
 10
3.262768330581049
 20
-4.030881959951784
 10
3.261595507572463
 20
-4.022585191625315
 10
3.258419402277644
 20
-3.997034828628291
 10
3.268575775729497
 20
-3.99253512038826
 10
3.296579779871156
 20
-3.992571621381633
 10
3.330157133988083
 20
-3.99250579185496
 10
3.358101546435591
 20
-3.992533365885416
 97
        0
 97
        1
330
E8
 92
        1
 93
        1
 72
     4
 94
        3
 73
     0
 74
     0
 95
       11
 96
        7
 40
0.0
 40
0.0
 40
0.0
 40
0.0
 40
1.0
 40
1.0
 40
1.0
 40
2.0
 40
2.0
 40
2.0
 40
2.0
 10
3.179356700515452
 20
-4.013312445746527
 10
3.1797161323889
 20
-3.995394044512522
 10
3.206488586432972
 20
-3.995398724867325
 10
3.206856383151375
 20
-4.013314213606792
 10
3.2065306822629
 20
-4.030570568531818
 10
3.179666908935864
 20
-4.030577369207435
 10
3.179356700515452
 20
-4.013312445746527
 97
        0
 97
        1
330
E9
 92
        1
 93
        1
 72
     4
 94
        3
 73
     0
 74
     0
 95
       44
 96
       40
 40
0.0
 40
0.0
 40
0.0
 40
0.0
 40
1.0
 40
1.0
 40
1.0
 40
2.0
 40
2.0
 40
2.0
 40
3.0
 40
3.0
 40
3.0
 40
4.0
 40
4.0
 40
4.0
 40
5.0
 40
5.0
 40
5.0
 40
6.0
 40
6.0
 40
6.0
 40
7.0
 40
7.0
 40
7.0
 40
8.0
 40
8.0
 40
8.0
 40
9.0
 40
9.0
 40
9.0
 40
10.0
 40
10.0
 40
10.0
 40
11.0
 40
11.0
 40
11.0
 40
12.0
 40
12.0
 40
12.0
 40
13.0
 40
13.0
 40
13.0
 40
13.0
 10
3.151856971782813
 20
-4.07503933376736
 10
3.172853166086964
 20
-4.075804254826177
 10
3.159226999346868
 20
-4.092535115172444
 10
3.165598043476405
 20
-4.102235816322452
 10
3.187501288961748
 20
-4.104743373418829
 10
3.205850416894236
 20
-4.110500372919002
 10
3.230076687861684
 20
-4.11062421944833
 10
3.256435233450512
 20
-4.137703732137676
 10
3.190395440020261
 20
-4.14424664255662
 10
3.213577078119619
 20
-4.123311360677083
 10
3.197806800246022
 20
-4.125059287251082
 10
3.18244307858486
 20
-4.136938769152227
 10
3.169727413227367
 20
-4.121326805316925
 10
3.156687287791593
 20
-4.125106625170903
 10
3.154006383021901
 20
-4.143255926129805
 10
3.165604814667631
 20
-4.150504318954479
 10
3.174515686447231
 20
-4.156456244589031
 10
3.194763871555728
 20
-4.147330658847471
 10
3.20685597461046
 20
-4.150511451728877
 10
3.217815829747261
 20
-4.161030540975704
 10
3.213950289715221
 20
-4.173441356693779
 10
3.198756056525995
 20
-4.172353632662116
 10
3.188280081243318
 20
-4.18093366874733
 10
3.179521496387248
 20
-4.17658394904423
 10
3.169727021105257
 20
-4.172194788141003
 10
3.145299247939508
 20
-4.193419225000058
 10
3.168673043285189
 20
-4.206677890912348
 10
3.193106394939743
 20
-4.198474535032093
 10
3.208910168793989
 20
-4.195246218558269
 10
3.226881319637994
 20
-4.205249836863483
 10
3.241076724638724
 20
-4.198483810911802
 10
3.244744883785314
 20
-4.173408235105613
 10
3.27926993964733
 20
-4.186744666859491
 10
3.261849645102226
 20
-4.212537589285261
 10
3.258491853067236
 20
-4.223059083106514
 10
3.136257898139471
 20
-4.224424086587317
 10
3.13810288338099
 20
-4.212547568173818
 10
3.148258528659236
 20
-4.18257067998061
 10
3.122492626254799
 20
-4.071979375280508
 10
3.151856971782813
 20
-4.07503933376736
 97
        0
 97
        1
330
EA
 92
        1
 93
        1
 72
     4
 94
        3
 73
     0
 74
     0
 95
       17
 96
       13
 40
0.0
 40
0.0
 40
0.0
 40
0.0
 40
1.0
 40
1.0
 40
1.0
 40
2.0
 40
2.0
 40
2.0
 40
3.0
 40
3.0
 40
3.0
 40
4.0
 40
4.0
 40
4.0
 40
4.0
 10
3.192960758675174
 20
-4.061286078559027
 10
3.159631960439203
 20
-4.071666497462766
 10
3.111578524105526
 20
-3.984837562988458
 10
3.157966469411108
 20
-3.996797805517353
 10
3.158297419905049
 20
-4.015158272199414
 10
3.17358242034734
 20
-4.038154221721823
 10
3.193101418456737
 20
-4.040814391651868
 10
3.21209401820066
 20
-4.037692274693073
 10
3.228430439972258
 20
-4.01515369601221
 10
3.22838330567006
 20
-3.996814959251726
 10
3.27577953445234
 20
-3.98943997259313
 10
3.227211916262149
 20
-4.066702408930305
 10
3.192960758675174
 20
-4.061286078559027
 97
        0
 97
        1
330
EB
 75
     2
 76
     1
 98
        1
 10
0.0
 20
0.0
450
        0
451
        0
460
0.0
461
0.0
452
        0
462
0.0
453
        0
470

  0
SPLINE
  5
ED
330
7F
100
AcDbEntity
  8
Layer 1
100
AcDbSpline
210
0.0
220
0.0
230
1.0
 70
     9
 71
     3
 72
    14
 73
    10
 74
     0
 42
0.0000000001
 43
0.0000000001
 40
0.0
 40
0.0
 40
0.0
 40
0.0
 40
1.0
 40
1.0
 40
1.0
 40
2.0
 40
2.0
 40
2.0
 40
3.0
 40
3.0
 40
3.0
 40
3.0
 10
3.315322683588369
 20
-4.496955023871527
 30
0.0
 10
3.292054633464431
 20
-4.52688009071725
 30
0.0
 10
3.292027551592582
 20
-4.470911205597581
 30
0.0
 10
3.293946257650052
 20
-4.454482030700748
 30
0.0
 10
3.288679996328053
 20
-4.433819674072108
 30
0.0
 10
3.298699729421261
 20
-4.367759324185676
 30
0.0
 10
3.322366117512349
 20
-4.41200525352383
 30
0.0
 10
3.304142584856397
 20
-4.440176015921236
 30
0.0
 10
3.329259203049584
 20
-4.468498922822251
 30
0.0
 10
3.315322683588369
 20
-4.496955023871527
 30
0.0
  0
SPLINE
  5
EE
330
7F
100
AcDbEntity
  8
Layer 1
100
AcDbSpline
210
0.0
220
0.0
230
1.0
 70
     9
 71
     3
 72
    11
 73
     7
 74
     0
 42
0.0000000001
 43
0.0000000001
 40
0.0
 40
0.0
 40
0.0
 40
0.0
 40
1.0
 40
1.0
 40
1.0
 40
2.0
 40
2.0
 40
2.0
 40
2.0
 10
3.308296858935591
 20
-4.362508138020833
 30
0.0
 10
3.309635728090988
 20
-4.373797110020657
 30
0.0
 10
3.291454937067075
 20
-4.368237661049521
 30
0.0
 10
3.284161427706332
 20
-4.368471128068664
 30
0.0
 10
3.264414124599662
 20
-4.353394345696642
 30
0.0
 10
3.313238604897934
 20
-4.335124518678412
 30
0.0
 10
3.308296858935591
 20
-4.362508138020833
 30
0.0
  0
SPLINE
  5
EF
330
7F
100
AcDbEntity
  8
Layer 1
100
AcDbSpline
210
0.0
220
0.0
230
1.0
 70
     9
 71
     3
 72
    23
 73
    19
 74
     0
 42
0.0000000001
 43
0.0000000001
 40
0.0
 40
0.0
 40
0.0
 40
0.0
 40
1.0
 40
1.0
 40
1.0
 40
2.0
 40
2.0
 40
2.0
 40
3.0
 40
3.0
 40
3.0
 40
4.0
 40
4.0
 40
4.0
 40
5.0
 40
5.0
 40
5.0
 40
6.0
 40
6.0
 40
6.0
 40
6.0
 10
3.357796370654341
 20
-4.397650824652777
 30
0.0
 10
3.33063541821491
 20
-4.396520801672863
 30
0.0
 10
3.345924175189086
 20
-4.328937305747786
 30
0.0
 10
3.346484547559788
 20
-4.309802496524891
 30
0.0
 10
3.33738298759009
 20
-4.293853843649609
 30
0.0
 10
3.304868120328895
 20
-4.311995475117011
 30
0.0
 10
3.289661782881479
 20
-4.304295854553881
 30
0.0
 10
3.269555431520554
 20
-4.286679853727327
 30
0.0
 10
3.238811334394098
 20
-4.310743572176053
 30
0.0
 10
3.220602440106504
 20
-4.301100944380083
 30
0.0
 10
3.193833815408626
 20
-4.264245172457068
 30
0.0
 10
3.345968061540133
 20
-4.280325932800287
 30
0.0
 10
3.361157280481506
 20
-4.285200485173214
 30
0.0
 10
3.37037860853795
 20
-4.30031789866651
 30
0.0
 10
3.362191582124334
 20
-4.330031287530624
 30
0.0
 10
3.364833830674999
 20
-4.348143644203357
 30
0.0
 10
3.362515253640594
 20
-4.362100608857771
 30
0.0
 10
3.371180519566842
 20
-4.388508982021751
 30
0.0
 10
3.357796370654341
 20
-4.397650824652777
 30
0.0
  0
SPLINE
  5
F0
330
7F
100
AcDbEntity
  8
Layer 1
100
AcDbSpline
210
0.0
220
0.0
230
1.0
 70
     9
 71
     3
 72
    29
 73
    25
 74
     0
 42
0.0000000001
 43
0.0000000001
 40
0.0
 40
0.0
 40
0.0
 40
0.0
 40
1.0
 40
1.0
 40
1.0
 40
2.0
 40
2.0
 40
2.0
 40
3.0
 40
3.0
 40
3.0
 40
4.0
 40
4.0
 40
4.0
 40
5.0
 40
5.0
 40
5.0
 40
6.0
 40
6.0
 40
6.0
 40
7.0
 40
7.0
 40
7.0
 40
8.0
 40
8.0
 40
8.0
 40
8.0
 10
3.159493147998091
 20
-4.404981825086805
 30
0.0
 10
3.195347815269744
 20
-4.412750282516677
 30
0.0
 10
3.146362355242381
 20
-4.529227577429247
 30
0.0
 10
3.218780393137118
 20
-4.466087803261984
 30
0.0
 10
3.235878944010816
 20
-4.44457505850495
 30
0.0
 10
3.201685394500511
 20
-4.385470674687414
 30
0.0
 10
3.251467916948488
 20
-4.397655873351697
 30
0.0
 10
3.273419603148555
 20
-4.406058591978876
 30
0.0
 10
3.284299660228384
 20
-4.404690767775061
 30
0.0
 10
3.279570178738443
 20
-4.433095612413833
 30
0.0
 10
3.274888662317607
 20
-4.448795075426409
 30
0.0
 10
3.293292714476983
 20
-4.517856153799735
 30
0.0
 10
3.263081302341611
 20
-4.499557866479486
 30
0.0
 10
3.247032607917996
 20
-4.478493121947242
 30
0.0
 10
3.271339539626624
 20
-4.439282452324656
 30
0.0
 10
3.254217112428591
 20
-4.421786106777113
 30
0.0
 10
3.233070512199093
 20
-4.408280839488573
 30
0.0
 10
3.251818017114954
 20
-4.460805951874312
 30
0.0
 10
3.241379575682572
 20
-4.470822150217056
 30
0.0
 10
3.222989390619141
 20
-4.519167377492408
 30
0.0
 10
3.144877121925762
 20
-4.51441579450837
 30
0.0
 10
3.146197522979541
 20
-4.457221946668988
 30
0.0
 10
3.160882021925974
 20
-4.446669260984094
 30
0.0
 10
3.142478178901519
 20
-4.410444376526482
 30
0.0
 10
3.159493147998091
 20
-4.404981825086805
 30
0.0
  0
SPLINE
  5
F1
330
7F
100
AcDbEntity
  8
Layer 1
100
AcDbSpline
210
0.0
220
0.0
230
1.0
 70
     9
 71
     3
 72
    26
 73
    22
 74
     0
 42
0.0000000001
 43
0.0000000001
 40
0.0
 40
0.0
 40
0.0
 40
0.0
 40
1.0
 40
1.0
 40
1.0
 40
2.0
 40
2.0
 40
2.0
 40
3.0
 40
3.0
 40
3.0
 40
4.0
 40
4.0
 40
4.0
 40
5.0
 40
5.0
 40
5.0
 40
6.0
 40
6.0
 40
6.0
 40
7.0
 40
7.0
 40
7.0
 40
7.0
 10
3.152467323345313
 20
-4.376566569010416
 30
0.0
 10
3.129627022489633
 20
-4.374443879751185
 30
0.0
 10
3.140466229708572
 20
-4.34167163217248
 30
0.0
 10
3.138102045049271
 20
-4.326762249389881
 30
0.0
 10
3.140504720714804
 20
-4.315183267434071
 30
0.0
 10
3.132655056752923
 20
-4.288570753179517
 30
0.0
 10
3.14237888221698
 20
-4.280923703185749
 30
0.0
 10
3.157578017257201
 20
-4.269404802931717
 30
0.0
 10
3.230956062830715
 20
-4.27946492876702
 30
0.0
 10
3.187606006586293
 20
-4.298650368024532
 30
0.0
 10
3.145035390296255
 20
-4.28402134488763
 30
0.0
 10
3.164961814676151
 20
-4.319580777983989
 30
0.0
 10
3.156900284695097
 20
-4.344636187050152
 30
0.0
 10
3.153832328227836
 20
-4.37220184834166
 30
0.0
 10
3.215424517664157
 20
-4.350317604676496
 30
0.0
 10
3.230074534837487
 20
-4.348148027913516
 30
0.0
 10
3.251018043755063
 20
-4.340709571698728
 30
0.0
 10
3.271905505864007
 20
-4.362703621061137
 30
0.0
 10
3.251466821004088
 20
-4.376574521932903
 30
0.0
 10
3.220560312705389
 20
-4.376555655348131
 30
0.0
 10
3.18334178072372
 20
-4.37657443548182
 30
0.0
 10
3.152467323345313
 20
-4.376566569010416
 30
0.0
  0
HATCH
  5
F2
330
7F
100
AcDbEntity
  8
Layer 1
 62
   250
420
  2301728
440
 33554687
100
AcDbHatch
 10
0.0
 20
0.0
 30
0.0
210
0.0
220
0.0
230
1.0
  2
SOLID
 70
     1
 71
     1
 91
        5
 92
        1
 93
        1
 72
     4
 94
        3
 73
     0
 74
     0
 95
       14
 96
       10
 40
0.0
 40
0.0
 40
0.0
 40
0.0
 40
1.0
 40
1.0
 40
1.0
 40
2.0
 40
2.0
 40
2.0
 40
3.0
 40
3.0
 40
3.0
 40
3.0
 10
3.315322683588369
 20
-4.496955023871527
 10
3.292054633464431
 20
-4.52688009071725
 10
3.292027551592582
 20
-4.470911205597581
 10
3.293946257650052
 20
-4.454482030700748
 10
3.288679996328053
 20
-4.433819674072108
 10
3.298699729421261
 20
-4.367759324185676
 10
3.322366117512349
 20
-4.41200525352383
 10
3.304142584856397
 20
-4.440176015921236
 10
3.329259203049584
 20
-4.468498922822251
 10
3.315322683588369
 20
-4.496955023871527
 97
        0
 97
        1
330
ED
 92
        1
 93
        1
 72
     4
 94
        3
 73
     0
 74
     0
 95
       11
 96
        7
 40
0.0
 40
0.0
 40
0.0
 40
0.0
 40
1.0
 40
1.0
 40
1.0
 40
2.0
 40
2.0
 40
2.0
 40
2.0
 10
3.308296858935591
 20
-4.362508138020833
 10
3.309635728090988
 20
-4.373797110020657
 10
3.291454937067075
 20
-4.368237661049521
 10
3.284161427706332
 20
-4.368471128068664
 10
3.264414124599662
 20
-4.353394345696642
 10
3.313238604897934
 20
-4.335124518678412
 10
3.308296858935591
 20
-4.362508138020833
 97
        0
 97
        1
330
EE
 92
        1
 93
        1
 72
     4
 94
        3
 73
     0
 74
     0
 95
       23
 96
       19
 40
0.0
 40
0.0
 40
0.0
 40
0.0
 40
1.0
 40
1.0
 40
1.0
 40
2.0
 40
2.0
 40
2.0
 40
3.0
 40
3.0
 40
3.0
 40
4.0
 40
4.0
 40
4.0
 40
5.0
 40
5.0
 40
5.0
 40
6.0
 40
6.0
 40
6.0
 40
6.0
 10
3.357796370654341
 20
-4.397650824652777
 10
3.33063541821491
 20
-4.396520801672863
 10
3.345924175189086
 20
-4.328937305747786
 10
3.346484547559788
 20
-4.309802496524891
 10
3.33738298759009
 20
-4.293853843649609
 10
3.304868120328895
 20
-4.311995475117011
 10
3.289661782881479
 20
-4.304295854553881
 10
3.269555431520554
 20
-4.286679853727327
 10
3.238811334394098
 20
-4.310743572176053
 10
3.220602440106504
 20
-4.301100944380083
 10
3.193833815408626
 20
-4.264245172457068
 10
3.345968061540133
 20
-4.280325932800287
 10
3.361157280481506
 20
-4.285200485173214
 10
3.37037860853795
 20
-4.30031789866651
 10
3.362191582124334
 20
-4.330031287530624
 10
3.364833830674999
 20
-4.348143644203357
 10
3.362515253640594
 20
-4.362100608857771
 10
3.371180519566842
 20
-4.388508982021751
 10
3.357796370654341
 20
-4.397650824652777
 97
        0
 97
        1
330
EF
 92
        1
 93
        1
 72
     4
 94
        3
 73
     0
 74
     0
 95
       29
 96
       25
 40
0.0
 40
0.0
 40
0.0
 40
0.0
 40
1.0
 40
1.0
 40
1.0
 40
2.0
 40
2.0
 40
2.0
 40
3.0
 40
3.0
 40
3.0
 40
4.0
 40
4.0
 40
4.0
 40
5.0
 40
5.0
 40
5.0
 40
6.0
 40
6.0
 40
6.0
 40
7.0
 40
7.0
 40
7.0
 40
8.0
 40
8.0
 40
8.0
 40
8.0
 10
3.159493147998091
 20
-4.404981825086805
 10
3.195347815269744
 20
-4.412750282516677
 10
3.146362355242381
 20
-4.529227577429247
 10
3.218780393137118
 20
-4.466087803261984
 10
3.235878944010816
 20
-4.44457505850495
 10
3.201685394500511
 20
-4.385470674687414
 10
3.251467916948488
 20
-4.397655873351697
 10
3.273419603148555
 20
-4.406058591978876
 10
3.284299660228384
 20
-4.404690767775061
 10
3.279570178738443
 20
-4.433095612413833
 10
3.274888662317607
 20
-4.448795075426409
 10
3.293292714476983
 20
-4.517856153799735
 10
3.263081302341611
 20
-4.499557866479486
 10
3.247032607917996
 20
-4.478493121947242
 10
3.271339539626624
 20
-4.439282452324656
 10
3.254217112428591
 20
-4.421786106777113
 10
3.233070512199093
 20
-4.408280839488573
 10
3.251818017114954
 20
-4.460805951874312
 10
3.241379575682572
 20
-4.470822150217056
 10
3.222989390619141
 20
-4.519167377492408
 10
3.144877121925762
 20
-4.51441579450837
 10
3.146197522979541
 20
-4.457221946668988
 10
3.160882021925974
 20
-4.446669260984094
 10
3.142478178901519
 20
-4.410444376526482
 10
3.159493147998091
 20
-4.404981825086805
 97
        0
 97
        1
330
F0
 92
        1
 93
        1
 72
     4
 94
        3
 73
     0
 74
     0
 95
       26
 96
       22
 40
0.0
 40
0.0
 40
0.0
 40
0.0
 40
1.0
 40
1.0
 40
1.0
 40
2.0
 40
2.0
 40
2.0
 40
3.0
 40
3.0
 40
3.0
 40
4.0
 40
4.0
 40
4.0
 40
5.0
 40
5.0
 40
5.0
 40
6.0
 40
6.0
 40
6.0
 40
7.0
 40
7.0
 40
7.0
 40
7.0
 10
3.152467323345313
 20
-4.376566569010416
 10
3.129627022489633
 20
-4.374443879751185
 10
3.140466229708572
 20
-4.34167163217248
 10
3.138102045049271
 20
-4.326762249389881
 10
3.140504720714804
 20
-4.315183267434071
 10
3.132655056752923
 20
-4.288570753179517
 10
3.14237888221698
 20
-4.280923703185749
 10
3.157578017257201
 20
-4.269404802931717
 10
3.230956062830715
 20
-4.27946492876702
 10
3.187606006586293
 20
-4.298650368024532
 10
3.145035390296255
 20
-4.28402134488763
 10
3.164961814676151
 20
-4.319580777983989
 10
3.156900284695097
 20
-4.344636187050152
 10
3.153832328227836
 20
-4.37220184834166
 10
3.215424517664157
 20
-4.350317604676496
 10
3.230074534837487
 20
-4.348148027913516
 10
3.251018043755063
 20
-4.340709571698728
 10
3.271905505864007
 20
-4.362703621061137
 10
3.251466821004088
 20
-4.376574521932903
 10
3.220560312705389
 20
-4.376555655348131
 10
3.18334178072372
 20
-4.37657443548182
 10
3.152467323345313
 20
-4.376566569010416
 97
        0
 97
        1
330
F1
 75
     2
 76
     1
 98
        1
 10
0.0
 20
0.0
450
        0
451
        0
460
0.0
461
0.0
452
        0
462
0.0
453
        0
470

  0
SPLINE
  5
F3
330
7F
100
AcDbEntity
  8
Layer 1
100
AcDbSpline
210
0.0
220
0.0
230
1.0
 70
     9
 71
     3
 72
    11
 73
     7
 74
     0
 42
0.0000000001
 43
0.0000000001
 40
0.0
 40
0.0
 40
0.0
 40
0.0
 40
1.0
 40
1.0
 40
1.0
 40
2.0
 40
2.0
 40
2.0
 40
2.0
 10
3.323575993050174
 20
-4.73370361328125
 30
0.0
 10
3.323230479078397
 20
-4.751291697632015
 30
0.0
 10
3.296412462669536
 20
-4.751292212977318
 30
0.0
 10
3.296076299023739
 20
-4.733702004980904
 30
0.0
 10
3.296399018122062
 20
-4.716444390823514
 30
0.0
 10
3.323250845395111
 20
-4.716442631600683
 30
0.0
 10
3.323575993050174
 20
-4.73370361328125
 30
0.0
  0
SPLINE
  5
F4
330
7F
100
AcDbEntity
  8
Layer 1
100
AcDbSpline
210
0.0
220
0.0
230
1.0
 70
     9
 71
     3
 72
    47
 73
    43
 74
     0
 42
0.0000000001
 43
0.0000000001
 40
0.0
 40
0.0
 40
0.0
 40
0.0
 40
1.0
 40
1.0
 40
1.0
 40
2.0
 40
2.0
 40
2.0
 40
3.0
 40
3.0
 40
3.0
 40
4.0
 40
4.0
 40
4.0
 40
5.0
 40
5.0
 40
5.0
 40
6.0
 40
6.0
 40
6.0
 40
7.0
 40
7.0
 40
7.0
 40
8.0
 40
8.0
 40
8.0
 40
9.0
 40
9.0
 40
9.0
 40
10.0
 40
10.0
 40
10.0
 40
11.0
 40
11.0
 40
11.0
 40
12.0
 40
12.0
 40
12.0
 40
13.0
 40
13.0
 40
13.0
 40
14.0
 40
14.0
 40
14.0
 40
14.0
 10
3.357796370654341
 20
-4.56197781032986
 30
0.0
 10
3.38369235066543
 20
-4.567091687171354
 30
0.0
 10
3.367708530610583
 20
-4.600791716904065
 30
0.0
 10
3.364827558124375
 20
-4.616982215944302
 30
0.0
 10
3.370015344012497
 20
-4.628295246778836
 30
0.0
 10
3.375225291369322
 20
-4.63842460553413
 30
0.0
 10
3.365889041010897
 20
-4.650132843192005
 30
0.0
 10
3.361006934845464
 20
-4.666500478693629
 30
0.0
 10
3.367879396089303
 20
-4.684039898317084
 30
0.0
 10
3.371553905907098
 20
-4.699482264851894
 30
0.0
 10
3.358099717093674
 20
-4.718863693356575
 30
0.0
 10
3.375690136943426
 20
-4.738840492763743
 30
0.0
 10
3.371548912066587
 20
-4.761204550985123
 30
0.0
 10
3.365554421249915
 20
-4.769082361432475
 30
0.0
 10
3.368362472239179
 20
-4.786255860888167
 30
0.0
 10
3.357801654914914
 20
-4.788706357693905
 30
0.0
 10
3.342460083340016
 20
-4.78762917530912
 30
0.0
 10
3.272161475099563
 20
-4.797094525616557
 30
0.0
 10
3.303098523333333
 20
-4.768225591523635
 30
0.0
 10
3.315354420041166
 20
-4.763808939230519
 30
0.0
 10
3.347639441314943
 20
-4.78016133012828
 30
0.0
 10
3.346648986006647
 20
-4.760440702537658
 30
0.0
 10
3.332740350745641
 20
-4.736463226494619
 30
0.0
 10
3.375562362954711
 20
-4.673327698921992
 30
0.0
 10
3.323574713568429
 20
-4.68572834710705
 30
0.0
 10
3.303889127454415
 20
-4.682831033898133
 30
0.0
 10
3.284911038247514
 20
-4.688246168239983
 30
0.0
 10
3.289359090221346
 20
-4.713233337523105
 30
0.0
 10
3.287175847273008
 20
-4.735467615704515
 30
0.0
 10
3.256444541033437
 20
-4.727049856583587
 30
0.0
 10
3.261858195895506
 20
-4.706507244573268
 30
0.0
 10
3.26156477933043
 20
-4.638222720893988
 30
0.0
 10
3.35469333448715
 20
-4.686635019252864
 30
0.0
 10
3.344972948495978
 20
-4.652589742706835
 30
0.0
 10
3.342813982618508
 20
-4.639384240730666
 30
0.0
 10
3.344609601926852
 20
-4.616840363475577
 30
0.0
 10
3.3440489385016
 20
-4.603230717012365
 30
0.0
 10
3.345530604320755
 20
-4.595880982954162
 30
0.0
 10
3.356647299837011
 20
-4.587602455194503
 30
0.0
 10
3.344048466533649
 20
-4.582756907985311
 30
0.0
 10
3.270860268177203
 20
-4.5824525748111
 30
0.0
 10
3.311019344177528
 20
-4.554112165280153
 30
0.0
 10
3.357796370654341
 20
-4.56197781032986
 30
0.0
  0
SPLINE
  5
F5
330
7F
100
AcDbEntity
  8
Layer 1
100
AcDbSpline
210
0.0
220
0.0
230
1.0
 70
     9
 71
     3
 72
    11
 73
     7
 74
     0
 42
0.0000000001
 43
0.0000000001
 40
0.0
 40
0.0
 40
0.0
 40
0.0
 40
1.0
 40
1.0
 40
1.0
 40
2.0
 40
2.0
 40
2.0
 40
2.0
 10
3.199823822911285
 20
-4.70650906032986
 30
0.0
 10
3.198496913781001
 20
-4.697489373982888
 30
0.0
 10
3.206550692793547
 20
-4.699932671587096
 30
0.0
 10
3.213577247126029
 20
-4.699483165306395
 30
0.0
 10
3.238120584641819
 20
-4.706763452927311
 30
0.0
 10
3.19909666989262
 20
-4.737889990491276
 30
0.0
 10
3.199823822911285
 20
-4.70650906032986
 30
0.0
  0
SPLINE
  5
F6
330
7F
100
AcDbEntity
  8
Layer 1
100
AcDbSpline
210
0.0
220
0.0
230
1.0
 70
     9
 71
     3
 72
    11
 73
     7
 74
     0
 42
0.0000000001
 43
0.0000000001
 40
0.0
 40
0.0
 40
0.0
 40
0.0
 40
1.0
 40
1.0
 40
1.0
 40
2.0
 40
2.0
 40
2.0
 40
2.0
 10
3.18607734938698
 20
-4.616984049479166
 30
0.0
 10
3.186419717706876
 20
-4.599393873488653
 30
0.0
 10
3.213232625873021
 20
-4.59939216355993
 30
0.0
 10
3.213577041990244
 20
-4.61698566149155
 30
0.0
 10
3.213225616449967
 20
-4.63456889252187
 30
0.0
 10
3.186419495635555
 20
-4.634569528631017
 30
0.0
 10
3.18607734938698
 20
-4.616984049479166
 30
0.0
  0
SPLINE
  5
F7
330
7F
100
AcDbEntity
  8
Layer 1
100
AcDbSpline
210
0.0
220
0.0
230
1.0
 70
     9
 71
     3
 72
    65
 73
    61
 74
     0
 42
0.0000000001
 43
0.0000000001
 40
0.0
 40
0.0
 40
0.0
 40
0.0
 40
1.0
 40
1.0
 40
1.0
 40
2.0
 40
2.0
 40
2.0
 40
3.0
 40
3.0
 40
3.0
 40
4.0
 40
4.0
 40
4.0
 40
5.0
 40
5.0
 40
5.0
 40
6.0
 40
6.0
 40
6.0
 40
7.0
 40
7.0
 40
7.0
 40
8.0
 40
8.0
 40
8.0
 40
9.0
 40
9.0
 40
9.0
 40
10.0
 40
10.0
 40
10.0
 40
11.0
 40
11.0
 40
11.0
 40
12.0
 40
12.0
 40
12.0
 40
13.0
 40
13.0
 40
13.0
 40
14.0
 40
14.0
 40
14.0
 40
15.0
 40
15.0
 40
15.0
 40
16.0
 40
16.0
 40
16.0
 40
17.0
 40
17.0
 40
17.0
 40
18.0
 40
18.0
 40
18.0
 40
19.0
 40
19.0
 40
19.0
 40
20.0
 40
20.0
 40
20.0
 40
20.0
 10
3.268576535584896
 20
-4.781982421875
 30
0.0
 10
3.245453016163107
 20
-4.801441106141131
 30
0.0
 10
3.251904875478834
 20
-4.772876848713255
 30
0.0
 10
3.24780588310082
 20
-4.761201553679825
 30
0.0
 10
3.237709271460882
 20
-4.754979906046754
 30
0.0
 10
3.218698769803975
 20
-4.764253812437232
 30
0.0
 10
3.206551619094991
 20
-4.761198837713751
 30
0.0
 10
3.194445553046155
 20
-4.763978483145857
 30
0.0
 10
3.175007647698622
 20
-4.755779973626898
 30
0.0
 10
3.165603111592316
 20
-4.761197320949147
 30
0.0
 10
3.168538026990896
 20
-4.776254205315555
 30
0.0
 10
3.149104863347626
 20
-4.807163041619345
 30
0.0
 10
3.14481245268482
 20
-4.774948635576391
 30
0.0
 10
3.146152576219808
 20
-4.761284592569457
 30
0.0
 10
3.14435673543648
 20
-4.745051145209016
 30
0.0
 10
3.138100017284171
 20
-4.733704642628013
 30
0.0
 10
3.139425357583515
 20
-4.718913640045102
 30
0.0
 10
3.150810578342593
 20
-4.707778060816091
 30
0.0
 10
3.139171136674677
 20
-4.69382788187315
 30
0.0
 10
3.132735513457595
 20
-4.668352710595045
 30
0.0
 10
3.147769378580594
 20
-4.64251795814333
 30
0.0
 10
3.144824680925567
 20
-4.616984175284856
 30
0.0
 10
3.127932649755823
 20
-4.585885252583036
 30
0.0
 10
3.138790784931024
 20
-4.551845325600033
 30
0.0
 10
3.1793614183032
 20
-4.561985563125542
 30
0.0
 10
3.205063317798905
 20
-4.562517720300939
 30
0.0
 10
3.239215654661329
 20
-4.560778861981248
 30
0.0
 10
3.264297301291232
 20
-4.562899161509372
 30
0.0
 10
3.31093739114034
 20
-4.578284355042821
 30
0.0
 10
3.265211555660597
 20
-4.677372744053589
 30
0.0
 10
3.234044984218093
 20
-4.623705633385737
 30
0.0
 10
3.243669730878082
 20
-4.611257870222175
 30
0.0
 10
3.276462901068232
 20
-4.615407851420652
 30
0.0
 10
3.257571611743704
 20
-4.587029788473993
 30
0.0
 10
3.232645090937214
 20
-4.575102133498236
 30
0.0
 10
3.196022008634245
 20
-4.589048539379708
 30
0.0
 10
3.169727643996793
 20
-4.57970143467465
 30
0.0
 10
3.154464619592873
 20
-4.590155095413567
 30
0.0
 10
3.170079159217
 20
-4.614838929712997
 30
0.0
 10
3.165598264033658
 20
-4.630729698190848
 30
0.0
 10
3.167058985563433
 20
-4.640217175026943
 30
0.0
 10
3.151940592788984
 20
-4.646099821903387
 30
0.0
 10
3.165603623255972
 20
-4.651204150010951
 30
0.0
 10
3.172728298535907
 20
-4.663708775005034
 30
0.0
 10
3.199422025695071
 20
-4.645060728817447
 30
0.0
 10
3.213576397207652
 20
-4.651213456288069
 30
0.0
 10
3.22296204271231
 20
-4.655763170086983
 30
0.0
 10
3.268073557374893
 20
-4.656149339280937
 30
0.0
 10
3.250556128578876
 20
-4.670909575006299
 30
0.0
 10
3.222605400118671
 20
-4.680804107079589
 30
0.0
 10
3.141372159396963
 20
-4.6470865910613
 30
0.0
 10
3.165603475276687
 20
-4.699478624141116
 30
0.0
 10
3.171485901374504
 20
-4.715097932997031
 30
0.0
 10
3.14959084890908
 20
-4.736516817251374
 30
0.0
 10
3.169723280767066
 20
-4.743481765258644
 30
0.0
 10
3.187640020592905
 20
-4.738839185890886
 30
0.0
 10
3.215253273212738
 20
-4.741238472328025
 30
0.0
 10
3.234051177438434
 20
-4.740729421827432
 30
0.0
 10
3.265415943790697
 20
-4.733452324057439
 30
0.0
 10
3.272544967549442
 20
-4.755455681916095
 30
0.0
 10
3.268576535584896
 20
-4.781982421875
 30
0.0
  0
HATCH
  5
F8
330
7F
100
AcDbEntity
  8
Layer 1
 62
   250
420
  2301728
440
 33554687
100
AcDbHatch
 10
0.0
 20
0.0
 30
0.0
210
0.0
220
0.0
230
1.0
  2
SOLID
 70
     1
 71
     1
 91
        5
 92
        1
 93
        1
 72
     4
 94
        3
 73
     0
 74
     0
 95
       11
 96
        7
 40
0.0
 40
0.0
 40
0.0
 40
0.0
 40
1.0
 40
1.0
 40
1.0
 40
2.0
 40
2.0
 40
2.0
 40
2.0
 10
3.323575993050174
 20
-4.73370361328125
 10
3.323230479078397
 20
-4.751291697632015
 10
3.296412462669536
 20
-4.751292212977318
 10
3.296076299023739
 20
-4.733702004980904
 10
3.296399018122062
 20
-4.716444390823514
 10
3.323250845395111
 20
-4.716442631600683
 10
3.323575993050174
 20
-4.73370361328125
 97
        0
 97
        1
330
F3
 92
        1
 93
        1
 72
     4
 94
        3
 73
     0
 74
     0
 95
       47
 96
       43
 40
0.0
 40
0.0
 40
0.0
 40
0.0
 40
1.0
 40
1.0
 40
1.0
 40
2.0
 40
2.0
 40
2.0
 40
3.0
 40
3.0
 40
3.0
 40
4.0
 40
4.0
 40
4.0
 40
5.0
 40
5.0
 40
5.0
 40
6.0
 40
6.0
 40
6.0
 40
7.0
 40
7.0
 40
7.0
 40
8.0
 40
8.0
 40
8.0
 40
9.0
 40
9.0
 40
9.0
 40
10.0
 40
10.0
 40
10.0
 40
11.0
 40
11.0
 40
11.0
 40
12.0
 40
12.0
 40
12.0
 40
13.0
 40
13.0
 40
13.0
 40
14.0
 40
14.0
 40
14.0
 40
14.0
 10
3.357796370654341
 20
-4.56197781032986
 10
3.38369235066543
 20
-4.567091687171354
 10
3.367708530610583
 20
-4.600791716904065
 10
3.364827558124375
 20
-4.616982215944302
 10
3.370015344012497
 20
-4.628295246778836
 10
3.375225291369322
 20
-4.63842460553413
 10
3.365889041010897
 20
-4.650132843192005
 10
3.361006934845464
 20
-4.666500478693629
 10
3.367879396089303
 20
-4.684039898317084
 10
3.371553905907098
 20
-4.699482264851894
 10
3.358099717093674
 20
-4.718863693356575
 10
3.375690136943426
 20
-4.738840492763743
 10
3.371548912066587
 20
-4.761204550985123
 10
3.365554421249915
 20
-4.769082361432475
 10
3.368362472239179
 20
-4.786255860888167
 10
3.357801654914914
 20
-4.788706357693905
 10
3.342460083340016
 20
-4.78762917530912
 10
3.272161475099563
 20
-4.797094525616557
 10
3.303098523333333
 20
-4.768225591523635
 10
3.315354420041166
 20
-4.763808939230519
 10
3.347639441314943
 20
-4.78016133012828
 10
3.346648986006647
 20
-4.760440702537658
 10
3.332740350745641
 20
-4.736463226494619
 10
3.375562362954711
 20
-4.673327698921992
 10
3.323574713568429
 20
-4.68572834710705
 10
3.303889127454415
 20
-4.682831033898133
 10
3.284911038247514
 20
-4.688246168239983
 10
3.289359090221346
 20
-4.713233337523105
 10
3.287175847273008
 20
-4.735467615704515
 10
3.256444541033437
 20
-4.727049856583587
 10
3.261858195895506
 20
-4.706507244573268
 10
3.26156477933043
 20
-4.638222720893988
 10
3.35469333448715
 20
-4.686635019252864
 10
3.344972948495978
 20
-4.652589742706835
 10
3.342813982618508
 20
-4.639384240730666
 10
3.344609601926852
 20
-4.616840363475577
 10
3.3440489385016
 20
-4.603230717012365
 10
3.345530604320755
 20
-4.595880982954162
 10
3.356647299837011
 20
-4.587602455194503
 10
3.344048466533649
 20
-4.582756907985311
 10
3.270860268177203
 20
-4.5824525748111
 10
3.311019344177528
 20
-4.554112165280153
 10
3.357796370654341
 20
-4.56197781032986
 97
        0
 97
        1
330
F4
 92
        1
 93
        1
 72
     4
 94
        3
 73
     0
 74
     0
 95
       11
 96
        7
 40
0.0
 40
0.0
 40
0.0
 40
0.0
 40
1.0
 40
1.0
 40
1.0
 40
2.0
 40
2.0
 40
2.0
 40
2.0
 10
3.199823822911285
 20
-4.70650906032986
 10
3.198496913781001
 20
-4.697489373982888
 10
3.206550692793547
 20
-4.699932671587096
 10
3.213577247126029
 20
-4.699483165306395
 10
3.238120584641819
 20
-4.706763452927311
 10
3.19909666989262
 20
-4.737889990491276
 10
3.199823822911285
 20
-4.70650906032986
 97
        0
 97
        1
330
F5
 92
        1
 93
        1
 72
     4
 94
        3
 73
     0
 74
     0
 95
       11
 96
        7
 40
0.0
 40
0.0
 40
0.0
 40
0.0
 40
1.0
 40
1.0
 40
1.0
 40
2.0
 40
2.0
 40
2.0
 40
2.0
 10
3.18607734938698
 20
-4.616984049479166
 10
3.186419717706876
 20
-4.599393873488653
 10
3.213232625873021
 20
-4.59939216355993
 10
3.213577041990244
 20
-4.61698566149155
 10
3.213225616449967
 20
-4.63456889252187
 10
3.186419495635555
 20
-4.634569528631017
 10
3.18607734938698
 20
-4.616984049479166
 97
        0
 97
        1
330
F6
 92
        1
 93
        1
 72
     4
 94
        3
 73
     0
 74
     0
 95
       65
 96
       61
 40
0.0
 40
0.0
 40
0.0
 40
0.0
 40
1.0
 40
1.0
 40
1.0
 40
2.0
 40
2.0
 40
2.0
 40
3.0
 40
3.0
 40
3.0
 40
4.0
 40
4.0
 40
4.0
 40
5.0
 40
5.0
 40
5.0
 40
6.0
 40
6.0
 40
6.0
 40
7.0
 40
7.0
 40
7.0
 40
8.0
 40
8.0
 40
8.0
 40
9.0
 40
9.0
 40
9.0
 40
10.0
 40
10.0
 40
10.0
 40
11.0
 40
11.0
 40
11.0
 40
12.0
 40
12.0
 40
12.0
 40
13.0
 40
13.0
 40
13.0
 40
14.0
 40
14.0
 40
14.0
 40
15.0
 40
15.0
 40
15.0
 40
16.0
 40
16.0
 40
16.0
 40
17.0
 40
17.0
 40
17.0
 40
18.0
 40
18.0
 40
18.0
 40
19.0
 40
19.0
 40
19.0
 40
20.0
 40
20.0
 40
20.0
 40
20.0
 10
3.268576535584896
 20
-4.781982421875
 10
3.245453016163107
 20
-4.801441106141131
 10
3.251904875478834
 20
-4.772876848713255
 10
3.24780588310082
 20
-4.761201553679825
 10
3.237709271460882
 20
-4.754979906046754
 10
3.218698769803975
 20
-4.764253812437232
 10
3.206551619094991
 20
-4.761198837713751
 10
3.194445553046155
 20
-4.763978483145857
 10
3.175007647698622
 20
-4.755779973626898
 10
3.165603111592316
 20
-4.761197320949147
 10
3.168538026990896
 20
-4.776254205315555
 10
3.149104863347626
 20
-4.807163041619345
 10
3.14481245268482
 20
-4.774948635576391
 10
3.146152576219808
 20
-4.761284592569457
 10
3.14435673543648
 20
-4.745051145209016
 10
3.138100017284171
 20
-4.733704642628013
 10
3.139425357583515
 20
-4.718913640045102
 10
3.150810578342593
 20
-4.707778060816091
 10
3.139171136674677
 20
-4.69382788187315
 10
3.132735513457595
 20
-4.668352710595045
 10
3.147769378580594
 20
-4.64251795814333
 10
3.144824680925567
 20
-4.616984175284856
 10
3.127932649755823
 20
-4.585885252583036
 10
3.138790784931024
 20
-4.551845325600033
 10
3.1793614183032
 20
-4.561985563125542
 10
3.205063317798905
 20
-4.562517720300939
 10
3.239215654661329
 20
-4.560778861981248
 10
3.264297301291232
 20
-4.562899161509372
 10
3.31093739114034
 20
-4.578284355042821
 10
3.265211555660597
 20
-4.677372744053589
 10
3.234044984218093
 20
-4.623705633385737
 10
3.243669730878082
 20
-4.611257870222175
 10
3.276462901068232
 20
-4.615407851420652
 10
3.257571611743704
 20
-4.587029788473993
 10
3.232645090937214
 20
-4.575102133498236
 10
3.196022008634245
 20
-4.589048539379708
 10
3.169727643996793
 20
-4.57970143467465
 10
3.154464619592873
 20
-4.590155095413567
 10
3.170079159217
 20
-4.614838929712997
 10
3.165598264033658
 20
-4.630729698190848
 10
3.167058985563433
 20
-4.640217175026943
 10
3.151940592788984
 20
-4.646099821903387
 10
3.165603623255972
 20
-4.651204150010951
 10
3.172728298535907
 20
-4.663708775005034
 10
3.199422025695071
 20
-4.645060728817447
 10
3.213576397207652
 20
-4.651213456288069
 10
3.22296204271231
 20
-4.655763170086983
 10
3.268073557374893
 20
-4.656149339280937
 10
3.250556128578876
 20
-4.670909575006299
 10
3.222605400118671
 20
-4.680804107079589
 10
3.141372159396963
 20
-4.6470865910613
 10
3.165603475276687
 20
-4.699478624141116
 10
3.171485901374504
 20
-4.715097932997031
 10
3.14959084890908
 20
-4.736516817251374
 10
3.169723280767066
 20
-4.743481765258644
 10
3.187640020592905
 20
-4.738839185890886
 10
3.215253273212738
 20
-4.741238472328025
 10
3.234051177438434
 20
-4.740729421827432
 10
3.265415943790697
 20
-4.733452324057439
 10
3.272544967549442
 20
-4.755455681916095
 10
3.268576535584896
 20
-4.781982421875
 97
        0
 97
        1
330
F7
 75
     2
 76
     1
 98
        1
 10
0.0
 20
0.0
450
        0
451
        0
460
0.0
461
0.0
452
        0
462
0.0
453
        0
470

  0
SPLINE
  5
F9
330
7F
100
AcDbEntity
  8
Layer 1
100
AcDbSpline
210
0.0
220
0.0
230
1.0
 70
     9
 71
     3
 72
    11
 73
     7
 74
     0
 42
0.0000000001
 43
0.0000000001
 40
0.0
 40
0.0
 40
0.0
 40
0.0
 40
1.0
 40
1.0
 40
1.0
 40
2.0
 40
2.0
 40
2.0
 40
2.0
 10
3.358101546435591
 20
-4.846700032552083
 30
0.0
 10
3.377771577299995
 20
-4.846921370385037
 30
0.0
 10
3.37903896935994
 20
-4.896304654630966
 30
0.0
 10
3.358104811035117
 20
-4.894672815596347
 30
0.0
 10
3.337121081904317
 20
-4.896462929373809
 30
0.0
 10
3.338482529793825
 20
-4.846871943375415
 30
0.0
 10
3.358101546435591
 20
-4.846700032552083
 30
0.0
  0
SPLINE
  5
FA
330
7F
100
AcDbEntity
  8
Layer 1
100
AcDbSpline
210
0.0
220
0.0
230
1.0
 70
     9
 71
     3
 72
    35
 73
    31
 74
     0
 42
0.0000000001
 43
0.0000000001
 40
0.0
 40
0.0
 40
0.0
 40
0.0
 40
1.0
 40
1.0
 40
1.0
 40
2.0
 40
2.0
 40
2.0
 40
3.0
 40
3.0
 40
3.0
 40
4.0
 40
4.0
 40
4.0
 40
5.0
 40
5.0
 40
5.0
 40
6.0
 40
6.0
 40
6.0
 40
7.0
 40
7.0
 40
7.0
 40
8.0
 40
8.0
 40
8.0
 40
9.0
 40
9.0
 40
9.0
 40
10.0
 40
10.0
 40
10.0
 40
10.0
 10
3.344355072911285
 20
-4.970452202690972
 30
0.0
 10
3.381484765520756
 20
-4.978646644425111
 30
0.0
 10
3.370489099134172
 20
-5.024678666208589
 30
0.0
 10
3.371853666641489
 20
-5.052646771841383
 30
0.0
 10
3.374697150735894
 20
-5.076212870321468
 30
0.0
 10
3.327289090956961
 20
-5.080699089535401
 30
0.0
 10
3.316854380488936
 20
-5.066404882377304
 30
0.0
 10
3.359342233193867
 20
-5.044737576284433
 30
0.0
 10
3.351047118330218
 20
-5.059245183061041
 30
0.0
 10
3.351072083619619
 20
-5.004668525938364
 30
0.0
 10
3.267571584983038
 20
-4.966157708267486
 30
0.0
 10
3.310241914219217
 20
-4.995785058150052
 30
0.0
 10
3.296388202927093
 20
-5.038895156930038
 30
0.0
 10
3.305330962906155
 20
-5.07703380851395
 30
0.0
 10
3.259945889269298
 20
-5.077150900752662
 30
0.0
 10
3.268882702039781
 20
-5.038899606742549
 30
0.0
 10
3.274830458448377
 20
-5.021693629590193
 30
0.0
 10
3.274785093557688
 20
-5.015154018221892
 30
0.0
 10
3.268872050168258
 20
-4.997952025693002
 30
0.0
 10
3.275174097089436
 20
-4.986770331258526
 30
0.0
 10
3.276845718494769
 20
-4.970147085597166
 30
0.0
 10
3.275598897178421
 20
-4.956704459808279
 30
0.0
 10
3.278822876171008
 20
-4.938859398092568
 30
0.0
 10
3.262798077949557
 20
-4.806623733193368
 30
0.0
 10
3.296382946943026
 20
-4.860446383114941
 30
0.0
 10
3.296380281693119
 20
-4.883934740538178
 30
0.0
 10
3.296382275079862
 20
-4.912409433074331
 30
0.0
 10
3.296381437562748
 20
-4.935926664979066
 30
0.0
 10
3.288629200551781
 20
-4.979085403444754
 30
0.0
 10
3.306713857850897
 20
-4.983232598180052
 30
0.0
 10
3.344355072911285
 20
-4.970452202690972
 30
0.0
  0
SPLINE
  5
FB
330
7F
100
AcDbEntity
  8
Layer 1
100
AcDbSpline
210
0.0
220
0.0
230
1.0
 70
     9
 71
     3
 72
    11
 73
     7
 74
     0
 42
0.0000000001
 43
0.0000000001
 40
0.0
 40
0.0
 40
0.0
 40
0.0
 40
1.0
 40
1.0
 40
1.0
 40
2.0
 40
2.0
 40
2.0
 40
2.0
 10
3.213577078119619
 20
-4.963426378038193
 30
0.0
 10
3.215051562732683
 20
-4.940760344908122
 30
0.0
 10
3.251476796185986
 20
-4.949308997658489
 30
0.0
 10
3.239393903099173
 20
-4.969538655155461
 30
0.0
 10
3.23270810333367
 20
-4.970077231892219
 30
0.0
 10
3.214216032170964
 20
-4.974287733047035
 30
0.0
 10
3.213577078119619
 20
-4.963426378038193
 30
0.0
  0
SPLINE
  5
FC
330
7F
100
AcDbEntity
  8
Layer 1
100
AcDbSpline
210
0.0
220
0.0
230
1.0
 70
     9
 71
     3
 72
    44
 73
    40
 74
     0
 42
0.0000000001
 43
0.0000000001
 40
0.0
 40
0.0
 40
0.0
 40
0.0
 40
1.0
 40
1.0
 40
1.0
 40
2.0
 40
2.0
 40
2.0
 40
3.0
 40
3.0
 40
3.0
 40
4.0
 40
4.0
 40
4.0
 40
5.0
 40
5.0
 40
5.0
 40
6.0
 40
6.0
 40
6.0
 40
7.0
 40
7.0
 40
7.0
 40
8.0
 40
8.0
 40
8.0
 40
9.0
 40
9.0
 40
9.0
 40
10.0
 40
10.0
 40
10.0
 40
11.0
 40
11.0
 40
11.0
 40
12.0
 40
12.0
 40
12.0
 40
13.0
 40
13.0
 40
13.0
 40
13.0
 10
3.254823280376563
 20
-4.908426920572916
 30
0.0
 10
3.261784046889488
 20
-4.928979812987424
 30
0.0
 10
3.210101991538926
 20
-4.926696795840762
 30
0.0
 10
3.206853765144298
 20
-4.915154520336058
 30
0.0
 10
3.217267276946447
 20
-4.904726403493833
 30
0.0
 10
3.255152313308435
 20
-4.90032430595233
 30
0.0
 10
3.234350664811788
 20
-4.874191003778315
 30
0.0
 10
3.226886498890697
 20
-4.860655083787453
 30
0.0
 10
3.206790870339091
 20
-4.880338769472485
 30
0.0
 10
3.193103551304842
 20
-4.87419180922566
 30
0.0
 10
3.151065720170258
 20
-4.867639174170512
 30
0.0
 10
3.169701629206479
 20
-4.934904539294456
 30
0.0
 10
3.165599531032865
 20
-4.963424757557604
 30
0.0
 10
3.158237950935964
 20
-5.023797567076826
 30
0.0
 10
3.16758350082787
 20
-5.013321104275064
 30
0.0
 10
3.220610968179509
 20
-5.011697912272311
 30
0.0
 10
3.235395981406061
 20
-5.011117469116103
 30
0.0
 10
3.223888404814778
 20
-5.048053780436197
 30
0.0
 10
3.227328803985654
 20
-5.059670440395266
 30
0.0
 10
3.227448472269467
 20
-5.071527867879429
 30
0.0
 10
3.209808730380801
 20
-5.060216258919328
 30
0.0
 10
3.213578755573937
 20
-5.073424850202311
 30
0.0
 10
3.193675513778139
 20
-5.06653381639017
 30
0.0
 10
3.223235820596616
 20
-5.029876323889411
 30
0.0
 10
3.20150495269431
 20
-5.022400592334368
 30
0.0
 10
3.183750206246486
 20
-5.01874821605069
 30
0.0
 10
3.162041529385987
 20
-5.039408993627185
 30
0.0
 10
3.149104115202931
 20
-5.026224495193698
 30
0.0
 10
3.138729133758526
 20
-5.012645181579765
 30
0.0
 10
3.14824592376682
 20
-4.976297112589715
 30
0.0
 10
3.145123609055265
 20
-4.956707083495782
 30
0.0
 10
3.128552171363505
 20
-4.932520111706113
 30
0.0
 10
3.146121570941318
 20
-4.906781774638741
 30
0.0
 10
3.145134253393823
 20
-4.880926705397452
 30
0.0
 10
3.140833570159657
 20
-4.845561054319103
 30
0.0
 10
3.183246912223125
 20
-4.85584530235168
 30
0.0
 10
3.204104228145562
 20
-4.852359200879365
 30
0.0
 10
3.239755668950566
 20
-4.830700400386098
 30
0.0
 10
3.277302482161707
 20
-4.875027730229488
 30
0.0
 10
3.254823280376563
 20
-4.908426920572916
 30
0.0
  0
HATCH
  5
FD
330
7F
100
AcDbEntity
  8
Layer 1
 62
   250
420
  2301728
440
 33554687
100
AcDbHatch
 10
0.0
 20
0.0
 30
0.0
210
0.0
220
0.0
230
1.0
  2
SOLID
 70
     1
 71
     1
 91
        4
 92
        1
 93
        1
 72
     4
 94
        3
 73
     0
 74
     0
 95
       11
 96
        7
 40
0.0
 40
0.0
 40
0.0
 40
0.0
 40
1.0
 40
1.0
 40
1.0
 40
2.0
 40
2.0
 40
2.0
 40
2.0
 10
3.358101546435591
 20
-4.846700032552083
 10
3.377771577299995
 20
-4.846921370385037
 10
3.37903896935994
 20
-4.896304654630966
 10
3.358104811035117
 20
-4.894672815596347
 10
3.337121081904317
 20
-4.896462929373809
 10
3.338482529793825
 20
-4.846871943375415
 10
3.358101546435591
 20
-4.846700032552083
 97
        0
 97
        1
330
F9
 92
        1
 93
        1
 72
     4
 94
        3
 73
     0
 74
     0
 95
       35
 96
       31
 40
0.0
 40
0.0
 40
0.0
 40
0.0
 40
1.0
 40
1.0
 40
1.0
 40
2.0
 40
2.0
 40
2.0
 40
3.0
 40
3.0
 40
3.0
 40
4.0
 40
4.0
 40
4.0
 40
5.0
 40
5.0
 40
5.0
 40
6.0
 40
6.0
 40
6.0
 40
7.0
 40
7.0
 40
7.0
 40
8.0
 40
8.0
 40
8.0
 40
9.0
 40
9.0
 40
9.0
 40
10.0
 40
10.0
 40
10.0
 40
10.0
 10
3.344355072911285
 20
-4.970452202690972
 10
3.381484765520756
 20
-4.978646644425111
 10
3.370489099134172
 20
-5.024678666208589
 10
3.371853666641489
 20
-5.052646771841383
 10
3.374697150735894
 20
-5.076212870321468
 10
3.327289090956961
 20
-5.080699089535401
 10
3.316854380488936
 20
-5.066404882377304
 10
3.359342233193867
 20
-5.044737576284433
 10
3.351047118330218
 20
-5.059245183061041
 10
3.351072083619619
 20
-5.004668525938364
 10
3.267571584983038
 20
-4.966157708267486
 10
3.310241914219217
 20
-4.995785058150052
 10
3.296388202927093
 20
-5.038895156930038
 10
3.305330962906155
 20
-5.07703380851395
 10
3.259945889269298
 20
-5.077150900752662
 10
3.268882702039781
 20
-5.038899606742549
 10
3.274830458448377
 20
-5.021693629590193
 10
3.274785093557688
 20
-5.015154018221892
 10
3.268872050168258
 20
-4.997952025693002
 10
3.275174097089436
 20
-4.986770331258526
 10
3.276845718494769
 20
-4.970147085597166
 10
3.275598897178421
 20
-4.956704459808279
 10
3.278822876171008
 20
-4.938859398092568
 10
3.262798077949557
 20
-4.806623733193368
 10
3.296382946943026
 20
-4.860446383114941
 10
3.296380281693119
 20
-4.883934740538178
 10
3.296382275079862
 20
-4.912409433074331
 10
3.296381437562748
 20
-4.935926664979066
 10
3.288629200551781
 20
-4.979085403444754
 10
3.306713857850897
 20
-4.983232598180052
 10
3.344355072911285
 20
-4.970452202690972
 97
        0
 97
        1
330
FA
 92
        1
 93
        1
 72
     4
 94
        3
 73
     0
 74
     0
 95
       11
 96
        7
 40
0.0
 40
0.0
 40
0.0
 40
0.0
 40
1.0
 40
1.0
 40
1.0
 40
2.0
 40
2.0
 40
2.0
 40
2.0
 10
3.213577078119619
 20
-4.963426378038193
 10
3.215051562732683
 20
-4.940760344908122
 10
3.251476796185986
 20
-4.949308997658489
 10
3.239393903099173
 20
-4.969538655155461
 10
3.23270810333367
 20
-4.970077231892219
 10
3.214216032170964
 20
-4.974287733047035
 10
3.213577078119619
 20
-4.963426378038193
 97
        0
 97
        1
330
FB
 92
        1
 93
        1
 72
     4
 94
        3
 73
     0
 74
     0
 95
       44
 96
       40
 40
0.0
 40
0.0
 40
0.0
 40
0.0
 40
1.0
 40
1.0
 40
1.0
 40
2.0
 40
2.0
 40
2.0
 40
3.0
 40
3.0
 40
3.0
 40
4.0
 40
4.0
 40
4.0
 40
5.0
 40
5.0
 40
5.0
 40
6.0
 40
6.0
 40
6.0
 40
7.0
 40
7.0
 40
7.0
 40
8.0
 40
8.0
 40
8.0
 40
9.0
 40
9.0
 40
9.0
 40
10.0
 40
10.0
 40
10.0
 40
11.0
 40
11.0
 40
11.0
 40
12.0
 40
12.0
 40
12.0
 40
13.0
 40
13.0
 40
13.0
 40
13.0
 10
3.254823280376563
 20
-4.908426920572916
 10
3.261784046889488
 20
-4.928979812987424
 10
3.210101991538926
 20
-4.926696795840762
 10
3.206853765144298
 20
-4.915154520336058
 10
3.217267276946447
 20
-4.904726403493833
 10
3.255152313308435
 20
-4.90032430595233
 10
3.234350664811788
 20
-4.874191003778315
 10
3.226886498890697
 20
-4.860655083787453
 10
3.206790870339091
 20
-4.880338769472485
 10
3.193103551304842
 20
-4.87419180922566
 10
3.151065720170258
 20
-4.867639174170512
 10
3.169701629206479
 20
-4.934904539294456
 10
3.165599531032865
 20
-4.963424757557604
 10
3.158237950935964
 20
-5.023797567076826
 10
3.16758350082787
 20
-5.013321104275064
 10
3.220610968179509
 20
-5.011697912272311
 10
3.235395981406061
 20
-5.011117469116103
 10
3.223888404814778
 20
-5.048053780436197
 10
3.227328803985654
 20
-5.059670440395266
 10
3.227448472269467
 20
-5.071527867879429
 10
3.209808730380801
 20
-5.060216258919328
 10
3.213578755573937
 20
-5.073424850202311
 10
3.193675513778139
 20
-5.06653381639017
 10
3.223235820596616
 20
-5.029876323889411
 10
3.20150495269431
 20
-5.022400592334368
 10
3.183750206246486
 20
-5.01874821605069
 10
3.162041529385987
 20
-5.039408993627185
 10
3.149104115202931
 20
-5.026224495193698
 10
3.138729133758526
 20
-5.012645181579765
 10
3.14824592376682
 20
-4.976297112589715
 10
3.145123609055265
 20
-4.956707083495782
 10
3.128552171363505
 20
-4.932520111706113
 10
3.146121570941318
 20
-4.906781774638741
 10
3.145134253393823
 20
-4.880926705397452
 10
3.140833570159657
 20
-4.845561054319103
 10
3.183246912223125
 20
-4.85584530235168
 10
3.204104228145562
 20
-4.852359200879365
 10
3.239755668950566
 20
-4.830700400386098
 10
3.277302482161707
 20
-4.875027730229488
 10
3.254823280376563
 20
-4.908426920572916
 97
        0
 97
        1
330
FC
 75
     2
 76
     1
 98
        1
 10
0.0
 20
0.0
450
        0
451
        0
460
0.0
461
0.0
452
        0
462
0.0
453
        0
470

  0
SPLINE
  5
FE
330
7F
100
AcDbEntity
  8
Layer 1
100
AcDbSpline
210
0.0
220
0.0
230
1.0
 70
     9
 71
     3
 72
    11
 73
     7
 74
     0
 42
0.0000000001
 43
0.0000000001
 40
0.0
 40
0.0
 40
0.0
 40
0.0
 40
1.0
 40
1.0
 40
1.0
 40
2.0
 40
2.0
 40
2.0
 40
2.0
 10
3.298212494786285
 20
-5.325147840711805
 30
0.0
 10
3.32224179409358
 20
-5.326422229372736
 30
0.0
 10
3.322232156533813
 20
-5.350470096968251
 30
0.0
 10
3.298208213637242
 20
-5.351731845320411
 30
0.0
 10
3.281083765046837
 20
-5.351412635902256
 30
0.0
 10
3.280940659058993
 20
-5.325289036179052
 30
0.0
 10
3.298212494786285
 20
-5.325147840711805
 30
0.0
  0
SPLINE
  5
FF
330
7F
100
AcDbEntity
  8
Layer 1
100
AcDbSpline
210
0.0
220
0.0
230
1.0
 70
     9
 71
     3
 72
    11
 73
     7
 74
     0
 42
0.0000000001
 43
0.0000000001
 40
0.0
 40
0.0
 40
0.0
 40
0.0
 40
1.0
 40
1.0
 40
1.0
 40
2.0
 40
2.0
 40
2.0
 40
2.0
 10
3.318076047303646
 20
-5.1917724609375
 30
0.0
 10
3.314387982673173
 20
-5.206694343594739
 30
0.0
 10
3.285539060947472
 20
-5.210739767362724
 30
0.0
 10
3.284771742784098
 20
-5.191771619093527
 30
0.0
 10
3.285343318847152
 20
-5.172651999331454
 30
0.0
 10
3.314437187348617
 20
-5.176937443258666
 30
0.0
 10
3.318076047303646
 20
-5.1917724609375
 30
0.0
  0
SPLINE
  5
100
330
7F
100
AcDbEntity
  8
Layer 1
100
AcDbSpline
210
0.0
220
0.0
230
1.0
 70
     9
 71
     3
 72
    38
 73
    34
 74
     0
 42
0.0000000001
 43
0.0000000001
 40
0.0
 40
0.0
 40
0.0
 40
0.0
 40
1.0
 40
1.0
 40
1.0
 40
2.0
 40
2.0
 40
2.0
 40
3.0
 40
3.0
 40
3.0
 40
4.0
 40
4.0
 40
4.0
 40
5.0
 40
5.0
 40
5.0
 40
6.0
 40
6.0
 40
6.0
 40
7.0
 40
7.0
 40
7.0
 40
8.0
 40
8.0
 40
8.0
 40
9.0
 40
9.0
 40
9.0
 40
10.0
 40
10.0
 40
10.0
 40
11.0
 40
11.0
 40
11.0
 40
11.0
 10
3.351380897564063
 20
-5.131422254774305
 30
0.0
 10
3.379664168576873
 20
-5.134881543371534
 30
0.0
 10
3.35876502907475
 20
-5.244879110693911
 30
0.0
 10
3.364837699138522
 20
-5.271671677125532
 30
0.0
 10
3.369039010019693
 20
-5.300437254919693
 30
0.0
 10
3.353694887581544
 20
-5.325482588450527
 30
0.0
 10
3.364828477626676
 20
-5.351730776982005
 30
0.0
 10
3.317243346063277
 20
-5.381285190693447
 30
0.0
 10
3.359819675473759
 20
-5.319734524736026
 30
0.0
 10
3.33825026994201
 20
-5.304676207761556
 30
0.0
 10
3.330598672736186
 20
-5.298752215267111
 30
0.0
 10
3.327528298009168
 20
-5.31387069749073
 30
0.0
 10
3.318075659434637
 20
-5.31169770192269
 30
0.0
 10
3.304811761655148
 20
-5.307880198477732
 30
0.0
 10
3.275868805232435
 20
-5.298572167126583
 30
0.0
 10
3.298212870472967
 20
-5.285117308407734
 30
0.0
 10
3.318091241305852
 20
-5.283006005372739
 30
0.0
 10
3.354996975829761
 20
-5.297365653059399
 30
0.0
 10
3.338241028163035
 20
-5.264647289791532
 30
0.0
 10
3.340099376478267
 20
-5.253064600850014
 30
0.0
 10
3.349048842631266
 20
-5.24805800947422
 30
0.0
 10
3.333961390928164
 20
-5.242039382807584
 30
0.0
 10
3.316495179356707
 20
-5.243310984537136
 30
0.0
 10
3.262409184728994
 20
-5.258186258860342
 30
0.0
 10
3.27208871662079
 20
-5.225989736723199
 30
0.0
 10
3.396029488509093
 20
-5.225931422676757
 30
0.0
 10
3.31560321308191
 20
-5.237747670284672
 30
0.0
 10
3.346479559636552
 20
-5.162308030620541
 30
0.0
 10
3.343868027246091
 20
-5.148889402998912
 30
0.0
 10
3.327430827907555
 20
-5.158841867487441
 30
0.0
 10
3.318076860027467
 20
-5.158006419972998
 30
0.0
 10
3.292311855378759
 20
-5.139054131122103
 30
0.0
 10
3.33632986311482
 20
-5.134538360874216
 30
0.0
 10
3.351380897564063
 20
-5.131422254774305
 30
0.0
  0
SPLINE
  5
101
330
7F
100
AcDbEntity
  8
Layer 1
100
AcDbSpline
210
0.0
220
0.0
230
1.0
 70
     9
 71
     3
 72
    47
 73
    43
 74
     0
 42
0.0000000001
 43
0.0000000001
 40
0.0
 40
0.0
 40
0.0
 40
0.0
 40
1.0
 40
1.0
 40
1.0
 40
2.0
 40
2.0
 40
2.0
 40
3.0
 40
3.0
 40
3.0
 40
4.0
 40
4.0
 40
4.0
 40
5.0
 40
5.0
 40
5.0
 40
6.0
 40
6.0
 40
6.0
 40
7.0
 40
7.0
 40
7.0
 40
8.0
 40
8.0
 40
8.0
 40
9.0
 40
9.0
 40
9.0
 40
10.0
 40
10.0
 40
10.0
 40
11.0
 40
11.0
 40
11.0
 40
12.0
 40
12.0
 40
12.0
 40
13.0
 40
13.0
 40
13.0
 40
14.0
 40
14.0
 40
14.0
 40
14.0
 10
3.211128890185591
 20
-5.13814968532986
 30
0.0
 10
3.299452886807696
 20
-5.121423642124404
 30
0.0
 10
3.239420600200294
 20
-5.229744562277624
 30
0.0
 10
3.237244252194462
 20
-5.165802787106827
 30
0.0
 10
3.227104304604128
 20
-5.156145970816711
 30
0.0
 10
3.201373746227785
 20
-5.157635067814036
 30
0.0
 10
3.184549435682495
 20
-5.158009230434408
 30
0.0
 10
3.162202543918321
 20
-5.170898883788077
 30
0.0
 10
3.165026248593486
 20
-5.199629739964607
 30
0.0
 10
3.178127459465271
 20
-5.218200522686894
 30
0.0
 10
3.200411689498107
 20
-5.218418088026661
 30
0.0
 10
3.228573086532883
 20
-5.233741092871733
 30
0.0
 10
3.244439801922516
 20
-5.245078235170518
 30
0.0
 10
3.244425602084573
 20
-5.262851686173878
 30
0.0
 10
3.244439606521975
 20
-5.287215309220552
 30
0.0
 10
3.244433722629789
 20
-5.304979134376329
 30
0.0
 10
3.250758962910758
 20
-5.31643617338121
 30
0.0
 10
3.25854639859987
 20
-5.346021633209551
 30
0.0
 10
3.244438613011172
 20
-5.351734814805151
 30
0.0
 10
3.225195305409404
 20
-5.368188610423278
 30
0.0
 10
3.178264080145746
 20
-5.353307999803582
 30
0.0
 10
3.151513554977074
 20
-5.358156612158482
 30
0.0
 10
3.136994893605863
 20
-5.346700842705078
 30
0.0
 10
3.134540972936532
 20
-5.307766458427017
 30
0.0
 10
3.160569051902522
 20
-5.322242162559657
 30
0.0
 10
3.168601107402903
 20
-5.332575045289988
 30
0.0
 10
3.159722686954258
 20
-5.34144084526867
 30
0.0
 10
3.178131932922547
 20
-5.338280460956045
 30
0.0
 10
3.184840037184484
 20
-5.308728526343328
 30
0.0
 10
3.161268964066733
 20
-5.279097048261089
 30
0.0
 10
3.184559166830442
 20
-5.251505772939291
 30
0.0
 10
3.211271942895185
 20
-5.259775732470302
 30
0.0
 10
3.194390726194215
 20
-5.309173414203907
 30
0.0
 10
3.19524625379736
 20
-5.33034007684897
 30
0.0
 10
3.204156233866115
 20
-5.357567841048105
 30
0.0
 10
3.240221809298077
 20
-5.332277215095359
 30
0.0
 10
3.224571046249227
 20
-5.311702580845095
 30
0.0
 10
3.219650739431004
 20
-5.290459558879458
 30
0.0
 10
3.239627680500827
 20
-5.242435186419078
 30
0.0
 10
3.204717686556566
 20
-5.251507888613976
 30
0.0
 10
3.129937352196507
 20
-5.232391595045012
 30
0.0
 10
3.116241969713099
 20
-5.12905350949701
 30
0.0
 10
3.211128890185591
 20
-5.13814968532986
 30
0.0
  0
HATCH
  5
102
330
7F
100
AcDbEntity
  8
Layer 1
 62
   250
420
  2301728
440
 33554687
100
AcDbHatch
 10
0.0
 20
0.0
 30
0.0
210
0.0
220
0.0
230
1.0
  2
SOLID
 70
     1
 71
     1
 91
        4
 92
        1
 93
        1
 72
     4
 94
        3
 73
     0
 74
     0
 95
       11
 96
        7
 40
0.0
 40
0.0
 40
0.0
 40
0.0
 40
1.0
 40
1.0
 40
1.0
 40
2.0
 40
2.0
 40
2.0
 40
2.0
 10
3.298212494786285
 20
-5.325147840711805
 10
3.32224179409358
 20
-5.326422229372736
 10
3.322232156533813
 20
-5.350470096968251
 10
3.298208213637242
 20
-5.351731845320411
 10
3.281083765046837
 20
-5.351412635902256
 10
3.280940659058993
 20
-5.325289036179052
 10
3.298212494786285
 20
-5.325147840711805
 97
        0
 97
        1
330
FE
 92
        1
 93
        1
 72
     4
 94
        3
 73
     0
 74
     0
 95
       11
 96
        7
 40
0.0
 40
0.0
 40
0.0
 40
0.0
 40
1.0
 40
1.0
 40
1.0
 40
2.0
 40
2.0
 40
2.0
 40
2.0
 10
3.318076047303646
 20
-5.1917724609375
 10
3.314387982673173
 20
-5.206694343594739
 10
3.285539060947472
 20
-5.210739767362724
 10
3.284771742784098
 20
-5.191771619093527
 10
3.285343318847152
 20
-5.172651999331454
 10
3.314437187348617
 20
-5.176937443258666
 10
3.318076047303646
 20
-5.1917724609375
 97
        0
 97
        1
330
FF
 92
        1
 93
        1
 72
     4
 94
        3
 73
     0
 74
     0
 95
       38
 96
       34
 40
0.0
 40
0.0
 40
0.0
 40
0.0
 40
1.0
 40
1.0
 40
1.0
 40
2.0
 40
2.0
 40
2.0
 40
3.0
 40
3.0
 40
3.0
 40
4.0
 40
4.0
 40
4.0
 40
5.0
 40
5.0
 40
5.0
 40
6.0
 40
6.0
 40
6.0
 40
7.0
 40
7.0
 40
7.0
 40
8.0
 40
8.0
 40
8.0
 40
9.0
 40
9.0
 40
9.0
 40
10.0
 40
10.0
 40
10.0
 40
11.0
 40
11.0
 40
11.0
 40
11.0
 10
3.351380897564063
 20
-5.131422254774305
 10
3.379664168576873
 20
-5.134881543371534
 10
3.35876502907475
 20
-5.244879110693911
 10
3.364837699138522
 20
-5.271671677125532
 10
3.369039010019693
 20
-5.300437254919693
 10
3.353694887581544
 20
-5.325482588450527
 10
3.364828477626676
 20
-5.351730776982005
 10
3.317243346063277
 20
-5.381285190693447
 10
3.359819675473759
 20
-5.319734524736026
 10
3.33825026994201
 20
-5.304676207761556
 10
3.330598672736186
 20
-5.298752215267111
 10
3.327528298009168
 20
-5.31387069749073
 10
3.318075659434637
 20
-5.31169770192269
 10
3.304811761655148
 20
-5.307880198477732
 10
3.275868805232435
 20
-5.298572167126583
 10
3.298212870472967
 20
-5.285117308407734
 10
3.318091241305852
 20
-5.283006005372739
 10
3.354996975829761
 20
-5.297365653059399
 10
3.338241028163035
 20
-5.264647289791532
 10
3.340099376478267
 20
-5.253064600850014
 10
3.349048842631266
 20
-5.24805800947422
 10
3.333961390928164
 20
-5.242039382807584
 10
3.316495179356707
 20
-5.243310984537136
 10
3.262409184728994
 20
-5.258186258860342
 10
3.27208871662079
 20
-5.225989736723199
 10
3.396029488509093
 20
-5.225931422676757
 10
3.31560321308191
 20
-5.237747670284672
 10
3.346479559636552
 20
-5.162308030620541
 10
3.343868027246091
 20
-5.148889402998912
 10
3.327430827907555
 20
-5.158841867487441
 10
3.318076860027467
 20
-5.158006419972998
 10
3.292311855378759
 20
-5.139054131122103
 10
3.33632986311482
 20
-5.134538360874216
 10
3.351380897564063
 20
-5.131422254774305
 97
        0
 97
        1
330
100
 92
        1
 93
        1
 72
     4
 94
        3
 73
     0
 74
     0
 95
       47
 96
       43
 40
0.0
 40
0.0
 40
0.0
 40
0.0
 40
1.0
 40
1.0
 40
1.0
 40
2.0
 40
2.0
 40
2.0
 40
3.0
 40
3.0
 40
3.0
 40
4.0
 40
4.0
 40
4.0
 40
5.0
 40
5.0
 40
5.0
 40
6.0
 40
6.0
 40
6.0
 40
7.0
 40
7.0
 40
7.0
 40
8.0
 40
8.0
 40
8.0
 40
9.0
 40
9.0
 40
9.0
 40
10.0
 40
10.0
 40
10.0
 40
11.0
 40
11.0
 40
11.0
 40
12.0
 40
12.0
 40
12.0
 40
13.0
 40
13.0
 40
13.0
 40
14.0
 40
14.0
 40
14.0
 40
14.0
 10
3.211128890185591
 20
-5.13814968532986
 10
3.299452886807696
 20
-5.121423642124404
 10
3.239420600200294
 20
-5.229744562277624
 10
3.237244252194462
 20
-5.165802787106827
 10
3.227104304604128
 20
-5.156145970816711
 10
3.201373746227785
 20
-5.157635067814036
 10
3.184549435682495
 20
-5.158009230434408
 10
3.162202543918321
 20
-5.170898883788077
 10
3.165026248593486
 20
-5.199629739964607
 10
3.178127459465271
 20
-5.218200522686894
 10
3.200411689498107
 20
-5.218418088026661
 10
3.228573086532883
 20
-5.233741092871733
 10
3.244439801922516
 20
-5.245078235170518
 10
3.244425602084573
 20
-5.262851686173878
 10
3.244439606521975
 20
-5.287215309220552
 10
3.244433722629789
 20
-5.304979134376329
 10
3.250758962910758
 20
-5.31643617338121
 10
3.25854639859987
 20
-5.346021633209551
 10
3.244438613011172
 20
-5.351734814805151
 10
3.225195305409404
 20
-5.368188610423278
 10
3.178264080145746
 20
-5.353307999803582
 10
3.151513554977074
 20
-5.358156612158482
 10
3.136994893605863
 20
-5.346700842705078
 10
3.134540972936532
 20
-5.307766458427017
 10
3.160569051902522
 20
-5.322242162559657
 10
3.168601107402903
 20
-5.332575045289988
 10
3.159722686954258
 20
-5.34144084526867
 10
3.178131932922547
 20
-5.338280460956045
 10
3.184840037184484
 20
-5.308728526343328
 10
3.161268964066733
 20
-5.279097048261089
 10
3.184559166830442
 20
-5.251505772939291
 10
3.211271942895185
 20
-5.259775732470302
 10
3.194390726194215
 20
-5.309173414203907
 10
3.19524625379736
 20
-5.33034007684897
 10
3.204156233866115
 20
-5.357567841048105
 10
3.240221809298077
 20
-5.332277215095359
 10
3.224571046249227
 20
-5.311702580845095
 10
3.219650739431004
 20
-5.290459558879458
 10
3.239627680500827
 20
-5.242435186419078
 10
3.204717686556566
 20
-5.251507888613976
 10
3.129937352196507
 20
-5.232391595045012
 10
3.116241969713099
 20
-5.12905350949701
 10
3.211128890185591
 20
-5.13814968532986
 97
        0
 97
        1
330
101
 75
     2
 76
     1
 98
        1
 10
0.0
 20
0.0
450
        0
451
        0
460
0.0
461
0.0
452
        0
462
0.0
453
        0
470

  0
SPLINE
  5
103
330
7F
100
AcDbEntity
  8
Layer 1
100
AcDbSpline
210
0.0
220
0.0
230
1.0
 70
     9
 71
     3
 72
    38
 73
    34
 74
     0
 42
0.0000000001
 43
0.0000000001
 40
0.0
 40
0.0
 40
0.0
 40
0.0
 40
1.0
 40
1.0
 40
1.0
 40
2.0
 40
2.0
 40
2.0
 40
3.0
 40
3.0
 40
3.0
 40
4.0
 40
4.0
 40
4.0
 40
5.0
 40
5.0
 40
5.0
 40
6.0
 40
6.0
 40
6.0
 40
7.0
 40
7.0
 40
7.0
 40
8.0
 40
8.0
 40
8.0
 40
9.0
 40
9.0
 40
9.0
 40
10.0
 40
10.0
 40
10.0
 40
11.0
 40
11.0
 40
11.0
 40
11.0
 10
3.351380897564063
 20
-5.416151258680555
 30
0.0
 10
3.363570347684079
 20
-5.428372132503278
 30
0.0
 10
3.356910552577472
 20
-5.456876054462339
 30
0.0
 10
3.358407181083306
 20
-5.475736500483245
 30
0.0
 10
3.373009953171263
 20
-5.492396577620461
 30
0.0
 10
3.35290699431141
 20
-5.507187670665668
 30
0.0
 10
3.361762150165923
 20
-5.523412188424117
 30
0.0
 10
3.371772009758716
 20
-5.539945581328538
 30
0.0
 10
3.353508181484382
 20
-5.558256359263623
 30
0.0
 10
3.358410446735989
 20
-5.576266941536206
 30
0.0
 10
3.354897757763207
 20
-5.588996051173934
 30
0.0
 10
3.36669913272207
 20
-5.624809308803857
 30
0.0
 10
3.351386711630955
 20
-5.629437477550279
 30
0.0
 10
3.319795239700725
 20
-5.636016789067803
 30
0.0
 10
3.298509150567661
 20
-5.612518119542932
 30
0.0
 10
3.338548933593781
 20
-5.609561958142901
 30
0.0
 10
3.330309908356184
 20
-5.584130318670253
 30
0.0
 10
3.341303011596651
 20
-5.552999521665342
 30
0.0
 10
3.338550735253912
 20
-5.522486746299515
 30
0.0
 10
3.336516361371195
 20
-5.490155527073991
 30
0.0
 10
3.351053060769989
 20
-5.391435301906906
 30
0.0
 10
3.307838439764623
 20
-5.466729199340912
 30
0.0
 10
3.251248662415352
 20
-5.497588396104977
 30
0.0
 10
3.298035228963019
 20
-5.511834538159519
 30
0.0
 10
3.331833821475672
 20
-5.536246992773334
 30
0.0
 10
3.323866392575079
 20
-5.592539710014003
 30
0.0
 10
3.259142210439184
 20
-5.499321150028562
 30
0.0
 10
3.251765456875482
 20
-5.482766318872791
 30
0.0
 10
3.265970669990843
 20
-5.462514518141802
 30
0.0
 10
3.302286850809145
 20
-5.45566937123437
 30
0.0
 10
3.302344408364155
 20
-5.427762844284921
 30
0.0
 10
3.312532676215469
 20
-5.41570153354539
 30
0.0
 10
3.335776904407894
 20
-5.423573637776939
 30
0.0
 10
3.351380897564063
 20
-5.416151258680555
 30
0.0
  0
SPLINE
  5
104
330
7F
100
AcDbEntity
  8
Layer 1
100
AcDbSpline
210
0.0
220
0.0
230
1.0
 70
     9
 71
     3
 72
    14
 73
    10
 74
     0
 42
0.0000000001
 43
0.0000000001
 40
0.0
 40
0.0
 40
0.0
 40
0.0
 40
1.0
 40
1.0
 40
1.0
 40
2.0
 40
2.0
 40
2.0
 40
3.0
 40
3.0
 40
3.0
 40
3.0
 10
3.211434065966841
 20
-5.455878363715277
 30
0.0
 10
3.239360594907149
 20
-5.466943590147252
 30
0.0
 10
3.218444608374284
 20
-5.52427260595386
 30
0.0
 10
3.224586100189399
 20
-5.549679297567207
 30
0.0
 10
3.212324653343165
 20
-5.580544851546719
 30
0.0
 10
3.189598200572529
 20
-5.551056374108333
 30
0.0
 10
3.204725940496713
 20
-5.529516117012159
 30
0.0
 10
3.211302748098735
 20
-5.506931234227421
 30
0.0
 10
3.179870058003719
 20
-5.465685943993586
 30
0.0
 10
3.211434065966841
 20
-5.455878363715277
 30
0.0
  0
SPLINE
  5
105
330
7F
100
AcDbEntity
  8
Layer 1
100
AcDbSpline
210
0.0
220
0.0
230
1.0
 70
     9
 71
     3
 72
    11
 73
     7
 74
     0
 42
0.0000000001
 43
0.0000000001
 40
0.0
 40
0.0
 40
0.0
 40
0.0
 40
1.0
 40
1.0
 40
1.0
 40
2.0
 40
2.0
 40
2.0
 40
2.0
 10
3.211434065966841
 20
-5.422566731770833
 30
0.0
 10
3.229952477697831
 20
-5.422991408272777
 30
0.0
 10
3.227764028615915
 20
-5.455623513139205
 30
0.0
 10
3.211433739615724
 20
-5.455878274135582
 30
0.0
 10
3.186942292787004
 20
-5.454648521258238
 30
0.0
 10
3.185305536201389
 20
-5.42288952962983
 30
0.0
 10
3.211434065966841
 20
-5.422566731770833
 30
0.0
  0
SPLINE
  5
106
330
7F
100
AcDbEntity
  8
Layer 1
100
AcDbSpline
210
0.0
220
0.0
230
1.0
 70
     9
 71
     3
 72
    14
 73
    10
 74
     0
 42
0.0000000001
 43
0.0000000001
 40
0.0
 40
0.0
 40
0.0
 40
0.0
 40
1.0
 40
1.0
 40
1.0
 40
2.0
 40
2.0
 40
2.0
 40
3.0
 40
3.0
 40
3.0
 40
3.0
 10
3.144519189664757
 20
-5.469319661458333
 30
0.0
 10
3.177998867405272
 20
-5.412496482459775
 30
0.0
 10
3.176170095443922
 20
-5.544384869534168
 30
0.0
 10
3.16698173707218
 20
-5.558849983795097
 30
0.0
 10
3.140631148570706
 20
-5.576517319517834
 30
0.0
 10
3.154431387850991
 20
-5.522093829654092
 30
0.0
 10
3.15123743431233
 20
-5.509347839957272
 30
0.0
 10
3.148696623892785
 20
-5.496427098221247
 30
0.0
 10
3.141709297273122
 20
-5.48342239003456
 30
0.0
 10
3.144519189664757
 20
-5.469319661458333
 30
0.0
  0
SPLINE
  5
107
330
7F
100
AcDbEntity
  8
Layer 1
100
AcDbSpline
210
0.0
220
0.0
230
1.0
 70
     9
 71
     3
 72
    11
 73
     7
 74
     0
 42
0.0000000001
 43
0.0000000001
 40
0.0
 40
0.0
 40
0.0
 40
0.0
 40
1.0
 40
1.0
 40
1.0
 40
2.0
 40
2.0
 40
2.0
 40
2.0
 10
3.177824039925174
 20
-5.436021592881943
 30
0.0
 10
3.18012663182608
 20
-5.461072715661202
 30
0.0
 10
3.141846059521058
 20
-5.463110631773436
 30
0.0
 10
3.144519523991953
 20
-5.436020091118368
 30
0.0
 10
3.145165294893356
 20
-5.417189379820253
 30
0.0
 10
3.177284250038989
 20
-5.419461151648722
 30
0.0
 10
3.177824039925174
 20
-5.436021592881943
 30
0.0
  0
SPLINE
  5
108
330
7F
100
AcDbEntity
  8
Layer 1
100
AcDbSpline
210
0.0
220
0.0
230
1.0
 70
     9
 71
     3
 72
    32
 73
    28
 74
     0
 42
0.0000000001
 43
0.0000000001
 40
0.0
 40
0.0
 40
0.0
 40
0.0
 40
1.0
 40
1.0
 40
1.0
 40
2.0
 40
2.0
 40
2.0
 40
3.0
 40
3.0
 40
3.0
 40
4.0
 40
4.0
 40
4.0
 40
5.0
 40
5.0
 40
5.0
 40
6.0
 40
6.0
 40
6.0
 40
7.0
 40
7.0
 40
7.0
 40
8.0
 40
8.0
 40
8.0
 40
9.0
 40
9.0
 40
9.0
 40
9.0
 10
3.28477119704323
 20
-5.576266818576388
 30
0.0
 10
3.310788080425405
 20
-5.573311233546115
 30
0.0
 10
3.293520156972249
 20
-5.620989109193638
 30
0.0
 10
3.298218243990618
 20
-5.636459796708751
 30
0.0
 10
3.277809005354368
 20
-5.650695958211245
 30
0.0
 10
3.242146871243941
 20
-5.639501260153312
 30
0.0
 10
3.218162422675024
 20
-5.642881879197753
 30
0.0
 10
3.194154573701477
 20
-5.639489330132391
 30
0.0
 10
3.15849736593917
 20
-5.650713062712561
 30
0.0
 10
3.138102654506673
 20
-5.636466845493638
 30
0.0
 10
3.140945935613141
 20
-5.62158123841833
 30
0.0
 10
3.127182057567248
 20
-5.569024192357674
 30
0.0
 10
3.156895271435574
 20
-5.585895744158859
 30
0.0
 10
3.15564633322837
 20
-5.63856953226741
 30
0.0
 10
3.157695296786111
 20
-5.624388452857879
 30
0.0
 10
3.204718422278599
 20
-5.623021526058082
 30
0.0
 10
3.208489388700804
 20
-5.609995113818158
 30
0.0
 10
3.196784976559481
 20
-5.571151486567132
 30
0.0
 10
3.227024928882049
 20
-5.586344602935114
 30
0.0
 10
3.241637194311566
 20
-5.630004263773495
 30
0.0
 10
3.208625674732136
 20
-5.622719804034785
 30
0.0
 10
3.270266249364453
 20
-5.625752836479831
 30
0.0
 10
3.289628210178016
 20
-5.623109934927874
 30
0.0
 10
3.27167551512337
 20
-5.613957466360387
 30
0.0
 10
3.271625613696199
 20
-5.603149845203612
 30
0.0
 10
3.27737283967167
 20
-5.595483220097295
 30
0.0
 10
3.27510209655227
 20
-5.579035237029302
 30
0.0
 10
3.28477119704323
 20
-5.576266818576388
 30
0.0
  0
HATCH
  5
109
330
7F
100
AcDbEntity
  8
Layer 1
 62
   250
420
  2301728
440
 33554687
100
AcDbHatch
 10
0.0
 20
0.0
 30
0.0
210
0.0
220
0.0
230
1.0
  2
SOLID
 70
     1
 71
     1
 91
        6
 92
        1
 93
        1
 72
     4
 94
        3
 73
     0
 74
     0
 95
       38
 96
       34
 40
0.0
 40
0.0
 40
0.0
 40
0.0
 40
1.0
 40
1.0
 40
1.0
 40
2.0
 40
2.0
 40
2.0
 40
3.0
 40
3.0
 40
3.0
 40
4.0
 40
4.0
 40
4.0
 40
5.0
 40
5.0
 40
5.0
 40
6.0
 40
6.0
 40
6.0
 40
7.0
 40
7.0
 40
7.0
 40
8.0
 40
8.0
 40
8.0
 40
9.0
 40
9.0
 40
9.0
 40
10.0
 40
10.0
 40
10.0
 40
11.0
 40
11.0
 40
11.0
 40
11.0
 10
3.351380897564063
 20
-5.416151258680555
 10
3.363570347684079
 20
-5.428372132503278
 10
3.356910552577472
 20
-5.456876054462339
 10
3.358407181083306
 20
-5.475736500483245
 10
3.373009953171263
 20
-5.492396577620461
 10
3.35290699431141
 20
-5.507187670665668
 10
3.361762150165923
 20
-5.523412188424117
 10
3.371772009758716
 20
-5.539945581328538
 10
3.353508181484382
 20
-5.558256359263623
 10
3.358410446735989
 20
-5.576266941536206
 10
3.354897757763207
 20
-5.588996051173934
 10
3.36669913272207
 20
-5.624809308803857
 10
3.351386711630955
 20
-5.629437477550279
 10
3.319795239700725
 20
-5.636016789067803
 10
3.298509150567661
 20
-5.612518119542932
 10
3.338548933593781
 20
-5.609561958142901
 10
3.330309908356184
 20
-5.584130318670253
 10
3.341303011596651
 20
-5.552999521665342
 10
3.338550735253912
 20
-5.522486746299515
 10
3.336516361371195
 20
-5.490155527073991
 10
3.351053060769989
 20
-5.391435301906906
 10
3.307838439764623
 20
-5.466729199340912
 10
3.251248662415352
 20
-5.497588396104977
 10
3.298035228963019
 20
-5.511834538159519
 10
3.331833821475672
 20
-5.536246992773334
 10
3.323866392575079
 20
-5.592539710014003
 10
3.259142210439184
 20
-5.499321150028562
 10
3.251765456875482
 20
-5.482766318872791
 10
3.265970669990843
 20
-5.462514518141802
 10
3.302286850809145
 20
-5.45566937123437
 10
3.302344408364155
 20
-5.427762844284921
 10
3.312532676215469
 20
-5.41570153354539
 10
3.335776904407894
 20
-5.423573637776939
 10
3.351380897564063
 20
-5.416151258680555
 97
        0
 97
        1
330
103
 92
        1
 93
        1
 72
     4
 94
        3
 73
     0
 74
     0
 95
       14
 96
       10
 40
0.0
 40
0.0
 40
0.0
 40
0.0
 40
1.0
 40
1.0
 40
1.0
 40
2.0
 40
2.0
 40
2.0
 40
3.0
 40
3.0
 40
3.0
 40
3.0
 10
3.211434065966841
 20
-5.455878363715277
 10
3.239360594907149
 20
-5.466943590147252
 10
3.218444608374284
 20
-5.52427260595386
 10
3.224586100189399
 20
-5.549679297567207
 10
3.212324653343165
 20
-5.580544851546719
 10
3.189598200572529
 20
-5.551056374108333
 10
3.204725940496713
 20
-5.529516117012159
 10
3.211302748098735
 20
-5.506931234227421
 10
3.179870058003719
 20
-5.465685943993586
 10
3.211434065966841
 20
-5.455878363715277
 97
        0
 97
        1
330
104
 92
        1
 93
        1
 72
     4
 94
        3
 73
     0
 74
     0
 95
       11
 96
        7
 40
0.0
 40
0.0
 40
0.0
 40
0.0
 40
1.0
 40
1.0
 40
1.0
 40
2.0
 40
2.0
 40
2.0
 40
2.0
 10
3.211434065966841
 20
-5.422566731770833
 10
3.229952477697831
 20
-5.422991408272777
 10
3.227764028615915
 20
-5.455623513139205
 10
3.211433739615724
 20
-5.455878274135582
 10
3.186942292787004
 20
-5.454648521258238
 10
3.185305536201389
 20
-5.42288952962983
 10
3.211434065966841
 20
-5.422566731770833
 97
        0
 97
        1
330
105
 92
        1
 93
        1
 72
     4
 94
        3
 73
     0
 74
     0
 95
       14
 96
       10
 40
0.0
 40
0.0
 40
0.0
 40
0.0
 40
1.0
 40
1.0
 40
1.0
 40
2.0
 40
2.0
 40
2.0
 40
3.0
 40
3.0
 40
3.0
 40
3.0
 10
3.144519189664757
 20
-5.469319661458333
 10
3.177998867405272
 20
-5.412496482459775
 10
3.176170095443922
 20
-5.544384869534168
 10
3.16698173707218
 20
-5.558849983795097
 10
3.140631148570706
 20
-5.576517319517834
 10
3.154431387850991
 20
-5.522093829654092
 10
3.15123743431233
 20
-5.509347839957272
 10
3.148696623892785
 20
-5.496427098221247
 10
3.141709297273122
 20
-5.48342239003456
 10
3.144519189664757
 20
-5.469319661458333
 97
        0
 97
        1
330
106
 92
        1
 93
        1
 72
     4
 94
        3
 73
     0
 74
     0
 95
       11
 96
        7
 40
0.0
 40
0.0
 40
0.0
 40
0.0
 40
1.0
 40
1.0
 40
1.0
 40
2.0
 40
2.0
 40
2.0
 40
2.0
 10
3.177824039925174
 20
-5.436021592881943
 10
3.18012663182608
 20
-5.461072715661202
 10
3.141846059521058
 20
-5.463110631773436
 10
3.144519523991953
 20
-5.436020091118368
 10
3.145165294893356
 20
-5.417189379820253
 10
3.177284250038989
 20
-5.419461151648722
 10
3.177824039925174
 20
-5.436021592881943
 97
        0
 97
        1
330
107
 92
        1
 93
        1
 72
     4
 94
        3
 73
     0
 74
     0
 95
       32
 96
       28
 40
0.0
 40
0.0
 40
0.0
 40
0.0
 40
1.0
 40
1.0
 40
1.0
 40
2.0
 40
2.0
 40
2.0
 40
3.0
 40
3.0
 40
3.0
 40
4.0
 40
4.0
 40
4.0
 40
5.0
 40
5.0
 40
5.0
 40
6.0
 40
6.0
 40
6.0
 40
7.0
 40
7.0
 40
7.0
 40
8.0
 40
8.0
 40
8.0
 40
9.0
 40
9.0
 40
9.0
 40
9.0
 10
3.28477119704323
 20
-5.576266818576388
 10
3.310788080425405
 20
-5.573311233546115
 10
3.293520156972249
 20
-5.620989109193638
 10
3.298218243990618
 20
-5.636459796708751
 10
3.277809005354368
 20
-5.650695958211245
 10
3.242146871243941
 20
-5.639501260153312
 10
3.218162422675024
 20
-5.642881879197753
 10
3.194154573701477
 20
-5.639489330132391
 10
3.15849736593917
 20
-5.650713062712561
 10
3.138102654506673
 20
-5.636466845493638
 10
3.140945935613141
 20
-5.62158123841833
 10
3.127182057567248
 20
-5.569024192357674
 10
3.156895271435574
 20
-5.585895744158859
 10
3.15564633322837
 20
-5.63856953226741
 10
3.157695296786111
 20
-5.624388452857879
 10
3.204718422278599
 20
-5.623021526058082
 10
3.208489388700804
 20
-5.609995113818158
 10
3.196784976559481
 20
-5.571151486567132
 10
3.227024928882049
 20
-5.586344602935114
 10
3.241637194311566
 20
-5.630004263773495
 10
3.208625674732136
 20
-5.622719804034785
 10
3.270266249364453
 20
-5.625752836479831
 10
3.289628210178016
 20
-5.623109934927874
 10
3.27167551512337
 20
-5.613957466360387
 10
3.271625613696199
 20
-5.603149845203612
 10
3.27737283967167
 20
-5.595483220097295
 10
3.27510209655227
 20
-5.579035237029302
 10
3.28477119704323
 20
-5.576266818576388
 97
        0
 97
        1
330
108
 75
     2
 76
     1
 98
        1
 10
0.0
 20
0.0
450
        0
451
        0
460
0.0
461
0.0
452
        0
462
0.0
453
        0
470

  0
SPLINE
  5
10A
330
7F
100
AcDbEntity
  8
Layer 1
100
AcDbSpline
210
0.0
220
0.0
230
1.0
 70
     9
 71
     3
 72
    11
 73
     7
 74
     0
 42
0.0000000001
 43
0.0000000001
 40
0.0
 40
0.0
 40
0.0
 40
0.0
 40
1.0
 40
1.0
 40
1.0
 40
2.0
 40
2.0
 40
2.0
 40
2.0
 10
3.303102088970313
 20
-5.900092230902777
 30
0.0
 10
3.320687149139631
 20
-5.900448151493845
 30
0.0
 10
3.320700645847498
 20
-5.927259573000128
 30
0.0
 10
3.303100478693661
 20
-5.927598709718671
 30
0.0
 10
3.285510577070378
 20
-5.927252577143108
 30
0.0
 10
3.285521723390009
 20
-5.900447916514622
 30
0.0
 10
3.303102088970313
 20
-5.900092230902777
 30
0.0
  0
SPLINE
  5
10B
330
7F
100
AcDbEntity
  8
Layer 1
100
AcDbSpline
210
0.0
220
0.0
230
1.0
 70
     9
 71
     3
 72
    17
 73
    13
 74
     0
 42
0.0000000001
 43
0.0000000001
 40
0.0
 40
0.0
 40
0.0
 40
0.0
 40
1.0
 40
1.0
 40
1.0
 40
2.0
 40
2.0
 40
2.0
 40
3.0
 40
3.0
 40
3.0
 40
4.0
 40
4.0
 40
4.0
 40
4.0
 10
3.303102088970313
 20
-5.886650933159722
 30
0.0
 10
3.280093665765952
 20
-5.886329888602049
 30
0.0
 10
3.292141980964237
 20
-5.852756781052625
 30
0.0
 10
3.289353428171466
 20
-5.838378720146288
 30
0.0
 10
3.292455862798053
 20
-5.822561308110809
 30
0.0
 10
3.279618898704319
 20
-5.786537155404099
 30
0.0
 10
3.303099448959894
 20
-5.783378500769331
 30
0.0
 10
3.326591035477879
 20
-5.78651806874998
 30
0.0
 10
3.313756542413759
 20
-5.822569829338084
 30
0.0
 10
3.31685827804602
 20
-5.838378093736309
 30
0.0
 10
3.314098057948361
 20
-5.852832490669874
 30
0.0
 10
3.32607372399026
 20
-5.886161786409198
 30
0.0
 10
3.303102088970313
 20
-5.886650933159722
 30
0.0
  0
SPLINE
  5
10C
330
7F
100
AcDbEntity
  8
Layer 1
100
AcDbSpline
210
0.0
220
0.0
230
1.0
 70
     9
 71
     3
 72
    26
 73
    22
 74
     0
 42
0.0000000001
 43
0.0000000001
 40
0.0
 40
0.0
 40
0.0
 40
0.0
 40
1.0
 40
1.0
 40
1.0
 40
2.0
 40
2.0
 40
2.0
 40
3.0
 40
3.0
 40
3.0
 40
4.0
 40
4.0
 40
4.0
 40
5.0
 40
5.0
 40
5.0
 40
6.0
 40
6.0
 40
6.0
 40
7.0
 40
7.0
 40
7.0
 40
7.0
 10
3.351075721782813
 20
-5.748847113715277
 30
0.0
 10
3.380174664797613
 20
-5.759847908600956
 30
0.0
 10
3.358490390096499
 20
-5.819032417551144
 30
0.0
 10
3.364838348432057
 20
-5.845089405773174
 30
0.0
 10
3.364803688420213
 20
-5.865349313686616
 30
0.0
 10
3.364847204347395
 20
-5.893653445812838
 30
0.0
 10
3.3648289216346
 20
-5.91384538154274
 30
0.0
 10
3.3637964865036
 20
-5.937600029154054
 30
0.0
 10
3.32591531474764
 20
-5.925128498946858
 30
0.0
 10
3.340685984890834
 20
-5.906057883130515
 30
0.0
 10
3.33737721159001
 20
-5.865586549508078
 30
0.0
 10
3.354802780064169
 20
-5.811356650403618
 30
0.0
 10
3.337340526091225
 20
-5.769624557459236
 30
0.0
 10
3.329388118418794
 20
-5.761647066581543
 30
0.0
 10
3.299330827125534
 20
-5.7802947685795
 30
0.0
 10
3.296075469096901
 20
-5.762599884396144
 30
0.0
 10
3.288881976748863
 20
-5.748272722658813
 30
0.0
 10
3.287694245227827
 20
-5.690936718243644
 30
0.0
 10
3.309064512486543
 20
-5.705149550876613
 30
0.0
 10
3.309005982107692
 20
-5.744514910747789
 30
0.0
 10
3.30803835102597
 20
-5.755604839153471
 30
0.0
 10
3.351075721782813
 20
-5.748847113715277
 30
0.0
  0
SPLINE
  5
10D
330
7F
100
AcDbEntity
  8
Layer 1
100
AcDbSpline
210
0.0
220
0.0
230
1.0
 70
     9
 71
     3
 72
    11
 73
     7
 74
     0
 42
0.0000000001
 43
0.0000000001
 40
0.0
 40
0.0
 40
0.0
 40
0.0
 40
1.0
 40
1.0
 40
1.0
 40
2.0
 40
2.0
 40
2.0
 40
2.0
 10
3.206856429248091
 20
-5.89306640625
 30
0.0
 10
3.192228970164124
 20
-5.894536586035428
 30
0.0
 10
3.178220121006903
 20
-5.881063566054408
 30
0.0
 10
3.191272309777698
 20
-5.87015688218758
 30
0.0
 10
3.213606827484694
 20
-5.852810051828706
 30
0.0
 10
3.247005935599822
 20
-5.889038677884602
 30
0.0
 10
3.206856429248091
 20
-5.89306640625
 30
0.0
  0
SPLINE
  5
10E
330
7F
100
AcDbEntity
  8
Layer 1
100
AcDbSpline
210
0.0
220
0.0
230
1.0
 70
     9
 71
     3
 72
    11
 73
     7
 74
     0
 42
0.0000000001
 43
0.0000000001
 40
0.0
 40
0.0
 40
0.0
 40
0.0
 40
1.0
 40
1.0
 40
1.0
 40
2.0
 40
2.0
 40
2.0
 40
2.0
 10
3.18607734938698
 20
-5.8450927734375
 30
0.0
 10
3.10819822970633
 20
-5.888266113977882
 30
0.0
 10
3.225529964164214
 20
-5.940055128801835
 30
0.0
 10
3.253758939404671
 20
-5.883892507472157
 30
0.0
 10
3.254793207192177
 20
-5.849673493937769
 30
0.0
 10
3.214512133295253
 20
-5.840656681224168
 30
0.0
 10
3.18607734938698
 20
-5.8450927734375
 30
0.0
  0
SPLINE
  5
10F
330
7F
100
AcDbEntity
  8
Layer 1
100
AcDbSpline
210
0.0
220
0.0
230
1.0
 70
     9
 71
     3
 72
    11
 73
     7
 74
     0
 42
0.0000000001
 43
0.0000000001
 40
0.0
 40
0.0
 40
0.0
 40
0.0
 40
1.0
 40
1.0
 40
1.0
 40
2.0
 40
2.0
 40
2.0
 40
2.0
 10
3.179051524734202
 20
-5.927598741319443
 30
0.0
 10
3.039311338012642
 20
-5.854273973586613
 30
0.0
 10
3.282389600394291
 20
-5.75574819291296
 30
0.0
 10
3.274691085595678
 20
-5.889871353897129
 30
0.0
 10
3.259723476213947
 20
-5.927694873141768
 30
0.0
 10
3.214671742367992
 20
-5.929885845970753
 30
0.0
 10
3.179051524734202
 20
-5.927598741319443
 30
0.0
  0
SPLINE
  5
110
330
7F
100
AcDbEntity
  8
Layer 1
100
AcDbSpline
210
0.0
220
0.0
230
1.0
 70
     9
 71
     3
 72
    26
 73
    22
 74
     0
 42
0.0000000001
 43
0.0000000001
 40
0.0
 40
0.0
 40
0.0
 40
0.0
 40
1.0
 40
1.0
 40
1.0
 40
2.0
 40
2.0
 40
2.0
 40
3.0
 40
3.0
 40
3.0
 40
4.0
 40
4.0
 40
4.0
 40
5.0
 40
5.0
 40
5.0
 40
6.0
 40
6.0
 40
6.0
 40
7.0
 40
7.0
 40
7.0
 40
7.0
 10
3.220602902772396
 20
-5.776353624131943
 30
0.0
 10
3.241671023144249
 20
-5.779311332403014
 30
0.0
 10
3.252243952765575
 20
-5.769365640033052
 30
0.0
 10
3.248098085775899
 20
-5.748843610943771
 30
0.0
 10
3.247693171628763
 20
-5.741868850045445
 30
0.0
 10
3.250800716109956
 20
-5.732677491094591
 30
0.0
 10
3.240920111451474
 20
-5.731283515022091
 30
0.0
 10
3.221980360716467
 20
-5.722926133325876
 30
0.0
 10
3.10603092947685
 20
-5.740625348507919
 30
0.0
 10
3.151846337541718
 20
-5.707892996663455
 30
0.0
 10
3.216096358114668
 20
-5.711582888720284
 30
0.0
 10
3.287767851056148
 20
-5.683011704257473
 30
0.0
 10
3.26765261978216
 20
-5.779097063337909
 30
0.0
 10
3.251527399808878
 20
-5.797544356599751
 30
0.0
 10
3.223768561817223
 20
-5.798794578028238
 30
0.0
 10
3.199823108495984
 20
-5.797129333371786
 30
0.0
 10
3.184059435858772
 20
-5.794069206392805
 30
0.0
 10
3.148248647130698
 20
-5.806802602966172
 30
0.0
 10
3.145128620232791
 20
-5.78338202162859
 30
0.0
 10
3.158264214109446
 20
-5.766701509751505
 30
0.0
 10
3.199570349352522
 20
-5.780769750264653
 30
0.0
 10
3.220602902772396
 20
-5.776353624131943
 30
0.0
  0
HATCH
  5
111
330
7F
100
AcDbEntity
  8
Layer 1
 62
   250
420
  2301728
440
 33554687
100
AcDbHatch
 10
0.0
 20
0.0
 30
0.0
210
0.0
220
0.0
230
1.0
  2
SOLID
 70
     1
 71
     1
 91
        7
 92
        1
 93
        1
 72
     4
 94
        3
 73
     0
 74
     0
 95
       11
 96
        7
 40
0.0
 40
0.0
 40
0.0
 40
0.0
 40
1.0
 40
1.0
 40
1.0
 40
2.0
 40
2.0
 40
2.0
 40
2.0
 10
3.303102088970313
 20
-5.900092230902777
 10
3.320687149139631
 20
-5.900448151493845
 10
3.320700645847498
 20
-5.927259573000128
 10
3.303100478693661
 20
-5.927598709718671
 10
3.285510577070378
 20
-5.927252577143108
 10
3.285521723390009
 20
-5.900447916514622
 10
3.303102088970313
 20
-5.900092230902777
 97
        0
 97
        1
330
10A
 92
        1
 93
        1
 72
     4
 94
        3
 73
     0
 74
     0
 95
       17
 96
       13
 40
0.0
 40
0.0
 40
0.0
 40
0.0
 40
1.0
 40
1.0
 40
1.0
 40
2.0
 40
2.0
 40
2.0
 40
3.0
 40
3.0
 40
3.0
 40
4.0
 40
4.0
 40
4.0
 40
4.0
 10
3.303102088970313
 20
-5.886650933159722
 10
3.280093665765952
 20
-5.886329888602049
 10
3.292141980964237
 20
-5.852756781052625
 10
3.289353428171466
 20
-5.838378720146288
 10
3.292455862798053
 20
-5.822561308110809
 10
3.279618898704319
 20
-5.786537155404099
 10
3.303099448959894
 20
-5.783378500769331
 10
3.326591035477879
 20
-5.78651806874998
 10
3.313756542413759
 20
-5.822569829338084
 10
3.31685827804602
 20
-5.838378093736309
 10
3.314098057948361
 20
-5.852832490669874
 10
3.32607372399026
 20
-5.886161786409198
 10
3.303102088970313
 20
-5.886650933159722
 97
        0
 97
        1
330
10B
 92
        1
 93
        1
 72
     4
 94
        3
 73
     0
 74
     0
 95
       26
 96
       22
 40
0.0
 40
0.0
 40
0.0
 40
0.0
 40
1.0
 40
1.0
 40
1.0
 40
2.0
 40
2.0
 40
2.0
 40
3.0
 40
3.0
 40
3.0
 40
4.0
 40
4.0
 40
4.0
 40
5.0
 40
5.0
 40
5.0
 40
6.0
 40
6.0
 40
6.0
 40
7.0
 40
7.0
 40
7.0
 40
7.0
 10
3.351075721782813
 20
-5.748847113715277
 10
3.380174664797613
 20
-5.759847908600956
 10
3.358490390096499
 20
-5.819032417551144
 10
3.364838348432057
 20
-5.845089405773174
 10
3.364803688420213
 20
-5.865349313686616
 10
3.364847204347395
 20
-5.893653445812838
 10
3.3648289216346
 20
-5.91384538154274
 10
3.3637964865036
 20
-5.937600029154054
 10
3.32591531474764
 20
-5.925128498946858
 10
3.340685984890834
 20
-5.906057883130515
 10
3.33737721159001
 20
-5.865586549508078
 10
3.354802780064169
 20
-5.811356650403618
 10
3.337340526091225
 20
-5.769624557459236
 10
3.329388118418794
 20
-5.761647066581543
 10
3.299330827125534
 20
-5.7802947685795
 10
3.296075469096901
 20
-5.762599884396144
 10
3.288881976748863
 20
-5.748272722658813
 10
3.287694245227827
 20
-5.690936718243644
 10
3.309064512486543
 20
-5.705149550876613
 10
3.309005982107692
 20
-5.744514910747789
 10
3.30803835102597
 20
-5.755604839153471
 10
3.351075721782813
 20
-5.748847113715277
 97
        0
 97
        1
330
10C
 92
        1
 93
        1
 72
     4
 94
        3
 73
     0
 74
     0
 95
       11
 96
        7
 40
0.0
 40
0.0
 40
0.0
 40
0.0
 40
1.0
 40
1.0
 40
1.0
 40
2.0
 40
2.0
 40
2.0
 40
2.0
 10
3.206856429248091
 20
-5.89306640625
 10
3.192228970164124
 20
-5.894536586035428
 10
3.178220121006903
 20
-5.881063566054408
 10
3.191272309777698
 20
-5.87015688218758
 10
3.213606827484694
 20
-5.852810051828706
 10
3.247005935599822
 20
-5.889038677884602
 10
3.206856429248091
 20
-5.89306640625
 97
        0
 97
        1
330
10D
 92
        1
 93
        1
 72
     4
 94
        3
 73
     0
 74
     0
 95
       11
 96
        7
 40
0.0
 40
0.0
 40
0.0
 40
0.0
 40
1.0
 40
1.0
 40
1.0
 40
2.0
 40
2.0
 40
2.0
 40
2.0
 10
3.18607734938698
 20
-5.8450927734375
 10
3.10819822970633
 20
-5.888266113977882
 10
3.225529964164214
 20
-5.940055128801835
 10
3.253758939404671
 20
-5.883892507472157
 10
3.254793207192177
 20
-5.849673493937769
 10
3.214512133295253
 20
-5.840656681224168
 10
3.18607734938698
 20
-5.8450927734375
 97
        0
 97
        1
330
10E
 92
        1
 93
        1
 72
     4
 94
        3
 73
     0
 74
     0
 95
       11
 96
        7
 40
0.0
 40
0.0
 40
0.0
 40
0.0
 40
1.0
 40
1.0
 40
1.0
 40
2.0
 40
2.0
 40
2.0
 40
2.0
 10
3.179051524734202
 20
-5.927598741319443
 10
3.039311338012642
 20
-5.854273973586613
 10
3.282389600394291
 20
-5.75574819291296
 10
3.274691085595678
 20
-5.889871353897129
 10
3.259723476213947
 20
-5.927694873141768
 10
3.214671742367992
 20
-5.929885845970753
 10
3.179051524734202
 20
-5.927598741319443
 97
        0
 97
        1
330
10F
 92
        1
 93
        1
 72
     4
 94
        3
 73
     0
 74
     0
 95
       26
 96
       22
 40
0.0
 40
0.0
 40
0.0
 40
0.0
 40
1.0
 40
1.0
 40
1.0
 40
2.0
 40
2.0
 40
2.0
 40
3.0
 40
3.0
 40
3.0
 40
4.0
 40
4.0
 40
4.0
 40
5.0
 40
5.0
 40
5.0
 40
6.0
 40
6.0
 40
6.0
 40
7.0
 40
7.0
 40
7.0
 40
7.0
 10
3.220602902772396
 20
-5.776353624131943
 10
3.241671023144249
 20
-5.779311332403014
 10
3.252243952765575
 20
-5.769365640033052
 10
3.248098085775899
 20
-5.748843610943771
 10
3.247693171628763
 20
-5.741868850045445
 10
3.250800716109956
 20
-5.732677491094591
 10
3.240920111451474
 20
-5.731283515022091
 10
3.221980360716467
 20
-5.722926133325876
 10
3.10603092947685
 20
-5.740625348507919
 10
3.151846337541718
 20
-5.707892996663455
 10
3.216096358114668
 20
-5.711582888720284
 10
3.287767851056148
 20
-5.683011704257473
 10
3.26765261978216
 20
-5.779097063337909
 10
3.251527399808878
 20
-5.797544356599751
 10
3.223768561817223
 20
-5.798794578028238
 10
3.199823108495984
 20
-5.797129333371786
 10
3.184059435858772
 20
-5.794069206392805
 10
3.148248647130698
 20
-5.806802602966172
 10
3.145128620232791
 20
-5.78338202162859
 10
3.158264214109446
 20
-5.766701509751505
 10
3.199570349352522
 20
-5.780769750264653
 10
3.220602902772396
 20
-5.776353624131943
 97
        0
 97
        1
330
110
 75
     2
 76
     1
 98
        1
 10
0.0
 20
0.0
450
        0
451
        0
460
0.0
461
0.0
452
        0
462
0.0
453
        0
470

  0
SPLINE
  5
112
330
7F
100
AcDbEntity
  8
Layer 1
100
AcDbSpline
210
0.0
220
0.0
230
1.0
 70
     9
 71
     3
 72
    11
 73
     7
 74
     0
 42
0.0000000001
 43
0.0000000001
 40
0.0
 40
0.0
 40
0.0
 40
0.0
 40
1.0
 40
1.0
 40
1.0
 40
2.0
 40
2.0
 40
2.0
 40
2.0
 10
3.298212494786285
 20
-6.1793212890625
 30
0.0
 10
3.322239979001412
 20
-6.180601913295731
 30
0.0
 10
3.322232155876122
 20
-6.204635573676896
 30
0.0
 10
3.29820821241876
 20
-6.205905291698526
 30
0.0
 10
3.281081571498399
 20
-6.205587321706363
 30
0.0
 10
3.280946443106232
 20
-6.179460831401229
 30
0.0
 10
3.298212494786285
 20
-6.1793212890625
 30
0.0
  0
SPLINE
  5
113
330
7F
100
AcDbEntity
  8
Layer 1
100
AcDbSpline
210
0.0
220
0.0
230
1.0
 70
     9
 71
     3
 72
    11
 73
     7
 74
     0
 42
0.0000000001
 43
0.0000000001
 40
0.0
 40
0.0
 40
0.0
 40
0.0
 40
1.0
 40
1.0
 40
1.0
 40
2.0
 40
2.0
 40
2.0
 40
2.0
 10
3.318076047303646
 20
-6.045952690972222
 30
0.0
 10
3.3143823999426
 20
-6.060859351471056
 30
0.0
 10
3.285537586264215
 20
-6.064909193018516
 30
0.0
 10
3.284771742296495
 20
-6.04595185153337
 30
0.0
 10
3.28532944914856
 20
-6.02683277116585
 30
0.0
 10
3.31446047282375
 20
-6.031103296492523
 30
0.0
 10
3.318076047303646
 20
-6.045952690972222
 30
0.0
  0
SPLINE
  5
114
330
7F
100
AcDbEntity
  8
Layer 1
100
AcDbSpline
210
0.0
220
0.0
230
1.0
 70
     9
 71
     3
 72
    38
 73
    34
 74
     0
 42
0.0000000001
 43
0.0000000001
 40
0.0
 40
0.0
 40
0.0
 40
0.0
 40
1.0
 40
1.0
 40
1.0
 40
2.0
 40
2.0
 40
2.0
 40
3.0
 40
3.0
 40
3.0
 40
4.0
 40
4.0
 40
4.0
 40
5.0
 40
5.0
 40
5.0
 40
6.0
 40
6.0
 40
6.0
 40
7.0
 40
7.0
 40
7.0
 40
8.0
 40
8.0
 40
8.0
 40
9.0
 40
9.0
 40
9.0
 40
10.0
 40
10.0
 40
10.0
 40
11.0
 40
11.0
 40
11.0
 40
11.0
 10
3.351380897564063
 20
-5.985595703125
 30
0.0
 10
3.379665673091267
 20
-5.989053450672321
 30
0.0
 10
3.358764148785073
 20
-6.099057808006768
 30
0.0
 10
3.36483770085662
 20
-6.125851907463028
 30
0.0
 10
3.36903685206068
 20
-6.154615661593121
 30
0.0
 10
3.353698050116185
 20
-6.179657974416613
 30
0.0
 10
3.36482848317592
 20
-6.20590422571993
 30
0.0
 10
3.351057763876054
 20
-6.224460064497987
 30
0.0
 10
3.327925836020211
 20
-6.205276546048328
 30
0.0
 10
3.344669365789526
 20
-6.185738481497133
 30
0.0
 10
3.353615762838532
 20
-6.141765918701012
 30
0.0
 10
3.318273411728442
 20
-6.172274373418101
 30
0.0
 10
3.29210221011451
 20
-6.158374760854838
 30
0.0
 10
3.281675682575344
 20
-6.120953928149901
 30
0.0
 10
3.33213610419802
 20
-6.152693418561637
 30
0.0
 10
3.343745135856655
 20
-6.135011577958544
 30
0.0
 10
3.337822692891058
 20
-6.124485630546258
 30
0.0
 10
3.337336131100553
 20
-6.113745802634613
 30
0.0
 10
3.343751845875873
 20
-6.103244632427705
 30
0.0
 10
3.328873193353653
 20
-6.090322097832236
 30
0.0
 10
3.298195569458787
 20
-6.103483756454983
 30
0.0
 10
3.278051267276534
 20
-6.099263677561869
 30
0.0
 10
3.24738644339546
 20
-6.068631358387013
 30
0.0
 10
3.322743465916321
 20
-6.080495916953219
 30
0.0
 10
3.33961051175869
 20
-6.082155043206183
 30
0.0
 10
3.356008700587671
 20
-6.070603204552323
 30
0.0
 10
3.322086641087821
 20
-6.033412375299475
 30
0.0
 10
3.346501269617836
 20
-6.016482598632137
 30
0.0
 10
3.343856844608429
 20
-6.003060174795412
 30
0.0
 10
3.327432906023495
 20
-6.013026565246516
 30
0.0
 10
3.318076857555537
 20
-6.012179869676199
 30
0.0
 10
3.292312720051515
 20
-5.993228857758392
 30
0.0
 10
3.336327202357804
 20
-5.988714096141771
 30
0.0
 10
3.351380897564063
 20
-5.985595703125
 30
0.0
  0
SPLINE
  5
115
330
7F
100
AcDbEntity
  8
Layer 1
100
AcDbSpline
210
0.0
220
0.0
230
1.0
 70
     9
 71
     3
 72
    47
 73
    43
 74
     0
 42
0.0000000001
 43
0.0000000001
 40
0.0
 40
0.0
 40
0.0
 40
0.0
 40
1.0
 40
1.0
 40
1.0
 40
2.0
 40
2.0
 40
2.0
 40
3.0
 40
3.0
 40
3.0
 40
4.0
 40
4.0
 40
4.0
 40
5.0
 40
5.0
 40
5.0
 40
6.0
 40
6.0
 40
6.0
 40
7.0
 40
7.0
 40
7.0
 40
8.0
 40
8.0
 40
8.0
 40
9.0
 40
9.0
 40
9.0
 40
10.0
 40
10.0
 40
10.0
 40
11.0
 40
11.0
 40
11.0
 40
12.0
 40
12.0
 40
12.0
 40
13.0
 40
13.0
 40
13.0
 40
14.0
 40
14.0
 40
14.0
 40
14.0
 10
3.211128890185591
 20
-5.992323133680555
 30
0.0
 10
3.25963339398715
 20
-5.966421216396812
 30
0.0
 10
3.279003544843438
 20
-6.065161006599863
 30
0.0
 10
3.233119131267673
 20
-6.029776716432453
 30
0.0
 10
3.253237370916697
 20
-6.007879187385772
 30
0.0
 10
3.165674870686365
 20
-5.999790579278977
 30
0.0
 10
3.171410580863935
 20
-6.032345059157882
 30
0.0
 10
3.160108750929263
 20
-6.048964512363353
 30
0.0
 10
3.174644738941803
 20
-6.08006290015573
 30
0.0
 10
3.197901417650617
 20
-6.072370368042129
 30
0.0
 10
3.208670220255523
 20
-6.090249710469707
 30
0.0
 10
3.235818477874861
 20
-6.08477684219123
 30
0.0
 10
3.244437974343718
 20
-6.099265764269299
 30
0.0
 10
3.244425653866591
 20
-6.117029637899222
 30
0.0
 10
3.244439569198144
 20
-6.141390912149593
 30
0.0
 10
3.244433722743148
 20
-6.159152582794174
 30
0.0
 10
3.250759075274155
 20
-6.170604400614668
 30
0.0
 10
3.258546306087206
 20
-6.200204207994198
 30
0.0
 10
3.244438613547686
 20
-6.205908266169873
 30
0.0
 10
3.225189566953569
 20
-6.222360988913932
 30
0.0
 10
3.178264718241242
 20
-6.207482140282409
 30
0.0
 10
3.151513554182921
 20
-6.212330058827774
 30
0.0
 10
3.136992515153362
 20
-6.200873539497908
 30
0.0
 10
3.134544006666778
 20
-6.16193797951218
 30
0.0
 10
3.16056905132042
 20
-6.176415609841392
 30
0.0
 10
3.1686028599256
 20
-6.186755254957057
 30
0.0
 10
3.159718552270861
 20
-6.195620468565039
 30
0.0
 10
3.178131930750244
 20
-6.19246069349957
 30
0.0
 10
3.184845268404956
 20
-6.162908363012446
 30
0.0
 10
3.161263026326208
 20
-6.133274224999568
 30
0.0
 10
3.184559158013472
 20
-6.105685999984845
 30
0.0
 10
3.211274862093887
 20
-6.113943094137917
 30
0.0
 10
3.194388396066301
 20
-6.163353158022977
 30
0.0
 10
3.195246254703306
 20
-6.184513523207972
 30
0.0
 10
3.204139775714641
 20
-6.211746368930865
 30
0.0
 10
3.240228316072489
 20
-6.18645421508548
 30
0.0
 10
3.224571053605119
 20
-6.165882810728235
 30
0.0
 10
3.219650732757902
 20
-6.144639737995627
 30
0.0
 10
3.239627685526202
 20
-6.096615431480308
 30
0.0
 10
3.204717686540915
 20
-6.105688118640273
 30
0.0
 10
3.129954017407334
 20
-6.086558402408197
 30
0.0
 10
3.116227442109713
 20
-5.983234740799868
 30
0.0
 10
3.211128890185591
 20
-5.992323133680555
 30
0.0
  0
HATCH
  5
116
330
7F
100
AcDbEntity
  8
Layer 1
 62
   250
420
  2301728
440
 33554687
100
AcDbHatch
 10
0.0
 20
0.0
 30
0.0
210
0.0
220
0.0
230
1.0
  2
SOLID
 70
     1
 71
     1
 91
        4
 92
        1
 93
        1
 72
     4
 94
        3
 73
     0
 74
     0
 95
       11
 96
        7
 40
0.0
 40
0.0
 40
0.0
 40
0.0
 40
1.0
 40
1.0
 40
1.0
 40
2.0
 40
2.0
 40
2.0
 40
2.0
 10
3.298212494786285
 20
-6.1793212890625
 10
3.322239979001412
 20
-6.180601913295731
 10
3.322232155876122
 20
-6.204635573676896
 10
3.29820821241876
 20
-6.205905291698526
 10
3.281081571498399
 20
-6.205587321706363
 10
3.280946443106232
 20
-6.179460831401229
 10
3.298212494786285
 20
-6.1793212890625
 97
        0
 97
        1
330
112
 92
        1
 93
        1
 72
     4
 94
        3
 73
     0
 74
     0
 95
       11
 96
        7
 40
0.0
 40
0.0
 40
0.0
 40
0.0
 40
1.0
 40
1.0
 40
1.0
 40
2.0
 40
2.0
 40
2.0
 40
2.0
 10
3.318076047303646
 20
-6.045952690972222
 10
3.3143823999426
 20
-6.060859351471056
 10
3.285537586264215
 20
-6.064909193018516
 10
3.284771742296495
 20
-6.04595185153337
 10
3.28532944914856
 20
-6.02683277116585
 10
3.31446047282375
 20
-6.031103296492523
 10
3.318076047303646
 20
-6.045952690972222
 97
        0
 97
        1
330
113
 92
        1
 93
        1
 72
     4
 94
        3
 73
     0
 74
     0
 95
       38
 96
       34
 40
0.0
 40
0.0
 40
0.0
 40
0.0
 40
1.0
 40
1.0
 40
1.0
 40
2.0
 40
2.0
 40
2.0
 40
3.0
 40
3.0
 40
3.0
 40
4.0
 40
4.0
 40
4.0
 40
5.0
 40
5.0
 40
5.0
 40
6.0
 40
6.0
 40
6.0
 40
7.0
 40
7.0
 40
7.0
 40
8.0
 40
8.0
 40
8.0
 40
9.0
 40
9.0
 40
9.0
 40
10.0
 40
10.0
 40
10.0
 40
11.0
 40
11.0
 40
11.0
 40
11.0
 10
3.351380897564063
 20
-5.985595703125
 10
3.379665673091267
 20
-5.989053450672321
 10
3.358764148785073
 20
-6.099057808006768
 10
3.36483770085662
 20
-6.125851907463028
 10
3.36903685206068
 20
-6.154615661593121
 10
3.353698050116185
 20
-6.179657974416613
 10
3.36482848317592
 20
-6.20590422571993
 10
3.351057763876054
 20
-6.224460064497987
 10
3.327925836020211
 20
-6.205276546048328
 10
3.344669365789526
 20
-6.185738481497133
 10
3.353615762838532
 20
-6.141765918701012
 10
3.318273411728442
 20
-6.172274373418101
 10
3.29210221011451
 20
-6.158374760854838
 10
3.281675682575344
 20
-6.120953928149901
 10
3.33213610419802
 20
-6.152693418561637
 10
3.343745135856655
 20
-6.135011577958544
 10
3.337822692891058
 20
-6.124485630546258
 10
3.337336131100553
 20
-6.113745802634613
 10
3.343751845875873
 20
-6.103244632427705
 10
3.328873193353653
 20
-6.090322097832236
 10
3.298195569458787
 20
-6.103483756454983
 10
3.278051267276534
 20
-6.099263677561869
 10
3.24738644339546
 20
-6.068631358387013
 10
3.322743465916321
 20
-6.080495916953219
 10
3.33961051175869
 20
-6.082155043206183
 10
3.356008700587671
 20
-6.070603204552323
 10
3.322086641087821
 20
-6.033412375299475
 10
3.346501269617836
 20
-6.016482598632137
 10
3.343856844608429
 20
-6.003060174795412
 10
3.327432906023495
 20
-6.013026565246516
 10
3.318076857555537
 20
-6.012179869676199
 10
3.292312720051515
 20
-5.993228857758392
 10
3.336327202357804
 20
-5.988714096141771
 10
3.351380897564063
 20
-5.985595703125
 97
        0
 97
        1
330
114
 92
        1
 93
        1
 72
     4
 94
        3
 73
     0
 74
     0
 95
       47
 96
       43
 40
0.0
 40
0.0
 40
0.0
 40
0.0
 40
1.0
 40
1.0
 40
1.0
 40
2.0
 40
2.0
 40
2.0
 40
3.0
 40
3.0
 40
3.0
 40
4.0
 40
4.0
 40
4.0
 40
5.0
 40
5.0
 40
5.0
 40
6.0
 40
6.0
 40
6.0
 40
7.0
 40
7.0
 40
7.0
 40
8.0
 40
8.0
 40
8.0
 40
9.0
 40
9.0
 40
9.0
 40
10.0
 40
10.0
 40
10.0
 40
11.0
 40
11.0
 40
11.0
 40
12.0
 40
12.0
 40
12.0
 40
13.0
 40
13.0
 40
13.0
 40
14.0
 40
14.0
 40
14.0
 40
14.0
 10
3.211128890185591
 20
-5.992323133680555
 10
3.25963339398715
 20
-5.966421216396812
 10
3.279003544843438
 20
-6.065161006599863
 10
3.233119131267673
 20
-6.029776716432453
 10
3.253237370916697
 20
-6.007879187385772
 10
3.165674870686365
 20
-5.999790579278977
 10
3.171410580863935
 20
-6.032345059157882
 10
3.160108750929263
 20
-6.048964512363353
 10
3.174644738941803
 20
-6.08006290015573
 10
3.197901417650617
 20
-6.072370368042129
 10
3.208670220255523
 20
-6.090249710469707
 10
3.235818477874861
 20
-6.08477684219123
 10
3.244437974343718
 20
-6.099265764269299
 10
3.244425653866591
 20
-6.117029637899222
 10
3.244439569198144
 20
-6.141390912149593
 10
3.244433722743148
 20
-6.159152582794174
 10
3.250759075274155
 20
-6.170604400614668
 10
3.258546306087206
 20
-6.200204207994198
 10
3.244438613547686
 20
-6.205908266169873
 10
3.225189566953569
 20
-6.222360988913932
 10
3.178264718241242
 20
-6.207482140282409
 10
3.151513554182921
 20
-6.212330058827774
 10
3.136992515153362
 20
-6.200873539497908
 10
3.134544006666778
 20
-6.16193797951218
 10
3.16056905132042
 20
-6.176415609841392
 10
3.1686028599256
 20
-6.186755254957057
 10
3.159718552270861
 20
-6.195620468565039
 10
3.178131930750244
 20
-6.19246069349957
 10
3.184845268404956
 20
-6.162908363012446
 10
3.161263026326208
 20
-6.133274224999568
 10
3.184559158013472
 20
-6.105685999984845
 10
3.211274862093887
 20
-6.113943094137917
 10
3.194388396066301
 20
-6.163353158022977
 10
3.195246254703306
 20
-6.184513523207972
 10
3.204139775714641
 20
-6.211746368930865
 10
3.240228316072489
 20
-6.18645421508548
 10
3.224571053605119
 20
-6.165882810728235
 10
3.219650732757902
 20
-6.144639737995627
 10
3.239627685526202
 20
-6.096615431480308
 10
3.204717686540915
 20
-6.105688118640273
 10
3.129954017407334
 20
-6.086558402408197
 10
3.116227442109713
 20
-5.983234740799868
 10
3.211128890185591
 20
-5.992323133680555
 97
        0
 97
        1
330
115
 75
     2
 76
     1
 98
        1
 10
0.0
 20
0.0
450
        0
451
        0
460
0.0
461
0.0
452
        0
462
0.0
453
        0
470

  0
ENDBLK
  5
82
330
7F
100
AcDbEntity
  8
0
100
AcDbBlockEnd
  0
ENDSEC
  0
SECTION
  2
ENTITIES
  0
INSERT
  5
7A
330
70
100
AcDbEntity
  8
Layer 1
100
AcDbBlockReference
  2
Block_0
 10
0.0
 20
0.0
 30
0.0
  0
INSERT
  5
80
330
70
100
AcDbEntity
  8
Layer 1
100
AcDbBlockReference
  2
Block_1
 10
0.0
 20
0.0
 30
0.0
  0
ENDSEC
  0
SECTION
  2
OBJECTS
  0
DICTIONARY
  5
C
330
0
100
AcDbDictionary
281
     1
  3
ACAD_COLOR
350
63
  3
ACAD_DETAILVIEWSTYLE
350
6A
  3
ACAD_GROUP
350
D
  3
ACAD_LAYOUT
350
62
  3
ACAD_MATERIAL
350
10
  3
ACAD_MLEADERSTYLE
350
66
  3
ACAD_MLINESTYLE
350
5F
  3
ACAD_PLOTSETTINGS
350
61
  3
ACAD_PLOTSTYLENAME
350
E
  3
ACAD_SCALELIST
350
42
  3
ACAD_SECTIONVIEWSTYLE
350
68
  3
ACAD_TABLESTYLE
350
64
  3
ACAD_VISUALSTYLE
350
29
  3
ACDB_RECOMPOSE_DATA
350
11F
  3
AcDbVariableDictionary
350
117
  0
DICTIONARY
  5
63
102
{ACAD_REACTORS
330
C
102
}
330
C
100
AcDbDictionary
281
     1
  0
DICTIONARY
  5
6A
102
{ACAD_REACTORS
330
C
102
}
330
C
100
AcDbDictionary
281
     1
  3
Imperial24
350
6B
  0
DICTIONARY
  5
D
102
{ACAD_REACTORS
330
C
102
}
330
C
100
AcDbDictionary
281
     1
  0
DICTIONARY
  5
62
102
{ACAD_REACTORS
330
C
102
}
330
C
100
AcDbDictionary
281
     1
  3
Layout1
350
6F
  3
Layout2
350
77
  3
Model
350
73
  0
DICTIONARY
  5
10
102
{ACAD_REACTORS
330
C
102
}
330
C
100
AcDbDictionary
281
     1
  3
ByBlock
350
19
  3
ByLayer
350
11
  3
Global
350
21
  0
DICTIONARY
  5
66
102
{ACAD_REACTORS
330
C
102
}
330
C
100
AcDbDictionary
281
     1
  3
Standard
350
67
  0
DICTIONARY
  5
5F
102
{ACAD_REACTORS
330
C
102
}
330
C
100
AcDbDictionary
281
     1
  3
Standard
350
60
  0
DICTIONARY
  5
61
102
{ACAD_REACTORS
330
C
102
}
330
C
100
AcDbDictionary
281
     1
  0
ACDBDICTIONARYWDFLT
  5
E
102
{ACAD_REACTORS
330
C
102
}
330
C
100
AcDbDictionary
281
     1
  3
Normal
350
F
100
AcDbDictionaryWithDefault
340
F
  0
DICTIONARY
  5
42
102
{ACAD_REACTORS
330
C
102
}
330
C
100
AcDbDictionary
281
     1
  3
A0
350
43
  3
A1
350
44
  3
A2
350
45
  3
A3
350
46
  3
A4
350
47
  3
A5
350
48
  3
A6
350
49
  3
A7
350
4A
  3
A8
350
4B
  3
A9
350
4C
  3
B0
350
4D
  3
B1
350
4E
  3
B2
350
4F
  3
B3
350
50
  3
B4
350
51
  3
B5
350
52
  3
B6
350
53
  0
DICTIONARY
  5
68
102
{ACAD_REACTORS
330
C
102
}
330
C
100
AcDbDictionary
281
     1
  3
Imperial24
350
69
  0
DICTIONARY
  5
64
102
{ACAD_REACTORS
330
C
102
}
330
C
100
AcDbDictionary
281
     1
  3
Standard
350
65
  0
DICTIONARY
  5
29
102
{ACAD_REACTORS
330
C
102
}
330
C
100
AcDbDictionary
281
     1
  3
2dWireframe
350
2F
  3
Basic
350
2E
  3
Brighten
350
35
  3
ColorChange
350
39
  3
Conceptual
350
32
  3
Dim
350
34
  3
EdgeColorOff
350
41
  3
Facepattern
350
38
  3
Flat
350
2A
  3
FlatWithEdges
350
2B
  3
Gouraud
350
2C
  3
GouraudWithEdges
350
2D
  3
Hidden
350
31
  3
JitterOff
350
3F
  3
Linepattern
350
37
  3
OverhangOff
350
40
  3
Realistic
350
33
  3
Shaded
350
3E
  3
Shaded with edges
350
3D
  3
Shades of Gray
350
3A
  3
Sketchy
350
3B
  3
Thicken
350
36
  3
Wireframe
350
30
  3
X-Ray
350
3C
  0
XRECORD
  5
11F
102
{ACAD_REACTORS
330
C
102
}
330
C
100
AcDbXrecord
280
     1
 90
        1
330
65
  0
DICTIONARY
  5
117
102
{ACAD_REACTORS
330
C
102
}
330
C
100
AcDbDictionary
281
     1
  3
CANNOSCALE
350
11C
  3
CMLEADERSTYLE
350
119
  3
CTABLESTYLE
350
118
  3
CVIEWDETAILSTYLE
350
11A
  3
CVIEWSECTIONSTYLE
350
11B
  0
ACDBDETAILVIEWSTYLE
  5
6B
102
{ACAD_REACTORS
330
6A
102
}
330
6A
100
AcDbModelDocViewStyle
 70
     0
  3
Imperial24
290
     1
300
Imperial24
 90
        0
100
AcDbDetailViewStyle
 70
     0
 71
     0
 90
        3
 71
     1
340
55
 62
   256
 40
0.24
340
0
 62
   256
 40
0.24
300

 40
0.36
280
     3
 71
     2
340
5D
 90
       25
 62
   256
 71
     3
340
55
 62
   256
 40
0.24
 90
        1
 40
0.75
 90
        1
300
%<\AcVar ViewType \f "%tc1">% %<\AcVar ViewDetailId>%\PSCALE %<\AcVar ViewScale \f "%sn">%
 71
     4
340
5D
 90
       25
 62
   256
340
5D
 90
       25
 62
   256
280
     0
  0
LAYOUT
  5
6F
102
{ACAD_REACTORS
330
62
102
}
330
62
100
AcDbPlotSettings
  1

  2

  4

  6

 40
0.0
 41
0.0
 42
0.0
 43
0.0
 44
0.0
 45
0.0
 46
0.0
 47
0.0
 48
0.0
 49
0.0
140
0.0
141
0.0
142
1.0
143
1.0
 70
   688
 72
     0
 73
     0
 74
     5
  7

 75
    16
147
1.0
 76
     0
 77
     2
 78
   300
148
0.0
149
0.0
100
AcDbLayout
  1
Layout1
 70
     1
 71
     1
 10
0.0
 20
0.0
 11
12.0
 21
9.0
 12
0.0
 22
0.0
 32
0.0
 14
0.0
 24
0.0
 34
0.0
 15
0.0
 25
0.0
 35
0.0
146
0.0
 13
0.0
 23
0.0
 33
0.0
 16
1.0
 26
0.0
 36
0.0
 17
0.0
 27
1.0
 37
0.0
 76
     0
330
6C
  0
LAYOUT
  5
77
102
{ACAD_REACTORS
330
62
102
}
330
62
100
AcDbPlotSettings
  1

  2

  4

  6

 40
0.0
 41
0.0
 42
0.0
 43
0.0
 44
0.0
 45
0.0
 46
0.0
 47
0.0
 48
0.0
 49
0.0
140
0.0
141
0.0
142
1.0
143
1.0
 70
   688
 72
     0
 73
     0
 74
     5
  7

 75
    16
147
1.0
 76
     0
 77
     2
 78
   300
148
0.0
149
0.0
100
AcDbLayout
  1
Layout2
 70
     1
 71
     2
 10
0.0
 20
0.0
 11
12.0
 21
9.0
 12
0.0
 22
0.0
 32
0.0
 14
0.0
 24
0.0
 34
0.0
 15
0.0
 25
0.0
 35
0.0
146
0.0
 13
0.0
 23
0.0
 33
0.0
 16
1.0
 26
0.0
 36
0.0
 17
0.0
 27
1.0
 37
0.0
 76
     0
330
74
  0
LAYOUT
  5
73
102
{ACAD_REACTORS
330
62
102
}
330
62
100
AcDbPlotSettings
  1

  2

  4

  6

 40
0.0
 41
0.0
 42
0.0
 43
0.0
 44
0.0
 45
0.0
 46
0.0
 47
0.0
 48
0.0
 49
0.0
140
0.0
141
0.0
142
1.0
143
1.0
 70
  1712
 72
     0
 73
     0
 74
     0
  7

 75
     0
147
1.0
 76
     0
 77
     2
 78
   300
148
0.0
149
0.0
100
AcDbLayout
  1
Model
 70
     1
 71
     0
 10
0.0
 20
0.0
 11
12.0
 21
9.0
 12
0.0
 22
0.0
 32
0.0
 14
0.0
 24
0.0
 34
0.0
 15
0.0
 25
0.0
 35
0.0
146
0.0
 13
0.0
 23
0.0
 33
0.0
 16
1.0
 26
0.0
 36
0.0
 17
0.0
 27
1.0
 37
0.0
 76
     0
330
70
  0
MATERIAL
  5
19
102
{ACAD_XDICTIONARY
360
1A
102
}
102
{ACAD_REACTORS
330
10
102
}
330
10
100
AcDbMaterial
  1
ByBlock
 72
     0
 43
0.0208333333333333
 43
0.0
 43
0.0
 43
0.0
 43
0.0
 43
0.0208333333333333
 43
0.0
 43
0.0
 43
0.0
 43
0.0
 43
1.0
 43
0.0
 43
0.0
 43
0.0
 43
0.0
 43
1.0
 77
     0
 47
0.0208333333333333
 47
0.0
 47
0.0
 47
0.0
 47
0.0
 47
0.0208333333333333
 47
0.0
 47
0.0
 47
0.0
 47
0.0
 47
1.0
 47
0.0
 47
0.0
 47
0.0
 47
0.0
 47
1.0
171
     0
 49
0.0208333333333333
 49
0.0
 49
0.0
 49
0.0
 49
0.0
 49
0.0208333333333333
 49
0.0
 49
0.0
 49
0.0
 49
0.0
 49
1.0
 49
0.0
 49
0.0
 49
0.0
 49
0.0
 49
1.0
175
     0
142
0.0208333333333333
142
0.0
142
0.0
142
0.0
142
0.0
142
0.0208333333333333
142
0.0
142
0.0
142
0.0
142
0.0
142
1.0
142
0.0
142
0.0
142
0.0
142
0.0
142
1.0
179
     0
144
0.0208333333333333
144
0.0
144
0.0
144
0.0
144
0.0
144
0.0208333333333333
144
0.0
144
0.0
144
0.0
144
0.0
144
1.0
144
0.0
144
0.0
144
0.0
144
0.0
144
1.0
147
0.0208333333333333
147
0.0
147
0.0
147
0.0
147
0.0
147
0.0208333333333333
147
0.0
147
0.0
147
0.0
147
0.0
147
1.0
147
0.0
147
0.0
147
0.0
147
0.0
147
1.0
  0
MATERIAL
  5
11
102
{ACAD_XDICTIONARY
360
12
102
}
102
{ACAD_REACTORS
330
10
102
}
330
10
100
AcDbMaterial
  1
ByLayer
 72
     0
 43
0.0208333333333333
 43
0.0
 43
0.0
 43
0.0
 43
0.0
 43
0.0208333333333333
 43
0.0
 43
0.0
 43
0.0
 43
0.0
 43
1.0
 43
0.0
 43
0.0
 43
0.0
 43
0.0
 43
1.0
 77
     0
 47
0.0208333333333333
 47
0.0
 47
0.0
 47
0.0
 47
0.0
 47
0.0208333333333333
 47
0.0
 47
0.0
 47
0.0
 47
0.0
 47
1.0
 47
0.0
 47
0.0
 47
0.0
 47
0.0
 47
1.0
171
     0
 49
0.0208333333333333
 49
0.0
 49
0.0
 49
0.0
 49
0.0
 49
0.0208333333333333
 49
0.0
 49
0.0
 49
0.0
 49
0.0
 49
1.0
 49
0.0
 49
0.0
 49
0.0
 49
0.0
 49
1.0
175
     0
142
0.0208333333333333
142
0.0
142
0.0
142
0.0
142
0.0
142
0.0208333333333333
142
0.0
142
0.0
142
0.0
142
0.0
142
1.0
142
0.0
142
0.0
142
0.0
142
0.0
142
1.0
179
     0
144
0.0208333333333333
144
0.0
144
0.0
144
0.0
144
0.0
144
0.0208333333333333
144
0.0
144
0.0
144
0.0
144
0.0
144
1.0
144
0.0
144
0.0
144
0.0
144
0.0
144
1.0
147
0.0208333333333333
147
0.0
147
0.0
147
0.0
147
0.0
147
0.0208333333333333
147
0.0
147
0.0
147
0.0
147
0.0
147
1.0
147
0.0
147
0.0
147
0.0
147
0.0
147
1.0
  0
MATERIAL
  5
21
102
{ACAD_XDICTIONARY
360
22
102
}
102
{ACAD_REACTORS
330
10
102
}
330
10
100
AcDbMaterial
  1
Global
 72
     0
 43
0.0208333333333333
 43
0.0
 43
0.0
 43
0.0
 43
0.0
 43
0.0208333333333333
 43
0.0
 43
0.0
 43
0.0
 43
0.0
 43
1.0
 43
0.0
 43
0.0
 43
0.0
 43
0.0
 43
1.0
 77
     0
 47
0.0208333333333333
 47
0.0
 47
0.0
 47
0.0
 47
0.0
 47
0.0208333333333333
 47
0.0
 47
0.0
 47
0.0
 47
0.0
 47
1.0
 47
0.0
 47
0.0
 47
0.0
 47
0.0
 47
1.0
171
     0
 49
0.0208333333333333
 49
0.0
 49
0.0
 49
0.0
 49
0.0
 49
0.0208333333333333
 49
0.0
 49
0.0
 49
0.0
 49
0.0
 49
1.0
 49
0.0
 49
0.0
 49
0.0
 49
0.0
 49
1.0
175
     0
142
0.0208333333333333
142
0.0
142
0.0
142
0.0
142
0.0
142
0.0208333333333333
142
0.0
142
0.0
142
0.0
142
0.0
142
1.0
142
0.0
142
0.0
142
0.0
142
0.0
142
1.0
179
     0
144
0.0208333333333333
144
0.0
144
0.0
144
0.0
144
0.0
144
0.0208333333333333
144
0.0
144
0.0
144
0.0
144
0.0
144
1.0
144
0.0
144
0.0
144
0.0
144
0.0
144
1.0
147
0.0208333333333333
147
0.0
147
0.0
147
0.0
147
0.0
147
0.0208333333333333
147
0.0
147
0.0
147
0.0
147
0.0
147
1.0
147
0.0
147
0.0
147
0.0
147
0.0
147
1.0
  0
MLEADERSTYLE
  5
67
102
{ACAD_REACTORS
330
66
102
}
330
66
100
AcDbMLeaderStyle
179
     2
170
     2
171
     1
172
     0
 90
        2
 40
0.0
 41
0.0
173
     1
 91
-1056964608
340
5B
 92
       -2
290
     1
 42
0.09
291
     1
 43
0.36
  3
Standard
 44
0.18
300

342
55
174
     1
178
     6
175
     1
176
     0
 93
-1056964608
 45
0.18
292
     0
297
     0
 46
0.18
 94
-1056964608
 47
1.0
 49
1.0
140
1.0
293
     1
141
0.0
294
     1
177
     0
142
1.0
295
     1
296
     0
143
0.125
271
     0
272
     9
273
     9
298
     1
  0
MLINESTYLE
  5
60
102
{ACAD_REACTORS
330
5F
102
}
330
5F
100
AcDbMlineStyle
  2
STANDARD
 70
     0
  3

 62
   256
 51
90.0
 52
90.0
 71
     2
 49
0.5
 62
   256
  6
BYLAYER
 49
-0.5
 62
   256
  6
BYLAYER
  0
ACDBPLACEHOLDER
  5
F
102
{ACAD_REACTORS
330
E
102
}
330
E
  0
SCALE
  5
43
102
{ACAD_REACTORS
330
42
102
}
330
42
100
AcDbScale
 70
     0
300
1:1
140
1.0
141
1.0
290
     1
  0
SCALE
  5
44
102
{ACAD_REACTORS
330
42
102
}
330
42
100
AcDbScale
 70
     0
300
1/128" = 1'-0"
140
0.0078125
141
12.0
290
     0
  0
SCALE
  5
45
102
{ACAD_REACTORS
330
42
102
}
330
42
100
AcDbScale
 70
     0
300
1/64" = 1'-0"
140
0.015625
141
12.0
290
     0
  0
SCALE
  5
46
102
{ACAD_REACTORS
330
42
102
}
330
42
100
AcDbScale
 70
     0
300
1/32" = 1'-0"
140
0.03125
141
12.0
290
     0
  0
SCALE
  5
47
102
{ACAD_REACTORS
330
42
102
}
330
42
100
AcDbScale
 70
     0
300
1/16" = 1'-0"
140
0.0625
141
12.0
290
     0
  0
SCALE
  5
48
102
{ACAD_REACTORS
330
42
102
}
330
42
100
AcDbScale
 70
     0
300
3/32" = 1'-0"
140
0.09375
141
12.0
290
     0
  0
SCALE
  5
49
102
{ACAD_REACTORS
330
42
102
}
330
42
100
AcDbScale
 70
     0
300
1/8" = 1'-0"
140
0.125
141
12.0
290
     0
  0
SCALE
  5
4A
102
{ACAD_REACTORS
330
42
102
}
330
42
100
AcDbScale
 70
     0
300
3/16" = 1'-0"
140
0.1875
141
12.0
290
     0
  0
SCALE
  5
4B
102
{ACAD_REACTORS
330
42
102
}
330
42
100
AcDbScale
 70
     0
300
1/4" = 1'-0"
140
0.25
141
12.0
290
     0
  0
SCALE
  5
4C
102
{ACAD_REACTORS
330
42
102
}
330
42
100
AcDbScale
 70
     0
300
3/8" = 1'-0"
140
0.375
141
12.0
290
     0
  0
SCALE
  5
4D
102
{ACAD_REACTORS
330
42
102
}
330
42
100
AcDbScale
 70
     0
300
1/2" = 1'-0"
140
0.5
141
12.0
290
     0
  0
SCALE
  5
4E
102
{ACAD_REACTORS
330
42
102
}
330
42
100
AcDbScale
 70
     0
300
3/4" = 1'-0"
140
0.75
141
12.0
290
     0
  0
SCALE
  5
4F
102
{ACAD_REACTORS
330
42
102
}
330
42
100
AcDbScale
 70
     0
300
1" = 1'-0"
140
1.0
141
12.0
290
     0
  0
SCALE
  5
50
102
{ACAD_REACTORS
330
42
102
}
330
42
100
AcDbScale
 70
     0
300
1-1/2" = 1'-0"
140
1.5
141
12.0
290
     0
  0
SCALE
  5
51
102
{ACAD_REACTORS
330
42
102
}
330
42
100
AcDbScale
 70
     0
300
3" = 1'-0"
140
3.0
141
12.0
290
     0
  0
SCALE
  5
52
102
{ACAD_REACTORS
330
42
102
}
330
42
100
AcDbScale
 70
     0
300
6" = 1'-0"
140
6.0
141
12.0
290
     0
  0
SCALE
  5
53
102
{ACAD_REACTORS
330
42
102
}
330
42
100
AcDbScale
 70
     0
300
1'-0" = 1'-0"
140
12.0
141
12.0
290
     0
  0
ACDBSECTIONVIEWSTYLE
  5
69
102
{ACAD_REACTORS
330
68
102
}
330
68
100
AcDbModelDocViewStyle
 70
     0
  3
Imperial24
290
     1
300
Imperial24
 90
        0
100
AcDbSectionViewStyle
 70
     0
 71
     0
 90
       78
 71
     1
340
55
 62
   256
 40
0.24
340
0
340
0
 62
   256
 40
0.24
300
I, O, Q, S, X, Z
 40
0.48
 90
        3
 40
0.18
 90
        1
 71
     2
340
5D
 90
       25
 62
   256
340
5D
 90
       50
 62
   256
 40
0.24
 40
0.0
 40
0.24
 71
     3
340
55
 62
   256
 40
0.24
 90
        1
 40
0.75
 90
        1
300
%<\AcVar ViewType \f "%tc1">% %<\AcVar ViewSectionStartId>%-%<\AcVar ViewSectionEndId>%\PSCALE %<\AcVar ViewScale \f "%sn">%
 71
     4
 62
   256
 62
   257
300
ANSI31
 40
1.0
 90
        0
290
     0
290
     0
 90
        6
 40
0.0
 40
1.570796326794896
 40
0.2617993877991494
 40
1.308996938995747
 40
-0.2617993877991494
 40
1.832595714594046
  0
TABLESTYLE
  5
65
102
{ACAD_XDICTIONARY
360
11D
102
}
102
{ACAD_REACTORS
330
64
102
}
330
64
100
AcDbTableStyle
280
     0
  3
Standard
 70
     0
 71
     0
 40
0.06
 41
0.06
280
     0
281
     0
  7
Standard
140
0.18
170
     2
 62
     0
 63
     7
283
     0
 90
      512
 91
        0
  1

274
    -2
284
     1
 64
     0
275
    -2
285
     1
 65
     0
276
    -2
286
     1
 66
     0
277
    -2
287
     1
 67
     0
278
    -2
288
     1
 68
     0
279
    -2
289
     1
 69
     0
  7
Standard
140
0.25
170
     5
 62
     0
 63
     7
283
     0
 90
      512
 91
        0
  1

274
    -2
284
     1
 64
     0
275
    -2
285
     1
 65
     0
276
    -2
286
     1
 66
     0
277
    -2
287
     1
 67
     0
278
    -2
288
     1
 68
     0
279
    -2
289
     1
 69
     0
  7
Standard
140
0.18
170
     5
 62
     0
 63
     7
283
     0
 90
      512
 91
        0
  1

274
    -2
284
     1
 64
     0
275
    -2
285
     1
 65
     0
276
    -2
286
     1
 66
     0
277
    -2
287
     1
 67
     0
278
    -2
288
     1
 68
     0
279
    -2
289
     1
 69
     0
  0
VISUALSTYLE
  5
2F
102
{ACAD_REACTORS
330
29
102
}
330
29
100
AcDbVisualStyle
  2
2dWireframe
 70
     4
177
     3
291
     0
 70
    58
 90
        0
176
     1
 90
        2
176
     1
 90
        0
176
     1
 90
        0
176
     1
 40
0.6
176
     1
 40
30.0
176
     1
 62
     7
420
 16777215
176
     1
 90
        1
176
     1
 90
        4
176
     1
 62
     7
176
     1
 62
   257
176
     1
 90
        1
176
     1
 90
        1
176
     1
 40
1.0
176
     1
 90
        0
176
     1
 62
   257
176
     1
 40
1.0
176
     1
 90
        1
176
     1
 90
        6
176
     1
 90
        2
176
     1
 62
     7
176
     1
 90
        5
176
     1
 90
        0
176
     1
 90
        0
176
     1
290
     0
176
     1
 90
        1
176
     1
 40
0.0
176
     1
 90
        0
176
     1
290
     1
176
     1
290
     1
176
     1
290
     0
176
     1
290
     0
176
     1
290
     0
176
     1
290
     0
176
     1
290
     0
176
     1
290
     0
176
     1
290
     0
176
     1
 90
       50
176
     1
 40
0.0
176
     1
 40
1.0
176
     1
 90
        0
176
     1
 62
    18
420
        0
176
     1
 90
       50
176
     1
 90
        3
176
     1
 62
     5
420
      255
176
     1
290
     0
176
     1
 90
       50
176
     1
 90
       50
176
     1
 90
       50
176
     1
290
     0
176
     1
 90
       50
176
     1
 62
   256
176
     0
 40
1.0
176
     0
 90
        2
176
     1
  1
strokes_ogs.tif
176
     1
290
     0
176
     1
 40
1.0
176
     1
 40
1.0
176
     1
  0
VISUALSTYLE
  5
2E
102
{ACAD_REACTORS
330
29
102
}
330
29
100
AcDbVisualStyle
  2
Basic
 70
     7
177
     3
291
     1
 70
    58
 90
        1
176
     1
 90
        0
176
     1
 90
        1
176
     1
 90
        0
176
     1
 40
0.6
176
     1
 40
30.0
176
     1
 62
     7
420
 16777215
176
     1
 90
        0
176
     1
 90
        4
176
     1
 62
     7
176
     1
 62
   257
176
     1
 90
        1
176
     1
 90
        1
176
     1
 40
1.0
176
     1
 90
        8
176
     1
 62
     7
176
     1
 40
1.0
176
     1
 90
        1
176
     1
 90
        6
176
     1
 90
        2
176
     1
 62
     7
176
     1
 90
        5
176
     1
 90
        0
176
     1
 90
        0
176
     1
290
     0
176
     1
 90
        1
176
     1
 40
0.0
176
     1
 90
        0
176
     1
290
     0
176
     1
290
     1
176
     1
290
     1
176
     1
290
     0
176
     1
290
     0
176
     1
290
     0
176
     1
290
     0
176
     1
290
     0
176
     1
290
     0
176
     1
 90
       50
176
     1
 40
0.0
176
     1
 40
1.0
176
     1
 90
        0
176
     1
 62
    18
420
        0
176
     1
 90
       50
176
     1
 90
        3
176
     1
 62
     5
420
      255
176
     1
290
     0
176
     1
 90
       50
176
     1
 90
       50
176
     1
 90
       50
176
     1
290
     0
176
     1
 90
       50
176
     1
 62
   256
176
     0
 40
1.0
176
     0
 90
        2
176
     1
  1
strokes_ogs.tif
176
     1
290
     0
176
     1
 40
1.0
176
     1
 40
1.0
176
     1
  0
VISUALSTYLE
  5
35
102
{ACAD_REACTORS
330
29
102
}
330
29
100
AcDbVisualStyle
  2
Brighten
 70
    12
177
     3
291
     1
 70
    58
 90
        2
176
     1
 90
        2
176
     1
 90
        0
176
     1
 90
        0
176
     1
 40
0.6
176
     1
 40
30.0
176
     1
 62
     7
420
 16777215
176
     1
 90
        1
176
     1
 90
        4
176
     1
 62
     7
176
     1
 62
   257
176
     1
 90
        1
176
     1
 90
        1
176
     1
 40
1.0
176
     1
 90
        8
176
     1
 62
     7
176
     1
 40
1.0
176
     1
 90
        1
176
     1
 90
        6
176
     1
 90
        2
176
     1
 62
     7
176
     1
 90
        5
176
     1
 90
        0
176
     1
 90
        0
176
     1
290
     0
176
     1
 90
        1
176
     1
 40
50.0
176
     1
 90
        0
176
     1
290
     0
176
     1
290
     1
176
     1
290
     1
176
     1
290
     0
176
     1
290
     0
176
     1
290
     0
176
     1
290
     0
176
     1
290
     0
176
     1
290
     0
176
     1
 90
       50
176
     1
 40
0.0
176
     1
 40
1.0
176
     1
 90
        0
176
     1
 62
    18
420
        0
176
     1
 90
       50
176
     1
 90
        3
176
     1
 62
     5
420
      255
176
     1
290
     0
176
     1
 90
       50
176
     1
 90
       50
176
     1
 90
       50
176
     1
290
     0
176
     1
 90
       50
176
     1
 62
   256
176
     0
 40
1.0
176
     0
 90
        2
176
     1
  1
strokes_ogs.tif
176
     1
290
     0
176
     1
 40
1.0
176
     1
 40
1.0
176
     1
  0
VISUALSTYLE
  5
39
102
{ACAD_REACTORS
330
29
102
}
330
29
100
AcDbVisualStyle
  2
ColorChange
 70
    16
177
     3
291
     1
 70
    58
 90
        2
176
     1
 90
        2
176
     1
 90
        3
176
     1
 90
        0
176
     1
 40
0.6
176
     1
 40
30.0
176
     1
 62
     8
420
  8421504
176
     1
 90
        1
176
     1
 90
        4
176
     1
 62
     7
176
     1
 62
   257
176
     1
 90
        1
176
     1
 90
        1
176
     1
 40
1.0
176
     1
 90
        8
176
     1
 62
     8
420
  8421504
176
     1
 40
1.0
176
     1
 90
        1
176
     1
 90
        6
176
     1
 90
        2
176
     1
 62
     7
176
     1
 90
        5
176
     1
 90
        0
176
     1
 90
        0
176
     1
290
     0
176
     1
 90
        1
176
     1
 40
0.0
176
     1
 90
        0
176
     1
290
     0
176
     1
290
     1
176
     1
290
     1
176
     1
290
     0
176
     1
290
     0
176
     1
290
     0
176
     1
290
     0
176
     1
290
     0
176
     1
290
     0
176
     1
 90
       50
176
     1
 40
0.0
176
     1
 40
1.0
176
     1
 90
        0
176
     1
 62
    18
420
        0
176
     1
 90
       50
176
     1
 90
        3
176
     1
 62
     5
420
      255
176
     1
290
     0
176
     1
 90
       50
176
     1
 90
       50
176
     1
 90
       50
176
     1
290
     0
176
     1
 90
       50
176
     1
 62
   256
176
     0
 40
1.0
176
     0
 90
        2
176
     1
  1
strokes_ogs.tif
176
     1
290
     0
176
     1
 40
1.0
176
     1
 40
1.0
176
     1
  0
VISUALSTYLE
  5
32
102
{ACAD_REACTORS
330
29
102
}
330
29
100
AcDbVisualStyle
  2
Conceptual
 70
     9
177
     3
291
     0
 70
    58
 90
        3
176
     1
 90
        2
176
     1
 90
        0
176
     1
 90
        0
176
     1
 40
0.6
176
     1
 40
30.0
176
     1
 62
     7
420
 16777215
176
     1
 90
        2
176
     1
 90
        2
176
     1
 62
     7
176
     1
 62
   257
176
     1
 90
        1
176
     1
 90
        1
176
     1
 40
179.0
176
     1
 90
        8
176
     1
 62
     7
176
     1
 40
1.0
176
     1
 90
        1
176
     1
 90
        6
176
     1
 90
        2
176
     1
 62
     7
176
     1
 90
        3
176
     1
 90
        0
176
     1
 90
        0
176
     1
290
     0
176
     1
 90
        1
176
     1
 40
0.0
176
     1
 90
        0
176
     1
290
     0
176
     1
290
     1
176
     1
290
     1
176
     1
290
     0
176
     1
290
     0
176
     1
290
     0
176
     1
290
     0
176
     1
290
     0
176
     1
290
     0
176
     1
 90
       50
176
     1
 40
0.0
176
     1
 40
1.0
176
     1
 90
        0
176
     1
 62
    18
420
        0
176
     1
 90
       50
176
     1
 90
        3
176
     1
 62
     5
420
      255
176
     1
290
     0
176
     1
 90
       50
176
     1
 90
       50
176
     1
 90
       50
176
     1
290
     0
176
     1
 90
       50
176
     1
 62
   256
176
     0
 40
1.0
176
     0
 90
        2
176
     1
  1
strokes_ogs.tif
176
     1
290
     0
176
     1
 40
1.0
176
     1
 40
1.0
176
     1
  0
VISUALSTYLE
  5
34
102
{ACAD_REACTORS
330
29
102
}
330
29
100
AcDbVisualStyle
  2
Dim
 70
    11
177
     3
291
     1
 70
    58
 90
        2
176
     1
 90
        2
176
     1
 90
        0
176
     1
 90
        0
176
     1
 40
0.6
176
     1
 40
30.0
176
     1
 62
     7
420
 16777215
176
     1
 90
        1
176
     1
 90
        4
176
     1
 62
     7
176
     1
 62
   257
176
     1
 90
        1
176
     1
 90
        1
176
     1
 40
1.0
176
     1
 90
        8
176
     1
 62
     7
176
     1
 40
1.0
176
     1
 90
        1
176
     1
 90
        6
176
     1
 90
        2
176
     1
 62
     7
176
     1
 90
        5
176
     1
 90
        0
176
     1
 90
        0
176
     1
290
     0
176
     1
 90
        1
176
     1
 40
-50.0
176
     1
 90
        0
176
     1
290
     0
176
     1
290
     1
176
     1
290
     1
176
     1
290
     0
176
     1
290
     0
176
     1
290
     0
176
     1
290
     0
176
     1
290
     0
176
     1
290
     0
176
     1
 90
       50
176
     1
 40
0.0
176
     1
 40
1.0
176
     1
 90
        0
176
     1
 62
    18
420
        0
176
     1
 90
       50
176
     1
 90
        3
176
     1
 62
     5
420
      255
176
     1
290
     0
176
     1
 90
       50
176
     1
 90
       50
176
     1
 90
       50
176
     1
290
     0
176
     1
 90
       50
176
     1
 62
   256
176
     0
 40
1.0
176
     0
 90
        2
176
     1
  1
strokes_ogs.tif
176
     1
290
     0
176
     1
 40
1.0
176
     1
 40
1.0
176
     1
  0
VISUALSTYLE
  5
41
102
{ACAD_REACTORS
330
29
102
}
330
29
100
AcDbVisualStyle
  2
EdgeColorOff
 70
    22
177
     3
291
     1
 70
    58
 90
        2
176
     0
 90
        2
176
     0
 90
        0
176
     0
 90
        0
176
     0
 40
0.6
176
     0
 40
30.0
176
     0
 62
     7
420
 16777215
176
     0
 90
        1
176
     0
 90
        4
176
     0
 62
     7
176
     0
 62
   257
176
     0
 90
        1
176
     0
 90
        1
176
     0
 40
1.0
176
     0
 90
        8
176
     2
 62
     7
176
     0
 40
1.0
176
     0
 90
        1
176
     0
 90
        6
176
     0
 90
        2
176
     0
 62
     7
176
     0
 90
        5
176
     0
 90
        0
176
     0
 90
        0
176
     0
290
     0
176
     0
 90
        1
176
     0
 40
0.0
176
     0
 90
        0
176
     0
290
     0
176
     0
290
     1
176
     0
290
     1
176
     0
290
     0
176
     0
290
     0
176
     0
290
     0
176
     0
290
     0
176
     0
290
     0
176
     0
290
     0
176
     0
 90
       50
176
     0
 40
0.0
176
     0
 40
1.0
176
     0
 90
        0
176
     0
 62
    18
420
        0
176
     0
 90
       50
176
     0
 90
        3
176
     0
 62
     5
420
      255
176
     0
290
     0
176
     0
 90
       50
176
     0
 90
       50
176
     0
 90
       50
176
     0
290
     0
176
     0
 90
       50
176
     0
 62
   256
176
     0
 40
1.0
176
     0
 90
        2
176
     0
  1
strokes_ogs.tif
176
     0
290
     0
176
     0
 40
1.0
176
     0
 40
1.0
176
     0
  0
VISUALSTYLE
  5
38
102
{ACAD_REACTORS
330
29
102
}
330
29
100
AcDbVisualStyle
  2
Facepattern
 70
    15
177
     3
291
     1
 70
    58
 90
        2
176
     1
 90
        2
176
     1
 90
        0
176
     1
 90
        0
176
     1
 40
0.6
176
     1
 40
30.0
176
     1
 62
     7
420
 16777215
176
     1
 90
        1
176
     1
 90
        4
176
     1
 62
     7
176
     1
 62
   257
176
     1
 90
        1
176
     1
 90
        1
176
     1
 40
1.0
176
     1
 90
        8
176
     1
 62
     7
176
     1
 40
1.0
176
     1
 90
        1
176
     1
 90
        6
176
     1
 90
        2
176
     1
 62
     7
176
     1
 90
        5
176
     1
 90
        0
176
     1
 90
        0
176
     1
290
     0
176
     1
 90
        1
176
     1
 40
0.0
176
     1
 90
        0
176
     1
290
     0
176
     1
290
     1
176
     1
290
     1
176
     1
290
     0
176
     1
290
     0
176
     1
290
     0
176
     1
290
     0
176
     1
290
     0
176
     1
290
     0
176
     1
 90
       50
176
     1
 40
0.0
176
     1
 40
1.0
176
     1
 90
        0
176
     1
 62
    18
420
        0
176
     1
 90
       50
176
     1
 90
        3
176
     1
 62
     5
420
      255
176
     1
290
     0
176
     1
 90
       50
176
     1
 90
       50
176
     1
 90
       50
176
     1
290
     0
176
     1
 90
       50
176
     1
 62
   256
176
     0
 40
1.0
176
     0
 90
        2
176
     1
  1
strokes_ogs.tif
176
     1
290
     0
176
     1
 40
1.0
176
     1
 40
1.0
176
     1
  0
VISUALSTYLE
  5
2A
102
{ACAD_REACTORS
330
29
102
}
330
29
100
AcDbVisualStyle
  2
Flat
 70
     0
177
     3
291
     1
 70
    58
 90
        2
176
     1
 90
        1
176
     1
 90
        1
176
     1
 90
        2
176
     1
 40
0.6
176
     1
 40
30.0
176
     1
 62
     7
420
 16777215
176
     1
 90
        0
176
     1
 90
        0
176
     1
 62
     7
176
     1
 62
   257
176
     1
 90
        1
176
     1
 90
        1
176
     1
 40
1.0
176
     1
 90
        8
176
     1
 62
     7
176
     1
 40
1.0
176
     1
 90
        1
176
     1
 90
        6
176
     1
 90
        2
176
     1
 62
     7
176
     1
 90
        5
176
     1
 90
        0
176
     1
 90
        0
176
     1
290
     0
176
     1
 90
       13
176
     1
 40
0.0
176
     1
 90
        0
176
     1
290
     0
176
     1
290
     1
176
     1
290
     1
176
     1
290
     0
176
     1
290
     0
176
     1
290
     0
176
     1
290
     0
176
     1
290
     0
176
     1
290
     0
176
     1
 90
       50
176
     1
 40
0.0
176
     1
 40
1.0
176
     1
 90
        0
176
     1
 62
    18
420
        0
176
     1
 90
       50
176
     1
 90
        3
176
     1
 62
     5
420
      255
176
     1
290
     0
176
     1
 90
       50
176
     1
 90
       50
176
     1
 90
       50
176
     1
290
     0
176
     1
 90
       50
176
     1
 62
   256
176
     0
 40
1.0
176
     0
 90
        2
176
     1
  1
strokes_ogs.tif
176
     1
290
     0
176
     1
 40
1.0
176
     1
 40
1.0
176
     1
  0
VISUALSTYLE
  5
2B
102
{ACAD_REACTORS
330
29
102
}
330
29
100
AcDbVisualStyle
  2
FlatWithEdges
 70
     1
177
     3
291
     1
 70
    58
 90
        2
176
     1
 90
        1
176
     1
 90
        1
176
     1
 90
        2
176
     1
 40
0.6
176
     1
 40
30.0
176
     1
 62
     7
420
 16777215
176
     1
 90
        1
176
     1
 90
        0
176
     1
 62
     7
176
     1
 62
   257
176
     1
 90
        1
176
     1
 90
        1
176
     1
 40
1.0
176
     1
 90
        0
176
     1
 62
   257
176
     1
 40
1.0
176
     1
 90
        1
176
     1
 90
        6
176
     1
 90
        2
176
     1
 62
     7
176
     1
 90
        5
176
     1
 90
        0
176
     1
 90
        0
176
     1
290
     0
176
     1
 90
       13
176
     1
 40
0.0
176
     1
 90
        0
176
     1
290
     0
176
     1
290
     1
176
     1
290
     1
176
     1
290
     0
176
     1
290
     0
176
     1
290
     0
176
     1
290
     0
176
     1
290
     0
176
     1
290
     0
176
     1
 90
       50
176
     1
 40
0.0
176
     1
 40
1.0
176
     1
 90
        0
176
     1
 62
    18
420
        0
176
     1
 90
       50
176
     1
 90
        3
176
     1
 62
     5
420
      255
176
     1
290
     0
176
     1
 90
       50
176
     1
 90
       50
176
     1
 90
       50
176
     1
290
     0
176
     1
 90
       50
176
     1
 62
   256
176
     0
 40
1.0
176
     0
 90
        2
176
     1
  1
strokes_ogs.tif
176
     1
290
     0
176
     1
 40
1.0
176
     1
 40
1.0
176
     1
  0
VISUALSTYLE
  5
2C
102
{ACAD_REACTORS
330
29
102
}
330
29
100
AcDbVisualStyle
  2
Gouraud
 70
     2
177
     3
291
     1
 70
    58
 90
        2
176
     1
 90
        2
176
     1
 90
        1
176
     1
 90
        2
176
     1
 40
0.6
176
     1
 40
30.0
176
     1
 62
     7
420
 16777215
176
     1
 90
        0
176
     1
 90
        0
176
     1
 62
     7
176
     1
 62
   257
176
     1
 90
        1
176
     1
 90
        1
176
     1
 40
1.0
176
     1
 90
        0
176
     1
 62
     7
176
     1
 40
1.0
176
     1
 90
        1
176
     1
 90
        6
176
     1
 90
        2
176
     1
 62
     7
176
     1
 90
        5
176
     1
 90
        0
176
     1
 90
        0
176
     1
290
     0
176
     1
 90
       13
176
     1
 40
0.0
176
     1
 90
        0
176
     1
290
     0
176
     1
290
     1
176
     1
290
     1
176
     1
290
     0
176
     1
290
     0
176
     1
290
     0
176
     1
290
     0
176
     1
290
     0
176
     1
290
     0
176
     1
 90
       50
176
     1
 40
0.0
176
     1
 40
1.0
176
     1
 90
        0
176
     1
 62
    18
420
        0
176
     1
 90
       50
176
     1
 90
        3
176
     1
 62
     5
420
      255
176
     1
290
     0
176
     1
 90
       50
176
     1
 90
       50
176
     1
 90
       50
176
     1
290
     0
176
     1
 90
       50
176
     1
 62
   256
176
     0
 40
1.0
176
     0
 90
        2
176
     1
  1
strokes_ogs.tif
176
     1
290
     0
176
     1
 40
1.0
176
     1
 40
1.0
176
     1
  0
VISUALSTYLE
  5
2D
102
{ACAD_REACTORS
330
29
102
}
330
29
100
AcDbVisualStyle
  2
GouraudWithEdges
 70
     3
177
     3
291
     1
 70
    58
 90
        2
176
     1
 90
        2
176
     1
 90
        1
176
     1
 90
        2
176
     1
 40
0.6
176
     1
 40
30.0
176
     1
 62
     7
420
 16777215
176
     1
 90
        1
176
     1
 90
        0
176
     1
 62
     7
176
     1
 62
   257
176
     1
 90
        1
176
     1
 90
        1
176
     1
 40
1.0
176
     1
 90
        0
176
     1
 62
   257
176
     1
 40
1.0
176
     1
 90
        1
176
     1
 90
        6
176
     1
 90
        2
176
     1
 62
     7
176
     1
 90
        5
176
     1
 90
        0
176
     1
 90
        0
176
     1
290
     0
176
     1
 90
       13
176
     1
 40
0.0
176
     1
 90
        0
176
     1
290
     0
176
     1
290
     1
176
     1
290
     1
176
     1
290
     0
176
     1
290
     0
176
     1
290
     0
176
     1
290
     0
176
     1
290
     0
176
     1
290
     0
176
     1
 90
       50
176
     1
 40
0.0
176
     1
 40
1.0
176
     1
 90
        0
176
     1
 62
    18
420
        0
176
     1
 90
       50
176
     1
 90
        3
176
     1
 62
     5
420
      255
176
     1
290
     0
176
     1
 90
       50
176
     1
 90
       50
176
     1
 90
       50
176
     1
290
     0
176
     1
 90
       50
176
     1
 62
   256
176
     0
 40
1.0
176
     0
 90
        2
176
     1
  1
strokes_ogs.tif
176
     1
290
     0
176
     1
 40
1.0
176
     1
 40
1.0
176
     1
  0
VISUALSTYLE
  5
31
102
{ACAD_REACTORS
330
29
102
}
330
29
100
AcDbVisualStyle
  2
Hidden
 70
     6
177
     3
291
     0
 70
    58
 90
        1
176
     1
 90
        2
176
     1
 90
        2
176
     1
 90
        0
176
     1
 40
0.6
176
     1
 40
30.0
176
     1
 62
     7
420
 16777215
176
     1
 90
        2
176
     1
 90
        2
176
     1
 62
     7
176
     1
 62
   257
176
     1
 90
        2
176
     1
 90
        1
176
     1
 40
40.0
176
     1
 90
        0
176
     1
 62
   257
176
     1
 40
1.0
176
     1
 90
        1
176
     1
 90
        6
176
     1
 90
        2
176
     1
 62
     7
176
     1
 90
        3
176
     1
 90
        0
176
     1
 90
        0
176
     1
290
     0
176
     1
 90
        1
176
     1
 40
0.0
176
     1
 90
        0
176
     1
290
     0
176
     1
290
     1
176
     1
290
     1
176
     1
290
     0
176
     1
290
     0
176
     1
290
     0
176
     1
290
     0
176
     1
290
     0
176
     1
290
     0
176
     1
 90
       50
176
     1
 40
0.0
176
     1
 40
1.0
176
     1
 90
        0
176
     1
 62
    18
420
        0
176
     1
 90
       50
176
     1
 90
        3
176
     1
 62
     5
420
      255
176
     1
290
     0
176
     1
 90
       50
176
     1
 90
       50
176
     1
 90
       50
176
     1
290
     0
176
     1
 90
       50
176
     1
 62
   256
176
     0
 40
1.0
176
     0
 90
        2
176
     1
  1
strokes_ogs.tif
176
     1
290
     0
176
     1
 40
1.0
176
     1
 40
1.0
176
     1
  0
VISUALSTYLE
  5
3F
102
{ACAD_REACTORS
330
29
102
}
330
29
100
AcDbVisualStyle
  2
JitterOff
 70
    20
177
     3
291
     1
 70
    58
 90
        2
176
     0
 90
        2
176
     0
 90
        0
176
     0
 90
        0
176
     0
 40
0.6
176
     0
 40
30.0
176
     0
 62
     7
420
 16777215
176
     0
 90
        1
176
     0
 90
        4
176
     0
 62
     7
176
     0
 62
   257
176
     0
 90
        1
176
     0
 90
        1
176
     0
 40
1.0
176
     0
 90
       10
176
     2
 62
     7
176
     0
 40
1.0
176
     0
 90
        1
176
     0
 90
        6
176
     0
 90
        2
176
     0
 62
     7
176
     0
 90
        5
176
     0
 90
        0
176
     0
 90
        0
176
     0
290
     0
176
     0
 90
        1
176
     0
 40
0.0
176
     0
 90
        0
176
     0
290
     0
176
     0
290
     1
176
     0
290
     1
176
     0
290
     0
176
     0
290
     0
176
     0
290
     0
176
     0
290
     0
176
     0
290
     0
176
     0
290
     0
176
     0
 90
       50
176
     0
 40
0.0
176
     0
 40
1.0
176
     0
 90
        0
176
     0
 62
    18
420
        0
176
     0
 90
       50
176
     0
 90
        3
176
     0
 62
     5
420
      255
176
     0
290
     0
176
     0
 90
       50
176
     0
 90
       50
176
     0
 90
       50
176
     0
290
     0
176
     0
 90
       50
176
     0
 62
   256
176
     0
 40
1.0
176
     0
 90
        2
176
     0
  1
strokes_ogs.tif
176
     0
290
     0
176
     0
 40
1.0
176
     0
 40
1.0
176
     0
  0
VISUALSTYLE
  5
37
102
{ACAD_REACTORS
330
29
102
}
330
29
100
AcDbVisualStyle
  2
Linepattern
 70
    14
177
     3
291
     1
 70
    58
 90
        2
176
     1
 90
        2
176
     1
 90
        0
176
     1
 90
        0
176
     1
 40
0.6
176
     1
 40
30.0
176
     1
 62
     7
420
 16777215
176
     1
 90
        1
176
     1
 90
        4
176
     1
 62
     7
176
     1
 62
   257
176
     1
 90
        7
176
     1
 90
        7
176
     1
 40
1.0
176
     1
 90
        8
176
     1
 62
     7
176
     1
 40
1.0
176
     1
 90
        1
176
     1
 90
        6
176
     1
 90
        2
176
     1
 62
     7
176
     1
 90
        5
176
     1
 90
        0
176
     1
 90
        0
176
     1
290
     0
176
     1
 90
        1
176
     1
 40
0.0
176
     1
 90
        0
176
     1
290
     0
176
     1
290
     1
176
     1
290
     1
176
     1
290
     0
176
     1
290
     0
176
     1
290
     0
176
     1
290
     0
176
     1
290
     0
176
     1
290
     0
176
     1
 90
       50
176
     1
 40
0.0
176
     1
 40
1.0
176
     1
 90
        0
176
     1
 62
    18
420
        0
176
     1
 90
       50
176
     1
 90
        3
176
     1
 62
     5
420
      255
176
     1
290
     0
176
     1
 90
       50
176
     1
 90
       50
176
     1
 90
       50
176
     1
290
     0
176
     1
 90
       50
176
     1
 62
   256
176
     0
 40
1.0
176
     0
 90
        2
176
     1
  1
strokes_ogs.tif
176
     1
290
     0
176
     1
 40
1.0
176
     1
 40
1.0
176
     1
  0
VISUALSTYLE
  5
40
102
{ACAD_REACTORS
330
29
102
}
330
29
100
AcDbVisualStyle
  2
OverhangOff
 70
    21
177
     3
291
     1
 70
    58
 90
        2
176
     0
 90
        2
176
     0
 90
        0
176
     0
 90
        0
176
     0
 40
0.6
176
     0
 40
30.0
176
     0
 62
     7
420
 16777215
176
     0
 90
        1
176
     0
 90
        4
176
     0
 62
     7
176
     0
 62
   257
176
     0
 90
        1
176
     0
 90
        1
176
     0
 40
1.0
176
     0
 90
        9
176
     2
 62
     7
176
     0
 40
1.0
176
     0
 90
        1
176
     0
 90
        6
176
     0
 90
        2
176
     0
 62
     7
176
     0
 90
        5
176
     0
 90
        0
176
     0
 90
        0
176
     0
290
     0
176
     0
 90
        1
176
     0
 40
0.0
176
     0
 90
        0
176
     0
290
     0
176
     0
290
     1
176
     0
290
     1
176
     0
290
     0
176
     0
290
     0
176
     0
290
     0
176
     0
290
     0
176
     0
290
     0
176
     0
290
     0
176
     0
 90
       50
176
     0
 40
0.0
176
     0
 40
1.0
176
     0
 90
        0
176
     0
 62
    18
420
        0
176
     0
 90
       50
176
     0
 90
        3
176
     0
 62
     5
420
      255
176
     0
290
     0
176
     0
 90
       50
176
     0
 90
       50
176
     0
 90
       50
176
     0
290
     0
176
     0
 90
       50
176
     0
 62
   256
176
     0
 40
1.0
176
     0
 90
        2
176
     0
  1
strokes_ogs.tif
176
     0
290
     0
176
     0
 40
1.0
176
     0
 40
1.0
176
     0
  0
VISUALSTYLE
  5
33
102
{ACAD_REACTORS
330
29
102
}
330
29
100
AcDbVisualStyle
  2
Realistic
 70
     8
177
     3
291
     0
 70
    58
 90
        2
176
     1
 90
        3
176
     1
 90
        0
176
     1
 90
        2
176
     1
 40
0.6
176
     1
 40
30.0
176
     1
 62
     7
420
 16777215
176
     1
 90
        0
176
     1
 90
        0
176
     1
 62
     7
176
     1
 62
   257
176
     1
 90
        1
176
     1
 90
        1
176
     1
 40
1.0
176
     1
 90
        8
176
     1
 62
   257
176
     1
 40
1.0
176
     1
 90
        1
176
     1
 90
        6
176
     1
 90
        2
176
     1
 62
     7
176
     1
 90
        3
176
     1
 90
        0
176
     1
 90
        0
176
     1
290
     0
176
     1
 90
       13
176
     1
 40
0.0
176
     1
 90
        0
176
     1
290
     0
176
     1
290
     1
176
     1
290
     1
176
     1
290
     0
176
     1
290
     0
176
     1
290
     0
176
     1
290
     0
176
     1
290
     0
176
     1
290
     0
176
     1
 90
       50
176
     1
 40
0.0
176
     1
 40
1.0
176
     1
 90
        0
176
     1
 62
    18
420
        0
176
     1
 90
       50
176
     1
 90
        3
176
     1
 62
     5
420
      255
176
     1
290
     0
176
     1
 90
       50
176
     1
 90
       50
176
     1
 90
       50
176
     1
290
     0
176
     1
 90
       50
176
     1
 62
   256
176
     0
 40
1.0
176
     0
 90
        2
176
     1
  1
strokes_ogs.tif
176
     1
290
     0
176
     1
 40
1.0
176
     1
 40
1.0
176
     1
  0
VISUALSTYLE
  5
3E
102
{ACAD_REACTORS
330
29
102
}
330
29
100
AcDbVisualStyle
  2
Shaded
 70
    27
177
     3
291
     0
 70
    58
 90
        2
176
     1
 90
        2
176
     1
 90
        1
176
     1
 90
        2
176
     1
 40
0.6
176
     1
 40
30.0
176
     1
 62
     7
420
 16777215
176
     1
 90
        0
176
     1
 90
        4
176
     1
 62
     7
176
     1
 62
   257
176
     1
 90
        1
176
     1
 90
        1
176
     1
 40
1.0
176
     1
 90
        8
176
     1
 62
   257
176
     1
 40
1.0
176
     1
 90
        1
176
     1
 90
        6
176
     1
 90
        2
176
     1
 62
     8
420
  7895160
176
     1
 90
        3
176
     1
 90
        0
176
     1
 90
        0
176
     1
290
     0
176
     1
 90
        5
176
     1
 40
0.0
176
     1
 90
        0
176
     1
290
     0
176
     1
290
     1
176
     1
290
     1
176
     1
290
     0
176
     1
290
     0
176
     1
290
     0
176
     1
290
     0
176
     1
290
     0
176
     1
290
     0
176
     1
 90
       50
176
     1
 40
0.0
176
     1
 40
1.0
176
     1
 90
        0
176
     1
 62
    18
420
        0
176
     1
 90
       50
176
     1
 90
        3
176
     1
 62
     5
420
      255
176
     1
290
     0
176
     1
 90
       50
176
     1
 90
       50
176
     1
 90
       50
176
     1
290
     0
176
     1
 90
       50
176
     1
 62
   256
176
     0
 40
1.0
176
     0
 90
        2
176
     1
  1
strokes_ogs.tif
176
     1
290
     0
176
     1
 40
1.0
176
     1
 40
1.0
176
     1
  0
VISUALSTYLE
  5
3D
102
{ACAD_REACTORS
330
29
102
}
330
29
100
AcDbVisualStyle
  2
Shaded with edges
 70
    26
177
     3
291
     0
 70
    58
 90
        2
176
     1
 90
        2
176
     1
 90
        1
176
     1
 90
        2
176
     1
 40
0.6
176
     1
 40
30.0
176
     1
 62
     7
420
 16777215
176
     1
 90
        1
176
     1
 90
        2
176
     1
 62
     7
176
     1
 62
   257
176
     1
 90
        2
176
     1
 90
        1
176
     1
 40
1.0
176
     1
 90
        8
176
     1
 62
   257
176
     1
 40
1.0
176
     1
 90
        1
176
     1
 90
        6
176
     1
 90
        2
176
     1
 62
     7
176
     1
 90
        3
176
     1
 90
        0
176
     1
 90
        0
176
     1
290
     0
176
     1
 90
        5
176
     1
 40
0.0
176
     1
 90
        0
176
     1
290
     0
176
     1
290
     1
176
     1
290
     1
176
     1
290
     0
176
     1
290
     0
176
     1
290
     0
176
     1
290
     0
176
     1
290
     0
176
     1
290
     0
176
     1
 90
       50
176
     1
 40
0.0
176
     1
 40
1.0
176
     1
 90
        0
176
     1
 62
    18
420
        0
176
     1
 90
       50
176
     1
 90
        3
176
     1
 62
     5
420
      255
176
     1
290
     0
176
     1
 90
       50
176
     1
 90
       50
176
     1
 90
       50
176
     1
290
     0
176
     1
 90
       50
176
     1
 62
   256
176
     0
 40
1.0
176
     0
 90
        2
176
     1
  1
strokes_ogs.tif
176
     1
290
     0
176
     1
 40
1.0
176
     1
 40
1.0
176
     1
  0
VISUALSTYLE
  5
3A
102
{ACAD_REACTORS
330
29
102
}
330
29
100
AcDbVisualStyle
  2
Shades of Gray
 70
    23
177
     3
291
     0
 70
    58
 90
        2
176
     1
 90
        2
176
     1
 90
        3
176
     1
 90
        0
176
     1
 40
0.6
176
     1
 40
30.0
176
     1
 62
     7
420
 16777215
176
     1
 90
        2
176
     1
 90
        2
176
     1
 62
     7
176
     1
 62
     7
176
     1
 90
        1
176
     1
 90
        1
176
     1
 40
40.0
176
     1
 90
        8
176
     1
 62
     7
176
     1
 40
1.0
176
     1
 90
        1
176
     1
 90
        6
176
     1
 90
        2
176
     1
 62
     7
176
     1
 90
        3
176
     1
 90
        0
176
     1
 90
        0
176
     1
290
     0
176
     1
 90
        1
176
     1
 40
0.0
176
     1
 90
        0
176
     1
290
     0
176
     1
290
     1
176
     1
290
     1
176
     1
290
     0
176
     1
290
     0
176
     1
290
     0
176
     1
290
     0
176
     1
290
     0
176
     1
290
     0
176
     1
 90
       50
176
     1
 40
0.0
176
     1
 40
1.0
176
     1
 90
        0
176
     1
 62
    18
420
        0
176
     1
 90
       50
176
     1
 90
        3
176
     1
 62
     5
420
      255
176
     1
290
     0
176
     1
 90
       50
176
     1
 90
       50
176
     1
 90
       50
176
     1
290
     0
176
     1
 90
       50
176
     1
 62
   256
176
     0
 40
1.0
176
     0
 90
        2
176
     1
  1
strokes_ogs.tif
176
     1
290
     0
176
     1
 40
1.0
176
     1
 40
1.0
176
     1
  0
VISUALSTYLE
  5
3B
102
{ACAD_REACTORS
330
29
102
}
330
29
100
AcDbVisualStyle
  2
Sketchy
 70
    24
177
     3
291
     0
 70
    58
 90
        1
176
     1
 90
        2
176
     1
 90
        2
176
     1
 90
        0
176
     1
 40
0.6
176
     1
 40
30.0
176
     1
 62
     7
420
 16777215
176
     1
 90
        2
176
     1
 90
        2
176
     1
 62
     7
176
     1
 62
     7
176
     1
 90
        1
176
     1
 90
        1
176
     1
 40
40.0
176
     1
 90
       11
176
     1
 62
     7
176
     1
 40
1.0
176
     1
 90
        1
176
     1
 90
        6
176
     1
 90
        2
176
     1
 62
     7
176
     1
 90
        6
176
     1
 90
        0
176
     1
 90
        0
176
     1
290
     0
176
     1
 90
        1
176
     1
 40
0.0
176
     1
 90
        0
176
     1
290
     0
176
     1
290
     1
176
     1
290
     1
176
     1
290
     0
176
     1
290
     0
176
     1
290
     0
176
     1
290
     0
176
     1
290
     0
176
     1
290
     0
176
     1
 90
       50
176
     1
 40
0.0
176
     1
 40
1.0
176
     1
 90
        0
176
     1
 62
    18
420
        0
176
     1
 90
       50
176
     1
 90
        3
176
     1
 62
     5
420
      255
176
     1
290
     0
176
     1
 90
       50
176
     1
 90
       50
176
     1
 90
       50
176
     1
290
     0
176
     1
 90
       50
176
     1
 62
   256
176
     0
 40
1.0
176
     0
 90
        2
176
     1
  1
strokes_ogs.tif
176
     1
290
     0
176
     1
 40
1.0
176
     1
 40
1.0
176
     1
  0
VISUALSTYLE
  5
36
102
{ACAD_REACTORS
330
29
102
}
330
29
100
AcDbVisualStyle
  2
Thicken
 70
    13
177
     3
291
     1
 70
    58
 90
        2
176
     1
 90
        2
176
     1
 90
        0
176
     1
 90
        0
176
     1
 40
0.6
176
     1
 40
30.0
176
     1
 62
     7
420
 16777215
176
     1
 90
        1
176
     1
 90
        4
176
     1
 62
     7
176
     1
 62
   257
176
     1
 90
        1
176
     1
 90
        1
176
     1
 40
1.0
176
     1
 90
       12
176
     1
 62
     7
176
     1
 40
1.0
176
     1
 90
        1
176
     1
 90
        6
176
     1
 90
        2
176
     1
 62
     7
176
     1
 90
        5
176
     1
 90
        0
176
     1
 90
        0
176
     1
290
     0
176
     1
 90
        1
176
     1
 40
0.0
176
     1
 90
        0
176
     1
290
     0
176
     1
290
     1
176
     1
290
     1
176
     1
290
     0
176
     1
290
     0
176
     1
290
     0
176
     1
290
     0
176
     1
290
     0
176
     1
290
     0
176
     1
 90
       50
176
     1
 40
0.0
176
     1
 40
1.0
176
     1
 90
        0
176
     1
 62
    18
420
        0
176
     1
 90
       50
176
     1
 90
        3
176
     1
 62
     5
420
      255
176
     1
290
     0
176
     1
 90
       50
176
     1
 90
       50
176
     1
 90
       50
176
     1
290
     0
176
     1
 90
       50
176
     1
 62
   256
176
     0
 40
1.0
176
     0
 90
        2
176
     1
  1
strokes_ogs.tif
176
     1
290
     0
176
     1
 40
1.0
176
     1
 40
1.0
176
     1
  0
VISUALSTYLE
  5
30
102
{ACAD_REACTORS
330
29
102
}
330
29
100
AcDbVisualStyle
  2
Wireframe
 70
     5
177
     3
291
     0
 70
    58
 90
        0
176
     1
 90
        2
176
     1
 90
        0
176
     1
 90
        0
176
     1
 40
0.6
176
     1
 40
30.0
176
     1
 62
     7
420
 16777215
176
     1
 90
        1
176
     1
 90
        4
176
     1
 62
     7
176
     1
 62
   257
176
     1
 90
        1
176
     1
 90
        1
176
     1
 40
1.0
176
     1
 90
        0
176
     1
 62
   257
176
     1
 40
1.0
176
     1
 90
        1
176
     1
 90
        6
176
     1
 90
        2
176
     1
 62
     7
176
     1
 90
        3
176
     1
 90
        0
176
     1
 90
        0
176
     1
290
     0
176
     1
 90
        1
176
     1
 40
0.0
176
     1
 90
        0
176
     1
290
     0
176
     1
290
     1
176
     1
290
     1
176
     1
290
     0
176
     1
290
     0
176
     1
290
     0
176
     1
290
     0
176
     1
290
     0
176
     1
290
     0
176
     1
 90
       50
176
     1
 40
0.0
176
     1
 40
1.0
176
     1
 90
        0
176
     1
 62
    18
420
        0
176
     1
 90
       50
176
     1
 90
        3
176
     1
 62
     5
420
      255
176
     1
290
     0
176
     1
 90
       50
176
     1
 90
       50
176
     1
 90
       50
176
     1
290
     0
176
     1
 90
       50
176
     1
 62
   256
176
     0
 40
1.0
176
     0
 90
        2
176
     1
  1
strokes_ogs.tif
176
     1
290
     0
176
     1
 40
1.0
176
     1
 40
1.0
176
     1
  0
VISUALSTYLE
  5
3C
102
{ACAD_REACTORS
330
29
102
}
330
29
100
AcDbVisualStyle
  2
X-Ray
 70
    25
177
     3
291
     0
 70
    58
 90
        2
176
     1
 90
        2
176
     1
 90
        1
176
     1
 90
        1
176
     1
 40
0.5
176
     1
 40
30.0
176
     1
 62
     7
420
 16777215
176
     1
 90
        1
176
     1
 90
        0
176
     1
 62
     7
176
     1
 62
   257
176
     1
 90
        1
176
     1
 90
        1
176
     1
 40
1.0
176
     1
 90
        8
176
     1
 62
     7
176
     1
 40
1.0
176
     1
 90
        1
176
     1
 90
        6
176
     1
 90
        2
176
     1
 62
     7
176
     1
 90
        3
176
     1
 90
        0
176
     1
 90
        0
176
     1
290
     0
176
     1
 90
       13
176
     1
 40
0.0
176
     1
 90
        0
176
     1
290
     0
176
     1
290
     1
176
     1
290
     1
176
     1
290
     0
176
     1
290
     0
176
     1
290
     0
176
     1
290
     0
176
     1
290
     0
176
     1
290
     0
176
     1
 90
       50
176
     1
 40
0.0
176
     1
 40
1.0
176
     1
 90
        0
176
     1
 62
    18
420
        0
176
     1
 90
       50
176
     1
 90
        3
176
     1
 62
     5
420
      255
176
     1
290
     0
176
     1
 90
       50
176
     1
 90
       50
176
     1
 90
       50
176
     1
290
     0
176
     1
 90
       50
176
     1
 62
   256
176
     0
 40
1.0
176
     0
 90
        2
176
     1
  1
strokes_ogs.tif
176
     1
290
     0
176
     1
 40
1.0
176
     1
 40
1.0
176
     1
  0
DICTIONARYVAR
  5
11C
102
{ACAD_REACTORS
330
117
102
}
330
117
100
DictionaryVariables
280
     0
  1
1:1
  0
DICTIONARYVAR
  5
119
102
{ACAD_REACTORS
330
117
102
}
330
117
100
DictionaryVariables
280
     0
  1
STANDARD
  0
DICTIONARYVAR
  5
118
102
{ACAD_REACTORS
330
117
102
}
330
117
100
DictionaryVariables
280
     0
  1
STANDARD
  0
DICTIONARYVAR
  5
11A
102
{ACAD_REACTORS
330
117
102
}
330
117
100
DictionaryVariables
280
     0
  1
Imperial24
  0
DICTIONARYVAR
  5
11B
102
{ACAD_REACTORS
330
117
102
}
330
117
100
DictionaryVariables
280
     0
  1
Imperial24
  0
DICTIONARY
  5
1A
330
19
100
AcDbDictionary
280
     1
281
     1
  3
BUMPTILE
360
1C
  3
DIFFUSETILE
360
1B
  3
OPACITYTILE
360
1F
  3
REFLECTIONTILE
360
1E
  3
REFRACTIONTILE
360
20
  3
SPECULARTILE
360
1D
  0
DICTIONARY
  5
12
330
11
100
AcDbDictionary
280
     1
281
     1
  3
BUMPTILE
360
14
  3
DIFFUSETILE
360
13
  3
OPACITYTILE
360
17
  3
REFLECTIONTILE
360
16
  3
REFRACTIONTILE
360
18
  3
SPECULARTILE
360
15
  0
DICTIONARY
  5
22
330
21
100
AcDbDictionary
280
     1
281
     1
  3
BUMPTILE
360
24
  3
DIFFUSETILE
360
23
  3
OPACITYTILE
360
27
  3
REFLECTIONTILE
360
26
  3
REFRACTIONTILE
360
28
  3
SPECULARTILE
360
25
  0
DICTIONARY
  5
11D
330
65
100
AcDbDictionary
280
     1
281
     1
  3
ACAD_ROUNDTRIP_2008_TABLESTYLE_CELLSTYLEMAP
360
11E
  0
XRECORD
  5
1C
102
{ACAD_REACTORS
330
1A
102
}
330
1A
100
AcDbXrecord
280
     1
270
     1
271
     1
  0
XRECORD
  5
1B
102
{ACAD_REACTORS
330
1A
102
}
330
1A
100
AcDbXrecord
280
     1
270
     1
271
     1
  0
XRECORD
  5
1F
102
{ACAD_REACTORS
330
1A
102
}
330
1A
100
AcDbXrecord
280
     1
270
     1
271
     1
  0
XRECORD
  5
1E
102
{ACAD_REACTORS
330
1A
102
}
330
1A
100
AcDbXrecord
280
     1
270
     1
271
     1
  0
XRECORD
  5
20
102
{ACAD_REACTORS
330
1A
102
}
330
1A
100
AcDbXrecord
280
     1
270
     1
271
     1
  0
XRECORD
  5
1D
102
{ACAD_REACTORS
330
1A
102
}
330
1A
100
AcDbXrecord
280
     1
270
     1
271
     1
  0
XRECORD
  5
14
102
{ACAD_REACTORS
330
12
102
}
330
12
100
AcDbXrecord
280
     1
270
     1
271
     1
  0
XRECORD
  5
13
102
{ACAD_REACTORS
330
12
102
}
330
12
100
AcDbXrecord
280
     1
270
     1
271
     1
  0
XRECORD
  5
17
102
{ACAD_REACTORS
330
12
102
}
330
12
100
AcDbXrecord
280
     1
270
     1
271
     1
  0
XRECORD
  5
16
102
{ACAD_REACTORS
330
12
102
}
330
12
100
AcDbXrecord
280
     1
270
     1
271
     1
  0
XRECORD
  5
18
102
{ACAD_REACTORS
330
12
102
}
330
12
100
AcDbXrecord
280
     1
270
     1
271
     1
  0
XRECORD
  5
15
102
{ACAD_REACTORS
330
12
102
}
330
12
100
AcDbXrecord
280
     1
270
     1
271
     1
  0
XRECORD
  5
24
102
{ACAD_REACTORS
330
22
102
}
330
22
100
AcDbXrecord
280
     1
270
     1
271
     1
  0
XRECORD
  5
23
102
{ACAD_REACTORS
330
22
102
}
330
22
100
AcDbXrecord
280
     1
270
     1
271
     1
  0
XRECORD
  5
27
102
{ACAD_REACTORS
330
22
102
}
330
22
100
AcDbXrecord
280
     1
270
     1
271
     1
  0
XRECORD
  5
26
102
{ACAD_REACTORS
330
22
102
}
330
22
100
AcDbXrecord
280
     1
270
     1
271
     1
  0
XRECORD
  5
28
102
{ACAD_REACTORS
330
22
102
}
330
22
100
AcDbXrecord
280
     1
270
     1
271
     1
  0
XRECORD
  5
25
102
{ACAD_REACTORS
330
22
102
}
330
22
100
AcDbXrecord
280
     1
270
     1
271
     1
  0
CELLSTYLEMAP
  5
11E
102
{ACAD_REACTORS
330
11D
102
}
330
11D
100
AcDbCellStyleMap
 90
        3
300
CELLSTYLE
  1
TABLEFORMAT_BEGIN
 90
        5
170
     1
 91
        0
 92
    32768
 62
   257
 93
        1
300
CONTENTFORMAT
  1
CONTENTFORMAT_BEGIN
 90
        0
 91
        0
 92
      512
 93
        0
300

 40
0.0
140
1.0
 94
        5
 62
     0
340
55
144
0.25
309
CONTENTFORMAT_END
171
     0
 94
        0
309
TABLEFORMAT_END
  1
CELLSTYLE_BEGIN
 90
        1
 91
        1
300
_TITLE
309
CELLSTYLE_END
300
CELLSTYLE
  1
TABLEFORMAT_BEGIN
 90
        5
170
     1
 91
        0
 92
        0
 62
   257
 93
        1
300
CONTENTFORMAT
  1
CONTENTFORMAT_BEGIN
 90
        0
 91
        0
 92
      512
 93
        0
300

 40
0.0
140
1.0
 94
        5
 62
     0
340
55
144
0.18
309
CONTENTFORMAT_END
171
     0
 94
        0
309
TABLEFORMAT_END
  1
CELLSTYLE_BEGIN
 90
        2
 91
        1
300
_HEADER
309
CELLSTYLE_END
300
CELLSTYLE
  1
TABLEFORMAT_BEGIN
 90
        5
170
     1
 91
        0
 92
        0
 62
   257
 93
        1
300
CONTENTFORMAT
  1
CONTENTFORMAT_BEGIN
 90
        0
 91
        0
 92
      512
 93
        0
300

 40
0.0
140
1.0
 94
        2
 62
     0
340
55
144
0.18
309
CONTENTFORMAT_END
171
     0
 94
        0
309
TABLEFORMAT_END
  1
CELLSTYLE_BEGIN
 90
        3
 91
        2
300
_DATA
309
CELLSTYLE_END
  0
ENDSEC
  0
EOF
