  0
SECTION
  2
HEADER
  9
$ACADVER
  1
AC1032
  9
$ACADMAINTVER
 90
      228
  9
$DWGCODEPAGE
  3
ANSI_1252
  9
$REQUIREDVERSIONS
160
                 0
  9
$INSBASE
 10
0.0
 20
0.0
 30
0.0
  9
$EXTMIN
 10
1.000000000000000E+20
 20
1.000000000000000E+20
 30
1.000000000000000E+20
  9
$EXTMAX
 10
-1.000000000000000E+20
 20
-1.000000000000000E+20
 30
-1.000000000000000E+20
  9
$LIMMIN
 10
0.0
 20
0.0
  9
$LIMMAX
 10
12.0
 20
9.0
  9
$ORTHOMODE
 70
     0
  9
$REGENMODE
 70
     1
  9
$FILLMODE
 70
     1
  9
$QTEXTMODE
 70
     0
  9
$MIRRTEXT
 70
     0
  9
$LTSCALE
 40
1.0
  9
$ATTMODE
 70
     1
  9
$TEXTSIZE
 40
0.2
  9
$TRACEWID
 40
0.05
  9
$TEXTSTYLE
  7
Standard
  9
$CLAYER
  8
0
  9
$CELTYPE
  6
ByLayer
  9
$CECOLOR
 62
   256
  9
$CELTSCALE
 40
1.0
  9
$DISPSILH
 70
     0
  9
$DIMSCALE
 40
1.0
  9
$DIMASZ
 40
0.18
  9
$DIMEXO
 40
0.0625
  9
$DIMDLI
 40
0.38
  9
$DIMRND
 40
0.0
  9
$DIMDLE
 40
0.0
  9
$DIMEXE
 40
0.18
  9
$DIMTP
 40
0.0
  9
$DIMTM
 40
0.0
  9
$DIMTXT
 40
0.18
  9
$DIMCEN
 40
0.09
  9
$DIMTSZ
 40
0.0
  9
$DIMTOL
 70
     0
  9
$DIMLIM
 70
     0
  9
$DIMTIH
 70
     1
  9
$DIMTOH
 70
     1
  9
$DIMSE1
 70
     0
  9
$DIMSE2
 70
     0
  9
$DIMTAD
 70
     0
  9
$DIMZIN
 70
     0
  9
$DIMBLK
  1

  9
$DIMASO
 70
     1
  9
$DIMSHO
 70
     1
  9
$DIMPOST
  1

  9
$DIMAPOST
  1

  9
$DIMALT
 70
     0
  9
$DIMALTD
 70
     2
  9
$DIMALTF
 40
25.4
  9
$DIMLFAC
 40
1.0
  9
$DIMTOFL
 70
     0
  9
$DIMTVP
 40
0.0
  9
$DIMTIX
 70
     0
  9
$DIMSOXD
 70
     0
  9
$DIMSAH
 70
     0
  9
$DIMBLK1
  1

  9
$DIMBLK2
  1

  9
$DIMSTYLE
  2
Standard
  9
$DIMCLRD
 70
     0
  9
$DIMCLRE
 70
     0
  9
$DIMCLRT
 70
     0
  9
$DIMTFAC
 40
1.0
  9
$DIMGAP
 40
0.09
  9
$DIMJUST
 70
     0
  9
$DIMSD1
 70
     0
  9
$DIMSD2
 70
     0
  9
$DIMTOLJ
 70
     1
  9
$DIMTZIN
 70
     0
  9
$DIMALTZ
 70
     0
  9
$DIMALTTZ
 70
     0
  9
$DIMUPT
 70
     0
  9
$DIMDEC
 70
     4
  9
$DIMTDEC
 70
     4
  9
$DIMALTU
 70
     2
  9
$DIMALTTD
 70
     2
  9
$DIMTXSTY
  7
Standard
  9
$DIMAUNIT
 70
     0
  9
$DIMADEC
 70
     0
  9
$DIMALTRND
 40
0.0
  9
$DIMAZIN
 70
     0
  9
$DIMDSEP
 70
    46
  9
$DIMATFIT
 70
     3
  9
$DIMFRAC
 70
     0
  9
$DIMLDRBLK
  1

  9
$DIMLUNIT
 70
     2
  9
$DIMLWD
 70
    -2
  9
$DIMLWE
 70
    -2
  9
$DIMTMOVE
 70
     0
  9
$DIMFXL
 40
1.0
  9
$DIMFXLON
 70
     0
  9
$DIMJOGANG
 40
0.7853981633974483
  9
$DIMTFILL
 70
     0
  9
$DIMTFILLCLR
 70
     0
  9
$DIMARCSYM
 70
     0
  9
$DIMLTYPE
  6

  9
$DIMLTEX1
  6

  9
$DIMLTEX2
  6

  9
$DIMTXTDIRECTION
 70
     0
  9
$LUNITS
 70
     2
  9
$LUPREC
 70
     4
  9
$SKETCHINC
 40
0.1
  9
$FILLETRAD
 40
0.0
  9
$AUNITS
 70
     0
  9
$AUPREC
 70
     0
  9
$MENU
  1
.
  9
$ELEVATION
 40
0.0
  9
$PELEVATION
 40
0.0
  9
$THICKNESS
 40
0.0
  9
$LIMCHECK
 70
     0
  9
$CHAMFERA
 40
0.0
  9
$CHAMFERB
 40
0.0
  9
$CHAMFERC
 40
0.0
  9
$CHAMFERD
 40
0.0
  9
$SKPOLY
 70
     0
  9
$TDCREATE
 40
2460422.882303241
  9
$TDUCREATE
 40
2460423.173969907
  9
$TDUPDATE
 40
2460422.882303241
  9
$TDUUPDATE
 40
2460423.173969907
  9
$TDINDWG
 40
0.0000000000
  9
$TDUSRTIMER
 40
0.0000000000
  9
$USRTIMER
 70
     1
  9
$ANGBASE
 50
0.0
  9
$ANGDIR
 70
     0
  9
$PDMODE
 70
     0
  9
$PDSIZE
 40
0.0
  9
$PLINEWID
 40
0.0
  9
$SPLFRAME
 70
     0
  9
$SPLINETYPE
 70
     6
  9
$SPLINESEGS
 70
     8
  9
$HANDSEED
  5
B1
  9
$SURFTAB1
 70
     6
  9
$SURFTAB2
 70
     6
  9
$SURFTYPE
 70
     6
  9
$SURFU
 70
     6
  9
$SURFV
 70
     6
  9
$UCSBASE
  2

  9
$UCSNAME
  2

  9
$UCSORG
 10
0.0
 20
0.0
 30
0.0
  9
$UCSXDIR
 10
1.0
 20
0.0
 30
0.0
  9
$UCSYDIR
 10
0.0
 20
1.0
 30
0.0
  9
$UCSORTHOREF
  2

  9
$UCSORTHOVIEW
 70
     0
  9
$UCSORGTOP
 10
0.0
 20
0.0
 30
0.0
  9
$UCSORGBOTTOM
 10
0.0
 20
0.0
 30
0.0
  9
$UCSORGLEFT
 10
0.0
 20
0.0
 30
0.0
  9
$UCSORGRIGHT
 10
0.0
 20
0.0
 30
0.0
  9
$UCSORGFRONT
 10
0.0
 20
0.0
 30
0.0
  9
$UCSORGBACK
 10
0.0
 20
0.0
 30
0.0
  9
$PUCSBASE
  2

  9
$PUCSNAME
  2

  9
$PUCSORG
 10
0.0
 20
0.0
 30
0.0
  9
$PUCSXDIR
 10
1.0
 20
0.0
 30
0.0
  9
$PUCSYDIR
 10
0.0
 20
1.0
 30
0.0
  9
$PUCSORTHOREF
  2

  9
$PUCSORTHOVIEW
 70
     0
  9
$PUCSORGTOP
 10
0.0
 20
0.0
 30
0.0
  9
$PUCSORGBOTTOM
 10
0.0
 20
0.0
 30
0.0
  9
$PUCSORGLEFT
 10
0.0
 20
0.0
 30
0.0
  9
$PUCSORGRIGHT
 10
0.0
 20
0.0
 30
0.0
  9
$PUCSORGFRONT
 10
0.0
 20
0.0
 30
0.0
  9
$PUCSORGBACK
 10
0.0
 20
0.0
 30
0.0
  9
$USERI1
 70
     0
  9
$USERI2
 70
     0
  9
$USERI3
 70
     0
  9
$USERI4
 70
     0
  9
$USERI5
 70
     0
  9
$USERR1
 40
0.0
  9
$USERR2
 40
0.0
  9
$USERR3
 40
0.0
  9
$USERR4
 40
0.0
  9
$USERR5
 40
0.0
  9
$WORLDVIEW
 70
     1
  9
$SHADEDGE
 70
     3
  9
$SHADEDIF
 70
    70
  9
$TILEMODE
 70
     1
  9
$MAXACTVP
 70
    64
  9
$PINSBASE
 10
0.0
 20
0.0
 30
0.0
  9
$PLIMCHECK
 70
     0
  9
$PEXTMIN
 10
1.000000000000000E+20
 20
1.000000000000000E+20
 30
1.000000000000000E+20
  9
$PEXTMAX
 10
-1.000000000000000E+20
 20
-1.000000000000000E+20
 30
-1.000000000000000E+20
  9
$PLIMMIN
 10
0.0
 20
0.0
  9
$PLIMMAX
 10
12.0
 20
9.0
  9
$UNITMODE
 70
     0
  9
$VISRETAIN
 70
     1
  9
$PLINEGEN
 70
     0
  9
$PSLTSCALE
 70
     1
  9
$TREEDEPTH
 70
  3020
  9
$CMLSTYLE
  2
Standard
  9
$CMLJUST
 70
     0
  9
$CMLSCALE
 40
1.0
  9
$PROXYGRAPHICS
 70
     1
  9
$MEASUREMENT
 70
     0
  9
$CELWEIGHT
370
    -1
  9
$ENDCAPS
280
     0
  9
$JOINSTYLE
280
     0
  9
$LWDISPLAY
290
     1
  9
$INSUNITS
 70
     1
  9
$HYPERLINKBASE
  1

  9
$STYLESHEET
  1

  9
$XEDIT
290
     1
  9
$CEPSNTYPE
380
     0
  9
$PSTYLEMODE
290
     1
  9
$FINGERPRINTGUID
  2
{472EE386-53E1-4B43-893E-4E1D34DB54AC}
  9
$VERSIONGUID
  2
{59C9F69F-FCFD-7542-BAFE-51A6976B9B61}
  9
$EXTNAMES
290
     1
  9
$PSVPSCALE
 40
0.0
  9
$OLESTARTUP
290
     0
  9
$SORTENTS
280
   127
  9
$INDEXCTL
280
     0
  9
$HIDETEXT
280
     1
  9
$XCLIPFRAME
280
     2
  9
$HALOGAP
280
     0
  9
$OBSCOLOR
 70
   257
  9
$OBSLTYPE
280
     0
  9
$INTERSECTIONDISPLAY
280
     0
  9
$INTERSECTIONCOLOR
 70
   257
  9
$DIMASSOC
280
     2
  9
$PROJECTNAME
  1

  9
$CAMERADISPLAY
290
     0
  9
$LENSLENGTH
 40
50.0
  9
$CAMERAHEIGHT
 40
0.0
  9
$STEPSPERSEC
 40
2.0
  9
$STEPSIZE
 40
6.0
  9
$3DDWFPREC
 40
2.0
  9
$PSOLWIDTH
 40
0.25
  9
$PSOLHEIGHT
 40
4.0
  9
$LOFTANG1
 40
1.570796326794896
  9
$LOFTANG2
 40
1.570796326794896
  9
$LOFTMAG1
 40
0.0
  9
$LOFTMAG2
 40
0.0
  9
$LOFTPARAM
 70
     7
  9
$LOFTNORMALS
280
     1
  9
$LATITUDE
 40
37.795
  9
$LONGITUDE
 40
-122.394
  9
$NORTHDIRECTION
 40
0.0
  9
$TIMEZONE
 70
 -8000
  9
$LIGHTGLYPHDISPLAY
280
     1
  9
$TILEMODELIGHTSYNCH
280
     1
  9
$CMATERIAL
347
11
  9
$SOLIDHIST
280
     0
  9
$SHOWHIST
280
     1
  9
$DWFFRAME
280
     2
  9
$DGNFRAME
280
     0
  9
$REALWORLDSCALE
290
     1
  9
$INTERFERECOLOR
 62
     1
  9
$INTERFEREOBJVS
345
33
  9
$INTERFEREVPVS
346
30
  9
$CSHADOW
280
     0
  9
$SHADOWPLANELOCATION
 40
0.0
  0
ENDSEC
  0
SECTION
  2
CLASSES
  0
CLASS
  1
ACDBDICTIONARYWDFLT
  2
AcDbDictionaryWithDefault
  3
ObjectDBX Classes
 90
        0
 91
        1
280
     0
281
     0
  0
CLASS
  1
MATERIAL
  2
AcDbMaterial
  3
ObjectDBX Classes
 90
     1153
 91
        3
280
     0
281
     0
  0
CLASS
  1
VISUALSTYLE
  2
AcDbVisualStyle
  3
ObjectDBX Classes
 90
     4095
 91
       24
280
     0
281
     0
  0
CLASS
  1
SCALE
  2
AcDbScale
  3
ObjectDBX Classes
 90
     1153
 91
       17
280
     0
281
     0
  0
CLASS
  1
TABLESTYLE
  2
AcDbTableStyle
  3
ObjectDBX Classes
 90
     4095
 91
        1
280
     0
281
     0
  0
CLASS
  1
MLEADERSTYLE
  2
AcDbMLeaderStyle
  3
ACDB_MLEADERSTYLE_CLASS
 90
     4095
 91
        1
280
     0
281
     0
  0
CLASS
  1
ACDBSECTIONVIEWSTYLE
  2
AcDbSectionViewStyle
  3
ObjectDBX Classes
 90
     1025
 91
        1
280
     0
281
     0
  0
CLASS
  1
ACDBDETAILVIEWSTYLE
  2
AcDbDetailViewStyle
  3
ObjectDBX Classes
 90
     1025
 91
        1
280
     0
281
     0
  0
CLASS
  1
DICTIONARYVAR
  2
AcDbDictionaryVar
  3
ObjectDBX Classes
 90
        0
 91
        5
280
     0
281
     0
  0
CLASS
  1
CELLSTYLEMAP
  2
AcDbCellStyleMap
  3
ObjectDBX Classes
 90
     1152
 91
        1
280
     0
281
     0
  0
ENDSEC
  0
SECTION
  2
TABLES
  0
TABLE
  2
VPORT
  5
8
330
0
100
AcDbSymbolTable
 70
     1
  0
VPORT
  5
57
330
8
100
AcDbSymbolTableRecord
100
AcDbViewportTableRecord
  2
*Active
 70
     0
 10
0.0
 20
0.0
 11
1.0
 21
1.0
 12
0.0
 22
0.0
 13
0.0
 23
0.0
 14
1.0
 24
1.0
 15
0.0
 25
0.0
 16
0.0
 26
0.0
 36
1.0
 17
1.133692387429865
 27
-2.472704803893015
 37
0.0
 40
5.49843197316956
 41
1.418102913245642
 42
50.0
 43
0.0
 44
0.0
 50
0.0
 51
0.0
 71
     0
 72
   100
 73
     1
 74
     1
 75
     0
 76
     0
 77
     0
 78
     0
281
     0
 65
     1
110
0.0
120
0.0
130
0.0
111
1.0
121
0.0
131
0.0
112
0.0
122
1.0
132
0.0
 79
     0
146
0.0
 60
     3
 61
     5
292
     1
282
     1
141
0.0
142
0.0
 63
   250
421
  3355443
  0
ENDTAB
  0
TABLE
  2
LTYPE
  5
5
330
0
100
AcDbSymbolTable
 70
     1
  0
LTYPE
  5
5B
330
5
100
AcDbSymbolTableRecord
100
AcDbLinetypeTableRecord
  2
ByBlock
 70
     0
  3

 72
    65
 73
     0
 40
0.0
  0
LTYPE
  5
5C
330
5
100
AcDbSymbolTableRecord
100
AcDbLinetypeTableRecord
  2
ByLayer
 70
     0
  3

 72
    65
 73
     0
 40
0.0
  0
LTYPE
  5
5D
330
5
100
AcDbSymbolTableRecord
100
AcDbLinetypeTableRecord
  2
Continuous
 70
     0
  3
Solid line
 72
    65
 73
     0
 40
0.0
  0
ENDTAB
  0
TABLE
  2
LAYER
  5
2
330
0
100
AcDbSymbolTable
 70
    19
  0
LAYER
  5
54
330
2
100
AcDbSymbolTableRecord
100
AcDbLayerTableRecord
  2
0
 70
     0
 62
     7
  6
Continuous
370
    -3
390
F
347
21
348
0
  0
LAYER
  5
78
330
2
100
AcDbSymbolTableRecord
100
AcDbLayerTableRecord
  2
Fonts
 70
     1
 62
     7
  6
Continuous
370
     0
390
F
347
21
348
0
  0
LAYER
  5
79
330
2
100
AcDbSymbolTableRecord
100
AcDbLayerTableRecord
  2
Green
 70
     5
 62
     7
  6
Continuous
370
     0
390
F
347
21
348
0
  0
LAYER
  5
7A
330
2
100
AcDbSymbolTableRecord
100
AcDbLayerTableRecord
  2
White
 70
     4
 62
     7
  6
Continuous
370
     0
390
F
347
21
348
0
  0
LAYER
  5
7B
330
2
100
AcDbSymbolTableRecord
100
AcDbLayerTableRecord
  2
Date
 70
     1
 62
     7
  6
Continuous
370
     0
390
F
347
21
348
0
  0
LAYER
  5
7C
330
2
100
AcDbSymbolTableRecord
100
AcDbLayerTableRecord
  2
Mr&Mrs with Date
 70
     1
 62
     7
  6
Continuous
370
     0
390
F
347
21
348
0
  0
LAYER
  5
7D
330
2
100
AcDbSymbolTableRecord
100
AcDbLayerTableRecord
  2
TML FRIENDSGIVING
 70
     1
 62
     7
  6
Continuous
370
     0
390
F
347
21
348
0
  0
LAYER
  5
7E
330
2
100
AcDbSymbolTableRecord
100
AcDbLayerTableRecord
  2
Merry Christmas
 70
     5
 62
     7
  6
Continuous
370
     0
390
F
347
21
348
0
  0
LAYER
  5
7F
330
2
100
AcDbSymbolTableRecord
100
AcDbLayerTableRecord
  2
Let It Snow
 70
     1
 62
     7
  6
Continuous
370
     0
390
F
347
21
348
0
  0
LAYER
  5
80
330
2
100
AcDbSymbolTableRecord
100
AcDbLayerTableRecord
  2
Happy Holidays
 70
     1
 62
     7
  6
Continuous
370
     0
390
F
347
21
348
0
  0
LAYER
  5
81
330
2
100
AcDbSymbolTableRecord
100
AcDbLayerTableRecord
  2
Fuck Thank You
 70
     1
 62
     7
  6
Continuous
370
     0
390
F
347
21
348
0
  0
LAYER
  5
82
330
2
100
AcDbSymbolTableRecord
100
AcDbLayerTableRecord
  2
Cole Huber
 70
     1
 62
     7
  6
Continuous
370
     0
390
F
347
21
348
0
  0
LAYER
  5
83
330
2
100
AcDbSymbolTableRecord
100
AcDbLayerTableRecord
  2
Inner Circle
 70
     1
 62
     7
  6
Continuous
370
     0
390
F
347
21
348
0
  0
LAYER
  5
84
330
2
100
AcDbSymbolTableRecord
100
AcDbLayerTableRecord
  2
Christmas In Vegas
 70
     1
 62
     7
  6
Continuous
370
     0
390
F
347
21
348
0
  0
LAYER
  5
85
330
2
100
AcDbSymbolTableRecord
100
AcDbLayerTableRecord
  2
Happy New Year 2024 Chinese Dragon
 70
     1
 62
     7
  6
Continuous
370
     0
390
F
347
21
348
0
  0
LAYER
  5
86
330
2
100
AcDbSymbolTableRecord
100
AcDbLayerTableRecord
  2
My First Christmas (Holly)
 70
     1
 62
     7
  6
Continuous
370
     0
390
F
347
21
348
0
  0
LAYER
  5
87
330
2
100
AcDbSymbolTableRecord
100
AcDbLayerTableRecord
  2
Another TML Friendsmas
 70
     1
 62
     7
  6
Continuous
370
     0
390
F
347
21
348
0
  0
LAYER
  5
88
330
2
100
AcDbSymbolTableRecord
100
AcDbLayerTableRecord
  2
Milo's Baptism
 70
     1
 62
     7
  6
Continuous
370
     0
390
F
347
21
348
0
  0
LAYER
  5
89
330
2
100
AcDbSymbolTableRecord
100
AcDbLayerTableRecord
  2
Amara's 4th
 70
     0
 62
     7
  6
Continuous
370
     0
390
F
347
21
348
0
  0
ENDTAB
  0
TABLE
  2
STYLE
  5
3
330
0
100
AcDbSymbolTable
 70
     2
  0
STYLE
  5
55
330
3
100
AcDbSymbolTableRecord
100
AcDbTextStyleTableRecord
  2
Standard
 70
     0
 40
0.0
 41
1.0
 50
0.0
 71
     0
 42
0.2
  3
txt
  4

  0
STYLE
  5
5A
330
3
100
AcDbSymbolTableRecord
100
AcDbTextStyleTableRecord
  2
Annotative
 70
     0
 40
0.0
 41
1.0
 50
0.0
 71
     0
 42
0.2
  3
txt
  4

1001
AcadAnnotative
1000
AnnotativeData
1002
{
1070
     1
1070
     1
1002
}
  0
ENDTAB
  0
TABLE
  2
VIEW
  5
6
330
0
100
AcDbSymbolTable
 70
     0
  0
ENDTAB
  0
TABLE
  2
UCS
  5
7
330
0
100
AcDbSymbolTable
 70
     0
  0
ENDTAB
  0
TABLE
  2
APPID
  5
9
330
0
100
AcDbSymbolTable
 70
     2
  0
APPID
  5
56
330
9
100
AcDbSymbolTableRecord
100
AcDbRegAppTableRecord
  2
ACAD
 70
     0
  0
APPID
  5
5E
330
9
100
AcDbSymbolTableRecord
100
AcDbRegAppTableRecord
  2
AcadAnnotative
 70
     0
  0
ENDTAB
  0
TABLE
  2
DIMSTYLE
  5
A
330
0
100
AcDbSymbolTable
 70
     2
100
AcDbDimStyleTable
 71
     0
  0
DIMSTYLE
105
58
330
A
100
AcDbSymbolTableRecord
100
AcDbDimStyleTableRecord
  2
Standard
 70
     0
340
55
  0
DIMSTYLE
105
59
330
A
100
AcDbSymbolTableRecord
100
AcDbDimStyleTableRecord
  2
Annotative
 70
     0
340
55
1001
AcadAnnotative
1000
AnnotativeData
1002
{
1070
     1
1070
     1
1002
}
  0
ENDTAB
  0
TABLE
  2
BLOCK_RECORD
  5
1
330
0
100
AcDbSymbolTable
 70
     2
  0
BLOCK_RECORD
  5
70
330
1
100
AcDbSymbolTableRecord
100
AcDbBlockTableRecord
  2
*Model_Space
340
73
 70
     0
280
     1
281
     0
  0
BLOCK_RECORD
  5
6C
330
1
100
AcDbSymbolTableRecord
100
AcDbBlockTableRecord
  2
*Paper_Space
340
6F
 70
     0
280
     1
281
     0
  0
BLOCK_RECORD
  5
74
330
1
100
AcDbSymbolTableRecord
100
AcDbBlockTableRecord
  2
*Paper_Space0
340
77
 70
     0
280
     1
281
     0
  0
BLOCK_RECORD
  5
8C
330
1
100
AcDbSymbolTableRecord
100
AcDbBlockTableRecord
  2
Block_0
340
0
102
{BLKREFS
331
8D
102
}
 70
     0
280
     1
281
     0
  0
ENDTAB
  0
ENDSEC
  0
SECTION
  2
BLOCKS
  0
BLOCK
  5
71
330
70
100
AcDbEntity
  8
0
100
AcDbBlockBegin
  2
*Model_Space
 70
     0
 10
0.0
 20
0.0
 30
0.0
  3
*Model_Space
  1

  0
ENDBLK
  5
72
330
70
100
AcDbEntity
  8
0
100
AcDbBlockEnd
  0
BLOCK
  5
6D
330
6C
100
AcDbEntity
 67
     1
  8
0
100
AcDbBlockBegin
  2
*Paper_Space
 70
     0
 10
0.0
 20
0.0
 30
0.0
  3
*Paper_Space
  1

  0
ENDBLK
  5
6E
330
6C
100
AcDbEntity
 67
     1
  8
0
100
AcDbBlockEnd
  0
BLOCK
  5
75
330
74
100
AcDbEntity
 67
     1
  8
0
100
AcDbBlockBegin
  2
*Paper_Space0
 70
     0
 10
0.0
 20
0.0
 30
0.0
  3
*Paper_Space0
  1

  0
ENDBLK
  5
76
330
74
100
AcDbEntity
 67
     1
  8
0
100
AcDbBlockEnd
  0
BLOCK
  5
8E
330
8C
100
AcDbEntity
  8
0
100
AcDbBlockBegin
  2
Block_0
 70
     0
 10
0.0
 20
0.0
 30
0.0
  3
Block_0
  1

  0
SPLINE
  5
90
330
8C
100
AcDbEntity
  8
Amara's 4th
100
AcDbSpline
210
0.0
220
0.0
230
1.0
 70
     9
 71
     3
 72
    38
 73
    34
 74
     0
 42
0.0000000001
 43
0.0000000001
 40
0.0
 40
0.0
 40
0.0
 40
0.0
 40
1.0
 40
1.0
 40
1.0
 40
2.0
 40
2.0
 40
2.0
 40
3.0
 40
3.0
 40
3.0
 40
4.0
 40
4.0
 40
4.0
 40
5.0
 40
5.0
 40
5.0
 40
6.0
 40
6.0
 40
6.0
 40
7.0
 40
7.0
 40
7.0
 40
8.0
 40
8.0
 40
8.0
 40
9.0
 40
9.0
 40
9.0
 40
10.0
 40
10.0
 40
10.0
 40
11.0
 40
11.0
 40
11.0
 40
11.0
 10
0.5742505870755773
 20
-2.931457066238458
 30
0.0
 10
0.5741979376318037
 20
-2.931561493286077
 30
0.0
 10
0.5741453366235874
 20
-2.931665726591493
 30
0.0
 10
0.5740928809220173
 20
-2.931769766154704
 30
0.0
 10
0.5741209735415143
 20
-2.931843194449786
 30
0.0
 10
0.5741490661609987
 20
-2.931916429002689
 30
0.0
 10
0.5741771587804957
 20
-2.931989857297771
 30
0.0
 10
0.574125042127788
 20
-2.932339755717066
 30
0.0
 10
0.5743090972210009
 20
-2.934807256419364
 30
0.0
 10
0.5747646335767059
 20
-2.939375697575163
 30
0.0
 10
0.5752143576663053
 20
-2.943947819832803
 30
0.0
 10
0.575544397509778
 20
-2.94645251903815
 30
0.0
 10
0.5757091752537538
 20
-2.946880108081005
 30
0.0
 10
0.5757676369636203
 20
-2.947029870804221
 30
0.0
 10
0.576290644041655
 20
-2.94694849907882
 30
0.0
 10
0.5772841056250525
 20
-2.946643742592894
 30
0.0
 10
0.5782884652073915
 20
-2.946348866959346
 30
0.0
 10
0.5792624072638041
 20
-2.945882723217992
 30
0.0
 10
0.5802342181559778
 20
-2.945271660308536
 30
0.0
 10
0.5812016698485725
 20
-2.944649747835658
 30
0.0
 10
0.5818156388910944
 20
-2.94420491573669
 30
0.0
 10
0.5820921574508777
 20
-2.943940070144662
 30
0.0
 10
0.5819188550499474
 20
-2.942997320583016
 30
0.0
 10
0.5815369891670849
 20
-2.941989086156607
 30
0.0
 10
0.5809300432794342
 20
-2.940879912042217
 30
0.0
 10
0.5803276503335661
 20
-2.93978333117108
 30
0.0
 10
0.5792462782253804
 20
-2.938162871381968
 30
0.0
 10
0.5776810349642448
 20
-2.936013495377639
 30
0.0
 10
0.5761088654193271
 20
-2.933867219248541
 30
0.0
 10
0.5752479719385898
 20
-2.932574958751981
 30
0.0
 10
0.5750841629056317
 20
-2.932147175966898
 30
0.0
 10
0.5748064334570825
 20
-2.9319170102293
 30
0.0
 10
0.5745286071374318
 20
-2.931686844491676
 30
0.0
 10
0.5742505870755773
 20
-2.931457066238458
 30
0.0
  0
SPLINE
  5
91
330
8C
100
AcDbEntity
  8
Amara's 4th
100
AcDbSpline
210
0.0
220
0.0
230
1.0
 70
     9
 71
     3
 72
    74
 73
    70
 74
     0
 42
0.0000000001
 43
0.0000000001
 40
0.0
 40
0.0
 40
0.0
 40
0.0
 40
1.0
 40
1.0
 40
1.0
 40
2.0
 40
2.0
 40
2.0
 40
3.0
 40
3.0
 40
3.0
 40
4.0
 40
4.0
 40
4.0
 40
5.0
 40
5.0
 40
5.0
 40
6.0
 40
6.0
 40
6.0
 40
7.0
 40
7.0
 40
7.0
 40
8.0
 40
8.0
 40
8.0
 40
9.0
 40
9.0
 40
9.0
 40
10.0
 40
10.0
 40
10.0
 40
11.0
 40
11.0
 40
11.0
 40
12.0
 40
12.0
 40
12.0
 40
13.0
 40
13.0
 40
13.0
 40
14.0
 40
14.0
 40
14.0
 40
15.0
 40
15.0
 40
15.0
 40
16.0
 40
16.0
 40
16.0
 40
17.0
 40
17.0
 40
17.0
 40
18.0
 40
18.0
 40
18.0
 40
19.0
 40
19.0
 40
19.0
 40
20.0
 40
20.0
 40
20.0
 40
21.0
 40
21.0
 40
21.0
 40
22.0
 40
22.0
 40
22.0
 40
23.0
 40
23.0
 40
23.0
 40
23.0
 10
0.5256747184388486
 20
-2.873731770482486
 30
0.0
 10
0.5289554520398446
 20
-2.868870778599582
 30
0.0
 10
0.5333344133207321
 20
-2.865110629916317
 30
0.0
 10
0.5387802160445416
 20
-2.862473411043866
 30
0.0
 10
0.5442157019960203
 20
-2.859853435227503
 30
0.0
 10
0.5504845215998052
 20
-2.85778349352654
 30
0.0
 10
0.5575585822363994
 20
-2.856318027500163
 30
0.0
 10
0.5667766909667509
 20
-2.854718104384624
 30
0.0
 10
0.5747555761286978
 20
-2.856414123633031
 30
0.0
 10
0.5813854827640373
 20
-2.861324519777781
 30
0.0
 10
0.5983303696141826
 20
-2.874311253412795
 30
0.0
 10
0.6151222969947538
 20
-2.891416752549553
 30
0.0
 10
0.6315963418551166
 20
-2.912561970369046
 30
0.0
 10
0.6480609902186214
 20
-2.933731212221775
 30
0.0
 10
0.6589276029220123
 20
-2.952534280544568
 30
0.0
 10
0.6649973524118119
 20
-2.968543392552368
 30
0.0
 10
0.6661789376746962
 20
-2.974689282728099
 30
0.0
 10
0.6658346577792902
 20
-2.97941969236591
 30
0.0
 10
0.6639865993367568
 20
-2.982755933108187
 30
0.0
 10
0.6620726685450791
 20
-2.986450403184512
 30
0.0
 10
0.6542623391000764
 20
-2.990616248041659
 30
0.0
 10
0.640645652690763
 20
-2.99569597487218
 30
0.0
 10
0.6323399244317013
 20
-2.998836923473441
 30
0.0
 10
0.6262512850770716
 20
-3.000149333159166
 30
0.0
 10
0.6223204495126108
 20
-2.999502234199856
 30
0.0
 10
0.6183767300916417
 20
-2.998851454138705
 30
0.0
 10
0.6143236431968515
 20
-2.995912384913354
 30
0.0
 10
0.6101185655435049
 20
-2.990670108374211
 30
0.0
 10
0.6098060593694501
 20
-2.990295023468459
 30
0.0
 10
0.6092762713142924
 20
-2.989580502222376
 30
0.0
 10
0.6085382103905078
 20
-2.988531194448846
 30
0.0
 10
0.6077954512182816
 20
-2.987471230854149
 30
0.0
 10
0.6072253647848306
 20
-2.986652476302651
 30
0.0
 10
0.6068294525922131
 20
-2.986056719027222
 30
0.0
 10
0.6064296171199809
 20
-2.985449143477429
 30
0.0
 10
0.605840156466191
 20
-2.984810181690666
 30
0.0
 10
0.6050474118054959
 20
-2.98409934154645
 30
0.0
 10
0.6042589294732654
 20
-2.983398963481224
 30
0.0
 10
0.6034450184768553
 20
-2.982884384189042
 30
0.0
 10
0.6026033539098105
 20
-2.982522473753104
 30
0.0
 10
0.6018688772167782
 20
-2.982467063482949
 30
0.0
 10
0.5993390883961007
 20
-2.983288142940889
 30
0.0
 10
0.5950244495267422
 20
-2.985017098363869
 30
0.0
 10
0.5907090356885698
 20
-2.986762909358579
 30
0.0
 10
0.5884556201210166
 20
-2.987851740541575
 30
0.0
 10
0.5882595045756413
 20
-2.988258986653085
 30
0.0
 10
0.5879683100439605
 20
-2.988877605508504
 30
0.0
 10
0.5880970517381077
 20
-2.99057246230369
 30
0.0
 10
0.5886605509366519
 20
-2.993362156290231
 30
0.0
 10
0.5891840423701826
 20
-2.998324475345498
 30
0.0
 10
0.5889841972873961
 20
-3.002961501241265
 30
0.0
 10
0.5880589813951424
 20
-3.007257153374692
 30
0.0
 10
0.5871380762669105
 20
-3.011564623782533
 30
0.0
 10
0.5856073191179753
 20
-3.014480056459054
 30
0.0
 10
0.5834343550003748
 20
-3.016036968805438
 30
0.0
 10
0.5783587451916725
 20
-3.019963348299218
 30
0.0
 10
0.5691615121837433
 20
-3.024166779143822
 30
0.0
 10
0.5558368921460266
 20
-3.029064388303166
 30
0.0
 10
0.5449691654249718
 20
-3.0330461780671
 30
0.0
 10
0.5366389287771906
 20
-3.032173950667457
 30
0.0
 10
0.5307164233619485
 20
-3.026197584919701
 30
0.0
 10
0.524551885499136
 20
-3.013481315400591
 30
0.0
 10
0.5198527652271676
 20
-2.995923234476751
 30
0.0
 10
0.5172473685116125
 20
-2.973363698572559
 30
0.0
 10
0.5146449748002119
 20
-2.950793119362768
 30
0.0
 10
0.5143418651230276
 20
-2.929905384931544
 30
0.0
 10
0.5163434158261755
 20
-2.910766948854693
 30
0.0
 10
0.5183523771686143
 20
-2.891613207143791
 30
0.0
 10
0.5216491913724895
 20
-2.879243542426542
 30
0.0
 10
0.5256747184388486
 20
-2.873731770482486
 30
0.0
  0
HATCH
  5
92
330
8C
100
AcDbEntity
  8
Amara's 4th
 62
   232
420
 13898842
440
 33554687
100
AcDbHatch
 10
0.0
 20
0.0
 30
0.0
210
0.0
220
0.0
230
1.0
  2
SOLID
 70
     1
 71
     1
 91
        2
 92
        1
 93
        1
 72
     4
 94
        3
 73
     0
 74
     0
 95
       38
 96
       34
 40
0.0
 40
0.0
 40
0.0
 40
0.0
 40
1.0
 40
1.0
 40
1.0
 40
2.0
 40
2.0
 40
2.0
 40
3.0
 40
3.0
 40
3.0
 40
4.0
 40
4.0
 40
4.0
 40
5.0
 40
5.0
 40
5.0
 40
6.0
 40
6.0
 40
6.0
 40
7.0
 40
7.0
 40
7.0
 40
8.0
 40
8.0
 40
8.0
 40
9.0
 40
9.0
 40
9.0
 40
10.0
 40
10.0
 40
10.0
 40
11.0
 40
11.0
 40
11.0
 40
11.0
 10
0.5742505870755773
 20
-2.931457066238458
 10
0.5741979376318037
 20
-2.931561493286077
 10
0.5741453366235874
 20
-2.931665726591493
 10
0.5740928809220173
 20
-2.931769766154704
 10
0.5741209735415143
 20
-2.931843194449786
 10
0.5741490661609987
 20
-2.931916429002689
 10
0.5741771587804957
 20
-2.931989857297771
 10
0.574125042127788
 20
-2.932339755717066
 10
0.5743090972210009
 20
-2.934807256419364
 10
0.5747646335767059
 20
-2.939375697575163
 10
0.5752143576663053
 20
-2.943947819832803
 10
0.575544397509778
 20
-2.94645251903815
 10
0.5757091752537538
 20
-2.946880108081005
 10
0.5757676369636203
 20
-2.947029870804221
 10
0.576290644041655
 20
-2.94694849907882
 10
0.5772841056250525
 20
-2.946643742592894
 10
0.5782884652073915
 20
-2.946348866959346
 10
0.5792624072638041
 20
-2.945882723217992
 10
0.5802342181559778
 20
-2.945271660308536
 10
0.5812016698485725
 20
-2.944649747835658
 10
0.5818156388910944
 20
-2.94420491573669
 10
0.5820921574508777
 20
-2.943940070144662
 10
0.5819188550499474
 20
-2.942997320583016
 10
0.5815369891670849
 20
-2.941989086156607
 10
0.5809300432794342
 20
-2.940879912042217
 10
0.5803276503335661
 20
-2.93978333117108
 10
0.5792462782253804
 20
-2.938162871381968
 10
0.5776810349642448
 20
-2.936013495377639
 10
0.5761088654193271
 20
-2.933867219248541
 10
0.5752479719385898
 20
-2.932574958751981
 10
0.5750841629056317
 20
-2.932147175966898
 10
0.5748064334570825
 20
-2.9319170102293
 10
0.5745286071374318
 20
-2.931686844491676
 10
0.5742505870755773
 20
-2.931457066238458
 97
        0
 97
        1
330
90
 92
        1
 93
        1
 72
     4
 94
        3
 73
     0
 74
     0
 95
       74
 96
       70
 40
0.0
 40
0.0
 40
0.0
 40
0.0
 40
1.0
 40
1.0
 40
1.0
 40
2.0
 40
2.0
 40
2.0
 40
3.0
 40
3.0
 40
3.0
 40
4.0
 40
4.0
 40
4.0
 40
5.0
 40
5.0
 40
5.0
 40
6.0
 40
6.0
 40
6.0
 40
7.0
 40
7.0
 40
7.0
 40
8.0
 40
8.0
 40
8.0
 40
9.0
 40
9.0
 40
9.0
 40
10.0
 40
10.0
 40
10.0
 40
11.0
 40
11.0
 40
11.0
 40
12.0
 40
12.0
 40
12.0
 40
13.0
 40
13.0
 40
13.0
 40
14.0
 40
14.0
 40
14.0
 40
15.0
 40
15.0
 40
15.0
 40
16.0
 40
16.0
 40
16.0
 40
17.0
 40
17.0
 40
17.0
 40
18.0
 40
18.0
 40
18.0
 40
19.0
 40
19.0
 40
19.0
 40
20.0
 40
20.0
 40
20.0
 40
21.0
 40
21.0
 40
21.0
 40
22.0
 40
22.0
 40
22.0
 40
23.0
 40
23.0
 40
23.0
 40
23.0
 10
0.5256747184388486
 20
-2.873731770482486
 10
0.5289554520398446
 20
-2.868870778599582
 10
0.5333344133207321
 20
-2.865110629916317
 10
0.5387802160445416
 20
-2.862473411043866
 10
0.5442157019960203
 20
-2.859853435227503
 10
0.5504845215998052
 20
-2.85778349352654
 10
0.5575585822363994
 20
-2.856318027500163
 10
0.5667766909667509
 20
-2.854718104384624
 10
0.5747555761286978
 20
-2.856414123633031
 10
0.5813854827640373
 20
-2.861324519777781
 10
0.5983303696141826
 20
-2.874311253412795
 10
0.6151222969947538
 20
-2.891416752549553
 10
0.6315963418551166
 20
-2.912561970369046
 10
0.6480609902186214
 20
-2.933731212221775
 10
0.6589276029220123
 20
-2.952534280544568
 10
0.6649973524118119
 20
-2.968543392552368
 10
0.6661789376746962
 20
-2.974689282728099
 10
0.6658346577792902
 20
-2.97941969236591
 10
0.6639865993367568
 20
-2.982755933108187
 10
0.6620726685450791
 20
-2.986450403184512
 10
0.6542623391000764
 20
-2.990616248041659
 10
0.640645652690763
 20
-2.99569597487218
 10
0.6323399244317013
 20
-2.998836923473441
 10
0.6262512850770716
 20
-3.000149333159166
 10
0.6223204495126108
 20
-2.999502234199856
 10
0.6183767300916417
 20
-2.998851454138705
 10
0.6143236431968515
 20
-2.995912384913354
 10
0.6101185655435049
 20
-2.990670108374211
 10
0.6098060593694501
 20
-2.990295023468459
 10
0.6092762713142924
 20
-2.989580502222376
 10
0.6085382103905078
 20
-2.988531194448846
 10
0.6077954512182816
 20
-2.987471230854149
 10
0.6072253647848306
 20
-2.986652476302651
 10
0.6068294525922131
 20
-2.986056719027222
 10
0.6064296171199809
 20
-2.985449143477429
 10
0.605840156466191
 20
-2.984810181690666
 10
0.6050474118054959
 20
-2.98409934154645
 10
0.6042589294732654
 20
-2.983398963481224
 10
0.6034450184768553
 20
-2.982884384189042
 10
0.6026033539098105
 20
-2.982522473753104
 10
0.6018688772167782
 20
-2.982467063482949
 10
0.5993390883961007
 20
-2.983288142940889
 10
0.5950244495267422
 20
-2.985017098363869
 10
0.5907090356885698
 20
-2.986762909358579
 10
0.5884556201210166
 20
-2.987851740541575
 10
0.5882595045756413
 20
-2.988258986653085
 10
0.5879683100439605
 20
-2.988877605508504
 10
0.5880970517381077
 20
-2.99057246230369
 10
0.5886605509366519
 20
-2.993362156290231
 10
0.5891840423701826
 20
-2.998324475345498
 10
0.5889841972873961
 20
-3.002961501241265
 10
0.5880589813951424
 20
-3.007257153374692
 10
0.5871380762669105
 20
-3.011564623782533
 10
0.5856073191179753
 20
-3.014480056459054
 10
0.5834343550003748
 20
-3.016036968805438
 10
0.5783587451916725
 20
-3.019963348299218
 10
0.5691615121837433
 20
-3.024166779143822
 10
0.5558368921460266
 20
-3.029064388303166
 10
0.5449691654249718
 20
-3.0330461780671
 10
0.5366389287771906
 20
-3.032173950667457
 10
0.5307164233619485
 20
-3.026197584919701
 10
0.524551885499136
 20
-3.013481315400591
 10
0.5198527652271676
 20
-2.995923234476751
 10
0.5172473685116125
 20
-2.973363698572559
 10
0.5146449748002119
 20
-2.950793119362768
 10
0.5143418651230276
 20
-2.929905384931544
 10
0.5163434158261755
 20
-2.910766948854693
 10
0.5183523771686143
 20
-2.891613207143791
 10
0.5216491913724895
 20
-2.879243542426542
 10
0.5256747184388486
 20
-2.873731770482486
 97
        0
 97
        1
330
91
 75
     2
 76
     1
 98
        1
 10
0.0
 20
0.0
450
        0
451
        0
460
0.0
461
0.0
452
        0
462
0.0
453
        0
470

  0
SPLINE
  5
93
330
8C
100
AcDbEntity
  8
Amara's 4th
100
AcDbSpline
210
0.0
220
0.0
230
1.0
 70
     9
 71
     3
 72
   140
 73
   136
 74
     0
 42
0.0000000001
 43
0.0000000001
 40
0.0
 40
0.0
 40
0.0
 40
0.0
 40
1.0
 40
1.0
 40
1.0
 40
2.0
 40
2.0
 40
2.0
 40
3.0
 40
3.0
 40
3.0
 40
4.0
 40
4.0
 40
4.0
 40
5.0
 40
5.0
 40
5.0
 40
6.0
 40
6.0
 40
6.0
 40
7.0
 40
7.0
 40
7.0
 40
8.0
 40
8.0
 40
8.0
 40
9.0
 40
9.0
 40
9.0
 40
10.0
 40
10.0
 40
10.0
 40
11.0
 40
11.0
 40
11.0
 40
12.0
 40
12.0
 40
12.0
 40
13.0
 40
13.0
 40
13.0
 40
14.0
 40
14.0
 40
14.0
 40
15.0
 40
15.0
 40
15.0
 40
16.0
 40
16.0
 40
16.0
 40
17.0
 40
17.0
 40
17.0
 40
18.0
 40
18.0
 40
18.0
 40
19.0
 40
19.0
 40
19.0
 40
20.0
 40
20.0
 40
20.0
 40
21.0
 40
21.0
 40
21.0
 40
22.0
 40
22.0
 40
22.0
 40
23.0
 40
23.0
 40
23.0
 40
24.0
 40
24.0
 40
24.0
 40
25.0
 40
25.0
 40
25.0
 40
26.0
 40
26.0
 40
26.0
 40
27.0
 40
27.0
 40
27.0
 40
28.0
 40
28.0
 40
28.0
 40
29.0
 40
29.0
 40
29.0
 40
30.0
 40
30.0
 40
30.0
 40
31.0
 40
31.0
 40
31.0
 40
32.0
 40
32.0
 40
32.0
 40
33.0
 40
33.0
 40
33.0
 40
34.0
 40
34.0
 40
34.0
 40
35.0
 40
35.0
 40
35.0
 40
36.0
 40
36.0
 40
36.0
 40
37.0
 40
37.0
 40
37.0
 40
38.0
 40
38.0
 40
38.0
 40
39.0
 40
39.0
 40
39.0
 40
40.0
 40
40.0
 40
40.0
 40
41.0
 40
41.0
 40
41.0
 40
42.0
 40
42.0
 40
42.0
 40
43.0
 40
43.0
 40
43.0
 40
44.0
 40
44.0
 40
44.0
 40
45.0
 40
45.0
 40
45.0
 40
45.0
 10
0.8361054291430036
 20
-2.948834579428749
 30
0.0
 10
0.8331724143615321
 20
-2.948573414938588
 30
0.0
 10
0.830735815540682
 20
-2.946538734318664
 30
0.0
 10
0.8287758709756946
 20
-2.942719300521149
 30
0.0
 10
0.8278728385657307
 20
-2.94081171478663
 30
0.0
 10
0.8266066363955056
 20
-2.933687038999399
 30
0.0
 10
0.8249796378070438
 20
-2.921357478918278
 30
0.0
 10
0.8229903412982492
 20
-2.907525641792087
 30
0.0
 10
0.821820235260917
 20
-2.900624544507561
 30
0.0
 10
0.821487531462152
 20
-2.900669105214344
 30
0.0
 10
0.8211990493213205
 20
-2.901020166086886
 30
0.0
 10
0.8202157107680502
 20
-2.905539009238585
 30
0.0
 10
0.8186418944144026
 20
-2.914214978848324
 30
0.0
 10
0.8170750527800944
 20
-2.922902572990248
 30
0.0
 10
0.816191297719355
 20
-2.92860246861379
 30
0.0
 10
0.8159156509995
 20
-2.931309628421685
 30
0.0
 10
0.8152871028561699
 20
-2.938460653148568
 30
0.0
 10
0.8142357607895039
 20
-2.94300003297384
 30
0.0
 10
0.8127286401893847
 20
-2.944950823219717
 30
0.0
 10
0.8081462495949583
 20
-2.948145825895734
 30
0.0
 10
0.8028111705403691
 20
-2.950383548344815
 30
0.0
 10
0.7966802953853983
 20
-2.951695376803904
 30
0.0
 10
0.7905533435100426
 20
-2.953032391749477
 30
0.0
 10
0.7849028521483584
 20
-2.952839811999309
 30
0.0
 10
0.7796664363108523
 20
-2.951106400505624
 30
0.0
 10
0.7780464608772616
 20
-2.95029229576701
 30
0.0
 10
0.7765206441545161
 20
-2.948946562422305
 30
0.0
 10
0.7751072947808223
 20
-2.947077725128464
 30
0.0
 10
0.7736791241285851
 20
-2.945214506358524
 30
0.0
 10
0.7704951647581816
 20
-2.940228744496657
 30
0.0
 10
0.7654261421843987
 20
-2.932188249314018
 30
0.0
 10
0.7570898510927515
 20
-2.918604595950379
 30
0.0
 10
0.7525245098122216
 20
-2.912488154589557
 30
0.0
 10
0.7521019580666462
 20
-2.913686062633082
 30
0.0
 10
0.7519793676874543
 20
-2.914811511092541
 30
0.0
 10
0.7525352140689594
 20
-2.918190375119542
 30
0.0
 10
0.7537626193629496
 20
-2.923812386377347
 30
0.0
 10
0.7549804828534105
 20
-2.92942296684512
 30
0.0
 10
0.7562121989114227
 20
-2.93400613240836
 30
0.0
 10
0.7574318060817279
 20
-2.937567889075378
 30
0.0
 10
0.7593103789212894
 20
-2.942742549585545
 30
0.0
 10
0.7599076861343216
 20
-2.947213344670848
 30
0.0
 10
0.7592667384899793
 20
-2.950985892855113
 30
0.0
 10
0.758624483085757
 20
-2.95475882852381
 30
0.0
 10
0.7568436047522483
 20
-2.957740133549476
 30
0.0
 10
0.753938924768022
 20
-2.95993387651841
 30
0.0
 10
0.7510300308908756
 20
-2.962140018988318
 30
0.0
 10
0.7479930249817244
 20
-2.963858512332333
 30
0.0
 10
0.7448208838857227
 20
-2.965116480458921
 30
0.0
 10
0.741648742789721
 20
-2.966374061101078
 30
0.0
 10
0.7375630103336637
 20
-2.967569837980363
 30
0.0
 10
0.7325623303221266
 20
-2.968739653404402
 30
0.0
 10
0.7283044579183727
 20
-2.969570419972493
 30
0.0
 10
0.7249560114172861
 20
-2.970227593526386
 30
0.0
 10
0.7224955823054163
 20
-2.970664288452806
 30
0.0
 10
0.7200445012548597
 20
-2.971112220427029
 30
0.0
 10
0.716770548630974
 20
-2.971436932359893
 30
0.0
 10
0.712681038201961
 20
-2.971673297848029
 30
0.0
 10
0.7085891059953913
 20
-2.97192341903259
 30
0.0
 10
0.7051369105443984
 20
-2.971459212713297
 30
0.0
 10
0.7023143288188546
 20
-2.970285522445187
 30
0.0
 10
0.6994985280704214
 20
-2.969109313528456
 30
0.0
 10
0.6972189573054063
 20
-2.96722148949867
 30
0.0
 10
0.6955052590809348
 20
-2.964628056364189
 30
0.0
 10
0.6936742015167536
 20
-2.959654887745525
 30
0.0
 10
0.6911939138290361
 20
-2.942495528276241
 30
0.0
 10
0.6887012750758509
 20
-2.913013583445136
 30
0.0
 10
0.6862341134224153
 20
-2.883540744497597
 30
0.0
 10
0.6852269445781253
 20
-2.858980045374639
 30
0.0
 10
0.6854304223272215
 20
-2.839388833768478
 30
0.0
 10
0.6863185365875399
 20
-2.831651932618569
 30
0.0
 10
0.688776931406273
 20
-2.826169028262812
 30
0.0
 10
0.6927708784934718
 20
-2.822969957000522
 30
0.0
 10
0.6967581414746621
 20
-2.819786966341148
 30
0.0
 10
0.7032515082921691
 20
-2.816984291626997
 30
0.0
 10
0.7122343655520606
 20
-2.814675853273683
 30
0.0
 10
0.725751274726627
 20
-2.811391147957515
 30
0.0
 10
0.7355560832843745
 20
-2.810310066462635
 30
0.0
 10
0.7415450907109163
 20
-2.811131920889389
 30
0.0
 10
0.7475292545823828
 20
-2.811947381823427
 30
0.0
 10
0.7530821967446602
 20
-2.815550986806354
 30
0.0
 10
0.7581151348330574
 20
-2.821902631202091
 30
0.0
 10
0.7617182070249429
 20
-2.826470491131279
 30
0.0
 10
0.7658918015702309
 20
-2.833376238228689
 30
0.0
 10
0.7705727100750816
 20
-2.842660945841442
 30
0.0
 10
0.773564961535246
 20
-2.848450350362958
 30
0.0
 10
0.7752059579979055
 20
-2.851329746989626
 30
0.0
 10
0.775563218620947
 20
-2.851269105679976
 30
0.0
 10
0.7760882599921059
 20
-2.85117998426641
 30
0.0
 10
0.7768668130364126
 20
-2.847351638327558
 30
0.0
 10
0.777972645097773
 20
-2.839767018549486
 30
0.0
 10
0.7787493575911336
 20
-2.836798113024845
 30
0.0
 10
0.779483834284166
 20
-2.832947292990386
 30
0.0
 10
0.7801845513982546
 20
-2.828187434537666
 30
0.0
 10
0.7808784390996758
 20
-2.823429513506956
 30
0.0
 10
0.7814753588283009
 20
-2.819642240915224
 30
0.0
 10
0.7819575347369639
 20
-2.816817285847668
 30
0.0
 10
0.7824305563265296
 20
-2.813981093732334
 30
0.0
 10
0.7837132265840284
 20
-2.810955227999885
 30
0.0
 10
0.7858210933212983
 20
-2.807720701914402
 30
0.0
 10
0.7879290569296574
 20
-2.804488500735361
 30
0.0
 10
0.7907902417892325
 20
-2.801823382985604
 30
0.0
 10
0.794412446023696
 20
-2.799721861305493
 30
0.0
 10
0.8127153688484566
 20
-2.793321781358927
 30
0.0
 10
0.8271494536138435
 20
-2.790824831841721
 30
0.0
 10
0.8372854160327152
 20
-2.791775524833711
 30
0.0
 10
0.8444546525267291
 20
-2.792736486162513
 30
0.0
 10
0.8498514384730873
 20
-2.794406931440082
 30
0.0
 10
0.8534839594798691
 20
-2.796722150770518
 30
0.0
 10
0.8571102807361512
 20
-2.79903930752299
 30
0.0
 10
0.8599205113962398
 20
-2.802217842111708
 30
0.0
 10
0.8619087423229149
 20
-2.806266860420211
 30
0.0
 10
0.8651199224728998
 20
-2.81597237609872
 30
0.0
 10
0.8679469118335671
 20
-2.825680022941469
 30
0.0
 10
0.8704151390691221
 20
-2.835372364150139
 30
0.0
 10
0.8728844803223536
 20
-2.845076911117631
 30
0.0
 10
0.8756004554004826
 20
-2.856740579245726
 30
0.0
 10
0.8785248002183656
 20
-2.870386036372261
 30
0.0
 10
0.8814414922191973
 20
-2.884043311773186
 30
0.0
 10
0.883714766362598
 20
-2.894546076618603
 30
0.0
 10
0.8854025515673811
 20
-2.901897043299388
 30
0.0
 10
0.8858657407401247
 20
-2.903728294605773
 30
0.0
 10
0.8865295984000137
 20
-2.907187367904978
 30
0.0
 10
0.8873785282996903
 20
-2.912274069454825
 30
0.0
 10
0.8882271675860616
 20
-2.917349146472461
 30
0.0
 10
0.8890781802144196
 20
-2.9213421732842
 30
0.0
 10
0.8899267226296892
 20
-2.924241719100033
 30
0.0
 10
0.8917696953393866
 20
-2.929722298549348
 30
0.0
 10
0.8915067871693938
 20
-2.933938516379384
 30
0.0
 10
0.889218304263017
 20
-2.936905484482015
 30
0.0
 10
0.8869216841841055
 20
-2.939875746202081
 30
0.0
 10
0.883130149263896
 20
-2.942393619877268
 30
0.0
 10
0.877853919403593
 20
-2.944541252201765
 30
0.0
 10
0.8648838475980685
 20
-2.94872240269299
 30
0.0
 10
0.8510974430185898
 20
-2.950108046931593
 30
0.0
 10
0.8361054291430036
 20
-2.948834579428749
 30
0.0
  0
HATCH
  5
94
330
8C
100
AcDbEntity
  8
Amara's 4th
 62
   232
420
 13898842
440
 33554687
100
AcDbHatch
 10
0.0
 20
0.0
 30
0.0
210
0.0
220
0.0
230
1.0
  2
SOLID
 70
     1
 71
     1
 91
        1
 92
        1
 93
        1
 72
     4
 94
        3
 73
     0
 74
     0
 95
      140
 96
      136
 40
0.0
 40
0.0
 40
0.0
 40
0.0
 40
1.0
 40
1.0
 40
1.0
 40
2.0
 40
2.0
 40
2.0
 40
3.0
 40
3.0
 40
3.0
 40
4.0
 40
4.0
 40
4.0
 40
5.0
 40
5.0
 40
5.0
 40
6.0
 40
6.0
 40
6.0
 40
7.0
 40
7.0
 40
7.0
 40
8.0
 40
8.0
 40
8.0
 40
9.0
 40
9.0
 40
9.0
 40
10.0
 40
10.0
 40
10.0
 40
11.0
 40
11.0
 40
11.0
 40
12.0
 40
12.0
 40
12.0
 40
13.0
 40
13.0
 40
13.0
 40
14.0
 40
14.0
 40
14.0
 40
15.0
 40
15.0
 40
15.0
 40
16.0
 40
16.0
 40
16.0
 40
17.0
 40
17.0
 40
17.0
 40
18.0
 40
18.0
 40
18.0
 40
19.0
 40
19.0
 40
19.0
 40
20.0
 40
20.0
 40
20.0
 40
21.0
 40
21.0
 40
21.0
 40
22.0
 40
22.0
 40
22.0
 40
23.0
 40
23.0
 40
23.0
 40
24.0
 40
24.0
 40
24.0
 40
25.0
 40
25.0
 40
25.0
 40
26.0
 40
26.0
 40
26.0
 40
27.0
 40
27.0
 40
27.0
 40
28.0
 40
28.0
 40
28.0
 40
29.0
 40
29.0
 40
29.0
 40
30.0
 40
30.0
 40
30.0
 40
31.0
 40
31.0
 40
31.0
 40
32.0
 40
32.0
 40
32.0
 40
33.0
 40
33.0
 40
33.0
 40
34.0
 40
34.0
 40
34.0
 40
35.0
 40
35.0
 40
35.0
 40
36.0
 40
36.0
 40
36.0
 40
37.0
 40
37.0
 40
37.0
 40
38.0
 40
38.0
 40
38.0
 40
39.0
 40
39.0
 40
39.0
 40
40.0
 40
40.0
 40
40.0
 40
41.0
 40
41.0
 40
41.0
 40
42.0
 40
42.0
 40
42.0
 40
43.0
 40
43.0
 40
43.0
 40
44.0
 40
44.0
 40
44.0
 40
45.0
 40
45.0
 40
45.0
 40
45.0
 10
0.8361054291430036
 20
-2.948834579428749
 10
0.8331724143615321
 20
-2.948573414938588
 10
0.830735815540682
 20
-2.946538734318664
 10
0.8287758709756946
 20
-2.942719300521149
 10
0.8278728385657307
 20
-2.94081171478663
 10
0.8266066363955056
 20
-2.933687038999399
 10
0.8249796378070438
 20
-2.921357478918278
 10
0.8229903412982492
 20
-2.907525641792087
 10
0.821820235260917
 20
-2.900624544507561
 10
0.821487531462152
 20
-2.900669105214344
 10
0.8211990493213205
 20
-2.901020166086886
 10
0.8202157107680502
 20
-2.905539009238585
 10
0.8186418944144026
 20
-2.914214978848324
 10
0.8170750527800944
 20
-2.922902572990248
 10
0.816191297719355
 20
-2.92860246861379
 10
0.8159156509995
 20
-2.931309628421685
 10
0.8152871028561699
 20
-2.938460653148568
 10
0.8142357607895039
 20
-2.94300003297384
 10
0.8127286401893847
 20
-2.944950823219717
 10
0.8081462495949583
 20
-2.948145825895734
 10
0.8028111705403691
 20
-2.950383548344815
 10
0.7966802953853983
 20
-2.951695376803904
 10
0.7905533435100426
 20
-2.953032391749477
 10
0.7849028521483584
 20
-2.952839811999309
 10
0.7796664363108523
 20
-2.951106400505624
 10
0.7780464608772616
 20
-2.95029229576701
 10
0.7765206441545161
 20
-2.948946562422305
 10
0.7751072947808223
 20
-2.947077725128464
 10
0.7736791241285851
 20
-2.945214506358524
 10
0.7704951647581816
 20
-2.940228744496657
 10
0.7654261421843987
 20
-2.932188249314018
 10
0.7570898510927515
 20
-2.918604595950379
 10
0.7525245098122216
 20
-2.912488154589557
 10
0.7521019580666462
 20
-2.913686062633082
 10
0.7519793676874543
 20
-2.914811511092541
 10
0.7525352140689594
 20
-2.918190375119542
 10
0.7537626193629496
 20
-2.923812386377347
 10
0.7549804828534105
 20
-2.92942296684512
 10
0.7562121989114227
 20
-2.93400613240836
 10
0.7574318060817279
 20
-2.937567889075378
 10
0.7593103789212894
 20
-2.942742549585545
 10
0.7599076861343216
 20
-2.947213344670848
 10
0.7592667384899793
 20
-2.950985892855113
 10
0.758624483085757
 20
-2.95475882852381
 10
0.7568436047522483
 20
-2.957740133549476
 10
0.753938924768022
 20
-2.95993387651841
 10
0.7510300308908756
 20
-2.962140018988318
 10
0.7479930249817244
 20
-2.963858512332333
 10
0.7448208838857227
 20
-2.965116480458921
 10
0.741648742789721
 20
-2.966374061101078
 10
0.7375630103336637
 20
-2.967569837980363
 10
0.7325623303221266
 20
-2.968739653404402
 10
0.7283044579183727
 20
-2.969570419972493
 10
0.7249560114172861
 20
-2.970227593526386
 10
0.7224955823054163
 20
-2.970664288452806
 10
0.7200445012548597
 20
-2.971112220427029
 10
0.716770548630974
 20
-2.971436932359893
 10
0.712681038201961
 20
-2.971673297848029
 10
0.7085891059953913
 20
-2.97192341903259
 10
0.7051369105443984
 20
-2.971459212713297
 10
0.7023143288188546
 20
-2.970285522445187
 10
0.6994985280704214
 20
-2.969109313528456
 10
0.6972189573054063
 20
-2.96722148949867
 10
0.6955052590809348
 20
-2.964628056364189
 10
0.6936742015167536
 20
-2.959654887745525
 10
0.6911939138290361
 20
-2.942495528276241
 10
0.6887012750758509
 20
-2.913013583445136
 10
0.6862341134224153
 20
-2.883540744497597
 10
0.6852269445781253
 20
-2.858980045374639
 10
0.6854304223272215
 20
-2.839388833768478
 10
0.6863185365875399
 20
-2.831651932618569
 10
0.688776931406273
 20
-2.826169028262812
 10
0.6927708784934718
 20
-2.822969957000522
 10
0.6967581414746621
 20
-2.819786966341148
 10
0.7032515082921691
 20
-2.816984291626997
 10
0.7122343655520606
 20
-2.814675853273683
 10
0.725751274726627
 20
-2.811391147957515
 10
0.7355560832843745
 20
-2.810310066462635
 10
0.7415450907109163
 20
-2.811131920889389
 10
0.7475292545823828
 20
-2.811947381823427
 10
0.7530821967446602
 20
-2.815550986806354
 10
0.7581151348330574
 20
-2.821902631202091
 10
0.7617182070249429
 20
-2.826470491131279
 10
0.7658918015702309
 20
-2.833376238228689
 10
0.7705727100750816
 20
-2.842660945841442
 10
0.773564961535246
 20
-2.848450350362958
 10
0.7752059579979055
 20
-2.851329746989626
 10
0.775563218620947
 20
-2.851269105679976
 10
0.7760882599921059
 20
-2.85117998426641
 10
0.7768668130364126
 20
-2.847351638327558
 10
0.777972645097773
 20
-2.839767018549486
 10
0.7787493575911336
 20
-2.836798113024845
 10
0.779483834284166
 20
-2.832947292990386
 10
0.7801845513982546
 20
-2.828187434537666
 10
0.7808784390996758
 20
-2.823429513506956
 10
0.7814753588283009
 20
-2.819642240915224
 10
0.7819575347369639
 20
-2.816817285847668
 10
0.7824305563265296
 20
-2.813981093732334
 10
0.7837132265840284
 20
-2.810955227999885
 10
0.7858210933212983
 20
-2.807720701914402
 10
0.7879290569296574
 20
-2.804488500735361
 10
0.7907902417892325
 20
-2.801823382985604
 10
0.794412446023696
 20
-2.799721861305493
 10
0.8127153688484566
 20
-2.793321781358927
 10
0.8271494536138435
 20
-2.790824831841721
 10
0.8372854160327152
 20
-2.791775524833711
 10
0.8444546525267291
 20
-2.792736486162513
 10
0.8498514384730873
 20
-2.794406931440082
 10
0.8534839594798691
 20
-2.796722150770518
 10
0.8571102807361512
 20
-2.79903930752299
 10
0.8599205113962398
 20
-2.802217842111708
 10
0.8619087423229149
 20
-2.806266860420211
 10
0.8651199224728998
 20
-2.81597237609872
 10
0.8679469118335671
 20
-2.825680022941469
 10
0.8704151390691221
 20
-2.835372364150139
 10
0.8728844803223536
 20
-2.845076911117631
 10
0.8756004554004826
 20
-2.856740579245726
 10
0.8785248002183656
 20
-2.870386036372261
 10
0.8814414922191973
 20
-2.884043311773186
 10
0.883714766362598
 20
-2.894546076618603
 10
0.8854025515673811
 20
-2.901897043299388
 10
0.8858657407401247
 20
-2.903728294605773
 10
0.8865295984000137
 20
-2.907187367904978
 10
0.8873785282996903
 20
-2.912274069454825
 10
0.8882271675860616
 20
-2.917349146472461
 10
0.8890781802144196
 20
-2.9213421732842
 10
0.8899267226296892
 20
-2.924241719100033
 10
0.8917696953393866
 20
-2.929722298549348
 10
0.8915067871693938
 20
-2.933938516379384
 10
0.889218304263017
 20
-2.936905484482015
 10
0.8869216841841055
 20
-2.939875746202081
 10
0.883130149263896
 20
-2.942393619877268
 10
0.877853919403593
 20
-2.944541252201765
 10
0.8648838475980685
 20
-2.94872240269299
 10
0.8510974430185898
 20
-2.950108046931593
 10
0.8361054291430036
 20
-2.948834579428749
 97
        0
 97
        1
330
93
 75
     2
 76
     1
 98
        1
 10
0.0
 20
0.0
450
        0
451
        0
460
0.0
461
0.0
452
        0
462
0.0
453
        0
470

  0
SPLINE
  5
95
330
8C
100
AcDbEntity
  8
Amara's 4th
100
AcDbSpline
210
0.0
220
0.0
230
1.0
 70
     9
 71
     3
 72
    38
 73
    34
 74
     0
 42
0.0000000001
 43
0.0000000001
 40
0.0
 40
0.0
 40
0.0
 40
0.0
 40
1.0
 40
1.0
 40
1.0
 40
2.0
 40
2.0
 40
2.0
 40
3.0
 40
3.0
 40
3.0
 40
4.0
 40
4.0
 40
4.0
 40
5.0
 40
5.0
 40
5.0
 40
6.0
 40
6.0
 40
6.0
 40
7.0
 40
7.0
 40
7.0
 40
8.0
 40
8.0
 40
8.0
 40
9.0
 40
9.0
 40
9.0
 40
10.0
 40
10.0
 40
10.0
 40
11.0
 40
11.0
 40
11.0
 40
11.0
 10
0.99915165061365
 20
-2.861136783582701
 30
0.0
 10
0.9990636916533174
 20
-2.861212149299818
 30
0.0
 10
0.9989759264351883
 20
-2.861287321274731
 30
0.0
 10
0.9988880643459449
 20
-2.861362686991848
 30
0.0
 10
0.9988851582128921
 20
-2.861440958842017
 30
0.0
 10
0.9988822520798521
 20
-2.861519618176594
 30
0.0
 10
0.9988792490756976
 20
-2.86159827751117
 30
0.0
 10
0.9986965501779094
 20
-2.861902840254894
 30
0.0
 10
0.9979091818633554
 20
-2.864241308649727
 30
0.0
 10
0.9965555050883065
 20
-2.868623369805871
 30
0.0
 10
0.9951959191760629
 20
-2.873005430961989
 30
0.0
 10
0.9945255711523561
 20
-2.875439220520901
 30
0.0
 10
0.9945092968072735
 20
-2.87589742083191
 30
0.0
 10
0.9945039688966769
 20
-2.876058808087337
 30
0.0
 10
0.9950090548208992
 20
-2.876187065425963
 30
0.0
 10
0.9960253295487543
 20
-2.876297110997484
 30
0.0
 10
0.9970480946404146
 20
-2.87642071852325
 30
0.0
 10
0.9981096081727526
 20
-2.876371120519176
 30
0.0
 10
0.9992249820376299
 20
-2.876190940270033
 30
0.0
 10
1.000341130871321
 20
-2.875999329230883
 30
0.0
 10
1.00106882658723
 20
-2.875828836091916
 30
0.0
 10
1.001421437397387
 20
-2.875693797776142
 30
0.0
 10
1.00162990400823
 20
-2.874760735324646
 30
0.0
 10
1.001672527292978
 20
-2.873681203767394
 30
0.0
 10
1.001553085224587
 20
-2.872423041898628
 30
0.0
 10
1.001432383831886
 20
-2.871176504562047
 30
0.0
 10
1.001079579279525
 20
-2.869265431467889
 30
0.0
 10
1.000494284083098
 20
-2.8666729670444
 30
0.0
 10
0.9999020141673579
 20
-2.864081471331953
 30
0.0
 10
0.9996212817146544
 20
-2.862556332706894
 30
0.0
 10
0.9996392028684669
 20
-2.862098326138114
 30
0.0
 10
0.999476846902035
 20
-2.861777682791499
 30
0.0
 10
0.999314297193387
 20
-2.861457233187113
 30
0.0
 10
0.99915165061365
 20
-2.861136783582701
 30
0.0
  0
SPLINE
  5
96
330
8C
100
AcDbEntity
  8
Amara's 4th
100
AcDbSpline
210
0.0
220
0.0
230
1.0
 70
     9
 71
     3
 72
    74
 73
    70
 74
     0
 42
0.0000000001
 43
0.0000000001
 40
0.0
 40
0.0
 40
0.0
 40
0.0
 40
1.0
 40
1.0
 40
1.0
 40
2.0
 40
2.0
 40
2.0
 40
3.0
 40
3.0
 40
3.0
 40
4.0
 40
4.0
 40
4.0
 40
5.0
 40
5.0
 40
5.0
 40
6.0
 40
6.0
 40
6.0
 40
7.0
 40
7.0
 40
7.0
 40
8.0
 40
8.0
 40
8.0
 40
9.0
 40
9.0
 40
9.0
 40
10.0
 40
10.0
 40
10.0
 40
11.0
 40
11.0
 40
11.0
 40
12.0
 40
12.0
 40
12.0
 40
13.0
 40
13.0
 40
13.0
 40
14.0
 40
14.0
 40
14.0
 40
15.0
 40
15.0
 40
15.0
 40
16.0
 40
16.0
 40
16.0
 40
17.0
 40
17.0
 40
17.0
 40
18.0
 40
18.0
 40
18.0
 40
19.0
 40
19.0
 40
19.0
 40
20.0
 40
20.0
 40
20.0
 40
21.0
 40
21.0
 40
21.0
 40
22.0
 40
22.0
 40
22.0
 40
23.0
 40
23.0
 40
23.0
 40
23.0
 10
0.9775423233459402
 20
-2.788986993300416
 30
0.0
 10
0.9823791943245193
 20
-2.785805552578646
 30
0.0
 10
0.987787120447567
 20
-2.784061485263792
 30
0.0
 10
0.9937301625363691
 20
-2.783771453185333
 30
0.0
 10
0.9996572208933811
 20
-2.783492464412448
 30
0.0
 10
1.006129372939615
 20
-2.784044242207705
 30
0.0
 10
1.013104576616936
 20
-2.785465922496137
 30
0.0
 10
1.022073871922581
 20
-2.787602898999441
 30
0.0
 10
1.028655294571535
 20
-2.792286035539644
 30
0.0
 10
1.032768344678263
 20
-2.799398699310257
 30
0.0
 10
1.043112531530229
 20
-2.817977607903735
 30
0.0
 10
1.051739290620288
 20
-2.840284697716924
 30
0.0
 10
1.058518814672197
 20
-2.866183961723057
 30
0.0
 10
1.065274217819781
 20
-2.892097950136657
 30
0.0
 10
1.067869394634107
 20
-2.913652932716306
 30
0.0
 10
1.067181997296504
 20
-2.930759013079674
 30
0.0
 10
1.06586745644654
 20
-2.936877973089142
 30
0.0
 10
1.063708393332035
 20
-2.941094965887991
 30
0.0
 10
1.060740553389501
 20
-2.943446415010435
 30
0.0
 10
1.057556303405779
 20
-2.946096420868318
 30
0.0
 10
1.048816011384537
 20
-2.94688262672965
 30
0.0
 10
1.034471629259314
 20
-2.946234365317144
 30
0.0
 10
1.025706053880526
 20
-2.945877298436294
 30
0.0
 10
1.01967718399563
 20
-2.94470089577736
 30
0.0
 10
1.016361964282433
 20
-2.942568762829118
 30
0.0
 10
1.013037735556773
 20
-2.940426167801888
 30
0.0
 10
1.010501843856685
 20
-2.93613594045016
 30
0.0
 10
1.008721546749787
 20
-2.929665919568176
 30
0.0
 10
1.008583408558782
 20
-2.929199194600212
 30
0.0
 10
1.008380366729625
 20
-2.928333166951107
 30
0.0
 10
1.008117652301848
 20
-2.927078686184181
 30
0.0
 10
1.007855712842873
 20
-2.925812774627274
 30
0.0
 10
1.007655964631175
 20
-2.924835151468995
 30
0.0
 10
1.00752731980813
 20
-2.924133029723937
 30
0.0
 10
1.007399740567203
 20
-2.923419283446668
 30
0.0
 10
1.007114164559412
 20
-2.922599366441949
 30
0.0
 10
1.00667068865587
 20
-2.921634142784695
 30
0.0
 10
1.006227019010124
 20
-2.920681124886262
 30
0.0
 10
1.00569015936455
 20
-2.919888331790009
 30
0.0
 10
1.005067181309565
 20
-2.919226120938851
 30
0.0
 10
1.004423085354422
 20
-2.918887653309537
 30
0.0
 10
1.001814734070257
 20
-2.918652450274622
 30
0.0
 10
0.9972412556171926
 20
-2.918552479297684
 30
0.0
 10
0.9926611899291957
 20
-2.918468201439205
 30
0.0
 10
0.9902037638214803
 20
-2.918584834245646
 30
0.0
 10
0.9898690741651357
 20
-2.918883584723264
 30
0.0
 10
0.9893659256629486
 20
-2.919338685159017
 30
0.0
 10
0.9888279035641541
 20
-2.920949457837928
 30
0.0
 10
0.988260045166031
 20
-2.923735470722602
 30
0.0
 10
0.9868158907820037
 20
-2.928506953707533
 30
0.0
 10
0.9848439826359683
 20
-2.932694110207067
 30
0.0
 10
0.9823499392518138
 20
-2.936281053360517
 30
0.0
 10
0.9798556052543416
 20
-2.939882333437001
 30
0.0
 10
0.9773460624939186
 20
-2.941962349732521
 30
0.0
 10
0.9747842093385719
 20
-2.942542413889466
 30
0.0
 10
0.9686884983935138
 20
-2.944159192576686
 30
0.0
 10
0.9587659914472194
 20
-2.944417644675998
 30
0.0
 10
0.9448910466807976
 20
-2.943675418294838
 30
0.0
 10
0.9335815393004748
 20
-2.943058930603683
 30
0.0
 10
0.9264371018084981
 20
-2.938972907534308
 30
0.0
 10
0.9234120110448632
 20
-2.931143010126763
 30
0.0
 10
0.9227560968153056
 20
-2.91702617821943
 30
0.0
 10
0.9252702893886128
 20
-2.89904108947932
 30
0.0
 10
0.9315933568093441
 20
-2.877279577710851
 30
0.0
 10
0.937922914593893
 20
-2.85550973502763
 30
0.0
 10
0.945680739901781
 20
-2.836187825084178
 30
0.0
 10
0.9548521083255662
 20
-2.819379913971841
 30
0.0
 10
0.9640361668636563
 20
-2.802558247163031
 30
0.0
 10
0.9717813989283285
 20
-2.792477840320998
 30
0.0
 10
0.9775423233459402
 20
-2.788986993300416
 30
0.0
  0
HATCH
  5
97
330
8C
100
AcDbEntity
  8
Amara's 4th
 62
   232
420
 13898842
440
 33554687
100
AcDbHatch
 10
0.0
 20
0.0
 30
0.0
210
0.0
220
0.0
230
1.0
  2
SOLID
 70
     1
 71
     1
 91
        2
 92
        1
 93
        1
 72
     4
 94
        3
 73
     0
 74
     0
 95
       38
 96
       34
 40
0.0
 40
0.0
 40
0.0
 40
0.0
 40
1.0
 40
1.0
 40
1.0
 40
2.0
 40
2.0
 40
2.0
 40
3.0
 40
3.0
 40
3.0
 40
4.0
 40
4.0
 40
4.0
 40
5.0
 40
5.0
 40
5.0
 40
6.0
 40
6.0
 40
6.0
 40
7.0
 40
7.0
 40
7.0
 40
8.0
 40
8.0
 40
8.0
 40
9.0
 40
9.0
 40
9.0
 40
10.0
 40
10.0
 40
10.0
 40
11.0
 40
11.0
 40
11.0
 40
11.0
 10
0.99915165061365
 20
-2.861136783582701
 10
0.9990636916533174
 20
-2.861212149299818
 10
0.9989759264351883
 20
-2.861287321274731
 10
0.9988880643459449
 20
-2.861362686991848
 10
0.9988851582128921
 20
-2.861440958842017
 10
0.9988822520798521
 20
-2.861519618176594
 10
0.9988792490756976
 20
-2.86159827751117
 10
0.9986965501779094
 20
-2.861902840254894
 10
0.9979091818633554
 20
-2.864241308649727
 10
0.9965555050883065
 20
-2.868623369805871
 10
0.9951959191760629
 20
-2.873005430961989
 10
0.9945255711523561
 20
-2.875439220520901
 10
0.9945092968072735
 20
-2.87589742083191
 10
0.9945039688966769
 20
-2.876058808087337
 10
0.9950090548208992
 20
-2.876187065425963
 10
0.9960253295487543
 20
-2.876297110997484
 10
0.9970480946404146
 20
-2.87642071852325
 10
0.9981096081727526
 20
-2.876371120519176
 10
0.9992249820376299
 20
-2.876190940270033
 10
1.000341130871321
 20
-2.875999329230883
 10
1.00106882658723
 20
-2.875828836091916
 10
1.001421437397387
 20
-2.875693797776142
 10
1.00162990400823
 20
-2.874760735324646
 10
1.001672527292978
 20
-2.873681203767394
 10
1.001553085224587
 20
-2.872423041898628
 10
1.001432383831886
 20
-2.871176504562047
 10
1.001079579279525
 20
-2.869265431467889
 10
1.000494284083098
 20
-2.8666729670444
 10
0.9999020141673579
 20
-2.864081471331953
 10
0.9996212817146544
 20
-2.862556332706894
 10
0.9996392028684669
 20
-2.862098326138114
 10
0.999476846902035
 20
-2.861777682791499
 10
0.999314297193387
 20
-2.861457233187113
 10
0.99915165061365
 20
-2.861136783582701
 97
        0
 97
        1
330
95
 92
        1
 93
        1
 72
     4
 94
        3
 73
     0
 74
     0
 95
       74
 96
       70
 40
0.0
 40
0.0
 40
0.0
 40
0.0
 40
1.0
 40
1.0
 40
1.0
 40
2.0
 40
2.0
 40
2.0
 40
3.0
 40
3.0
 40
3.0
 40
4.0
 40
4.0
 40
4.0
 40
5.0
 40
5.0
 40
5.0
 40
6.0
 40
6.0
 40
6.0
 40
7.0
 40
7.0
 40
7.0
 40
8.0
 40
8.0
 40
8.0
 40
9.0
 40
9.0
 40
9.0
 40
10.0
 40
10.0
 40
10.0
 40
11.0
 40
11.0
 40
11.0
 40
12.0
 40
12.0
 40
12.0
 40
13.0
 40
13.0
 40
13.0
 40
14.0
 40
14.0
 40
14.0
 40
15.0
 40
15.0
 40
15.0
 40
16.0
 40
16.0
 40
16.0
 40
17.0
 40
17.0
 40
17.0
 40
18.0
 40
18.0
 40
18.0
 40
19.0
 40
19.0
 40
19.0
 40
20.0
 40
20.0
 40
20.0
 40
21.0
 40
21.0
 40
21.0
 40
22.0
 40
22.0
 40
22.0
 40
23.0
 40
23.0
 40
23.0
 40
23.0
 10
0.9775423233459402
 20
-2.788986993300416
 10
0.9823791943245193
 20
-2.785805552578646
 10
0.987787120447567
 20
-2.784061485263792
 10
0.9937301625363691
 20
-2.783771453185333
 10
0.9996572208933811
 20
-2.783492464412448
 10
1.006129372939615
 20
-2.784044242207705
 10
1.013104576616936
 20
-2.785465922496137
 10
1.022073871922581
 20
-2.787602898999441
 10
1.028655294571535
 20
-2.792286035539644
 10
1.032768344678263
 20
-2.799398699310257
 10
1.043112531530229
 20
-2.817977607903735
 10
1.051739290620288
 20
-2.840284697716924
 10
1.058518814672197
 20
-2.866183961723057
 10
1.065274217819781
 20
-2.892097950136657
 10
1.067869394634107
 20
-2.913652932716306
 10
1.067181997296504
 20
-2.930759013079674
 10
1.06586745644654
 20
-2.936877973089142
 10
1.063708393332035
 20
-2.941094965887991
 10
1.060740553389501
 20
-2.943446415010435
 10
1.057556303405779
 20
-2.946096420868318
 10
1.048816011384537
 20
-2.94688262672965
 10
1.034471629259314
 20
-2.946234365317144
 10
1.025706053880526
 20
-2.945877298436294
 10
1.01967718399563
 20
-2.94470089577736
 10
1.016361964282433
 20
-2.942568762829118
 10
1.013037735556773
 20
-2.940426167801888
 10
1.010501843856685
 20
-2.93613594045016
 10
1.008721546749787
 20
-2.929665919568176
 10
1.008583408558782
 20
-2.929199194600212
 10
1.008380366729625
 20
-2.928333166951107
 10
1.008117652301848
 20
-2.927078686184181
 10
1.007855712842873
 20
-2.925812774627274
 10
1.007655964631175
 20
-2.924835151468995
 10
1.00752731980813
 20
-2.924133029723937
 10
1.007399740567203
 20
-2.923419283446668
 10
1.007114164559412
 20
-2.922599366441949
 10
1.00667068865587
 20
-2.921634142784695
 10
1.006227019010124
 20
-2.920681124886262
 10
1.00569015936455
 20
-2.919888331790009
 10
1.005067181309565
 20
-2.919226120938851
 10
1.004423085354422
 20
-2.918887653309537
 10
1.001814734070257
 20
-2.918652450274622
 10
0.9972412556171926
 20
-2.918552479297684
 10
0.9926611899291957
 20
-2.918468201439205
 10
0.9902037638214803
 20
-2.918584834245646
 10
0.9898690741651357
 20
-2.918883584723264
 10
0.9893659256629486
 20
-2.919338685159017
 10
0.9888279035641541
 20
-2.920949457837928
 10
0.988260045166031
 20
-2.923735470722602
 10
0.9868158907820037
 20
-2.928506953707533
 10
0.9848439826359683
 20
-2.932694110207067
 10
0.9823499392518138
 20
-2.936281053360517
 10
0.9798556052543416
 20
-2.939882333437001
 10
0.9773460624939186
 20
-2.941962349732521
 10
0.9747842093385719
 20
-2.942542413889466
 10
0.9686884983935138
 20
-2.944159192576686
 10
0.9587659914472194
 20
-2.944417644675998
 10
0.9448910466807976
 20
-2.943675418294838
 10
0.9335815393004748
 20
-2.943058930603683
 10
0.9264371018084981
 20
-2.938972907534308
 10
0.9234120110448632
 20
-2.931143010126763
 10
0.9227560968153056
 20
-2.91702617821943
 10
0.9252702893886128
 20
-2.89904108947932
 10
0.9315933568093441
 20
-2.877279577710851
 10
0.937922914593893
 20
-2.85550973502763
 10
0.945680739901781
 20
-2.836187825084178
 10
0.9548521083255662
 20
-2.819379913971841
 10
0.9640361668636563
 20
-2.802558247163031
 10
0.9717813989283285
 20
-2.792477840320998
 10
0.9775423233459402
 20
-2.788986993300416
 97
        0
 97
        1
330
96
 75
     2
 76
     1
 98
        1
 10
0.0
 20
0.0
450
        0
451
        0
460
0.0
461
0.0
452
        0
462
0.0
453
        0
470

  0
SPLINE
  5
98
330
8C
100
AcDbEntity
  8
Amara's 4th
100
AcDbSpline
210
0.0
220
0.0
230
1.0
 70
     9
 71
     3
 72
    26
 73
    22
 74
     0
 42
0.0000000001
 43
0.0000000001
 40
0.0
 40
0.0
 40
0.0
 40
0.0
 40
1.0
 40
1.0
 40
1.0
 40
2.0
 40
2.0
 40
2.0
 40
3.0
 40
3.0
 40
3.0
 40
4.0
 40
4.0
 40
4.0
 40
5.0
 40
5.0
 40
5.0
 40
6.0
 40
6.0
 40
6.0
 40
7.0
 40
7.0
 40
7.0
 40
7.0
 10
1.172901305416871
 20
-2.872634220900307
 30
0.0
 10
1.173708047951751
 20
-2.872164977283722
 30
0.0
 10
1.174822453105611
 20
-2.871518265808819
 30
0.0
 10
1.176245198976175
 20
-2.870705904750037
 30
0.0
 10
1.177657192154432
 20
-2.869878819283788
 30
0.0
 10
1.1797453456225
 20
-2.867777878830287
 30
0.0
 10
1.182528646116326
 20
-2.864381384262792
 30
0.0
 10
1.185309040477073
 20
-2.860997289196271
 30
0.0
 10
1.187165090785482
 20
-2.857182892696048
 30
0.0
 10
1.188066960742212
 20
-2.852925989003324
 30
0.0
 10
1.188743605387571
 20
-2.849736023624599
 30
0.0
 10
1.188442142519104
 20
-2.847086017766716
 30
0.0
 10
1.187136320068273
 20
-2.844987789704065
 30
0.0
 10
1.185829916390856
 20
-2.842889174157031
 30
0.0
 10
1.184291797038187
 20
-2.841584901643853
 30
0.0
 10
1.18256196977528
 20
-2.841065866280965
 30
0.0
 10
1.181782835504388
 20
-2.840830469503872
 30
0.0
 10
1.181003216877949
 20
-2.840596816406585
 30
0.0
 10
1.180223501380472
 20
-2.840362969567093
 30
0.0
 10
1.177774987414068
 20
-2.85111876173015
 30
0.0
 10
1.175334223135855
 20
-2.86187532886202
 30
0.0
 10
1.172901305416871
 20
-2.872634220900307
 30
0.0
  0
SPLINE
  5
99
330
8C
100
AcDbEntity
  8
Amara's 4th
100
AcDbSpline
210
0.0
220
0.0
230
1.0
 70
     9
 71
     3
 72
    89
 73
    85
 74
     0
 42
0.0000000001
 43
0.0000000001
 40
0.0
 40
0.0
 40
0.0
 40
0.0
 40
1.0
 40
1.0
 40
1.0
 40
2.0
 40
2.0
 40
2.0
 40
3.0
 40
3.0
 40
3.0
 40
4.0
 40
4.0
 40
4.0
 40
5.0
 40
5.0
 40
5.0
 40
6.0
 40
6.0
 40
6.0
 40
7.0
 40
7.0
 40
7.0
 40
8.0
 40
8.0
 40
8.0
 40
9.0
 40
9.0
 40
9.0
 40
10.0
 40
10.0
 40
10.0
 40
11.0
 40
11.0
 40
11.0
 40
12.0
 40
12.0
 40
12.0
 40
13.0
 40
13.0
 40
13.0
 40
14.0
 40
14.0
 40
14.0
 40
15.0
 40
15.0
 40
15.0
 40
16.0
 40
16.0
 40
16.0
 40
17.0
 40
17.0
 40
17.0
 40
18.0
 40
18.0
 40
18.0
 40
19.0
 40
19.0
 40
19.0
 40
20.0
 40
20.0
 40
20.0
 40
21.0
 40
21.0
 40
21.0
 40
22.0
 40
22.0
 40
22.0
 40
23.0
 40
23.0
 40
23.0
 40
24.0
 40
24.0
 40
24.0
 40
25.0
 40
25.0
 40
25.0
 40
26.0
 40
26.0
 40
26.0
 40
27.0
 40
27.0
 40
27.0
 40
28.0
 40
28.0
 40
28.0
 40
28.0
 10
1.134690693096722
 20
-2.797219099522206
 30
0.0
 10
1.164385076253842
 20
-2.794573355992775
 30
0.0
 10
1.193520803767468
 20
-2.801218713568838
 30
0.0
 10
1.220179730953077
 20
-2.816861652812248
 30
0.0
 10
1.23155627313579
 20
-2.823672853714419
 30
0.0
 10
1.239567513245674
 20
-2.832217659852453
 30
0.0
 10
1.24421325754065
 20
-2.842256799605188
 30
0.0
 10
1.248877407344884
 20
-2.852306788921294
 30
0.0
 10
1.24979671409993
 20
-2.86206752112778
 30
0.0
 10
1.247236895237721
 20
-2.871506835018837
 30
0.0
 10
1.244958002570456
 20
-2.879911565543807
 30
0.0
 10
1.240130721830913
 20
-2.887006405031721
 30
0.0
 10
1.232897550409789
 20
-2.892884349740193
 30
0.0
 10
1.225657016784932
 20
-2.898776825113903
 30
0.0
 10
1.216388583517275
 20
-2.902441265148682
 30
0.0
 10
1.20509176625127
 20
-2.904050100405584
 30
0.0
 10
1.205682873713814
 20
-2.904523606350671
 30
0.0
 10
1.207113659885787
 20
-2.905539977949602
 30
0.0
 10
1.209371144039626
 20
-2.907123045493461
 30
0.0
 10
1.211625625189299
 20
-2.908718706280524
 30
0.0
 10
1.213041493211625
 20
-2.909749802286948
 30
0.0
 10
1.213628822701189
 20
-2.910213814864037
 30
0.0
 10
1.214216152190753
 20
-2.910680152347595
 30
0.0
 10
1.215350319049321
 20
-2.911599652844845
 30
0.0
 10
1.217023670459942
 20
-2.912981809723785
 30
0.0
 10
1.21869750622611
 20
-2.914363772860522
 30
0.0
 10
1.219860928157433
 20
-2.915468878388613
 30
0.0
 10
1.220535247896299
 20
-2.91628123944742
 30
0.0
 10
1.221209955119572
 20
-2.917095344186034
 30
0.0
 10
1.222052733704307
 20
-2.91823299840429
 30
0.0
 10
1.223084992163926
 20
-2.919706601603239
 30
0.0
 10
1.2241036886693
 20
-2.921176717442499
 30
0.0
 10
1.22485579590284
 20
-2.922628621514654
 30
0.0
 10
1.225363303604606
 20
-2.924045845732406
 30
0.0
 10
1.225857249352126
 20
-2.925458613879502
 30
0.0
 10
1.226320680702631
 20
-2.927030250633328
 30
0.0
 10
1.226741779381679
 20
-2.928746419070901
 30
0.0
 10
1.227951311957389
 20
-2.934045655817852
 30
0.0
 10
1.227793218319473
 20
-2.940044301919038
 30
0.0
 10
1.226324458675612
 20
-2.946736351366098
 30
0.0
 10
1.224901615933958
 20
-2.953262170002668
 30
0.0
 10
1.223426850281814
 20
-2.957937169370325
 30
0.0
 10
1.221898708652588
 20
-2.960747981257024
 30
0.0
 10
1.220384613333155
 20
-2.963551043455582
 30
0.0
 10
1.218181570738478
 20
-2.965936009979234
 30
0.0
 10
1.21531660790596
 20
-2.967908305609676
 30
0.0
 10
1.211490296260207
 20
-2.970269635584524
 30
0.0
 10
1.206026766124826
 20
-2.970841950053302
 30
0.0
 10
1.198846776938504
 20
-2.969695771178092
 30
0.0
 10
1.175524768592872
 20
-2.966348099645832
 30
0.0
 10
1.165225820545401
 20
-2.95803810905828
 30
0.0
 10
1.16789403817044
 20
-2.943460364449088
 30
0.0
 10
1.170346136367546
 20
-2.92873615073414
 30
0.0
 10
1.168001661964404
 20
-2.920687712121156
 30
0.0
 10
1.160915250262354
 20
-2.919438849878158
 30
0.0
 10
1.160315327529537
 20
-2.92074719097761
 30
0.0
 10
1.158957969652672
 20
-2.92586353508457
 30
0.0
 10
1.156857610425756
 20
-2.934789432136641
 30
0.0
 10
1.154252746501293
 20
-2.944563338812966
 30
0.0
 10
1.152043116671696
 20
-2.950307407658884
 30
0.0
 10
1.15022697725716
 20
-2.95201272653306
 30
0.0
 10
1.145018314990314
 20
-2.956704968956803
 30
0.0
 10
1.13559023814701
 20
-2.957158713197132
 30
0.0
 10
1.121703765719505
 20
-2.953738775823012
 30
0.0
 10
1.118243820580371
 20
-2.953014761208957
 30
0.0
 10
1.115475244494013
 20
-2.952335501043888
 30
0.0
 10
1.113387962865848
 20
-2.951680264912056
 30
0.0
 10
1.111296903264751
 20
-2.95105215268869
 30
0.0
 10
1.108685645847546
 20
-2.950006332274824
 30
0.0
 10
1.105575792869937
 20
-2.948604413691125
 30
0.0
 10
1.102454121617888
 20
-2.947200557685416
 30
0.0
 10
1.100165251227129
 20
-2.945346444799042
 30
0.0
 10
1.098697460294311
 20
-2.943023088296058
 30
0.0
 10
1.097232381752291
 20
-2.940688301003067
 30
0.0
 10
1.096636818219091
 20
-2.937903063087231
 30
0.0
 10
1.096915322636454
 20
-2.934649550265804
 30
0.0
 10
1.09934794974217
 20
-2.915850744271488
 30
0.0
 10
1.101771664706474
 20
-2.897050388339544
 30
0.0
 10
1.104186370658377
 20
-2.878249644923193
 30
0.0
 10
1.108811287666463
 20
-2.843288864322605
 30
0.0
 10
1.111785230488395
 20
-2.822219399704636
 30
0.0
 10
1.113143557076303
 20
-2.815035438803154
 30
0.0
 10
1.115501109078195
 20
-2.804543329778905
 30
0.0
 10
1.122658721039998
 20
-2.798518722222499
 30
0.0
 10
1.134690693096722
 20
-2.797219099522206
 30
0.0
  0
HATCH
  5
9A
330
8C
100
AcDbEntity
  8
Amara's 4th
 62
   232
420
 13898842
440
 33554687
100
AcDbHatch
 10
0.0
 20
0.0
 30
0.0
210
0.0
220
0.0
230
1.0
  2
SOLID
 70
     1
 71
     1
 91
        2
 92
        1
 93
        1
 72
     4
 94
        3
 73
     0
 74
     0
 95
       26
 96
       22
 40
0.0
 40
0.0
 40
0.0
 40
0.0
 40
1.0
 40
1.0
 40
1.0
 40
2.0
 40
2.0
 40
2.0
 40
3.0
 40
3.0
 40
3.0
 40
4.0
 40
4.0
 40
4.0
 40
5.0
 40
5.0
 40
5.0
 40
6.0
 40
6.0
 40
6.0
 40
7.0
 40
7.0
 40
7.0
 40
7.0
 10
1.172901305416871
 20
-2.872634220900307
 10
1.173708047951751
 20
-2.872164977283722
 10
1.174822453105611
 20
-2.871518265808819
 10
1.176245198976175
 20
-2.870705904750037
 10
1.177657192154432
 20
-2.869878819283788
 10
1.1797453456225
 20
-2.867777878830287
 10
1.182528646116326
 20
-2.864381384262792
 10
1.185309040477073
 20
-2.860997289196271
 10
1.187165090785482
 20
-2.857182892696048
 10
1.188066960742212
 20
-2.852925989003324
 10
1.188743605387571
 20
-2.849736023624599
 10
1.188442142519104
 20
-2.847086017766716
 10
1.187136320068273
 20
-2.844987789704065
 10
1.185829916390856
 20
-2.842889174157031
 10
1.184291797038187
 20
-2.841584901643853
 10
1.18256196977528
 20
-2.841065866280965
 10
1.181782835504388
 20
-2.840830469503872
 10
1.181003216877949
 20
-2.840596816406585
 10
1.180223501380472
 20
-2.840362969567093
 10
1.177774987414068
 20
-2.85111876173015
 10
1.175334223135855
 20
-2.86187532886202
 10
1.172901305416871
 20
-2.872634220900307
 97
        0
 97
        1
330
98
 92
        1
 93
        1
 72
     4
 94
        3
 73
     0
 74
     0
 95
       89
 96
       85
 40
0.0
 40
0.0
 40
0.0
 40
0.0
 40
1.0
 40
1.0
 40
1.0
 40
2.0
 40
2.0
 40
2.0
 40
3.0
 40
3.0
 40
3.0
 40
4.0
 40
4.0
 40
4.0
 40
5.0
 40
5.0
 40
5.0
 40
6.0
 40
6.0
 40
6.0
 40
7.0
 40
7.0
 40
7.0
 40
8.0
 40
8.0
 40
8.0
 40
9.0
 40
9.0
 40
9.0
 40
10.0
 40
10.0
 40
10.0
 40
11.0
 40
11.0
 40
11.0
 40
12.0
 40
12.0
 40
12.0
 40
13.0
 40
13.0
 40
13.0
 40
14.0
 40
14.0
 40
14.0
 40
15.0
 40
15.0
 40
15.0
 40
16.0
 40
16.0
 40
16.0
 40
17.0
 40
17.0
 40
17.0
 40
18.0
 40
18.0
 40
18.0
 40
19.0
 40
19.0
 40
19.0
 40
20.0
 40
20.0
 40
20.0
 40
21.0
 40
21.0
 40
21.0
 40
22.0
 40
22.0
 40
22.0
 40
23.0
 40
23.0
 40
23.0
 40
24.0
 40
24.0
 40
24.0
 40
25.0
 40
25.0
 40
25.0
 40
26.0
 40
26.0
 40
26.0
 40
27.0
 40
27.0
 40
27.0
 40
28.0
 40
28.0
 40
28.0
 40
28.0
 10
1.134690693096722
 20
-2.797219099522206
 10
1.164385076253842
 20
-2.794573355992775
 10
1.193520803767468
 20
-2.801218713568838
 10
1.220179730953077
 20
-2.816861652812248
 10
1.23155627313579
 20
-2.823672853714419
 10
1.239567513245674
 20
-2.832217659852453
 10
1.24421325754065
 20
-2.842256799605188
 10
1.248877407344884
 20
-2.852306788921294
 10
1.24979671409993
 20
-2.86206752112778
 10
1.247236895237721
 20
-2.871506835018837
 10
1.244958002570456
 20
-2.879911565543807
 10
1.240130721830913
 20
-2.887006405031721
 10
1.232897550409789
 20
-2.892884349740193
 10
1.225657016784932
 20
-2.898776825113903
 10
1.216388583517275
 20
-2.902441265148682
 10
1.20509176625127
 20
-2.904050100405584
 10
1.205682873713814
 20
-2.904523606350671
 10
1.207113659885787
 20
-2.905539977949602
 10
1.209371144039626
 20
-2.907123045493461
 10
1.211625625189299
 20
-2.908718706280524
 10
1.213041493211625
 20
-2.909749802286948
 10
1.213628822701189
 20
-2.910213814864037
 10
1.214216152190753
 20
-2.910680152347595
 10
1.215350319049321
 20
-2.911599652844845
 10
1.217023670459942
 20
-2.912981809723785
 10
1.21869750622611
 20
-2.914363772860522
 10
1.219860928157433
 20
-2.915468878388613
 10
1.220535247896299
 20
-2.91628123944742
 10
1.221209955119572
 20
-2.917095344186034
 10
1.222052733704307
 20
-2.91823299840429
 10
1.223084992163926
 20
-2.919706601603239
 10
1.2241036886693
 20
-2.921176717442499
 10
1.22485579590284
 20
-2.922628621514654
 10
1.225363303604606
 20
-2.924045845732406
 10
1.225857249352126
 20
-2.925458613879502
 10
1.226320680702631
 20
-2.927030250633328
 10
1.226741779381679
 20
-2.928746419070901
 10
1.227951311957389
 20
-2.934045655817852
 10
1.227793218319473
 20
-2.940044301919038
 10
1.226324458675612
 20
-2.946736351366098
 10
1.224901615933958
 20
-2.953262170002668
 10
1.223426850281814
 20
-2.957937169370325
 10
1.221898708652588
 20
-2.960747981257024
 10
1.220384613333155
 20
-2.963551043455582
 10
1.218181570738478
 20
-2.965936009979234
 10
1.21531660790596
 20
-2.967908305609676
 10
1.211490296260207
 20
-2.970269635584524
 10
1.206026766124826
 20
-2.970841950053302
 10
1.198846776938504
 20
-2.969695771178092
 10
1.175524768592872
 20
-2.966348099645832
 10
1.165225820545401
 20
-2.95803810905828
 10
1.16789403817044
 20
-2.943460364449088
 10
1.170346136367546
 20
-2.92873615073414
 10
1.168001661964404
 20
-2.920687712121156
 10
1.160915250262354
 20
-2.919438849878158
 10
1.160315327529537
 20
-2.92074719097761
 10
1.158957969652672
 20
-2.92586353508457
 10
1.156857610425756
 20
-2.934789432136641
 10
1.154252746501293
 20
-2.944563338812966
 10
1.152043116671696
 20
-2.950307407658884
 10
1.15022697725716
 20
-2.95201272653306
 10
1.145018314990314
 20
-2.956704968956803
 10
1.13559023814701
 20
-2.957158713197132
 10
1.121703765719505
 20
-2.953738775823012
 10
1.118243820580371
 20
-2.953014761208957
 10
1.115475244494013
 20
-2.952335501043888
 10
1.113387962865848
 20
-2.951680264912056
 10
1.111296903264751
 20
-2.95105215268869
 10
1.108685645847546
 20
-2.950006332274824
 10
1.105575792869937
 20
-2.948604413691125
 10
1.102454121617888
 20
-2.947200557685416
 10
1.100165251227129
 20
-2.945346444799042
 10
1.098697460294311
 20
-2.943023088296058
 10
1.097232381752291
 20
-2.940688301003067
 10
1.096636818219091
 20
-2.937903063087231
 10
1.096915322636454
 20
-2.934649550265804
 10
1.09934794974217
 20
-2.915850744271488
 10
1.101771664706474
 20
-2.897050388339544
 10
1.104186370658377
 20
-2.878249644923193
 10
1.108811287666463
 20
-2.843288864322605
 10
1.111785230488395
 20
-2.822219399704636
 10
1.113143557076303
 20
-2.815035438803154
 10
1.115501109078195
 20
-2.804543329778905
 10
1.122658721039998
 20
-2.798518722222499
 10
1.134690693096722
 20
-2.797219099522206
 97
        0
 97
        1
330
99
 75
     2
 76
     1
 98
        1
 10
0.0
 20
0.0
450
        0
451
        0
460
0.0
461
0.0
452
        0
462
0.0
453
        0
470

  0
SPLINE
  5
9B
330
8C
100
AcDbEntity
  8
Amara's 4th
100
AcDbSpline
210
0.0
220
0.0
230
1.0
 70
     9
 71
     3
 72
    38
 73
    34
 74
     0
 42
0.0000000001
 43
0.0000000001
 40
0.0
 40
0.0
 40
0.0
 40
0.0
 40
1.0
 40
1.0
 40
1.0
 40
2.0
 40
2.0
 40
2.0
 40
3.0
 40
3.0
 40
3.0
 40
4.0
 40
4.0
 40
4.0
 40
5.0
 40
5.0
 40
5.0
 40
6.0
 40
6.0
 40
6.0
 40
7.0
 40
7.0
 40
7.0
 40
8.0
 40
8.0
 40
8.0
 40
9.0
 40
9.0
 40
9.0
 40
10.0
 40
10.0
 40
10.0
 40
11.0
 40
11.0
 40
11.0
 40
11.0
 10
1.346193147393478
 20
-2.932588714448406
 30
0.0
 10
1.34608203623985
 20
-2.932629981537729
 30
0.0
 10
1.345971021957312
 20
-2.932671442369256
 30
0.0
 10
1.345860007674774
 20
-2.932712709458579
 30
0.0
 10
1.345831721313111
 20
-2.932785750269254
 30
0.0
 10
1.345803434951398
 20
-2.932859372306539
 30
0.0
 10
1.345775245460824
 20
-2.932932413117214
 30
0.0
 10
1.345507590606808
 20
-2.93316161014382
 30
0.0
 10
1.343998338842488
 20
-2.935116081491564
 30
0.0
 10
1.341269770521092
 20
-2.938811326536703
 30
0.0
 10
1.338541977168562
 20
-2.942504634159806
 30
0.0
 10
1.337101697628642
 20
-2.944585037939734
 30
0.0
 10
1.336937307369074
 20
-2.945012820724817
 30
0.0
 10
1.336879959676833
 20
-2.945164133385635
 30
0.0
 10
1.337330604041906
 20
-2.945453971721917
 30
0.0
 10
1.338270931826021
 20
-2.945894928976814
 30
0.0
 10
1.339207191023888
 20
-2.946345960826293
 30
0.0
 10
1.340255336344196
 20
-2.946659435711353
 30
0.0
 10
1.341380397319223
 20
-2.946853565399149
 30
0.0
 10
1.342522120123804
 20
-2.947041882820839
 30
0.0
 10
1.343276358521557
 20
-2.9471251919683
 30
0.0
 10
1.343652799622759
 20
-2.947110467560833
 30
0.0
 10
1.344149748374396
 20
-2.946293069204759
 30
0.0
 10
1.344540913883065
 20
-2.94528870962242
 30
0.0
 10
1.344840342458357
 20
-2.944059996568562
 30
0.0
 10
1.345121753008798
 20
-2.942839420687252
 30
0.0
 10
1.345409653923019
 20
-2.940915173123231
 30
0.0
 10
1.345687964598154
 20
-2.938270010820436
 30
0.0
 10
1.345966565886657
 20
-2.935625236002048
 30
0.0
 10
1.346184138381027
 20
-2.934088085360397
 30
0.0
 10
1.346349884836046
 20
-2.933659527606525
 30
0.0
 10
1.346297865054414
 20
-2.933302654467878
 30
0.0
 10
1.346245554659516
 20
-2.932945781329256
 30
0.0
 10
1.346193147393478
 20
-2.932588714448406
 30
0.0
  0
SPLINE
  5
9C
330
8C
100
AcDbEntity
  8
Amara's 4th
100
AcDbSpline
210
0.0
220
0.0
230
1.0
 70
     9
 71
     3
 72
    74
 73
    70
 74
     0
 42
0.0000000001
 43
0.0000000001
 40
0.0
 40
0.0
 40
0.0
 40
0.0
 40
1.0
 40
1.0
 40
1.0
 40
2.0
 40
2.0
 40
2.0
 40
3.0
 40
3.0
 40
3.0
 40
4.0
 40
4.0
 40
4.0
 40
5.0
 40
5.0
 40
5.0
 40
6.0
 40
6.0
 40
6.0
 40
7.0
 40
7.0
 40
7.0
 40
8.0
 40
8.0
 40
8.0
 40
9.0
 40
9.0
 40
9.0
 40
10.0
 40
10.0
 40
10.0
 40
11.0
 40
11.0
 40
11.0
 40
12.0
 40
12.0
 40
12.0
 40
13.0
 40
13.0
 40
13.0
 40
14.0
 40
14.0
 40
14.0
 40
15.0
 40
15.0
 40
15.0
 40
16.0
 40
16.0
 40
16.0
 40
17.0
 40
17.0
 40
17.0
 40
18.0
 40
18.0
 40
18.0
 40
19.0
 40
19.0
 40
19.0
 40
20.0
 40
20.0
 40
20.0
 40
21.0
 40
21.0
 40
21.0
 40
22.0
 40
22.0
 40
22.0
 40
23.0
 40
23.0
 40
23.0
 40
23.0
 10
1.348839472149544
 20
-2.857198392072329
 30
0.0
 10
1.35452009042385
 20
-2.855786205151869
 30
0.0
 10
1.360277139997378
 20
-2.855922599663042
 30
0.0
 10
1.366073519238195
 20
-2.857608931801299
 30
0.0
 10
1.371864764310632
 20
-2.859307275956173
 30
0.0
 10
1.377913783384681
 20
-2.86197433112794
 30
0.0
 10
1.384153638529066
 20
-2.865629084052569
 30
0.0
 10
1.392093387765928
 20
-2.870629764064106
 30
0.0
 10
1.396898775636448
 20
-2.877241797981191
 30
0.0
 10
1.398566605394282
 20
-2.885345259379922
 30
0.0
 10
1.402495987892204
 20
-2.906363188571781
 30
0.0
 10
1.403589081403727
 20
-2.930352348194749
 30
0.0
 10
1.401729931220062
 20
-2.957126164506967
 30
0.0
 10
1.399855766015611
 20
-2.983914705226627
 30
0.0
 10
1.395378771179821
 20
-3.005184111798497
 30
0.0
 10
1.389172045952212
 20
-3.021140525926966
 30
0.0
 10
1.385908361665112
 20
-3.026484129638497
 30
0.0
 10
1.382466918906427
 20
-3.029756435453641
 30
0.0
 10
1.378827762229169
 20
-3.030977980045993
 30
0.0
 10
1.374893342433956
 20
-3.032417678359327
 30
0.0
 10
1.366203810869996
 20
-3.0302283914611
 30
0.0
 10
1.352587899429484
 20
-3.024828021283964
 30
0.0
 10
1.344255725359643
 20
-3.021565208836793
 30
0.0
 10
1.338838693353055
 20
-3.018449834206371
 30
0.0
 10
1.336327503783902
 20
-3.015327484856647
 30
0.0
 10
1.333834622852969
 20
-3.012200291951835
 30
0.0
 10
1.332787446243653
 20
-3.007301326597068
 30
0.0
 10
1.333166405993476
 20
-3.000586609312196
 30
0.0
 10
1.333178708623411
 20
-3.000098185217464
 30
0.0
 10
1.333264342677314
 20
-2.999210458441565
 30
0.0
 10
1.333430767230007
 20
-2.997941253267198
 30
0.0
 10
1.33357772069126
 20
-2.99665325509909
 30
0.0
 10
1.333702684412451
 20
-2.995659745080148
 30
0.0
 10
1.333812439370679
 20
-2.994956073397462
 30
0.0
 10
1.333926844141791
 20
-2.994241358409175
 30
0.0
 10
1.333918513227015
 20
-2.993371455915974
 30
0.0
 10
1.333798877416433
 20
-2.992308392446021
 30
0.0
 10
1.333675269890692
 20
-2.991255209828421
 30
0.0
 10
1.33341604282254
 20
-2.99033067203388
 30
0.0
 10
1.33303156141993
 20
-2.989496224363897
 30
0.0
 10
1.332528025433324
 20
-2.988964789500035
 30
0.0
 10
1.330101985562578
 20
-2.987878283223456
 30
0.0
 10
1.325732517649662
 20
-2.986269060482148
 30
0.0
 10
1.321358496794952
 20
-2.9846741746639
 30
0.0
 10
1.318959774574876
 20
-2.983972052918817
 30
0.0
 10
1.318541194544448
 20
-2.984143514768826
 30
0.0
 10
1.317914826000914
 20
-2.9844108790095
 30
0.0
 10
1.316871717977897
 20
-2.985752350025727
 30
0.0
 10
1.31541555157729
 20
-2.988199120312249
 30
0.0
 10
1.312487331915336
 20
-2.992238645252806
 30
0.0
 10
1.309234787804901
 20
-2.995546212148964
 30
0.0
 10
1.305676131013165
 20
-2.998116396219049
 30
0.0
 10
1.302112630666316
 20
-3.000698592305752
 30
0.0
 10
1.299028836015067
 20
-3.001840896336893
 30
0.0
 10
1.296376698992945
 20
-3.001541177148257
 30
0.0
 10
1.290008199025527
 20
-3.001065152554549
 30
0.0
 10
1.280399941933107
 20
-2.998035799462437
 30
0.0
 10
1.267361769743122
 20
-2.992784223297525
 30
0.0
 10
1.256727647683773
 20
-2.988488377421895
 30
0.0
 10
1.251232731311423
 20
-2.982288626913613
 30
0.0
 10
1.250872855168634
 20
-2.973892227303394
 30
0.0
 10
1.254838564329677
 20
-2.96032949809771
 30
0.0
 10
1.263068926871659
 20
-2.944134199832458
 30
0.0
 10
1.276182367907646
 20
-2.925622326041345
 30
0.0
 10
1.289292709068427
 20
-2.907102121335507
 30
0.0
 10
1.302979820768693
 20
-2.891365217123443
 30
0.0
 10
1.31723498460926
 20
-2.878483879247091
 30
0.0
 10
1.331485692379121
 20
-2.865588979416467
 30
0.0
 10
1.342185493045386
 20
-2.85860186059363
 30
0.0
 10
1.348839472149544
 20
-2.857198392072329
 30
0.0
  0
HATCH
  5
9D
330
8C
100
AcDbEntity
  8
Amara's 4th
 62
   232
420
 13898842
440
 33554687
100
AcDbHatch
 10
0.0
 20
0.0
 30
0.0
210
0.0
220
0.0
230
1.0
  2
SOLID
 70
     1
 71
     1
 91
        2
 92
        1
 93
        1
 72
     4
 94
        3
 73
     0
 74
     0
 95
       38
 96
       34
 40
0.0
 40
0.0
 40
0.0
 40
0.0
 40
1.0
 40
1.0
 40
1.0
 40
2.0
 40
2.0
 40
2.0
 40
3.0
 40
3.0
 40
3.0
 40
4.0
 40
4.0
 40
4.0
 40
5.0
 40
5.0
 40
5.0
 40
6.0
 40
6.0
 40
6.0
 40
7.0
 40
7.0
 40
7.0
 40
8.0
 40
8.0
 40
8.0
 40
9.0
 40
9.0
 40
9.0
 40
10.0
 40
10.0
 40
10.0
 40
11.0
 40
11.0
 40
11.0
 40
11.0
 10
1.346193147393478
 20
-2.932588714448406
 10
1.34608203623985
 20
-2.932629981537729
 10
1.345971021957312
 20
-2.932671442369256
 10
1.345860007674774
 20
-2.932712709458579
 10
1.345831721313111
 20
-2.932785750269254
 10
1.345803434951398
 20
-2.932859372306539
 10
1.345775245460824
 20
-2.932932413117214
 10
1.345507590606808
 20
-2.93316161014382
 10
1.343998338842488
 20
-2.935116081491564
 10
1.341269770521092
 20
-2.938811326536703
 10
1.338541977168562
 20
-2.942504634159806
 10
1.337101697628642
 20
-2.944585037939734
 10
1.336937307369074
 20
-2.945012820724817
 10
1.336879959676833
 20
-2.945164133385635
 10
1.337330604041906
 20
-2.945453971721917
 10
1.338270931826021
 20
-2.945894928976814
 10
1.339207191023888
 20
-2.946345960826293
 10
1.340255336344196
 20
-2.946659435711353
 10
1.341380397319223
 20
-2.946853565399149
 10
1.342522120123804
 20
-2.947041882820839
 10
1.343276358521557
 20
-2.9471251919683
 10
1.343652799622759
 20
-2.947110467560833
 10
1.344149748374396
 20
-2.946293069204759
 10
1.344540913883065
 20
-2.94528870962242
 10
1.344840342458357
 20
-2.944059996568562
 10
1.345121753008798
 20
-2.942839420687252
 10
1.345409653923019
 20
-2.940915173123231
 10
1.345687964598154
 20
-2.938270010820436
 10
1.345966565886657
 20
-2.935625236002048
 10
1.346184138381027
 20
-2.934088085360397
 10
1.346349884836046
 20
-2.933659527606525
 10
1.346297865054414
 20
-2.933302654467878
 10
1.346245554659516
 20
-2.932945781329256
 10
1.346193147393478
 20
-2.932588714448406
 97
        0
 97
        1
330
9B
 92
        1
 93
        1
 72
     4
 94
        3
 73
     0
 74
     0
 95
       74
 96
       70
 40
0.0
 40
0.0
 40
0.0
 40
0.0
 40
1.0
 40
1.0
 40
1.0
 40
2.0
 40
2.0
 40
2.0
 40
3.0
 40
3.0
 40
3.0
 40
4.0
 40
4.0
 40
4.0
 40
5.0
 40
5.0
 40
5.0
 40
6.0
 40
6.0
 40
6.0
 40
7.0
 40
7.0
 40
7.0
 40
8.0
 40
8.0
 40
8.0
 40
9.0
 40
9.0
 40
9.0
 40
10.0
 40
10.0
 40
10.0
 40
11.0
 40
11.0
 40
11.0
 40
12.0
 40
12.0
 40
12.0
 40
13.0
 40
13.0
 40
13.0
 40
14.0
 40
14.0
 40
14.0
 40
15.0
 40
15.0
 40
15.0
 40
16.0
 40
16.0
 40
16.0
 40
17.0
 40
17.0
 40
17.0
 40
18.0
 40
18.0
 40
18.0
 40
19.0
 40
19.0
 40
19.0
 40
20.0
 40
20.0
 40
20.0
 40
21.0
 40
21.0
 40
21.0
 40
22.0
 40
22.0
 40
22.0
 40
23.0
 40
23.0
 40
23.0
 40
23.0
 10
1.348839472149544
 20
-2.857198392072329
 10
1.35452009042385
 20
-2.855786205151869
 10
1.360277139997378
 20
-2.855922599663042
 10
1.366073519238195
 20
-2.857608931801299
 10
1.371864764310632
 20
-2.859307275956173
 10
1.377913783384681
 20
-2.86197433112794
 10
1.384153638529066
 20
-2.865629084052569
 10
1.392093387765928
 20
-2.870629764064106
 10
1.396898775636448
 20
-2.877241797981191
 10
1.398566605394282
 20
-2.885345259379922
 10
1.402495987892204
 20
-2.906363188571781
 10
1.403589081403727
 20
-2.930352348194749
 10
1.401729931220062
 20
-2.957126164506967
 10
1.399855766015611
 20
-2.983914705226627
 10
1.395378771179821
 20
-3.005184111798497
 10
1.389172045952212
 20
-3.021140525926966
 10
1.385908361665112
 20
-3.026484129638497
 10
1.382466918906427
 20
-3.029756435453641
 10
1.378827762229169
 20
-3.030977980045993
 10
1.374893342433956
 20
-3.032417678359327
 10
1.366203810869996
 20
-3.0302283914611
 10
1.352587899429484
 20
-3.024828021283964
 10
1.344255725359643
 20
-3.021565208836793
 10
1.338838693353055
 20
-3.018449834206371
 10
1.336327503783902
 20
-3.015327484856647
 10
1.333834622852969
 20
-3.012200291951835
 10
1.332787446243653
 20
-3.007301326597068
 10
1.333166405993476
 20
-3.000586609312196
 10
1.333178708623411
 20
-3.000098185217464
 10
1.333264342677314
 20
-2.999210458441565
 10
1.333430767230007
 20
-2.997941253267198
 10
1.33357772069126
 20
-2.99665325509909
 10
1.333702684412451
 20
-2.995659745080148
 10
1.333812439370679
 20
-2.994956073397462
 10
1.333926844141791
 20
-2.994241358409175
 10
1.333918513227015
 20
-2.993371455915974
 10
1.333798877416433
 20
-2.992308392446021
 10
1.333675269890692
 20
-2.991255209828421
 10
1.33341604282254
 20
-2.99033067203388
 10
1.33303156141993
 20
-2.989496224363897
 10
1.332528025433324
 20
-2.988964789500035
 10
1.330101985562578
 20
-2.987878283223456
 10
1.325732517649662
 20
-2.986269060482148
 10
1.321358496794952
 20
-2.9846741746639
 10
1.318959774574876
 20
-2.983972052918817
 10
1.318541194544448
 20
-2.984143514768826
 10
1.317914826000914
 20
-2.9844108790095
 10
1.316871717977897
 20
-2.985752350025727
 10
1.31541555157729
 20
-2.988199120312249
 10
1.312487331915336
 20
-2.992238645252806
 10
1.309234787804901
 20
-2.995546212148964
 10
1.305676131013165
 20
-2.998116396219049
 10
1.302112630666316
 20
-3.000698592305752
 10
1.299028836015067
 20
-3.001840896336893
 10
1.296376698992945
 20
-3.001541177148257
 10
1.290008199025527
 20
-3.001065152554549
 10
1.280399941933107
 20
-2.998035799462437
 10
1.267361769743122
 20
-2.992784223297525
 10
1.256727647683773
 20
-2.988488377421895
 10
1.251232731311423
 20
-2.982288626913613
 10
1.250872855168634
 20
-2.973892227303394
 10
1.254838564329677
 20
-2.96032949809771
 10
1.263068926871659
 20
-2.944134199832458
 10
1.276182367907646
 20
-2.925622326041345
 10
1.289292709068427
 20
-2.907102121335507
 10
1.302979820768693
 20
-2.891365217123443
 10
1.31723498460926
 20
-2.878483879247091
 10
1.331485692379121
 20
-2.865588979416467
 10
1.342185493045386
 20
-2.85860186059363
 10
1.348839472149544
 20
-2.857198392072329
 97
        0
 97
        1
330
9C
 75
     2
 76
     1
 98
        1
 10
0.0
 20
0.0
450
        0
451
        0
460
0.0
461
0.0
452
        0
462
0.0
453
        0
470

  0
ENDBLK
  5
8F
330
8C
100
AcDbEntity
  8
0
100
AcDbBlockEnd
  0
ENDSEC
  0
SECTION
  2
ENTITIES
  0
SPLINE
  5
8A
330
70
100
AcDbEntity
  8
Amara's 4th
100
AcDbSpline
210
0.0
220
0.0
230
1.0
 70
     9
 71
     3
 72
   251
 73
   247
 74
     0
 42
0.0000000001
 43
0.0000000001
 40
0.0
 40
0.0
 40
0.0
 40
0.0
 40
1.0
 40
1.0
 40
1.0
 40
2.0
 40
2.0
 40
2.0
 40
3.0
 40
3.0
 40
3.0
 40
4.0
 40
4.0
 40
4.0
 40
5.0
 40
5.0
 40
5.0
 40
6.0
 40
6.0
 40
6.0
 40
7.0
 40
7.0
 40
7.0
 40
8.0
 40
8.0
 40
8.0
 40
9.0
 40
9.0
 40
9.0
 40
10.0
 40
10.0
 40
10.0
 40
11.0
 40
11.0
 40
11.0
 40
12.0
 40
12.0
 40
12.0
 40
13.0
 40
13.0
 40
13.0
 40
14.0
 40
14.0
 40
14.0
 40
15.0
 40
15.0
 40
15.0
 40
16.0
 40
16.0
 40
16.0
 40
17.0
 40
17.0
 40
17.0
 40
18.0
 40
18.0
 40
18.0
 40
19.0
 40
19.0
 40
19.0
 40
20.0
 40
20.0
 40
20.0
 40
21.0
 40
21.0
 40
21.0
 40
22.0
 40
22.0
 40
22.0
 40
23.0
 40
23.0
 40
23.0
 40
24.0
 40
24.0
 40
24.0
 40
25.0
 40
25.0
 40
25.0
 40
26.0
 40
26.0
 40
26.0
 40
27.0
 40
27.0
 40
27.0
 40
28.0
 40
28.0
 40
28.0
 40
29.0
 40
29.0
 40
29.0
 40
30.0
 40
30.0
 40
30.0
 40
31.0
 40
31.0
 40
31.0
 40
32.0
 40
32.0
 40
32.0
 40
33.0
 40
33.0
 40
33.0
 40
34.0
 40
34.0
 40
34.0
 40
35.0
 40
35.0
 40
35.0
 40
36.0
 40
36.0
 40
36.0
 40
37.0
 40
37.0
 40
37.0
 40
38.0
 40
38.0
 40
38.0
 40
39.0
 40
39.0
 40
39.0
 40
40.0
 40
40.0
 40
40.0
 40
41.0
 40
41.0
 40
41.0
 40
42.0
 40
42.0
 40
42.0
 40
43.0
 40
43.0
 40
43.0
 40
44.0
 40
44.0
 40
44.0
 40
45.0
 40
45.0
 40
45.0
 40
46.0
 40
46.0
 40
46.0
 40
47.0
 40
47.0
 40
47.0
 40
48.0
 40
48.0
 40
48.0
 40
49.0
 40
49.0
 40
49.0
 40
50.0
 40
50.0
 40
50.0
 40
51.0
 40
51.0
 40
51.0
 40
52.0
 40
52.0
 40
52.0
 40
53.0
 40
53.0
 40
53.0
 40
54.0
 40
54.0
 40
54.0
 40
55.0
 40
55.0
 40
55.0
 40
56.0
 40
56.0
 40
56.0
 40
57.0
 40
57.0
 40
57.0
 40
58.0
 40
58.0
 40
58.0
 40
59.0
 40
59.0
 40
59.0
 40
60.0
 40
60.0
 40
60.0
 40
61.0
 40
61.0
 40
61.0
 40
62.0
 40
62.0
 40
62.0
 40
63.0
 40
63.0
 40
63.0
 40
64.0
 40
64.0
 40
64.0
 40
65.0
 40
65.0
 40
65.0
 40
66.0
 40
66.0
 40
66.0
 40
67.0
 40
67.0
 40
67.0
 40
68.0
 40
68.0
 40
68.0
 40
69.0
 40
69.0
 40
69.0
 40
70.0
 40
70.0
 40
70.0
 40
71.0
 40
71.0
 40
71.0
 40
72.0
 40
72.0
 40
72.0
 40
73.0
 40
73.0
 40
73.0
 40
74.0
 40
74.0
 40
74.0
 40
75.0
 40
75.0
 40
75.0
 40
76.0
 40
76.0
 40
76.0
 40
77.0
 40
77.0
 40
77.0
 40
78.0
 40
78.0
 40
78.0
 40
79.0
 40
79.0
 40
79.0
 40
80.0
 40
80.0
 40
80.0
 40
81.0
 40
81.0
 40
81.0
 40
82.0
 40
82.0
 40
82.0
 40
82.0
 10
1.846800062391492
 20
-3.218211703830295
 30
0.0
 10
1.846800062391492
 20
-3.218211703830295
 30
0.0
 10
1.844414605034722
 20
-3.214084201388888
 30
0.0
 10
1.844414605034722
 20
-3.214084201388888
 30
0.0
 10
1.8250732421875
 20
-3.180623372395833
 30
0.0
 10
1.801676432291666
 20
-3.14114040798611
 30
0.0
 10
1.774793836805555
 20
-3.102010091145833
 30
0.0
 10
1.764580620659722
 20
-3.087158203125
 30
0.0
 10
1.752875434027777
 20
-3.071397569444444
 30
0.0
 10
1.739122178819444
 20
-3.056111653645833
 30
0.0
 10
1.750081380208333
 20
-3.0550537109375
 30
0.0
 10
1.761271158854166
 20
-3.055162217881944
 30
0.0
 10
1.772745768229166
 20
-3.056613498263888
 30
0.0
 10
1.772745768229166
 20
-3.056613498263888
 30
0.0
 10
1.948092990451388
 20
-3.078626844618055
 30
0.0
 10
1.948092990451388
 20
-3.078626844618055
 30
0.0
 10
1.948092990451388
 20
-3.078626844618055
 30
0.0
 10
1.928267584906683
 20
-3.054944356282551
 30
0.0
 10
1.928267584906683
 20
-3.054944356282551
 30
0.0
 10
1.920880635579426
 20
-3.047580295138888
 30
0.0
 10
1.913571675618489
 20
-3.040128072102864
 30
0.0
 10
1.906350877549913
 20
-3.032640245225694
 30
0.0
 10
1.894062466091579
 20
-3.0198974609375
 30
0.0
 10
1.882201300726996
 20
-3.006715562608506
 30
0.0
 10
1.872137281629774
 20
-2.992116292317708
 30
0.0
 10
1.8683107164171
 20
-2.986565483940971
 30
0.0
 10
1.864828321668836
 20
-2.980795118543836
 30
0.0
 10
1.861351860894097
 20
-2.975021362304687
 30
0.0
 10
1.861351860894097
 20
-2.975021362304687
 30
0.0
 10
1.834648980034722
 20
-2.943128797743055
 30
0.0
 10
1.834648980034722
 20
-2.943128797743055
 30
0.0
 10
1.80996365017361
 20
-2.913655598958333
 30
0.0
 10
1.769097222222222
 20
-2.886569552951388
 30
0.0
 10
1.725341796875
 20
-2.870673285590277
 30
0.0
 10
1.677992078993055
 20
-2.853488498263888
 30
0.0
 10
1.630954318576388
 20
-2.848063151041666
 30
0.0
 10
1.591769748263888
 20
-2.846937391493055
 30
0.0
 10
1.591769748263888
 20
-2.846937391493055
 30
0.0
 10
1.607557508680555
 20
-2.784844292534721
 30
0.0
 10
1.607557508680555
 20
-2.784844292534721
 30
0.0
 10
1.607557508680555
 20
-2.784844292534721
 30
0.0
 10
1.544731987847222
 20
-2.765231662326388
 30
0.0
 10
1.544731987847222
 20
-2.765231662326388
 30
0.0
 10
1.544731987847222
 20
-2.765231662326388
 30
0.0
 10
1.54150390625
 20
-2.764173719618055
 30
0.0
 10
1.54150390625
 20
-2.764173719618055
 30
0.0
 10
1.53615993923611
 20
-2.762396918402777
 30
0.0
 10
1.531914605034722
 20
-2.761149088541666
 30
0.0
 10
1.527587890625
 20
-2.760226779513888
 30
0.0
 10
1.500664605034722
 20
-2.754503038194444
 30
0.0
 10
1.473768446180555
 20
-2.748589409722221
 30
0.0
 10
1.446872287326388
 20
-2.74267578125
 30
0.0
 10
1.438517252604166
 20
-2.740831163194444
 30
0.0
 10
1.430148654513888
 20
-2.739000108506944
 30
0.0
 10
1.421793619791666
 20
-2.737155490451388
 30
0.0
 10
1.44091796875
 20
-2.661037868923611
 30
0.0
 10
1.45058865017361
 20
-2.580851236979166
 30
0.0
 10
1.451226128472222
 20
-2.493679470486111
 30
0.0
 10
1.451226128472222
 20
-2.493679470486111
 30
0.0
 10
1.451226128472222
 20
-2.439358181423611
 30
0.0
 10
1.451226128472222
 20
-2.439358181423611
 30
0.0
 10
1.451226128472222
 20
-2.416042751736111
 30
0.0
 10
1.443766276041666
 20
-2.360134548611111
 30
0.0
 10
1.374593098958333
 20
-2.344590928819444
 30
0.0
 10
1.351291232638888
 20
-2.339382595486111
 30
0.0
 10
1.346001519097222
 20
-2.330525716145833
 30
0.0
 10
1.343451605902777
 20
-2.326239691840277
 30
0.0
 10
1.338812934027777
 20
-2.318467881944444
 30
0.0
 10
1.336100260416666
 20
-2.309393988715277
 30
0.0
 10
1.334920247395833
 20
-2.297620985243055
 30
0.0
 10
1.3311767578125
 20
-2.260877821180555
 30
0.0
 10
1.308186848958333
 20
-2.231146918402777
 30
0.0
 10
1.273423936631944
 20
-2.218085394965277
 30
0.0
 10
1.2001953125
 20
-2.190565321180555
 30
0.0
 10
1.130533854166666
 20
-2.173516167534722
 30
0.0
 10
1.060438368055555
 20
-2.165974934895833
 30
0.0
 10
0.9872300889756944
 20
-2.158135308159722
 30
0.0
 10
0.9105428059895832
 20
-2.160007052951388
 30
0.0
 10
0.8325398763020832
 20
-2.171468098958333
 30
0.0
 10
0.7705485026041666
 20
-2.180582682291666
 30
0.0
 10
0.7085639105902778
 20
-2.196682400173611
 30
0.0
 10
0.6430596245659723
 20
-2.220675998263888
 30
0.0
 10
0.5935329861111111
 20
-2.238810221354166
 30
0.0
 10
0.5716552734375
 20
-2.272786458333333
 30
0.0
 10
0.5762193467881945
 20
-2.324517144097221
 30
0.0
 10
0.5762193467881945
 20
-2.324517144097221
 30
0.0
 10
0.5762736002604166
 20
-2.325615776909721
 30
0.0
 10
0.5762736002604166
 20
-2.325615776909721
 30
0.0
 10
0.576416015625
 20
-2.328884548611111
 30
0.0
 10
0.5744222005208333
 20
-2.334418402777777
 30
0.0
 10
0.5695936414930555
 20
-2.339409722222221
 30
0.0
 10
0.5649685329861111
 20
-2.344197591145833
 30
0.0
 10
0.5592380099826389
 20
-2.346367730034721
 30
0.0
 10
0.5565931532118055
 20
-2.346367730034721
 30
0.0
 10
0.5246988932291666
 20
-2.346489800347221
 30
0.0
 10
0.5040757921006945
 20
-2.359754774305555
 30
0.0
 10
0.4922688802083333
 20
-2.371419270833333
 30
0.0
 10
0.4805569118923611
 20
-2.382975260416666
 30
0.0
 10
0.4665662977430556
 20
-2.403469509548611
 30
0.0
 10
0.4664306640625
 20
-2.435560438368055
 30
0.0
 10
0.4663153754340278
 20
-2.467583550347221
 30
0.0
 10
0.4676242404513889
 20
-2.498602973090277
 30
0.0
 10
0.4689263237847223
 20
-2.524712456597221
 30
0.0
 10
0.47247314453125
 20
-2.596137152777777
 30
0.0
 10
0.4831746419270833
 20
-2.665920681423611
 30
0.0
 10
0.5007731119791666
 20
-2.732516818576388
 30
0.0
 10
0.4850802951388889
 20
-2.736165364583333
 30
0.0
 10
0.4693739149305556
 20
-2.739963107638888
 30
0.0
 10
0.4537082248263889
 20
-2.743923611111111
 30
0.0
 10
0.4367879231770833
 20
-2.748196072048611
 30
0.0
 10
0.4199015299479166
 20
-2.752631293402777
 30
0.0
 10
0.4024115668402778
 20
-2.757215711805555
 30
0.0
 10
0.4024115668402778
 20
-2.757215711805555
 30
0.0
 10
0.3108249240451389
 20
-2.781087239583333
 30
0.0
 10
0.3108249240451389
 20
-2.781087239583333
 30
0.0
 10
0.3108249240451389
 20
-2.781087239583333
 30
0.0
 10
0.3274875217013889
 20
-2.84716796875
 30
0.0
 10
0.3274875217013889
 20
-2.84716796875
 30
0.0
 10
0.25494384765625
 20
-2.848795572916666
 30
0.0
 10
0.1971367730034722
 20
-2.863484700520833
 30
0.0
 10
0.1462537977430556
 20
-2.893120659722221
 30
0.0
 10
0.1460842556423611
 20
-2.893219841851128
 30
0.0
 10
0.145947774251302
 20
-2.893329196506076
 30
0.0
 10
0.1457782321506076
 20
-2.893428378634982
 30
0.0
 10
0.1430367363823784
 20
-2.896820068359375
 30
0.0
 10
0.1405105590820312
 20
-2.900639004177517
 30
0.0
 10
0.138167487250434
 20
-2.902942233615451
 30
0.0
 10
0.129608154296875
 20
-2.911358303493923
 30
0.0
 10
0.1207538180881076
 20
-2.919367472330728
 30
0.0
 10
0.1124852498372396
 20
-2.928097195095486
 30
0.0
 10
0.0958506266276042
 20
-2.94566175672743
 30
0.0
 10
0.079726325141059
 20
-2.963840060763888
 30
0.0
 10
0.0644336276584201
 20
-2.982582092285156
 30
0.0
 10
0.0575391981336806
 20
-2.991031222873263
 30
0.0
 10
0.0501030815972222
 20
-2.999029371473524
 30
0.0
 10
0.0423448350694445
 20
-3.006710476345486
 30
0.0
 10
0.0423448350694445
 20
-3.006710476345486
 30
0.0
 10
0.0750935872395833
 20
-3.012152777777777
 30
0.0
 10
0.0750935872395833
 20
-3.012152777777777
 30
0.0
 10
0.0750935872395833
 20
-3.012152777777777
 30
0.0
 10
0.0752292209201389
 20
-3.012508816189236
 30
0.0
 10
0.0752292209201389
 20
-3.012508816189236
 30
0.0
 10
0.0917256673177083
 20
-3.013031853569878
 30
0.0
 10
0.1081661648220486
 20
-3.015937805175781
 30
0.0
 10
0.1241989135742187
 20
-3.019813537597656
 30
0.0
 10
0.1324403550889757
 20
-3.021806504991319
 30
0.0
 10
0.1405868530273437
 20
-3.024202982584635
 30
0.0
 10
0.1489122178819444
 20
-3.025826348198784
 30
0.0
 10
0.1566679212782118
 20
-3.027338663736979
 30
0.0
 10
0.1648957994249132
 20
-3.028713650173611
 30
0.0
 10
0.1717859903971354
 20
-3.032838609483506
 30
0.0
 10
0.1798782348632812
 20
-3.03768327501085
 30
0.0
 10
0.1861843532986111
 20
-3.046184963650173
 30
0.0
 10
0.1837878757052951
 20
-3.056046379937065
 30
0.0
 10
0.1819737752278646
 20
-3.063509623209635
 30
0.0
 10
0.1759524875217014
 20
-3.068244086371527
 30
0.0
 10
0.1692064073350694
 20
-3.071106804741753
 30
0.0
 10
0.1690631442599826
 20
-3.071167839898003
 30
0.0
 10
0.1688952975802951
 20
-3.071209377712673
 30
0.0
 10
0.1687511867947049
 20
-3.07126956515842
 30
0.0
 10
0.1605292426215278
 20
-3.080863104926215
 30
0.0
 10
0.1523666381835937
 20
-3.090884738498263
 30
0.0
 10
0.1446668836805556
 20
-3.101847330729166
 30
0.0
 10
0.1265530056423611
 20
-3.127617730034721
 30
0.0
 10
0.1101142035590278
 20
-3.154012044270833
 30
0.0
 10
0.0942179361979167
 20
-3.179551866319444
 30
0.0
 10
0.0877685546875
 20
-3.189900716145833
 30
0.0
 10
0.0813191731770833
 20
-3.200263129340277
 30
0.0
 10
0.0747748480902778
 20
-3.210544162326388
 30
0.0
 10
0.0747748480902778
 20
-3.210544162326388
 30
0.0
 10
0.0395439995659722
 20
-3.265903896755641
 30
0.0
 10
0.0395439995659722
 20
-3.265903896755641
 30
0.0
 10
0.0683966742621528
 20
-3.268369038899739
 30
0.0
 10
0.0969467163085938
 20
-3.272326151529947
 30
0.0
 10
0.1260282728407118
 20
-3.272281222873263
 30
0.0
 10
0.1590126885308159
 20
-3.272230360243055
 30
0.0
 10
0.1881400214301215
 20
-3.260673522949218
 30
0.0
 10
0.2203326755099826
 20
-3.256562127007378
 30
0.0
 10
0.2329194810655382
 20
-3.254954867892795
 30
0.0
 10
0.2456164889865451
 20
-3.254536946614583
 30
0.0
 10
0.2582346598307291
 20
-3.253814697265625
 30
0.0
 10
0.275891621907552
 20
-3.244124518500433
 30
0.0
 10
0.2931755913628472
 20
-3.235538058810763
 30
0.0
 10
0.3101331922743055
 20
-3.228407118055555
 30
0.0
 10
0.3806355794270833
 20
-3.198716905381944
 30
0.0
 10
0.4585910373263889
 20
-3.201158311631944
 30
0.0
 10
0.5323282877604166
 20
-3.208306206597221
 30
0.0
 10
0.5478108723958333
 20
-3.209784613715277
 30
0.0
 10
0.5633138020833333
 20
-3.211127387152777
 30
0.0
 10
0.5795966254340278
 20
-3.21255154079861
 30
0.0
 10
0.5795966254340278
 20
-3.21255154079861
 30
0.0
 10
0.6947496202256945
 20
-3.222710503472221
 30
0.0
 10
0.6947496202256945
 20
-3.222710503472221
 30
0.0
 10
0.6947496202256945
 20
-3.222710503472221
 30
0.0
 10
0.6943478054470486
 20
-3.220765855577256
 30
0.0
 10
0.6943478054470486
 20
-3.220765855577256
 30
0.0
 10
0.78045654296875
 20
-3.23712666829427
 30
0.0
 10
0.8673909505208332
 20
-3.251677619086371
 30
0.0
 10
0.9551425509982639
 20
-3.25163099500868
 30
0.0
 10
0.9736167060004339
 20
-3.25594245062934
 30
0.0
 10
0.9923926459418401
 20
-3.255163404676649
 30
0.0
 10
1.010572645399305
 20
-3.249512566460503
 30
0.0
 10
1.05280049641927
 20
-3.246130201551649
 30
0.0
 10
1.094146728515625
 20
-3.239105224609375
 30
0.0
 10
1.135812547471788
 20
-3.229689704047308
 30
0.0
 10
1.136044820149739
 20
-3.229637145996093
 30
0.0
 10
1.136277940538194
 20
-3.229585435655381
 30
0.0
 10
1.136510213216145
 20
-3.229532877604166
 30
0.0
 10
1.178506639268663
 20
-3.229659186469183
 30
0.0
 10
1.220398796929253
 20
-3.227095709906683
 30
0.0
 10
1.261622111002604
 20
-3.219156901041666
 30
0.0
 10
1.261622111002604
 20
-3.219156901041666
 30
0.0
 10
1.318467881944444
 20
-3.214274088541666
 30
0.0
 10
1.318467881944444
 20
-3.214274088541666
 30
0.0
 10
1.328219943576388
 20
-3.213433159722221
 30
0.0
 10
1.337836371527777
 20
-3.21267361111111
 30
0.0
 10
1.347357855902777
 20
-3.2119140625
 30
0.0
 10
1.368136935763888
 20
-3.210272894965277
 30
0.0
 10
1.389621310763888
 20
-3.208563910590277
 30
0.0
 10
1.4110107421875
 20
-3.2061767578125
 30
0.0
 10
1.5130615234375
 20
-3.194797092013888
 30
0.0
 10
1.60073513454861
 20
-3.213582356770833
 30
0.0
 10
1.67898220486111
 20
-3.263644748263888
 30
0.0
 10
1.679133097330729
 20
-3.263741387261284
 30
0.0
 10
1.67928229437934
 20
-3.26383802625868
 30
0.0
 10
1.679433186848958
 20
-3.263934665256076
 30
0.0
 10
1.67985365125868
 20
-3.263995700412326
 30
0.0
 10
1.680273267957899
 20
-3.26406521267361
 30
0.0
 10
1.680693732367621
 20
-3.26412624782986
 30
0.0
 10
1.708222283257378
 20
-3.268100314670138
 30
0.0
 10
1.735749138726128
 20
-3.272082858615451
 30
0.0
 10
1.763309902615017
 20
-3.275825500488281
 30
0.0
 10
1.776726616753472
 20
-3.277647230360242
 30
0.0
 10
1.790464613172742
 20
-3.279784308539496
 30
0.0
 10
1.803858439127603
 20
-3.276639302571614
 30
0.0
 10
1.817510816786024
 20
-3.273432413736979
 30
0.0
 10
1.829606797960069
 20
-3.270749409993489
 30
0.0
 10
1.843800014919704
 20
-3.270442538791232
 30
0.0
 10
1.848845587836371
 20
-3.270334031846787
 30
0.0
 10
1.853942023383246
 20
-3.270149230957031
 30
0.0
 10
1.858988444010416
 20
-3.270198398166232
 30
0.0
 10
1.857691446940103
 20
-3.255869547526041
 30
0.0
 10
1.854290432400173
 20
-3.241785685221354
 30
0.0
 10
1.850094265407985
 20
-3.228047688802083
 30
0.0
 10
1.849089728461371
 20
-3.224759419759114
 30
0.0
 10
1.84788343641493
 20
-3.221497429741753
 30
0.0
 10
1.846800062391492
 20
-3.218211703830295
 30
0.0
  0
HATCH
  5
8B
330
70
100
AcDbEntity
  8
Amara's 4th
 62
    70
420
  6487812
440
 33554687
100
AcDbHatch
 10
0.0
 20
0.0
 30
0.0
210
0.0
220
0.0
230
1.0
  2
SOLID
 70
     1
 71
     1
 91
        1
 92
        1
 93
        1
 72
     4
 94
        3
 73
     0
 74
     0
 95
      251
 96
      247
 40
0.0
 40
0.0
 40
0.0
 40
0.0
 40
1.0
 40
1.0
 40
1.0
 40
2.0
 40
2.0
 40
2.0
 40
3.0
 40
3.0
 40
3.0
 40
4.0
 40
4.0
 40
4.0
 40
5.0
 40
5.0
 40
5.0
 40
6.0
 40
6.0
 40
6.0
 40
7.0
 40
7.0
 40
7.0
 40
8.0
 40
8.0
 40
8.0
 40
9.0
 40
9.0
 40
9.0
 40
10.0
 40
10.0
 40
10.0
 40
11.0
 40
11.0
 40
11.0
 40
12.0
 40
12.0
 40
12.0
 40
13.0
 40
13.0
 40
13.0
 40
14.0
 40
14.0
 40
14.0
 40
15.0
 40
15.0
 40
15.0
 40
16.0
 40
16.0
 40
16.0
 40
17.0
 40
17.0
 40
17.0
 40
18.0
 40
18.0
 40
18.0
 40
19.0
 40
19.0
 40
19.0
 40
20.0
 40
20.0
 40
20.0
 40
21.0
 40
21.0
 40
21.0
 40
22.0
 40
22.0
 40
22.0
 40
23.0
 40
23.0
 40
23.0
 40
24.0
 40
24.0
 40
24.0
 40
25.0
 40
25.0
 40
25.0
 40
26.0
 40
26.0
 40
26.0
 40
27.0
 40
27.0
 40
27.0
 40
28.0
 40
28.0
 40
28.0
 40
29.0
 40
29.0
 40
29.0
 40
30.0
 40
30.0
 40
30.0
 40
31.0
 40
31.0
 40
31.0
 40
32.0
 40
32.0
 40
32.0
 40
33.0
 40
33.0
 40
33.0
 40
34.0
 40
34.0
 40
34.0
 40
35.0
 40
35.0
 40
35.0
 40
36.0
 40
36.0
 40
36.0
 40
37.0
 40
37.0
 40
37.0
 40
38.0
 40
38.0
 40
38.0
 40
39.0
 40
39.0
 40
39.0
 40
40.0
 40
40.0
 40
40.0
 40
41.0
 40
41.0
 40
41.0
 40
42.0
 40
42.0
 40
42.0
 40
43.0
 40
43.0
 40
43.0
 40
44.0
 40
44.0
 40
44.0
 40
45.0
 40
45.0
 40
45.0
 40
46.0
 40
46.0
 40
46.0
 40
47.0
 40
47.0
 40
47.0
 40
48.0
 40
48.0
 40
48.0
 40
49.0
 40
49.0
 40
49.0
 40
50.0
 40
50.0
 40
50.0
 40
51.0
 40
51.0
 40
51.0
 40
52.0
 40
52.0
 40
52.0
 40
53.0
 40
53.0
 40
53.0
 40
54.0
 40
54.0
 40
54.0
 40
55.0
 40
55.0
 40
55.0
 40
56.0
 40
56.0
 40
56.0
 40
57.0
 40
57.0
 40
57.0
 40
58.0
 40
58.0
 40
58.0
 40
59.0
 40
59.0
 40
59.0
 40
60.0
 40
60.0
 40
60.0
 40
61.0
 40
61.0
 40
61.0
 40
62.0
 40
62.0
 40
62.0
 40
63.0
 40
63.0
 40
63.0
 40
64.0
 40
64.0
 40
64.0
 40
65.0
 40
65.0
 40
65.0
 40
66.0
 40
66.0
 40
66.0
 40
67.0
 40
67.0
 40
67.0
 40
68.0
 40
68.0
 40
68.0
 40
69.0
 40
69.0
 40
69.0
 40
70.0
 40
70.0
 40
70.0
 40
71.0
 40
71.0
 40
71.0
 40
72.0
 40
72.0
 40
72.0
 40
73.0
 40
73.0
 40
73.0
 40
74.0
 40
74.0
 40
74.0
 40
75.0
 40
75.0
 40
75.0
 40
76.0
 40
76.0
 40
76.0
 40
77.0
 40
77.0
 40
77.0
 40
78.0
 40
78.0
 40
78.0
 40
79.0
 40
79.0
 40
79.0
 40
80.0
 40
80.0
 40
80.0
 40
81.0
 40
81.0
 40
81.0
 40
82.0
 40
82.0
 40
82.0
 40
82.0
 10
1.846800062391492
 20
-3.218211703830295
 10
1.846800062391492
 20
-3.218211703830295
 10
1.844414605034722
 20
-3.214084201388888
 10
1.844414605034722
 20
-3.214084201388888
 10
1.8250732421875
 20
-3.180623372395833
 10
1.801676432291666
 20
-3.14114040798611
 10
1.774793836805555
 20
-3.102010091145833
 10
1.764580620659722
 20
-3.087158203125
 10
1.752875434027777
 20
-3.071397569444444
 10
1.739122178819444
 20
-3.056111653645833
 10
1.750081380208333
 20
-3.0550537109375
 10
1.761271158854166
 20
-3.055162217881944
 10
1.772745768229166
 20
-3.056613498263888
 10
1.772745768229166
 20
-3.056613498263888
 10
1.948092990451388
 20
-3.078626844618055
 10
1.948092990451388
 20
-3.078626844618055
 10
1.948092990451388
 20
-3.078626844618055
 10
1.928267584906683
 20
-3.054944356282551
 10
1.928267584906683
 20
-3.054944356282551
 10
1.920880635579426
 20
-3.047580295138888
 10
1.913571675618489
 20
-3.040128072102864
 10
1.906350877549913
 20
-3.032640245225694
 10
1.894062466091579
 20
-3.0198974609375
 10
1.882201300726996
 20
-3.006715562608506
 10
1.872137281629774
 20
-2.992116292317708
 10
1.8683107164171
 20
-2.986565483940971
 10
1.864828321668836
 20
-2.980795118543836
 10
1.861351860894097
 20
-2.975021362304687
 10
1.861351860894097
 20
-2.975021362304687
 10
1.834648980034722
 20
-2.943128797743055
 10
1.834648980034722
 20
-2.943128797743055
 10
1.80996365017361
 20
-2.913655598958333
 10
1.769097222222222
 20
-2.886569552951388
 10
1.725341796875
 20
-2.870673285590277
 10
1.677992078993055
 20
-2.853488498263888
 10
1.630954318576388
 20
-2.848063151041666
 10
1.591769748263888
 20
-2.846937391493055
 10
1.591769748263888
 20
-2.846937391493055
 10
1.607557508680555
 20
-2.784844292534721
 10
1.607557508680555
 20
-2.784844292534721
 10
1.607557508680555
 20
-2.784844292534721
 10
1.544731987847222
 20
-2.765231662326388
 10
1.544731987847222
 20
-2.765231662326388
 10
1.544731987847222
 20
-2.765231662326388
 10
1.54150390625
 20
-2.764173719618055
 10
1.54150390625
 20
-2.764173719618055
 10
1.53615993923611
 20
-2.762396918402777
 10
1.531914605034722
 20
-2.761149088541666
 10
1.527587890625
 20
-2.760226779513888
 10
1.500664605034722
 20
-2.754503038194444
 10
1.473768446180555
 20
-2.748589409722221
 10
1.446872287326388
 20
-2.74267578125
 10
1.438517252604166
 20
-2.740831163194444
 10
1.430148654513888
 20
-2.739000108506944
 10
1.421793619791666
 20
-2.737155490451388
 10
1.44091796875
 20
-2.661037868923611
 10
1.45058865017361
 20
-2.580851236979166
 10
1.451226128472222
 20
-2.493679470486111
 10
1.451226128472222
 20
-2.493679470486111
 10
1.451226128472222
 20
-2.439358181423611
 10
1.451226128472222
 20
-2.439358181423611
 10
1.451226128472222
 20
-2.416042751736111
 10
1.443766276041666
 20
-2.360134548611111
 10
1.374593098958333
 20
-2.344590928819444
 10
1.351291232638888
 20
-2.339382595486111
 10
1.346001519097222
 20
-2.330525716145833
 10
1.343451605902777
 20
-2.326239691840277
 10
1.338812934027777
 20
-2.318467881944444
 10
1.336100260416666
 20
-2.309393988715277
 10
1.334920247395833
 20
-2.297620985243055
 10
1.3311767578125
 20
-2.260877821180555
 10
1.308186848958333
 20
-2.231146918402777
 10
1.273423936631944
 20
-2.218085394965277
 10
1.2001953125
 20
-2.190565321180555
 10
1.130533854166666
 20
-2.173516167534722
 10
1.060438368055555
 20
-2.165974934895833
 10
0.9872300889756944
 20
-2.158135308159722
 10
0.9105428059895832
 20
-2.160007052951388
 10
0.8325398763020832
 20
-2.171468098958333
 10
0.7705485026041666
 20
-2.180582682291666
 10
0.7085639105902778
 20
-2.196682400173611
 10
0.6430596245659723
 20
-2.220675998263888
 10
0.5935329861111111
 20
-2.238810221354166
 10
0.5716552734375
 20
-2.272786458333333
 10
0.5762193467881945
 20
-2.324517144097221
 10
0.5762193467881945
 20
-2.324517144097221
 10
0.5762736002604166
 20
-2.325615776909721
 10
0.5762736002604166
 20
-2.325615776909721
 10
0.576416015625
 20
-2.328884548611111
 10
0.5744222005208333
 20
-2.334418402777777
 10
0.5695936414930555
 20
-2.339409722222221
 10
0.5649685329861111
 20
-2.344197591145833
 10
0.5592380099826389
 20
-2.346367730034721
 10
0.5565931532118055
 20
-2.346367730034721
 10
0.5246988932291666
 20
-2.346489800347221
 10
0.5040757921006945
 20
-2.359754774305555
 10
0.4922688802083333
 20
-2.371419270833333
 10
0.4805569118923611
 20
-2.382975260416666
 10
0.4665662977430556
 20
-2.403469509548611
 10
0.4664306640625
 20
-2.435560438368055
 10
0.4663153754340278
 20
-2.467583550347221
 10
0.4676242404513889
 20
-2.498602973090277
 10
0.4689263237847223
 20
-2.524712456597221
 10
0.47247314453125
 20
-2.596137152777777
 10
0.4831746419270833
 20
-2.665920681423611
 10
0.5007731119791666
 20
-2.732516818576388
 10
0.4850802951388889
 20
-2.736165364583333
 10
0.4693739149305556
 20
-2.739963107638888
 10
0.4537082248263889
 20
-2.743923611111111
 10
0.4367879231770833
 20
-2.748196072048611
 10
0.4199015299479166
 20
-2.752631293402777
 10
0.4024115668402778
 20
-2.757215711805555
 10
0.4024115668402778
 20
-2.757215711805555
 10
0.3108249240451389
 20
-2.781087239583333
 10
0.3108249240451389
 20
-2.781087239583333
 10
0.3108249240451389
 20
-2.781087239583333
 10
0.3274875217013889
 20
-2.84716796875
 10
0.3274875217013889
 20
-2.84716796875
 10
0.25494384765625
 20
-2.848795572916666
 10
0.1971367730034722
 20
-2.863484700520833
 10
0.1462537977430556
 20
-2.893120659722221
 10
0.1460842556423611
 20
-2.893219841851128
 10
0.145947774251302
 20
-2.893329196506076
 10
0.1457782321506076
 20
-2.893428378634982
 10
0.1430367363823784
 20
-2.896820068359375
 10
0.1405105590820312
 20
-2.900639004177517
 10
0.138167487250434
 20
-2.902942233615451
 10
0.129608154296875
 20
-2.911358303493923
 10
0.1207538180881076
 20
-2.919367472330728
 10
0.1124852498372396
 20
-2.928097195095486
 10
0.0958506266276042
 20
-2.94566175672743
 10
0.079726325141059
 20
-2.963840060763888
 10
0.0644336276584201
 20
-2.982582092285156
 10
0.0575391981336806
 20
-2.991031222873263
 10
0.0501030815972222
 20
-2.999029371473524
 10
0.0423448350694445
 20
-3.006710476345486
 10
0.0423448350694445
 20
-3.006710476345486
 10
0.0750935872395833
 20
-3.012152777777777
 10
0.0750935872395833
 20
-3.012152777777777
 10
0.0750935872395833
 20
-3.012152777777777
 10
0.0752292209201389
 20
-3.012508816189236
 10
0.0752292209201389
 20
-3.012508816189236
 10
0.0917256673177083
 20
-3.013031853569878
 10
0.1081661648220486
 20
-3.015937805175781
 10
0.1241989135742187
 20
-3.019813537597656
 10
0.1324403550889757
 20
-3.021806504991319
 10
0.1405868530273437
 20
-3.024202982584635
 10
0.1489122178819444
 20
-3.025826348198784
 10
0.1566679212782118
 20
-3.027338663736979
 10
0.1648957994249132
 20
-3.028713650173611
 10
0.1717859903971354
 20
-3.032838609483506
 10
0.1798782348632812
 20
-3.03768327501085
 10
0.1861843532986111
 20
-3.046184963650173
 10
0.1837878757052951
 20
-3.056046379937065
 10
0.1819737752278646
 20
-3.063509623209635
 10
0.1759524875217014
 20
-3.068244086371527
 10
0.1692064073350694
 20
-3.071106804741753
 10
0.1690631442599826
 20
-3.071167839898003
 10
0.1688952975802951
 20
-3.071209377712673
 10
0.1687511867947049
 20
-3.07126956515842
 10
0.1605292426215278
 20
-3.080863104926215
 10
0.1523666381835937
 20
-3.090884738498263
 10
0.1446668836805556
 20
-3.101847330729166
 10
0.1265530056423611
 20
-3.127617730034721
 10
0.1101142035590278
 20
-3.154012044270833
 10
0.0942179361979167
 20
-3.179551866319444
 10
0.0877685546875
 20
-3.189900716145833
 10
0.0813191731770833
 20
-3.200263129340277
 10
0.0747748480902778
 20
-3.210544162326388
 10
0.0747748480902778
 20
-3.210544162326388
 10
0.0395439995659722
 20
-3.265903896755641
 10
0.0395439995659722
 20
-3.265903896755641
 10
0.0683966742621528
 20
-3.268369038899739
 10
0.0969467163085938
 20
-3.272326151529947
 10
0.1260282728407118
 20
-3.272281222873263
 10
0.1590126885308159
 20
-3.272230360243055
 10
0.1881400214301215
 20
-3.260673522949218
 10
0.2203326755099826
 20
-3.256562127007378
 10
0.2329194810655382
 20
-3.254954867892795
 10
0.2456164889865451
 20
-3.254536946614583
 10
0.2582346598307291
 20
-3.253814697265625
 10
0.275891621907552
 20
-3.244124518500433
 10
0.2931755913628472
 20
-3.235538058810763
 10
0.3101331922743055
 20
-3.228407118055555
 10
0.3806355794270833
 20
-3.198716905381944
 10
0.4585910373263889
 20
-3.201158311631944
 10
0.5323282877604166
 20
-3.208306206597221
 10
0.5478108723958333
 20
-3.209784613715277
 10
0.5633138020833333
 20
-3.211127387152777
 10
0.5795966254340278
 20
-3.21255154079861
 10
0.5795966254340278
 20
-3.21255154079861
 10
0.6947496202256945
 20
-3.222710503472221
 10
0.6947496202256945
 20
-3.222710503472221
 10
0.6947496202256945
 20
-3.222710503472221
 10
0.6943478054470486
 20
-3.220765855577256
 10
0.6943478054470486
 20
-3.220765855577256
 10
0.78045654296875
 20
-3.23712666829427
 10
0.8673909505208332
 20
-3.251677619086371
 10
0.9551425509982639
 20
-3.25163099500868
 10
0.9736167060004339
 20
-3.25594245062934
 10
0.9923926459418401
 20
-3.255163404676649
 10
1.010572645399305
 20
-3.249512566460503
 10
1.05280049641927
 20
-3.246130201551649
 10
1.094146728515625
 20
-3.239105224609375
 10
1.135812547471788
 20
-3.229689704047308
 10
1.136044820149739
 20
-3.229637145996093
 10
1.136277940538194
 20
-3.229585435655381
 10
1.136510213216145
 20
-3.229532877604166
 10
1.178506639268663
 20
-3.229659186469183
 10
1.220398796929253
 20
-3.227095709906683
 10
1.261622111002604
 20
-3.219156901041666
 10
1.261622111002604
 20
-3.219156901041666
 10
1.318467881944444
 20
-3.214274088541666
 10
1.318467881944444
 20
-3.214274088541666
 10
1.328219943576388
 20
-3.213433159722221
 10
1.337836371527777
 20
-3.21267361111111
 10
1.347357855902777
 20
-3.2119140625
 10
1.368136935763888
 20
-3.210272894965277
 10
1.389621310763888
 20
-3.208563910590277
 10
1.4110107421875
 20
-3.2061767578125
 10
1.5130615234375
 20
-3.194797092013888
 10
1.60073513454861
 20
-3.213582356770833
 10
1.67898220486111
 20
-3.263644748263888
 10
1.679133097330729
 20
-3.263741387261284
 10
1.67928229437934
 20
-3.26383802625868
 10
1.679433186848958
 20
-3.263934665256076
 10
1.67985365125868
 20
-3.263995700412326
 10
1.680273267957899
 20
-3.26406521267361
 10
1.680693732367621
 20
-3.26412624782986
 10
1.708222283257378
 20
-3.268100314670138
 10
1.735749138726128
 20
-3.272082858615451
 10
1.763309902615017
 20
-3.275825500488281
 10
1.776726616753472
 20
-3.277647230360242
 10
1.790464613172742
 20
-3.279784308539496
 10
1.803858439127603
 20
-3.276639302571614
 10
1.817510816786024
 20
-3.273432413736979
 10
1.829606797960069
 20
-3.270749409993489
 10
1.843800014919704
 20
-3.270442538791232
 10
1.848845587836371
 20
-3.270334031846787
 10
1.853942023383246
 20
-3.270149230957031
 10
1.858988444010416
 20
-3.270198398166232
 10
1.857691446940103
 20
-3.255869547526041
 10
1.854290432400173
 20
-3.241785685221354
 10
1.850094265407985
 20
-3.228047688802083
 10
1.849089728461371
 20
-3.224759419759114
 10
1.84788343641493
 20
-3.221497429741753
 10
1.846800062391492
 20
-3.218211703830295
 97
        0
 97
        1
330
8A
 75
     2
 76
     1
 98
        1
 10
0.0
 20
0.0
450
        0
451
        0
460
0.0
461
0.0
452
        0
462
0.0
453
        0
470

  0
INSERT
  5
8D
330
70
100
AcDbEntity
  8
Amara's 4th
100
AcDbBlockReference
  2
Block_0
 10
0.0
 20
0.0
 30
0.0
  0
SPLINE
  5
9E
330
70
100
AcDbEntity
  8
Amara's 4th
100
AcDbSpline
210
0.0
220
0.0
230
1.0
 70
     9
 71
     3
 72
    38
 73
    34
 74
     0
 42
0.0000000001
 43
0.0000000001
 40
0.0
 40
0.0
 40
0.0
 40
0.0
 40
1.0
 40
1.0
 40
1.0
 40
2.0
 40
2.0
 40
2.0
 40
3.0
 40
3.0
 40
3.0
 40
4.0
 40
4.0
 40
4.0
 40
5.0
 40
5.0
 40
5.0
 40
6.0
 40
6.0
 40
6.0
 40
7.0
 40
7.0
 40
7.0
 40
8.0
 40
8.0
 40
8.0
 40
9.0
 40
9.0
 40
9.0
 40
10.0
 40
10.0
 40
10.0
 40
11.0
 40
11.0
 40
11.0
 40
11.0
 10
0.9522830901318128
 20
-2.512247119664178
 30
0.0
 10
0.9522830901318128
 20
-2.512247119664178
 30
0.0
 10
0.9522830901318128
 20
-2.498401755607851
 30
0.0
 10
0.9522830901318128
 20
-2.498401755607851
 30
0.0
 10
0.9522830901318128
 20
-2.481448248600094
 30
0.0
 10
0.9475704188385837
 20
-2.472971495096215
 30
0.0
 10
0.9381551676253568
 20
-2.472971495096215
 30
0.0
 10
0.9309902926399393
 20
-2.472971495096215
 30
0.0
 10
0.9243098035690183
 20
-2.476826399665823
 30
0.0
 10
0.9180935176661806
 20
-2.4845563915515
 30
0.0
 10
0.9180935176661806
 20
-2.4845563915515
 30
0.0
 10
0.8745795163462792
 20
-2.537959938625943
 30
0.0
 10
0.8745795163462792
 20
-2.537959938625943
 30
0.0
 10
0.8619552084494317
 20
-2.55360156711524
 30
0.0
 10
0.8556481001876111
 20
-2.564802991388205
 30
0.0
 10
0.8556481001876111
 20
-2.571584394191303
 30
0.0
 10
0.8556481001876111
 20
-2.576488801575704
 30
0.0
 10
0.8582819485977527
 20
-2.579637310019986
 30
0.0
 10
0.8635597367912295
 20
-2.581050102270637
 30
0.0
 10
0.8688274336115
 20
-2.582462894521288
 30
0.0
 10
0.8819260360496375
 20
-2.583451849096743
 30
0.0
 10
0.902835361359204
 20
-2.584016965997003
 30
0.0
 10
0.902835361359204
 20
-2.584016965997003
 30
0.0
 10
0.9251574789194085
 20
-2.584299524447133
 30
0.0
 10
0.9251574789194085
 20
-2.584299524447133
 30
0.0
 10
0.9347644662238078
 20
-2.584299524447133
 30
0.0
 10
0.9412633105767756
 20
-2.583209656139489
 30
0.0
 10
0.9446540119783245
 20
-2.581050102270637
 30
0.0
 10
0.9480447133798735
 20
-2.578890548401785
 30
0.0
 10
0.9500226225307844
 20
-2.574591623410545
 30
0.0
 10
0.9505877394310447
 20
-2.568193692789766
 30
0.0
 10
0.9517179732315526
 20
-2.557839943867166
 30
0.0
 10
0.9522830901318128
 20
-2.539191086158628
 30
0.0
 10
0.9522830901318128
 20
-2.512247119664178
 30
0.0
  0
SPLINE
  5
9F
330
70
100
AcDbEntity
  8
Amara's 4th
100
AcDbSpline
210
0.0
220
0.0
230
1.0
 70
     9
 71
     3
 72
    89
 73
    85
 74
     0
 42
0.0000000001
 43
0.0000000001
 40
0.0
 40
0.0
 40
0.0
 40
0.0
 40
1.0
 40
1.0
 40
1.0
 40
2.0
 40
2.0
 40
2.0
 40
3.0
 40
3.0
 40
3.0
 40
4.0
 40
4.0
 40
4.0
 40
5.0
 40
5.0
 40
5.0
 40
6.0
 40
6.0
 40
6.0
 40
7.0
 40
7.0
 40
7.0
 40
8.0
 40
8.0
 40
8.0
 40
9.0
 40
9.0
 40
9.0
 40
10.0
 40
10.0
 40
10.0
 40
11.0
 40
11.0
 40
11.0
 40
12.0
 40
12.0
 40
12.0
 40
13.0
 40
13.0
 40
13.0
 40
14.0
 40
14.0
 40
14.0
 40
15.0
 40
15.0
 40
15.0
 40
16.0
 40
16.0
 40
16.0
 40
17.0
 40
17.0
 40
17.0
 40
18.0
 40
18.0
 40
18.0
 40
19.0
 40
19.0
 40
19.0
 40
20.0
 40
20.0
 40
20.0
 40
21.0
 40
21.0
 40
21.0
 40
22.0
 40
22.0
 40
22.0
 40
23.0
 40
23.0
 40
23.0
 40
24.0
 40
24.0
 40
24.0
 40
25.0
 40
25.0
 40
25.0
 40
26.0
 40
26.0
 40
26.0
 40
27.0
 40
27.0
 40
27.0
 40
28.0
 40
28.0
 40
28.0
 40
28.0
 10
1.070957639186089
 20
-2.365599284047094
 30
0.0
 10
1.070957639186089
 20
-2.365599284047094
 30
0.0
 10
1.070957639186089
 20
-2.560847173086408
 30
0.0
 10
1.070957639186089
 20
-2.560847173086408
 30
0.0
 10
1.070957639186089
 20
-2.566679986806926
 30
0.0
 10
1.071754857670384
 20
-2.570696353348062
 30
0.0
 10
1.073359386012195
 20
-2.572855907216888
 30
0.0
 10
1.074953822980761
 20
-2.57501546108574
 30
0.0
 10
1.077920686707127
 20
-2.576105329393385
 30
0.0
 10
1.082259977191269
 20
-2.576105329393385
 30
0.0
 10
1.082259977191269
 20
-2.576105329393385
 30
0.0
 10
1.094127432096684
 20
-2.576105329393385
 30
0.0
 10
1.094127432096684
 20
-2.576105329393385
 30
0.0
 10
1.102977566409663
 20
-2.575923684675444
 30
0.0
 10
1.10758932397069
 20
-2.581292295227891
 30
0.0
 10
1.107972796153009
 20
-2.592211161050752
 30
0.0
 10
1.107972796153009
 20
-2.592211161050752
 30
0.0
 10
1.107972796153009
 20
-2.649570526426991
 30
0.0
 10
1.107972796153009
 20
-2.649570526426991
 30
0.0
 10
1.107972796153009
 20
-2.659560985913685
 30
0.0
 10
1.102886744050667
 20
-2.665212154916288
 30
0.0
 10
1.092714639846033
 20
-2.666524033434749
 30
0.0
 10
1.086114881760901
 20
-2.667270795052925
 30
0.0
 10
1.081977418741138
 20
-2.668501942585635
 30
0.0
 10
1.080282068040358
 20
-2.670197293286415
 30
0.0
 10
1.078586717339577
 20
-2.671892643987196
 30
0.0
 10
1.077739041989187
 20
-2.675949376021182
 30
0.0
 10
1.077739041989187
 20
-2.682347306641986
 30
0.0
 10
1.077739041989187
 20
-2.682347306641986
 30
0.0
 10
1.077739041989187
 20
-2.715689203757215
 30
0.0
 10
1.077739041989187
 20
-2.715689203757215
 30
0.0
 10
1.078485803607387
 20
-2.727556658662655
 30
0.0
 10
1.07302637069597
 20
-2.733772944565493
 30
0.0
 10
1.061350651881702
 20
-2.734338061465753
 30
0.0
 10
1.061350651881702
 20
-2.734338061465753
 30
0.0
 10
0.9647156619375007
 20
-2.734338061465753
 30
0.0
 10
0.9647156619375007
 20
-2.734338061465753
 30
0.0
 10
0.9579342591344028
 20
-2.734338061465753
 30
0.0
 10
0.9535041462913037
 20
-2.733167462172357
 30
0.0
 10
0.9514354147814223
 20
-2.730806080839127
 30
0.0
 10
0.9493565918983348
 20
-2.728444699505921
 30
0.0
 10
0.9483272718300035
 20
-2.723419195642893
 30
0.0
 10
0.9483272718300035
 20
-2.715689203757215
 30
0.0
 10
0.9483272718300035
 20
-2.715689203757215
 30
0.0
 10
0.9483272718300035
 20
-2.686585683393913
 30
0.0
 10
0.9483272718300035
 20
-2.686585683393913
 30
0.0
 10
0.9483272718300035
 20
-2.678674046790294
 30
0.0
 10
0.9468135658471762
 20
-2.673164157012782
 30
0.0
 10
0.943806336627934
 20
-2.67005601406135
 30
0.0
 10
0.9407890160354856
 20
-2.666947871109919
 30
0.0
 10
0.9355112278419962
 20
-2.665393799634228
 30
0.0
 10
0.9279830634206973
 20
-2.665393799634228
 30
0.0
 10
0.9279830634206973
 20
-2.665393799634228
 30
0.0
 10
0.8177852678702997
 20
-2.665393799634228
 30
0.0
 10
0.8177852678702997
 20
-2.665393799634228
 30
0.0
 10
0.8045958430731918
 20
-2.665393799634228
 30
0.0
 10
0.7953218710850302
 20
-2.662608580625803
 30
0.0
 10
0.7899532605325704
 20
-2.657058325355415
 30
0.0
 10
0.7845846499801104
 20
-2.651508070085002
 30
0.0
 10
0.7819003447038869
 20
-2.641941448273503
 30
0.0
 10
0.7819003447038869
 20
-2.628378642667283
 30
0.0
 10
0.7819003447038869
 20
-2.61029490185903
 30
0.0
 10
0.7840598985727258
 20
-2.596166979352549
 30
0.0
 10
0.7883991890568546
 20
-2.585994875147914
 30
0.0
 10
0.7936668858771251
 20
-2.573380658624273
 30
0.0
 10
0.8088342198251313
 20
-2.552087861132399
 30
0.0
 10
0.8338910995276666
 20
-2.522136665418706
 30
0.0
 10
0.8338910995276666
 20
-2.522136665418706
 30
0.0
 10
0.9056609458604928
 20
-2.435956338129269
 30
0.0
 10
0.9056609458604928
 20
-2.435956338129269
 30
0.0
 10
0.9416366913858761
 20
-2.3928258089917
 30
0.0
 10
0.9681971856980201
 20
-2.365316725596964
 30
0.0
 10
0.9853424287969371
 20
-2.353449270691549
 30
0.0
 10
0.9930623293093958
 20
-2.348181573871265
 30
0.0
 10
1.002437215029759
 20
-2.34384228338715
 30
0.0
 10
1.013456994584796
 20
-2.340451581985588
 30
0.0
 10
1.024476774139833
 20
-2.337060880584052
 30
0.0
 10
1.034790157569545
 20
-2.335365529883271
 30
0.0
 10
1.044397144873945
 20
-2.335365529883271
 30
0.0
 10
1.053812396087184
 20
-2.335365529883271
 30
0.0
 10
1.060593798890282
 20
-2.337726911216501
 30
0.0
 10
1.064741353283251
 20
-2.342429491136499
 30
0.0
 10
1.068878816303001
 20
-2.347132071056522
 30
0.0
 10
1.070957639186089
 20
-2.3548620629422
 30
0.0
 10
1.070957639186089
 20
-2.365599284047094
 30
0.0
  0
HATCH
  5
A0
330
70
100
AcDbEntity
  8
Amara's 4th
 62
     6
420
 15859967
440
 33554687
100
AcDbHatch
 10
0.0
 20
0.0
 30
0.0
210
0.0
220
0.0
230
1.0
  2
SOLID
 70
     1
 71
     1
 91
        2
 92
        1
 93
        1
 72
     4
 94
        3
 73
     0
 74
     0
 95
       38
 96
       34
 40
0.0
 40
0.0
 40
0.0
 40
0.0
 40
1.0
 40
1.0
 40
1.0
 40
2.0
 40
2.0
 40
2.0
 40
3.0
 40
3.0
 40
3.0
 40
4.0
 40
4.0
 40
4.0
 40
5.0
 40
5.0
 40
5.0
 40
6.0
 40
6.0
 40
6.0
 40
7.0
 40
7.0
 40
7.0
 40
8.0
 40
8.0
 40
8.0
 40
9.0
 40
9.0
 40
9.0
 40
10.0
 40
10.0
 40
10.0
 40
11.0
 40
11.0
 40
11.0
 40
11.0
 10
0.9522830901318128
 20
-2.512247119664178
 10
0.9522830901318128
 20
-2.512247119664178
 10
0.9522830901318128
 20
-2.498401755607851
 10
0.9522830901318128
 20
-2.498401755607851
 10
0.9522830901318128
 20
-2.481448248600094
 10
0.9475704188385837
 20
-2.472971495096215
 10
0.9381551676253568
 20
-2.472971495096215
 10
0.9309902926399393
 20
-2.472971495096215
 10
0.9243098035690183
 20
-2.476826399665823
 10
0.9180935176661806
 20
-2.4845563915515
 10
0.9180935176661806
 20
-2.4845563915515
 10
0.8745795163462792
 20
-2.537959938625943
 10
0.8745795163462792
 20
-2.537959938625943
 10
0.8619552084494317
 20
-2.55360156711524
 10
0.8556481001876111
 20
-2.564802991388205
 10
0.8556481001876111
 20
-2.571584394191303
 10
0.8556481001876111
 20
-2.576488801575704
 10
0.8582819485977527
 20
-2.579637310019986
 10
0.8635597367912295
 20
-2.581050102270637
 10
0.8688274336115
 20
-2.582462894521288
 10
0.8819260360496375
 20
-2.583451849096743
 10
0.902835361359204
 20
-2.584016965997003
 10
0.902835361359204
 20
-2.584016965997003
 10
0.9251574789194085
 20
-2.584299524447133
 10
0.9251574789194085
 20
-2.584299524447133
 10
0.9347644662238078
 20
-2.584299524447133
 10
0.9412633105767756
 20
-2.583209656139489
 10
0.9446540119783245
 20
-2.581050102270637
 10
0.9480447133798735
 20
-2.578890548401785
 10
0.9500226225307844
 20
-2.574591623410545
 10
0.9505877394310447
 20
-2.568193692789766
 10
0.9517179732315526
 20
-2.557839943867166
 10
0.9522830901318128
 20
-2.539191086158628
 10
0.9522830901318128
 20
-2.512247119664178
 97
        0
 97
        1
330
9E
 92
        1
 93
        1
 72
     4
 94
        3
 73
     0
 74
     0
 95
       89
 96
       85
 40
0.0
 40
0.0
 40
0.0
 40
0.0
 40
1.0
 40
1.0
 40
1.0
 40
2.0
 40
2.0
 40
2.0
 40
3.0
 40
3.0
 40
3.0
 40
4.0
 40
4.0
 40
4.0
 40
5.0
 40
5.0
 40
5.0
 40
6.0
 40
6.0
 40
6.0
 40
7.0
 40
7.0
 40
7.0
 40
8.0
 40
8.0
 40
8.0
 40
9.0
 40
9.0
 40
9.0
 40
10.0
 40
10.0
 40
10.0
 40
11.0
 40
11.0
 40
11.0
 40
12.0
 40
12.0
 40
12.0
 40
13.0
 40
13.0
 40
13.0
 40
14.0
 40
14.0
 40
14.0
 40
15.0
 40
15.0
 40
15.0
 40
16.0
 40
16.0
 40
16.0
 40
17.0
 40
17.0
 40
17.0
 40
18.0
 40
18.0
 40
18.0
 40
19.0
 40
19.0
 40
19.0
 40
20.0
 40
20.0
 40
20.0
 40
21.0
 40
21.0
 40
21.0
 40
22.0
 40
22.0
 40
22.0
 40
23.0
 40
23.0
 40
23.0
 40
24.0
 40
24.0
 40
24.0
 40
25.0
 40
25.0
 40
25.0
 40
26.0
 40
26.0
 40
26.0
 40
27.0
 40
27.0
 40
27.0
 40
28.0
 40
28.0
 40
28.0
 40
28.0
 10
1.070957639186089
 20
-2.365599284047094
 10
1.070957639186089
 20
-2.365599284047094
 10
1.070957639186089
 20
-2.560847173086408
 10
1.070957639186089
 20
-2.560847173086408
 10
1.070957639186089
 20
-2.566679986806926
 10
1.071754857670384
 20
-2.570696353348062
 10
1.073359386012195
 20
-2.572855907216888
 10
1.074953822980761
 20
-2.57501546108574
 10
1.077920686707127
 20
-2.576105329393385
 10
1.082259977191269
 20
-2.576105329393385
 10
1.082259977191269
 20
-2.576105329393385
 10
1.094127432096684
 20
-2.576105329393385
 10
1.094127432096684
 20
-2.576105329393385
 10
1.102977566409663
 20
-2.575923684675444
 10
1.10758932397069
 20
-2.581292295227891
 10
1.107972796153009
 20
-2.592211161050752
 10
1.107972796153009
 20
-2.592211161050752
 10
1.107972796153009
 20
-2.649570526426991
 10
1.107972796153009
 20
-2.649570526426991
 10
1.107972796153009
 20
-2.659560985913685
 10
1.102886744050667
 20
-2.665212154916288
 10
1.092714639846033
 20
-2.666524033434749
 10
1.086114881760901
 20
-2.667270795052925
 10
1.081977418741138
 20
-2.668501942585635
 10
1.080282068040358
 20
-2.670197293286415
 10
1.078586717339577
 20
-2.671892643987196
 10
1.077739041989187
 20
-2.675949376021182
 10
1.077739041989187
 20
-2.682347306641986
 10
1.077739041989187
 20
-2.682347306641986
 10
1.077739041989187
 20
-2.715689203757215
 10
1.077739041989187
 20
-2.715689203757215
 10
1.078485803607387
 20
-2.727556658662655
 10
1.07302637069597
 20
-2.733772944565493
 10
1.061350651881702
 20
-2.734338061465753
 10
1.061350651881702
 20
-2.734338061465753
 10
0.9647156619375007
 20
-2.734338061465753
 10
0.9647156619375007
 20
-2.734338061465753
 10
0.9579342591344028
 20
-2.734338061465753
 10
0.9535041462913037
 20
-2.733167462172357
 10
0.9514354147814223
 20
-2.730806080839127
 10
0.9493565918983348
 20
-2.728444699505921
 10
0.9483272718300035
 20
-2.723419195642893
 10
0.9483272718300035
 20
-2.715689203757215
 10
0.9483272718300035
 20
-2.715689203757215
 10
0.9483272718300035
 20
-2.686585683393913
 10
0.9483272718300035
 20
-2.686585683393913
 10
0.9483272718300035
 20
-2.678674046790294
 10
0.9468135658471762
 20
-2.673164157012782
 10
0.943806336627934
 20
-2.67005601406135
 10
0.9407890160354856
 20
-2.666947871109919
 10
0.9355112278419962
 20
-2.665393799634228
 10
0.9279830634206973
 20
-2.665393799634228
 10
0.9279830634206973
 20
-2.665393799634228
 10
0.8177852678702997
 20
-2.665393799634228
 10
0.8177852678702997
 20
-2.665393799634228
 10
0.8045958430731918
 20
-2.665393799634228
 10
0.7953218710850302
 20
-2.662608580625803
 10
0.7899532605325704
 20
-2.657058325355415
 10
0.7845846499801104
 20
-2.651508070085002
 10
0.7819003447038869
 20
-2.641941448273503
 10
0.7819003447038869
 20
-2.628378642667283
 10
0.7819003447038869
 20
-2.61029490185903
 10
0.7840598985727258
 20
-2.596166979352549
 10
0.7883991890568546
 20
-2.585994875147914
 10
0.7936668858771251
 20
-2.573380658624273
 10
0.8088342198251313
 20
-2.552087861132399
 10
0.8338910995276666
 20
-2.522136665418706
 10
0.8338910995276666
 20
-2.522136665418706
 10
0.9056609458604928
 20
-2.435956338129269
 10
0.9056609458604928
 20
-2.435956338129269
 10
0.9416366913858761
 20
-2.3928258089917
 10
0.9681971856980201
 20
-2.365316725596964
 10
0.9853424287969371
 20
-2.353449270691549
 10
0.9930623293093958
 20
-2.348181573871265
 10
1.002437215029759
 20
-2.34384228338715
 10
1.013456994584796
 20
-2.340451581985588
 10
1.024476774139833
 20
-2.337060880584052
 10
1.034790157569545
 20
-2.335365529883271
 10
1.044397144873945
 20
-2.335365529883271
 10
1.053812396087184
 20
-2.335365529883271
 10
1.060593798890282
 20
-2.337726911216501
 10
1.064741353283251
 20
-2.342429491136499
 10
1.068878816303001
 20
-2.347132071056522
 10
1.070957639186089
 20
-2.3548620629422
 10
1.070957639186089
 20
-2.365599284047094
 97
        0
 97
        1
330
9F
 75
     2
 76
     1
 98
        1
 10
0.0
 20
0.0
450
        0
451
        0
460
0.0
461
0.0
452
        0
462
0.0
453
        0
470

  0
SPLINE
  5
A1
330
70
100
AcDbEntity
  8
Amara's 4th
100
AcDbSpline
210
0.0
220
0.0
230
1.0
 70
     9
 71
     3
 72
    47
 73
    43
 74
     0
 42
0.0000000001
 43
0.0000000001
 40
0.0
 40
0.0
 40
0.0
 40
0.0
 40
1.0
 40
1.0
 40
1.0
 40
2.0
 40
2.0
 40
2.0
 40
3.0
 40
3.0
 40
3.0
 40
4.0
 40
4.0
 40
4.0
 40
5.0
 40
5.0
 40
5.0
 40
6.0
 40
6.0
 40
6.0
 40
7.0
 40
7.0
 40
7.0
 40
8.0
 40
8.0
 40
8.0
 40
9.0
 40
9.0
 40
9.0
 40
10.0
 40
10.0
 40
10.0
 40
11.0
 40
11.0
 40
11.0
 40
12.0
 40
12.0
 40
12.0
 40
13.0
 40
13.0
 40
13.0
 40
14.0
 40
14.0
 40
14.0
 40
14.0
 10
1.691792805989583
 20
-3.16522471110026
 30
0.0
 10
1.651561313205295
 20
-3.139354281955295
 30
0.0
 10
1.609391106499565
 20
-3.118184407552083
 30
0.0
 10
1.561131795247395
 20
-3.111926608615451
 30
0.0
 10
1.527500576443142
 20
-3.107565138075086
 30
0.0
 10
1.494359334309895
 20
-3.111968994140625
 30
0.0
 10
1.461138407389322
 20
-3.116715325249565
 30
0.0
 10
1.427627563476562
 20
-3.121502346462673
 30
0.0
 10
1.393992106119791
 20
-3.125414530436197
 30
0.0
 10
1.36039818657769
 20
-3.129609002007378
 30
0.0
 10
1.358189900716145
 20
-3.129884507921006
 30
0.0
 10
1.355873955620659
 20
-3.129293653700086
 30
0.0
 10
1.353608025444878
 20
-3.129105461968315
 30
0.0
 10
1.401596069335937
 20
-3.120680914984808
 30
0.0
 10
1.445040384928385
 20
-3.100053575303819
 30
0.0
 10
1.489923265245225
 20
-3.084034389919704
 30
0.0
 10
1.513894822862413
 20
-3.075478447808159
 30
0.0
 10
1.51434326171875
 20
-3.075062221950954
 30
0.0
 10
1.511604309082031
 20
-3.049767388237846
 30
0.0
 10
1.5086915757921
 20
-3.022869533962673
 30
0.0
 10
1.504341973198784
 20
-2.996130201551649
 30
0.0
 10
1.501041836208767
 20
-2.969268798828125
 30
0.0
 10
1.499889797634548
 20
-2.959898206922742
 30
0.0
 10
1.499995761447482
 20
-2.950373331705728
 30
0.0
 10
1.499559190538194
 20
-2.941558837890625
 30
0.0
 10
1.568654378255208
 20
-2.923760308159721
 30
0.0
 10
1.63326687282986
 20
-2.931698269314236
 30
0.0
 10
1.695571899414062
 20
-2.966756184895833
 30
0.0
 10
1.63236575656467
 20
-2.970067342122395
 30
0.0
 10
1.589250352647569
 20
-3.011791653103298
 30
0.0
 10
1.541404724121093
 20
-3.045777214898003
 30
0.0
 10
1.550698174370659
 20
-3.047335306803385
 30
0.0
 10
1.56018320719401
 20
-3.048373752170138
 30
0.0
 10
1.569391038682725
 20
-3.050574408637152
 30
0.0
 10
1.597584194607204
 20
-3.057312859429253
 30
0.0
 10
1.621559143066406
 20
-3.072154574924045
 30
0.0
 10
1.643338521321614
 20
-3.090724521213107
 30
0.0
 10
1.675937228732638
 20
-3.118519253200954
 30
0.0
 10
1.702756245930989
 20
-3.15137227376302
 30
0.0
 10
1.72575208875868
 20
-3.187976413302951
 30
0.0
 10
1.714440239800347
 20
-3.18038092719184
 30
0.0
 10
1.703251308865017
 20
-3.17259301079644
 30
0.0
 10
1.691792805989583
 20
-3.16522471110026
 30
0.0
  0
SPLINE
  5
A2
330
70
100
AcDbEntity
  8
Amara's 4th
100
AcDbSpline
210
0.0
220
0.0
230
1.0
 70
     9
 71
     3
 72
    50
 73
    46
 74
     0
 42
0.0000000001
 43
0.0000000001
 40
0.0
 40
0.0
 40
0.0
 40
0.0
 40
1.0
 40
1.0
 40
1.0
 40
2.0
 40
2.0
 40
2.0
 40
3.0
 40
3.0
 40
3.0
 40
4.0
 40
4.0
 40
4.0
 40
5.0
 40
5.0
 40
5.0
 40
6.0
 40
6.0
 40
6.0
 40
7.0
 40
7.0
 40
7.0
 40
8.0
 40
8.0
 40
8.0
 40
9.0
 40
9.0
 40
9.0
 40
10.0
 40
10.0
 40
10.0
 40
11.0
 40
11.0
 40
11.0
 40
12.0
 40
12.0
 40
12.0
 40
13.0
 40
13.0
 40
13.0
 40
14.0
 40
14.0
 40
14.0
 40
15.0
 40
15.0
 40
15.0
 40
15.0
 10
1.137513902452256
 20
-3.001494513617621
 30
0.0
 10
1.066802978515625
 20
-2.989551120334201
 30
0.0
 10
0.9952163696289062
 20
-2.987068176269531
 30
0.0
 10
0.9237874348958332
 20
-2.991705152723524
 30
0.0
 10
0.8537826538085937
 20
-2.996249728732638
 30
0.0
 10
0.7836396959092883
 20
-3.001595391167534
 30
0.0
 10
0.7142062717013889
 20
-3.011254204644096
 30
0.0
 10
0.6361533270941841
 20
-3.022112528483072
 30
0.0
 10
0.5588099161783854
 20
-3.038099500868055
 30
0.0
 10
0.4811960856119791
 20
-3.052069769965277
 30
0.0
 10
0.4636035495334201
 20
-3.055235968695746
 30
0.0
 10
0.446168687608507
 20
-3.059282938639322
 30
0.0
 10
0.4255710177951389
 20
-3.063567267523871
 30
0.0
 10
0.4464653862847223
 20
-2.991663614908853
 30
0.0
 10
0.4435882568359375
 20
-2.922107272677951
 30
0.0
 10
0.4224014282226563
 20
-2.85193379720052
 30
0.0
 10
0.4470765855577258
 20
-2.845758226182725
 30
0.0
 10
0.4703301323784723
 20
-2.838874816894531
 30
0.0
 10
0.4940194023980035
 20
-2.834203932020399
 30
0.0
 10
0.5729666815863716
 20
-2.818637424045138
 30
0.0
 10
0.6518444485134549
 20
-2.802521599663628
 30
0.0
 10
0.7311799791124133
 20
-2.789183722601996
 30
0.0
 10
0.8040135701497394
 20
-2.776940239800346
 30
0.0
 10
0.8777279324001735
 20
-2.769634670681423
 30
0.0
 10
0.9516152275933158
 20
-2.771519131130642
 30
0.0
 10
1.012584262424045
 20
-2.773072984483506
 30
0.0
 10
1.073710123697916
 20
-2.77718522813585
 30
0.0
 10
1.134255303276909
 20
-2.784436543782551
 30
0.0
 10
1.211340162489149
 20
-2.793668958875867
 30
0.0
 10
1.288115607367621
 20
-2.806023491753471
 30
0.0
 10
1.364616394042968
 20
-2.819371541341145
 30
0.0
 10
1.404938591851128
 20
-2.826407538519965
 30
0.0
 10
1.444400363498263
 20
-2.838389926486545
 30
0.0
 10
1.484227498372395
 20
-2.848231845431857
 30
0.0
 10
1.488004048665364
 20
-2.84916517469618
 30
0.0
 10
1.491616143120659
 20
-2.850762261284721
 30
0.0
 10
1.496441311306423
 20
-2.852448357476128
 30
0.0
 10
1.4754884507921
 20
-2.922044542100694
 30
0.0
 10
1.472407023111979
 20
-2.991597493489583
 30
0.0
 10
1.493414984809027
 20
-3.063507080078125
 30
0.0
 10
1.474096510145399
 20
-3.060518052842881
 30
0.0
 10
1.456908331976996
 20
-3.058192782931857
 30
0.0
 10
1.439845614963107
 20
-3.055165608723958
 30
0.0
 10
1.339065551757812
 20
-3.037284851074218
 30
0.0
 10
1.238433837890625
 20
-3.018538581000433
 30
0.0
 10
1.137513902452256
 20
-3.001494513617621
 30
0.0
  0
SPLINE
  5
A3
330
70
100
AcDbEntity
  8
Amara's 4th
100
AcDbSpline
210
0.0
220
0.0
230
1.0
 70
     9
 71
     3
 72
    47
 73
    43
 74
     0
 42
0.0000000001
 43
0.0000000001
 40
0.0
 40
0.0
 40
0.0
 40
0.0
 40
1.0
 40
1.0
 40
1.0
 40
2.0
 40
2.0
 40
2.0
 40
3.0
 40
3.0
 40
3.0
 40
4.0
 40
4.0
 40
4.0
 40
5.0
 40
5.0
 40
5.0
 40
6.0
 40
6.0
 40
6.0
 40
7.0
 40
7.0
 40
7.0
 40
8.0
 40
8.0
 40
8.0
 40
9.0
 40
9.0
 40
9.0
 40
10.0
 40
10.0
 40
10.0
 40
11.0
 40
11.0
 40
11.0
 40
12.0
 40
12.0
 40
12.0
 40
13.0
 40
13.0
 40
13.0
 40
14.0
 40
14.0
 40
14.0
 40
14.0
 10
0.5281431410047743
 20
-3.126749674479166
 30
0.0
 10
0.4874411688910591
 20
-3.121632046169704
 30
0.0
 10
0.4468756781684028
 20
-3.115277608235676
 30
0.0
 10
0.4060889350043403
 20
-3.111012776692708
 30
0.0
 10
0.354292975531684
 20
-3.10559590657552
 30
0.0
 10
0.30645751953125
 20
-3.11987559000651
 30
0.0
 10
0.2617255316840278
 20
-3.144961886935763
 30
0.0
 10
0.2405446370442708
 20
-3.156840006510416
 30
0.0
 10
0.2204479641384549
 20
-3.170652601453992
 30
0.0
 10
0.1998621622721354
 20
-3.183592054578992
 30
0.0
 10
0.1976793077256944
 20
-3.18496365017361
 30
0.0
 10
0.1955117119683159
 20
-3.186360677083333
 30
0.0
 10
0.1925260755750868
 20
-3.186559041341145
 30
0.0
 10
0.2412507798936632
 20
-3.122627258300781
 30
0.0
 10
0.2874230278862847
 20
-3.05548350016276
 30
0.0
 10
0.3771947224934895
 20
-3.045657687717013
 30
0.0
 10
0.321395026312934
 20
-3.007464090983072
 30
0.0
 10
0.305066426595052
 20
-2.979937235514322
 30
0.0
 10
0.2216644287109375
 20
-2.966084798177083
 30
0.0
 10
0.2850765652126736
 20
-2.931971232096353
 30
0.0
 10
0.349456787109375
 20
-2.923351711697048
 30
0.0
 10
0.4197209676106771
 20
-2.941857231987846
 30
0.0
 10
0.4187282986111111
 20
-2.954817877875433
 30
0.0
 10
0.4181264241536458
 20
-2.969727410210503
 30
0.0
 10
0.4163343641493056
 20
-2.984492831759982
 30
0.0
 10
0.4131673177083333
 20
-3.01058366563585
 30
0.0
 10
0.4090949164496528
 20
-3.036563449435763
 30
0.0
 10
0.4058236016167535
 20
-3.062643263075086
 30
0.0
 10
0.4050954182942708
 20
-3.068454318576388
 30
0.0
 10
0.402801513671875
 20
-3.07513427734375
 30
0.0
 10
0.4119805230034723
 20
-3.078214857313367
 30
0.0
 10
0.4546398586697049
 20
-3.092529296875
 30
0.0
 10
0.4970753987630208
 20
-3.10750749376085
 30
0.0
 10
0.5397330390082466
 20
-3.121825324164496
 30
0.0
 10
0.5479566786024306
 20
-3.124585469563801
 30
0.0
 10
0.5568152533637153
 20
-3.12545182969835
 30
0.0
 10
0.565381368001302
 20
-3.127192179361979
 30
0.0
 10
0.5654084947374133
 20
-3.128072950575086
 30
0.0
 10
0.5654364691840278
 20
-3.128953721788194
 30
0.0
 10
0.5654644436306424
 20
-3.129834493001301
 30
0.0
 10
0.5530209011501736
 20
-3.128835042317708
 30
0.0
 10
0.5405171712239583
 20
-3.128305223253037
 30
0.0
 10
0.5281431410047743
 20
-3.126749674479166
 30
0.0
  0
SPLINE
  5
A4
330
70
100
AcDbEntity
  8
Amara's 4th
100
AcDbSpline
210
0.0
220
0.0
230
1.0
 70
     9
 71
     3
 72
    74
 73
    70
 74
     0
 42
0.0000000001
 43
0.0000000001
 40
0.0
 40
0.0
 40
0.0
 40
0.0
 40
1.0
 40
1.0
 40
1.0
 40
2.0
 40
2.0
 40
2.0
 40
3.0
 40
3.0
 40
3.0
 40
4.0
 40
4.0
 40
4.0
 40
5.0
 40
5.0
 40
5.0
 40
6.0
 40
6.0
 40
6.0
 40
7.0
 40
7.0
 40
7.0
 40
8.0
 40
8.0
 40
8.0
 40
9.0
 40
9.0
 40
9.0
 40
10.0
 40
10.0
 40
10.0
 40
11.0
 40
11.0
 40
11.0
 40
12.0
 40
12.0
 40
12.0
 40
13.0
 40
13.0
 40
13.0
 40
14.0
 40
14.0
 40
14.0
 40
15.0
 40
15.0
 40
15.0
 40
16.0
 40
16.0
 40
16.0
 40
17.0
 40
17.0
 40
17.0
 40
18.0
 40
18.0
 40
18.0
 40
19.0
 40
19.0
 40
19.0
 40
20.0
 40
20.0
 40
20.0
 40
21.0
 40
21.0
 40
21.0
 40
22.0
 40
22.0
 40
22.0
 40
23.0
 40
23.0
 40
23.0
 40
23.0
 10
0.6704330444335938
 20
-2.770068698459201
 30
0.0
 10
0.6669074164496528
 20
-2.761509365505642
 30
0.0
 10
0.6634089152018229
 20
-2.75293223063151
 30
0.0
 10
0.6602138943142361
 20
-2.744160970052083
 30
0.0
 10
0.6379911634657117
 20
-2.683151245117187
 30
0.0
 10
0.6244125366210938
 20
-2.620104471842447
 30
0.0
 10
0.6158023410373264
 20
-2.555865817599826
 30
0.0
 10
0.6125996907552083
 20
-2.531972249348958
 30
0.0
 10
0.610520256890191
 20
-2.507972717285156
 30
0.0
 10
0.6079372829861111
 20
-2.484019809299045
 30
0.0
 10
0.607346428765191
 20
-2.478539360894096
 30
0.0
 10
0.6087892320421008
 20
-2.476398044162326
 30
0.0
 10
0.6146689520941841
 20
-2.475608825683593
 30
0.0
 10
0.632966783311632
 20
-2.473153008355034
 30
0.0
 10
0.6478322347005208
 20
-2.463116963704426
 30
0.0
 10
0.6620881822374133
 20
-2.452245076497395
 30
0.0
 10
0.6897023518880208
 20
-2.431185404459635
 30
0.0
 10
0.7091878255208333
 20
-2.404617309570312
 30
0.0
 10
0.7166510687934028
 20
-2.370148552788628
 30
0.0
 10
0.7180277506510416
 20
-2.36379157172309
 30
0.0
 10
0.718446519639757
 20
-2.357287089029947
 30
0.0
 10
0.7176615397135416
 20
-2.350795321994357
 30
0.0
 10
0.7171113755967883
 20
-2.346241421169704
 30
0.0
 10
0.7185448540581598
 20
-2.3436525132921
 30
0.0
 10
0.7232013278537326
 20
-2.341979132758246
 30
0.0
 10
0.7763231065538195
 20
-2.322882758246527
 30
0.0
 10
0.8306130303276908
 20
-2.308720058865017
 30
0.0
 10
0.8867526584201389
 20
-2.301887512207031
 30
0.0
 10
0.9132436116536457
 20
-2.298662821451822
 30
0.0
 10
0.9397956000434026
 20
-2.296991136338975
 30
0.0
 10
0.9683549669053819
 20
-2.296617296006944
 30
0.0
 10
1.043655395507812
 20
-2.297300550672742
 30
0.0
 10
1.118423461914062
 20
-2.310955471462673
 30
0.0
 10
1.190756056043836
 20
-2.338035583496093
 30
0.0
 10
1.195269266764322
 20
-2.339725070529513
 30
0.0
 10
1.19663831922743
 20
-2.342553032769096
 30
0.0
 10
1.197502136230468
 20
-2.346613566080729
 30
0.0
 10
1.202119615342881
 20
-2.368321736653645
 30
0.0
 10
1.209749857584635
 20
-2.388863457573784
 30
0.0
 10
1.221927218967013
 20
-2.407524108886718
 30
0.0
 10
1.241356743706597
 20
-2.437296549479166
 30
0.0
 10
1.268861558702256
 20
-2.456330193413628
 30
0.0
 10
1.3023681640625
 20
-2.467034233940971
 30
0.0
 10
1.307403564453125
 20
-2.468642340766058
 30
0.0
 10
1.309290568033854
 20
-2.470959133572048
 30
0.0
 10
1.309494018554687
 20
-2.476276821560329
 30
0.0
 10
1.3114259507921
 20
-2.52689954969618
 30
0.0
 10
1.308979458279079
 20
-2.577323913574218
 30
0.0
 10
1.301735772026909
 20
-2.627420213487412
 30
0.0
 10
1.294317457411024
 20
-2.678733825683593
 30
0.0
 10
1.281714545355902
 20
-2.728054470486111
 30
0.0
 10
1.26394314236111
 20
-2.775392320421006
 30
0.0
 10
1.266771104600694
 20
-2.77592298719618
 30
0.0
 10
1.269595675998263
 20
-2.776468912760416
 30
0.0
 10
1.272423638237847
 20
-2.777002970377604
 30
0.0
 10
1.26019795735677
 20
-2.774667527940537
 30
0.0
 10
1.247997707790798
 20
-2.772193060980902
 30
0.0
 10
1.235740661621093
 20
-2.770038180881076
 30
0.0
 10
1.168727450900607
 20
-2.758258395724826
 30
0.0
 10
1.100520663791232
 20
-2.751729329427083
 30
0.0
 10
1.03255632188585
 20
-2.747395833333333
 30
0.0
 10
0.9809112548828125
 20
-2.744103325737846
 30
0.0
 10
0.928739759657118
 20
-2.746499803331162
 30
0.0
 10
0.8769336276584201
 20
-2.749038696289062
 30
0.0
 10
0.8271425035264757
 20
-2.751479254828558
 30
0.0
 10
0.7773615519205729
 20
-2.75604502360026
 30
0.0
 10
0.7278578016493055
 20
-2.762016296386718
 30
0.0
 10
0.7086520724826389
 20
-2.764333089192708
 30
0.0
 10
0.6895260281032986
 20
-2.767109341091579
 30
0.0
 10
0.6704330444335938
 20
-2.770068698459201
 30
0.0
  0
SPLINE
  5
A5
330
70
100
AcDbEntity
  8
Amara's 4th
100
AcDbSpline
210
0.0
220
0.0
230
1.0
 70
     9
 71
     3
 72
   116
 73
   112
 74
     0
 42
0.0000000001
 43
0.0000000001
 40
0.0
 40
0.0
 40
0.0
 40
0.0
 40
1.0
 40
1.0
 40
1.0
 40
2.0
 40
2.0
 40
2.0
 40
3.0
 40
3.0
 40
3.0
 40
4.0
 40
4.0
 40
4.0
 40
5.0
 40
5.0
 40
5.0
 40
6.0
 40
6.0
 40
6.0
 40
7.0
 40
7.0
 40
7.0
 40
8.0
 40
8.0
 40
8.0
 40
9.0
 40
9.0
 40
9.0
 40
10.0
 40
10.0
 40
10.0
 40
11.0
 40
11.0
 40
11.0
 40
12.0
 40
12.0
 40
12.0
 40
13.0
 40
13.0
 40
13.0
 40
14.0
 40
14.0
 40
14.0
 40
15.0
 40
15.0
 40
15.0
 40
16.0
 40
16.0
 40
16.0
 40
17.0
 40
17.0
 40
17.0
 40
18.0
 40
18.0
 40
18.0
 40
19.0
 40
19.0
 40
19.0
 40
20.0
 40
20.0
 40
20.0
 40
21.0
 40
21.0
 40
21.0
 40
22.0
 40
22.0
 40
22.0
 40
23.0
 40
23.0
 40
23.0
 40
24.0
 40
24.0
 40
24.0
 40
25.0
 40
25.0
 40
25.0
 40
26.0
 40
26.0
 40
26.0
 40
27.0
 40
27.0
 40
27.0
 40
28.0
 40
28.0
 40
28.0
 40
29.0
 40
29.0
 40
29.0
 40
30.0
 40
30.0
 40
30.0
 40
31.0
 40
31.0
 40
31.0
 40
32.0
 40
32.0
 40
32.0
 40
33.0
 40
33.0
 40
33.0
 40
34.0
 40
34.0
 40
34.0
 40
35.0
 40
35.0
 40
35.0
 40
36.0
 40
36.0
 40
36.0
 40
37.0
 40
37.0
 40
37.0
 40
37.0
 10
0.5762515597873264
 20
-2.581932915581596
 30
0.0
 10
0.5714967515733508
 20
-2.541275024414062
 30
0.0
 10
0.5692028469509549
 20
-2.497528923882378
 30
0.0
 10
0.5692893134223091
 20
-2.447459750705295
 30
0.0
 10
0.6243676079644098
 20
-2.438979254828558
 30
0.0
 10
0.6675177680121528
 20
-2.398147583007812
 30
0.0
 10
0.6772206624348958
 20
-2.344879150390625
 30
0.0
 10
0.6790000067816841
 20
-2.335083855523003
 30
0.0
 10
0.679303487141927
 20
-2.325560675726996
 30
0.0
 10
0.6780946519639758
 20
-2.316310458713107
 30
0.0
 10
0.7740486992730035
 20
-2.281480577256944
 30
0.0
 10
0.869320339626736
 20
-2.263092041015625
 30
0.0
 10
0.9538972642686632
 20
-2.263092041015625
 30
0.0
 10
0.9543431599934894
 20
-2.263092041015625
 30
0.0
 10
0.9547958374023437
 20
-2.263092041015625
 30
0.0
 10
0.9552357991536457
 20
-2.263092041015625
 30
0.0
 10
0.9552357991536457
 20
-2.263092041015625
 30
0.0
 10
0.9552858140733507
 20
-2.263092041015625
 30
0.0
 10
0.9552858140733507
 20
-2.263092041015625
 30
0.0
 10
1.054314507378472
 20
-2.263228522406683
 30
0.0
 10
1.142716301812065
 20
-2.278566148546006
 30
0.0
 10
1.233517964680989
 20
-2.311821831597221
 30
0.0
 10
1.233629862467447
 20
-2.312070210774739
 30
0.0
 10
1.23385281032986
 20
-2.312826368543836
 30
0.0
 10
1.234150356716579
 20
-2.315182156032986
 30
0.0
 10
1.23808119032118
 20
-2.345511542426215
 30
0.0
 10
1.248868306477864
 20
-2.37200927734375
 30
0.0
 10
1.266203138563368
 20
-2.393931918674045
 30
0.0
 10
1.285719977484808
 20
-2.418618943956162
 30
0.0
 10
1.312614440917968
 20
-2.434861924913194
 30
0.0
 10
1.348411560058593
 20
-2.443591647677951
 30
0.0
 10
1.351610819498697
 20
-2.510028415256076
 30
0.0
 10
1.347742716471354
 20
-2.577679951985676
 30
0.0
 10
1.336917453342013
 20
-2.644674513075086
 30
0.0
 10
1.329241434733072
 20
-2.692249721950954
 30
0.0
 10
1.317428588867187
 20
-2.738369411892361
 30
0.0
 10
1.30176035563151
 20
-2.782572428385416
 30
0.0
 10
1.29559834798177
 20
-2.781333923339843
 30
0.0
 10
1.289407518174913
 20
-2.78025902642144
 30
0.0
 10
1.283238728841145
 20
-2.779056125217013
 30
0.0
 10
1.312926398383246
 20
-2.698870340983072
 30
0.0
 10
1.328344557020399
 20
-2.613503350151909
 30
0.0
 10
1.330197652180989
 20
-2.519215901692708
 30
0.0
 10
1.330197652180989
 20
-2.519215901692708
 30
0.0
 10
1.330197652180989
 20
-2.518670823838975
 30
0.0
 10
1.330197652180989
 20
-2.518670823838975
 30
0.0
 10
1.330073886447482
 20
-2.513338724772135
 30
0.0
 10
1.330049302842881
 20
-2.507882859971787
 30
0.0
 10
1.330023871527777
 20
-2.502352396647135
 30
0.0
 10
1.329986572265625
 20
-2.491305033365885
 30
0.0
 10
1.329950120713975
 20
-2.479884677463107
 30
0.0
 10
1.329093933105468
 20
-2.468304104275173
 30
0.0
 10
1.328362358940972
 20
-2.458123948838975
 30
0.0
 10
1.322361416286892
 20
-2.451143052842881
 30
0.0
 10
1.31260257297092
 20
-2.449133978949652
 30
0.0
 10
1.294909159342447
 20
-2.445550706651475
 30
0.0
 10
1.278392367892795
 20
-2.436771816677517
 30
0.0
 10
1.260598924424913
 20
-2.421507941351996
 30
0.0
 10
1.237350463867187
 20
-2.401545206705729
 30
0.0
 10
1.223115709092881
 20
-2.375444200303819
 30
0.0
 10
1.217077467176649
 20
-2.341729905870225
 30
0.0
 10
1.21509297688802
 20
-2.330619812011718
 30
0.0
 10
1.209103902180989
 20
-2.323403252495659
 30
0.0
 10
1.198750813802083
 20
-2.31964619954427
 30
0.0
 10
1.171471489800347
 20
-2.309776306152343
 30
0.0
 10
1.148792690700954
 20
-2.302646213107638
 30
0.0
 10
1.127366807725694
 20
-2.297215779622395
 30
0.0
 10
1.053099738226996
 20
-2.27830590142144
 30
0.0
 10
0.9771533542209201
 20
-2.27246602376302
 30
0.0
 10
0.9016833835177951
 20
-2.279794481065537
 30
0.0
 10
0.8387374877929687
 20
-2.285894605848524
 30
0.0
 10
0.7762069702148438
 20
-2.300737169053819
 30
0.0
 10
0.7105322943793403
 20
-2.325176662868923
 30
0.0
 10
0.699918958875868
 20
-2.32910664876302
 30
0.0
 10
0.6950208875868055
 20
-2.338158501519096
 30
0.0
 10
0.6974385579427083
 20
-2.349392361111111
 30
0.0
 10
0.6984744601779514
 20
-2.35422854953342
 30
0.0
 10
0.6984244452582466
 20
-2.359423319498697
 30
0.0
 10
0.6972902086046008
 20
-2.364817301432291
 30
0.0
 10
0.6909662882486979
 20
-2.394799126519096
 30
0.0
 10
0.6741773817274305
 20
-2.419176737467447
 30
0.0
 10
0.6459681193033854
 20
-2.439338684082031
 30
0.0
 10
0.6325581868489583
 20
-2.448922899034287
 30
0.0
 10
0.6212192111545139
 20
-2.456275939941406
 30
0.0
 10
0.6076109144422742
 20
-2.456412421332465
 30
0.0
 10
0.6050932142469617
 20
-2.456437004937065
 30
0.0
 10
0.5974366929796008
 20
-2.456524319118923
 30
0.0
 10
0.5920800103081598
 20
-2.462414211697048
 30
0.0
 10
0.5867173936631945
 20
-2.468328687879774
 30
0.0
 10
0.5873557196723091
 20
-2.475830078125
 30
0.0
 10
0.587628682454427
 20
-2.479029337565104
 30
0.0
 10
0.589978535970052
 20
-2.506580776638454
 30
0.0
 10
0.5930167304144966
 20
-2.539129469129774
 30
0.0
 10
0.5977469550238716
 20
-2.571666293674045
 30
0.0
 10
0.6086027357313367
 20
-2.646298726399739
 30
0.0
 10
0.6252797444661458
 20
-2.711358812120225
 30
0.0
 10
0.6487401326497395
 20
-2.770553588867187
 30
0.0
 10
0.6491241455078125
 20
-2.771522521972656
 30
0.0
 10
0.6495759752061633
 20
-2.772451612684461
 30
0.0
 10
0.6499642266167535
 20
-2.77341800265842
 30
0.0
 10
0.649976094563802
 20
-2.773416307237412
 30
0.0
 10
0.6499888102213541
 20
-2.773413764105902
 30
0.0
 10
0.6500006781684028
 20
-2.773412068684895
 30
0.0
 10
0.6408225165473091
 20
-2.774941338433159
 30
0.0
 10
0.6316706339518229
 20
-2.776615566677517
 30
0.0
 10
0.6225170559353299
 20
-2.778278774685329
 30
0.0
 10
0.6225238376193576
 20
-2.778277079264322
 30
0.0
 10
0.6225314670138889
 20
-2.778276231553819
 30
0.0
 10
0.6225382486979166
 20
-2.778274536132812
 30
0.0
 10
0.599927266438802
 20
-2.718025207519531
 30
0.0
 10
0.5846032036675348
 20
-2.653245713975694
 30
0.0
 10
0.5762515597873264
 20
-2.581932915581596
 30
0.0
  0
SPLINE
  5
A6
330
70
100
AcDbEntity
  8
Amara's 4th
100
AcDbSpline
210
0.0
220
0.0
230
1.0
 70
     9
 71
     3
 72
   251
 73
   247
 74
     0
 42
0.0000000001
 43
0.0000000001
 40
0.0
 40
0.0
 40
0.0
 40
0.0
 40
1.0
 40
1.0
 40
1.0
 40
2.0
 40
2.0
 40
2.0
 40
3.0
 40
3.0
 40
3.0
 40
4.0
 40
4.0
 40
4.0
 40
5.0
 40
5.0
 40
5.0
 40
6.0
 40
6.0
 40
6.0
 40
7.0
 40
7.0
 40
7.0
 40
8.0
 40
8.0
 40
8.0
 40
9.0
 40
9.0
 40
9.0
 40
10.0
 40
10.0
 40
10.0
 40
11.0
 40
11.0
 40
11.0
 40
12.0
 40
12.0
 40
12.0
 40
13.0
 40
13.0
 40
13.0
 40
14.0
 40
14.0
 40
14.0
 40
15.0
 40
15.0
 40
15.0
 40
16.0
 40
16.0
 40
16.0
 40
17.0
 40
17.0
 40
17.0
 40
18.0
 40
18.0
 40
18.0
 40
19.0
 40
19.0
 40
19.0
 40
20.0
 40
20.0
 40
20.0
 40
21.0
 40
21.0
 40
21.0
 40
22.0
 40
22.0
 40
22.0
 40
23.0
 40
23.0
 40
23.0
 40
24.0
 40
24.0
 40
24.0
 40
25.0
 40
25.0
 40
25.0
 40
26.0
 40
26.0
 40
26.0
 40
27.0
 40
27.0
 40
27.0
 40
28.0
 40
28.0
 40
28.0
 40
29.0
 40
29.0
 40
29.0
 40
30.0
 40
30.0
 40
30.0
 40
31.0
 40
31.0
 40
31.0
 40
32.0
 40
32.0
 40
32.0
 40
33.0
 40
33.0
 40
33.0
 40
34.0
 40
34.0
 40
34.0
 40
35.0
 40
35.0
 40
35.0
 40
36.0
 40
36.0
 40
36.0
 40
37.0
 40
37.0
 40
37.0
 40
38.0
 40
38.0
 40
38.0
 40
39.0
 40
39.0
 40
39.0
 40
40.0
 40
40.0
 40
40.0
 40
41.0
 40
41.0
 40
41.0
 40
42.0
 40
42.0
 40
42.0
 40
43.0
 40
43.0
 40
43.0
 40
44.0
 40
44.0
 40
44.0
 40
45.0
 40
45.0
 40
45.0
 40
46.0
 40
46.0
 40
46.0
 40
47.0
 40
47.0
 40
47.0
 40
48.0
 40
48.0
 40
48.0
 40
49.0
 40
49.0
 40
49.0
 40
50.0
 40
50.0
 40
50.0
 40
51.0
 40
51.0
 40
51.0
 40
52.0
 40
52.0
 40
52.0
 40
53.0
 40
53.0
 40
53.0
 40
54.0
 40
54.0
 40
54.0
 40
55.0
 40
55.0
 40
55.0
 40
56.0
 40
56.0
 40
56.0
 40
57.0
 40
57.0
 40
57.0
 40
58.0
 40
58.0
 40
58.0
 40
59.0
 40
59.0
 40
59.0
 40
60.0
 40
60.0
 40
60.0
 40
61.0
 40
61.0
 40
61.0
 40
62.0
 40
62.0
 40
62.0
 40
63.0
 40
63.0
 40
63.0
 40
64.0
 40
64.0
 40
64.0
 40
65.0
 40
65.0
 40
65.0
 40
66.0
 40
66.0
 40
66.0
 40
67.0
 40
67.0
 40
67.0
 40
68.0
 40
68.0
 40
68.0
 40
69.0
 40
69.0
 40
69.0
 40
70.0
 40
70.0
 40
70.0
 40
71.0
 40
71.0
 40
71.0
 40
72.0
 40
72.0
 40
72.0
 40
73.0
 40
73.0
 40
73.0
 40
74.0
 40
74.0
 40
74.0
 40
75.0
 40
75.0
 40
75.0
 40
76.0
 40
76.0
 40
76.0
 40
77.0
 40
77.0
 40
77.0
 40
78.0
 40
78.0
 40
78.0
 40
79.0
 40
79.0
 40
79.0
 40
80.0
 40
80.0
 40
80.0
 40
81.0
 40
81.0
 40
81.0
 40
82.0
 40
82.0
 40
82.0
 40
82.0
 10
1.717558119032117
 20
-3.141338772243923
 30
0.0
 10
1.686131795247395
 20
-3.095602247450086
 30
0.0
 10
1.649149576822916
 20
-3.055967542860242
 30
0.0
 10
1.589348687065972
 20
-3.042731391059027
 30
0.0
 10
1.649080912272135
 20
-3.005732218424479
 30
0.0
 10
1.709108140733506
 20
-2.978635999891492
 30
0.0
 10
1.781393263075086
 20
-2.987718370225694
 30
0.0
 10
1.764229668511284
 20
-2.967205471462673
 30
0.0
 10
1.733100891113281
 20
-2.947375827365451
 30
0.0
 10
1.70164574517144
 20
-2.93595716688368
 30
0.0
 10
1.652353074815538
 20
-2.918062845865885
 30
0.0
 10
1.601194593641492
 20
-2.914701673719617
 30
0.0
 10
1.549385070800781
 20
-2.916622585720486
 30
0.0
 10
1.534411112467447
 20
-2.91717783610026
 30
0.0
 10
1.519446478949652
 20
-2.917989095052083
 30
0.0
 10
1.501852247450086
 20
-2.918804592556423
 30
0.0
 10
1.509554545084635
 20
-2.888486226399739
 30
0.0
 10
1.516752454969618
 20
-2.86015150282118
 30
0.0
 10
1.52402835422092
 20
-2.831509060329861
 30
0.0
 10
1.519122653537326
 20
-2.829984029134114
 30
0.0
 10
1.516181098090277
 20
-2.828809102376301
 30
0.0
 10
1.513126797146267
 20
-2.828158060709635
 30
0.0
 10
1.453275892469618
 20
-2.815411037868923
 30
0.0
 10
1.3935792711046
 20
-2.801777309841579
 30
0.0
 10
1.333692762586805
 20
-2.789222717285156
 30
0.0
 10
1.334714253743489
 20
-2.786270989312065
 30
0.0
 10
1.335889180501302
 20
-2.783435397677951
 30
0.0
 10
1.33688015407986
 20
-2.780460781521267
 30
0.0
 10
1.366329616970485
 20
-2.691978454589843
 30
0.0
 10
1.381010267469618
 20
-2.598175896538628
 30
0.0
 10
1.381779140896267
 20
-2.493685404459635
 30
0.0
 10
1.381779140896267
 20
-2.493685404459635
 30
0.0
 10
1.381779140896267
 20
-2.439363267686631
 30
0.0
 10
1.381779140896267
 20
-2.439363267686631
 30
0.0
 10
1.381779140896267
 20
-2.420875549316406
 30
0.0
 10
1.37394290500217
 20
-2.415618048773871
 30
0.0
 10
1.359459771050347
 20
-2.412369622124565
 30
0.0
 10
1.3241212632921
 20
-2.404471503363715
 30
0.0
 10
1.299371507432725
 20
-2.387930128309461
 30
0.0
 10
1.283810933430989
 20
-2.36181640625
 30
0.0
 10
1.273915608723958
 20
-2.345213996039496
 30
0.0
 10
1.268038431803385
 20
-2.326527913411458
 30
0.0
 10
1.265830993652343
 20
-2.304667154947916
 30
0.0
 10
1.264752705891927
 20
-2.29415300157335
 30
0.0
 10
1.259098476833767
 20
-2.286899142795138
 30
0.0
 10
1.248992919921875
 20
-2.283092074924045
 30
0.0
 10
1.181304083930121
 20
-2.257648891872829
 30
0.0
 10
1.117211235894097
 20
-2.24192640516493
 30
0.0
 10
1.053043789333767
 20
-2.23503197564019
 30
0.0
 10
0.9857703314887151
 20
-2.227828131781683
 30
0.0
 10
0.9149687025282117
 20
-2.229526943630642
 30
0.0
 10
0.8426301744249132
 20
-2.240177578396267
 30
0.0
 10
0.7853936089409723
 20
-2.248584323459201
 30
0.0
 10
0.7280154758029514
 20
-2.26351335313585
 30
0.0
 10
0.666929456922743
 20
-2.285894605848524
 30
0.0
 10
0.6467734442816841
 20
-2.293272230360242
 30
0.0
 10
0.643369886610243
 20
-2.298653496636284
 30
0.0
 10
0.6455213758680555
 20
-2.319720798068576
 30
0.0
 10
0.6455213758680555
 20
-2.319720798068576
 30
0.0
 10
0.6456451416015625
 20
-2.32247331407335
 30
0.0
 10
0.6456451416015625
 20
-2.32247331407335
 30
0.0
 10
0.6466929117838541
 20
-2.345648023817274
 30
0.0
 10
0.637189229329427
 20
-2.369393242730034
 30
0.0
 10
0.6195568508572049
 20
-2.387645297580295
 30
0.0
 10
0.6020117865668403
 20
-2.405810038248697
 30
0.0
 10
0.5783225165473091
 20
-2.415866427951388
 30
0.0
 10
0.555692884657118
 20
-2.415816413031683
 30
0.0
 10
0.5515085856119791
 20
-2.41575453016493
 30
0.0
 10
0.5457051595052083
 20
-2.416250440809461
 30
0.0
 10
0.5410495334201389
 20
-2.420850965711805
 30
0.0
 10
0.5359098646375868
 20
-2.425910101996527
 30
0.0
 10
0.5358912150065104
 20
-2.432593451605902
 30
0.0
 10
0.5358784993489583
 20
-2.435804578993055
 30
0.0
 10
0.5357674492730035
 20
-2.466332329644096
 30
0.0
 10
0.5370322333441841
 20
-2.49614037407769
 30
0.0
 10
0.5382843017578125
 20
-2.52126227484809
 30
0.0
 10
0.5419854058159723
 20
-2.595795525444878
 30
0.0
 10
0.5540127224392361
 20
-2.668295118543836
 30
0.0
 10
0.5740322536892361
 20
-2.736765543619791
 30
0.0
 10
0.5787734985351563
 20
-2.752978006998697
 30
0.0
 10
0.5841632419162326
 20
-2.768764071994357
 30
0.0
 10
0.5898462931315104
 20
-2.784350925021701
 30
0.0
 10
0.5499377780490451
 20
-2.792281256781683
 30
0.0
 10
0.5102267795138889
 20
-2.801267835828992
 30
0.0
 10
0.4707209269205729
 20
-2.811254713270399
 30
0.0
 10
0.4460881551106771
 20
-2.817481994628906
 30
0.0
 10
0.4215376112196181
 20
-2.824030558268228
 30
0.0
 10
0.3950135972764757
 20
-2.83093516031901
 30
0.0
 10
0.4024904039171008
 20
-2.860589769151475
 30
0.0
 10
0.4096196492513021
 20
-2.888866000705295
 30
0.0
 10
0.4171786838107639
 20
-2.918846130371093
 30
0.0
 10
0.4102740817599826
 20
-2.918846130371093
 30
0.0
 10
0.4063839382595486
 20
-2.9189698961046
 30
0.0
 10
0.4025039672851563
 20
-2.91882578531901
 30
0.0
 10
0.380965338812934
 20
-2.918027242024739
 30
0.0
 10
0.3594241672092014
 20
-2.916356404622395
 30
0.0
 10
0.3378923204210069
 20
-2.916480170355902
 30
0.0
 10
0.2829623752170139
 20
-2.916797214084201
 30
0.0
 10
0.2295549180772569
 20
-2.92497338189019
 30
0.0
 10
0.1812218560112847
 20
-2.953131781684027
 30
0.0
 10
0.166182623969184
 20
-2.961892869737413
 30
0.0
 10
0.1526735093858507
 20
-2.973280164930555
 30
0.0
 10
0.1384633382161458
 20
-2.983465406629774
 30
0.0
 10
0.1389973958333333
 20
-2.984848022460937
 30
0.0
 10
0.1395306057400174
 20
-2.9862306382921
 30
0.0
 10
0.1400646633572049
 20
-2.987613254123263
 30
0.0
 10
0.2107611762152778
 20
-2.978511386447482
 30
0.0
 10
0.2702373928493924
 20
-3.006358676486545
 30
0.0
 10
0.3298839992947049
 20
-3.042806837293836
 30
0.0
 10
0.2990951538085937
 20
-3.049663967556423
 30
0.0
 10
0.2735324435763889
 20
-3.061937120225694
 30
0.0
 10
0.2532153659396701
 20
-3.082305060492621
 30
0.0
 10
0.2346827189127604
 20
-3.100884331597221
 30
0.0
 10
0.216520521375868
 20
-3.120376586914062
 30
0.0
 10
0.2014838324652778
 20
-3.141777038574218
 30
0.0
 10
0.1773495144314236
 20
-3.176125420464409
 30
0.0
 10
0.1559278700086806
 20
-3.212379455566406
 30
0.0
 10
0.1333592732747395
 20
-3.247828165690104
 30
0.0
 10
0.1398637559678819
 20
-3.246247185601128
 30
0.0
 10
0.1444337632921007
 20
-3.243204752604166
 30
0.0
 10
0.1489452785915799
 20
-3.240076700846354
 30
0.0
 10
0.1913418240017361
 20
-3.210678100585937
 30
0.0
 10
0.2354744805230035
 20
-3.184480455186631
 30
0.0
 10
0.2831904093424478
 20
-3.164396497938367
 30
0.0
 10
0.3659388224283854
 20
-3.129567464192708
 30
0.0
 10
0.4520517985026041
 20
-3.130811055501301
 30
0.0
 10
0.5389692518446181
 20
-3.139168633355034
 30
0.0
 10
0.5611309475368924
 20
-3.14129892985026
 30
0.0
 10
0.5833214653862848
 20
-3.143129136827256
 30
0.0
 10
0.6078525119357639
 20
-3.145306057400173
 30
0.0
 10
0.605267842610677
 20
-3.13275400797526
 30
0.0
 10
0.6020168728298611
 20
-3.122322930230034
 30
0.0
 10
0.6012073092990451
 20
-3.111706203884548
 30
0.0
 10
0.6001332600911458
 20
-3.097622341579861
 30
0.0
 10
0.5999899970160591
 20
-3.083302815755208
 30
0.0
 10
0.6013031005859375
 20
-3.069257100423176
 30
0.0
 10
0.6022703382703992
 20
-3.058911641438801
 30
0.0
 10
0.609055413140191
 20
-3.05247582329644
 30
0.0
 10
0.6205452813042535
 20
-3.051762051052517
 30
0.0
 10
0.6288596259223091
 20
-3.051245795355902
 30
0.0
 10
0.6370875040690104
 20
-3.049340142144096
 30
0.0
 10
0.645355224609375
 20
-3.048062642415364
 30
0.0
 10
0.7177997165256076
 20
-3.036874559190537
 30
0.0
 10
0.7905281914605035
 20
-3.028776380750867
 30
0.0
 10
0.8635762532552082
 20
-3.025186326768662
 30
0.0
 10
0.8538021511501735
 20
-3.025666130913628
 30
0.0
 10
0.8440314398871526
 20
-3.026174757215711
 30
0.0
 10
0.8342692057291666
 20
-3.02681647406684
 30
0.0
 10
0.8722474839952257
 20
-3.059253268771701
 30
0.0
 10
0.9155756632486978
 20
-3.090226067437065
 30
0.0
 10
0.9657389322916666
 20
-3.120752970377604
 30
0.0
 10
0.9697384304470485
 20
-3.123183356391058
 30
0.0
 10
0.9738116794162326
 20
-3.124398125542534
 30
0.0
 10
0.9780205620659721
 20
-3.124398125542534
 30
0.0
 10
0.9817038642035589
 20
-3.124398125542534
 30
0.0
 10
0.9854855007595485
 20
-3.123468187120225
 30
0.0
 10
0.9894282023111978
 20
-3.121621025933159
 30
0.0
 10
1.018803066677517
 20
-3.107733832465277
 30
0.0
 10
1.04747094048394
 20
-3.09033711751302
 30
0.0
 10
1.074644300672743
 20
-3.06989034016927
 30
0.0
 10
1.090760125054253
 20
-3.057773166232638
 30
0.0
 10
1.105891757541232
 20
-3.044650607638888
 30
0.0
 10
1.120533413357204
 20
-3.030997382269965
 30
0.0
 10
1.116961161295572
 20
-3.030702379014756
 30
0.0
 10
1.113393995496961
 20
-3.030345492892795
 30
0.0
 10
1.109820895724826
 20
-3.030069139268662
 30
0.0
 10
1.104331970214843
 20
-3.029644436306423
 30
0.0
 10
1.098832024468315
 20
-3.029302808973524
 30
0.0
 10
1.093338012695312
 20
-3.028910319010416
 30
0.0
 10
1.08770751953125
 20
-3.033869425455729
 30
0.0
 10
1.082279629177517
 20
-3.039009941948784
 30
0.0
 10
1.076389736599392
 20
-3.043737623426649
 30
0.0
 10
1.047911749945746
 20
-3.066598680284287
 30
0.0
 10
1.017100016276041
 20
-3.085723876953125
 30
0.0
 10
0.9844784206814235
 20
-3.102035522460937
 30
0.0
 10
0.980133056640625
 20
-3.104208204481336
 30
0.0
 10
0.9765404595269096
 20
-3.10400390625
 30
0.0
 10
0.9722086588541666
 20
-3.101369222005208
 30
0.0
 10
0.9342668321397569
 20
-3.07829115125868
 30
0.0
 10
0.8979924519856769
 20
-3.053001403808593
 30
0.0
 10
0.8636584811740451
 20
-3.025182088216145
 30
0.0
 10
0.8945939805772569
 20
-3.023662990993923
 30
0.0
 10
0.9255811903211805
 20
-3.02286868625217
 30
0.0
 10
0.9566379123263889
 20
-3.023127237955729
 30
0.0
 10
1.007722642686631
 20
-3.023551940917968
 30
0.0
 10
1.058878580729166
 20
-3.026124742296006
 30
0.0
 10
1.109820895724826
 20
-3.030069139268662
 30
0.0
 10
1.135951571994357
 20
-3.032092624240451
 30
0.0
 10
1.16204833984375
 20
-3.034629821777343
 30
0.0
 10
1.188121371799045
 20
-3.037428961859808
 30
0.0
 10
1.174507141113281
 20
-3.035969204372829
 30
0.0
 10
1.160886976453993
 20
-3.03458997938368
 30
0.0
 10
1.147257486979166
 20
-3.033312479654947
 30
0.0
 10
1.145656161838107
 20
-3.034924825032551
 30
0.0
 10
1.144124348958333
 20
-3.036616007486979
 30
0.0
 10
1.142506069607204
 20
-3.038209703233506
 30
0.0
 10
1.095176696777343
 20
-3.08481936984592
 30
0.0
 10
1.040947808159722
 20
-3.123009575737846
 30
0.0
 10
0.9813435872395832
 20
-3.151739332411024
 30
0.0
 10
0.9792912801106769
 20
-3.152719285753037
 30
0.0
 10
0.9787640041775173
 20
-3.152656555175781
 30
0.0
 10
0.9770033094618055
 20
-3.151851230197482
 30
0.0
 10
0.90374755859375
 20
-3.11867438422309
 30
0.0
 10
0.8425445556640625
 20
-3.07880147298177
 30
0.0
 10
0.789963616265191
 20
-3.030286153157551
 30
0.0
 10
0.7758967081705729
 20
-3.031543307834201
 30
0.0
 10
0.7618408203125
 20
-3.032957288953992
 30
0.0
 10
0.7477959526909723
 20
-3.034506056043836
 30
0.0
 10
0.8073204888237846
 20
-3.094097561306423
 30
0.0
 10
0.8779356214735242
 20
-3.142506917317708
 30
0.0
 10
0.9625456068250867
 20
-3.181200663248697
 30
0.0
 10
0.9682676527235242
 20
-3.183816697862412
 30
0.0
 10
0.9736929999457464
 20
-3.185131496853298
 30
0.0
 10
0.9790988498263889
 20
-3.185131496853298
 30
0.0
 10
0.9848395453559026
 20
-3.185131496853298
 30
0.0
 10
0.990568372938368
 20
-3.183655632866753
 30
0.0
 10
0.9966320461697048
 20
-3.180692036946614
 30
0.0
 10
1.058083428276909
 20
-3.150685628255208
 30
0.0
 10
1.113490634494357
 20
-3.111887613932291
 30
0.0
 10
1.161303202311197
 20
-3.065388997395833
 30
0.0
 10
1.170599195692274
 20
-3.056350708007812
 30
0.0
 10
1.179563734266493
 20
-3.04700215657552
 30
0.0
 10
1.188302781846788
 20
-3.037447611490885
 30
0.0
 10
1.216505262586805
 20
-3.040477328830295
 30
0.0
 10
1.244678921169704
 20
-3.043815612792968
 30
0.0
 10
1.272831386990017
 20
-3.047225104437933
 30
0.0
 10
1.317498948838975
 20
-3.052635192871093
 30
0.0
 10
1.321558634440104
 20
-3.058770073784721
 30
0.0
 10
1.31685807969835
 20
-3.104639689127604
 30
0.0
 10
1.316248575846354
 20
-3.11058129204644
 30
0.0
 10
1.315075344509548
 20
-3.116465250651041
 30
0.0
 10
1.314445495605468
 20
-3.122406005859375
 30
0.0
 10
1.313668992784288
 20
-3.129725138346354
 30
0.0
 10
1.313187493218315
 20
-3.137076483832465
 30
0.0
 10
1.31252204047309
 20
-3.145084804958766
 30
0.0
 10
1.3437745836046
 20
-3.142396714952256
 30
0.0
 10
1.373617384168836
 20
-3.140474107530381
 30
0.0
 10
1.40330590142144
 20
-3.137162950303819
 30
0.0
 10
1.515371534559461
 20
-3.124664306640625
 30
0.0
 10
1.62044694688585
 20
-3.14375983344184
 30
0.0
 10
1.716398451063367
 20
-3.20514424641927
 30
0.0
 10
1.739067077636718
 20
-3.219646877712673
 30
0.0
 10
1.76166280110677
 20
-3.234263949924045
 30
0.0
 10
1.784291585286458
 20
-3.248828464084201
 30
0.0
 10
1.763116624620225
 20
-3.212192959255641
 30
0.0
 10
1.74139912923177
 20
-3.176036410861545
 30
0.0
 10
1.717558119032117
 20
-3.141338772243923
 30
0.0
  0
HATCH
  5
A7
330
70
100
AcDbEntity
  8
Amara's 4th
 62
    18
420
        0
440
 33554687
100
AcDbHatch
 10
0.0
 20
0.0
 30
0.0
210
0.0
220
0.0
230
1.0
  2
SOLID
 70
     1
 71
     1
 91
        6
 92
        1
 93
        1
 72
     4
 94
        3
 73
     0
 74
     0
 95
       47
 96
       43
 40
0.0
 40
0.0
 40
0.0
 40
0.0
 40
1.0
 40
1.0
 40
1.0
 40
2.0
 40
2.0
 40
2.0
 40
3.0
 40
3.0
 40
3.0
 40
4.0
 40
4.0
 40
4.0
 40
5.0
 40
5.0
 40
5.0
 40
6.0
 40
6.0
 40
6.0
 40
7.0
 40
7.0
 40
7.0
 40
8.0
 40
8.0
 40
8.0
 40
9.0
 40
9.0
 40
9.0
 40
10.0
 40
10.0
 40
10.0
 40
11.0
 40
11.0
 40
11.0
 40
12.0
 40
12.0
 40
12.0
 40
13.0
 40
13.0
 40
13.0
 40
14.0
 40
14.0
 40
14.0
 40
14.0
 10
1.691792805989583
 20
-3.16522471110026
 10
1.651561313205295
 20
-3.139354281955295
 10
1.609391106499565
 20
-3.118184407552083
 10
1.561131795247395
 20
-3.111926608615451
 10
1.527500576443142
 20
-3.107565138075086
 10
1.494359334309895
 20
-3.111968994140625
 10
1.461138407389322
 20
-3.116715325249565
 10
1.427627563476562
 20
-3.121502346462673
 10
1.393992106119791
 20
-3.125414530436197
 10
1.36039818657769
 20
-3.129609002007378
 10
1.358189900716145
 20
-3.129884507921006
 10
1.355873955620659
 20
-3.129293653700086
 10
1.353608025444878
 20
-3.129105461968315
 10
1.401596069335937
 20
-3.120680914984808
 10
1.445040384928385
 20
-3.100053575303819
 10
1.489923265245225
 20
-3.084034389919704
 10
1.513894822862413
 20
-3.075478447808159
 10
1.51434326171875
 20
-3.075062221950954
 10
1.511604309082031
 20
-3.049767388237846
 10
1.5086915757921
 20
-3.022869533962673
 10
1.504341973198784
 20
-2.996130201551649
 10
1.501041836208767
 20
-2.969268798828125
 10
1.499889797634548
 20
-2.959898206922742
 10
1.499995761447482
 20
-2.950373331705728
 10
1.499559190538194
 20
-2.941558837890625
 10
1.568654378255208
 20
-2.923760308159721
 10
1.63326687282986
 20
-2.931698269314236
 10
1.695571899414062
 20
-2.966756184895833
 10
1.63236575656467
 20
-2.970067342122395
 10
1.589250352647569
 20
-3.011791653103298
 10
1.541404724121093
 20
-3.045777214898003
 10
1.550698174370659
 20
-3.047335306803385
 10
1.56018320719401
 20
-3.048373752170138
 10
1.569391038682725
 20
-3.050574408637152
 10
1.597584194607204
 20
-3.057312859429253
 10
1.621559143066406
 20
-3.072154574924045
 10
1.643338521321614
 20
-3.090724521213107
 10
1.675937228732638
 20
-3.118519253200954
 10
1.702756245930989
 20
-3.15137227376302
 10
1.72575208875868
 20
-3.187976413302951
 10
1.714440239800347
 20
-3.18038092719184
 10
1.703251308865017
 20
-3.17259301079644
 10
1.691792805989583
 20
-3.16522471110026
 97
        0
 97
        1
330
A1
 92
        1
 93
        1
 72
     4
 94
        3
 73
     0
 74
     0
 95
       50
 96
       46
 40
0.0
 40
0.0
 40
0.0
 40
0.0
 40
1.0
 40
1.0
 40
1.0
 40
2.0
 40
2.0
 40
2.0
 40
3.0
 40
3.0
 40
3.0
 40
4.0
 40
4.0
 40
4.0
 40
5.0
 40
5.0
 40
5.0
 40
6.0
 40
6.0
 40
6.0
 40
7.0
 40
7.0
 40
7.0
 40
8.0
 40
8.0
 40
8.0
 40
9.0
 40
9.0
 40
9.0
 40
10.0
 40
10.0
 40
10.0
 40
11.0
 40
11.0
 40
11.0
 40
12.0
 40
12.0
 40
12.0
 40
13.0
 40
13.0
 40
13.0
 40
14.0
 40
14.0
 40
14.0
 40
15.0
 40
15.0
 40
15.0
 40
15.0
 10
1.137513902452256
 20
-3.001494513617621
 10
1.066802978515625
 20
-2.989551120334201
 10
0.9952163696289062
 20
-2.987068176269531
 10
0.9237874348958332
 20
-2.991705152723524
 10
0.8537826538085937
 20
-2.996249728732638
 10
0.7836396959092883
 20
-3.001595391167534
 10
0.7142062717013889
 20
-3.011254204644096
 10
0.6361533270941841
 20
-3.022112528483072
 10
0.5588099161783854
 20
-3.038099500868055
 10
0.4811960856119791
 20
-3.052069769965277
 10
0.4636035495334201
 20
-3.055235968695746
 10
0.446168687608507
 20
-3.059282938639322
 10
0.4255710177951389
 20
-3.063567267523871
 10
0.4464653862847223
 20
-2.991663614908853
 10
0.4435882568359375
 20
-2.922107272677951
 10
0.4224014282226563
 20
-2.85193379720052
 10
0.4470765855577258
 20
-2.845758226182725
 10
0.4703301323784723
 20
-2.838874816894531
 10
0.4940194023980035
 20
-2.834203932020399
 10
0.5729666815863716
 20
-2.818637424045138
 10
0.6518444485134549
 20
-2.802521599663628
 10
0.7311799791124133
 20
-2.789183722601996
 10
0.8040135701497394
 20
-2.776940239800346
 10
0.8777279324001735
 20
-2.769634670681423
 10
0.9516152275933158
 20
-2.771519131130642
 10
1.012584262424045
 20
-2.773072984483506
 10
1.073710123697916
 20
-2.77718522813585
 10
1.134255303276909
 20
-2.784436543782551
 10
1.211340162489149
 20
-2.793668958875867
 10
1.288115607367621
 20
-2.806023491753471
 10
1.364616394042968
 20
-2.819371541341145
 10
1.404938591851128
 20
-2.826407538519965
 10
1.444400363498263
 20
-2.838389926486545
 10
1.484227498372395
 20
-2.848231845431857
 10
1.488004048665364
 20
-2.84916517469618
 10
1.491616143120659
 20
-2.850762261284721
 10
1.496441311306423
 20
-2.852448357476128
 10
1.4754884507921
 20
-2.922044542100694
 10
1.472407023111979
 20
-2.991597493489583
 10
1.493414984809027
 20
-3.063507080078125
 10
1.474096510145399
 20
-3.060518052842881
 10
1.456908331976996
 20
-3.058192782931857
 10
1.439845614963107
 20
-3.055165608723958
 10
1.339065551757812
 20
-3.037284851074218
 10
1.238433837890625
 20
-3.018538581000433
 10
1.137513902452256
 20
-3.001494513617621
 97
        0
 97
        1
330
A2
 92
        1
 93
        1
 72
     4
 94
        3
 73
     0
 74
     0
 95
       47
 96
       43
 40
0.0
 40
0.0
 40
0.0
 40
0.0
 40
1.0
 40
1.0
 40
1.0
 40
2.0
 40
2.0
 40
2.0
 40
3.0
 40
3.0
 40
3.0
 40
4.0
 40
4.0
 40
4.0
 40
5.0
 40
5.0
 40
5.0
 40
6.0
 40
6.0
 40
6.0
 40
7.0
 40
7.0
 40
7.0
 40
8.0
 40
8.0
 40
8.0
 40
9.0
 40
9.0
 40
9.0
 40
10.0
 40
10.0
 40
10.0
 40
11.0
 40
11.0
 40
11.0
 40
12.0
 40
12.0
 40
12.0
 40
13.0
 40
13.0
 40
13.0
 40
14.0
 40
14.0
 40
14.0
 40
14.0
 10
0.5281431410047743
 20
-3.126749674479166
 10
0.4874411688910591
 20
-3.121632046169704
 10
0.4468756781684028
 20
-3.115277608235676
 10
0.4060889350043403
 20
-3.111012776692708
 10
0.354292975531684
 20
-3.10559590657552
 10
0.30645751953125
 20
-3.11987559000651
 10
0.2617255316840278
 20
-3.144961886935763
 10
0.2405446370442708
 20
-3.156840006510416
 10
0.2204479641384549
 20
-3.170652601453992
 10
0.1998621622721354
 20
-3.183592054578992
 10
0.1976793077256944
 20
-3.18496365017361
 10
0.1955117119683159
 20
-3.186360677083333
 10
0.1925260755750868
 20
-3.186559041341145
 10
0.2412507798936632
 20
-3.122627258300781
 10
0.2874230278862847
 20
-3.05548350016276
 10
0.3771947224934895
 20
-3.045657687717013
 10
0.321395026312934
 20
-3.007464090983072
 10
0.305066426595052
 20
-2.979937235514322
 10
0.2216644287109375
 20
-2.966084798177083
 10
0.2850765652126736
 20
-2.931971232096353
 10
0.349456787109375
 20
-2.923351711697048
 10
0.4197209676106771
 20
-2.941857231987846
 10
0.4187282986111111
 20
-2.954817877875433
 10
0.4181264241536458
 20
-2.969727410210503
 10
0.4163343641493056
 20
-2.984492831759982
 10
0.4131673177083333
 20
-3.01058366563585
 10
0.4090949164496528
 20
-3.036563449435763
 10
0.4058236016167535
 20
-3.062643263075086
 10
0.4050954182942708
 20
-3.068454318576388
 10
0.402801513671875
 20
-3.07513427734375
 10
0.4119805230034723
 20
-3.078214857313367
 10
0.4546398586697049
 20
-3.092529296875
 10
0.4970753987630208
 20
-3.10750749376085
 10
0.5397330390082466
 20
-3.121825324164496
 10
0.5479566786024306
 20
-3.124585469563801
 10
0.5568152533637153
 20
-3.12545182969835
 10
0.565381368001302
 20
-3.127192179361979
 10
0.5654084947374133
 20
-3.128072950575086
 10
0.5654364691840278
 20
-3.128953721788194
 10
0.5654644436306424
 20
-3.129834493001301
 10
0.5530209011501736
 20
-3.128835042317708
 10
0.5405171712239583
 20
-3.128305223253037
 10
0.5281431410047743
 20
-3.126749674479166
 97
        0
 97
        1
330
A3
 92
        1
 93
        1
 72
     4
 94
        3
 73
     0
 74
     0
 95
       74
 96
       70
 40
0.0
 40
0.0
 40
0.0
 40
0.0
 40
1.0
 40
1.0
 40
1.0
 40
2.0
 40
2.0
 40
2.0
 40
3.0
 40
3.0
 40
3.0
 40
4.0
 40
4.0
 40
4.0
 40
5.0
 40
5.0
 40
5.0
 40
6.0
 40
6.0
 40
6.0
 40
7.0
 40
7.0
 40
7.0
 40
8.0
 40
8.0
 40
8.0
 40
9.0
 40
9.0
 40
9.0
 40
10.0
 40
10.0
 40
10.0
 40
11.0
 40
11.0
 40
11.0
 40
12.0
 40
12.0
 40
12.0
 40
13.0
 40
13.0
 40
13.0
 40
14.0
 40
14.0
 40
14.0
 40
15.0
 40
15.0
 40
15.0
 40
16.0
 40
16.0
 40
16.0
 40
17.0
 40
17.0
 40
17.0
 40
18.0
 40
18.0
 40
18.0
 40
19.0
 40
19.0
 40
19.0
 40
20.0
 40
20.0
 40
20.0
 40
21.0
 40
21.0
 40
21.0
 40
22.0
 40
22.0
 40
22.0
 40
23.0
 40
23.0
 40
23.0
 40
23.0
 10
0.6704330444335938
 20
-2.770068698459201
 10
0.6669074164496528
 20
-2.761509365505642
 10
0.6634089152018229
 20
-2.75293223063151
 10
0.6602138943142361
 20
-2.744160970052083
 10
0.6379911634657117
 20
-2.683151245117187
 10
0.6244125366210938
 20
-2.620104471842447
 10
0.6158023410373264
 20
-2.555865817599826
 10
0.6125996907552083
 20
-2.531972249348958
 10
0.610520256890191
 20
-2.507972717285156
 10
0.6079372829861111
 20
-2.484019809299045
 10
0.607346428765191
 20
-2.478539360894096
 10
0.6087892320421008
 20
-2.476398044162326
 10
0.6146689520941841
 20
-2.475608825683593
 10
0.632966783311632
 20
-2.473153008355034
 10
0.6478322347005208
 20
-2.463116963704426
 10
0.6620881822374133
 20
-2.452245076497395
 10
0.6897023518880208
 20
-2.431185404459635
 10
0.7091878255208333
 20
-2.404617309570312
 10
0.7166510687934028
 20
-2.370148552788628
 10
0.7180277506510416
 20
-2.36379157172309
 10
0.718446519639757
 20
-2.357287089029947
 10
0.7176615397135416
 20
-2.350795321994357
 10
0.7171113755967883
 20
-2.346241421169704
 10
0.7185448540581598
 20
-2.3436525132921
 10
0.7232013278537326
 20
-2.341979132758246
 10
0.7763231065538195
 20
-2.322882758246527
 10
0.8306130303276908
 20
-2.308720058865017
 10
0.8867526584201389
 20
-2.301887512207031
 10
0.9132436116536457
 20
-2.298662821451822
 10
0.9397956000434026
 20
-2.296991136338975
 10
0.9683549669053819
 20
-2.296617296006944
 10
1.043655395507812
 20
-2.297300550672742
 10
1.118423461914062
 20
-2.310955471462673
 10
1.190756056043836
 20
-2.338035583496093
 10
1.195269266764322
 20
-2.339725070529513
 10
1.19663831922743
 20
-2.342553032769096
 10
1.197502136230468
 20
-2.346613566080729
 10
1.202119615342881
 20
-2.368321736653645
 10
1.209749857584635
 20
-2.388863457573784
 10
1.221927218967013
 20
-2.407524108886718
 10
1.241356743706597
 20
-2.437296549479166
 10
1.268861558702256
 20
-2.456330193413628
 10
1.3023681640625
 20
-2.467034233940971
 10
1.307403564453125
 20
-2.468642340766058
 10
1.309290568033854
 20
-2.470959133572048
 10
1.309494018554687
 20
-2.476276821560329
 10
1.3114259507921
 20
-2.52689954969618
 10
1.308979458279079
 20
-2.577323913574218
 10
1.301735772026909
 20
-2.627420213487412
 10
1.294317457411024
 20
-2.678733825683593
 10
1.281714545355902
 20
-2.728054470486111
 10
1.26394314236111
 20
-2.775392320421006
 10
1.266771104600694
 20
-2.77592298719618
 10
1.269595675998263
 20
-2.776468912760416
 10
1.272423638237847
 20
-2.777002970377604
 10
1.26019795735677
 20
-2.774667527940537
 10
1.247997707790798
 20
-2.772193060980902
 10
1.235740661621093
 20
-2.770038180881076
 10
1.168727450900607
 20
-2.758258395724826
 10
1.100520663791232
 20
-2.751729329427083
 10
1.03255632188585
 20
-2.747395833333333
 10
0.9809112548828125
 20
-2.744103325737846
 10
0.928739759657118
 20
-2.746499803331162
 10
0.8769336276584201
 20
-2.749038696289062
 10
0.8271425035264757
 20
-2.751479254828558
 10
0.7773615519205729
 20
-2.75604502360026
 10
0.7278578016493055
 20
-2.762016296386718
 10
0.7086520724826389
 20
-2.764333089192708
 10
0.6895260281032986
 20
-2.767109341091579
 10
0.6704330444335938
 20
-2.770068698459201
 97
        0
 97
        1
330
A4
 92
        1
 93
        1
 72
     4
 94
        3
 73
     0
 74
     0
 95
      116
 96
      112
 40
0.0
 40
0.0
 40
0.0
 40
0.0
 40
1.0
 40
1.0
 40
1.0
 40
2.0
 40
2.0
 40
2.0
 40
3.0
 40
3.0
 40
3.0
 40
4.0
 40
4.0
 40
4.0
 40
5.0
 40
5.0
 40
5.0
 40
6.0
 40
6.0
 40
6.0
 40
7.0
 40
7.0
 40
7.0
 40
8.0
 40
8.0
 40
8.0
 40
9.0
 40
9.0
 40
9.0
 40
10.0
 40
10.0
 40
10.0
 40
11.0
 40
11.0
 40
11.0
 40
12.0
 40
12.0
 40
12.0
 40
13.0
 40
13.0
 40
13.0
 40
14.0
 40
14.0
 40
14.0
 40
15.0
 40
15.0
 40
15.0
 40
16.0
 40
16.0
 40
16.0
 40
17.0
 40
17.0
 40
17.0
 40
18.0
 40
18.0
 40
18.0
 40
19.0
 40
19.0
 40
19.0
 40
20.0
 40
20.0
 40
20.0
 40
21.0
 40
21.0
 40
21.0
 40
22.0
 40
22.0
 40
22.0
 40
23.0
 40
23.0
 40
23.0
 40
24.0
 40
24.0
 40
24.0
 40
25.0
 40
25.0
 40
25.0
 40
26.0
 40
26.0
 40
26.0
 40
27.0
 40
27.0
 40
27.0
 40
28.0
 40
28.0
 40
28.0
 40
29.0
 40
29.0
 40
29.0
 40
30.0
 40
30.0
 40
30.0
 40
31.0
 40
31.0
 40
31.0
 40
32.0
 40
32.0
 40
32.0
 40
33.0
 40
33.0
 40
33.0
 40
34.0
 40
34.0
 40
34.0
 40
35.0
 40
35.0
 40
35.0
 40
36.0
 40
36.0
 40
36.0
 40
37.0
 40
37.0
 40
37.0
 40
37.0
 10
0.5762515597873264
 20
-2.581932915581596
 10
0.5714967515733508
 20
-2.541275024414062
 10
0.5692028469509549
 20
-2.497528923882378
 10
0.5692893134223091
 20
-2.447459750705295
 10
0.6243676079644098
 20
-2.438979254828558
 10
0.6675177680121528
 20
-2.398147583007812
 10
0.6772206624348958
 20
-2.344879150390625
 10
0.6790000067816841
 20
-2.335083855523003
 10
0.679303487141927
 20
-2.325560675726996
 10
0.6780946519639758
 20
-2.316310458713107
 10
0.7740486992730035
 20
-2.281480577256944
 10
0.869320339626736
 20
-2.263092041015625
 10
0.9538972642686632
 20
-2.263092041015625
 10
0.9543431599934894
 20
-2.263092041015625
 10
0.9547958374023437
 20
-2.263092041015625
 10
0.9552357991536457
 20
-2.263092041015625
 10
0.9552357991536457
 20
-2.263092041015625
 10
0.9552858140733507
 20
-2.263092041015625
 10
0.9552858140733507
 20
-2.263092041015625
 10
1.054314507378472
 20
-2.263228522406683
 10
1.142716301812065
 20
-2.278566148546006
 10
1.233517964680989
 20
-2.311821831597221
 10
1.233629862467447
 20
-2.312070210774739
 10
1.23385281032986
 20
-2.312826368543836
 10
1.234150356716579
 20
-2.315182156032986
 10
1.23808119032118
 20
-2.345511542426215
 10
1.248868306477864
 20
-2.37200927734375
 10
1.266203138563368
 20
-2.393931918674045
 10
1.285719977484808
 20
-2.418618943956162
 10
1.312614440917968
 20
-2.434861924913194
 10
1.348411560058593
 20
-2.443591647677951
 10
1.351610819498697
 20
-2.510028415256076
 10
1.347742716471354
 20
-2.577679951985676
 10
1.336917453342013
 20
-2.644674513075086
 10
1.329241434733072
 20
-2.692249721950954
 10
1.317428588867187
 20
-2.738369411892361
 10
1.30176035563151
 20
-2.782572428385416
 10
1.29559834798177
 20
-2.781333923339843
 10
1.289407518174913
 20
-2.78025902642144
 10
1.283238728841145
 20
-2.779056125217013
 10
1.312926398383246
 20
-2.698870340983072
 10
1.328344557020399
 20
-2.613503350151909
 10
1.330197652180989
 20
-2.519215901692708
 10
1.330197652180989
 20
-2.519215901692708
 10
1.330197652180989
 20
-2.518670823838975
 10
1.330197652180989
 20
-2.518670823838975
 10
1.330073886447482
 20
-2.513338724772135
 10
1.330049302842881
 20
-2.507882859971787
 10
1.330023871527777
 20
-2.502352396647135
 10
1.329986572265625
 20
-2.491305033365885
 10
1.329950120713975
 20
-2.479884677463107
 10
1.329093933105468
 20
-2.468304104275173
 10
1.328362358940972
 20
-2.458123948838975
 10
1.322361416286892
 20
-2.451143052842881
 10
1.31260257297092
 20
-2.449133978949652
 10
1.294909159342447
 20
-2.445550706651475
 10
1.278392367892795
 20
-2.436771816677517
 10
1.260598924424913
 20
-2.421507941351996
 10
1.237350463867187
 20
-2.401545206705729
 10
1.223115709092881
 20
-2.375444200303819
 10
1.217077467176649
 20
-2.341729905870225
 10
1.21509297688802
 20
-2.330619812011718
 10
1.209103902180989
 20
-2.323403252495659
 10
1.198750813802083
 20
-2.31964619954427
 10
1.171471489800347
 20
-2.309776306152343
 10
1.148792690700954
 20
-2.302646213107638
 10
1.127366807725694
 20
-2.297215779622395
 10
1.053099738226996
 20
-2.27830590142144
 10
0.9771533542209201
 20
-2.27246602376302
 10
0.9016833835177951
 20
-2.279794481065537
 10
0.8387374877929687
 20
-2.285894605848524
 10
0.7762069702148438
 20
-2.300737169053819
 10
0.7105322943793403
 20
-2.325176662868923
 10
0.699918958875868
 20
-2.32910664876302
 10
0.6950208875868055
 20
-2.338158501519096
 10
0.6974385579427083
 20
-2.349392361111111
 10
0.6984744601779514
 20
-2.35422854953342
 10
0.6984244452582466
 20
-2.359423319498697
 10
0.6972902086046008
 20
-2.364817301432291
 10
0.6909662882486979
 20
-2.394799126519096
 10
0.6741773817274305
 20
-2.419176737467447
 10
0.6459681193033854
 20
-2.439338684082031
 10
0.6325581868489583
 20
-2.448922899034287
 10
0.6212192111545139
 20
-2.456275939941406
 10
0.6076109144422742
 20
-2.456412421332465
 10
0.6050932142469617
 20
-2.456437004937065
 10
0.5974366929796008
 20
-2.456524319118923
 10
0.5920800103081598
 20
-2.462414211697048
 10
0.5867173936631945
 20
-2.468328687879774
 10
0.5873557196723091
 20
-2.475830078125
 10
0.587628682454427
 20
-2.479029337565104
 10
0.589978535970052
 20
-2.506580776638454
 10
0.5930167304144966
 20
-2.539129469129774
 10
0.5977469550238716
 20
-2.571666293674045
 10
0.6086027357313367
 20
-2.646298726399739
 10
0.6252797444661458
 20
-2.711358812120225
 10
0.6487401326497395
 20
-2.770553588867187
 10
0.6491241455078125
 20
-2.771522521972656
 10
0.6495759752061633
 20
-2.772451612684461
 10
0.6499642266167535
 20
-2.77341800265842
 10
0.649976094563802
 20
-2.773416307237412
 10
0.6499888102213541
 20
-2.773413764105902
 10
0.6500006781684028
 20
-2.773412068684895
 10
0.6408225165473091
 20
-2.774941338433159
 10
0.6316706339518229
 20
-2.776615566677517
 10
0.6225170559353299
 20
-2.778278774685329
 10
0.6225238376193576
 20
-2.778277079264322
 10
0.6225314670138889
 20
-2.778276231553819
 10
0.6225382486979166
 20
-2.778274536132812
 10
0.599927266438802
 20
-2.718025207519531
 10
0.5846032036675348
 20
-2.653245713975694
 10
0.5762515597873264
 20
-2.581932915581596
 97
        0
 97
        1
330
A5
 92
        1
 93
        1
 72
     4
 94
        3
 73
     0
 74
     0
 95
      251
 96
      247
 40
0.0
 40
0.0
 40
0.0
 40
0.0
 40
1.0
 40
1.0
 40
1.0
 40
2.0
 40
2.0
 40
2.0
 40
3.0
 40
3.0
 40
3.0
 40
4.0
 40
4.0
 40
4.0
 40
5.0
 40
5.0
 40
5.0
 40
6.0
 40
6.0
 40
6.0
 40
7.0
 40
7.0
 40
7.0
 40
8.0
 40
8.0
 40
8.0
 40
9.0
 40
9.0
 40
9.0
 40
10.0
 40
10.0
 40
10.0
 40
11.0
 40
11.0
 40
11.0
 40
12.0
 40
12.0
 40
12.0
 40
13.0
 40
13.0
 40
13.0
 40
14.0
 40
14.0
 40
14.0
 40
15.0
 40
15.0
 40
15.0
 40
16.0
 40
16.0
 40
16.0
 40
17.0
 40
17.0
 40
17.0
 40
18.0
 40
18.0
 40
18.0
 40
19.0
 40
19.0
 40
19.0
 40
20.0
 40
20.0
 40
20.0
 40
21.0
 40
21.0
 40
21.0
 40
22.0
 40
22.0
 40
22.0
 40
23.0
 40
23.0
 40
23.0
 40
24.0
 40
24.0
 40
24.0
 40
25.0
 40
25.0
 40
25.0
 40
26.0
 40
26.0
 40
26.0
 40
27.0
 40
27.0
 40
27.0
 40
28.0
 40
28.0
 40
28.0
 40
29.0
 40
29.0
 40
29.0
 40
30.0
 40
30.0
 40
30.0
 40
31.0
 40
31.0
 40
31.0
 40
32.0
 40
32.0
 40
32.0
 40
33.0
 40
33.0
 40
33.0
 40
34.0
 40
34.0
 40
34.0
 40
35.0
 40
35.0
 40
35.0
 40
36.0
 40
36.0
 40
36.0
 40
37.0
 40
37.0
 40
37.0
 40
38.0
 40
38.0
 40
38.0
 40
39.0
 40
39.0
 40
39.0
 40
40.0
 40
40.0
 40
40.0
 40
41.0
 40
41.0
 40
41.0
 40
42.0
 40
42.0
 40
42.0
 40
43.0
 40
43.0
 40
43.0
 40
44.0
 40
44.0
 40
44.0
 40
45.0
 40
45.0
 40
45.0
 40
46.0
 40
46.0
 40
46.0
 40
47.0
 40
47.0
 40
47.0
 40
48.0
 40
48.0
 40
48.0
 40
49.0
 40
49.0
 40
49.0
 40
50.0
 40
50.0
 40
50.0
 40
51.0
 40
51.0
 40
51.0
 40
52.0
 40
52.0
 40
52.0
 40
53.0
 40
53.0
 40
53.0
 40
54.0
 40
54.0
 40
54.0
 40
55.0
 40
55.0
 40
55.0
 40
56.0
 40
56.0
 40
56.0
 40
57.0
 40
57.0
 40
57.0
 40
58.0
 40
58.0
 40
58.0
 40
59.0
 40
59.0
 40
59.0
 40
60.0
 40
60.0
 40
60.0
 40
61.0
 40
61.0
 40
61.0
 40
62.0
 40
62.0
 40
62.0
 40
63.0
 40
63.0
 40
63.0
 40
64.0
 40
64.0
 40
64.0
 40
65.0
 40
65.0
 40
65.0
 40
66.0
 40
66.0
 40
66.0
 40
67.0
 40
67.0
 40
67.0
 40
68.0
 40
68.0
 40
68.0
 40
69.0
 40
69.0
 40
69.0
 40
70.0
 40
70.0
 40
70.0
 40
71.0
 40
71.0
 40
71.0
 40
72.0
 40
72.0
 40
72.0
 40
73.0
 40
73.0
 40
73.0
 40
74.0
 40
74.0
 40
74.0
 40
75.0
 40
75.0
 40
75.0
 40
76.0
 40
76.0
 40
76.0
 40
77.0
 40
77.0
 40
77.0
 40
78.0
 40
78.0
 40
78.0
 40
79.0
 40
79.0
 40
79.0
 40
80.0
 40
80.0
 40
80.0
 40
81.0
 40
81.0
 40
81.0
 40
82.0
 40
82.0
 40
82.0
 40
82.0
 10
1.717558119032117
 20
-3.141338772243923
 10
1.686131795247395
 20
-3.095602247450086
 10
1.649149576822916
 20
-3.055967542860242
 10
1.589348687065972
 20
-3.042731391059027
 10
1.649080912272135
 20
-3.005732218424479
 10
1.709108140733506
 20
-2.978635999891492
 10
1.781393263075086
 20
-2.987718370225694
 10
1.764229668511284
 20
-2.967205471462673
 10
1.733100891113281
 20
-2.947375827365451
 10
1.70164574517144
 20
-2.93595716688368
 10
1.652353074815538
 20
-2.918062845865885
 10
1.601194593641492
 20
-2.914701673719617
 10
1.549385070800781
 20
-2.916622585720486
 10
1.534411112467447
 20
-2.91717783610026
 10
1.519446478949652
 20
-2.917989095052083
 10
1.501852247450086
 20
-2.918804592556423
 10
1.509554545084635
 20
-2.888486226399739
 10
1.516752454969618
 20
-2.86015150282118
 10
1.52402835422092
 20
-2.831509060329861
 10
1.519122653537326
 20
-2.829984029134114
 10
1.516181098090277
 20
-2.828809102376301
 10
1.513126797146267
 20
-2.828158060709635
 10
1.453275892469618
 20
-2.815411037868923
 10
1.3935792711046
 20
-2.801777309841579
 10
1.333692762586805
 20
-2.789222717285156
 10
1.334714253743489
 20
-2.786270989312065
 10
1.335889180501302
 20
-2.783435397677951
 10
1.33688015407986
 20
-2.780460781521267
 10
1.366329616970485
 20
-2.691978454589843
 10
1.381010267469618
 20
-2.598175896538628
 10
1.381779140896267
 20
-2.493685404459635
 10
1.381779140896267
 20
-2.493685404459635
 10
1.381779140896267
 20
-2.439363267686631
 10
1.381779140896267
 20
-2.439363267686631
 10
1.381779140896267
 20
-2.420875549316406
 10
1.37394290500217
 20
-2.415618048773871
 10
1.359459771050347
 20
-2.412369622124565
 10
1.3241212632921
 20
-2.404471503363715
 10
1.299371507432725
 20
-2.387930128309461
 10
1.283810933430989
 20
-2.36181640625
 10
1.273915608723958
 20
-2.345213996039496
 10
1.268038431803385
 20
-2.326527913411458
 10
1.265830993652343
 20
-2.304667154947916
 10
1.264752705891927
 20
-2.29415300157335
 10
1.259098476833767
 20
-2.286899142795138
 10
1.248992919921875
 20
-2.283092074924045
 10
1.181304083930121
 20
-2.257648891872829
 10
1.117211235894097
 20
-2.24192640516493
 10
1.053043789333767
 20
-2.23503197564019
 10
0.9857703314887151
 20
-2.227828131781683
 10
0.9149687025282117
 20
-2.229526943630642
 10
0.8426301744249132
 20
-2.240177578396267
 10
0.7853936089409723
 20
-2.248584323459201
 10
0.7280154758029514
 20
-2.26351335313585
 10
0.666929456922743
 20
-2.285894605848524
 10
0.6467734442816841
 20
-2.293272230360242
 10
0.643369886610243
 20
-2.298653496636284
 10
0.6455213758680555
 20
-2.319720798068576
 10
0.6455213758680555
 20
-2.319720798068576
 10
0.6456451416015625
 20
-2.32247331407335
 10
0.6456451416015625
 20
-2.32247331407335
 10
0.6466929117838541
 20
-2.345648023817274
 10
0.637189229329427
 20
-2.369393242730034
 10
0.6195568508572049
 20
-2.387645297580295
 10
0.6020117865668403
 20
-2.405810038248697
 10
0.5783225165473091
 20
-2.415866427951388
 10
0.555692884657118
 20
-2.415816413031683
 10
0.5515085856119791
 20
-2.41575453016493
 10
0.5457051595052083
 20
-2.416250440809461
 10
0.5410495334201389
 20
-2.420850965711805
 10
0.5359098646375868
 20
-2.425910101996527
 10
0.5358912150065104
 20
-2.432593451605902
 10
0.5358784993489583
 20
-2.435804578993055
 10
0.5357674492730035
 20
-2.466332329644096
 10
0.5370322333441841
 20
-2.49614037407769
 10
0.5382843017578125
 20
-2.52126227484809
 10
0.5419854058159723
 20
-2.595795525444878
 10
0.5540127224392361
 20
-2.668295118543836
 10
0.5740322536892361
 20
-2.736765543619791
 10
0.5787734985351563
 20
-2.752978006998697
 10
0.5841632419162326
 20
-2.768764071994357
 10
0.5898462931315104
 20
-2.784350925021701
 10
0.5499377780490451
 20
-2.792281256781683
 10
0.5102267795138889
 20
-2.801267835828992
 10
0.4707209269205729
 20
-2.811254713270399
 10
0.4460881551106771
 20
-2.817481994628906
 10
0.4215376112196181
 20
-2.824030558268228
 10
0.3950135972764757
 20
-2.83093516031901
 10
0.4024904039171008
 20
-2.860589769151475
 10
0.4096196492513021
 20
-2.888866000705295
 10
0.4171786838107639
 20
-2.918846130371093
 10
0.4102740817599826
 20
-2.918846130371093
 10
0.4063839382595486
 20
-2.9189698961046
 10
0.4025039672851563
 20
-2.91882578531901
 10
0.380965338812934
 20
-2.918027242024739
 10
0.3594241672092014
 20
-2.916356404622395
 10
0.3378923204210069
 20
-2.916480170355902
 10
0.2829623752170139
 20
-2.916797214084201
 10
0.2295549180772569
 20
-2.92497338189019
 10
0.1812218560112847
 20
-2.953131781684027
 10
0.166182623969184
 20
-2.961892869737413
 10
0.1526735093858507
 20
-2.973280164930555
 10
0.1384633382161458
 20
-2.983465406629774
 10
0.1389973958333333
 20
-2.984848022460937
 10
0.1395306057400174
 20
-2.9862306382921
 10
0.1400646633572049
 20
-2.987613254123263
 10
0.2107611762152778
 20
-2.978511386447482
 10
0.2702373928493924
 20
-3.006358676486545
 10
0.3298839992947049
 20
-3.042806837293836
 10
0.2990951538085937
 20
-3.049663967556423
 10
0.2735324435763889
 20
-3.061937120225694
 10
0.2532153659396701
 20
-3.082305060492621
 10
0.2346827189127604
 20
-3.100884331597221
 10
0.216520521375868
 20
-3.120376586914062
 10
0.2014838324652778
 20
-3.141777038574218
 10
0.1773495144314236
 20
-3.176125420464409
 10
0.1559278700086806
 20
-3.212379455566406
 10
0.1333592732747395
 20
-3.247828165690104
 10
0.1398637559678819
 20
-3.246247185601128
 10
0.1444337632921007
 20
-3.243204752604166
 10
0.1489452785915799
 20
-3.240076700846354
 10
0.1913418240017361
 20
-3.210678100585937
 10
0.2354744805230035
 20
-3.184480455186631
 10
0.2831904093424478
 20
-3.164396497938367
 10
0.3659388224283854
 20
-3.129567464192708
 10
0.4520517985026041
 20
-3.130811055501301
 10
0.5389692518446181
 20
-3.139168633355034
 10
0.5611309475368924
 20
-3.14129892985026
 10
0.5833214653862848
 20
-3.143129136827256
 10
0.6078525119357639
 20
-3.145306057400173
 10
0.605267842610677
 20
-3.13275400797526
 10
0.6020168728298611
 20
-3.122322930230034
 10
0.6012073092990451
 20
-3.111706203884548
 10
0.6001332600911458
 20
-3.097622341579861
 10
0.5999899970160591
 20
-3.083302815755208
 10
0.6013031005859375
 20
-3.069257100423176
 10
0.6022703382703992
 20
-3.058911641438801
 10
0.609055413140191
 20
-3.05247582329644
 10
0.6205452813042535
 20
-3.051762051052517
 10
0.6288596259223091
 20
-3.051245795355902
 10
0.6370875040690104
 20
-3.049340142144096
 10
0.645355224609375
 20
-3.048062642415364
 10
0.7177997165256076
 20
-3.036874559190537
 10
0.7905281914605035
 20
-3.028776380750867
 10
0.8635762532552082
 20
-3.025186326768662
 10
0.8538021511501735
 20
-3.025666130913628
 10
0.8440314398871526
 20
-3.026174757215711
 10
0.8342692057291666
 20
-3.02681647406684
 10
0.8722474839952257
 20
-3.059253268771701
 10
0.9155756632486978
 20
-3.090226067437065
 10
0.9657389322916666
 20
-3.120752970377604
 10
0.9697384304470485
 20
-3.123183356391058
 10
0.9738116794162326
 20
-3.124398125542534
 10
0.9780205620659721
 20
-3.124398125542534
 10
0.9817038642035589
 20
-3.124398125542534
 10
0.9854855007595485
 20
-3.123468187120225
 10
0.9894282023111978
 20
-3.121621025933159
 10
1.018803066677517
 20
-3.107733832465277
 10
1.04747094048394
 20
-3.09033711751302
 10
1.074644300672743
 20
-3.06989034016927
 10
1.090760125054253
 20
-3.057773166232638
 10
1.105891757541232
 20
-3.044650607638888
 10
1.120533413357204
 20
-3.030997382269965
 10
1.116961161295572
 20
-3.030702379014756
 10
1.113393995496961
 20
-3.030345492892795
 10
1.109820895724826
 20
-3.030069139268662
 10
1.104331970214843
 20
-3.029644436306423
 10
1.098832024468315
 20
-3.029302808973524
 10
1.093338012695312
 20
-3.028910319010416
 10
1.08770751953125
 20
-3.033869425455729
 10
1.082279629177517
 20
-3.039009941948784
 10
1.076389736599392
 20
-3.043737623426649
 10
1.047911749945746
 20
-3.066598680284287
 10
1.017100016276041
 20
-3.085723876953125
 10
0.9844784206814235
 20
-3.102035522460937
 10
0.980133056640625
 20
-3.104208204481336
 10
0.9765404595269096
 20
-3.10400390625
 10
0.9722086588541666
 20
-3.101369222005208
 10
0.9342668321397569
 20
-3.07829115125868
 10
0.8979924519856769
 20
-3.053001403808593
 10
0.8636584811740451
 20
-3.025182088216145
 10
0.8945939805772569
 20
-3.023662990993923
 10
0.9255811903211805
 20
-3.02286868625217
 10
0.9566379123263889
 20
-3.023127237955729
 10
1.007722642686631
 20
-3.023551940917968
 10
1.058878580729166
 20
-3.026124742296006
 10
1.109820895724826
 20
-3.030069139268662
 10
1.135951571994357
 20
-3.032092624240451
 10
1.16204833984375
 20
-3.034629821777343
 10
1.188121371799045
 20
-3.037428961859808
 10
1.174507141113281
 20
-3.035969204372829
 10
1.160886976453993
 20
-3.03458997938368
 10
1.147257486979166
 20
-3.033312479654947
 10
1.145656161838107
 20
-3.034924825032551
 10
1.144124348958333
 20
-3.036616007486979
 10
1.142506069607204
 20
-3.038209703233506
 10
1.095176696777343
 20
-3.08481936984592
 10
1.040947808159722
 20
-3.123009575737846
 10
0.9813435872395832
 20
-3.151739332411024
 10
0.9792912801106769
 20
-3.152719285753037
 10
0.9787640041775173
 20
-3.152656555175781
 10
0.9770033094618055
 20
-3.151851230197482
 10
0.90374755859375
 20
-3.11867438422309
 10
0.8425445556640625
 20
-3.07880147298177
 10
0.789963616265191
 20
-3.030286153157551
 10
0.7758967081705729
 20
-3.031543307834201
 10
0.7618408203125
 20
-3.032957288953992
 10
0.7477959526909723
 20
-3.034506056043836
 10
0.8073204888237846
 20
-3.094097561306423
 10
0.8779356214735242
 20
-3.142506917317708
 10
0.9625456068250867
 20
-3.181200663248697
 10
0.9682676527235242
 20
-3.183816697862412
 10
0.9736929999457464
 20
-3.185131496853298
 10
0.9790988498263889
 20
-3.185131496853298
 10
0.9848395453559026
 20
-3.185131496853298
 10
0.990568372938368
 20
-3.183655632866753
 10
0.9966320461697048
 20
-3.180692036946614
 10
1.058083428276909
 20
-3.150685628255208
 10
1.113490634494357
 20
-3.111887613932291
 10
1.161303202311197
 20
-3.065388997395833
 10
1.170599195692274
 20
-3.056350708007812
 10
1.179563734266493
 20
-3.04700215657552
 10
1.188302781846788
 20
-3.037447611490885
 10
1.216505262586805
 20
-3.040477328830295
 10
1.244678921169704
 20
-3.043815612792968
 10
1.272831386990017
 20
-3.047225104437933
 10
1.317498948838975
 20
-3.052635192871093
 10
1.321558634440104
 20
-3.058770073784721
 10
1.31685807969835
 20
-3.104639689127604
 10
1.316248575846354
 20
-3.11058129204644
 10
1.315075344509548
 20
-3.116465250651041
 10
1.314445495605468
 20
-3.122406005859375
 10
1.313668992784288
 20
-3.129725138346354
 10
1.313187493218315
 20
-3.137076483832465
 10
1.31252204047309
 20
-3.145084804958766
 10
1.3437745836046
 20
-3.142396714952256
 10
1.373617384168836
 20
-3.140474107530381
 10
1.40330590142144
 20
-3.137162950303819
 10
1.515371534559461
 20
-3.124664306640625
 10
1.62044694688585
 20
-3.14375983344184
 10
1.716398451063367
 20
-3.20514424641927
 10
1.739067077636718
 20
-3.219646877712673
 10
1.76166280110677
 20
-3.234263949924045
 10
1.784291585286458
 20
-3.248828464084201
 10
1.763116624620225
 20
-3.212192959255641
 10
1.74139912923177
 20
-3.176036410861545
 10
1.717558119032117
 20
-3.141338772243923
 97
        0
 97
        1
330
A6
 75
     2
 76
     1
 98
        1
 10
0.0
 20
0.0
450
        0
451
        0
460
0.0
461
0.0
452
        0
462
0.0
453
        0
470

  0
ENDSEC
  0
SECTION
  2
OBJECTS
  0
DICTIONARY
  5
C
330
0
100
AcDbDictionary
281
     1
  3
ACAD_COLOR
350
63
  3
ACAD_DETAILVIEWSTYLE
350
6A
  3
ACAD_GROUP
350
D
  3
ACAD_LAYOUT
350
62
  3
ACAD_MATERIAL
350
10
  3
ACAD_MLEADERSTYLE
350
66
  3
ACAD_MLINESTYLE
350
5F
  3
ACAD_PLOTSETTINGS
350
61
  3
ACAD_PLOTSTYLENAME
350
E
  3
ACAD_SCALELIST
350
42
  3
ACAD_SECTIONVIEWSTYLE
350
68
  3
ACAD_TABLESTYLE
350
64
  3
ACAD_VISUALSTYLE
350
29
  3
ACDB_RECOMPOSE_DATA
350
B0
  3
AcDbVariableDictionary
350
A8
  0
DICTIONARY
  5
63
102
{ACAD_REACTORS
330
C
102
}
330
C
100
AcDbDictionary
281
     1
  0
DICTIONARY
  5
6A
102
{ACAD_REACTORS
330
C
102
}
330
C
100
AcDbDictionary
281
     1
  3
Imperial24
350
6B
  0
DICTIONARY
  5
D
102
{ACAD_REACTORS
330
C
102
}
330
C
100
AcDbDictionary
281
     1
  0
DICTIONARY
  5
62
102
{ACAD_REACTORS
330
C
102
}
330
C
100
AcDbDictionary
281
     1
  3
Layout1
350
6F
  3
Layout2
350
77
  3
Model
350
73
  0
DICTIONARY
  5
10
102
{ACAD_REACTORS
330
C
102
}
330
C
100
AcDbDictionary
281
     1
  3
ByBlock
350
19
  3
ByLayer
350
11
  3
Global
350
21
  0
DICTIONARY
  5
66
102
{ACAD_REACTORS
330
C
102
}
330
C
100
AcDbDictionary
281
     1
  3
Standard
350
67
  0
DICTIONARY
  5
5F
102
{ACAD_REACTORS
330
C
102
}
330
C
100
AcDbDictionary
281
     1
  3
Standard
350
60
  0
DICTIONARY
  5
61
102
{ACAD_REACTORS
330
C
102
}
330
C
100
AcDbDictionary
281
     1
  0
ACDBDICTIONARYWDFLT
  5
E
102
{ACAD_REACTORS
330
C
102
}
330
C
100
AcDbDictionary
281
     1
  3
Normal
350
F
100
AcDbDictionaryWithDefault
340
F
  0
DICTIONARY
  5
42
102
{ACAD_REACTORS
330
C
102
}
330
C
100
AcDbDictionary
281
     1
  3
A0
350
43
  3
A1
350
44
  3
A2
350
45
  3
A3
350
46
  3
A4
350
47
  3
A5
350
48
  3
A6
350
49
  3
A7
350
4A
  3
A8
350
4B
  3
A9
350
4C
  3
B0
350
4D
  3
B1
350
4E
  3
B2
350
4F
  3
B3
350
50
  3
B4
350
51
  3
B5
350
52
  3
B6
350
53
  0
DICTIONARY
  5
68
102
{ACAD_REACTORS
330
C
102
}
330
C
100
AcDbDictionary
281
     1
  3
Imperial24
350
69
  0
DICTIONARY
  5
64
102
{ACAD_REACTORS
330
C
102
}
330
C
100
AcDbDictionary
281
     1
  3
Standard
350
65
  0
DICTIONARY
  5
29
102
{ACAD_REACTORS
330
C
102
}
330
C
100
AcDbDictionary
281
     1
  3
2dWireframe
350
2F
  3
Basic
350
2E
  3
Brighten
350
35
  3
ColorChange
350
39
  3
Conceptual
350
32
  3
Dim
350
34
  3
EdgeColorOff
350
41
  3
Facepattern
350
38
  3
Flat
350
2A
  3
FlatWithEdges
350
2B
  3
Gouraud
350
2C
  3
GouraudWithEdges
350
2D
  3
Hidden
350
31
  3
JitterOff
350
3F
  3
Linepattern
350
37
  3
OverhangOff
350
40
  3
Realistic
350
33
  3
Shaded
350
3E
  3
Shaded with edges
350
3D
  3
Shades of Gray
350
3A
  3
Sketchy
350
3B
  3
Thicken
350
36
  3
Wireframe
350
30
  3
X-Ray
350
3C
  0
XRECORD
  5
B0
102
{ACAD_REACTORS
330
C
102
}
330
C
100
AcDbXrecord
280
     1
 90
        1
330
65
  0
DICTIONARY
  5
A8
102
{ACAD_REACTORS
330
C
102
}
330
C
100
AcDbDictionary
281
     1
  3
CANNOSCALE
350
AD
  3
CMLEADERSTYLE
350
AA
  3
CTABLESTYLE
350
A9
  3
CVIEWDETAILSTYLE
350
AB
  3
CVIEWSECTIONSTYLE
350
AC
  0
ACDBDETAILVIEWSTYLE
  5
6B
102
{ACAD_REACTORS
330
6A
102
}
330
6A
100
AcDbModelDocViewStyle
 70
     0
  3
Imperial24
290
     1
300
Imperial24
 90
        0
100
AcDbDetailViewStyle
 70
     0
 71
     0
 90
        3
 71
     1
340
55
 62
   256
 40
0.24
340
0
 62
   256
 40
0.24
300

 40
0.36
280
     3
 71
     2
340
5D
 90
       25
 62
   256
 71
     3
340
55
 62
   256
 40
0.24
 90
        1
 40
0.75
 90
        1
300
%<\AcVar ViewType \f "%tc1">% %<\AcVar ViewDetailId>%\PSCALE %<\AcVar ViewScale \f "%sn">%
 71
     4
340
5D
 90
       25
 62
   256
340
5D
 90
       25
 62
   256
280
     0
  0
LAYOUT
  5
6F
102
{ACAD_REACTORS
330
62
102
}
330
62
100
AcDbPlotSettings
  1

  2

  4

  6

 40
0.0
 41
0.0
 42
0.0
 43
0.0
 44
0.0
 45
0.0
 46
0.0
 47
0.0
 48
0.0
 49
0.0
140
0.0
141
0.0
142
1.0
143
1.0
 70
   688
 72
     0
 73
     0
 74
     5
  7

 75
    16
147
1.0
 76
     0
 77
     2
 78
   300
148
0.0
149
0.0
100
AcDbLayout
  1
Layout1
 70
     1
 71
     1
 10
0.0
 20
0.0
 11
12.0
 21
9.0
 12
0.0
 22
0.0
 32
0.0
 14
0.0
 24
0.0
 34
0.0
 15
0.0
 25
0.0
 35
0.0
146
0.0
 13
0.0
 23
0.0
 33
0.0
 16
1.0
 26
0.0
 36
0.0
 17
0.0
 27
1.0
 37
0.0
 76
     0
330
6C
  0
LAYOUT
  5
77
102
{ACAD_REACTORS
330
62
102
}
330
62
100
AcDbPlotSettings
  1

  2

  4

  6

 40
0.0
 41
0.0
 42
0.0
 43
0.0
 44
0.0
 45
0.0
 46
0.0
 47
0.0
 48
0.0
 49
0.0
140
0.0
141
0.0
142
1.0
143
1.0
 70
   688
 72
     0
 73
     0
 74
     5
  7

 75
    16
147
1.0
 76
     0
 77
     2
 78
   300
148
0.0
149
0.0
100
AcDbLayout
  1
Layout2
 70
     1
 71
     2
 10
0.0
 20
0.0
 11
12.0
 21
9.0
 12
0.0
 22
0.0
 32
0.0
 14
0.0
 24
0.0
 34
0.0
 15
0.0
 25
0.0
 35
0.0
146
0.0
 13
0.0
 23
0.0
 33
0.0
 16
1.0
 26
0.0
 36
0.0
 17
0.0
 27
1.0
 37
0.0
 76
     0
330
74
  0
LAYOUT
  5
73
102
{ACAD_REACTORS
330
62
102
}
330
62
100
AcDbPlotSettings
  1

  2

  4

  6

 40
0.0
 41
0.0
 42
0.0
 43
0.0
 44
0.0
 45
0.0
 46
0.0
 47
0.0
 48
0.0
 49
0.0
140
0.0
141
0.0
142
1.0
143
1.0
 70
  1712
 72
     0
 73
     0
 74
     0
  7

 75
     0
147
1.0
 76
     0
 77
     2
 78
   300
148
0.0
149
0.0
100
AcDbLayout
  1
Model
 70
     1
 71
     0
 10
0.0
 20
0.0
 11
12.0
 21
9.0
 12
0.0
 22
0.0
 32
0.0
 14
0.0
 24
0.0
 34
0.0
 15
0.0
 25
0.0
 35
0.0
146
0.0
 13
0.0
 23
0.0
 33
0.0
 16
1.0
 26
0.0
 36
0.0
 17
0.0
 27
1.0
 37
0.0
 76
     0
330
70
  0
MATERIAL
  5
19
102
{ACAD_XDICTIONARY
360
1A
102
}
102
{ACAD_REACTORS
330
10
102
}
330
10
100
AcDbMaterial
  1
ByBlock
 72
     0
 43
0.0208333333333333
 43
0.0
 43
0.0
 43
0.0
 43
0.0
 43
0.0208333333333333
 43
0.0
 43
0.0
 43
0.0
 43
0.0
 43
1.0
 43
0.0
 43
0.0
 43
0.0
 43
0.0
 43
1.0
 77
     0
 47
0.0208333333333333
 47
0.0
 47
0.0
 47
0.0
 47
0.0
 47
0.0208333333333333
 47
0.0
 47
0.0
 47
0.0
 47
0.0
 47
1.0
 47
0.0
 47
0.0
 47
0.0
 47
0.0
 47
1.0
171
     0
 49
0.0208333333333333
 49
0.0
 49
0.0
 49
0.0
 49
0.0
 49
0.0208333333333333
 49
0.0
 49
0.0
 49
0.0
 49
0.0
 49
1.0
 49
0.0
 49
0.0
 49
0.0
 49
0.0
 49
1.0
175
     0
142
0.0208333333333333
142
0.0
142
0.0
142
0.0
142
0.0
142
0.0208333333333333
142
0.0
142
0.0
142
0.0
142
0.0
142
1.0
142
0.0
142
0.0
142
0.0
142
0.0
142
1.0
179
     0
144
0.0208333333333333
144
0.0
144
0.0
144
0.0
144
0.0
144
0.0208333333333333
144
0.0
144
0.0
144
0.0
144
0.0
144
1.0
144
0.0
144
0.0
144
0.0
144
0.0
144
1.0
147
0.0208333333333333
147
0.0
147
0.0
147
0.0
147
0.0
147
0.0208333333333333
147
0.0
147
0.0
147
0.0
147
0.0
147
1.0
147
0.0
147
0.0
147
0.0
147
0.0
147
1.0
  0
MATERIAL
  5
11
102
{ACAD_XDICTIONARY
360
12
102
}
102
{ACAD_REACTORS
330
10
102
}
330
10
100
AcDbMaterial
  1
ByLayer
 72
     0
 43
0.0208333333333333
 43
0.0
 43
0.0
 43
0.0
 43
0.0
 43
0.0208333333333333
 43
0.0
 43
0.0
 43
0.0
 43
0.0
 43
1.0
 43
0.0
 43
0.0
 43
0.0
 43
0.0
 43
1.0
 77
     0
 47
0.0208333333333333
 47
0.0
 47
0.0
 47
0.0
 47
0.0
 47
0.0208333333333333
 47
0.0
 47
0.0
 47
0.0
 47
0.0
 47
1.0
 47
0.0
 47
0.0
 47
0.0
 47
0.0
 47
1.0
171
     0
 49
0.0208333333333333
 49
0.0
 49
0.0
 49
0.0
 49
0.0
 49
0.0208333333333333
 49
0.0
 49
0.0
 49
0.0
 49
0.0
 49
1.0
 49
0.0
 49
0.0
 49
0.0
 49
0.0
 49
1.0
175
     0
142
0.0208333333333333
142
0.0
142
0.0
142
0.0
142
0.0
142
0.0208333333333333
142
0.0
142
0.0
142
0.0
142
0.0
142
1.0
142
0.0
142
0.0
142
0.0
142
0.0
142
1.0
179
     0
144
0.0208333333333333
144
0.0
144
0.0
144
0.0
144
0.0
144
0.0208333333333333
144
0.0
144
0.0
144
0.0
144
0.0
144
1.0
144
0.0
144
0.0
144
0.0
144
0.0
144
1.0
147
0.0208333333333333
147
0.0
147
0.0
147
0.0
147
0.0
147
0.0208333333333333
147
0.0
147
0.0
147
0.0
147
0.0
147
1.0
147
0.0
147
0.0
147
0.0
147
0.0
147
1.0
  0
MATERIAL
  5
21
102
{ACAD_XDICTIONARY
360
22
102
}
102
{ACAD_REACTORS
330
10
102
}
330
10
100
AcDbMaterial
  1
Global
 72
     0
 43
0.0208333333333333
 43
0.0
 43
0.0
 43
0.0
 43
0.0
 43
0.0208333333333333
 43
0.0
 43
0.0
 43
0.0
 43
0.0
 43
1.0
 43
0.0
 43
0.0
 43
0.0
 43
0.0
 43
1.0
 77
     0
 47
0.0208333333333333
 47
0.0
 47
0.0
 47
0.0
 47
0.0
 47
0.0208333333333333
 47
0.0
 47
0.0
 47
0.0
 47
0.0
 47
1.0
 47
0.0
 47
0.0
 47
0.0
 47
0.0
 47
1.0
171
     0
 49
0.0208333333333333
 49
0.0
 49
0.0
 49
0.0
 49
0.0
 49
0.0208333333333333
 49
0.0
 49
0.0
 49
0.0
 49
0.0
 49
1.0
 49
0.0
 49
0.0
 49
0.0
 49
0.0
 49
1.0
175
     0
142
0.0208333333333333
142
0.0
142
0.0
142
0.0
142
0.0
142
0.0208333333333333
142
0.0
142
0.0
142
0.0
142
0.0
142
1.0
142
0.0
142
0.0
142
0.0
142
0.0
142
1.0
179
     0
144
0.0208333333333333
144
0.0
144
0.0
144
0.0
144
0.0
144
0.0208333333333333
144
0.0
144
0.0
144
0.0
144
0.0
144
1.0
144
0.0
144
0.0
144
0.0
144
0.0
144
1.0
147
0.0208333333333333
147
0.0
147
0.0
147
0.0
147
0.0
147
0.0208333333333333
147
0.0
147
0.0
147
0.0
147
0.0
147
1.0
147
0.0
147
0.0
147
0.0
147
0.0
147
1.0
  0
MLEADERSTYLE
  5
67
102
{ACAD_REACTORS
330
66
102
}
330
66
100
AcDbMLeaderStyle
179
     2
170
     2
171
     1
172
     0
 90
        2
 40
0.0
 41
0.0
173
     1
 91
-1056964608
340
5B
 92
       -2
290
     1
 42
0.09
291
     1
 43
0.36
  3
Standard
 44
0.18
300

342
55
174
     1
178
     6
175
     1
176
     0
 93
-1056964608
 45
0.18
292
     0
297
     0
 46
0.18
 94
-1056964608
 47
1.0
 49
1.0
140
1.0
293
     1
141
0.0
294
     1
177
     0
142
1.0
295
     1
296
     0
143
0.125
271
     0
272
     9
273
     9
298
     1
  0
MLINESTYLE
  5
60
102
{ACAD_REACTORS
330
5F
102
}
330
5F
100
AcDbMlineStyle
  2
STANDARD
 70
     0
  3

 62
   256
 51
90.0
 52
90.0
 71
     2
 49
0.5
 62
   256
  6
BYLAYER
 49
-0.5
 62
   256
  6
BYLAYER
  0
ACDBPLACEHOLDER
  5
F
102
{ACAD_REACTORS
330
E
102
}
330
E
  0
SCALE
  5
43
102
{ACAD_REACTORS
330
42
102
}
330
42
100
AcDbScale
 70
     0
300
1:1
140
1.0
141
1.0
290
     1
  0
SCALE
  5
44
102
{ACAD_REACTORS
330
42
102
}
330
42
100
AcDbScale
 70
     0
300
1/128" = 1'-0"
140
0.0078125
141
12.0
290
     0
  0
SCALE
  5
45
102
{ACAD_REACTORS
330
42
102
}
330
42
100
AcDbScale
 70
     0
300
1/64" = 1'-0"
140
0.015625
141
12.0
290
     0
  0
SCALE
  5
46
102
{ACAD_REACTORS
330
42
102
}
330
42
100
AcDbScale
 70
     0
300
1/32" = 1'-0"
140
0.03125
141
12.0
290
     0
  0
SCALE
  5
47
102
{ACAD_REACTORS
330
42
102
}
330
42
100
AcDbScale
 70
     0
300
1/16" = 1'-0"
140
0.0625
141
12.0
290
     0
  0
SCALE
  5
48
102
{ACAD_REACTORS
330
42
102
}
330
42
100
AcDbScale
 70
     0
300
3/32" = 1'-0"
140
0.09375
141
12.0
290
     0
  0
SCALE
  5
49
102
{ACAD_REACTORS
330
42
102
}
330
42
100
AcDbScale
 70
     0
300
1/8" = 1'-0"
140
0.125
141
12.0
290
     0
  0
SCALE
  5
4A
102
{ACAD_REACTORS
330
42
102
}
330
42
100
AcDbScale
 70
     0
300
3/16" = 1'-0"
140
0.1875
141
12.0
290
     0
  0
SCALE
  5
4B
102
{ACAD_REACTORS
330
42
102
}
330
42
100
AcDbScale
 70
     0
300
1/4" = 1'-0"
140
0.25
141
12.0
290
     0
  0
SCALE
  5
4C
102
{ACAD_REACTORS
330
42
102
}
330
42
100
AcDbScale
 70
     0
300
3/8" = 1'-0"
140
0.375
141
12.0
290
     0
  0
SCALE
  5
4D
102
{ACAD_REACTORS
330
42
102
}
330
42
100
AcDbScale
 70
     0
300
1/2" = 1'-0"
140
0.5
141
12.0
290
     0
  0
SCALE
  5
4E
102
{ACAD_REACTORS
330
42
102
}
330
42
100
AcDbScale
 70
     0
300
3/4" = 1'-0"
140
0.75
141
12.0
290
     0
  0
SCALE
  5
4F
102
{ACAD_REACTORS
330
42
102
}
330
42
100
AcDbScale
 70
     0
300
1" = 1'-0"
140
1.0
141
12.0
290
     0
  0
SCALE
  5
50
102
{ACAD_REACTORS
330
42
102
}
330
42
100
AcDbScale
 70
     0
300
1-1/2" = 1'-0"
140
1.5
141
12.0
290
     0
  0
SCALE
  5
51
102
{ACAD_REACTORS
330
42
102
}
330
42
100
AcDbScale
 70
     0
300
3" = 1'-0"
140
3.0
141
12.0
290
     0
  0
SCALE
  5
52
102
{ACAD_REACTORS
330
42
102
}
330
42
100
AcDbScale
 70
     0
300
6" = 1'-0"
140
6.0
141
12.0
290
     0
  0
SCALE
  5
53
102
{ACAD_REACTORS
330
42
102
}
330
42
100
AcDbScale
 70
     0
300
1'-0" = 1'-0"
140
12.0
141
12.0
290
     0
  0
ACDBSECTIONVIEWSTYLE
  5
69
102
{ACAD_REACTORS
330
68
102
}
330
68
100
AcDbModelDocViewStyle
 70
     0
  3
Imperial24
290
     1
300
Imperial24
 90
        0
100
AcDbSectionViewStyle
 70
     0
 71
     0
 90
       78
 71
     1
340
55
 62
   256
 40
0.24
340
0
340
0
 62
   256
 40
0.24
300
I, O, Q, S, X, Z
 40
0.48
 90
        3
 40
0.18
 90
        1
 71
     2
340
5D
 90
       25
 62
   256
340
5D
 90
       50
 62
   256
 40
0.24
 40
0.0
 40
0.24
 71
     3
340
55
 62
   256
 40
0.24
 90
        1
 40
0.75
 90
        1
300
%<\AcVar ViewType \f "%tc1">% %<\AcVar ViewSectionStartId>%-%<\AcVar ViewSectionEndId>%\PSCALE %<\AcVar ViewScale \f "%sn">%
 71
     4
 62
   256
 62
   257
300
ANSI31
 40
1.0
 90
        0
290
     0
290
     0
 90
        6
 40
0.0
 40
1.570796326794896
 40
0.2617993877991494
 40
1.308996938995747
 40
-0.2617993877991494
 40
1.832595714594046
  0
TABLESTYLE
  5
65
102
{ACAD_XDICTIONARY
360
AE
102
}
102
{ACAD_REACTORS
330
64
102
}
330
64
100
AcDbTableStyle
280
     0
  3
Standard
 70
     0
 71
     0
 40
0.06
 41
0.06
280
     0
281
     0
  7
Standard
140
0.18
170
     2
 62
     0
 63
     7
283
     0
 90
      512
 91
        0
  1

274
    -2
284
     1
 64
     0
275
    -2
285
     1
 65
     0
276
    -2
286
     1
 66
     0
277
    -2
287
     1
 67
     0
278
    -2
288
     1
 68
     0
279
    -2
289
     1
 69
     0
  7
Standard
140
0.25
170
     5
 62
     0
 63
     7
283
     0
 90
      512
 91
        0
  1

274
    -2
284
     1
 64
     0
275
    -2
285
     1
 65
     0
276
    -2
286
     1
 66
     0
277
    -2
287
     1
 67
     0
278
    -2
288
     1
 68
     0
279
    -2
289
     1
 69
     0
  7
Standard
140
0.18
170
     5
 62
     0
 63
     7
283
     0
 90
      512
 91
        0
  1

274
    -2
284
     1
 64
     0
275
    -2
285
     1
 65
     0
276
    -2
286
     1
 66
     0
277
    -2
287
     1
 67
     0
278
    -2
288
     1
 68
     0
279
    -2
289
     1
 69
     0
  0
VISUALSTYLE
  5
2F
102
{ACAD_REACTORS
330
29
102
}
330
29
100
AcDbVisualStyle
  2
2dWireframe
 70
     4
177
     3
291
     0
 70
    58
 90
        0
176
     1
 90
        2
176
     1
 90
        0
176
     1
 90
        0
176
     1
 40
0.6
176
     1
 40
30.0
176
     1
 62
     7
420
 16777215
176
     1
 90
        1
176
     1
 90
        4
176
     1
 62
     7
176
     1
 62
   257
176
     1
 90
        1
176
     1
 90
        1
176
     1
 40
1.0
176
     1
 90
        0
176
     1
 62
   257
176
     1
 40
1.0
176
     1
 90
        1
176
     1
 90
        6
176
     1
 90
        2
176
     1
 62
     7
176
     1
 90
        5
176
     1
 90
        0
176
     1
 90
        0
176
     1
290
     0
176
     1
 90
        1
176
     1
 40
0.0
176
     1
 90
        0
176
     1
290
     1
176
     1
290
     1
176
     1
290
     0
176
     1
290
     0
176
     1
290
     0
176
     1
290
     0
176
     1
290
     0
176
     1
290
     0
176
     1
290
     0
176
     1
 90
       50
176
     1
 40
0.0
176
     1
 40
1.0
176
     1
 90
        0
176
     1
 62
    18
420
        0
176
     1
 90
       50
176
     1
 90
        3
176
     1
 62
     5
420
      255
176
     1
290
     0
176
     1
 90
       50
176
     1
 90
       50
176
     1
 90
       50
176
     1
290
     0
176
     1
 90
       50
176
     1
 62
   256
176
     0
 40
1.0
176
     0
 90
        2
176
     1
  1
strokes_ogs.tif
176
     1
290
     0
176
     1
 40
1.0
176
     1
 40
1.0
176
     1
  0
VISUALSTYLE
  5
2E
102
{ACAD_REACTORS
330
29
102
}
330
29
100
AcDbVisualStyle
  2
Basic
 70
     7
177
     3
291
     1
 70
    58
 90
        1
176
     1
 90
        0
176
     1
 90
        1
176
     1
 90
        0
176
     1
 40
0.6
176
     1
 40
30.0
176
     1
 62
     7
420
 16777215
176
     1
 90
        0
176
     1
 90
        4
176
     1
 62
     7
176
     1
 62
   257
176
     1
 90
        1
176
     1
 90
        1
176
     1
 40
1.0
176
     1
 90
        8
176
     1
 62
     7
176
     1
 40
1.0
176
     1
 90
        1
176
     1
 90
        6
176
     1
 90
        2
176
     1
 62
     7
176
     1
 90
        5
176
     1
 90
        0
176
     1
 90
        0
176
     1
290
     0
176
     1
 90
        1
176
     1
 40
0.0
176
     1
 90
        0
176
     1
290
     0
176
     1
290
     1
176
     1
290
     1
176
     1
290
     0
176
     1
290
     0
176
     1
290
     0
176
     1
290
     0
176
     1
290
     0
176
     1
290
     0
176
     1
 90
       50
176
     1
 40
0.0
176
     1
 40
1.0
176
     1
 90
        0
176
     1
 62
    18
420
        0
176
     1
 90
       50
176
     1
 90
        3
176
     1
 62
     5
420
      255
176
     1
290
     0
176
     1
 90
       50
176
     1
 90
       50
176
     1
 90
       50
176
     1
290
     0
176
     1
 90
       50
176
     1
 62
   256
176
     0
 40
1.0
176
     0
 90
        2
176
     1
  1
strokes_ogs.tif
176
     1
290
     0
176
     1
 40
1.0
176
     1
 40
1.0
176
     1
  0
VISUALSTYLE
  5
35
102
{ACAD_REACTORS
330
29
102
}
330
29
100
AcDbVisualStyle
  2
Brighten
 70
    12
177
     3
291
     1
 70
    58
 90
        2
176
     1
 90
        2
176
     1
 90
        0
176
     1
 90
        0
176
     1
 40
0.6
176
     1
 40
30.0
176
     1
 62
     7
420
 16777215
176
     1
 90
        1
176
     1
 90
        4
176
     1
 62
     7
176
     1
 62
   257
176
     1
 90
        1
176
     1
 90
        1
176
     1
 40
1.0
176
     1
 90
        8
176
     1
 62
     7
176
     1
 40
1.0
176
     1
 90
        1
176
     1
 90
        6
176
     1
 90
        2
176
     1
 62
     7
176
     1
 90
        5
176
     1
 90
        0
176
     1
 90
        0
176
     1
290
     0
176
     1
 90
        1
176
     1
 40
50.0
176
     1
 90
        0
176
     1
290
     0
176
     1
290
     1
176
     1
290
     1
176
     1
290
     0
176
     1
290
     0
176
     1
290
     0
176
     1
290
     0
176
     1
290
     0
176
     1
290
     0
176
     1
 90
       50
176
     1
 40
0.0
176
     1
 40
1.0
176
     1
 90
        0
176
     1
 62
    18
420
        0
176
     1
 90
       50
176
     1
 90
        3
176
     1
 62
     5
420
      255
176
     1
290
     0
176
     1
 90
       50
176
     1
 90
       50
176
     1
 90
       50
176
     1
290
     0
176
     1
 90
       50
176
     1
 62
   256
176
     0
 40
1.0
176
     0
 90
        2
176
     1
  1
strokes_ogs.tif
176
     1
290
     0
176
     1
 40
1.0
176
     1
 40
1.0
176
     1
  0
VISUALSTYLE
  5
39
102
{ACAD_REACTORS
330
29
102
}
330
29
100
AcDbVisualStyle
  2
ColorChange
 70
    16
177
     3
291
     1
 70
    58
 90
        2
176
     1
 90
        2
176
     1
 90
        3
176
     1
 90
        0
176
     1
 40
0.6
176
     1
 40
30.0
176
     1
 62
     8
420
  8421504
176
     1
 90
        1
176
     1
 90
        4
176
     1
 62
     7
176
     1
 62
   257
176
     1
 90
        1
176
     1
 90
        1
176
     1
 40
1.0
176
     1
 90
        8
176
     1
 62
     8
420
  8421504
176
     1
 40
1.0
176
     1
 90
        1
176
     1
 90
        6
176
     1
 90
        2
176
     1
 62
     7
176
     1
 90
        5
176
     1
 90
        0
176
     1
 90
        0
176
     1
290
     0
176
     1
 90
        1
176
     1
 40
0.0
176
     1
 90
        0
176
     1
290
     0
176
     1
290
     1
176
     1
290
     1
176
     1
290
     0
176
     1
290
     0
176
     1
290
     0
176
     1
290
     0
176
     1
290
     0
176
     1
290
     0
176
     1
 90
       50
176
     1
 40
0.0
176
     1
 40
1.0
176
     1
 90
        0
176
     1
 62
    18
420
        0
176
     1
 90
       50
176
     1
 90
        3
176
     1
 62
     5
420
      255
176
     1
290
     0
176
     1
 90
       50
176
     1
 90
       50
176
     1
 90
       50
176
     1
290
     0
176
     1
 90
       50
176
     1
 62
   256
176
     0
 40
1.0
176
     0
 90
        2
176
     1
  1
strokes_ogs.tif
176
     1
290
     0
176
     1
 40
1.0
176
     1
 40
1.0
176
     1
  0
VISUALSTYLE
  5
32
102
{ACAD_REACTORS
330
29
102
}
330
29
100
AcDbVisualStyle
  2
Conceptual
 70
     9
177
     3
291
     0
 70
    58
 90
        3
176
     1
 90
        2
176
     1
 90
        0
176
     1
 90
        0
176
     1
 40
0.6
176
     1
 40
30.0
176
     1
 62
     7
420
 16777215
176
     1
 90
        2
176
     1
 90
        2
176
     1
 62
     7
176
     1
 62
   257
176
     1
 90
        1
176
     1
 90
        1
176
     1
 40
179.0
176
     1
 90
        8
176
     1
 62
     7
176
     1
 40
1.0
176
     1
 90
        1
176
     1
 90
        6
176
     1
 90
        2
176
     1
 62
     7
176
     1
 90
        3
176
     1
 90
        0
176
     1
 90
        0
176
     1
290
     0
176
     1
 90
        1
176
     1
 40
0.0
176
     1
 90
        0
176
     1
290
     0
176
     1
290
     1
176
     1
290
     1
176
     1
290
     0
176
     1
290
     0
176
     1
290
     0
176
     1
290
     0
176
     1
290
     0
176
     1
290
     0
176
     1
 90
       50
176
     1
 40
0.0
176
     1
 40
1.0
176
     1
 90
        0
176
     1
 62
    18
420
        0
176
     1
 90
       50
176
     1
 90
        3
176
     1
 62
     5
420
      255
176
     1
290
     0
176
     1
 90
       50
176
     1
 90
       50
176
     1
 90
       50
176
     1
290
     0
176
     1
 90
       50
176
     1
 62
   256
176
     0
 40
1.0
176
     0
 90
        2
176
     1
  1
strokes_ogs.tif
176
     1
290
     0
176
     1
 40
1.0
176
     1
 40
1.0
176
     1
  0
VISUALSTYLE
  5
34
102
{ACAD_REACTORS
330
29
102
}
330
29
100
AcDbVisualStyle
  2
Dim
 70
    11
177
     3
291
     1
 70
    58
 90
        2
176
     1
 90
        2
176
     1
 90
        0
176
     1
 90
        0
176
     1
 40
0.6
176
     1
 40
30.0
176
     1
 62
     7
420
 16777215
176
     1
 90
        1
176
     1
 90
        4
176
     1
 62
     7
176
     1
 62
   257
176
     1
 90
        1
176
     1
 90
        1
176
     1
 40
1.0
176
     1
 90
        8
176
     1
 62
     7
176
     1
 40
1.0
176
     1
 90
        1
176
     1
 90
        6
176
     1
 90
        2
176
     1
 62
     7
176
     1
 90
        5
176
     1
 90
        0
176
     1
 90
        0
176
     1
290
     0
176
     1
 90
        1
176
     1
 40
-50.0
176
     1
 90
        0
176
     1
290
     0
176
     1
290
     1
176
     1
290
     1
176
     1
290
     0
176
     1
290
     0
176
     1
290
     0
176
     1
290
     0
176
     1
290
     0
176
     1
290
     0
176
     1
 90
       50
176
     1
 40
0.0
176
     1
 40
1.0
176
     1
 90
        0
176
     1
 62
    18
420
        0
176
     1
 90
       50
176
     1
 90
        3
176
     1
 62
     5
420
      255
176
     1
290
     0
176
     1
 90
       50
176
     1
 90
       50
176
     1
 90
       50
176
     1
290
     0
176
     1
 90
       50
176
     1
 62
   256
176
     0
 40
1.0
176
     0
 90
        2
176
     1
  1
strokes_ogs.tif
176
     1
290
     0
176
     1
 40
1.0
176
     1
 40
1.0
176
     1
  0
VISUALSTYLE
  5
41
102
{ACAD_REACTORS
330
29
102
}
330
29
100
AcDbVisualStyle
  2
EdgeColorOff
 70
    22
177
     3
291
     1
 70
    58
 90
        2
176
     0
 90
        2
176
     0
 90
        0
176
     0
 90
        0
176
     0
 40
0.6
176
     0
 40
30.0
176
     0
 62
     7
420
 16777215
176
     0
 90
        1
176
     0
 90
        4
176
     0
 62
     7
176
     0
 62
   257
176
     0
 90
        1
176
     0
 90
        1
176
     0
 40
1.0
176
     0
 90
        8
176
     2
 62
     7
176
     0
 40
1.0
176
     0
 90
        1
176
     0
 90
        6
176
     0
 90
        2
176
     0
 62
     7
176
     0
 90
        5
176
     0
 90
        0
176
     0
 90
        0
176
     0
290
     0
176
     0
 90
        1
176
     0
 40
0.0
176
     0
 90
        0
176
     0
290
     0
176
     0
290
     1
176
     0
290
     1
176
     0
290
     0
176
     0
290
     0
176
     0
290
     0
176
     0
290
     0
176
     0
290
     0
176
     0
290
     0
176
     0
 90
       50
176
     0
 40
0.0
176
     0
 40
1.0
176
     0
 90
        0
176
     0
 62
    18
420
        0
176
     0
 90
       50
176
     0
 90
        3
176
     0
 62
     5
420
      255
176
     0
290
     0
176
     0
 90
       50
176
     0
 90
       50
176
     0
 90
       50
176
     0
290
     0
176
     0
 90
       50
176
     0
 62
   256
176
     0
 40
1.0
176
     0
 90
        2
176
     0
  1
strokes_ogs.tif
176
     0
290
     0
176
     0
 40
1.0
176
     0
 40
1.0
176
     0
  0
VISUALSTYLE
  5
38
102
{ACAD_REACTORS
330
29
102
}
330
29
100
AcDbVisualStyle
  2
Facepattern
 70
    15
177
     3
291
     1
 70
    58
 90
        2
176
     1
 90
        2
176
     1
 90
        0
176
     1
 90
        0
176
     1
 40
0.6
176
     1
 40
30.0
176
     1
 62
     7
420
 16777215
176
     1
 90
        1
176
     1
 90
        4
176
     1
 62
     7
176
     1
 62
   257
176
     1
 90
        1
176
     1
 90
        1
176
     1
 40
1.0
176
     1
 90
        8
176
     1
 62
     7
176
     1
 40
1.0
176
     1
 90
        1
176
     1
 90
        6
176
     1
 90
        2
176
     1
 62
     7
176
     1
 90
        5
176
     1
 90
        0
176
     1
 90
        0
176
     1
290
     0
176
     1
 90
        1
176
     1
 40
0.0
176
     1
 90
        0
176
     1
290
     0
176
     1
290
     1
176
     1
290
     1
176
     1
290
     0
176
     1
290
     0
176
     1
290
     0
176
     1
290
     0
176
     1
290
     0
176
     1
290
     0
176
     1
 90
       50
176
     1
 40
0.0
176
     1
 40
1.0
176
     1
 90
        0
176
     1
 62
    18
420
        0
176
     1
 90
       50
176
     1
 90
        3
176
     1
 62
     5
420
      255
176
     1
290
     0
176
     1
 90
       50
176
     1
 90
       50
176
     1
 90
       50
176
     1
290
     0
176
     1
 90
       50
176
     1
 62
   256
176
     0
 40
1.0
176
     0
 90
        2
176
     1
  1
strokes_ogs.tif
176
     1
290
     0
176
     1
 40
1.0
176
     1
 40
1.0
176
     1
  0
VISUALSTYLE
  5
2A
102
{ACAD_REACTORS
330
29
102
}
330
29
100
AcDbVisualStyle
  2
Flat
 70
     0
177
     3
291
     1
 70
    58
 90
        2
176
     1
 90
        1
176
     1
 90
        1
176
     1
 90
        2
176
     1
 40
0.6
176
     1
 40
30.0
176
     1
 62
     7
420
 16777215
176
     1
 90
        0
176
     1
 90
        0
176
     1
 62
     7
176
     1
 62
   257
176
     1
 90
        1
176
     1
 90
        1
176
     1
 40
1.0
176
     1
 90
        8
176
     1
 62
     7
176
     1
 40
1.0
176
     1
 90
        1
176
     1
 90
        6
176
     1
 90
        2
176
     1
 62
     7
176
     1
 90
        5
176
     1
 90
        0
176
     1
 90
        0
176
     1
290
     0
176
     1
 90
       13
176
     1
 40
0.0
176
     1
 90
        0
176
     1
290
     0
176
     1
290
     1
176
     1
290
     1
176
     1
290
     0
176
     1
290
     0
176
     1
290
     0
176
     1
290
     0
176
     1
290
     0
176
     1
290
     0
176
     1
 90
       50
176
     1
 40
0.0
176
     1
 40
1.0
176
     1
 90
        0
176
     1
 62
    18
420
        0
176
     1
 90
       50
176
     1
 90
        3
176
     1
 62
     5
420
      255
176
     1
290
     0
176
     1
 90
       50
176
     1
 90
       50
176
     1
 90
       50
176
     1
290
     0
176
     1
 90
       50
176
     1
 62
   256
176
     0
 40
1.0
176
     0
 90
        2
176
     1
  1
strokes_ogs.tif
176
     1
290
     0
176
     1
 40
1.0
176
     1
 40
1.0
176
     1
  0
VISUALSTYLE
  5
2B
102
{ACAD_REACTORS
330
29
102
}
330
29
100
AcDbVisualStyle
  2
FlatWithEdges
 70
     1
177
     3
291
     1
 70
    58
 90
        2
176
     1
 90
        1
176
     1
 90
        1
176
     1
 90
        2
176
     1
 40
0.6
176
     1
 40
30.0
176
     1
 62
     7
420
 16777215
176
     1
 90
        1
176
     1
 90
        0
176
     1
 62
     7
176
     1
 62
   257
176
     1
 90
        1
176
     1
 90
        1
176
     1
 40
1.0
176
     1
 90
        0
176
     1
 62
   257
176
     1
 40
1.0
176
     1
 90
        1
176
     1
 90
        6
176
     1
 90
        2
176
     1
 62
     7
176
     1
 90
        5
176
     1
 90
        0
176
     1
 90
        0
176
     1
290
     0
176
     1
 90
       13
176
     1
 40
0.0
176
     1
 90
        0
176
     1
290
     0
176
     1
290
     1
176
     1
290
     1
176
     1
290
     0
176
     1
290
     0
176
     1
290
     0
176
     1
290
     0
176
     1
290
     0
176
     1
290
     0
176
     1
 90
       50
176
     1
 40
0.0
176
     1
 40
1.0
176
     1
 90
        0
176
     1
 62
    18
420
        0
176
     1
 90
       50
176
     1
 90
        3
176
     1
 62
     5
420
      255
176
     1
290
     0
176
     1
 90
       50
176
     1
 90
       50
176
     1
 90
       50
176
     1
290
     0
176
     1
 90
       50
176
     1
 62
   256
176
     0
 40
1.0
176
     0
 90
        2
176
     1
  1
strokes_ogs.tif
176
     1
290
     0
176
     1
 40
1.0
176
     1
 40
1.0
176
     1
  0
VISUALSTYLE
  5
2C
102
{ACAD_REACTORS
330
29
102
}
330
29
100
AcDbVisualStyle
  2
Gouraud
 70
     2
177
     3
291
     1
 70
    58
 90
        2
176
     1
 90
        2
176
     1
 90
        1
176
     1
 90
        2
176
     1
 40
0.6
176
     1
 40
30.0
176
     1
 62
     7
420
 16777215
176
     1
 90
        0
176
     1
 90
        0
176
     1
 62
     7
176
     1
 62
   257
176
     1
 90
        1
176
     1
 90
        1
176
     1
 40
1.0
176
     1
 90
        0
176
     1
 62
     7
176
     1
 40
1.0
176
     1
 90
        1
176
     1
 90
        6
176
     1
 90
        2
176
     1
 62
     7
176
     1
 90
        5
176
     1
 90
        0
176
     1
 90
        0
176
     1
290
     0
176
     1
 90
       13
176
     1
 40
0.0
176
     1
 90
        0
176
     1
290
     0
176
     1
290
     1
176
     1
290
     1
176
     1
290
     0
176
     1
290
     0
176
     1
290
     0
176
     1
290
     0
176
     1
290
     0
176
     1
290
     0
176
     1
 90
       50
176
     1
 40
0.0
176
     1
 40
1.0
176
     1
 90
        0
176
     1
 62
    18
420
        0
176
     1
 90
       50
176
     1
 90
        3
176
     1
 62
     5
420
      255
176
     1
290
     0
176
     1
 90
       50
176
     1
 90
       50
176
     1
 90
       50
176
     1
290
     0
176
     1
 90
       50
176
     1
 62
   256
176
     0
 40
1.0
176
     0
 90
        2
176
     1
  1
strokes_ogs.tif
176
     1
290
     0
176
     1
 40
1.0
176
     1
 40
1.0
176
     1
  0
VISUALSTYLE
  5
2D
102
{ACAD_REACTORS
330
29
102
}
330
29
100
AcDbVisualStyle
  2
GouraudWithEdges
 70
     3
177
     3
291
     1
 70
    58
 90
        2
176
     1
 90
        2
176
     1
 90
        1
176
     1
 90
        2
176
     1
 40
0.6
176
     1
 40
30.0
176
     1
 62
     7
420
 16777215
176
     1
 90
        1
176
     1
 90
        0
176
     1
 62
     7
176
     1
 62
   257
176
     1
 90
        1
176
     1
 90
        1
176
     1
 40
1.0
176
     1
 90
        0
176
     1
 62
   257
176
     1
 40
1.0
176
     1
 90
        1
176
     1
 90
        6
176
     1
 90
        2
176
     1
 62
     7
176
     1
 90
        5
176
     1
 90
        0
176
     1
 90
        0
176
     1
290
     0
176
     1
 90
       13
176
     1
 40
0.0
176
     1
 90
        0
176
     1
290
     0
176
     1
290
     1
176
     1
290
     1
176
     1
290
     0
176
     1
290
     0
176
     1
290
     0
176
     1
290
     0
176
     1
290
     0
176
     1
290
     0
176
     1
 90
       50
176
     1
 40
0.0
176
     1
 40
1.0
176
     1
 90
        0
176
     1
 62
    18
420
        0
176
     1
 90
       50
176
     1
 90
        3
176
     1
 62
     5
420
      255
176
     1
290
     0
176
     1
 90
       50
176
     1
 90
       50
176
     1
 90
       50
176
     1
290
     0
176
     1
 90
       50
176
     1
 62
   256
176
     0
 40
1.0
176
     0
 90
        2
176
     1
  1
strokes_ogs.tif
176
     1
290
     0
176
     1
 40
1.0
176
     1
 40
1.0
176
     1
  0
VISUALSTYLE
  5
31
102
{ACAD_REACTORS
330
29
102
}
330
29
100
AcDbVisualStyle
  2
Hidden
 70
     6
177
     3
291
     0
 70
    58
 90
        1
176
     1
 90
        2
176
     1
 90
        2
176
     1
 90
        0
176
     1
 40
0.6
176
     1
 40
30.0
176
     1
 62
     7
420
 16777215
176
     1
 90
        2
176
     1
 90
        2
176
     1
 62
     7
176
     1
 62
   257
176
     1
 90
        2
176
     1
 90
        1
176
     1
 40
40.0
176
     1
 90
        0
176
     1
 62
   257
176
     1
 40
1.0
176
     1
 90
        1
176
     1
 90
        6
176
     1
 90
        2
176
     1
 62
     7
176
     1
 90
        3
176
     1
 90
        0
176
     1
 90
        0
176
     1
290
     0
176
     1
 90
        1
176
     1
 40
0.0
176
     1
 90
        0
176
     1
290
     0
176
     1
290
     1
176
     1
290
     1
176
     1
290
     0
176
     1
290
     0
176
     1
290
     0
176
     1
290
     0
176
     1
290
     0
176
     1
290
     0
176
     1
 90
       50
176
     1
 40
0.0
176
     1
 40
1.0
176
     1
 90
        0
176
     1
 62
    18
420
        0
176
     1
 90
       50
176
     1
 90
        3
176
     1
 62
     5
420
      255
176
     1
290
     0
176
     1
 90
       50
176
     1
 90
       50
176
     1
 90
       50
176
     1
290
     0
176
     1
 90
       50
176
     1
 62
   256
176
     0
 40
1.0
176
     0
 90
        2
176
     1
  1
strokes_ogs.tif
176
     1
290
     0
176
     1
 40
1.0
176
     1
 40
1.0
176
     1
  0
VISUALSTYLE
  5
3F
102
{ACAD_REACTORS
330
29
102
}
330
29
100
AcDbVisualStyle
  2
JitterOff
 70
    20
177
     3
291
     1
 70
    58
 90
        2
176
     0
 90
        2
176
     0
 90
        0
176
     0
 90
        0
176
     0
 40
0.6
176
     0
 40
30.0
176
     0
 62
     7
420
 16777215
176
     0
 90
        1
176
     0
 90
        4
176
     0
 62
     7
176
     0
 62
   257
176
     0
 90
        1
176
     0
 90
        1
176
     0
 40
1.0
176
     0
 90
       10
176
     2
 62
     7
176
     0
 40
1.0
176
     0
 90
        1
176
     0
 90
        6
176
     0
 90
        2
176
     0
 62
     7
176
     0
 90
        5
176
     0
 90
        0
176
     0
 90
        0
176
     0
290
     0
176
     0
 90
        1
176
     0
 40
0.0
176
     0
 90
        0
176
     0
290
     0
176
     0
290
     1
176
     0
290
     1
176
     0
290
     0
176
     0
290
     0
176
     0
290
     0
176
     0
290
     0
176
     0
290
     0
176
     0
290
     0
176
     0
 90
       50
176
     0
 40
0.0
176
     0
 40
1.0
176
     0
 90
        0
176
     0
 62
    18
420
        0
176
     0
 90
       50
176
     0
 90
        3
176
     0
 62
     5
420
      255
176
     0
290
     0
176
     0
 90
       50
176
     0
 90
       50
176
     0
 90
       50
176
     0
290
     0
176
     0
 90
       50
176
     0
 62
   256
176
     0
 40
1.0
176
     0
 90
        2
176
     0
  1
strokes_ogs.tif
176
     0
290
     0
176
     0
 40
1.0
176
     0
 40
1.0
176
     0
  0
VISUALSTYLE
  5
37
102
{ACAD_REACTORS
330
29
102
}
330
29
100
AcDbVisualStyle
  2
Linepattern
 70
    14
177
     3
291
     1
 70
    58
 90
        2
176
     1
 90
        2
176
     1
 90
        0
176
     1
 90
        0
176
     1
 40
0.6
176
     1
 40
30.0
176
     1
 62
     7
420
 16777215
176
     1
 90
        1
176
     1
 90
        4
176
     1
 62
     7
176
     1
 62
   257
176
     1
 90
        7
176
     1
 90
        7
176
     1
 40
1.0
176
     1
 90
        8
176
     1
 62
     7
176
     1
 40
1.0
176
     1
 90
        1
176
     1
 90
        6
176
     1
 90
        2
176
     1
 62
     7
176
     1
 90
        5
176
     1
 90
        0
176
     1
 90
        0
176
     1
290
     0
176
     1
 90
        1
176
     1
 40
0.0
176
     1
 90
        0
176
     1
290
     0
176
     1
290
     1
176
     1
290
     1
176
     1
290
     0
176
     1
290
     0
176
     1
290
     0
176
     1
290
     0
176
     1
290
     0
176
     1
290
     0
176
     1
 90
       50
176
     1
 40
0.0
176
     1
 40
1.0
176
     1
 90
        0
176
     1
 62
    18
420
        0
176
     1
 90
       50
176
     1
 90
        3
176
     1
 62
     5
420
      255
176
     1
290
     0
176
     1
 90
       50
176
     1
 90
       50
176
     1
 90
       50
176
     1
290
     0
176
     1
 90
       50
176
     1
 62
   256
176
     0
 40
1.0
176
     0
 90
        2
176
     1
  1
strokes_ogs.tif
176
     1
290
     0
176
     1
 40
1.0
176
     1
 40
1.0
176
     1
  0
VISUALSTYLE
  5
40
102
{ACAD_REACTORS
330
29
102
}
330
29
100
AcDbVisualStyle
  2
OverhangOff
 70
    21
177
     3
291
     1
 70
    58
 90
        2
176
     0
 90
        2
176
     0
 90
        0
176
     0
 90
        0
176
     0
 40
0.6
176
     0
 40
30.0
176
     0
 62
     7
420
 16777215
176
     0
 90
        1
176
     0
 90
        4
176
     0
 62
     7
176
     0
 62
   257
176
     0
 90
        1
176
     0
 90
        1
176
     0
 40
1.0
176
     0
 90
        9
176
     2
 62
     7
176
     0
 40
1.0
176
     0
 90
        1
176
     0
 90
        6
176
     0
 90
        2
176
     0
 62
     7
176
     0
 90
        5
176
     0
 90
        0
176
     0
 90
        0
176
     0
290
     0
176
     0
 90
        1
176
     0
 40
0.0
176
     0
 90
        0
176
     0
290
     0
176
     0
290
     1
176
     0
290
     1
176
     0
290
     0
176
     0
290
     0
176
     0
290
     0
176
     0
290
     0
176
     0
290
     0
176
     0
290
     0
176
     0
 90
       50
176
     0
 40
0.0
176
     0
 40
1.0
176
     0
 90
        0
176
     0
 62
    18
420
        0
176
     0
 90
       50
176
     0
 90
        3
176
     0
 62
     5
420
      255
176
     0
290
     0
176
     0
 90
       50
176
     0
 90
       50
176
     0
 90
       50
176
     0
290
     0
176
     0
 90
       50
176
     0
 62
   256
176
     0
 40
1.0
176
     0
 90
        2
176
     0
  1
strokes_ogs.tif
176
     0
290
     0
176
     0
 40
1.0
176
     0
 40
1.0
176
     0
  0
VISUALSTYLE
  5
33
102
{ACAD_REACTORS
330
29
102
}
330
29
100
AcDbVisualStyle
  2
Realistic
 70
     8
177
     3
291
     0
 70
    58
 90
        2
176
     1
 90
        3
176
     1
 90
        0
176
     1
 90
        2
176
     1
 40
0.6
176
     1
 40
30.0
176
     1
 62
     7
420
 16777215
176
     1
 90
        0
176
     1
 90
        0
176
     1
 62
     7
176
     1
 62
   257
176
     1
 90
        1
176
     1
 90
        1
176
     1
 40
1.0
176
     1
 90
        8
176
     1
 62
   257
176
     1
 40
1.0
176
     1
 90
        1
176
     1
 90
        6
176
     1
 90
        2
176
     1
 62
     7
176
     1
 90
        3
176
     1
 90
        0
176
     1
 90
        0
176
     1
290
     0
176
     1
 90
       13
176
     1
 40
0.0
176
     1
 90
        0
176
     1
290
     0
176
     1
290
     1
176
     1
290
     1
176
     1
290
     0
176
     1
290
     0
176
     1
290
     0
176
     1
290
     0
176
     1
290
     0
176
     1
290
     0
176
     1
 90
       50
176
     1
 40
0.0
176
     1
 40
1.0
176
     1
 90
        0
176
     1
 62
    18
420
        0
176
     1
 90
       50
176
     1
 90
        3
176
     1
 62
     5
420
      255
176
     1
290
     0
176
     1
 90
       50
176
     1
 90
       50
176
     1
 90
       50
176
     1
290
     0
176
     1
 90
       50
176
     1
 62
   256
176
     0
 40
1.0
176
     0
 90
        2
176
     1
  1
strokes_ogs.tif
176
     1
290
     0
176
     1
 40
1.0
176
     1
 40
1.0
176
     1
  0
VISUALSTYLE
  5
3E
102
{ACAD_REACTORS
330
29
102
}
330
29
100
AcDbVisualStyle
  2
Shaded
 70
    27
177
     3
291
     0
 70
    58
 90
        2
176
     1
 90
        2
176
     1
 90
        1
176
     1
 90
        2
176
     1
 40
0.6
176
     1
 40
30.0
176
     1
 62
     7
420
 16777215
176
     1
 90
        0
176
     1
 90
        4
176
     1
 62
     7
176
     1
 62
   257
176
     1
 90
        1
176
     1
 90
        1
176
     1
 40
1.0
176
     1
 90
        8
176
     1
 62
   257
176
     1
 40
1.0
176
     1
 90
        1
176
     1
 90
        6
176
     1
 90
        2
176
     1
 62
     8
420
  7895160
176
     1
 90
        3
176
     1
 90
        0
176
     1
 90
        0
176
     1
290
     0
176
     1
 90
        5
176
     1
 40
0.0
176
     1
 90
        0
176
     1
290
     0
176
     1
290
     1
176
     1
290
     1
176
     1
290
     0
176
     1
290
     0
176
     1
290
     0
176
     1
290
     0
176
     1
290
     0
176
     1
290
     0
176
     1
 90
       50
176
     1
 40
0.0
176
     1
 40
1.0
176
     1
 90
        0
176
     1
 62
    18
420
        0
176
     1
 90
       50
176
     1
 90
        3
176
     1
 62
     5
420
      255
176
     1
290
     0
176
     1
 90
       50
176
     1
 90
       50
176
     1
 90
       50
176
     1
290
     0
176
     1
 90
       50
176
     1
 62
   256
176
     0
 40
1.0
176
     0
 90
        2
176
     1
  1
strokes_ogs.tif
176
     1
290
     0
176
     1
 40
1.0
176
     1
 40
1.0
176
     1
  0
VISUALSTYLE
  5
3D
102
{ACAD_REACTORS
330
29
102
}
330
29
100
AcDbVisualStyle
  2
Shaded with edges
 70
    26
177
     3
291
     0
 70
    58
 90
        2
176
     1
 90
        2
176
     1
 90
        1
176
     1
 90
        2
176
     1
 40
0.6
176
     1
 40
30.0
176
     1
 62
     7
420
 16777215
176
     1
 90
        1
176
     1
 90
        2
176
     1
 62
     7
176
     1
 62
   257
176
     1
 90
        2
176
     1
 90
        1
176
     1
 40
1.0
176
     1
 90
        8
176
     1
 62
   257
176
     1
 40
1.0
176
     1
 90
        1
176
     1
 90
        6
176
     1
 90
        2
176
     1
 62
     7
176
     1
 90
        3
176
     1
 90
        0
176
     1
 90
        0
176
     1
290
     0
176
     1
 90
        5
176
     1
 40
0.0
176
     1
 90
        0
176
     1
290
     0
176
     1
290
     1
176
     1
290
     1
176
     1
290
     0
176
     1
290
     0
176
     1
290
     0
176
     1
290
     0
176
     1
290
     0
176
     1
290
     0
176
     1
 90
       50
176
     1
 40
0.0
176
     1
 40
1.0
176
     1
 90
        0
176
     1
 62
    18
420
        0
176
     1
 90
       50
176
     1
 90
        3
176
     1
 62
     5
420
      255
176
     1
290
     0
176
     1
 90
       50
176
     1
 90
       50
176
     1
 90
       50
176
     1
290
     0
176
     1
 90
       50
176
     1
 62
   256
176
     0
 40
1.0
176
     0
 90
        2
176
     1
  1
strokes_ogs.tif
176
     1
290
     0
176
     1
 40
1.0
176
     1
 40
1.0
176
     1
  0
VISUALSTYLE
  5
3A
102
{ACAD_REACTORS
330
29
102
}
330
29
100
AcDbVisualStyle
  2
Shades of Gray
 70
    23
177
     3
291
     0
 70
    58
 90
        2
176
     1
 90
        2
176
     1
 90
        3
176
     1
 90
        0
176
     1
 40
0.6
176
     1
 40
30.0
176
     1
 62
     7
420
 16777215
176
     1
 90
        2
176
     1
 90
        2
176
     1
 62
     7
176
     1
 62
     7
176
     1
 90
        1
176
     1
 90
        1
176
     1
 40
40.0
176
     1
 90
        8
176
     1
 62
     7
176
     1
 40
1.0
176
     1
 90
        1
176
     1
 90
        6
176
     1
 90
        2
176
     1
 62
     7
176
     1
 90
        3
176
     1
 90
        0
176
     1
 90
        0
176
     1
290
     0
176
     1
 90
        1
176
     1
 40
0.0
176
     1
 90
        0
176
     1
290
     0
176
     1
290
     1
176
     1
290
     1
176
     1
290
     0
176
     1
290
     0
176
     1
290
     0
176
     1
290
     0
176
     1
290
     0
176
     1
290
     0
176
     1
 90
       50
176
     1
 40
0.0
176
     1
 40
1.0
176
     1
 90
        0
176
     1
 62
    18
420
        0
176
     1
 90
       50
176
     1
 90
        3
176
     1
 62
     5
420
      255
176
     1
290
     0
176
     1
 90
       50
176
     1
 90
       50
176
     1
 90
       50
176
     1
290
     0
176
     1
 90
       50
176
     1
 62
   256
176
     0
 40
1.0
176
     0
 90
        2
176
     1
  1
strokes_ogs.tif
176
     1
290
     0
176
     1
 40
1.0
176
     1
 40
1.0
176
     1
  0
VISUALSTYLE
  5
3B
102
{ACAD_REACTORS
330
29
102
}
330
29
100
AcDbVisualStyle
  2
Sketchy
 70
    24
177
     3
291
     0
 70
    58
 90
        1
176
     1
 90
        2
176
     1
 90
        2
176
     1
 90
        0
176
     1
 40
0.6
176
     1
 40
30.0
176
     1
 62
     7
420
 16777215
176
     1
 90
        2
176
     1
 90
        2
176
     1
 62
     7
176
     1
 62
     7
176
     1
 90
        1
176
     1
 90
        1
176
     1
 40
40.0
176
     1
 90
       11
176
     1
 62
     7
176
     1
 40
1.0
176
     1
 90
        1
176
     1
 90
        6
176
     1
 90
        2
176
     1
 62
     7
176
     1
 90
        6
176
     1
 90
        0
176
     1
 90
        0
176
     1
290
     0
176
     1
 90
        1
176
     1
 40
0.0
176
     1
 90
        0
176
     1
290
     0
176
     1
290
     1
176
     1
290
     1
176
     1
290
     0
176
     1
290
     0
176
     1
290
     0
176
     1
290
     0
176
     1
290
     0
176
     1
290
     0
176
     1
 90
       50
176
     1
 40
0.0
176
     1
 40
1.0
176
     1
 90
        0
176
     1
 62
    18
420
        0
176
     1
 90
       50
176
     1
 90
        3
176
     1
 62
     5
420
      255
176
     1
290
     0
176
     1
 90
       50
176
     1
 90
       50
176
     1
 90
       50
176
     1
290
     0
176
     1
 90
       50
176
     1
 62
   256
176
     0
 40
1.0
176
     0
 90
        2
176
     1
  1
strokes_ogs.tif
176
     1
290
     0
176
     1
 40
1.0
176
     1
 40
1.0
176
     1
  0
VISUALSTYLE
  5
36
102
{ACAD_REACTORS
330
29
102
}
330
29
100
AcDbVisualStyle
  2
Thicken
 70
    13
177
     3
291
     1
 70
    58
 90
        2
176
     1
 90
        2
176
     1
 90
        0
176
     1
 90
        0
176
     1
 40
0.6
176
     1
 40
30.0
176
     1
 62
     7
420
 16777215
176
     1
 90
        1
176
     1
 90
        4
176
     1
 62
     7
176
     1
 62
   257
176
     1
 90
        1
176
     1
 90
        1
176
     1
 40
1.0
176
     1
 90
       12
176
     1
 62
     7
176
     1
 40
1.0
176
     1
 90
        1
176
     1
 90
        6
176
     1
 90
        2
176
     1
 62
     7
176
     1
 90
        5
176
     1
 90
        0
176
     1
 90
        0
176
     1
290
     0
176
     1
 90
        1
176
     1
 40
0.0
176
     1
 90
        0
176
     1
290
     0
176
     1
290
     1
176
     1
290
     1
176
     1
290
     0
176
     1
290
     0
176
     1
290
     0
176
     1
290
     0
176
     1
290
     0
176
     1
290
     0
176
     1
 90
       50
176
     1
 40
0.0
176
     1
 40
1.0
176
     1
 90
        0
176
     1
 62
    18
420
        0
176
     1
 90
       50
176
     1
 90
        3
176
     1
 62
     5
420
      255
176
     1
290
     0
176
     1
 90
       50
176
     1
 90
       50
176
     1
 90
       50
176
     1
290
     0
176
     1
 90
       50
176
     1
 62
   256
176
     0
 40
1.0
176
     0
 90
        2
176
     1
  1
strokes_ogs.tif
176
     1
290
     0
176
     1
 40
1.0
176
     1
 40
1.0
176
     1
  0
VISUALSTYLE
  5
30
102
{ACAD_REACTORS
330
29
102
}
330
29
100
AcDbVisualStyle
  2
Wireframe
 70
     5
177
     3
291
     0
 70
    58
 90
        0
176
     1
 90
        2
176
     1
 90
        0
176
     1
 90
        0
176
     1
 40
0.6
176
     1
 40
30.0
176
     1
 62
     7
420
 16777215
176
     1
 90
        1
176
     1
 90
        4
176
     1
 62
     7
176
     1
 62
   257
176
     1
 90
        1
176
     1
 90
        1
176
     1
 40
1.0
176
     1
 90
        0
176
     1
 62
   257
176
     1
 40
1.0
176
     1
 90
        1
176
     1
 90
        6
176
     1
 90
        2
176
     1
 62
     7
176
     1
 90
        3
176
     1
 90
        0
176
     1
 90
        0
176
     1
290
     0
176
     1
 90
        1
176
     1
 40
0.0
176
     1
 90
        0
176
     1
290
     0
176
     1
290
     1
176
     1
290
     1
176
     1
290
     0
176
     1
290
     0
176
     1
290
     0
176
     1
290
     0
176
     1
290
     0
176
     1
290
     0
176
     1
 90
       50
176
     1
 40
0.0
176
     1
 40
1.0
176
     1
 90
        0
176
     1
 62
    18
420
        0
176
     1
 90
       50
176
     1
 90
        3
176
     1
 62
     5
420
      255
176
     1
290
     0
176
     1
 90
       50
176
     1
 90
       50
176
     1
 90
       50
176
     1
290
     0
176
     1
 90
       50
176
     1
 62
   256
176
     0
 40
1.0
176
     0
 90
        2
176
     1
  1
strokes_ogs.tif
176
     1
290
     0
176
     1
 40
1.0
176
     1
 40
1.0
176
     1
  0
VISUALSTYLE
  5
3C
102
{ACAD_REACTORS
330
29
102
}
330
29
100
AcDbVisualStyle
  2
X-Ray
 70
    25
177
     3
291
     0
 70
    58
 90
        2
176
     1
 90
        2
176
     1
 90
        1
176
     1
 90
        1
176
     1
 40
0.5
176
     1
 40
30.0
176
     1
 62
     7
420
 16777215
176
     1
 90
        1
176
     1
 90
        0
176
     1
 62
     7
176
     1
 62
   257
176
     1
 90
        1
176
     1
 90
        1
176
     1
 40
1.0
176
     1
 90
        8
176
     1
 62
     7
176
     1
 40
1.0
176
     1
 90
        1
176
     1
 90
        6
176
     1
 90
        2
176
     1
 62
     7
176
     1
 90
        3
176
     1
 90
        0
176
     1
 90
        0
176
     1
290
     0
176
     1
 90
       13
176
     1
 40
0.0
176
     1
 90
        0
176
     1
290
     0
176
     1
290
     1
176
     1
290
     1
176
     1
290
     0
176
     1
290
     0
176
     1
290
     0
176
     1
290
     0
176
     1
290
     0
176
     1
290
     0
176
     1
 90
       50
176
     1
 40
0.0
176
     1
 40
1.0
176
     1
 90
        0
176
     1
 62
    18
420
        0
176
     1
 90
       50
176
     1
 90
        3
176
     1
 62
     5
420
      255
176
     1
290
     0
176
     1
 90
       50
176
     1
 90
       50
176
     1
 90
       50
176
     1
290
     0
176
     1
 90
       50
176
     1
 62
   256
176
     0
 40
1.0
176
     0
 90
        2
176
     1
  1
strokes_ogs.tif
176
     1
290
     0
176
     1
 40
1.0
176
     1
 40
1.0
176
     1
  0
DICTIONARYVAR
  5
AD
102
{ACAD_REACTORS
330
A8
102
}
330
A8
100
DictionaryVariables
280
     0
  1
1:1
  0
DICTIONARYVAR
  5
AA
102
{ACAD_REACTORS
330
A8
102
}
330
A8
100
DictionaryVariables
280
     0
  1
STANDARD
  0
DICTIONARYVAR
  5
A9
102
{ACAD_REACTORS
330
A8
102
}
330
A8
100
DictionaryVariables
280
     0
  1
STANDARD
  0
DICTIONARYVAR
  5
AB
102
{ACAD_REACTORS
330
A8
102
}
330
A8
100
DictionaryVariables
280
     0
  1
Imperial24
  0
DICTIONARYVAR
  5
AC
102
{ACAD_REACTORS
330
A8
102
}
330
A8
100
DictionaryVariables
280
     0
  1
Imperial24
  0
DICTIONARY
  5
1A
330
19
100
AcDbDictionary
280
     1
281
     1
  3
BUMPTILE
360
1C
  3
DIFFUSETILE
360
1B
  3
OPACITYTILE
360
1F
  3
REFLECTIONTILE
360
1E
  3
REFRACTIONTILE
360
20
  3
SPECULARTILE
360
1D
  0
DICTIONARY
  5
12
330
11
100
AcDbDictionary
280
     1
281
     1
  3
BUMPTILE
360
14
  3
DIFFUSETILE
360
13
  3
OPACITYTILE
360
17
  3
REFLECTIONTILE
360
16
  3
REFRACTIONTILE
360
18
  3
SPECULARTILE
360
15
  0
DICTIONARY
  5
22
330
21
100
AcDbDictionary
280
     1
281
     1
  3
BUMPTILE
360
24
  3
DIFFUSETILE
360
23
  3
OPACITYTILE
360
27
  3
REFLECTIONTILE
360
26
  3
REFRACTIONTILE
360
28
  3
SPECULARTILE
360
25
  0
DICTIONARY
  5
AE
330
65
100
AcDbDictionary
280
     1
281
     1
  3
ACAD_ROUNDTRIP_2008_TABLESTYLE_CELLSTYLEMAP
360
AF
  0
XRECORD
  5
1C
102
{ACAD_REACTORS
330
1A
102
}
330
1A
100
AcDbXrecord
280
     1
270
     1
271
     1
  0
XRECORD
  5
1B
102
{ACAD_REACTORS
330
1A
102
}
330
1A
100
AcDbXrecord
280
     1
270
     1
271
     1
  0
XRECORD
  5
1F
102
{ACAD_REACTORS
330
1A
102
}
330
1A
100
AcDbXrecord
280
     1
270
     1
271
     1
  0
XRECORD
  5
1E
102
{ACAD_REACTORS
330
1A
102
}
330
1A
100
AcDbXrecord
280
     1
270
     1
271
     1
  0
XRECORD
  5
20
102
{ACAD_REACTORS
330
1A
102
}
330
1A
100
AcDbXrecord
280
     1
270
     1
271
     1
  0
XRECORD
  5
1D
102
{ACAD_REACTORS
330
1A
102
}
330
1A
100
AcDbXrecord
280
     1
270
     1
271
     1
  0
XRECORD
  5
14
102
{ACAD_REACTORS
330
12
102
}
330
12
100
AcDbXrecord
280
     1
270
     1
271
     1
  0
XRECORD
  5
13
102
{ACAD_REACTORS
330
12
102
}
330
12
100
AcDbXrecord
280
     1
270
     1
271
     1
  0
XRECORD
  5
17
102
{ACAD_REACTORS
330
12
102
}
330
12
100
AcDbXrecord
280
     1
270
     1
271
     1
  0
XRECORD
  5
16
102
{ACAD_REACTORS
330
12
102
}
330
12
100
AcDbXrecord
280
     1
270
     1
271
     1
  0
XRECORD
  5
18
102
{ACAD_REACTORS
330
12
102
}
330
12
100
AcDbXrecord
280
     1
270
     1
271
     1
  0
XRECORD
  5
15
102
{ACAD_REACTORS
330
12
102
}
330
12
100
AcDbXrecord
280
     1
270
     1
271
     1
  0
XRECORD
  5
24
102
{ACAD_REACTORS
330
22
102
}
330
22
100
AcDbXrecord
280
     1
270
     1
271
     1
  0
XRECORD
  5
23
102
{ACAD_REACTORS
330
22
102
}
330
22
100
AcDbXrecord
280
     1
270
     1
271
     1
  0
XRECORD
  5
27
102
{ACAD_REACTORS
330
22
102
}
330
22
100
AcDbXrecord
280
     1
270
     1
271
     1
  0
XRECORD
  5
26
102
{ACAD_REACTORS
330
22
102
}
330
22
100
AcDbXrecord
280
     1
270
     1
271
     1
  0
XRECORD
  5
28
102
{ACAD_REACTORS
330
22
102
}
330
22
100
AcDbXrecord
280
     1
270
     1
271
     1
  0
XRECORD
  5
25
102
{ACAD_REACTORS
330
22
102
}
330
22
100
AcDbXrecord
280
     1
270
     1
271
     1
  0
CELLSTYLEMAP
  5
AF
102
{ACAD_REACTORS
330
AE
102
}
330
AE
100
AcDbCellStyleMap
 90
        3
300
CELLSTYLE
  1
TABLEFORMAT_BEGIN
 90
        5
170
     1
 91
        0
 92
    32768
 62
   257
 93
        1
300
CONTENTFORMAT
  1
CONTENTFORMAT_BEGIN
 90
        0
 91
        0
 92
      512
 93
        0
300

 40
0.0
140
1.0
 94
        5
 62
     0
340
55
144
0.25
309
CONTENTFORMAT_END
171
     0
 94
        0
309
TABLEFORMAT_END
  1
CELLSTYLE_BEGIN
 90
        1
 91
        1
300
_TITLE
309
CELLSTYLE_END
300
CELLSTYLE
  1
TABLEFORMAT_BEGIN
 90
        5
170
     1
 91
        0
 92
        0
 62
   257
 93
        1
300
CONTENTFORMAT
  1
CONTENTFORMAT_BEGIN
 90
        0
 91
        0
 92
      512
 93
        0
300

 40
0.0
140
1.0
 94
        5
 62
     0
340
55
144
0.18
309
CONTENTFORMAT_END
171
     0
 94
        0
309
TABLEFORMAT_END
  1
CELLSTYLE_BEGIN
 90
        2
 91
        1
300
_HEADER
309
CELLSTYLE_END
300
CELLSTYLE
  1
TABLEFORMAT_BEGIN
 90
        5
170
     1
 91
        0
 92
        0
 62
   257
 93
        1
300
CONTENTFORMAT
  1
CONTENTFORMAT_BEGIN
 90
        0
 91
        0
 92
      512
 93
        0
300

 40
0.0
140
1.0
 94
        2
 62
     0
340
55
144
0.18
309
CONTENTFORMAT_END
171
     0
 94
        0
309
TABLEFORMAT_END
  1
CELLSTYLE_BEGIN
 90
        3
 91
        2
300
_DATA
309
CELLSTYLE_END
  0
ENDSEC
  0
EOF
