  0
SECTION
  2
HEADER
  9
$ACADVER
  1
AC1032
  9
$ACADMAINTVER
 90
      228
  9
$DWGCODEPAGE
  3
ANSI_1252
  9
$REQUIREDVERSIONS
160
                 0
  9
$INSBASE
 10
0.0
 20
0.0
 30
0.0
  9
$EXTMIN
 10
1.000000000000000E+20
 20
1.000000000000000E+20
 30
1.000000000000000E+20
  9
$EXTMAX
 10
-1.000000000000000E+20
 20
-1.000000000000000E+20
 30
-1.000000000000000E+20
  9
$LIMMIN
 10
0.0
 20
0.0
  9
$LIMMAX
 10
12.0
 20
9.0
  9
$ORTHOMODE
 70
     0
  9
$REGENMODE
 70
     1
  9
$FILLMODE
 70
     1
  9
$QTEXTMODE
 70
     0
  9
$MIRRTEXT
 70
     0
  9
$LTSCALE
 40
1.0
  9
$ATTMODE
 70
     1
  9
$TEXTSIZE
 40
0.2
  9
$TRACEWID
 40
0.05
  9
$TEXTSTYLE
  7
Standard
  9
$CLAYER
  8
0
  9
$CELTYPE
  6
ByLayer
  9
$CECOLOR
 62
   256
  9
$CELTSCALE
 40
1.0
  9
$DISPSILH
 70
     0
  9
$DIMSCALE
 40
1.0
  9
$DIMASZ
 40
0.18
  9
$DIMEXO
 40
0.0625
  9
$DIMDLI
 40
0.38
  9
$DIMRND
 40
0.0
  9
$DIMDLE
 40
0.0
  9
$DIMEXE
 40
0.18
  9
$DIMTP
 40
0.0
  9
$DIMTM
 40
0.0
  9
$DIMTXT
 40
0.18
  9
$DIMCEN
 40
0.09
  9
$DIMTSZ
 40
0.0
  9
$DIMTOL
 70
     0
  9
$DIMLIM
 70
     0
  9
$DIMTIH
 70
     1
  9
$DIMTOH
 70
     1
  9
$DIMSE1
 70
     0
  9
$DIMSE2
 70
     0
  9
$DIMTAD
 70
     0
  9
$DIMZIN
 70
     0
  9
$DIMBLK
  1

  9
$DIMASO
 70
     1
  9
$DIMSHO
 70
     1
  9
$DIMPOST
  1

  9
$DIMAPOST
  1

  9
$DIMALT
 70
     0
  9
$DIMALTD
 70
     2
  9
$DIMALTF
 40
25.4
  9
$DIMLFAC
 40
1.0
  9
$DIMTOFL
 70
     0
  9
$DIMTVP
 40
0.0
  9
$DIMTIX
 70
     0
  9
$DIMSOXD
 70
     0
  9
$DIMSAH
 70
     0
  9
$DIMBLK1
  1

  9
$DIMBLK2
  1

  9
$DIMSTYLE
  2
Standard
  9
$DIMCLRD
 70
     0
  9
$DIMCLRE
 70
     0
  9
$DIMCLRT
 70
     0
  9
$DIMTFAC
 40
1.0
  9
$DIMGAP
 40
0.09
  9
$DIMJUST
 70
     0
  9
$DIMSD1
 70
     0
  9
$DIMSD2
 70
     0
  9
$DIMTOLJ
 70
     1
  9
$DIMTZIN
 70
     0
  9
$DIMALTZ
 70
     0
  9
$DIMALTTZ
 70
     0
  9
$DIMUPT
 70
     0
  9
$DIMDEC
 70
     4
  9
$DIMTDEC
 70
     4
  9
$DIMALTU
 70
     2
  9
$DIMALTTD
 70
     2
  9
$DIMTXSTY
  7
Standard
  9
$DIMAUNIT
 70
     0
  9
$DIMADEC
 70
     0
  9
$DIMALTRND
 40
0.0
  9
$DIMAZIN
 70
     0
  9
$DIMDSEP
 70
    46
  9
$DIMATFIT
 70
     3
  9
$DIMFRAC
 70
     0
  9
$DIMLDRBLK
  1

  9
$DIMLUNIT
 70
     2
  9
$DIMLWD
 70
    -2
  9
$DIMLWE
 70
    -2
  9
$DIMTMOVE
 70
     0
  9
$DIMFXL
 40
1.0
  9
$DIMFXLON
 70
     0
  9
$DIMJOGANG
 40
0.7853981633974483
  9
$DIMTFILL
 70
     0
  9
$DIMTFILLCLR
 70
     0
  9
$DIMARCSYM
 70
     0
  9
$DIMLTYPE
  6

  9
$DIMLTEX1
  6

  9
$DIMLTEX2
  6

  9
$DIMTXTDIRECTION
 70
     0
  9
$LUNITS
 70
     2
  9
$LUPREC
 70
     4
  9
$SKETCHINC
 40
0.1
  9
$FILLETRAD
 40
0.0
  9
$AUNITS
 70
     0
  9
$AUPREC
 70
     0
  9
$MENU
  1
.
  9
$ELEVATION
 40
0.0
  9
$PELEVATION
 40
0.0
  9
$THICKNESS
 40
0.0
  9
$LIMCHECK
 70
     0
  9
$CHAMFERA
 40
0.0
  9
$CHAMFERB
 40
0.0
  9
$CHAMFERC
 40
0.0
  9
$CHAMFERD
 40
0.0
  9
$SKPOLY
 70
     0
  9
$TDCREATE
 40
2460144.954861111
  9
$TDUCREATE
 40
2460145.246527778
  9
$TDUPDATE
 40
2460144.954861111
  9
$TDUUPDATE
 40
2460145.246527778
  9
$TDINDWG
 40
0.0000000000
  9
$TDUSRTIMER
 40
0.0000000000
  9
$USRTIMER
 70
     1
  9
$ANGBASE
 50
0.0
  9
$ANGDIR
 70
     0
  9
$PDMODE
 70
     0
  9
$PDSIZE
 40
0.0
  9
$PLINEWID
 40
0.0
  9
$SPLFRAME
 70
     0
  9
$SPLINETYPE
 70
     6
  9
$SPLINESEGS
 70
     8
  9
$HANDSEED
  5
C6
  9
$SURFTAB1
 70
     6
  9
$SURFTAB2
 70
     6
  9
$SURFTYPE
 70
     6
  9
$SURFU
 70
     6
  9
$SURFV
 70
     6
  9
$UCSBASE
  2

  9
$UCSNAME
  2

  9
$UCSORG
 10
0.0
 20
0.0
 30
0.0
  9
$UCSXDIR
 10
1.0
 20
0.0
 30
0.0
  9
$UCSYDIR
 10
0.0
 20
1.0
 30
0.0
  9
$UCSORTHOREF
  2

  9
$UCSORTHOVIEW
 70
     0
  9
$UCSORGTOP
 10
0.0
 20
0.0
 30
0.0
  9
$UCSORGBOTTOM
 10
0.0
 20
0.0
 30
0.0
  9
$UCSORGLEFT
 10
0.0
 20
0.0
 30
0.0
  9
$UCSORGRIGHT
 10
0.0
 20
0.0
 30
0.0
  9
$UCSORGFRONT
 10
0.0
 20
0.0
 30
0.0
  9
$UCSORGBACK
 10
0.0
 20
0.0
 30
0.0
  9
$PUCSBASE
  2

  9
$PUCSNAME
  2

  9
$PUCSORG
 10
0.0
 20
0.0
 30
0.0
  9
$PUCSXDIR
 10
1.0
 20
0.0
 30
0.0
  9
$PUCSYDIR
 10
0.0
 20
1.0
 30
0.0
  9
$PUCSORTHOREF
  2

  9
$PUCSORTHOVIEW
 70
     0
  9
$PUCSORGTOP
 10
0.0
 20
0.0
 30
0.0
  9
$PUCSORGBOTTOM
 10
0.0
 20
0.0
 30
0.0
  9
$PUCSORGLEFT
 10
0.0
 20
0.0
 30
0.0
  9
$PUCSORGRIGHT
 10
0.0
 20
0.0
 30
0.0
  9
$PUCSORGFRONT
 10
0.0
 20
0.0
 30
0.0
  9
$PUCSORGBACK
 10
0.0
 20
0.0
 30
0.0
  9
$USERI1
 70
     0
  9
$USERI2
 70
     0
  9
$USERI3
 70
     0
  9
$USERI4
 70
     0
  9
$USERI5
 70
     0
  9
$USERR1
 40
0.0
  9
$USERR2
 40
0.0
  9
$USERR3
 40
0.0
  9
$USERR4
 40
0.0
  9
$USERR5
 40
0.0
  9
$WORLDVIEW
 70
     1
  9
$SHADEDGE
 70
     3
  9
$SHADEDIF
 70
    70
  9
$TILEMODE
 70
     1
  9
$MAXACTVP
 70
    64
  9
$PINSBASE
 10
0.0
 20
0.0
 30
0.0
  9
$PLIMCHECK
 70
     0
  9
$PEXTMIN
 10
1.000000000000000E+20
 20
1.000000000000000E+20
 30
1.000000000000000E+20
  9
$PEXTMAX
 10
-1.000000000000000E+20
 20
-1.000000000000000E+20
 30
-1.000000000000000E+20
  9
$PLIMMIN
 10
0.0
 20
0.0
  9
$PLIMMAX
 10
12.0
 20
9.0
  9
$UNITMODE
 70
     0
  9
$VISRETAIN
 70
     1
  9
$PLINEGEN
 70
     0
  9
$PSLTSCALE
 70
     1
  9
$TREEDEPTH
 70
  3020
  9
$CMLSTYLE
  2
Standard
  9
$CMLJUST
 70
     0
  9
$CMLSCALE
 40
1.0
  9
$PROXYGRAPHICS
 70
     1
  9
$MEASUREMENT
 70
     0
  9
$CELWEIGHT
370
    -1
  9
$ENDCAPS
280
     0
  9
$JOINSTYLE
280
     0
  9
$LWDISPLAY
290
     1
  9
$INSUNITS
 70
     1
  9
$HYPERLINKBASE
  1

  9
$STYLESHEET
  1

  9
$XEDIT
290
     1
  9
$CEPSNTYPE
380
     0
  9
$PSTYLEMODE
290
     1
  9
$FINGERPRINTGUID
  2
{9327C5C0-EBB8-A646-A097-74095B0F4F15}
  9
$VERSIONGUID
  2
{AABB5406-13E6-5D42-95DC-277D7361E0BB}
  9
$EXTNAMES
290
     1
  9
$PSVPSCALE
 40
0.0
  9
$OLESTARTUP
290
     0
  9
$SORTENTS
280
   127
  9
$INDEXCTL
280
     0
  9
$HIDETEXT
280
     1
  9
$XCLIPFRAME
280
     2
  9
$HALOGAP
280
     0
  9
$OBSCOLOR
 70
   257
  9
$OBSLTYPE
280
     0
  9
$INTERSECTIONDISPLAY
280
     0
  9
$INTERSECTIONCOLOR
 70
   257
  9
$DIMASSOC
280
     2
  9
$PROJECTNAME
  1

  9
$CAMERADISPLAY
290
     0
  9
$LENSLENGTH
 40
50.0
  9
$CAMERAHEIGHT
 40
0.0
  9
$STEPSPERSEC
 40
2.0
  9
$STEPSIZE
 40
6.0
  9
$3DDWFPREC
 40
2.0
  9
$PSOLWIDTH
 40
0.25
  9
$PSOLHEIGHT
 40
4.0
  9
$LOFTANG1
 40
1.570796326794896
  9
$LOFTANG2
 40
1.570796326794896
  9
$LOFTMAG1
 40
0.0
  9
$LOFTMAG2
 40
0.0
  9
$LOFTPARAM
 70
     7
  9
$LOFTNORMALS
280
     1
  9
$LATITUDE
 40
37.795
  9
$LONGITUDE
 40
-122.394
  9
$NORTHDIRECTION
 40
0.0
  9
$TIMEZONE
 70
 -8000
  9
$LIGHTGLYPHDISPLAY
280
     1
  9
$TILEMODELIGHTSYNCH
280
     1
  9
$CMATERIAL
347
11
  9
$SOLIDHIST
280
     0
  9
$SHOWHIST
280
     1
  9
$DWFFRAME
280
     2
  9
$DGNFRAME
280
     0
  9
$REALWORLDSCALE
290
     1
  9
$INTERFERECOLOR
 62
     1
  9
$INTERFEREOBJVS
345
33
  9
$INTERFEREVPVS
346
30
  9
$CSHADOW
280
     0
  9
$SHADOWPLANELOCATION
 40
0.0
  0
ENDSEC
  0
SECTION
  2
CLASSES
  0
CLASS
  1
ACDBDICTIONARYWDFLT
  2
AcDbDictionaryWithDefault
  3
ObjectDBX Classes
 90
        0
 91
        1
280
     0
281
     0
  0
CLASS
  1
MATERIAL
  2
AcDbMaterial
  3
ObjectDBX Classes
 90
     1153
 91
        3
280
     0
281
     0
  0
CLASS
  1
VISUALSTYLE
  2
AcDbVisualStyle
  3
ObjectDBX Classes
 90
     4095
 91
       24
280
     0
281
     0
  0
CLASS
  1
SCALE
  2
AcDbScale
  3
ObjectDBX Classes
 90
     1153
 91
       17
280
     0
281
     0
  0
CLASS
  1
TABLESTYLE
  2
AcDbTableStyle
  3
ObjectDBX Classes
 90
     4095
 91
        1
280
     0
281
     0
  0
CLASS
  1
MLEADERSTYLE
  2
AcDbMLeaderStyle
  3
ACDB_MLEADERSTYLE_CLASS
 90
     4095
 91
        1
280
     0
281
     0
  0
CLASS
  1
ACDBSECTIONVIEWSTYLE
  2
AcDbSectionViewStyle
  3
ObjectDBX Classes
 90
     1025
 91
        1
280
     0
281
     0
  0
CLASS
  1
ACDBDETAILVIEWSTYLE
  2
AcDbDetailViewStyle
  3
ObjectDBX Classes
 90
     1025
 91
        1
280
     0
281
     0
  0
CLASS
  1
DICTIONARYVAR
  2
AcDbDictionaryVar
  3
ObjectDBX Classes
 90
        0
 91
        5
280
     0
281
     0
  0
CLASS
  1
CELLSTYLEMAP
  2
AcDbCellStyleMap
  3
ObjectDBX Classes
 90
     1152
 91
        1
280
     0
281
     0
  0
ENDSEC
  0
SECTION
  2
TABLES
  0
TABLE
  2
VPORT
  5
8
330
0
100
AcDbSymbolTable
 70
     1
  0
VPORT
  5
57
330
8
100
AcDbSymbolTableRecord
100
AcDbViewportTableRecord
  2
*Active
 70
     0
 10
0.0
 20
0.0
 11
1.0
 21
1.0
 12
0.0
 22
0.0
 13
0.0
 23
0.0
 14
1.0
 24
1.0
 15
0.0
 25
0.0
 16
0.0
 26
0.0
 36
1.0
 17
0.9588254593173498
 27
-1.528872554494783
 37
0.0
 40
3.598333333333333
 41
0.7051968503937076
 42
50.0
 43
0.0
 44
0.0
 50
0.0
 51
0.0
 71
     0
 72
   100
 73
     1
 74
     1
 75
     0
 76
     0
 77
     0
 78
     0
281
     0
 65
     1
110
0.0
120
0.0
130
0.0
111
1.0
121
0.0
131
0.0
112
0.0
122
1.0
132
0.0
 79
     0
146
0.0
 60
     3
 61
     5
292
     1
282
     1
141
0.0
142
0.0
 63
   250
421
  3355443
  0
ENDTAB
  0
TABLE
  2
LTYPE
  5
5
330
0
100
AcDbSymbolTable
 70
     1
  0
LTYPE
  5
5B
330
5
100
AcDbSymbolTableRecord
100
AcDbLinetypeTableRecord
  2
ByBlock
 70
     0
  3

 72
    65
 73
     0
 40
0.0
  0
LTYPE
  5
5C
330
5
100
AcDbSymbolTableRecord
100
AcDbLinetypeTableRecord
  2
ByLayer
 70
     0
  3

 72
    65
 73
     0
 40
0.0
  0
LTYPE
  5
5D
330
5
100
AcDbSymbolTableRecord
100
AcDbLinetypeTableRecord
  2
Continuous
 70
     0
  3
Solid line
 72
    65
 73
     0
 40
0.0
  0
ENDTAB
  0
TABLE
  2
LAYER
  5
2
330
0
100
AcDbSymbolTable
 70
     3
  0
LAYER
  5
54
330
2
100
AcDbSymbolTableRecord
100
AcDbLayerTableRecord
  2
0
 70
     0
 62
     7
  6
Continuous
370
    -3
390
F
347
21
348
0
  0
LAYER
  5
78
330
2
100
AcDbSymbolTableRecord
100
AcDbLayerTableRecord
  2
White
 70
     4
 62
     7
  6
Continuous
370
     0
390
F
347
21
348
0
  0
LAYER
  5
7D
330
2
100
AcDbSymbolTableRecord
100
AcDbLayerTableRecord
  2
Text
 70
     0
 62
     7
  6
Continuous
370
     0
390
F
347
21
348
0
  0
ENDTAB
  0
TABLE
  2
STYLE
  5
3
330
0
100
AcDbSymbolTable
 70
     2
  0
STYLE
  5
55
330
3
100
AcDbSymbolTableRecord
100
AcDbTextStyleTableRecord
  2
Standard
 70
     0
 40
0.0
 41
1.0
 50
0.0
 71
     0
 42
0.2
  3
txt
  4

  0
STYLE
  5
5A
330
3
100
AcDbSymbolTableRecord
100
AcDbTextStyleTableRecord
  2
Annotative
 70
     0
 40
0.0
 41
1.0
 50
0.0
 71
     0
 42
0.2
  3
txt
  4

1001
AcadAnnotative
1000
AnnotativeData
1002
{
1070
     1
1070
     1
1002
}
  0
ENDTAB
  0
TABLE
  2
VIEW
  5
6
330
0
100
AcDbSymbolTable
 70
     0
  0
ENDTAB
  0
TABLE
  2
UCS
  5
7
330
0
100
AcDbSymbolTable
 70
     0
  0
ENDTAB
  0
TABLE
  2
APPID
  5
9
330
0
100
AcDbSymbolTable
 70
     2
  0
APPID
  5
56
330
9
100
AcDbSymbolTableRecord
100
AcDbRegAppTableRecord
  2
ACAD
 70
     0
  0
APPID
  5
5E
330
9
100
AcDbSymbolTableRecord
100
AcDbRegAppTableRecord
  2
AcadAnnotative
 70
     0
  0
ENDTAB
  0
TABLE
  2
DIMSTYLE
  5
A
330
0
100
AcDbSymbolTable
 70
     2
100
AcDbDimStyleTable
 71
     0
  0
DIMSTYLE
105
58
330
A
100
AcDbSymbolTableRecord
100
AcDbDimStyleTableRecord
  2
Standard
 70
     0
340
55
  0
DIMSTYLE
105
59
330
A
100
AcDbSymbolTableRecord
100
AcDbDimStyleTableRecord
  2
Annotative
 70
     0
340
55
1001
AcadAnnotative
1000
AnnotativeData
1002
{
1070
     1
1070
     1
1002
}
  0
ENDTAB
  0
TABLE
  2
BLOCK_RECORD
  5
1
330
0
100
AcDbSymbolTable
 70
     5
  0
BLOCK_RECORD
  5
70
330
1
100
AcDbSymbolTableRecord
100
AcDbBlockTableRecord
  2
*Model_Space
340
73
 70
     0
280
     1
281
     0
  0
BLOCK_RECORD
  5
6C
330
1
100
AcDbSymbolTableRecord
100
AcDbBlockTableRecord
  2
*Paper_Space
340
6F
 70
     0
280
     1
281
     0
  0
BLOCK_RECORD
  5
74
330
1
100
AcDbSymbolTableRecord
100
AcDbBlockTableRecord
  2
*Paper_Space0
340
77
 70
     0
280
     1
281
     0
  0
BLOCK_RECORD
  5
85
330
1
100
AcDbSymbolTableRecord
100
AcDbBlockTableRecord
  2
Block_0
340
0
102
{BLKREFS
331
86
102
}
 70
     0
280
     1
281
     0
  0
BLOCK_RECORD
  5
93
330
1
100
AcDbSymbolTableRecord
100
AcDbBlockTableRecord
  2
Block_1
340
0
102
{BLKREFS
331
94
102
}
 70
     0
280
     1
281
     0
  0
BLOCK_RECORD
  5
A2
330
1
100
AcDbSymbolTableRecord
100
AcDbBlockTableRecord
  2
Block_2
340
0
102
{BLKREFS
331
A3
102
}
 70
     0
280
     1
281
     0
  0
BLOCK_RECORD
  5
B4
330
1
100
AcDbSymbolTableRecord
100
AcDbBlockTableRecord
  2
Block_3
340
0
102
{BLKREFS
331
B5
102
}
 70
     0
280
     1
281
     0
  0
ENDTAB
  0
ENDSEC
  0
SECTION
  2
BLOCKS
  0
BLOCK
  5
71
330
70
100
AcDbEntity
  8
0
100
AcDbBlockBegin
  2
*Model_Space
 70
     0
 10
0.0
 20
0.0
 30
0.0
  3
*Model_Space
  1

  0
ENDBLK
  5
72
330
70
100
AcDbEntity
  8
0
100
AcDbBlockEnd
  0
BLOCK
  5
6D
330
6C
100
AcDbEntity
 67
     1
  8
0
100
AcDbBlockBegin
  2
*Paper_Space
 70
     0
 10
0.0
 20
0.0
 30
0.0
  3
*Paper_Space
  1

  0
ENDBLK
  5
6E
330
6C
100
AcDbEntity
 67
     1
  8
0
100
AcDbBlockEnd
  0
BLOCK
  5
75
330
74
100
AcDbEntity
 67
     1
  8
0
100
AcDbBlockBegin
  2
*Paper_Space0
 70
     0
 10
0.0
 20
0.0
 30
0.0
  3
*Paper_Space0
  1

  0
ENDBLK
  5
76
330
74
100
AcDbEntity
 67
     1
  8
0
100
AcDbBlockEnd
  0
BLOCK
  5
87
330
85
100
AcDbEntity
  8
0
100
AcDbBlockBegin
  2
Block_0
 70
     0
 10
0.0
 20
0.0
 30
0.0
  3
Block_0
  1

  0
LWPOLYLINE
  5
89
330
85
100
AcDbEntity
  8
Text
100
AcDbPolyline
 90
        3
 70
     1
 43
0.0
 10
1.617115191921988
 20
-2.682914298982798
 10
1.616997742150109
 20
-2.682914298982798
 10
1.617115191921988
 20
-2.682960835960481
  0
HATCH
  5
8A
330
85
100
AcDbEntity
  8
Text
 62
     2
420
 16576033
440
 33554687
100
AcDbHatch
 10
0.0
 20
0.0
 30
0.0
210
0.0
220
0.0
230
1.0
  2
SOLID
 70
     1
 71
     1
 91
        1
 92
        1
 93
        3
 72
     1
 10
1.617115191921988
 20
-2.682914298982798
 11
1.616997742150109
 21
-2.682914298982798
 72
     1
 10
1.616997742150109
 20
-2.682914298982798
 11
1.617115191921988
 21
-2.682960835960481
 72
     1
 10
1.617115191921988
 20
-2.682960835960481
 11
1.617115191921988
 21
-2.682914298982798
 97
        1
330
89
 75
     2
 76
     1
 98
        1
 10
0.0
 20
0.0
450
        0
451
        0
460
0.0
461
0.0
452
        0
462
0.0
453
        0
470

  0
SPLINE
  5
8B
330
85
100
AcDbEntity
  8
Text
100
AcDbSpline
210
0.0
220
0.0
230
1.0
 70
    11
 71
     3
 72
    32
 73
    28
 74
     0
 42
0.0000000001
 43
0.0000000001
 40
0.0
 40
0.0
 40
0.0
 40
0.0
 40
1.0
 40
1.0
 40
1.0
 40
2.0
 40
2.0
 40
2.0
 40
3.0
 40
3.0
 40
3.0
 40
4.0
 40
4.0
 40
4.0
 40
5.0
 40
5.0
 40
5.0
 40
6.0
 40
6.0
 40
6.0
 40
7.0
 40
7.0
 40
7.0
 40
8.0
 40
8.0
 40
8.0
 40
9.0
 40
9.0
 40
9.0
 40
9.0
 10
1.594735137892004
 20
-3.090796503989091
 30
0.0
 10
1.594735137892004
 20
-3.04813206767191
 30
0.0
 10
1.604702219157388
 20
-3.013546229074234
 30
0.0
 10
1.616997742150109
 20
-3.013546229074234
 30
0.0
 10
1.604702219157388
 20
-3.013546229074234
 30
0.0
 10
1.594735137892004
 20
-2.97411832875193
 30
0.0
 10
1.594735137892004
 20
-2.925480538943373
 30
0.0
 10
1.594735137892004
 20
-2.876843857158089
 30
0.0
 10
1.604702219157388
 20
-2.837414848812512
 30
0.0
 10
1.616997742150109
 20
-2.837414848812512
 30
0.0
 10
1.604702219157388
 20
-2.837414848812512
 30
0.0
 10
1.594735137892004
 20
-2.802829010214837
 30
0.0
 10
1.594735137892004
 20
-2.760164573897655
 30
0.0
 10
1.594735137892004
 20
-2.717500137580499
 30
0.0
 10
1.604702219157388
 20
-2.682914298982798
 30
0.0
 10
1.616997742150109
 20
-2.682914298982798
 30
0.0
 10
1.616997742150109
 20
-2.682914298982798
 30
0.0
 10
0.3274264072682627
 20
-2.682914298982798
 30
0.0
 10
0.3274264072682627
 20
-2.682914298982798
 30
0.0
 10
0.3274264072682627
 20
-2.682914298982798
 30
0.0
 10
0.3274264072682627
 20
-3.168046778903948
 30
0.0
 10
0.3274264072682627
 20
-3.168046778903948
 30
0.0
 10
0.3274264072682627
 20
-3.168046778903948
 30
0.0
 10
1.616997742150109
 20
-3.168046778903948
 30
0.0
 10
1.616997742150109
 20
-3.168046778903948
 30
0.0
 10
1.604702219157388
 20
-3.168046778903948
 30
0.0
 10
1.594735137892004
 20
-3.133460940306248
 30
0.0
 10
1.594735137892004
 20
-3.090796503989091
 30
0.0
  0
HATCH
  5
8C
330
85
100
AcDbEntity
  8
Text
 62
     2
420
 16576033
440
 33554687
100
AcDbHatch
 10
0.0
 20
0.0
 30
0.0
210
0.0
220
0.0
230
1.0
  2
SOLID
 70
     1
 71
     1
 91
        1
 92
        1
 93
        1
 72
     4
 94
        3
 73
     0
 74
     0
 95
       32
 96
       28
 40
0.0
 40
0.0
 40
0.0
 40
0.0
 40
1.0
 40
1.0
 40
1.0
 40
2.0
 40
2.0
 40
2.0
 40
3.0
 40
3.0
 40
3.0
 40
4.0
 40
4.0
 40
4.0
 40
5.0
 40
5.0
 40
5.0
 40
6.0
 40
6.0
 40
6.0
 40
7.0
 40
7.0
 40
7.0
 40
8.0
 40
8.0
 40
8.0
 40
9.0
 40
9.0
 40
9.0
 40
9.0
 10
1.594735137892004
 20
-3.090796503989091
 10
1.594735137892004
 20
-3.04813206767191
 10
1.604702219157388
 20
-3.013546229074234
 10
1.616997742150109
 20
-3.013546229074234
 10
1.604702219157388
 20
-3.013546229074234
 10
1.594735137892004
 20
-2.97411832875193
 10
1.594735137892004
 20
-2.925480538943373
 10
1.594735137892004
 20
-2.876843857158089
 10
1.604702219157388
 20
-2.837414848812512
 10
1.616997742150109
 20
-2.837414848812512
 10
1.604702219157388
 20
-2.837414848812512
 10
1.594735137892004
 20
-2.802829010214837
 10
1.594735137892004
 20
-2.760164573897655
 10
1.594735137892004
 20
-2.717500137580499
 10
1.604702219157388
 20
-2.682914298982798
 10
1.616997742150109
 20
-2.682914298982798
 10
1.616997742150109
 20
-2.682914298982798
 10
0.3274264072682627
 20
-2.682914298982798
 10
0.3274264072682627
 20
-2.682914298982798
 10
0.3274264072682627
 20
-2.682914298982798
 10
0.3274264072682627
 20
-3.168046778903948
 10
0.3274264072682627
 20
-3.168046778903948
 10
0.3274264072682627
 20
-3.168046778903948
 10
1.616997742150109
 20
-3.168046778903948
 10
1.616997742150109
 20
-3.168046778903948
 10
1.604702219157388
 20
-3.168046778903948
 10
1.594735137892004
 20
-3.133460940306248
 10
1.594735137892004
 20
-3.090796503989091
 97
        0
 97
        1
330
8B
 75
     2
 76
     1
 98
        1
 10
0.0
 20
0.0
450
        0
451
        0
460
0.0
461
0.0
452
        0
462
0.0
453
        0
470

  0
LWPOLYLINE
  5
8D
330
85
100
AcDbEntity
  8
Text
100
AcDbPolyline
 90
        3
 70
     1
 43
0.0
 10
1.616997742150109
 20
-3.168046778903948
 10
1.617115191921988
 20
-3.168046778903948
 10
1.617115191921988
 20
-3.168022402391822
  0
HATCH
  5
8E
330
85
100
AcDbEntity
  8
Text
 62
     2
420
 16576033
440
 33554687
100
AcDbHatch
 10
0.0
 20
0.0
 30
0.0
210
0.0
220
0.0
230
1.0
  2
SOLID
 70
     1
 71
     1
 91
        1
 92
        1
 93
        3
 72
     1
 10
1.616997742150109
 20
-3.168046778903948
 11
1.617115191921988
 21
-3.168046778903948
 72
     1
 10
1.617115191921988
 20
-3.168046778903948
 11
1.617115191921988
 21
-3.168022402391822
 72
     1
 10
1.617115191921988
 20
-3.168022402391822
 11
1.616997742150109
 21
-3.168046778903948
 97
        1
330
8D
 75
     2
 76
     1
 98
        1
 10
0.0
 20
0.0
450
        0
451
        0
460
0.0
461
0.0
452
        0
462
0.0
453
        0
470

  0
ENDBLK
  5
88
330
85
100
AcDbEntity
  8
0
100
AcDbBlockEnd
  0
BLOCK
  5
95
330
93
100
AcDbEntity
  8
0
100
AcDbBlockBegin
  2
Block_1
 70
     0
 10
0.0
 20
0.0
 30
0.0
  3
Block_1
  1

  0
SPLINE
  5
97
330
93
100
AcDbEntity
  8
Text
100
AcDbSpline
210
0.0
220
0.0
230
1.0
 70
     9
 71
     3
 72
    17
 73
    13
 74
     0
 42
0.0000000001
 43
0.0000000001
 40
0.0
 40
0.0
 40
0.0
 40
0.0
 40
1.0
 40
1.0
 40
1.0
 40
2.0
 40
2.0
 40
2.0
 40
3.0
 40
3.0
 40
3.0
 40
4.0
 40
4.0
 40
4.0
 40
4.0
 10
0.5801040889376105
 20
-2.829180812141986
 30
0.0
 10
0.5801040889376105
 20
-2.82320381554771
 30
0.0
 10
0.5776983061858926
 20
-2.818608687246852
 30
0.0
 10
0.5728784161746413
 20
-2.815428725270521
 30
0.0
 10
0.5685246985997184
 20
-2.812548445574672
 30
0.0
 10
0.5628140862548005
 20
-2.811199875312468
 30
0.0
 10
0.5557465791398625
 20
-2.811349716452721
 30
0.0
 10
0.5557465791398625
 20
-2.811349716452721
 30
0.0
 10
0.5539984325036535
 20
-2.846429192285843
 30
0.0
 10
0.5539984325036535
 20
-2.846429192285843
 30
0.0
 10
0.571404978295555
 20
-2.847045205862412
 30
0.0
 10
0.5801040889376105
 20
-2.84130129548632
 30
0.0
 10
0.5801040889376105
 20
-2.829180812141986
 30
0.0
  0
SPLINE
  5
98
330
93
100
AcDbEntity
  8
Text
100
AcDbSpline
210
0.0
220
0.0
230
1.0
 70
     9
 71
     3
 72
    17
 73
    13
 74
     0
 42
0.0000000001
 43
0.0000000001
 40
0.0
 40
0.0
 40
0.0
 40
0.0
 40
1.0
 40
1.0
 40
1.0
 40
2.0
 40
2.0
 40
2.0
 40
3.0
 40
3.0
 40
3.0
 40
4.0
 40
4.0
 40
4.0
 40
4.0
 10
0.576258166337968
 20
-2.884538788955044
 30
0.0
 10
0.576258166337968
 20
-2.875531671524716
 30
0.0
 10
0.5698066727995991
 20
-2.871019788301762
 30
0.0
 10
0.5569120102306644
 20
-2.871019788301762
 30
0.0
 10
0.5555884134918188
 20
-2.871019788301762
 30
0.0
 10
0.5542315187218239
 20
-2.871103033379666
 30
0.0
 10
0.5528330014128516
 20
-2.87125287451992
 30
0.0
 10
0.5528330014128516
 20
-2.87125287451992
 30
0.0
 10
0.552133742758378
 20
-2.899805936244547
 30
0.0
 10
0.552133742758378
 20
-2.899805936244547
 30
0.0
 10
0.5682166918114337
 20
-2.900505194899046
 30
0.0
 10
0.576258166337968
 20
-2.895410596130684
 30
0.0
 10
0.576258166337968
 20
-2.884538788955044
 30
0.0
  0
SPLINE
  5
99
330
93
100
AcDbEntity
  8
Text
100
AcDbSpline
210
0.0
220
0.0
230
1.0
 70
     9
 71
     3
 72
    38
 73
    34
 74
     0
 42
0.0000000001
 43
0.0000000001
 40
0.0
 40
0.0
 40
0.0
 40
0.0
 40
1.0
 40
1.0
 40
1.0
 40
2.0
 40
2.0
 40
2.0
 40
3.0
 40
3.0
 40
3.0
 40
4.0
 40
4.0
 40
4.0
 40
5.0
 40
5.0
 40
5.0
 40
6.0
 40
6.0
 40
6.0
 40
7.0
 40
7.0
 40
7.0
 40
8.0
 40
8.0
 40
8.0
 40
9.0
 40
9.0
 40
9.0
 40
10.0
 40
10.0
 40
10.0
 40
11.0
 40
11.0
 40
11.0
 40
11.0
 10
0.6275371343332381
 20
-2.807270707634895
 30
0.0
 10
0.6275371343332381
 20
-2.821255880724518
 30
0.0
 10
0.6241990067088762
 20
-2.833343066037691
 30
0.0
 10
0.6175144269523495
 20
-2.843515614558832
 30
0.0
 10
0.6118454371463839
 20
-2.852056559552844
 30
0.0
 10
0.6047696055236555
 20
-2.858116801225024
 30
0.0
 10
0.5963035810997578
 20
-2.861696339575347
 30
0.0
 10
0.6017394846875656
 20
-2.864027201756951
 30
0.0
 10
0.6061681228326153
 20
-2.867873124356593
 30
0.0
 10
0.6095894955348942
 20
-2.873234107374274
 30
0.0
 10
0.6130108682371858
 20
-2.878595090391955
 30
0.0
 10
0.6147173923344301
 20
-2.884305702736885
 30
0.0
 10
0.6147173923344301
 20
-2.890365944409066
 30
0.0
 10
0.6147173923344301
 20
-2.905433303511573
 30
0.0
 10
0.6066759178078958
 20
-2.916471600843022
 30
0.0
 10
0.5905929687548274
 20
-2.923464187387834
 30
0.0
 10
0.5781644786222083
 20
-2.928908415483419
 30
0.0
 10
0.5618484433509821
 20
-2.931622205023434
 30
0.0
 10
0.5416448629411611
 20
-2.931622205023434
 30
0.0
 10
0.5242383171492595
 20
-2.931622205023434
 30
0.0
 10
0.5055581216652678
 20
-2.930190389683325
 30
0.0
 10
0.4855876274736046
 20
-2.927310109987476
 30
0.0
 10
0.4850465344671622
 20
-2.909212630048891
 30
0.0
 10
0.4839144014075221
 20
-2.87967727640484
 30
0.0
 10
0.4822078773102779
 20
-2.838737347086559
 30
0.0
 10
0.481042446219476
 20
-2.816743997501564
 30
0.0
 10
0.4792942995832669
 20
-2.786609279296549
 30
0.0
 10
0.4769634374016631
 20
-2.748299894440328
 30
0.0
 10
0.4917227897158985
 20
-2.745419614744504
 30
0.0
 10
0.5104113097076808
 20
-2.743987799404369
 30
0.0
 10
0.5330206728692322
 20
-2.743987799404369
 30
0.0
 10
0.5960288723426477
 20
-2.743987799404369
 30
0.0
 10
0.6275371343332381
 20
-2.765082102147895
 30
0.0
 10
0.6275371343332381
 20
-2.807270707634895
 30
0.0
  0
HATCH
  5
9A
330
93
100
AcDbEntity
  8
Text
 62
     4
420
    65535
440
 33554687
100
AcDbHatch
 10
0.0
 20
0.0
 30
0.0
210
0.0
220
0.0
230
1.0
  2
SOLID
 70
     1
 71
     1
 91
        3
 92
        1
 93
        1
 72
     4
 94
        3
 73
     0
 74
     0
 95
       17
 96
       13
 40
0.0
 40
0.0
 40
0.0
 40
0.0
 40
1.0
 40
1.0
 40
1.0
 40
2.0
 40
2.0
 40
2.0
 40
3.0
 40
3.0
 40
3.0
 40
4.0
 40
4.0
 40
4.0
 40
4.0
 10
0.5801040889376105
 20
-2.829180812141986
 10
0.5801040889376105
 20
-2.82320381554771
 10
0.5776983061858926
 20
-2.818608687246852
 10
0.5728784161746413
 20
-2.815428725270521
 10
0.5685246985997184
 20
-2.812548445574672
 10
0.5628140862548005
 20
-2.811199875312468
 10
0.5557465791398625
 20
-2.811349716452721
 10
0.5557465791398625
 20
-2.811349716452721
 10
0.5539984325036535
 20
-2.846429192285843
 10
0.5539984325036535
 20
-2.846429192285843
 10
0.571404978295555
 20
-2.847045205862412
 10
0.5801040889376105
 20
-2.84130129548632
 10
0.5801040889376105
 20
-2.829180812141986
 97
        0
 97
        1
330
97
 92
        1
 93
        1
 72
     4
 94
        3
 73
     0
 74
     0
 95
       17
 96
       13
 40
0.0
 40
0.0
 40
0.0
 40
0.0
 40
1.0
 40
1.0
 40
1.0
 40
2.0
 40
2.0
 40
2.0
 40
3.0
 40
3.0
 40
3.0
 40
4.0
 40
4.0
 40
4.0
 40
4.0
 10
0.576258166337968
 20
-2.884538788955044
 10
0.576258166337968
 20
-2.875531671524716
 10
0.5698066727995991
 20
-2.871019788301762
 10
0.5569120102306644
 20
-2.871019788301762
 10
0.5555884134918188
 20
-2.871019788301762
 10
0.5542315187218239
 20
-2.871103033379666
 10
0.5528330014128516
 20
-2.87125287451992
 10
0.5528330014128516
 20
-2.87125287451992
 10
0.552133742758378
 20
-2.899805936244547
 10
0.552133742758378
 20
-2.899805936244547
 10
0.5682166918114337
 20
-2.900505194899046
 10
0.576258166337968
 20
-2.895410596130684
 10
0.576258166337968
 20
-2.884538788955044
 97
        0
 97
        1
330
98
 92
        1
 93
        1
 72
     4
 94
        3
 73
     0
 74
     0
 95
       38
 96
       34
 40
0.0
 40
0.0
 40
0.0
 40
0.0
 40
1.0
 40
1.0
 40
1.0
 40
2.0
 40
2.0
 40
2.0
 40
3.0
 40
3.0
 40
3.0
 40
4.0
 40
4.0
 40
4.0
 40
5.0
 40
5.0
 40
5.0
 40
6.0
 40
6.0
 40
6.0
 40
7.0
 40
7.0
 40
7.0
 40
8.0
 40
8.0
 40
8.0
 40
9.0
 40
9.0
 40
9.0
 40
10.0
 40
10.0
 40
10.0
 40
11.0
 40
11.0
 40
11.0
 40
11.0
 10
0.6275371343332381
 20
-2.807270707634895
 10
0.6275371343332381
 20
-2.821255880724518
 10
0.6241990067088762
 20
-2.833343066037691
 10
0.6175144269523495
 20
-2.843515614558832
 10
0.6118454371463839
 20
-2.852056559552844
 10
0.6047696055236555
 20
-2.858116801225024
 10
0.5963035810997578
 20
-2.861696339575347
 10
0.6017394846875656
 20
-2.864027201756951
 10
0.6061681228326153
 20
-2.867873124356593
 10
0.6095894955348942
 20
-2.873234107374274
 10
0.6130108682371858
 20
-2.878595090391955
 10
0.6147173923344301
 20
-2.884305702736885
 10
0.6147173923344301
 20
-2.890365944409066
 10
0.6147173923344301
 20
-2.905433303511573
 10
0.6066759178078958
 20
-2.916471600843022
 10
0.5905929687548274
 20
-2.923464187387834
 10
0.5781644786222083
 20
-2.928908415483419
 10
0.5618484433509821
 20
-2.931622205023434
 10
0.5416448629411611
 20
-2.931622205023434
 10
0.5242383171492595
 20
-2.931622205023434
 10
0.5055581216652678
 20
-2.930190389683325
 10
0.4855876274736046
 20
-2.927310109987476
 10
0.4850465344671622
 20
-2.909212630048891
 10
0.4839144014075221
 20
-2.87967727640484
 10
0.4822078773102779
 20
-2.838737347086559
 10
0.481042446219476
 20
-2.816743997501564
 10
0.4792942995832669
 20
-2.786609279296549
 10
0.4769634374016631
 20
-2.748299894440328
 10
0.4917227897158985
 20
-2.745419614744504
 10
0.5104113097076808
 20
-2.743987799404369
 10
0.5330206728692322
 20
-2.743987799404369
 10
0.5960288723426477
 20
-2.743987799404369
 10
0.6275371343332381
 20
-2.765082102147895
 10
0.6275371343332381
 20
-2.807270707634895
 97
        0
 97
        1
330
99
 75
     2
 76
     1
 98
        1
 10
0.0
 20
0.0
450
        0
451
        0
460
0.0
461
0.0
452
        0
462
0.0
453
        0
470

  0
SPLINE
  5
9B
330
93
100
AcDbEntity
  8
Text
100
AcDbSpline
210
0.0
220
0.0
230
1.0
 70
     9
 71
     3
 72
    23
 73
    19
 74
     0
 42
0.0000000001
 43
0.0000000001
 40
0.0
 40
0.0
 40
0.0
 40
0.0
 40
1.0
 40
1.0
 40
1.0
 40
2.0
 40
2.0
 40
2.0
 40
3.0
 40
3.0
 40
3.0
 40
4.0
 40
4.0
 40
4.0
 40
5.0
 40
5.0
 40
5.0
 40
6.0
 40
6.0
 40
6.0
 40
6.0
 10
0.7042225001079916
 20
-2.889083970209185
 30
0.0
 10
0.7028989033691585
 20
-2.884971663360197
 30
0.0
 10
0.7005680411875548
 20
-2.878278759095893
 30
0.0
 10
0.6972299135631804
 20
-2.869038555447382
 30
0.0
 10
0.6952070581698611
 20
-2.863910658647859
 30
0.0
 10
0.6921436393026094
 20
-2.856834827025143
 30
0.0
 10
0.6880230079458568
 20
-2.84782770959479
 30
0.0
 10
0.6862332387706954
 20
-2.85233959281777
 30
0.0
 10
0.6834362041527635
 20
-2.859715106720967
 30
0.0
 10
0.6796319040920733
 20
-2.869970900320039
 30
0.0
 10
0.6775341281286399
 20
-2.875881300851965
 30
0.0
 10
0.6750451002989923
 20
-2.883922775378474
 30
0.0
 10
0.6721731451109463
 20
-2.894095323899616
 30
0.0
 10
0.67450400729255
 20
-2.894095323899616
 30
0.0
 10
0.679790069740117
 20
-2.893629151463301
 30
0.0
 10
0.6880230079458568
 20
-2.892696806590669
 30
0.0
 10
0.6929927390973364
 20
-2.891997547936196
 30
0.0
 10
0.6983953446539823
 20
-2.890798818814219
 30
0.0
 10
0.7042225001079916
 20
-2.889083970209185
 30
0.0
  0
SPLINE
  5
9C
330
93
100
AcDbEntity
  8
Text
100
AcDbSpline
210
0.0
220
0.0
230
1.0
 70
     9
 71
     3
 72
    44
 73
    40
 74
     0
 42
0.0000000001
 43
0.0000000001
 40
0.0
 40
0.0
 40
0.0
 40
0.0
 40
1.0
 40
1.0
 40
1.0
 40
2.0
 40
2.0
 40
2.0
 40
3.0
 40
3.0
 40
3.0
 40
4.0
 40
4.0
 40
4.0
 40
5.0
 40
5.0
 40
5.0
 40
6.0
 40
6.0
 40
6.0
 40
7.0
 40
7.0
 40
7.0
 40
8.0
 40
8.0
 40
8.0
 40
9.0
 40
9.0
 40
9.0
 40
10.0
 40
10.0
 40
10.0
 40
11.0
 40
11.0
 40
11.0
 40
12.0
 40
12.0
 40
12.0
 40
13.0
 40
13.0
 40
13.0
 40
13.0
 10
0.7777612019375763
 20
-2.927310109987476
 30
0.0
 10
0.7777612019375763
 20
-2.927310109987476
 30
0.0
 10
0.7140121212707223
 20
-2.927310109987476
 30
0.0
 10
0.7140121212707223
 20
-2.927310109987476
 30
0.0
 10
0.7140121212707223
 20
-2.927310109987476
 30
0.0
 10
0.7097000262347643
 20
-2.911809876479815
 30
0.0
 10
0.7097000262347643
 20
-2.911809876479815
 30
0.0
 10
0.7079102570596029
 20
-2.912509135134289
 30
0.0
 10
0.7034483208833914
 20
-2.914873295347054
 30
0.0
 10
0.6962975686905489
 20
-2.918919006133693
 30
0.0
 10
0.6917107648974554
 20
-2.921865881891865
 30
0.0
 10
0.6866244906368845
 20
-2.925795049569437
 30
0.0
 10
0.6810304214010455
 20
-2.930689860150803
 30
0.0
 10
0.6810304214010455
 20
-2.930689860150803
 30
0.0
 10
0.6743874641834711
 20
-2.916588143952089
 30
0.0
 10
0.6743874641834711
 20
-2.916588143952089
 30
0.0
 10
0.673063867444638
 20
-2.913791109334169
 30
0.0
 10
0.6711658796681883
 20
-2.909861941656622
 30
0.0
 10
0.6686768518385407
 20
-2.904817289935003
 30
0.0
 10
0.6686768518385407
 20
-2.904817289935003
 30
0.0
 10
0.6623835239482156
 20
-2.927310109987476
 30
0.0
 10
0.6623835239482156
 20
-2.927310109987476
 30
0.0
 10
0.6623835239482156
 20
-2.927310109987476
 30
0.0
 10
0.628586022314961
 20
-2.927310109987476
 30
0.0
 10
0.628586022314961
 20
-2.927310109987476
 30
0.0
 10
0.6335557534664531
 20
-2.908113795020401
 30
0.0
 10
0.6412475986657506
 20
-2.876464016397347
 30
0.0
 10
0.6516615579128408
 20
-2.832327476087129
 30
0.0
 10
0.6580298063732926
 20
-2.802808771458684
 30
0.0
 10
0.6633574913598119
 20
-2.774788478232696
 30
0.0
 10
0.6676279638568177
 20
-2.748299894440328
 30
0.0
 10
0.6676279638568177
 20
-2.748299894440328
 30
0.0
 10
0.7376703724139967
 20
-2.748299894440328
 30
0.0
 10
0.7376703724139967
 20
-2.748299894440328
 30
0.0
 10
0.7398430689475692
 20
-2.760503622862592
 30
0.0
 10
0.7457867675106577
 20
-2.78889019443141
 30
0.0
 10
0.7555014681032617
 20
-2.833492907177944
 30
0.0
 10
0.7608624511209553
 20
-2.856801528993981
 30
0.0
 10
0.7682795875631302
 20
-2.888068380258623
 30
0.0
 10
0.7777612019375763
 20
-2.927310109987476
 30
0.0
  0
HATCH
  5
9D
330
93
100
AcDbEntity
  8
Text
 62
     4
420
    65535
440
 33554687
100
AcDbHatch
 10
0.0
 20
0.0
 30
0.0
210
0.0
220
0.0
230
1.0
  2
SOLID
 70
     1
 71
     1
 91
        2
 92
        1
 93
        1
 72
     4
 94
        3
 73
     0
 74
     0
 95
       23
 96
       19
 40
0.0
 40
0.0
 40
0.0
 40
0.0
 40
1.0
 40
1.0
 40
1.0
 40
2.0
 40
2.0
 40
2.0
 40
3.0
 40
3.0
 40
3.0
 40
4.0
 40
4.0
 40
4.0
 40
5.0
 40
5.0
 40
5.0
 40
6.0
 40
6.0
 40
6.0
 40
6.0
 10
0.7042225001079916
 20
-2.889083970209185
 10
0.7028989033691585
 20
-2.884971663360197
 10
0.7005680411875548
 20
-2.878278759095893
 10
0.6972299135631804
 20
-2.869038555447382
 10
0.6952070581698611
 20
-2.863910658647859
 10
0.6921436393026094
 20
-2.856834827025143
 10
0.6880230079458568
 20
-2.84782770959479
 10
0.6862332387706954
 20
-2.85233959281777
 10
0.6834362041527635
 20
-2.859715106720967
 10
0.6796319040920733
 20
-2.869970900320039
 10
0.6775341281286399
 20
-2.875881300851965
 10
0.6750451002989923
 20
-2.883922775378474
 10
0.6721731451109463
 20
-2.894095323899616
 10
0.67450400729255
 20
-2.894095323899616
 10
0.679790069740117
 20
-2.893629151463301
 10
0.6880230079458568
 20
-2.892696806590669
 10
0.6929927390973364
 20
-2.891997547936196
 10
0.6983953446539823
 20
-2.890798818814219
 10
0.7042225001079916
 20
-2.889083970209185
 97
        0
 97
        1
330
9B
 92
        1
 93
        1
 72
     4
 94
        3
 73
     0
 74
     0
 95
       44
 96
       40
 40
0.0
 40
0.0
 40
0.0
 40
0.0
 40
1.0
 40
1.0
 40
1.0
 40
2.0
 40
2.0
 40
2.0
 40
3.0
 40
3.0
 40
3.0
 40
4.0
 40
4.0
 40
4.0
 40
5.0
 40
5.0
 40
5.0
 40
6.0
 40
6.0
 40
6.0
 40
7.0
 40
7.0
 40
7.0
 40
8.0
 40
8.0
 40
8.0
 40
9.0
 40
9.0
 40
9.0
 40
10.0
 40
10.0
 40
10.0
 40
11.0
 40
11.0
 40
11.0
 40
12.0
 40
12.0
 40
12.0
 40
13.0
 40
13.0
 40
13.0
 40
13.0
 10
0.7777612019375763
 20
-2.927310109987476
 10
0.7777612019375763
 20
-2.927310109987476
 10
0.7140121212707223
 20
-2.927310109987476
 10
0.7140121212707223
 20
-2.927310109987476
 10
0.7140121212707223
 20
-2.927310109987476
 10
0.7097000262347643
 20
-2.911809876479815
 10
0.7097000262347643
 20
-2.911809876479815
 10
0.7079102570596029
 20
-2.912509135134289
 10
0.7034483208833914
 20
-2.914873295347054
 10
0.6962975686905489
 20
-2.918919006133693
 10
0.6917107648974554
 20
-2.921865881891865
 10
0.6866244906368845
 20
-2.925795049569437
 10
0.6810304214010455
 20
-2.930689860150803
 10
0.6810304214010455
 20
-2.930689860150803
 10
0.6743874641834711
 20
-2.916588143952089
 10
0.6743874641834711
 20
-2.916588143952089
 10
0.673063867444638
 20
-2.913791109334169
 10
0.6711658796681883
 20
-2.909861941656622
 10
0.6686768518385407
 20
-2.904817289935003
 10
0.6686768518385407
 20
-2.904817289935003
 10
0.6623835239482156
 20
-2.927310109987476
 10
0.6623835239482156
 20
-2.927310109987476
 10
0.6623835239482156
 20
-2.927310109987476
 10
0.628586022314961
 20
-2.927310109987476
 10
0.628586022314961
 20
-2.927310109987476
 10
0.6335557534664531
 20
-2.908113795020401
 10
0.6412475986657506
 20
-2.876464016397347
 10
0.6516615579128408
 20
-2.832327476087129
 10
0.6580298063732926
 20
-2.802808771458684
 10
0.6633574913598119
 20
-2.774788478232696
 10
0.6676279638568177
 20
-2.748299894440328
 10
0.6676279638568177
 20
-2.748299894440328
 10
0.7376703724139967
 20
-2.748299894440328
 10
0.7376703724139967
 20
-2.748299894440328
 10
0.7398430689475692
 20
-2.760503622862592
 10
0.7457867675106577
 20
-2.78889019443141
 10
0.7555014681032617
 20
-2.833492907177944
 10
0.7608624511209553
 20
-2.856801528993981
 10
0.7682795875631302
 20
-2.888068380258623
 10
0.7777612019375763
 20
-2.927310109987476
 97
        0
 97
        1
330
9C
 75
     2
 76
     1
 98
        1
 10
0.0
 20
0.0
450
        0
451
        0
460
0.0
461
0.0
452
        0
462
0.0
453
        0
470

  0
SPLINE
  5
9E
330
93
100
AcDbEntity
  8
Text
100
AcDbSpline
210
0.0
220
0.0
230
1.0
 70
     9
 71
     3
 72
    50
 73
    46
 74
     0
 42
0.0000000001
 43
0.0000000001
 40
0.0
 40
0.0
 40
0.0
 40
0.0
 40
1.0
 40
1.0
 40
1.0
 40
2.0
 40
2.0
 40
2.0
 40
3.0
 40
3.0
 40
3.0
 40
4.0
 40
4.0
 40
4.0
 40
5.0
 40
5.0
 40
5.0
 40
6.0
 40
6.0
 40
6.0
 40
7.0
 40
7.0
 40
7.0
 40
8.0
 40
8.0
 40
8.0
 40
9.0
 40
9.0
 40
9.0
 40
10.0
 40
10.0
 40
10.0
 40
11.0
 40
11.0
 40
11.0
 40
12.0
 40
12.0
 40
12.0
 40
13.0
 40
13.0
 40
13.0
 40
14.0
 40
14.0
 40
14.0
 40
15.0
 40
15.0
 40
15.0
 40
15.0
 10
0.913767010234134
 20
-2.821605510051767
 30
0.0
 10
0.9094965377371282
 20
-2.820290237820725
 30
0.0
 10
0.9040190116103556
 20
-2.819624277197388
 30
0.0
 10
0.8973344318538414
 20
-2.819624277197388
 30
0.0
 10
0.8849059417212098
 20
-2.819624277197388
 30
0.0
 10
0.874799989262404
 20
-2.822887484251648
 30
0.0
 10
0.8670332234929926
 20
-2.829413898360144
 30
0.0
 10
0.8582508677730199
 20
-2.836722816201017
 30
0.0
 10
0.8538638521669225
 20
-2.847244994049408
 30
0.0
 10
0.8538638521669225
 20
-2.860997080920848
 30
0.0
 10
0.8538638521669225
 20
-2.871719046956235
 30
0.0
 10
0.8573434964237472
 20
-2.880526376199567
 30
0.0
 10
0.8642944604296063
 20
-2.887385770619731
 30
0.0
 10
0.8712454244354526
 20
-2.894278463071032
 30
0.0
 10
0.8803607604670938
 20
-2.897708160281101
 30
0.0
 10
0.8916238195088856
 20
-2.897708160281101
 30
0.0
 10
0.8993156647081958
 20
-2.897708160281101
 30
0.0
 10
0.906616258041279
 20
-2.895810172504676
 30
0.0
 10
0.9135339240159762
 20
-2.891997547936196
 30
0.0
 10
0.9127597447913633
 20
-2.895177509912526
 30
0.0
 10
0.9114361480525303
 20
-2.901054612413266
 30
0.0
 10
0.9095714583072423
 20
-2.909595557407278
 30
0.0
 10
0.908480947786567
 20
-2.915272871721046
 30
0.0
 10
0.9074320598048441
 20
-2.921166623237392
 30
0.0
 10
0.9064247943620733
 20
-2.927310109987476
 30
0.0
 10
0.8977256837200432
 20
-2.930656562119641
 30
0.0
 10
0.8865708432795019
 20
-2.932321463677933
 30
0.0
 10
0.8729769220560809
 20
-2.932321463677933
 30
0.0
 10
0.8483447035011977
 20
-2.932321463677933
 30
0.0
 10
0.8272920232966498
 20
-2.924046902933241
 30
0.0
 10
0.8098105569346216
 20
-2.907497781443857
 30
0.0
 10
0.7908556526935197
 20
-2.889466897567596
 30
0.0
 10
0.7813740383190609
 20
-2.866008434611305
 30
0.0
 10
0.7813740383190609
 20
-2.837105743559428
 30
0.0
 10
0.7813740383190609
 20
-2.810384073548902
 30
0.0
 10
0.7895320559546741
 20
-2.788773651322319
 30
0.0
 10
0.8058480912259003
 20
-2.772307774910864
 30
0.0
 10
0.8232546370178017
 20
-2.754743063470919
 30
0.0
 10
0.8472958155194874
 20
-2.745969032258724
 30
0.0
 10
0.8779882757465125
 20
-2.745969032258724
 30
0.0
 10
0.892747628060748
 20
-2.745969032258724
 30
0.0
 10
0.9034362960649483
 20
-2.746818132053451
 30
0.0
 10
0.9100376307435579
 20
-2.748532980658511
 30
0.0
 10
0.9100376307435579
 20
-2.748532980658511
 30
0.0
 10
0.913767010234134
 20
-2.821605510051767
 30
0.0
 10
0.913767010234134
 20
-2.821605510051767
 30
0.0
  0
HATCH
  5
9F
330
93
100
AcDbEntity
  8
Text
 62
     4
420
    65535
440
 33554687
100
AcDbHatch
 10
0.0
 20
0.0
 30
0.0
210
0.0
220
0.0
230
1.0
  2
SOLID
 70
     1
 71
     1
 91
        1
 92
        1
 93
        1
 72
     4
 94
        3
 73
     0
 74
     0
 95
       50
 96
       46
 40
0.0
 40
0.0
 40
0.0
 40
0.0
 40
1.0
 40
1.0
 40
1.0
 40
2.0
 40
2.0
 40
2.0
 40
3.0
 40
3.0
 40
3.0
 40
4.0
 40
4.0
 40
4.0
 40
5.0
 40
5.0
 40
5.0
 40
6.0
 40
6.0
 40
6.0
 40
7.0
 40
7.0
 40
7.0
 40
8.0
 40
8.0
 40
8.0
 40
9.0
 40
9.0
 40
9.0
 40
10.0
 40
10.0
 40
10.0
 40
11.0
 40
11.0
 40
11.0
 40
12.0
 40
12.0
 40
12.0
 40
13.0
 40
13.0
 40
13.0
 40
14.0
 40
14.0
 40
14.0
 40
15.0
 40
15.0
 40
15.0
 40
15.0
 10
0.913767010234134
 20
-2.821605510051767
 10
0.9094965377371282
 20
-2.820290237820725
 10
0.9040190116103556
 20
-2.819624277197388
 10
0.8973344318538414
 20
-2.819624277197388
 10
0.8849059417212098
 20
-2.819624277197388
 10
0.874799989262404
 20
-2.822887484251648
 10
0.8670332234929926
 20
-2.829413898360144
 10
0.8582508677730199
 20
-2.836722816201017
 10
0.8538638521669225
 20
-2.847244994049408
 10
0.8538638521669225
 20
-2.860997080920848
 10
0.8538638521669225
 20
-2.871719046956235
 10
0.8573434964237472
 20
-2.880526376199567
 10
0.8642944604296063
 20
-2.887385770619731
 10
0.8712454244354526
 20
-2.894278463071032
 10
0.8803607604670938
 20
-2.897708160281101
 10
0.8916238195088856
 20
-2.897708160281101
 10
0.8993156647081958
 20
-2.897708160281101
 10
0.906616258041279
 20
-2.895810172504676
 10
0.9135339240159762
 20
-2.891997547936196
 10
0.9127597447913633
 20
-2.895177509912526
 10
0.9114361480525303
 20
-2.901054612413266
 10
0.9095714583072423
 20
-2.909595557407278
 10
0.908480947786567
 20
-2.915272871721046
 10
0.9074320598048441
 20
-2.921166623237392
 10
0.9064247943620733
 20
-2.927310109987476
 10
0.8977256837200432
 20
-2.930656562119641
 10
0.8865708432795019
 20
-2.932321463677933
 10
0.8729769220560809
 20
-2.932321463677933
 10
0.8483447035011977
 20
-2.932321463677933
 10
0.8272920232966498
 20
-2.924046902933241
 10
0.8098105569346216
 20
-2.907497781443857
 10
0.7908556526935197
 20
-2.889466897567596
 10
0.7813740383190609
 20
-2.866008434611305
 10
0.7813740383190609
 20
-2.837105743559428
 10
0.7813740383190609
 20
-2.810384073548902
 10
0.7895320559546741
 20
-2.788773651322319
 10
0.8058480912259003
 20
-2.772307774910864
 10
0.8232546370178017
 20
-2.754743063470919
 10
0.8472958155194874
 20
-2.745969032258724
 10
0.8779882757465125
 20
-2.745969032258724
 10
0.892747628060748
 20
-2.745969032258724
 10
0.9034362960649483
 20
-2.746818132053451
 10
0.9100376307435579
 20
-2.748532980658511
 10
0.9100376307435579
 20
-2.748532980658511
 10
0.913767010234134
 20
-2.821605510051767
 10
0.913767010234134
 20
-2.821605510051767
 97
        0
 97
        1
330
9E
 75
     2
 76
     1
 98
        1
 10
0.0
 20
0.0
450
        0
451
        0
460
0.0
461
0.0
452
        0
462
0.0
453
        0
470

  0
SPLINE
  5
A0
330
93
100
AcDbEntity
  8
Text
100
AcDbSpline
210
0.0
220
0.0
230
1.0
 70
     9
 71
     3
 72
    65
 73
    61
 74
     0
 42
0.0000000001
 43
0.0000000001
 40
0.0
 40
0.0
 40
0.0
 40
0.0
 40
1.0
 40
1.0
 40
1.0
 40
2.0
 40
2.0
 40
2.0
 40
3.0
 40
3.0
 40
3.0
 40
4.0
 40
4.0
 40
4.0
 40
5.0
 40
5.0
 40
5.0
 40
6.0
 40
6.0
 40
6.0
 40
7.0
 40
7.0
 40
7.0
 40
8.0
 40
8.0
 40
8.0
 40
9.0
 40
9.0
 40
9.0
 40
10.0
 40
10.0
 40
10.0
 40
11.0
 40
11.0
 40
11.0
 40
12.0
 40
12.0
 40
12.0
 40
13.0
 40
13.0
 40
13.0
 40
14.0
 40
14.0
 40
14.0
 40
15.0
 40
15.0
 40
15.0
 40
16.0
 40
16.0
 40
16.0
 40
17.0
 40
17.0
 40
17.0
 40
18.0
 40
18.0
 40
18.0
 40
19.0
 40
19.0
 40
19.0
 40
20.0
 40
20.0
 40
20.0
 40
20.0
 10
1.093351616818886
 20
-2.757623343166743
 30
0.0
 10
1.089089468829671
 20
-2.765548274584211
 30
0.0
 10
1.080348735648638
 20
-2.782247237213823
 30
0.0
 10
1.067129417275838
 20
-2.807736880071211
 30
0.0
 10
1.059903744512868
 20
-2.821805298238763
 30
0.0
 10
1.04996428220991
 20
-2.840568738800659
 30
0.0
 10
1.03729438135133
 20
-2.864027201756951
 30
0.0
 10
1.03839321637977
 20
-2.865742050361985
 30
0.0
 10
1.044686544270108
 20
-2.872917776078212
 30
0.0
 10
1.056174365022292
 20
-2.885587676936766
 30
0.0
 10
1.062933865348946
 20
-2.892813349699736
 30
0.0
 10
1.072540347340287
 20
-2.902020255317084
 30
0.0
 10
1.084960512965102
 20
-2.913208393788762
 30
0.0
 10
1.079766020103256
 20
-2.915456010892461
 30
0.0
 10
1.071258373140406
 20
-2.919118794320688
 30
0.0
 10
1.059437572076553
 20
-2.924163446042307
 30
0.0
 10
1.052844561905708
 20
-2.92711032180048
 30
0.0
 10
1.043554411210506
 20
-2.931422416836438
 30
0.0
 10
1.031583769006374
 20
-2.937099731150207
 30
0.0
 10
1.028636893248201
 20
-2.933520192799884
 30
0.0
 10
1.022576651576047
 20
-2.925179035992869
 30
0.0
 10
1.01340304398986
 20
-2.912042962697973
 30
0.0
 10
1.008275147190336
 20
-2.904267872420758
 30
0.0
 10
1.003347038577834
 20
-2.895993311676066
 30
0.0
 10
0.998602069136723
 20
-2.887219280463897
 30
0.0
 10
0.998602069136723
 20
-2.887219280463897
 30
0.0
 10
0.9981358967004073
 20
-2.887219280463897
 30
0.0
 10
0.9981358967004073
 20
-2.887219280463897
 30
0.0
 10
0.9981358967004073
 20
-2.887219280463897
 30
0.0
 10
0.9969704656095927
 20
-2.927310109987476
 30
0.0
 10
0.9969704656095927
 20
-2.927310109987476
 30
0.0
 10
0.9969704656095927
 20
-2.927310109987476
 30
0.0
 10
0.9325221262882399
 20
-2.927310109987476
 30
0.0
 10
0.9325221262882399
 20
-2.927310109987476
 30
0.0
 10
0.9325221262882399
 20
-2.927310109987476
 30
0.0
 10
0.9293754623430963
 20
-2.834192165832417
 30
0.0
 10
0.9293754623430963
 20
-2.834192165832417
 30
0.0
 10
0.9285263625483695
 20
-2.813830419774553
 30
0.0
 10
0.9266949708342432
 20
-2.785210761987577
 30
0.0
 10
0.9238979362163238
 20
-2.748299894440328
 30
0.0
 10
0.9238979362163238
 20
-2.748299894440328
 30
0.0
 10
1.005011940136127
 20
-2.748299894440328
 30
0.0
 10
1.005011940136127
 20
-2.748299894440328
 30
0.0
 10
1.005011940136127
 20
-2.748299894440328
 30
0.0
 10
1.000466758881985
 20
-2.826849949960382
 30
0.0
 10
1.000466758881985
 20
-2.826849949960382
 30
0.0
 10
1.000466758881985
 20
-2.826849949960382
 30
0.0
 10
1.00128256064555
 20
-2.826849949960382
 30
0.0
 10
1.00128256064555
 20
-2.826849949960382
 30
0.0
 10
1.004545767699811
 20
-2.817676342374195
 30
0.0
 10
1.0097902076084
 20
-2.802575685240526
 30
0.0
 10
1.017015880371369
 20
-2.781514680528188
 30
0.0
 10
1.019979405145123
 20
-2.772341072942026
 30
0.0
 10
1.023775380698023
 20
-2.75975441716135
 30
0.0
 10
1.02843710506123
 20
-2.743754713186212
 30
0.0
 10
1.02843710506123
 20
-2.743754713186212
 30
0.0
 10
1.061418804930932
 20
-2.750980385949181
 30
0.0
 10
1.061418804930932
 20
-2.750980385949181
 30
0.0
 10
1.072140770966294
 20
-2.753311248130785
 30
0.0
 10
1.082796140939333
 20
-2.755525567203297
 30
0.0
 10
1.093351616818886
 20
-2.757623343166743
 30
0.0
  0
HATCH
  5
A1
330
93
100
AcDbEntity
  8
Text
 62
     4
420
    65535
440
 33554687
100
AcDbHatch
 10
0.0
 20
0.0
 30
0.0
210
0.0
220
0.0
230
1.0
  2
SOLID
 70
     1
 71
     1
 91
        1
 92
        1
 93
        1
 72
     4
 94
        3
 73
     0
 74
     0
 95
       65
 96
       61
 40
0.0
 40
0.0
 40
0.0
 40
0.0
 40
1.0
 40
1.0
 40
1.0
 40
2.0
 40
2.0
 40
2.0
 40
3.0
 40
3.0
 40
3.0
 40
4.0
 40
4.0
 40
4.0
 40
5.0
 40
5.0
 40
5.0
 40
6.0
 40
6.0
 40
6.0
 40
7.0
 40
7.0
 40
7.0
 40
8.0
 40
8.0
 40
8.0
 40
9.0
 40
9.0
 40
9.0
 40
10.0
 40
10.0
 40
10.0
 40
11.0
 40
11.0
 40
11.0
 40
12.0
 40
12.0
 40
12.0
 40
13.0
 40
13.0
 40
13.0
 40
14.0
 40
14.0
 40
14.0
 40
15.0
 40
15.0
 40
15.0
 40
16.0
 40
16.0
 40
16.0
 40
17.0
 40
17.0
 40
17.0
 40
18.0
 40
18.0
 40
18.0
 40
19.0
 40
19.0
 40
19.0
 40
20.0
 40
20.0
 40
20.0
 40
20.0
 10
1.093351616818886
 20
-2.757623343166743
 10
1.089089468829671
 20
-2.765548274584211
 10
1.080348735648638
 20
-2.782247237213823
 10
1.067129417275838
 20
-2.807736880071211
 10
1.059903744512868
 20
-2.821805298238763
 10
1.04996428220991
 20
-2.840568738800659
 10
1.03729438135133
 20
-2.864027201756951
 10
1.03839321637977
 20
-2.865742050361985
 10
1.044686544270108
 20
-2.872917776078212
 10
1.056174365022292
 20
-2.885587676936766
 10
1.062933865348946
 20
-2.892813349699736
 10
1.072540347340287
 20
-2.902020255317084
 10
1.084960512965102
 20
-2.913208393788762
 10
1.079766020103256
 20
-2.915456010892461
 10
1.071258373140406
 20
-2.919118794320688
 10
1.059437572076553
 20
-2.924163446042307
 10
1.052844561905708
 20
-2.92711032180048
 10
1.043554411210506
 20
-2.931422416836438
 10
1.031583769006374
 20
-2.937099731150207
 10
1.028636893248201
 20
-2.933520192799884
 10
1.022576651576047
 20
-2.925179035992869
 10
1.01340304398986
 20
-2.912042962697973
 10
1.008275147190336
 20
-2.904267872420758
 10
1.003347038577834
 20
-2.895993311676066
 10
0.998602069136723
 20
-2.887219280463897
 10
0.998602069136723
 20
-2.887219280463897
 10
0.9981358967004073
 20
-2.887219280463897
 10
0.9981358967004073
 20
-2.887219280463897
 10
0.9981358967004073
 20
-2.887219280463897
 10
0.9969704656095927
 20
-2.927310109987476
 10
0.9969704656095927
 20
-2.927310109987476
 10
0.9969704656095927
 20
-2.927310109987476
 10
0.9325221262882399
 20
-2.927310109987476
 10
0.9325221262882399
 20
-2.927310109987476
 10
0.9325221262882399
 20
-2.927310109987476
 10
0.9293754623430963
 20
-2.834192165832417
 10
0.9293754623430963
 20
-2.834192165832417
 10
0.9285263625483695
 20
-2.813830419774553
 10
0.9266949708342432
 20
-2.785210761987577
 10
0.9238979362163238
 20
-2.748299894440328
 10
0.9238979362163238
 20
-2.748299894440328
 10
1.005011940136127
 20
-2.748299894440328
 10
1.005011940136127
 20
-2.748299894440328
 10
1.005011940136127
 20
-2.748299894440328
 10
1.000466758881985
 20
-2.826849949960382
 10
1.000466758881985
 20
-2.826849949960382
 10
1.000466758881985
 20
-2.826849949960382
 10
1.00128256064555
 20
-2.826849949960382
 10
1.00128256064555
 20
-2.826849949960382
 10
1.004545767699811
 20
-2.817676342374195
 10
1.0097902076084
 20
-2.802575685240526
 10
1.017015880371369
 20
-2.781514680528188
 10
1.019979405145123
 20
-2.772341072942026
 10
1.023775380698023
 20
-2.75975441716135
 10
1.02843710506123
 20
-2.743754713186212
 10
1.02843710506123
 20
-2.743754713186212
 10
1.061418804930932
 20
-2.750980385949181
 10
1.061418804930932
 20
-2.750980385949181
 10
1.072140770966294
 20
-2.753311248130785
 10
1.082796140939333
 20
-2.755525567203297
 10
1.093351616818886
 20
-2.757623343166743
 97
        0
 97
        1
330
A0
 75
     2
 76
     1
 98
        1
 10
0.0
 20
0.0
450
        0
451
        0
460
0.0
461
0.0
452
        0
462
0.0
453
        0
470

  0
ENDBLK
  5
96
330
93
100
AcDbEntity
  8
0
100
AcDbBlockEnd
  0
BLOCK
  5
A4
330
A2
100
AcDbEntity
  8
0
100
AcDbBlockBegin
  2
Block_2
 70
     0
 10
0.0
 20
0.0
 30
0.0
  3
Block_2
  1

  0
SPLINE
  5
A6
330
A2
100
AcDbEntity
  8
Text
100
AcDbSpline
210
0.0
220
0.0
230
1.0
 70
     9
 71
     3
 72
    62
 73
    58
 74
     0
 42
0.0000000001
 43
0.0000000001
 40
0.0
 40
0.0
 40
0.0
 40
0.0
 40
1.0
 40
1.0
 40
1.0
 40
2.0
 40
2.0
 40
2.0
 40
3.0
 40
3.0
 40
3.0
 40
4.0
 40
4.0
 40
4.0
 40
5.0
 40
5.0
 40
5.0
 40
6.0
 40
6.0
 40
6.0
 40
7.0
 40
7.0
 40
7.0
 40
8.0
 40
8.0
 40
8.0
 40
9.0
 40
9.0
 40
9.0
 40
10.0
 40
10.0
 40
10.0
 40
11.0
 40
11.0
 40
11.0
 40
12.0
 40
12.0
 40
12.0
 40
13.0
 40
13.0
 40
13.0
 40
14.0
 40
14.0
 40
14.0
 40
15.0
 40
15.0
 40
15.0
 40
16.0
 40
16.0
 40
16.0
 40
17.0
 40
17.0
 40
17.0
 40
18.0
 40
18.0
 40
18.0
 40
19.0
 40
19.0
 40
19.0
 40
19.0
 10
0.6237723452196633
 20
-3.015459389970399
 30
0.0
 10
0.6180201103357806
 20
-3.014144117739356
 30
0.0
 10
0.613674717268648
 20
-3.013478157116044
 30
0.0
 10
0.6107195170026848
 20
-3.013478157116044
 30
0.0
 10
0.6070650580822354
 20
-3.013478157116044
 30
0.0
 10
0.6037269304578735
 20
-3.014726833284738
 30
0.0
 10
0.6006968096217836
 20
-3.017207536606595
 30
0.0
 10
0.5970423507013467
 20
-3.020237657442673
 30
0.0
 10
0.5952192834950236
 20
-3.024166825120245
 30
0.0
 10
0.5952192834950236
 20
-3.028978390623706
 30
0.0
 10
0.5952192834950236
 20
-3.032707770114257
 30
0.0
 10
0.5985574111193853
 20
-3.039900144846064
 30
0.0
 10
0.6052419908759122
 20
-3.050538865803521
 30
0.0
 10
0.6119265706324388
 20
-3.061177586760979
 30
0.0
 10
0.6152646982568133
 20
-3.07096720792371
 30
0.0
 10
0.6152646982568133
 20
-3.079907729291739
 30
0.0
 10
0.6152646982568133
 20
-3.0928773124308
 30
0.0
 10
0.6103282651364831
 20
-3.103532682403839
 30
0.0
 10
0.6004637234036256
 20
-3.111840541179692
 30
0.0
 10
0.5910653541070966
 20
-3.119848717675065
 30
0.0
 10
0.5794443412302396
 20
-3.123844481414961
 30
0.0
 10
0.5656173337886609
 20
-3.123844481414961
 30
0.0
 10
0.5528725123599669
 20
-3.123844481414961
 30
0.0
 10
0.5434741430634251
 20
-3.122945434573466
 30
0.0
 10
0.5374139013912579
 20
-3.121163989906108
 30
0.0
 10
0.5367146427367718
 20
-3.117584451555785
 30
0.0
 10
0.5355075891070176
 20
-3.111757296101788
 30
0.0
 10
0.5338010650097733
 20
-3.103682523544092
 30
0.0
 10
0.5327105544890982
 20
-3.099337130476947
 30
0.0
 10
0.5311954940710468
 20
-3.093543273054112
 30
0.0
 10
0.5292558837556448
 20
-3.086317600291143
 30
0.0
 10
0.5378051532574597
 20
-3.088415376254589
 30
0.0
 10
0.5435490636335519
 20
-3.089464264236312
 30
0.0
 10
0.5465042638995152
 20
-3.089464264236312
 30
0.0
 10
0.5580836542374073
 20
-3.089464264236312
 30
0.0
 10
0.5638691871524518
 20
-3.085068924122424
 30
0.0
 10
0.5638691871524518
 20
-3.076294892910254
 30
0.0
 10
0.5638691871524518
 20
-3.069918319942012
 30
0.0
 10
0.5615383249708481
 20
-3.064207707597081
 30
0.0
 10
0.5568766006076405
 20
-3.059163055875463
 30
0.0
 10
0.5492596759784824
 20
-3.052486800626714
 30
0.0
 10
0.541651075857102
 20
-3.045760598331248
 30
0.0
 10
0.5340341512279312
 20
-3.039001098004594
 30
0.0
 10
0.5192747989137084
 20
-3.025948269787603
 30
0.0
 10
0.5118909605026956
 20
-3.010448036279942
 30
0.0
 10
0.5118909605026956
 20
-2.99250039748161
 30
0.0
 10
0.5118909605026956
 20
-2.973770254950851
 30
0.0
 10
0.5188835470475068
 20
-2.959601942689838
 30
0.0
 10
0.5328687201371294
 20
-2.949962162667336
 30
0.0
 10
0.5450641240515905
 20
-2.941571058813577
 30
0.0
 10
0.5613052387526901
 20
-2.937375506886685
 30
0.0
 10
0.5815837397326379
 20
-2.937375506886685
 30
0.0
 10
0.5930798849926254
 20
-2.937375506886685
 30
0.0
 10
0.6059828720693506
 20
-2.939040408444978
 30
0.0
 10
0.6202760519472577
 20
-2.942386860577142
 30
0.0
 10
0.6202760519472577
 20
-2.942386860577142
 30
0.0
 10
0.6237723452196633
 20
-3.015459389970399
 30
0.0
 10
0.6237723452196633
 20
-3.015459389970399
 30
0.0
  0
HATCH
  5
A7
330
A2
100
AcDbEntity
  8
Text
 62
   110
420
    65410
440
 33554687
100
AcDbHatch
 10
0.0
 20
0.0
 30
0.0
210
0.0
220
0.0
230
1.0
  2
SOLID
 70
     1
 71
     1
 91
        1
 92
        1
 93
        1
 72
     4
 94
        3
 73
     0
 74
     0
 95
       62
 96
       58
 40
0.0
 40
0.0
 40
0.0
 40
0.0
 40
1.0
 40
1.0
 40
1.0
 40
2.0
 40
2.0
 40
2.0
 40
3.0
 40
3.0
 40
3.0
 40
4.0
 40
4.0
 40
4.0
 40
5.0
 40
5.0
 40
5.0
 40
6.0
 40
6.0
 40
6.0
 40
7.0
 40
7.0
 40
7.0
 40
8.0
 40
8.0
 40
8.0
 40
9.0
 40
9.0
 40
9.0
 40
10.0
 40
10.0
 40
10.0
 40
11.0
 40
11.0
 40
11.0
 40
12.0
 40
12.0
 40
12.0
 40
13.0
 40
13.0
 40
13.0
 40
14.0
 40
14.0
 40
14.0
 40
15.0
 40
15.0
 40
15.0
 40
16.0
 40
16.0
 40
16.0
 40
17.0
 40
17.0
 40
17.0
 40
18.0
 40
18.0
 40
18.0
 40
19.0
 40
19.0
 40
19.0
 40
19.0
 10
0.6237723452196633
 20
-3.015459389970399
 10
0.6180201103357806
 20
-3.014144117739356
 10
0.613674717268648
 20
-3.013478157116044
 10
0.6107195170026848
 20
-3.013478157116044
 10
0.6070650580822354
 20
-3.013478157116044
 10
0.6037269304578735
 20
-3.014726833284738
 10
0.6006968096217836
 20
-3.017207536606595
 10
0.5970423507013467
 20
-3.020237657442673
 10
0.5952192834950236
 20
-3.024166825120245
 10
0.5952192834950236
 20
-3.028978390623706
 10
0.5952192834950236
 20
-3.032707770114257
 10
0.5985574111193853
 20
-3.039900144846064
 10
0.6052419908759122
 20
-3.050538865803521
 10
0.6119265706324388
 20
-3.061177586760979
 10
0.6152646982568133
 20
-3.07096720792371
 10
0.6152646982568133
 20
-3.079907729291739
 10
0.6152646982568133
 20
-3.0928773124308
 10
0.6103282651364831
 20
-3.103532682403839
 10
0.6004637234036256
 20
-3.111840541179692
 10
0.5910653541070966
 20
-3.119848717675065
 10
0.5794443412302396
 20
-3.123844481414961
 10
0.5656173337886609
 20
-3.123844481414961
 10
0.5528725123599669
 20
-3.123844481414961
 10
0.5434741430634251
 20
-3.122945434573466
 10
0.5374139013912579
 20
-3.121163989906108
 10
0.5367146427367718
 20
-3.117584451555785
 10
0.5355075891070176
 20
-3.111757296101788
 10
0.5338010650097733
 20
-3.103682523544092
 10
0.5327105544890982
 20
-3.099337130476947
 10
0.5311954940710468
 20
-3.093543273054112
 10
0.5292558837556448
 20
-3.086317600291143
 10
0.5378051532574597
 20
-3.088415376254589
 10
0.5435490636335519
 20
-3.089464264236312
 10
0.5465042638995152
 20
-3.089464264236312
 10
0.5580836542374073
 20
-3.089464264236312
 10
0.5638691871524518
 20
-3.085068924122424
 10
0.5638691871524518
 20
-3.076294892910254
 10
0.5638691871524518
 20
-3.069918319942012
 10
0.5615383249708481
 20
-3.064207707597081
 10
0.5568766006076405
 20
-3.059163055875463
 10
0.5492596759784824
 20
-3.052486800626714
 10
0.541651075857102
 20
-3.045760598331248
 10
0.5340341512279312
 20
-3.039001098004594
 10
0.5192747989137084
 20
-3.025948269787603
 10
0.5118909605026956
 20
-3.010448036279942
 10
0.5118909605026956
 20
-2.99250039748161
 10
0.5118909605026956
 20
-2.973770254950851
 10
0.5188835470475068
 20
-2.959601942689838
 10
0.5328687201371294
 20
-2.949962162667336
 10
0.5450641240515905
 20
-2.941571058813577
 10
0.5613052387526901
 20
-2.937375506886685
 10
0.5815837397326379
 20
-2.937375506886685
 10
0.5930798849926254
 20
-2.937375506886685
 10
0.6059828720693506
 20
-2.939040408444978
 10
0.6202760519472577
 20
-2.942386860577142
 10
0.6202760519472577
 20
-2.942386860577142
 10
0.6237723452196633
 20
-3.015459389970399
 10
0.6237723452196633
 20
-3.015459389970399
 97
        0
 97
        1
330
A6
 75
     2
 76
     1
 98
        1
 10
0.0
 20
0.0
450
        0
451
        0
460
0.0
461
0.0
452
        0
462
0.0
453
        0
470

  0
SPLINE
  5
A8
330
A2
100
AcDbEntity
  8
Text
100
AcDbSpline
210
0.0
220
0.0
230
1.0
 70
     9
 71
     3
 72
    50
 73
    46
 74
     0
 42
0.0000000001
 43
0.0000000001
 40
0.0
 40
0.0
 40
0.0
 40
0.0
 40
1.0
 40
1.0
 40
1.0
 40
2.0
 40
2.0
 40
2.0
 40
3.0
 40
3.0
 40
3.0
 40
4.0
 40
4.0
 40
4.0
 40
5.0
 40
5.0
 40
5.0
 40
6.0
 40
6.0
 40
6.0
 40
7.0
 40
7.0
 40
7.0
 40
8.0
 40
8.0
 40
8.0
 40
9.0
 40
9.0
 40
9.0
 40
10.0
 40
10.0
 40
10.0
 40
11.0
 40
11.0
 40
11.0
 40
12.0
 40
12.0
 40
12.0
 40
13.0
 40
13.0
 40
13.0
 40
14.0
 40
14.0
 40
14.0
 40
15.0
 40
15.0
 40
15.0
 40
15.0
 10
0.7645564209885075
 20
-3.015459389970399
 30
0.0
 10
0.760285948491489
 20
-3.014144117739356
 30
0.0
 10
0.7548084223647291
 20
-3.013478157116044
 30
0.0
 10
0.7481238426082024
 20
-3.013478157116044
 30
0.0
 10
0.7356953524755833
 20
-3.013478157116044
 30
0.0
 10
0.725589400016765
 20
-3.016741364170279
 30
0.0
 10
0.7178226342473534
 20
-3.023267778278775
 30
0.0
 10
0.7090402785273807
 20
-3.030576696119649
 30
0.0
 10
0.7046532629212959
 20
-3.04109887396804
 30
0.0
 10
0.7046532629212959
 20
-3.05485096083948
 30
0.0
 10
0.7046532629212959
 20
-3.065572926874867
 30
0.0
 10
0.7081329071781207
 20
-3.074380256118224
 30
0.0
 10
0.7150838711839671
 20
-3.081239650538362
 30
0.0
 10
0.7220348351898262
 20
-3.088132342989663
 30
0.0
 10
0.7311501712214547
 20
-3.091562040199758
 30
0.0
 10
0.7424132302632718
 20
-3.091562040199758
 30
0.0
 10
0.7501050754625567
 20
-3.091562040199758
 30
0.0
 10
0.7574056687956525
 20
-3.089664052423308
 30
0.0
 10
0.764323334770337
 20
-3.085851427854827
 30
0.0
 10
0.7635491555457368
 20
-3.089031389831158
 30
0.0
 10
0.7622255588069038
 20
-3.094908492331897
 30
0.0
 10
0.7603608690616158
 20
-3.103449437325934
 30
0.0
 10
0.7592703585409405
 20
-3.109126751639678
 30
0.0
 10
0.7582214705592176
 20
-3.115020503156023
 30
0.0
 10
0.7572142051164469
 20
-3.121163989906108
 30
0.0
 10
0.7485150944743914
 20
-3.124510442038272
 30
0.0
 10
0.7373602540338627
 20
-3.126175343596564
 30
0.0
 10
0.7237663328104418
 20
-3.126175343596564
 30
0.0
 10
0.6991341142555712
 20
-3.126175343596564
 30
0.0
 10
0.6780814340510233
 20
-3.117900782851872
 30
0.0
 10
0.6605999676889951
 20
-3.101351661362488
 30
0.0
 10
0.6416450634478804
 20
-3.083320777486227
 30
0.0
 10
0.6321634490734343
 20
-3.059862314529937
 30
0.0
 10
0.6321634490734343
 20
-3.03095962347806
 30
0.0
 10
0.6321634490734343
 20
-3.004237953467534
 30
0.0
 10
0.6403214667090475
 20
-2.98262753124095
 30
0.0
 10
0.6566375019802737
 20
-2.966161654829496
 30
0.0
 10
0.6740440477721752
 20
-2.94859694338955
 30
0.0
 10
0.6980852262738483
 20
-2.939822912177355
 30
0.0
 10
0.7287776865008861
 20
-2.939822912177355
 30
0.0
 10
0.7435370388151215
 20
-2.939822912177355
 30
0.0
 10
0.7542257068193218
 20
-2.940672011972083
 30
0.0
 10
0.7608270414979314
 20
-2.942386860577142
 30
0.0
 10
0.7608270414979314
 20
-2.942386860577142
 30
0.0
 10
0.7645564209885075
 20
-3.015459389970399
 30
0.0
 10
0.7645564209885075
 20
-3.015459389970399
 30
0.0
  0
HATCH
  5
A9
330
A2
100
AcDbEntity
  8
Text
 62
   110
420
    65410
440
 33554687
100
AcDbHatch
 10
0.0
 20
0.0
 30
0.0
210
0.0
220
0.0
230
1.0
  2
SOLID
 70
     1
 71
     1
 91
        1
 92
        1
 93
        1
 72
     4
 94
        3
 73
     0
 74
     0
 95
       50
 96
       46
 40
0.0
 40
0.0
 40
0.0
 40
0.0
 40
1.0
 40
1.0
 40
1.0
 40
2.0
 40
2.0
 40
2.0
 40
3.0
 40
3.0
 40
3.0
 40
4.0
 40
4.0
 40
4.0
 40
5.0
 40
5.0
 40
5.0
 40
6.0
 40
6.0
 40
6.0
 40
7.0
 40
7.0
 40
7.0
 40
8.0
 40
8.0
 40
8.0
 40
9.0
 40
9.0
 40
9.0
 40
10.0
 40
10.0
 40
10.0
 40
11.0
 40
11.0
 40
11.0
 40
12.0
 40
12.0
 40
12.0
 40
13.0
 40
13.0
 40
13.0
 40
14.0
 40
14.0
 40
14.0
 40
15.0
 40
15.0
 40
15.0
 40
15.0
 10
0.7645564209885075
 20
-3.015459389970399
 10
0.760285948491489
 20
-3.014144117739356
 10
0.7548084223647291
 20
-3.013478157116044
 10
0.7481238426082024
 20
-3.013478157116044
 10
0.7356953524755833
 20
-3.013478157116044
 10
0.725589400016765
 20
-3.016741364170279
 10
0.7178226342473534
 20
-3.023267778278775
 10
0.7090402785273807
 20
-3.030576696119649
 10
0.7046532629212959
 20
-3.04109887396804
 10
0.7046532629212959
 20
-3.05485096083948
 10
0.7046532629212959
 20
-3.065572926874867
 10
0.7081329071781207
 20
-3.074380256118224
 10
0.7150838711839671
 20
-3.081239650538362
 10
0.7220348351898262
 20
-3.088132342989663
 10
0.7311501712214547
 20
-3.091562040199758
 10
0.7424132302632718
 20
-3.091562040199758
 10
0.7501050754625567
 20
-3.091562040199758
 10
0.7574056687956525
 20
-3.089664052423308
 10
0.764323334770337
 20
-3.085851427854827
 10
0.7635491555457368
 20
-3.089031389831158
 10
0.7622255588069038
 20
-3.094908492331897
 10
0.7603608690616158
 20
-3.103449437325934
 10
0.7592703585409405
 20
-3.109126751639678
 10
0.7582214705592176
 20
-3.115020503156023
 10
0.7572142051164469
 20
-3.121163989906108
 10
0.7485150944743914
 20
-3.124510442038272
 10
0.7373602540338627
 20
-3.126175343596564
 10
0.7237663328104418
 20
-3.126175343596564
 10
0.6991341142555712
 20
-3.126175343596564
 10
0.6780814340510233
 20
-3.117900782851872
 10
0.6605999676889951
 20
-3.101351661362488
 10
0.6416450634478804
 20
-3.083320777486227
 10
0.6321634490734343
 20
-3.059862314529937
 10
0.6321634490734343
 20
-3.03095962347806
 10
0.6321634490734343
 20
-3.004237953467534
 10
0.6403214667090475
 20
-2.98262753124095
 10
0.6566375019802737
 20
-2.966161654829496
 10
0.6740440477721752
 20
-2.94859694338955
 10
0.6980852262738483
 20
-2.939822912177355
 10
0.7287776865008861
 20
-2.939822912177355
 10
0.7435370388151215
 20
-2.939822912177355
 10
0.7542257068193218
 20
-2.940672011972083
 10
0.7608270414979314
 20
-2.942386860577142
 10
0.7608270414979314
 20
-2.942386860577142
 10
0.7645564209885075
 20
-3.015459389970399
 10
0.7645564209885075
 20
-3.015459389970399
 97
        0
 97
        1
330
A8
 75
     2
 76
     1
 98
        1
 10
0.0
 20
0.0
450
        0
451
        0
460
0.0
461
0.0
452
        0
462
0.0
453
        0
470

  0
SPLINE
  5
AA
330
A2
100
AcDbEntity
  8
Text
100
AcDbSpline
210
0.0
220
0.0
230
1.0
 70
     9
 71
     3
 72
    59
 73
    55
 74
     0
 42
0.0000000001
 43
0.0000000001
 40
0.0
 40
0.0
 40
0.0
 40
0.0
 40
1.0
 40
1.0
 40
1.0
 40
2.0
 40
2.0
 40
2.0
 40
3.0
 40
3.0
 40
3.0
 40
4.0
 40
4.0
 40
4.0
 40
5.0
 40
5.0
 40
5.0
 40
6.0
 40
6.0
 40
6.0
 40
7.0
 40
7.0
 40
7.0
 40
8.0
 40
8.0
 40
8.0
 40
9.0
 40
9.0
 40
9.0
 40
10.0
 40
10.0
 40
10.0
 40
11.0
 40
11.0
 40
11.0
 40
12.0
 40
12.0
 40
12.0
 40
13.0
 40
13.0
 40
13.0
 40
14.0
 40
14.0
 40
14.0
 40
15.0
 40
15.0
 40
15.0
 40
16.0
 40
16.0
 40
16.0
 40
17.0
 40
17.0
 40
17.0
 40
18.0
 40
18.0
 40
18.0
 40
18.0
 10
0.9507923092986123
 20
-2.942153774358959
 30
0.0
 10
0.9494687125597668
 20
-2.96126684424813
 30
0.0
 10
0.9477205659235702
 20
-2.992383854372519
 30
0.0
 10
0.9455478693899976
 20
-3.035504804732176
 30
0.0
 10
0.944923531305638
 20
-3.056016391930294
 30
0.0
 10
0.9438413452927534
 20
-3.084569453654947
 30
0.0
 10
0.9422846623357624
 20
-3.121163989906108
 30
0.0
 10
0.9422846623357624
 20
-3.121163989906108
 30
0.0
 10
0.8828476767048666
 20
-3.121163989906108
 30
0.0
 10
0.8828476767048666
 20
-3.121163989906108
 30
0.0
 10
0.8828476767048666
 20
-3.121163989906108
 30
0.0
 10
0.8815657025049858
 20
-3.08200550525516
 30
0.0
 10
0.8815657025049858
 20
-3.08200550525516
 30
0.0
 10
0.8801671851960261
 20
-3.082471677691501
 30
0.0
 10
0.8773285280391418
 20
-3.083603810751128
 30
0.0
 10
0.8730580555421358
 20
-3.085385255418486
 30
0.0
 10
0.8680050793127394
 20
-3.087566276459862
 30
0.0
 10
0.8644338654702071
 20
-3.089314423096058
 30
0.0
 10
0.8623360895067611
 20
-3.090629695327101
 30
0.0
 10
0.8623360895067611
 20
-3.090629695327101
 30
0.0
 10
0.8562758478345939
 20
-3.076294892910254
 30
0.0
 10
0.8562758478345939
 20
-3.076294892910254
 30
0.0
 10
0.8550354961736653
 20
-3.073181526996247
 30
0.0
 10
0.8529710182413939
 20
-3.06880283589794
 30
0.0
 10
0.8500990630533477
 20
-3.063125521584197
 30
0.0
 10
0.8500990630533477
 20
-3.063125521584197
 30
0.0
 10
0.8489336319625458
 20
-3.121163989906108
 30
0.0
 10
0.8489336319625458
 20
-3.121163989906108
 30
0.0
 10
0.8489336319625458
 20
-3.121163989906108
 30
0.0
 10
0.783319861550404
 20
-3.121163989906108
 30
0.0
 10
0.783319861550404
 20
-3.121163989906108
 30
0.0
 10
0.783319861550404
 20
-3.121163989906108
 30
0.0
 10
0.7799401113870898
 20
-3.035504804732176
 30
0.0
 10
0.7799401113870898
 20
-3.035504804732176
 30
0.0
 10
0.7792408527326036
 20
-3.0132117728667
 30
0.0
 10
0.7774927060964071
 20
-2.982094762742311
 30
0.0
 10
0.7746956714784751
 20
-2.942153774358959
 30
0.0
 10
0.7746956714784751
 20
-2.942153774358959
 30
0.0
 10
0.8565089340527517
 20
-2.942153774358959
 30
0.0
 10
0.8565089340527517
 20
-2.942153774358959
 30
0.0
 10
0.8565089340527517
 20
-2.942153774358959
 30
0.0
 10
0.8510314079259917
 20
-3.05240355554881
 30
0.0
 10
0.8510314079259917
 20
-3.05240355554881
 30
0.0
 10
0.8567003977319574
 20
-3.052952973063055
 30
0.0
 10
0.8621446258275556
 20
-3.053102814203283
 30
0.0
 10
0.8673474431972055
 20
-3.052869727985125
 30
0.0
 10
0.8706855708215799
 20
-3.052786482907221
 30
0.0
 10
0.875197454044534
 20
-3.052486800626714
 30
0.0
 10
0.8808664438505122
 20
-3.051937383112494
 30
0.0
 10
0.8808664438505122
 20
-3.051937383112494
 30
0.0
 10
0.874922745287424
 20
-2.942153774358959
 30
0.0
 10
0.874922745287424
 20
-2.942153774358959
 30
0.0
 10
0.874922745287424
 20
-2.942153774358959
 30
0.0
 10
0.9507923092986123
 20
-2.942153774358959
 30
0.0
 10
0.9507923092986123
 20
-2.942153774358959
 30
0.0
  0
HATCH
  5
AB
330
A2
100
AcDbEntity
  8
Text
 62
   110
420
    65410
440
 33554687
100
AcDbHatch
 10
0.0
 20
0.0
 30
0.0
210
0.0
220
0.0
230
1.0
  2
SOLID
 70
     1
 71
     1
 91
        1
 92
        1
 93
        1
 72
     4
 94
        3
 73
     0
 74
     0
 95
       59
 96
       55
 40
0.0
 40
0.0
 40
0.0
 40
0.0
 40
1.0
 40
1.0
 40
1.0
 40
2.0
 40
2.0
 40
2.0
 40
3.0
 40
3.0
 40
3.0
 40
4.0
 40
4.0
 40
4.0
 40
5.0
 40
5.0
 40
5.0
 40
6.0
 40
6.0
 40
6.0
 40
7.0
 40
7.0
 40
7.0
 40
8.0
 40
8.0
 40
8.0
 40
9.0
 40
9.0
 40
9.0
 40
10.0
 40
10.0
 40
10.0
 40
11.0
 40
11.0
 40
11.0
 40
12.0
 40
12.0
 40
12.0
 40
13.0
 40
13.0
 40
13.0
 40
14.0
 40
14.0
 40
14.0
 40
15.0
 40
15.0
 40
15.0
 40
16.0
 40
16.0
 40
16.0
 40
17.0
 40
17.0
 40
17.0
 40
18.0
 40
18.0
 40
18.0
 40
18.0
 10
0.9507923092986123
 20
-2.942153774358959
 10
0.9494687125597668
 20
-2.96126684424813
 10
0.9477205659235702
 20
-2.992383854372519
 10
0.9455478693899976
 20
-3.035504804732176
 10
0.944923531305638
 20
-3.056016391930294
 10
0.9438413452927534
 20
-3.084569453654947
 10
0.9422846623357624
 20
-3.121163989906108
 10
0.9422846623357624
 20
-3.121163989906108
 10
0.8828476767048666
 20
-3.121163989906108
 10
0.8828476767048666
 20
-3.121163989906108
 10
0.8828476767048666
 20
-3.121163989906108
 10
0.8815657025049858
 20
-3.08200550525516
 10
0.8815657025049858
 20
-3.08200550525516
 10
0.8801671851960261
 20
-3.082471677691501
 10
0.8773285280391418
 20
-3.083603810751128
 10
0.8730580555421358
 20
-3.085385255418486
 10
0.8680050793127394
 20
-3.087566276459862
 10
0.8644338654702071
 20
-3.089314423096058
 10
0.8623360895067611
 20
-3.090629695327101
 10
0.8623360895067611
 20
-3.090629695327101
 10
0.8562758478345939
 20
-3.076294892910254
 10
0.8562758478345939
 20
-3.076294892910254
 10
0.8550354961736653
 20
-3.073181526996247
 10
0.8529710182413939
 20
-3.06880283589794
 10
0.8500990630533477
 20
-3.063125521584197
 10
0.8500990630533477
 20
-3.063125521584197
 10
0.8489336319625458
 20
-3.121163989906108
 10
0.8489336319625458
 20
-3.121163989906108
 10
0.8489336319625458
 20
-3.121163989906108
 10
0.783319861550404
 20
-3.121163989906108
 10
0.783319861550404
 20
-3.121163989906108
 10
0.783319861550404
 20
-3.121163989906108
 10
0.7799401113870898
 20
-3.035504804732176
 10
0.7799401113870898
 20
-3.035504804732176
 10
0.7792408527326036
 20
-3.0132117728667
 10
0.7774927060964071
 20
-2.982094762742311
 10
0.7746956714784751
 20
-2.942153774358959
 10
0.7746956714784751
 20
-2.942153774358959
 10
0.8565089340527517
 20
-2.942153774358959
 10
0.8565089340527517
 20
-2.942153774358959
 10
0.8565089340527517
 20
-2.942153774358959
 10
0.8510314079259917
 20
-3.05240355554881
 10
0.8510314079259917
 20
-3.05240355554881
 10
0.8567003977319574
 20
-3.052952973063055
 10
0.8621446258275556
 20
-3.053102814203283
 10
0.8673474431972055
 20
-3.052869727985125
 10
0.8706855708215799
 20
-3.052786482907221
 10
0.875197454044534
 20
-3.052486800626714
 10
0.8808664438505122
 20
-3.051937383112494
 10
0.8808664438505122
 20
-3.051937383112494
 10
0.874922745287424
 20
-2.942153774358959
 10
0.874922745287424
 20
-2.942153774358959
 10
0.874922745287424
 20
-2.942153774358959
 10
0.9507923092986123
 20
-2.942153774358959
 10
0.9507923092986123
 20
-2.942153774358959
 97
        0
 97
        1
330
AA
 75
     2
 76
     1
 98
        1
 10
0.0
 20
0.0
450
        0
451
        0
460
0.0
461
0.0
452
        0
462
0.0
453
        0
470

  0
SPLINE
  5
AC
330
A2
100
AcDbEntity
  8
Text
100
AcDbSpline
210
0.0
220
0.0
230
1.0
 70
     9
 71
     3
 72
    23
 73
    19
 74
     0
 42
0.0000000001
 43
0.0000000001
 40
0.0
 40
0.0
 40
0.0
 40
0.0
 40
1.0
 40
1.0
 40
1.0
 40
2.0
 40
2.0
 40
2.0
 40
3.0
 40
3.0
 40
3.0
 40
4.0
 40
4.0
 40
4.0
 40
5.0
 40
5.0
 40
5.0
 40
6.0
 40
6.0
 40
6.0
 40
6.0
 10
1.060575918052109
 20
-3.048324546731009
 30
0.0
 10
1.060575918052109
 20
-3.026730773520006
 30
0.0
 10
1.053275324719025
 20
-3.015925562406714
 30
0.0
 10
1.038665813545069
 20
-3.015925562406714
 30
0.0
 10
1.024447554237263
 20
-3.015925562406714
 30
0.0
 10
1.017338424583385
 20
-3.02679736958233
 30
0.0
 10
1.017338424583385
 20
-3.048557632949167
 30
0.0
 10
1.017338424583385
 20
-3.057265068099013
 30
0.0
 10
1.019203114328661
 20
-3.065373138687871
 30
0.0
 10
1.022932493819249
 20
-3.072915142746928
 30
0.0
 10
1.027128045746116
 20
-3.081389491678616
 30
0.0
 10
1.032297565084617
 20
-3.085618341636669
 30
0.0
 10
1.038432727326885
 20
-3.085618341636669
 30
0.0
 10
1.044418048428926
 20
-3.085618341636669
 30
0.0
 10
1.049695786368728
 20
-3.081306246600686
 30
0.0
 10
1.054282590161796
 20
-3.07268205652877
 30
0.0
 10
1.058478142088688
 20
-3.064840370189231
 30
0.0
 10
1.060575918052109
 20
-3.056715650584767
 30
0.0
 10
1.060575918052109
 20
-3.048324546731009
 30
0.0
  0
SPLINE
  5
AD
330
A2
100
AcDbEntity
  8
Text
100
AcDbSpline
210
0.0
220
0.0
230
1.0
 70
     9
 71
     3
 72
    29
 73
    25
 74
     0
 42
0.0000000001
 43
0.0000000001
 40
0.0
 40
0.0
 40
0.0
 40
0.0
 40
1.0
 40
1.0
 40
1.0
 40
2.0
 40
2.0
 40
2.0
 40
3.0
 40
3.0
 40
3.0
 40
4.0
 40
4.0
 40
4.0
 40
5.0
 40
5.0
 40
5.0
 40
6.0
 40
6.0
 40
6.0
 40
7.0
 40
7.0
 40
7.0
 40
8.0
 40
8.0
 40
8.0
 40
8.0
 10
1.11663315351969
 20
-3.027812959532891
 30
0.0
 10
1.11663315351969
 20
-3.055233888197891
 30
0.0
 10
1.109557321896949
 20
-3.078425966904862
 30
0.0
 10
1.095422307667099
 20
-3.097389195653754
 30
0.0
 10
1.080579710274959
 20
-3.117201524197374
 30
0.0
 10
1.061583183494904
 20
-3.127107688469196
 30
0.0
 10
1.038432727326885
 20
-3.127107688469196
 30
0.0
 10
1.014583012504418
 20
-3.127107688469196
 30
0.0
 10
0.9952701544282767
 20
-3.117118279119469
 30
0.0
 10
0.980510802114054
 20
-3.097156109435597
 30
0.0
 10
0.9666005495945581
 20
-3.078359370842513
 30
0.0
 10
0.959649585588699
 20
-3.055233888197891
 30
0.0
 10
0.959649585588699
 20
-3.027812959532891
 30
0.0
 10
0.959649585588699
 20
-2.998527341122603
 30
0.0
 10
0.9672248876789176
 20
-2.975518401587073
 30
0.0
 10
0.9823754918593294
 20
-2.958819438957435
 30
0.0
 10
0.9966686717372365
 20
-2.943119417262778
 30
0.0
 10
1.015357191729018
 20
-2.935277730923239
 30
0.0
 10
1.038432727326885
 20
-2.935277730923239
 30
0.0
 10
1.061117011058563
 20
-2.935277730923239
 30
0.0
 10
1.07961406737114
 20
-2.94316936430952
 30
0.0
 10
1.09390724724906
 20
-2.958935982066527
 30
0.0
 10
1.109057851429472
 20
-2.975718189774068
 30
0.0
 10
1.11663315351969
 20
-2.998677182262857
 30
0.0
 10
1.11663315351969
 20
-3.027812959532891
 30
0.0
  0
HATCH
  5
AE
330
A2
100
AcDbEntity
  8
Text
 62
   110
420
    65410
440
 33554687
100
AcDbHatch
 10
0.0
 20
0.0
 30
0.0
210
0.0
220
0.0
230
1.0
  2
SOLID
 70
     1
 71
     1
 91
        2
 92
        1
 93
        1
 72
     4
 94
        3
 73
     0
 74
     0
 95
       23
 96
       19
 40
0.0
 40
0.0
 40
0.0
 40
0.0
 40
1.0
 40
1.0
 40
1.0
 40
2.0
 40
2.0
 40
2.0
 40
3.0
 40
3.0
 40
3.0
 40
4.0
 40
4.0
 40
4.0
 40
5.0
 40
5.0
 40
5.0
 40
6.0
 40
6.0
 40
6.0
 40
6.0
 10
1.060575918052109
 20
-3.048324546731009
 10
1.060575918052109
 20
-3.026730773520006
 10
1.053275324719025
 20
-3.015925562406714
 10
1.038665813545069
 20
-3.015925562406714
 10
1.024447554237263
 20
-3.015925562406714
 10
1.017338424583385
 20
-3.02679736958233
 10
1.017338424583385
 20
-3.048557632949167
 10
1.017338424583385
 20
-3.057265068099013
 10
1.019203114328661
 20
-3.065373138687871
 10
1.022932493819249
 20
-3.072915142746928
 10
1.027128045746116
 20
-3.081389491678616
 10
1.032297565084617
 20
-3.085618341636669
 10
1.038432727326885
 20
-3.085618341636669
 10
1.044418048428926
 20
-3.085618341636669
 10
1.049695786368728
 20
-3.081306246600686
 10
1.054282590161796
 20
-3.07268205652877
 10
1.058478142088688
 20
-3.064840370189231
 10
1.060575918052109
 20
-3.056715650584767
 10
1.060575918052109
 20
-3.048324546731009
 97
        0
 97
        1
330
AC
 92
        1
 93
        1
 72
     4
 94
        3
 73
     0
 74
     0
 95
       29
 96
       25
 40
0.0
 40
0.0
 40
0.0
 40
0.0
 40
1.0
 40
1.0
 40
1.0
 40
2.0
 40
2.0
 40
2.0
 40
3.0
 40
3.0
 40
3.0
 40
4.0
 40
4.0
 40
4.0
 40
5.0
 40
5.0
 40
5.0
 40
6.0
 40
6.0
 40
6.0
 40
7.0
 40
7.0
 40
7.0
 40
8.0
 40
8.0
 40
8.0
 40
8.0
 10
1.11663315351969
 20
-3.027812959532891
 10
1.11663315351969
 20
-3.055233888197891
 10
1.109557321896949
 20
-3.078425966904862
 10
1.095422307667099
 20
-3.097389195653754
 10
1.080579710274959
 20
-3.117201524197374
 10
1.061583183494904
 20
-3.127107688469196
 10
1.038432727326885
 20
-3.127107688469196
 10
1.014583012504418
 20
-3.127107688469196
 10
0.9952701544282767
 20
-3.117118279119469
 10
0.980510802114054
 20
-3.097156109435597
 10
0.9666005495945581
 20
-3.078359370842513
 10
0.959649585588699
 20
-3.055233888197891
 10
0.959649585588699
 20
-3.027812959532891
 10
0.959649585588699
 20
-2.998527341122603
 10
0.9672248876789176
 20
-2.975518401587073
 10
0.9823754918593294
 20
-2.958819438957435
 10
0.9966686717372365
 20
-2.943119417262778
 10
1.015357191729018
 20
-2.935277730923239
 10
1.038432727326885
 20
-2.935277730923239
 10
1.061117011058563
 20
-2.935277730923239
 10
1.07961406737114
 20
-2.94316936430952
 10
1.09390724724906
 20
-2.958935982066527
 10
1.109057851429472
 20
-2.975718189774068
 10
1.11663315351969
 20
-2.998677182262857
 10
1.11663315351969
 20
-3.027812959532891
 97
        0
 97
        1
330
AD
 75
     2
 76
     1
 98
        1
 10
0.0
 20
0.0
450
        0
451
        0
460
0.0
461
0.0
452
        0
462
0.0
453
        0
470

  0
SPLINE
  5
AF
330
A2
100
AcDbEntity
  8
Text
100
AcDbSpline
210
0.0
220
0.0
230
1.0
 70
     9
 71
     3
 72
    23
 73
    19
 74
     0
 42
0.0000000001
 43
0.0000000001
 40
0.0
 40
0.0
 40
0.0
 40
0.0
 40
1.0
 40
1.0
 40
1.0
 40
2.0
 40
2.0
 40
2.0
 40
3.0
 40
3.0
 40
3.0
 40
4.0
 40
4.0
 40
4.0
 40
5.0
 40
5.0
 40
5.0
 40
6.0
 40
6.0
 40
6.0
 40
6.0
 10
1.225717503618726
 20
-3.048324546731009
 30
0.0
 10
1.225717503618726
 20
-3.026730773520006
 30
0.0
 10
1.218408585777827
 20
-3.015925562406714
 30
0.0
 10
1.203807399111661
 20
-3.015925562406714
 30
0.0
 10
1.18958913980388
 20
-3.015925562406714
 30
0.0
 10
1.182480010149977
 20
-3.02679736958233
 30
0.0
 10
1.182480010149977
 20
-3.048557632949167
 30
0.0
 10
1.182480010149977
 20
-3.057265068099013
 30
0.0
 10
1.184344699895266
 20
-3.065373138687871
 30
0.0
 10
1.188074079385816
 20
-3.072915142746928
 30
0.0
 10
1.192269631312708
 20
-3.081389491678616
 30
0.0
 10
1.197430826143419
 20
-3.085618341636669
 30
0.0
 10
1.203574312893503
 20
-3.085618341636669
 30
0.0
 10
1.209551309487753
 20
-3.085618341636669
 30
0.0
 10
1.21482904742753
 20
-3.081306246600686
 30
0.0
 10
1.219424175728388
 20
-3.07268205652877
 30
0.0
 10
1.22361972765528
 20
-3.064840370189231
 30
0.0
 10
1.225717503618726
 20
-3.056715650584767
 30
0.0
 10
1.225717503618726
 20
-3.048324546731009
 30
0.0
  0
SPLINE
  5
B0
330
A2
100
AcDbEntity
  8
Text
100
AcDbSpline
210
0.0
220
0.0
230
1.0
 70
     9
 71
     3
 72
    29
 73
    25
 74
     0
 42
0.0000000001
 43
0.0000000001
 40
0.0
 40
0.0
 40
0.0
 40
0.0
 40
1.0
 40
1.0
 40
1.0
 40
2.0
 40
2.0
 40
2.0
 40
3.0
 40
3.0
 40
3.0
 40
4.0
 40
4.0
 40
4.0
 40
5.0
 40
5.0
 40
5.0
 40
6.0
 40
6.0
 40
6.0
 40
7.0
 40
7.0
 40
7.0
 40
8.0
 40
8.0
 40
8.0
 40
8.0
 10
1.281774739086282
 20
-3.027812959532891
 30
0.0
 10
1.281774739086282
 20
-3.055233888197891
 30
0.0
 10
1.274698907463567
 20
-3.078425966904862
 30
0.0
 10
1.260563893233691
 20
-3.097389195653754
 30
0.0
 10
1.24571297133376
 20
-3.117201524197374
 30
0.0
 10
1.226716444553706
 20
-3.127107688469196
 30
0.0
 10
1.203574312893503
 20
-3.127107688469196
 30
0.0
 10
1.17971627356322
 20
-3.127107688469196
 30
0.0
 10
1.160403415487078
 20
-3.117118279119469
 30
0.0
 10
1.145652387680658
 20
-3.097156109435597
 30
0.0
 10
1.131733810653359
 20
-3.078359370842513
 30
0.0
 10
1.124791171155291
 20
-3.055233888197891
 30
0.0
 10
1.124791171155291
 20
-3.027812959532891
 30
0.0
 10
1.124791171155291
 20
-2.998527341122603
 30
0.0
 10
1.132366473245509
 20
-2.975518401587073
 30
0.0
 10
1.147517077425921
 20
-2.958819438957435
 30
0.0
 10
1.16180193279605
 20
-2.943119417262778
 30
0.0
 10
1.180498777295623
 20
-2.935277730923239
 30
0.0
 10
1.203574312893503
 20
-2.935277730923239
 30
0.0
 10
1.226250272117365
 20
-2.935277730923239
 30
0.0
 10
1.244747328429967
 20
-2.94316936430952
 30
0.0
 10
1.259048832815652
 20
-2.958935982066527
 30
0.0
 10
1.274199436996064
 20
-2.975718189774068
 30
0.0
 10
1.281774739086282
 20
-2.998677182262857
 30
0.0
 10
1.281774739086282
 20
-3.027812959532891
 30
0.0
  0
HATCH
  5
B1
330
A2
100
AcDbEntity
  8
Text
 62
   110
420
    65410
440
 33554687
100
AcDbHatch
 10
0.0
 20
0.0
 30
0.0
210
0.0
220
0.0
230
1.0
  2
SOLID
 70
     1
 71
     1
 91
        2
 92
        1
 93
        1
 72
     4
 94
        3
 73
     0
 74
     0
 95
       23
 96
       19
 40
0.0
 40
0.0
 40
0.0
 40
0.0
 40
1.0
 40
1.0
 40
1.0
 40
2.0
 40
2.0
 40
2.0
 40
3.0
 40
3.0
 40
3.0
 40
4.0
 40
4.0
 40
4.0
 40
5.0
 40
5.0
 40
5.0
 40
6.0
 40
6.0
 40
6.0
 40
6.0
 10
1.225717503618726
 20
-3.048324546731009
 10
1.225717503618726
 20
-3.026730773520006
 10
1.218408585777827
 20
-3.015925562406714
 10
1.203807399111661
 20
-3.015925562406714
 10
1.18958913980388
 20
-3.015925562406714
 10
1.182480010149977
 20
-3.02679736958233
 10
1.182480010149977
 20
-3.048557632949167
 10
1.182480010149977
 20
-3.057265068099013
 10
1.184344699895266
 20
-3.065373138687871
 10
1.188074079385816
 20
-3.072915142746928
 10
1.192269631312708
 20
-3.081389491678616
 10
1.197430826143419
 20
-3.085618341636669
 10
1.203574312893503
 20
-3.085618341636669
 10
1.209551309487753
 20
-3.085618341636669
 10
1.21482904742753
 20
-3.081306246600686
 10
1.219424175728388
 20
-3.07268205652877
 10
1.22361972765528
 20
-3.064840370189231
 10
1.225717503618726
 20
-3.056715650584767
 10
1.225717503618726
 20
-3.048324546731009
 97
        0
 97
        1
330
AF
 92
        1
 93
        1
 72
     4
 94
        3
 73
     0
 74
     0
 95
       29
 96
       25
 40
0.0
 40
0.0
 40
0.0
 40
0.0
 40
1.0
 40
1.0
 40
1.0
 40
2.0
 40
2.0
 40
2.0
 40
3.0
 40
3.0
 40
3.0
 40
4.0
 40
4.0
 40
4.0
 40
5.0
 40
5.0
 40
5.0
 40
6.0
 40
6.0
 40
6.0
 40
7.0
 40
7.0
 40
7.0
 40
8.0
 40
8.0
 40
8.0
 40
8.0
 10
1.281774739086282
 20
-3.027812959532891
 10
1.281774739086282
 20
-3.055233888197891
 10
1.274698907463567
 20
-3.078425966904862
 10
1.260563893233691
 20
-3.097389195653754
 10
1.24571297133376
 20
-3.117201524197374
 10
1.226716444553706
 20
-3.127107688469196
 10
1.203574312893503
 20
-3.127107688469196
 10
1.17971627356322
 20
-3.127107688469196
 10
1.160403415487078
 20
-3.117118279119469
 10
1.145652387680658
 20
-3.097156109435597
 10
1.131733810653359
 20
-3.078359370842513
 10
1.124791171155291
 20
-3.055233888197891
 10
1.124791171155291
 20
-3.027812959532891
 10
1.124791171155291
 20
-2.998527341122603
 10
1.132366473245509
 20
-2.975518401587073
 10
1.147517077425921
 20
-2.958819438957435
 10
1.16180193279605
 20
-2.943119417262778
 10
1.180498777295623
 20
-2.935277730923239
 10
1.203574312893503
 20
-2.935277730923239
 10
1.226250272117365
 20
-2.935277730923239
 10
1.244747328429967
 20
-2.94316936430952
 10
1.259048832815652
 20
-2.958935982066527
 10
1.274199436996064
 20
-2.975718189774068
 10
1.281774739086282
 20
-2.998677182262857
 10
1.281774739086282
 20
-3.027812959532891
 97
        0
 97
        1
330
B0
 75
     2
 76
     1
 98
        1
 10
0.0
 20
0.0
450
        0
451
        0
460
0.0
461
0.0
452
        0
462
0.0
453
        0
470

  0
SPLINE
  5
B2
330
A2
100
AcDbEntity
  8
Text
100
AcDbSpline
210
0.0
220
0.0
230
1.0
 70
     9
 71
     3
 72
    32
 73
    28
 74
     0
 42
0.0000000001
 43
0.0000000001
 40
0.0
 40
0.0
 40
0.0
 40
0.0
 40
1.0
 40
1.0
 40
1.0
 40
2.0
 40
2.0
 40
2.0
 40
3.0
 40
3.0
 40
3.0
 40
4.0
 40
4.0
 40
4.0
 40
5.0
 40
5.0
 40
5.0
 40
6.0
 40
6.0
 40
6.0
 40
7.0
 40
7.0
 40
7.0
 40
8.0
 40
8.0
 40
8.0
 40
9.0
 40
9.0
 40
9.0
 40
9.0
 10
1.411603762601594
 20
-3.085851427854827
 30
0.0
 10
1.410821258869191
 20
-3.088964793768809
 30
0.0
 10
1.409389443529057
 20
-3.094825247253993
 30
0.0
 10
1.407291667565611
 20
-3.103449437325934
 30
0.0
 10
1.406192832537145
 20
-3.108494089047528
 30
0.0
 10
1.405260487664514
 20
-3.114404489579454
 30
0.0
 10
1.404494632947691
 20
-3.121163989906108
 30
0.0
 10
1.404494632947691
 20
-3.121163989906108
 30
0.0
 10
1.29902311923014
 20
-3.121163989906108
 30
0.0
 10
1.29902311923014
 20
-3.121163989906108
 30
0.0
 10
1.298623542856148
 20
-3.102900019811689
 30
0.0
 10
1.297657899952355
 20
-3.072831897668998
 30
0.0
 10
1.296109541503154
 20
-3.03095962347806
 30
0.0
 10
1.295093951552593
 20
-3.00951569140731
 30
0.0
 10
1.293262559838467
 20
-2.979913741700935
 30
0.0
 10
1.290632015376382
 20
-2.942153774358959
 30
0.0
 10
1.290632015376382
 20
-2.942153774358959
 30
0.0
 10
1.371512933078014
 20
-2.942153774358959
 30
0.0
 10
1.371512933078014
 20
-2.942153774358959
 30
0.0
 10
1.371512933078014
 20
-2.942153774358959
 30
0.0
 10
1.364869975860452
 20
-3.090629695327101
 30
0.0
 10
1.364869975860452
 20
-3.090629695327101
 30
0.0
 10
1.372395330903903
 20
-3.090629695327101
 30
0.0
 10
1.383700012484673
 20
-3.089813893563536
 30
0.0
 10
1.398784020602761
 20
-3.088182290036431
 30
0.0
 10
1.401880737501187
 20
-3.087865958740343
 30
0.0
 10
1.406159534505983
 20
-3.087100104023521
 30
0.0
 10
1.411603762601594
 20
-3.085851427854827
 30
0.0
  0
HATCH
  5
B3
330
A2
100
AcDbEntity
  8
Text
 62
   110
420
    65410
440
 33554687
100
AcDbHatch
 10
0.0
 20
0.0
 30
0.0
210
0.0
220
0.0
230
1.0
  2
SOLID
 70
     1
 71
     1
 91
        1
 92
        1
 93
        1
 72
     4
 94
        3
 73
     0
 74
     0
 95
       32
 96
       28
 40
0.0
 40
0.0
 40
0.0
 40
0.0
 40
1.0
 40
1.0
 40
1.0
 40
2.0
 40
2.0
 40
2.0
 40
3.0
 40
3.0
 40
3.0
 40
4.0
 40
4.0
 40
4.0
 40
5.0
 40
5.0
 40
5.0
 40
6.0
 40
6.0
 40
6.0
 40
7.0
 40
7.0
 40
7.0
 40
8.0
 40
8.0
 40
8.0
 40
9.0
 40
9.0
 40
9.0
 40
9.0
 10
1.411603762601594
 20
-3.085851427854827
 10
1.410821258869191
 20
-3.088964793768809
 10
1.409389443529057
 20
-3.094825247253993
 10
1.407291667565611
 20
-3.103449437325934
 10
1.406192832537145
 20
-3.108494089047528
 10
1.405260487664514
 20
-3.114404489579454
 10
1.404494632947691
 20
-3.121163989906108
 10
1.404494632947691
 20
-3.121163989906108
 10
1.29902311923014
 20
-3.121163989906108
 10
1.29902311923014
 20
-3.121163989906108
 10
1.298623542856148
 20
-3.102900019811689
 10
1.297657899952355
 20
-3.072831897668998
 10
1.296109541503154
 20
-3.03095962347806
 10
1.295093951552593
 20
-3.00951569140731
 10
1.293262559838467
 20
-2.979913741700935
 10
1.290632015376382
 20
-2.942153774358959
 10
1.290632015376382
 20
-2.942153774358959
 10
1.371512933078014
 20
-2.942153774358959
 10
1.371512933078014
 20
-2.942153774358959
 10
1.371512933078014
 20
-2.942153774358959
 10
1.364869975860452
 20
-3.090629695327101
 10
1.364869975860452
 20
-3.090629695327101
 10
1.372395330903903
 20
-3.090629695327101
 10
1.383700012484673
 20
-3.089813893563536
 10
1.398784020602761
 20
-3.088182290036431
 10
1.401880737501187
 20
-3.087865958740343
 10
1.406159534505983
 20
-3.087100104023521
 10
1.411603762601594
 20
-3.085851427854827
 97
        0
 97
        1
330
B2
 75
     2
 76
     1
 98
        1
 10
0.0
 20
0.0
450
        0
451
        0
460
0.0
461
0.0
452
        0
462
0.0
453
        0
470

  0
ENDBLK
  5
A5
330
A2
100
AcDbEntity
  8
0
100
AcDbBlockEnd
  0
BLOCK
  5
B6
330
B4
100
AcDbEntity
  8
0
100
AcDbBlockBegin
  2
Block_3
 70
     0
 10
0.0
 20
0.0
 30
0.0
  3
Block_3
  1

  0
SPLINE
  5
B8
330
B4
100
AcDbEntity
  8
Text
100
AcDbSpline
210
0.0
220
0.0
230
1.0
 70
    11
 71
     3
 72
    41
 73
    37
 74
     0
 42
0.0000000001
 43
0.0000000001
 40
0.0
 40
0.0
 40
0.0
 40
0.0
 40
1.0
 40
1.0
 40
1.0
 40
2.0
 40
2.0
 40
2.0
 40
3.0
 40
3.0
 40
3.0
 40
4.0
 40
4.0
 40
4.0
 40
5.0
 40
5.0
 40
5.0
 40
6.0
 40
6.0
 40
6.0
 40
7.0
 40
7.0
 40
7.0
 40
8.0
 40
8.0
 40
8.0
 40
9.0
 40
9.0
 40
9.0
 40
10.0
 40
10.0
 40
10.0
 40
11.0
 40
11.0
 40
11.0
 40
12.0
 40
12.0
 40
12.0
 40
12.0
 10
1.281690393899882
 20
-2.751038020269258
 30
0.0
 10
1.281690393899882
 20
-2.751038020269258
 30
0.0
 10
1.278396882805079
 20
-2.822473140221088
 30
0.0
 10
1.278396882805079
 20
-2.822473140221088
 30
0.0
 10
1.275444079754631
 20
-2.822018862828675
 30
0.0
 10
1.270706615519783
 20
-2.821451016088227
 30
0.0
 10
1.264200714293211
 20
-2.820769599999645
 30
0.0
 10
1.260193338724699
 20
-2.820542461303451
 30
0.0
 10
1.253671213305551
 20
-2.820315322607257
 30
0.0
 10
1.244666786420818
 20
-2.820088183911088
 30
0.0
 10
1.244212509028481
 20
-2.824549836871963
 30
0.0
 10
1.243417523591789
 20
-2.835338924940995
 30
0.0
 10
1.242281830110843
 20
-2.852455448118184
 30
0.0
 10
1.241454396288999
 20
-2.869036572940078
 30
0.0
 10
1.240091564111884
 20
-2.893372861817599
 30
0.0
 10
1.238193333579399
 20
-2.925480538943373
 30
0.0
 10
1.238193333579399
 20
-2.925480538943373
 30
0.0
 10
1.183225769101378
 20
-2.925480538943373
 30
0.0
 10
1.183225769101378
 20
-2.925480538943373
 30
0.0
 10
1.182625473975703
 20
-2.910181125335687
 30
0.0
 10
1.181489780494757
 20
-2.886153096117292
 30
0.0
 10
1.179818688658542
 20
-2.85336400290296
 30
0.0
 10
1.179056151607003
 20
-2.84200706809343
 30
0.0
 10
1.178261166170361
 20
-2.830909720365298
 30
0.0
 10
1.177433732348516
 20
-2.820088183911088
 30
0.0
 10
1.177433732348516
 20
-2.820088183911088
 30
0.0
 10
1.159489775349508
 20
-2.820769599999645
 30
0.0
 10
1.159489775349508
 20
-2.820769599999645
 30
0.0
 10
1.159489775349508
 20
-2.820769599999645
 30
0.0
 10
1.143249358571867
 20
-2.822473140221088
 30
0.0
 10
1.143249358571867
 20
-2.822473140221088
 30
0.0
 10
1.143249358571867
 20
-2.822473140221088
 30
0.0
 10
1.140410124869504
 20
-2.751038020269258
 30
0.0
 10
1.140410124869504
 20
-2.751038020269258
 30
0.0
 10
1.140410124869504
 20
-2.751038020269258
 30
0.0
 10
1.281690393899882
 20
-2.751038020269258
 30
0.0
 10
1.281690393899882
 20
-2.751038020269258
 30
0.0
  0
HATCH
  5
B9
330
B4
100
AcDbEntity
  8
Text
 62
   211
420
 16744447
440
 33554687
100
AcDbHatch
 10
0.0
 20
0.0
 30
0.0
210
0.0
220
0.0
230
1.0
  2
SOLID
 70
     1
 71
     1
 91
        1
 92
        1
 93
        1
 72
     4
 94
        3
 73
     0
 74
     0
 95
       41
 96
       37
 40
0.0
 40
0.0
 40
0.0
 40
0.0
 40
1.0
 40
1.0
 40
1.0
 40
2.0
 40
2.0
 40
2.0
 40
3.0
 40
3.0
 40
3.0
 40
4.0
 40
4.0
 40
4.0
 40
5.0
 40
5.0
 40
5.0
 40
6.0
 40
6.0
 40
6.0
 40
7.0
 40
7.0
 40
7.0
 40
8.0
 40
8.0
 40
8.0
 40
9.0
 40
9.0
 40
9.0
 40
10.0
 40
10.0
 40
10.0
 40
11.0
 40
11.0
 40
11.0
 40
12.0
 40
12.0
 40
12.0
 40
12.0
 10
1.281690393899882
 20
-2.751038020269258
 10
1.281690393899882
 20
-2.751038020269258
 10
1.278396882805079
 20
-2.822473140221088
 10
1.278396882805079
 20
-2.822473140221088
 10
1.275444079754631
 20
-2.822018862828675
 10
1.270706615519783
 20
-2.821451016088227
 10
1.264200714293211
 20
-2.820769599999645
 10
1.260193338724699
 20
-2.820542461303451
 10
1.253671213305551
 20
-2.820315322607257
 10
1.244666786420818
 20
-2.820088183911088
 10
1.244212509028481
 20
-2.824549836871963
 10
1.243417523591789
 20
-2.835338924940995
 10
1.242281830110843
 20
-2.852455448118184
 10
1.241454396288999
 20
-2.869036572940078
 10
1.240091564111884
 20
-2.893372861817599
 10
1.238193333579399
 20
-2.925480538943373
 10
1.238193333579399
 20
-2.925480538943373
 10
1.183225769101378
 20
-2.925480538943373
 10
1.183225769101378
 20
-2.925480538943373
 10
1.182625473975703
 20
-2.910181125335687
 10
1.181489780494757
 20
-2.886153096117292
 10
1.179818688658542
 20
-2.85336400290296
 10
1.179056151607003
 20
-2.84200706809343
 10
1.178261166170361
 20
-2.830909720365298
 10
1.177433732348516
 20
-2.820088183911088
 10
1.177433732348516
 20
-2.820088183911088
 10
1.159489775349508
 20
-2.820769599999645
 10
1.159489775349508
 20
-2.820769599999645
 10
1.159489775349508
 20
-2.820769599999645
 10
1.143249358571867
 20
-2.822473140221088
 10
1.143249358571867
 20
-2.822473140221088
 10
1.143249358571867
 20
-2.822473140221088
 10
1.140410124869504
 20
-2.751038020269258
 10
1.140410124869504
 20
-2.751038020269258
 10
1.140410124869504
 20
-2.751038020269258
 10
1.281690393899882
 20
-2.751038020269258
 10
1.281690393899882
 20
-2.751038020269258
 97
        0
 97
        1
330
B8
 75
     2
 76
     1
 98
        1
 10
0.0
 20
0.0
450
        0
451
        0
460
0.0
461
0.0
452
        0
462
0.0
453
        0
470

  0
SPLINE
  5
BA
330
B4
100
AcDbEntity
  8
Text
100
AcDbSpline
210
0.0
220
0.0
230
1.0
 70
     9
 71
     3
 72
    23
 73
    19
 74
     0
 42
0.0000000001
 43
0.0000000001
 40
0.0
 40
0.0
 40
0.0
 40
0.0
 40
1.0
 40
1.0
 40
1.0
 40
2.0
 40
2.0
 40
2.0
 40
3.0
 40
3.0
 40
3.0
 40
4.0
 40
4.0
 40
4.0
 40
5.0
 40
5.0
 40
5.0
 40
6.0
 40
6.0
 40
6.0
 40
6.0
 10
1.386060624799306
 20
-2.854499696383906
 30
0.0
 10
1.386060624799306
 20
-2.833456918601136
 30
0.0
 10
1.378938204254432
 20
-2.822927417613451
 30
0.0
 10
1.364709587357411
 20
-2.822927417613451
 30
0.0
 10
1.350854126889796
 20
-2.822927417613451
 30
0.0
 10
1.343926396655989
 20
-2.833521815371467
 30
0.0
 10
1.343926396655989
 20
-2.854726835080075
 30
0.0
 10
1.343926396655989
 20
-2.863212087802038
 30
0.0
 10
1.345743506225491
 20
-2.871113269590953
 30
0.0
 10
1.349377725364547
 20
-2.87846282883197
 30
0.0
 10
1.353466221895991
 20
-2.886720942857739
 30
0.0
 10
1.358495721597313
 20
-2.890841887774361
 30
0.0
 10
1.364482448661192
 20
-2.890841887774361
 30
0.0
 10
1.370306933799206
 20
-2.890841887774361
 30
0.0
 10
1.37546622704124
 20
-2.886639821894807
 30
0.0
 10
1.379927880002141
 20
-2.878235690135776
 30
0.0
 10
1.384016376533584
 20
-2.870594095428234
 30
0.0
 10
1.386060624799306
 20
-2.862676689446743
 30
0.0
 10
1.386060624799306
 20
-2.854499696383906
 30
0.0
  0
SPLINE
  5
BB
330
B4
100
AcDbEntity
  8
Text
100
AcDbSpline
210
0.0
220
0.0
230
1.0
 70
     9
 71
     3
 72
    29
 73
    25
 74
     0
 42
0.0000000001
 43
0.0000000001
 40
0.0
 40
0.0
 40
0.0
 40
0.0
 40
1.0
 40
1.0
 40
1.0
 40
2.0
 40
2.0
 40
2.0
 40
3.0
 40
3.0
 40
3.0
 40
4.0
 40
4.0
 40
4.0
 40
5.0
 40
5.0
 40
5.0
 40
6.0
 40
6.0
 40
6.0
 40
7.0
 40
7.0
 40
7.0
 40
8.0
 40
8.0
 40
8.0
 40
8.0
 10
1.440687481233023
 20
-2.83451149111915
 30
0.0
 10
1.440687481233023
 20
-2.861232736306672
 30
0.0
 10
1.433792199384419
 20
-2.883833036577622
 30
0.0
 10
1.420017859879736
 20
-2.90231239193195
 30
0.0
 10
1.405562104286445
 20
-2.921619181108124
 30
0.0
 10
1.387050300546964
 20
-2.93127257569621
 30
0.0
 10
1.364482448661192
 20
-2.93127257569621
 30
0.0
 10
1.341233180686862
 20
-2.93127257569621
 30
0.0
 10
1.322429341480806
 20
-2.921538060145192
 30
0.0
 10
1.308038482657947
 20
-2.902085253235756
 30
0.0
 10
1.294491281849433
 20
-2.883768139807266
 30
0.0
 10
1.287709569348913
 20
-2.861232736306672
 30
0.0
 10
1.287709569348913
 20
-2.83451149111915
 30
0.0
 10
1.287709569348913
 20
-2.805973136362101
 30
0.0
 10
1.295091576975109
 20
-2.783551302209616
 30
0.0
 10
1.309855592227449
 20
-2.767278437046823
 30
0.0
 10
1.323792173657971
 20
-2.751979023439162
 30
0.0
 10
1.341995717738402
 20
-2.744337428731619
 30
0.0
 10
1.364482448661192
 20
-2.744337428731619
 30
0.0
 10
1.386596023154576
 20
-2.744337428731619
 30
0.0
 10
1.40460487692394
 20
-2.752027696016916
 30
0.0
 10
1.418541458354487
 20
-2.767392006394932
 30
0.0
 10
1.433305473606828
 20
-2.783745992520607
 30
0.0
 10
1.440687481233023
 20
-2.806119154095363
 30
0.0
 10
1.440687481233023
 20
-2.83451149111915
 30
0.0
  0
HATCH
  5
BC
330
B4
100
AcDbEntity
  8
Text
 62
   211
420
 16744447
440
 33554687
100
AcDbHatch
 10
0.0
 20
0.0
 30
0.0
210
0.0
220
0.0
230
1.0
  2
SOLID
 70
     1
 71
     1
 91
        2
 92
        1
 93
        1
 72
     4
 94
        3
 73
     0
 74
     0
 95
       23
 96
       19
 40
0.0
 40
0.0
 40
0.0
 40
0.0
 40
1.0
 40
1.0
 40
1.0
 40
2.0
 40
2.0
 40
2.0
 40
3.0
 40
3.0
 40
3.0
 40
4.0
 40
4.0
 40
4.0
 40
5.0
 40
5.0
 40
5.0
 40
6.0
 40
6.0
 40
6.0
 40
6.0
 10
1.386060624799306
 20
-2.854499696383906
 10
1.386060624799306
 20
-2.833456918601136
 10
1.378938204254432
 20
-2.822927417613451
 10
1.364709587357411
 20
-2.822927417613451
 10
1.350854126889796
 20
-2.822927417613451
 10
1.343926396655989
 20
-2.833521815371467
 10
1.343926396655989
 20
-2.854726835080075
 10
1.343926396655989
 20
-2.863212087802038
 10
1.345743506225491
 20
-2.871113269590953
 10
1.349377725364547
 20
-2.87846282883197
 10
1.353466221895991
 20
-2.886720942857739
 10
1.358495721597313
 20
-2.890841887774361
 10
1.364482448661192
 20
-2.890841887774361
 10
1.370306933799206
 20
-2.890841887774361
 10
1.37546622704124
 20
-2.886639821894807
 10
1.379927880002141
 20
-2.878235690135776
 10
1.384016376533584
 20
-2.870594095428234
 10
1.386060624799306
 20
-2.862676689446743
 10
1.386060624799306
 20
-2.854499696383906
 97
        0
 97
        1
330
BA
 92
        1
 93
        1
 72
     4
 94
        3
 73
     0
 74
     0
 95
       29
 96
       25
 40
0.0
 40
0.0
 40
0.0
 40
0.0
 40
1.0
 40
1.0
 40
1.0
 40
2.0
 40
2.0
 40
2.0
 40
3.0
 40
3.0
 40
3.0
 40
4.0
 40
4.0
 40
4.0
 40
5.0
 40
5.0
 40
5.0
 40
6.0
 40
6.0
 40
6.0
 40
7.0
 40
7.0
 40
7.0
 40
8.0
 40
8.0
 40
8.0
 40
8.0
 10
1.440687481233023
 20
-2.83451149111915
 10
1.440687481233023
 20
-2.861232736306672
 10
1.433792199384419
 20
-2.883833036577622
 10
1.420017859879736
 20
-2.90231239193195
 10
1.405562104286445
 20
-2.921619181108124
 10
1.387050300546964
 20
-2.93127257569621
 10
1.364482448661192
 20
-2.93127257569621
 10
1.341233180686862
 20
-2.93127257569621
 10
1.322429341480806
 20
-2.921538060145192
 10
1.308038482657947
 20
-2.902085253235756
 10
1.294491281849433
 20
-2.883768139807266
 10
1.287709569348913
 20
-2.861232736306672
 10
1.287709569348913
 20
-2.83451149111915
 10
1.287709569348913
 20
-2.805973136362101
 10
1.295091576975109
 20
-2.783551302209616
 10
1.309855592227449
 20
-2.767278437046823
 10
1.323792173657971
 20
-2.751979023439162
 10
1.341995717738402
 20
-2.744337428731619
 10
1.364482448661192
 20
-2.744337428731619
 10
1.386596023154576
 20
-2.744337428731619
 10
1.40460487692394
 20
-2.752027696016916
 10
1.418541458354487
 20
-2.767392006394932
 10
1.433305473606828
 20
-2.783745992520607
 10
1.440687481233023
 20
-2.806119154095363
 10
1.440687481233023
 20
-2.83451149111915
 97
        0
 97
        1
330
BB
 75
     2
 76
     1
 98
        1
 10
0.0
 20
0.0
450
        0
451
        0
460
0.0
461
0.0
452
        0
462
0.0
453
        0
470

  0
ENDBLK
  5
B7
330
B4
100
AcDbEntity
  8
0
100
AcDbBlockEnd
  0
ENDSEC
  0
SECTION
  2
ENTITIES
  0
LWPOLYLINE
  5
79
330
70
100
AcDbEntity
  8
White
 62
    18
420
        0
370
    70
100
AcDbPolyline
 90
        4
 70
     1
 43
0.0
 10
2.188825459317361
 20
-3.278872554494783
 10
-0.271174540682662
 20
-3.278872554494783
 10
-0.271174540682662
 20
0.2211274455052161
 10
2.188825459317361
 20
0.2211274455052161
  0
HATCH
  5
7A
330
70
100
AcDbEntity
  8
White
 62
     7
420
 16053492
440
 33554687
100
AcDbHatch
 10
0.0
 20
0.0
 30
0.0
210
0.0
220
0.0
230
1.0
  2
SOLID
 70
     1
 71
     1
 91
        1
 92
        1
 93
        4
 72
     1
 10
2.188825459317361
 20
-3.278872554494783
 11
-0.271174540682662
 21
-3.278872554494783
 72
     1
 10
-0.271174540682662
 20
-3.278872554494783
 11
-0.271174540682662
 21
0.2211274455052159
 72
     1
 10
-0.271174540682662
 20
0.2211274455052161
 11
2.188825459317361
 21
0.2211274455052161
 72
     1
 10
2.188825459317361
 20
0.2211274455052161
 11
2.188825459317361
 21
-3.278872554494783
 97
        1
330
79
 75
     2
 76
     1
 98
        1
 10
0.0
 20
0.0
450
        0
451
        0
460
0.0
461
0.0
452
        0
462
0.0
453
        0
470

  0
LWPOLYLINE
  5
7B
330
70
100
AcDbEntity
  8
White
 62
    18
420
        0
370
    70
100
AcDbPolyline
 90
        4
 70
     1
 43
0.0
 10
2.038996062992004
 20
-2.57128390201251
 10
-0.1213451443572922
 20
-2.57128390201251
 10
-0.1213451443572922
 20
-0.1412839020125223
 10
2.038996062992004
 20
-0.1412839020125223
  0
HATCH
  5
7C
330
70
100
AcDbEntity
  8
White
 62
   254
420
 14540253
440
 33554687
100
AcDbHatch
 10
0.0
 20
0.0
 30
0.0
210
0.0
220
0.0
230
1.0
  2
SOLID
 70
     1
 71
     1
 91
        1
 92
        1
 93
        4
 72
     1
 10
2.038996062992004
 20
-2.57128390201251
 11
-0.1213451443572922
 21
-2.57128390201251
 72
     1
 10
-0.1213451443572922
 20
-2.57128390201251
 11
-0.1213451443572922
 21
-0.1412839020125225
 72
     1
 10
-0.1213451443572922
 20
-0.1412839020125223
 11
2.038996062992004
 21
-0.1412839020125223
 72
     1
 10
2.038996062992004
 20
-0.1412839020125223
 11
2.038996062992004
 21
-2.57128390201251
 97
        1
330
7B
 75
     2
 76
     1
 98
        1
 10
0.0
 20
0.0
450
        0
451
        0
460
0.0
461
0.0
452
        0
462
0.0
453
        0
470

  0
SPLINE
  5
7E
330
70
100
AcDbEntity
  8
Text
100
AcDbSpline
210
0.0
220
0.0
230
1.0
 70
    25
 71
     3
 72
    14
 73
    10
 74
     0
 42
0.0000000001
 43
0.0000000001
 40
0.0
 40
0.0
 40
0.0
 40
0.0
 40
1.0
 40
1.0
 40
1.0
 40
2.0
 40
2.0
 40
2.0
 40
3.0
 40
3.0
 40
3.0
 40
3.0
 10
0.2928146683442365
 20
-3.168044752456428
 30
0.0
 10
0.2928146683442365
 20
-3.168045600166932
 30
0.0
 10
0.2928146683442365
 20
-3.168047295587939
 30
0.0
 10
0.2928146683442365
 20
-3.168048143298442
 30
0.0
 10
0.2928146683442365
 20
-3.168048143298442
 30
0.0
 10
0.2928146683442365
 20
-3.168048143298442
 30
0.0
 10
0.2928146683442365
 20
-3.168048143298442
 30
0.0
 10
0.2928146683442365
 20
-3.168047295587939
 30
0.0
 10
0.2928146683442365
 20
-3.168045600166932
 30
0.0
 10
0.2928146683442365
 20
-3.168044752456428
 30
0.0
  0
SPLINE
  5
7F
330
70
100
AcDbEntity
  8
Text
100
AcDbSpline
210
0.0
220
0.0
230
1.0
 70
     9
 71
     3
 72
    74
 73
    70
 74
     0
 42
0.0000000001
 43
0.0000000001
 40
0.0
 40
0.0
 40
0.0
 40
0.0
 40
1.0
 40
1.0
 40
1.0
 40
2.0
 40
2.0
 40
2.0
 40
3.0
 40
3.0
 40
3.0
 40
4.0
 40
4.0
 40
4.0
 40
5.0
 40
5.0
 40
5.0
 40
6.0
 40
6.0
 40
6.0
 40
7.0
 40
7.0
 40
7.0
 40
8.0
 40
8.0
 40
8.0
 40
9.0
 40
9.0
 40
9.0
 40
10.0
 40
10.0
 40
10.0
 40
11.0
 40
11.0
 40
11.0
 40
12.0
 40
12.0
 40
12.0
 40
13.0
 40
13.0
 40
13.0
 40
14.0
 40
14.0
 40
14.0
 40
15.0
 40
15.0
 40
15.0
 40
16.0
 40
16.0
 40
16.0
 40
17.0
 40
17.0
 40
17.0
 40
18.0
 40
18.0
 40
18.0
 40
19.0
 40
19.0
 40
19.0
 40
20.0
 40
20.0
 40
20.0
 40
21.0
 40
21.0
 40
21.0
 40
22.0
 40
22.0
 40
22.0
 40
23.0
 40
23.0
 40
23.0
 40
23.0
 10
1.70702212684033
 20
-3.140243238784553
 30
0.0
 10
1.78184222147873
 20
-3.091252353367887
 30
0.0
 10
1.856662316117131
 20
-3.04226146795122
 30
0.0
 10
1.931482304791719
 20
-2.993270582534553
 30
0.0
 10
1.931482304791719
 20
-2.993270582534553
 30
0.0
 10
2.03819888465283
 20
-2.925819953194276
 30
0.0
 10
2.03819888465283
 20
-2.925819953194276
 30
0.0
 10
2.03819888465283
 20
-2.925819953194276
 30
0.0
 10
1.643721888125052
 20
-2.66921459295122
 30
0.0
 10
1.643721888125052
 20
-2.66921459295122
 30
0.0
 10
1.633481545243108
 20
-2.657997687569276
 30
0.0
 10
1.622346020069496
 20
-2.65529857732622
 30
0.0
 10
1.613868915034774
 20
-2.655135816909553
 30
0.0
 10
1.613868915034774
 20
-2.655135816909553
 30
0.0
 10
0.3435781164236636
 20
-2.655135816909553
 30
0.0
 10
0.3435781164236636
 20
-2.655135816909553
 30
0.0
 10
0.3356503277951914
 20
-2.64357982732622
 30
0.0
 10
0.3229007618229692
 20
-2.636065721423442
 30
0.0
 10
0.3085575001042192
 20
-2.636065721423442
 30
0.0
 10
0.303010082569497
 20
-2.636065721423442
 30
0.0
 10
0.297700023975747
 20
-2.637191480972053
 30
0.0
 10
0.292817211475747
 20
-2.639239549548442
 30
0.0
 10
0.2879276172917192
 20
-2.637191480972053
 30
0.0
 10
0.2826175586979692
 20
-2.636065721423442
 30
0.0
 10
0.277070141163247
 20
-2.636065721423442
 30
0.0
 10
0.262787914600747
 20
-2.636065721423442
 30
0.0
 10
0.250092602100747
 20
-2.643512010485942
 30
0.0
 10
0.2421512501042192
 20
-2.655135816909553
 30
0.0
 10
0.2421512501042192
 20
-2.655135816909553
 30
0.0
 10
0.0611074132986636
 20
-2.655135816909553
 30
0.0
 10
0.0611074132986636
 20
-2.655135816909553
 30
0.0
 10
0.0248660938542192
 20
-2.655135816909553
 30
0.0
 10
-0.0035220354860586
 20
-2.689220560833164
 30
0.0
 10
-0.0035220354860586
 20
-2.732731845555387
 30
0.0
 10
-0.0035220354860586
 20
-2.732731845555387
 30
0.0
 10
-0.0035220354860586
 20
-3.118216329062331
 30
0.0
 10
-0.0035220354860586
 20
-3.118216329062331
 30
0.0
 10
-0.0035220354860586
 20
-3.161741177152609
 30
0.0
 10
0.0248660938542192
 20
-3.19582592107622
 30
0.0
 10
0.0611074132986636
 20
-3.19582592107622
 30
0.0
 10
0.0611074132986636
 20
-3.19582592107622
 30
0.0
 10
0.2420495248438025
 20
-3.19582592107622
 30
0.0
 10
0.2420495248438025
 20
-3.19582592107622
 30
0.0
 10
0.2499773134722747
 20
-3.207381910659553
 30
0.0
 10
0.262726879444497
 20
-3.214896016562331
 30
0.0
 10
0.277070141163247
 20
-3.214896016562331
 30
0.0
 10
0.2826175586979692
 20
-3.214896016562331
 30
0.0
 10
0.2879276172917192
 20
-3.21377025701372
 30
0.0
 10
0.292817211475747
 20
-3.211722188437331
 30
0.0
 10
0.297700023975747
 20
-3.21377025701372
 30
0.0
 10
0.303010082569497
 20
-3.214896016562331
 30
0.0
 10
0.3085575001042192
 20
-3.214896016562331
 30
0.0
 10
0.3229007618229692
 20
-3.214896016562331
 30
0.0
 10
0.3356503277951914
 20
-3.207381910659553
 30
0.0
 10
0.3435781164236636
 20
-3.19582592107622
 30
0.0
 10
0.3435781164236636
 20
-3.19582592107622
 30
0.0
 10
1.613855351666719
 20
-3.19582592107622
 30
0.0
 10
1.613855351666719
 20
-3.19582592107622
 30
0.0
 10
1.613855351666719
 20
-3.19582592107622
 30
0.0
 10
1.618426206701441
 20
-3.195812357708164
 30
0.0
 10
1.618426206701441
 20
-3.195812357708164
 30
0.0
 10
1.618426206701441
 20
-3.195812357708164
 30
0.0
 10
1.620433585173663
 20
-3.19521556951372
 30
0.0
 10
1.620433585173663
 20
-3.19521556951372
 30
0.0
 10
1.624362405465818
 20
-3.193809429716086
 30
0.0
 10
1.628291331721786
 20
-3.192403501846077
 30
0.0
 10
1.632220152013941
 20
-3.190997362048442
 30
0.0
 10
1.657154178944008
 20
-3.174079391603021
 30
0.0
 10
1.682088099910262
 20
-3.157161209229975
 30
0.0
 10
1.70702212684033
 20
-3.140243238784553
 30
0.0
  0
HATCH
  5
80
330
70
100
AcDbEntity
  8
Text
 62
   111
420
  7667646
440
 33554687
100
AcDbHatch
 10
0.0
 20
0.0
 30
0.0
210
0.0
220
0.0
230
1.0
  2
SOLID
 70
     1
 71
     1
 91
        2
 92
        1
 93
        1
 72
     4
 94
        3
 73
     0
 74
     0
 95
       14
 96
       10
 40
0.0
 40
0.0
 40
0.0
 40
0.0
 40
1.0
 40
1.0
 40
1.0
 40
2.0
 40
2.0
 40
2.0
 40
3.0
 40
3.0
 40
3.0
 40
3.0
 10
0.2928146683442365
 20
-3.168044752456428
 10
0.2928146683442365
 20
-3.168045600166932
 10
0.2928146683442365
 20
-3.168047295587939
 10
0.2928146683442365
 20
-3.168048143298442
 10
0.2928146683442365
 20
-3.168048143298442
 10
0.2928146683442365
 20
-3.168048143298442
 10
0.2928146683442365
 20
-3.168048143298442
 10
0.2928146683442365
 20
-3.168047295587939
 10
0.2928146683442365
 20
-3.168045600166932
 10
0.2928146683442365
 20
-3.168044752456428
 97
        0
 97
        1
330
7E
 92
        1
 93
        1
 72
     4
 94
        3
 73
     0
 74
     0
 95
       74
 96
       70
 40
0.0
 40
0.0
 40
0.0
 40
0.0
 40
1.0
 40
1.0
 40
1.0
 40
2.0
 40
2.0
 40
2.0
 40
3.0
 40
3.0
 40
3.0
 40
4.0
 40
4.0
 40
4.0
 40
5.0
 40
5.0
 40
5.0
 40
6.0
 40
6.0
 40
6.0
 40
7.0
 40
7.0
 40
7.0
 40
8.0
 40
8.0
 40
8.0
 40
9.0
 40
9.0
 40
9.0
 40
10.0
 40
10.0
 40
10.0
 40
11.0
 40
11.0
 40
11.0
 40
12.0
 40
12.0
 40
12.0
 40
13.0
 40
13.0
 40
13.0
 40
14.0
 40
14.0
 40
14.0
 40
15.0
 40
15.0
 40
15.0
 40
16.0
 40
16.0
 40
16.0
 40
17.0
 40
17.0
 40
17.0
 40
18.0
 40
18.0
 40
18.0
 40
19.0
 40
19.0
 40
19.0
 40
20.0
 40
20.0
 40
20.0
 40
21.0
 40
21.0
 40
21.0
 40
22.0
 40
22.0
 40
22.0
 40
23.0
 40
23.0
 40
23.0
 40
23.0
 10
1.70702212684033
 20
-3.140243238784553
 10
1.78184222147873
 20
-3.091252353367887
 10
1.856662316117131
 20
-3.04226146795122
 10
1.931482304791719
 20
-2.993270582534553
 10
1.931482304791719
 20
-2.993270582534553
 10
2.03819888465283
 20
-2.925819953194276
 10
2.03819888465283
 20
-2.925819953194276
 10
2.03819888465283
 20
-2.925819953194276
 10
1.643721888125052
 20
-2.66921459295122
 10
1.643721888125052
 20
-2.66921459295122
 10
1.633481545243108
 20
-2.657997687569276
 10
1.622346020069496
 20
-2.65529857732622
 10
1.613868915034774
 20
-2.655135816909553
 10
1.613868915034774
 20
-2.655135816909553
 10
0.3435781164236636
 20
-2.655135816909553
 10
0.3435781164236636
 20
-2.655135816909553
 10
0.3356503277951914
 20
-2.64357982732622
 10
0.3229007618229692
 20
-2.636065721423442
 10
0.3085575001042192
 20
-2.636065721423442
 10
0.303010082569497
 20
-2.636065721423442
 10
0.297700023975747
 20
-2.637191480972053
 10
0.292817211475747
 20
-2.639239549548442
 10
0.2879276172917192
 20
-2.637191480972053
 10
0.2826175586979692
 20
-2.636065721423442
 10
0.277070141163247
 20
-2.636065721423442
 10
0.262787914600747
 20
-2.636065721423442
 10
0.250092602100747
 20
-2.643512010485942
 10
0.2421512501042192
 20
-2.655135816909553
 10
0.2421512501042192
 20
-2.655135816909553
 10
0.0611074132986636
 20
-2.655135816909553
 10
0.0611074132986636
 20
-2.655135816909553
 10
0.0248660938542192
 20
-2.655135816909553
 10
-0.0035220354860586
 20
-2.689220560833164
 10
-0.0035220354860586
 20
-2.732731845555387
 10
-0.0035220354860586
 20
-2.732731845555387
 10
-0.0035220354860586
 20
-3.118216329062331
 10
-0.0035220354860586
 20
-3.118216329062331
 10
-0.0035220354860586
 20
-3.161741177152609
 10
0.0248660938542192
 20
-3.19582592107622
 10
0.0611074132986636
 20
-3.19582592107622
 10
0.0611074132986636
 20
-3.19582592107622
 10
0.2420495248438025
 20
-3.19582592107622
 10
0.2420495248438025
 20
-3.19582592107622
 10
0.2499773134722747
 20
-3.207381910659553
 10
0.262726879444497
 20
-3.214896016562331
 10
0.277070141163247
 20
-3.214896016562331
 10
0.2826175586979692
 20
-3.214896016562331
 10
0.2879276172917192
 20
-3.21377025701372
 10
0.292817211475747
 20
-3.211722188437331
 10
0.297700023975747
 20
-3.21377025701372
 10
0.303010082569497
 20
-3.214896016562331
 10
0.3085575001042192
 20
-3.214896016562331
 10
0.3229007618229692
 20
-3.214896016562331
 10
0.3356503277951914
 20
-3.207381910659553
 10
0.3435781164236636
 20
-3.19582592107622
 10
0.3435781164236636
 20
-3.19582592107622
 10
1.613855351666719
 20
-3.19582592107622
 10
1.613855351666719
 20
-3.19582592107622
 10
1.613855351666719
 20
-3.19582592107622
 10
1.618426206701441
 20
-3.195812357708164
 10
1.618426206701441
 20
-3.195812357708164
 10
1.618426206701441
 20
-3.195812357708164
 10
1.620433585173663
 20
-3.19521556951372
 10
1.620433585173663
 20
-3.19521556951372
 10
1.624362405465818
 20
-3.193809429716086
 10
1.628291331721786
 20
-3.192403501846077
 10
1.632220152013941
 20
-3.190997362048442
 10
1.657154178944008
 20
-3.174079391603021
 10
1.682088099910262
 20
-3.157161209229975
 10
1.70702212684033
 20
-3.140243238784553
 97
        0
 97
        1
330
7F
 75
     2
 76
     1
 98
        1
 10
0.0
 20
0.0
450
        0
451
        0
460
0.0
461
0.0
452
        0
462
0.0
453
        0
470

  0
SPLINE
  5
81
330
70
100
AcDbEntity
  8
Text
100
AcDbSpline
210
0.0
220
0.0
230
1.0
 70
    11
 71
     3
 72
    38
 73
    34
 74
     0
 42
0.0000000001
 43
0.0000000001
 40
0.0
 40
0.0
 40
0.0
 40
0.0
 40
1.0
 40
1.0
 40
1.0
 40
2.0
 40
2.0
 40
2.0
 40
3.0
 40
3.0
 40
3.0
 40
4.0
 40
4.0
 40
4.0
 40
5.0
 40
5.0
 40
5.0
 40
6.0
 40
6.0
 40
6.0
 40
7.0
 40
7.0
 40
7.0
 40
8.0
 40
8.0
 40
8.0
 40
9.0
 40
9.0
 40
9.0
 40
10.0
 40
10.0
 40
10.0
 40
11.0
 40
11.0
 40
11.0
 40
11.0
 10
1.919766384334328
 20
-2.879881279012452
 30
0.0
 10
1.919766384334328
 20
-2.879881279012452
 30
0.0
 10
1.628227591474038
 20
-2.690235338829678
 30
0.0
 10
1.628227591474038
 20
-2.690235338829678
 30
0.0
 10
1.62479534806779
 20
-2.685653662575405
 30
0.0
 10
1.621007128952239
 20
-2.682914629032312
 30
0.0
 10
1.616973623091679
 20
-2.682914629032312
 30
0.0
 10
1.602141301870157
 20
-2.682914629032312
 30
0.0
 10
1.590117823807708
 20
-2.717500467630012
 30
0.0
 10
1.590117823807708
 20
-2.760164903947169
 30
0.0
 10
1.590117823807708
 20
-2.80282934026435
 30
0.0
 10
1.602141301870157
 20
-2.837415178862026
 30
0.0
 10
1.616973623091679
 20
-2.837415178862026
 30
0.0
 10
1.602141301870157
 20
-2.837415178862026
 30
0.0
 10
1.590117823807708
 20
-2.876844187207602
 30
0.0
 10
1.590117823807708
 20
-2.925480868992887
 30
0.0
 10
1.590117823807708
 20
-2.974118658801444
 30
0.0
 10
1.602141301870157
 20
-3.013546559123748
 30
0.0
 10
1.616973623091679
 20
-3.013546559123748
 30
0.0
 10
1.602141301870157
 20
-3.013546559123748
 30
0.0
 10
1.590117823807708
 20
-3.048132397721423
 30
0.0
 10
1.590117823807708
 20
-3.090796834038605
 30
0.0
 10
1.590117823807708
 20
-3.133461270355761
 30
0.0
 10
1.602141301870157
 20
-3.168047108953462
 30
0.0
 10
1.616973623091679
 20
-3.168047108953462
 30
0.0
 10
1.621028381233397
 20
-3.168047108953462
 30
0.0
 10
1.624834310583259
 20
-3.165272618665489
 30
0.0
 10
1.628280722176921
 20
-3.160644405433508
 30
0.0
 10
1.628280722176921
 20
-3.160644405433508
 30
0.0
 10
1.919766384334328
 20
-2.96979071987779
 30
0.0
 10
1.919766384334328
 20
-2.96979071987779
 30
0.0
 10
1.919766384334328
 20
-2.96979071987779
 30
0.0
 10
1.919766384334328
 20
-2.879881279012452
 30
0.0
 10
1.919766384334328
 20
-2.879881279012452
 30
0.0
  0
HATCH
  5
82
330
70
100
AcDbEntity
  8
Text
 62
    33
420
 13016173
440
 33554687
100
AcDbHatch
 10
0.0
 20
0.0
 30
0.0
210
0.0
220
0.0
230
1.0
  2
SOLID
 70
     1
 71
     1
 91
        1
 92
        1
 93
        1
 72
     4
 94
        3
 73
     0
 74
     0
 95
       38
 96
       34
 40
0.0
 40
0.0
 40
0.0
 40
0.0
 40
1.0
 40
1.0
 40
1.0
 40
2.0
 40
2.0
 40
2.0
 40
3.0
 40
3.0
 40
3.0
 40
4.0
 40
4.0
 40
4.0
 40
5.0
 40
5.0
 40
5.0
 40
6.0
 40
6.0
 40
6.0
 40
7.0
 40
7.0
 40
7.0
 40
8.0
 40
8.0
 40
8.0
 40
9.0
 40
9.0
 40
9.0
 40
10.0
 40
10.0
 40
10.0
 40
11.0
 40
11.0
 40
11.0
 40
11.0
 10
1.919766384334328
 20
-2.879881279012452
 10
1.919766384334328
 20
-2.879881279012452
 10
1.628227591474038
 20
-2.690235338829678
 10
1.628227591474038
 20
-2.690235338829678
 10
1.62479534806779
 20
-2.685653662575405
 10
1.621007128952239
 20
-2.682914629032312
 10
1.616973623091679
 20
-2.682914629032312
 10
1.602141301870157
 20
-2.682914629032312
 10
1.590117823807708
 20
-2.717500467630012
 10
1.590117823807708
 20
-2.760164903947169
 10
1.590117823807708
 20
-2.80282934026435
 10
1.602141301870157
 20
-2.837415178862026
 10
1.616973623091679
 20
-2.837415178862026
 10
1.602141301870157
 20
-2.837415178862026
 10
1.590117823807708
 20
-2.876844187207602
 10
1.590117823807708
 20
-2.925480868992887
 10
1.590117823807708
 20
-2.974118658801444
 10
1.602141301870157
 20
-3.013546559123748
 10
1.616973623091679
 20
-3.013546559123748
 10
1.602141301870157
 20
-3.013546559123748
 10
1.590117823807708
 20
-3.048132397721423
 10
1.590117823807708
 20
-3.090796834038605
 10
1.590117823807708
 20
-3.133461270355761
 10
1.602141301870157
 20
-3.168047108953462
 10
1.616973623091679
 20
-3.168047108953462
 10
1.621028381233397
 20
-3.168047108953462
 10
1.624834310583259
 20
-3.165272618665489
 10
1.628280722176921
 20
-3.160644405433508
 10
1.628280722176921
 20
-3.160644405433508
 10
1.919766384334328
 20
-2.96979071987779
 10
1.919766384334328
 20
-2.96979071987779
 10
1.919766384334328
 20
-2.96979071987779
 10
1.919766384334328
 20
-2.879881279012452
 10
1.919766384334328
 20
-2.879881279012452
 97
        0
 97
        1
330
81
 75
     2
 76
     1
 98
        1
 10
0.0
 20
0.0
450
        0
451
        0
460
0.0
461
0.0
452
        0
462
0.0
453
        0
470

  0
LWPOLYLINE
  5
83
330
70
100
AcDbEntity
  8
Text
100
AcDbPolyline
 90
        4
 70
     1
 43
0.0
 10
1.989865564145677
 20
-2.925480793584205
 10
1.919766216358589
 20
-2.969790671876403
 10
1.919766384334328
 20
-2.879881279012452
 10
1.989865564145677
 20
-2.925480793584205
  0
HATCH
  5
84
330
70
100
AcDbEntity
  8
Text
 62
    18
420
        0
440
 33554687
100
AcDbHatch
 10
0.0
 20
0.0
 30
0.0
210
0.0
220
0.0
230
1.0
  2
SOLID
 70
     1
 71
     1
 91
        1
 92
        1
 93
        3
 72
     1
 10
1.989865564145677
 20
-2.925480793584205
 11
1.919766216358589
 21
-2.969790671876403
 72
     1
 10
1.919766216358589
 20
-2.969790671876403
 11
1.919766384334328
 21
-2.879881279012452
 72
     1
 10
1.919766384334328
 20
-2.879881279012452
 11
1.989865564145677
 21
-2.925480793584205
 97
        1
330
83
 75
     2
 76
     1
 98
        1
 10
0.0
 20
0.0
450
        0
451
        0
460
0.0
461
0.0
452
        0
462
0.0
453
        0
470

  0
INSERT
  5
86
330
70
100
AcDbEntity
  8
Text
100
AcDbBlockReference
  2
Block_0
 10
0.0
 20
0.0
 30
0.0
  0
SPLINE
  5
8F
330
70
100
AcDbEntity
  8
Text
100
AcDbSpline
210
0.0
220
0.0
230
1.0
 70
     9
 71
     3
 72
    35
 73
    31
 74
     0
 42
0.0000000001
 43
0.0000000001
 40
0.0
 40
0.0
 40
0.0
 40
0.0
 40
1.0
 40
1.0
 40
1.0
 40
2.0
 40
2.0
 40
2.0
 40
3.0
 40
3.0
 40
3.0
 40
4.0
 40
4.0
 40
4.0
 40
5.0
 40
5.0
 40
5.0
 40
6.0
 40
6.0
 40
6.0
 40
7.0
 40
7.0
 40
7.0
 40
8.0
 40
8.0
 40
8.0
 40
9.0
 40
9.0
 40
9.0
 40
10.0
 40
10.0
 40
10.0
 40
10.0
 10
0.3116831959430581
 20
-2.663843002322866
 30
0.0
 10
0.3029892419279526
 20
-2.663843002322866
 30
0.0
 10
0.2959405686787906
 20
-2.672381429702681
 30
0.0
 10
0.2959405686787906
 20
-2.682914298982798
 30
0.0
 10
0.2959405686787906
 20
-2.672381429702681
 30
0.0
 10
0.2888918954296287
 20
-2.663843002322866
 30
0.0
 10
0.2801979414145231
 20
-2.663843002322866
 30
0.0
 10
0.2715031018876996
 20
-2.663843002322866
 30
0.0
 10
0.2644544286385376
 20
-2.672381429702681
 30
0.0
 10
0.2644544286385376
 20
-2.682914298982798
 30
0.0
 10
0.2644544286385376
 20
-2.682914298982798
 30
0.0
 10
0.2644544286385376
 20
-3.168046778903948
 30
0.0
 10
0.2644544286385376
 20
-3.168046778903948
 30
0.0
 10
0.2644544286385376
 20
-3.178579648184065
 30
0.0
 10
0.2715031018876996
 20
-3.18711807556388
 30
0.0
 10
0.2801979414145231
 20
-3.18711807556388
 30
0.0
 10
0.2888918954296287
 20
-3.18711807556388
 30
0.0
 10
0.2959405686787906
 20
-3.178579648184065
 30
0.0
 10
0.2959405686787906
 20
-3.168046778903948
 30
0.0
 10
0.2959405686787906
 20
-3.178579648184065
 30
0.0
 10
0.3029892419279526
 20
-3.18711807556388
 30
0.0
 10
0.3116831959430581
 20
-3.18711807556388
 30
0.0
 10
0.3203780354698816
 20
-3.18711807556388
 30
0.0
 10
0.3274267087190436
 20
-3.178579648184065
 30
0.0
 10
0.3274267087190436
 20
-3.168046778903948
 30
0.0
 10
0.3274267087190436
 20
-3.168046778903948
 30
0.0
 10
0.3274267087190436
 20
-2.682914298982798
 30
0.0
 10
0.3274267087190436
 20
-2.682914298982798
 30
0.0
 10
0.3274267087190436
 20
-2.672381429702681
 30
0.0
 10
0.3203780354698816
 20
-2.663843002322866
 30
0.0
 10
0.3116831959430581
 20
-2.663843002322866
 30
0.0
  0
HATCH
  5
90
330
70
100
AcDbEntity
  8
Text
 62
    18
420
        0
440
 33554687
100
AcDbHatch
 10
0.0
 20
0.0
 30
0.0
210
0.0
220
0.0
230
1.0
  2
SOLID
 70
     1
 71
     1
 91
        1
 92
        1
 93
        1
 72
     4
 94
        3
 73
     0
 74
     0
 95
       35
 96
       31
 40
0.0
 40
0.0
 40
0.0
 40
0.0
 40
1.0
 40
1.0
 40
1.0
 40
2.0
 40
2.0
 40
2.0
 40
3.0
 40
3.0
 40
3.0
 40
4.0
 40
4.0
 40
4.0
 40
5.0
 40
5.0
 40
5.0
 40
6.0
 40
6.0
 40
6.0
 40
7.0
 40
7.0
 40
7.0
 40
8.0
 40
8.0
 40
8.0
 40
9.0
 40
9.0
 40
9.0
 40
10.0
 40
10.0
 40
10.0
 40
10.0
 10
0.3116831959430581
 20
-2.663843002322866
 10
0.3029892419279526
 20
-2.663843002322866
 10
0.2959405686787906
 20
-2.672381429702681
 10
0.2959405686787906
 20
-2.682914298982798
 10
0.2959405686787906
 20
-2.672381429702681
 10
0.2888918954296287
 20
-2.663843002322866
 10
0.2801979414145231
 20
-2.663843002322866
 10
0.2715031018876996
 20
-2.663843002322866
 10
0.2644544286385376
 20
-2.672381429702681
 10
0.2644544286385376
 20
-2.682914298982798
 10
0.2644544286385376
 20
-2.682914298982798
 10
0.2644544286385376
 20
-3.168046778903948
 10
0.2644544286385376
 20
-3.168046778903948
 10
0.2644544286385376
 20
-3.178579648184065
 10
0.2715031018876996
 20
-3.18711807556388
 10
0.2801979414145231
 20
-3.18711807556388
 10
0.2888918954296287
 20
-3.18711807556388
 10
0.2959405686787906
 20
-3.178579648184065
 10
0.2959405686787906
 20
-3.168046778903948
 10
0.2959405686787906
 20
-3.178579648184065
 10
0.3029892419279526
 20
-3.18711807556388
 10
0.3116831959430581
 20
-3.18711807556388
 10
0.3203780354698816
 20
-3.18711807556388
 10
0.3274267087190436
 20
-3.178579648184065
 10
0.3274267087190436
 20
-3.168046778903948
 10
0.3274267087190436
 20
-3.168046778903948
 10
0.3274267087190436
 20
-2.682914298982798
 10
0.3274267087190436
 20
-2.682914298982798
 10
0.3274267087190436
 20
-2.672381429702681
 10
0.3203780354698816
 20
-2.663843002322866
 10
0.3116831959430581
 20
-2.663843002322866
 97
        0
 97
        1
330
8F
 75
     2
 76
     1
 98
        1
 10
0.0
 20
0.0
450
        0
451
        0
460
0.0
461
0.0
452
        0
462
0.0
453
        0
470

  0
SPLINE
  5
91
330
70
100
AcDbEntity
  8
Text
100
AcDbSpline
210
0.0
220
0.0
230
1.0
 70
     9
 71
     3
 72
    29
 73
    25
 74
     0
 42
0.0000000001
 43
0.0000000001
 40
0.0
 40
0.0
 40
0.0
 40
0.0
 40
1.0
 40
1.0
 40
1.0
 40
2.0
 40
2.0
 40
2.0
 40
3.0
 40
3.0
 40
3.0
 40
4.0
 40
4.0
 40
4.0
 40
5.0
 40
5.0
 40
5.0
 40
6.0
 40
6.0
 40
6.0
 40
7.0
 40
7.0
 40
7.0
 40
8.0
 40
8.0
 40
8.0
 40
8.0
 10
0.2644544286385376
 20
-2.683654458532474
 30
0.0
 10
0.2626698495093175
 20
-2.683295458990414
 30
0.0
 10
0.2608869091120848
 20
-2.682914298982798
 30
0.0
 10
0.2590277676776446
 20
-2.682914298982798
 30
0.0
 10
0.2590277676776446
 20
-2.682914298982798
 30
0.0
 10
0.0642300581557594
 20
-2.682914298982798
 30
0.0
 10
0.0642300581557594
 20
-2.682914298982798
 30
0.0
 10
0.043880284393923
 20
-2.682914298982798
 30
0.0
 10
0.0273839888895332
 20
-2.705222131637608
 30
0.0
 10
0.0273839888895332
 20
-2.732740997768587
 30
0.0
 10
0.0273839888895332
 20
-2.732740997768587
 30
0.0
 10
0.0273839888895332
 20
-3.11822008011816
 30
0.0
 10
0.0273839888895332
 20
-3.11822008011816
 30
0.0
 10
0.0273839888895332
 20
-3.145738946249139
 30
0.0
 10
0.043880284393923
 20
-3.168046778903948
 30
0.0
 10
0.0642300581557594
 20
-3.168046778903948
 30
0.0
 10
0.0642300581557594
 20
-3.168046778903948
 30
0.0
 10
0.2590277676776446
 20
-3.168046778903948
 30
0.0
 10
0.2590277676776446
 20
-3.168046778903948
 30
0.0
 10
0.2608869091120848
 20
-3.168046778903948
 30
0.0
 10
0.2626698495093175
 20
-3.167665618896332
 30
0.0
 10
0.2644544286385376
 20
-3.167306619354273
 30
0.0
 10
0.2644544286385376
 20
-3.167306619354273
 30
0.0
 10
0.2644544286385376
 20
-2.683654458532474
 30
0.0
 10
0.2644544286385376
 20
-2.683654458532474
 30
0.0
  0
HATCH
  5
92
330
70
100
AcDbEntity
  8
Text
 62
     1
420
 16711680
440
 33554687
100
AcDbHatch
 10
0.0
 20
0.0
 30
0.0
210
0.0
220
0.0
230
1.0
  2
SOLID
 70
     1
 71
     1
 91
        1
 92
        1
 93
        1
 72
     4
 94
        3
 73
     0
 74
     0
 95
       29
 96
       25
 40
0.0
 40
0.0
 40
0.0
 40
0.0
 40
1.0
 40
1.0
 40
1.0
 40
2.0
 40
2.0
 40
2.0
 40
3.0
 40
3.0
 40
3.0
 40
4.0
 40
4.0
 40
4.0
 40
5.0
 40
5.0
 40
5.0
 40
6.0
 40
6.0
 40
6.0
 40
7.0
 40
7.0
 40
7.0
 40
8.0
 40
8.0
 40
8.0
 40
8.0
 10
0.2644544286385376
 20
-2.683654458532474
 10
0.2626698495093175
 20
-2.683295458990414
 10
0.2608869091120848
 20
-2.682914298982798
 10
0.2590277676776446
 20
-2.682914298982798
 10
0.2590277676776446
 20
-2.682914298982798
 10
0.0642300581557594
 20
-2.682914298982798
 10
0.0642300581557594
 20
-2.682914298982798
 10
0.043880284393923
 20
-2.682914298982798
 10
0.0273839888895332
 20
-2.705222131637608
 10
0.0273839888895332
 20
-2.732740997768587
 10
0.0273839888895332
 20
-2.732740997768587
 10
0.0273839888895332
 20
-3.11822008011816
 10
0.0273839888895332
 20
-3.11822008011816
 10
0.0273839888895332
 20
-3.145738946249139
 10
0.043880284393923
 20
-3.168046778903948
 10
0.0642300581557594
 20
-3.168046778903948
 10
0.0642300581557594
 20
-3.168046778903948
 10
0.2590277676776446
 20
-3.168046778903948
 10
0.2590277676776446
 20
-3.168046778903948
 10
0.2608869091120848
 20
-3.168046778903948
 10
0.2626698495093175
 20
-3.167665618896332
 10
0.2644544286385376
 20
-3.167306619354273
 10
0.2644544286385376
 20
-3.167306619354273
 10
0.2644544286385376
 20
-2.683654458532474
 10
0.2644544286385376
 20
-2.683654458532474
 97
        0
 97
        1
330
91
 75
     2
 76
     1
 98
        1
 10
0.0
 20
0.0
450
        0
451
        0
460
0.0
461
0.0
452
        0
462
0.0
453
        0
470

  0
INSERT
  5
94
330
70
100
AcDbEntity
  8
Text
100
AcDbBlockReference
  2
Block_1
 10
0.0
 20
0.0
 30
0.0
  0
INSERT
  5
A3
330
70
100
AcDbEntity
  8
Text
100
AcDbBlockReference
  2
Block_2
 10
0.0
 20
0.0
 30
0.0
  0
INSERT
  5
B5
330
70
100
AcDbEntity
  8
Text
100
AcDbBlockReference
  2
Block_3
 10
0.0
 20
0.0
 30
0.0
  0
ENDSEC
  0
SECTION
  2
OBJECTS
  0
DICTIONARY
  5
C
330
0
100
AcDbDictionary
281
     1
  3
ACAD_COLOR
350
63
  3
ACAD_DETAILVIEWSTYLE
350
6A
  3
ACAD_GROUP
350
D
  3
ACAD_LAYOUT
350
62
  3
ACAD_MATERIAL
350
10
  3
ACAD_MLEADERSTYLE
350
66
  3
ACAD_MLINESTYLE
350
5F
  3
ACAD_PLOTSETTINGS
350
61
  3
ACAD_PLOTSTYLENAME
350
E
  3
ACAD_SCALELIST
350
42
  3
ACAD_SECTIONVIEWSTYLE
350
68
  3
ACAD_TABLESTYLE
350
64
  3
ACAD_VISUALSTYLE
350
29
  3
ACDB_RECOMPOSE_DATA
350
C5
  3
AcDbVariableDictionary
350
BD
  0
DICTIONARY
  5
63
102
{ACAD_REACTORS
330
C
102
}
330
C
100
AcDbDictionary
281
     1
  0
DICTIONARY
  5
6A
102
{ACAD_REACTORS
330
C
102
}
330
C
100
AcDbDictionary
281
     1
  3
Imperial24
350
6B
  0
DICTIONARY
  5
D
102
{ACAD_REACTORS
330
C
102
}
330
C
100
AcDbDictionary
281
     1
  0
DICTIONARY
  5
62
102
{ACAD_REACTORS
330
C
102
}
330
C
100
AcDbDictionary
281
     1
  3
Layout1
350
6F
  3
Layout2
350
77
  3
Model
350
73
  0
DICTIONARY
  5
10
102
{ACAD_REACTORS
330
C
102
}
330
C
100
AcDbDictionary
281
     1
  3
ByBlock
350
19
  3
ByLayer
350
11
  3
Global
350
21
  0
DICTIONARY
  5
66
102
{ACAD_REACTORS
330
C
102
}
330
C
100
AcDbDictionary
281
     1
  3
Standard
350
67
  0
DICTIONARY
  5
5F
102
{ACAD_REACTORS
330
C
102
}
330
C
100
AcDbDictionary
281
     1
  3
Standard
350
60
  0
DICTIONARY
  5
61
102
{ACAD_REACTORS
330
C
102
}
330
C
100
AcDbDictionary
281
     1
  0
ACDBDICTIONARYWDFLT
  5
E
102
{ACAD_REACTORS
330
C
102
}
330
C
100
AcDbDictionary
281
     1
  3
Normal
350
F
100
AcDbDictionaryWithDefault
340
F
  0
DICTIONARY
  5
42
102
{ACAD_REACTORS
330
C
102
}
330
C
100
AcDbDictionary
281
     1
  3
A0
350
43
  3
A1
350
44
  3
A2
350
45
  3
A3
350
46
  3
A4
350
47
  3
A5
350
48
  3
A6
350
49
  3
A7
350
4A
  3
A8
350
4B
  3
A9
350
4C
  3
B0
350
4D
  3
B1
350
4E
  3
B2
350
4F
  3
B3
350
50
  3
B4
350
51
  3
B5
350
52
  3
B6
350
53
  0
DICTIONARY
  5
68
102
{ACAD_REACTORS
330
C
102
}
330
C
100
AcDbDictionary
281
     1
  3
Imperial24
350
69
  0
DICTIONARY
  5
64
102
{ACAD_REACTORS
330
C
102
}
330
C
100
AcDbDictionary
281
     1
  3
Standard
350
65
  0
DICTIONARY
  5
29
102
{ACAD_REACTORS
330
C
102
}
330
C
100
AcDbDictionary
281
     1
  3
2dWireframe
350
2F
  3
Basic
350
2E
  3
Brighten
350
35
  3
ColorChange
350
39
  3
Conceptual
350
32
  3
Dim
350
34
  3
EdgeColorOff
350
41
  3
Facepattern
350
38
  3
Flat
350
2A
  3
FlatWithEdges
350
2B
  3
Gouraud
350
2C
  3
GouraudWithEdges
350
2D
  3
Hidden
350
31
  3
JitterOff
350
3F
  3
Linepattern
350
37
  3
OverhangOff
350
40
  3
Realistic
350
33
  3
Shaded
350
3E
  3
Shaded with edges
350
3D
  3
Shades of Gray
350
3A
  3
Sketchy
350
3B
  3
Thicken
350
36
  3
Wireframe
350
30
  3
X-Ray
350
3C
  0
XRECORD
  5
C5
102
{ACAD_REACTORS
330
C
102
}
330
C
100
AcDbXrecord
280
     1
 90
        1
330
65
  0
DICTIONARY
  5
BD
102
{ACAD_REACTORS
330
C
102
}
330
C
100
AcDbDictionary
281
     1
  3
CANNOSCALE
350
C2
  3
CMLEADERSTYLE
350
BF
  3
CTABLESTYLE
350
BE
  3
CVIEWDETAILSTYLE
350
C0
  3
CVIEWSECTIONSTYLE
350
C1
  0
ACDBDETAILVIEWSTYLE
  5
6B
102
{ACAD_REACTORS
330
6A
102
}
330
6A
100
AcDbModelDocViewStyle
 70
     0
  3
Imperial24
290
     1
300
Imperial24
 90
        0
100
AcDbDetailViewStyle
 70
     0
 71
     0
 90
        3
 71
     1
340
55
 62
   256
 40
0.24
340
0
 62
   256
 40
0.24
300

 40
0.36
280
     3
 71
     2
340
5D
 90
       25
 62
   256
 71
     3
340
55
 62
   256
 40
0.24
 90
        1
 40
0.75
 90
        1
300
%<\AcVar ViewType \f "%tc1">% %<\AcVar ViewDetailId>%\PSCALE %<\AcVar ViewScale \f "%sn">%
 71
     4
340
5D
 90
       25
 62
   256
340
5D
 90
       25
 62
   256
280
     0
  0
LAYOUT
  5
6F
102
{ACAD_REACTORS
330
62
102
}
330
62
100
AcDbPlotSettings
  1

  2

  4

  6

 40
0.0
 41
0.0
 42
0.0
 43
0.0
 44
0.0
 45
0.0
 46
0.0
 47
0.0
 48
0.0
 49
0.0
140
0.0
141
0.0
142
1.0
143
1.0
 70
   688
 72
     0
 73
     0
 74
     5
  7

 75
    16
147
1.0
 76
     0
 77
     2
 78
   300
148
0.0
149
0.0
100
AcDbLayout
  1
Layout1
 70
     1
 71
     1
 10
0.0
 20
0.0
 11
12.0
 21
9.0
 12
0.0
 22
0.0
 32
0.0
 14
0.0
 24
0.0
 34
0.0
 15
0.0
 25
0.0
 35
0.0
146
0.0
 13
0.0
 23
0.0
 33
0.0
 16
1.0
 26
0.0
 36
0.0
 17
0.0
 27
1.0
 37
0.0
 76
     0
330
6C
  0
LAYOUT
  5
77
102
{ACAD_REACTORS
330
62
102
}
330
62
100
AcDbPlotSettings
  1

  2

  4

  6

 40
0.0
 41
0.0
 42
0.0
 43
0.0
 44
0.0
 45
0.0
 46
0.0
 47
0.0
 48
0.0
 49
0.0
140
0.0
141
0.0
142
1.0
143
1.0
 70
   688
 72
     0
 73
     0
 74
     5
  7

 75
    16
147
1.0
 76
     0
 77
     2
 78
   300
148
0.0
149
0.0
100
AcDbLayout
  1
Layout2
 70
     1
 71
     2
 10
0.0
 20
0.0
 11
12.0
 21
9.0
 12
0.0
 22
0.0
 32
0.0
 14
0.0
 24
0.0
 34
0.0
 15
0.0
 25
0.0
 35
0.0
146
0.0
 13
0.0
 23
0.0
 33
0.0
 16
1.0
 26
0.0
 36
0.0
 17
0.0
 27
1.0
 37
0.0
 76
     0
330
74
  0
LAYOUT
  5
73
102
{ACAD_REACTORS
330
62
102
}
330
62
100
AcDbPlotSettings
  1

  2

  4

  6

 40
0.0
 41
0.0
 42
0.0
 43
0.0
 44
0.0
 45
0.0
 46
0.0
 47
0.0
 48
0.0
 49
0.0
140
0.0
141
0.0
142
1.0
143
1.0
 70
  1712
 72
     0
 73
     0
 74
     0
  7

 75
     0
147
1.0
 76
     0
 77
     2
 78
   300
148
0.0
149
0.0
100
AcDbLayout
  1
Model
 70
     1
 71
     0
 10
0.0
 20
0.0
 11
12.0
 21
9.0
 12
0.0
 22
0.0
 32
0.0
 14
0.0
 24
0.0
 34
0.0
 15
0.0
 25
0.0
 35
0.0
146
0.0
 13
0.0
 23
0.0
 33
0.0
 16
1.0
 26
0.0
 36
0.0
 17
0.0
 27
1.0
 37
0.0
 76
     0
330
70
  0
MATERIAL
  5
19
102
{ACAD_XDICTIONARY
360
1A
102
}
102
{ACAD_REACTORS
330
10
102
}
330
10
100
AcDbMaterial
  1
ByBlock
 72
     0
 43
0.0208333333333333
 43
0.0
 43
0.0
 43
0.0
 43
0.0
 43
0.0208333333333333
 43
0.0
 43
0.0
 43
0.0
 43
0.0
 43
1.0
 43
0.0
 43
0.0
 43
0.0
 43
0.0
 43
1.0
 77
     0
 47
0.0208333333333333
 47
0.0
 47
0.0
 47
0.0
 47
0.0
 47
0.0208333333333333
 47
0.0
 47
0.0
 47
0.0
 47
0.0
 47
1.0
 47
0.0
 47
0.0
 47
0.0
 47
0.0
 47
1.0
171
     0
 49
0.0208333333333333
 49
0.0
 49
0.0
 49
0.0
 49
0.0
 49
0.0208333333333333
 49
0.0
 49
0.0
 49
0.0
 49
0.0
 49
1.0
 49
0.0
 49
0.0
 49
0.0
 49
0.0
 49
1.0
175
     0
142
0.0208333333333333
142
0.0
142
0.0
142
0.0
142
0.0
142
0.0208333333333333
142
0.0
142
0.0
142
0.0
142
0.0
142
1.0
142
0.0
142
0.0
142
0.0
142
0.0
142
1.0
179
     0
144
0.0208333333333333
144
0.0
144
0.0
144
0.0
144
0.0
144
0.0208333333333333
144
0.0
144
0.0
144
0.0
144
0.0
144
1.0
144
0.0
144
0.0
144
0.0
144
0.0
144
1.0
147
0.0208333333333333
147
0.0
147
0.0
147
0.0
147
0.0
147
0.0208333333333333
147
0.0
147
0.0
147
0.0
147
0.0
147
1.0
147
0.0
147
0.0
147
0.0
147
0.0
147
1.0
  0
MATERIAL
  5
11
102
{ACAD_XDICTIONARY
360
12
102
}
102
{ACAD_REACTORS
330
10
102
}
330
10
100
AcDbMaterial
  1
ByLayer
 72
     0
 43
0.0208333333333333
 43
0.0
 43
0.0
 43
0.0
 43
0.0
 43
0.0208333333333333
 43
0.0
 43
0.0
 43
0.0
 43
0.0
 43
1.0
 43
0.0
 43
0.0
 43
0.0
 43
0.0
 43
1.0
 77
     0
 47
0.0208333333333333
 47
0.0
 47
0.0
 47
0.0
 47
0.0
 47
0.0208333333333333
 47
0.0
 47
0.0
 47
0.0
 47
0.0
 47
1.0
 47
0.0
 47
0.0
 47
0.0
 47
0.0
 47
1.0
171
     0
 49
0.0208333333333333
 49
0.0
 49
0.0
 49
0.0
 49
0.0
 49
0.0208333333333333
 49
0.0
 49
0.0
 49
0.0
 49
0.0
 49
1.0
 49
0.0
 49
0.0
 49
0.0
 49
0.0
 49
1.0
175
     0
142
0.0208333333333333
142
0.0
142
0.0
142
0.0
142
0.0
142
0.0208333333333333
142
0.0
142
0.0
142
0.0
142
0.0
142
1.0
142
0.0
142
0.0
142
0.0
142
0.0
142
1.0
179
     0
144
0.0208333333333333
144
0.0
144
0.0
144
0.0
144
0.0
144
0.0208333333333333
144
0.0
144
0.0
144
0.0
144
0.0
144
1.0
144
0.0
144
0.0
144
0.0
144
0.0
144
1.0
147
0.0208333333333333
147
0.0
147
0.0
147
0.0
147
0.0
147
0.0208333333333333
147
0.0
147
0.0
147
0.0
147
0.0
147
1.0
147
0.0
147
0.0
147
0.0
147
0.0
147
1.0
  0
MATERIAL
  5
21
102
{ACAD_XDICTIONARY
360
22
102
}
102
{ACAD_REACTORS
330
10
102
}
330
10
100
AcDbMaterial
  1
Global
 72
     0
 43
0.0208333333333333
 43
0.0
 43
0.0
 43
0.0
 43
0.0
 43
0.0208333333333333
 43
0.0
 43
0.0
 43
0.0
 43
0.0
 43
1.0
 43
0.0
 43
0.0
 43
0.0
 43
0.0
 43
1.0
 77
     0
 47
0.0208333333333333
 47
0.0
 47
0.0
 47
0.0
 47
0.0
 47
0.0208333333333333
 47
0.0
 47
0.0
 47
0.0
 47
0.0
 47
1.0
 47
0.0
 47
0.0
 47
0.0
 47
0.0
 47
1.0
171
     0
 49
0.0208333333333333
 49
0.0
 49
0.0
 49
0.0
 49
0.0
 49
0.0208333333333333
 49
0.0
 49
0.0
 49
0.0
 49
0.0
 49
1.0
 49
0.0
 49
0.0
 49
0.0
 49
0.0
 49
1.0
175
     0
142
0.0208333333333333
142
0.0
142
0.0
142
0.0
142
0.0
142
0.0208333333333333
142
0.0
142
0.0
142
0.0
142
0.0
142
1.0
142
0.0
142
0.0
142
0.0
142
0.0
142
1.0
179
     0
144
0.0208333333333333
144
0.0
144
0.0
144
0.0
144
0.0
144
0.0208333333333333
144
0.0
144
0.0
144
0.0
144
0.0
144
1.0
144
0.0
144
0.0
144
0.0
144
0.0
144
1.0
147
0.0208333333333333
147
0.0
147
0.0
147
0.0
147
0.0
147
0.0208333333333333
147
0.0
147
0.0
147
0.0
147
0.0
147
1.0
147
0.0
147
0.0
147
0.0
147
0.0
147
1.0
  0
MLEADERSTYLE
  5
67
102
{ACAD_REACTORS
330
66
102
}
330
66
100
AcDbMLeaderStyle
179
     2
170
     2
171
     1
172
     0
 90
        2
 40
0.0
 41
0.0
173
     1
 91
-1056964608
340
5B
 92
       -2
290
     1
 42
0.09
291
     1
 43
0.36
  3
Standard
 44
0.18
300

342
55
174
     1
178
     6
175
     1
176
     0
 93
-1056964608
 45
0.18
292
     0
297
     0
 46
0.18
 94
-1056964608
 47
1.0
 49
1.0
140
1.0
293
     1
141
0.0
294
     1
177
     0
142
1.0
295
     1
296
     0
143
0.125
271
     0
272
     9
273
     9
298
     1
  0
MLINESTYLE
  5
60
102
{ACAD_REACTORS
330
5F
102
}
330
5F
100
AcDbMlineStyle
  2
STANDARD
 70
     0
  3

 62
   256
 51
90.0
 52
90.0
 71
     2
 49
0.5
 62
   256
  6
BYLAYER
 49
-0.5
 62
   256
  6
BYLAYER
  0
ACDBPLACEHOLDER
  5
F
102
{ACAD_REACTORS
330
E
102
}
330
E
  0
SCALE
  5
43
102
{ACAD_REACTORS
330
42
102
}
330
42
100
AcDbScale
 70
     0
300
1:1
140
1.0
141
1.0
290
     1
  0
SCALE
  5
44
102
{ACAD_REACTORS
330
42
102
}
330
42
100
AcDbScale
 70
     0
300
1/128" = 1'-0"
140
0.0078125
141
12.0
290
     0
  0
SCALE
  5
45
102
{ACAD_REACTORS
330
42
102
}
330
42
100
AcDbScale
 70
     0
300
1/64" = 1'-0"
140
0.015625
141
12.0
290
     0
  0
SCALE
  5
46
102
{ACAD_REACTORS
330
42
102
}
330
42
100
AcDbScale
 70
     0
300
1/32" = 1'-0"
140
0.03125
141
12.0
290
     0
  0
SCALE
  5
47
102
{ACAD_REACTORS
330
42
102
}
330
42
100
AcDbScale
 70
     0
300
1/16" = 1'-0"
140
0.0625
141
12.0
290
     0
  0
SCALE
  5
48
102
{ACAD_REACTORS
330
42
102
}
330
42
100
AcDbScale
 70
     0
300
3/32" = 1'-0"
140
0.09375
141
12.0
290
     0
  0
SCALE
  5
49
102
{ACAD_REACTORS
330
42
102
}
330
42
100
AcDbScale
 70
     0
300
1/8" = 1'-0"
140
0.125
141
12.0
290
     0
  0
SCALE
  5
4A
102
{ACAD_REACTORS
330
42
102
}
330
42
100
AcDbScale
 70
     0
300
3/16" = 1'-0"
140
0.1875
141
12.0
290
     0
  0
SCALE
  5
4B
102
{ACAD_REACTORS
330
42
102
}
330
42
100
AcDbScale
 70
     0
300
1/4" = 1'-0"
140
0.25
141
12.0
290
     0
  0
SCALE
  5
4C
102
{ACAD_REACTORS
330
42
102
}
330
42
100
AcDbScale
 70
     0
300
3/8" = 1'-0"
140
0.375
141
12.0
290
     0
  0
SCALE
  5
4D
102
{ACAD_REACTORS
330
42
102
}
330
42
100
AcDbScale
 70
     0
300
1/2" = 1'-0"
140
0.5
141
12.0
290
     0
  0
SCALE
  5
4E
102
{ACAD_REACTORS
330
42
102
}
330
42
100
AcDbScale
 70
     0
300
3/4" = 1'-0"
140
0.75
141
12.0
290
     0
  0
SCALE
  5
4F
102
{ACAD_REACTORS
330
42
102
}
330
42
100
AcDbScale
 70
     0
300
1" = 1'-0"
140
1.0
141
12.0
290
     0
  0
SCALE
  5
50
102
{ACAD_REACTORS
330
42
102
}
330
42
100
AcDbScale
 70
     0
300
1-1/2" = 1'-0"
140
1.5
141
12.0
290
     0
  0
SCALE
  5
51
102
{ACAD_REACTORS
330
42
102
}
330
42
100
AcDbScale
 70
     0
300
3" = 1'-0"
140
3.0
141
12.0
290
     0
  0
SCALE
  5
52
102
{ACAD_REACTORS
330
42
102
}
330
42
100
AcDbScale
 70
     0
300
6" = 1'-0"
140
6.0
141
12.0
290
     0
  0
SCALE
  5
53
102
{ACAD_REACTORS
330
42
102
}
330
42
100
AcDbScale
 70
     0
300
1'-0" = 1'-0"
140
12.0
141
12.0
290
     0
  0
ACDBSECTIONVIEWSTYLE
  5
69
102
{ACAD_REACTORS
330
68
102
}
330
68
100
AcDbModelDocViewStyle
 70
     0
  3
Imperial24
290
     1
300
Imperial24
 90
        0
100
AcDbSectionViewStyle
 70
     0
 71
     0
 90
       78
 71
     1
340
55
 62
   256
 40
0.24
340
0
340
0
 62
   256
 40
0.24
300
I, O, Q, S, X, Z
 40
0.48
 90
        3
 40
0.18
 90
        1
 71
     2
340
5D
 90
       25
 62
   256
340
5D
 90
       50
 62
   256
 40
0.24
 40
0.0
 40
0.24
 71
     3
340
55
 62
   256
 40
0.24
 90
        1
 40
0.75
 90
        1
300
%<\AcVar ViewType \f "%tc1">% %<\AcVar ViewSectionStartId>%-%<\AcVar ViewSectionEndId>%\PSCALE %<\AcVar ViewScale \f "%sn">%
 71
     4
 62
   256
 62
   257
300
ANSI31
 40
1.0
 90
        0
290
     0
290
     0
 90
        6
 40
0.0
 40
1.570796326794896
 40
0.2617993877991494
 40
1.308996938995747
 40
-0.2617993877991494
 40
1.832595714594046
  0
TABLESTYLE
  5
65
102
{ACAD_XDICTIONARY
360
C3
102
}
102
{ACAD_REACTORS
330
64
102
}
330
64
100
AcDbTableStyle
280
     0
  3
Standard
 70
     0
 71
     0
 40
0.06
 41
0.06
280
     0
281
     0
  7
Standard
140
0.18
170
     2
 62
     0
 63
     7
283
     0
 90
      512
 91
        0
  1

274
    -2
284
     1
 64
     0
275
    -2
285
     1
 65
     0
276
    -2
286
     1
 66
     0
277
    -2
287
     1
 67
     0
278
    -2
288
     1
 68
     0
279
    -2
289
     1
 69
     0
  7
Standard
140
0.25
170
     5
 62
     0
 63
     7
283
     0
 90
      512
 91
        0
  1

274
    -2
284
     1
 64
     0
275
    -2
285
     1
 65
     0
276
    -2
286
     1
 66
     0
277
    -2
287
     1
 67
     0
278
    -2
288
     1
 68
     0
279
    -2
289
     1
 69
     0
  7
Standard
140
0.18
170
     5
 62
     0
 63
     7
283
     0
 90
      512
 91
        0
  1

274
    -2
284
     1
 64
     0
275
    -2
285
     1
 65
     0
276
    -2
286
     1
 66
     0
277
    -2
287
     1
 67
     0
278
    -2
288
     1
 68
     0
279
    -2
289
     1
 69
     0
  0
VISUALSTYLE
  5
2F
102
{ACAD_REACTORS
330
29
102
}
330
29
100
AcDbVisualStyle
  2
2dWireframe
 70
     4
177
     3
291
     0
 70
    58
 90
        0
176
     1
 90
        2
176
     1
 90
        0
176
     1
 90
        0
176
     1
 40
0.6
176
     1
 40
30.0
176
     1
 62
     7
420
 16777215
176
     1
 90
        1
176
     1
 90
        4
176
     1
 62
     7
176
     1
 62
   257
176
     1
 90
        1
176
     1
 90
        1
176
     1
 40
1.0
176
     1
 90
        0
176
     1
 62
   257
176
     1
 40
1.0
176
     1
 90
        1
176
     1
 90
        6
176
     1
 90
        2
176
     1
 62
     7
176
     1
 90
        5
176
     1
 90
        0
176
     1
 90
        0
176
     1
290
     0
176
     1
 90
        1
176
     1
 40
0.0
176
     1
 90
        0
176
     1
290
     1
176
     1
290
     1
176
     1
290
     0
176
     1
290
     0
176
     1
290
     0
176
     1
290
     0
176
     1
290
     0
176
     1
290
     0
176
     1
290
     0
176
     1
 90
       50
176
     1
 40
0.0
176
     1
 40
1.0
176
     1
 90
        0
176
     1
 62
    18
420
        0
176
     1
 90
       50
176
     1
 90
        3
176
     1
 62
     5
420
      255
176
     1
290
     0
176
     1
 90
       50
176
     1
 90
       50
176
     1
 90
       50
176
     1
290
     0
176
     1
 90
       50
176
     1
 62
   256
176
     0
 40
1.0
176
     0
 90
        2
176
     1
  1
strokes_ogs.tif
176
     1
290
     0
176
     1
 40
1.0
176
     1
 40
1.0
176
     1
  0
VISUALSTYLE
  5
2E
102
{ACAD_REACTORS
330
29
102
}
330
29
100
AcDbVisualStyle
  2
Basic
 70
     7
177
     3
291
     1
 70
    58
 90
        1
176
     1
 90
        0
176
     1
 90
        1
176
     1
 90
        0
176
     1
 40
0.6
176
     1
 40
30.0
176
     1
 62
     7
420
 16777215
176
     1
 90
        0
176
     1
 90
        4
176
     1
 62
     7
176
     1
 62
   257
176
     1
 90
        1
176
     1
 90
        1
176
     1
 40
1.0
176
     1
 90
        8
176
     1
 62
     7
176
     1
 40
1.0
176
     1
 90
        1
176
     1
 90
        6
176
     1
 90
        2
176
     1
 62
     7
176
     1
 90
        5
176
     1
 90
        0
176
     1
 90
        0
176
     1
290
     0
176
     1
 90
        1
176
     1
 40
0.0
176
     1
 90
        0
176
     1
290
     0
176
     1
290
     1
176
     1
290
     1
176
     1
290
     0
176
     1
290
     0
176
     1
290
     0
176
     1
290
     0
176
     1
290
     0
176
     1
290
     0
176
     1
 90
       50
176
     1
 40
0.0
176
     1
 40
1.0
176
     1
 90
        0
176
     1
 62
    18
420
        0
176
     1
 90
       50
176
     1
 90
        3
176
     1
 62
     5
420
      255
176
     1
290
     0
176
     1
 90
       50
176
     1
 90
       50
176
     1
 90
       50
176
     1
290
     0
176
     1
 90
       50
176
     1
 62
   256
176
     0
 40
1.0
176
     0
 90
        2
176
     1
  1
strokes_ogs.tif
176
     1
290
     0
176
     1
 40
1.0
176
     1
 40
1.0
176
     1
  0
VISUALSTYLE
  5
35
102
{ACAD_REACTORS
330
29
102
}
330
29
100
AcDbVisualStyle
  2
Brighten
 70
    12
177
     3
291
     1
 70
    58
 90
        2
176
     1
 90
        2
176
     1
 90
        0
176
     1
 90
        0
176
     1
 40
0.6
176
     1
 40
30.0
176
     1
 62
     7
420
 16777215
176
     1
 90
        1
176
     1
 90
        4
176
     1
 62
     7
176
     1
 62
   257
176
     1
 90
        1
176
     1
 90
        1
176
     1
 40
1.0
176
     1
 90
        8
176
     1
 62
     7
176
     1
 40
1.0
176
     1
 90
        1
176
     1
 90
        6
176
     1
 90
        2
176
     1
 62
     7
176
     1
 90
        5
176
     1
 90
        0
176
     1
 90
        0
176
     1
290
     0
176
     1
 90
        1
176
     1
 40
50.0
176
     1
 90
        0
176
     1
290
     0
176
     1
290
     1
176
     1
290
     1
176
     1
290
     0
176
     1
290
     0
176
     1
290
     0
176
     1
290
     0
176
     1
290
     0
176
     1
290
     0
176
     1
 90
       50
176
     1
 40
0.0
176
     1
 40
1.0
176
     1
 90
        0
176
     1
 62
    18
420
        0
176
     1
 90
       50
176
     1
 90
        3
176
     1
 62
     5
420
      255
176
     1
290
     0
176
     1
 90
       50
176
     1
 90
       50
176
     1
 90
       50
176
     1
290
     0
176
     1
 90
       50
176
     1
 62
   256
176
     0
 40
1.0
176
     0
 90
        2
176
     1
  1
strokes_ogs.tif
176
     1
290
     0
176
     1
 40
1.0
176
     1
 40
1.0
176
     1
  0
VISUALSTYLE
  5
39
102
{ACAD_REACTORS
330
29
102
}
330
29
100
AcDbVisualStyle
  2
ColorChange
 70
    16
177
     3
291
     1
 70
    58
 90
        2
176
     1
 90
        2
176
     1
 90
        3
176
     1
 90
        0
176
     1
 40
0.6
176
     1
 40
30.0
176
     1
 62
     8
420
  8421504
176
     1
 90
        1
176
     1
 90
        4
176
     1
 62
     7
176
     1
 62
   257
176
     1
 90
        1
176
     1
 90
        1
176
     1
 40
1.0
176
     1
 90
        8
176
     1
 62
     8
420
  8421504
176
     1
 40
1.0
176
     1
 90
        1
176
     1
 90
        6
176
     1
 90
        2
176
     1
 62
     7
176
     1
 90
        5
176
     1
 90
        0
176
     1
 90
        0
176
     1
290
     0
176
     1
 90
        1
176
     1
 40
0.0
176
     1
 90
        0
176
     1
290
     0
176
     1
290
     1
176
     1
290
     1
176
     1
290
     0
176
     1
290
     0
176
     1
290
     0
176
     1
290
     0
176
     1
290
     0
176
     1
290
     0
176
     1
 90
       50
176
     1
 40
0.0
176
     1
 40
1.0
176
     1
 90
        0
176
     1
 62
    18
420
        0
176
     1
 90
       50
176
     1
 90
        3
176
     1
 62
     5
420
      255
176
     1
290
     0
176
     1
 90
       50
176
     1
 90
       50
176
     1
 90
       50
176
     1
290
     0
176
     1
 90
       50
176
     1
 62
   256
176
     0
 40
1.0
176
     0
 90
        2
176
     1
  1
strokes_ogs.tif
176
     1
290
     0
176
     1
 40
1.0
176
     1
 40
1.0
176
     1
  0
VISUALSTYLE
  5
32
102
{ACAD_REACTORS
330
29
102
}
330
29
100
AcDbVisualStyle
  2
Conceptual
 70
     9
177
     3
291
     0
 70
    58
 90
        3
176
     1
 90
        2
176
     1
 90
        0
176
     1
 90
        0
176
     1
 40
0.6
176
     1
 40
30.0
176
     1
 62
     7
420
 16777215
176
     1
 90
        2
176
     1
 90
        2
176
     1
 62
     7
176
     1
 62
   257
176
     1
 90
        1
176
     1
 90
        1
176
     1
 40
179.0
176
     1
 90
        8
176
     1
 62
     7
176
     1
 40
1.0
176
     1
 90
        1
176
     1
 90
        6
176
     1
 90
        2
176
     1
 62
     7
176
     1
 90
        3
176
     1
 90
        0
176
     1
 90
        0
176
     1
290
     0
176
     1
 90
        1
176
     1
 40
0.0
176
     1
 90
        0
176
     1
290
     0
176
     1
290
     1
176
     1
290
     1
176
     1
290
     0
176
     1
290
     0
176
     1
290
     0
176
     1
290
     0
176
     1
290
     0
176
     1
290
     0
176
     1
 90
       50
176
     1
 40
0.0
176
     1
 40
1.0
176
     1
 90
        0
176
     1
 62
    18
420
        0
176
     1
 90
       50
176
     1
 90
        3
176
     1
 62
     5
420
      255
176
     1
290
     0
176
     1
 90
       50
176
     1
 90
       50
176
     1
 90
       50
176
     1
290
     0
176
     1
 90
       50
176
     1
 62
   256
176
     0
 40
1.0
176
     0
 90
        2
176
     1
  1
strokes_ogs.tif
176
     1
290
     0
176
     1
 40
1.0
176
     1
 40
1.0
176
     1
  0
VISUALSTYLE
  5
34
102
{ACAD_REACTORS
330
29
102
}
330
29
100
AcDbVisualStyle
  2
Dim
 70
    11
177
     3
291
     1
 70
    58
 90
        2
176
     1
 90
        2
176
     1
 90
        0
176
     1
 90
        0
176
     1
 40
0.6
176
     1
 40
30.0
176
     1
 62
     7
420
 16777215
176
     1
 90
        1
176
     1
 90
        4
176
     1
 62
     7
176
     1
 62
   257
176
     1
 90
        1
176
     1
 90
        1
176
     1
 40
1.0
176
     1
 90
        8
176
     1
 62
     7
176
     1
 40
1.0
176
     1
 90
        1
176
     1
 90
        6
176
     1
 90
        2
176
     1
 62
     7
176
     1
 90
        5
176
     1
 90
        0
176
     1
 90
        0
176
     1
290
     0
176
     1
 90
        1
176
     1
 40
-50.0
176
     1
 90
        0
176
     1
290
     0
176
     1
290
     1
176
     1
290
     1
176
     1
290
     0
176
     1
290
     0
176
     1
290
     0
176
     1
290
     0
176
     1
290
     0
176
     1
290
     0
176
     1
 90
       50
176
     1
 40
0.0
176
     1
 40
1.0
176
     1
 90
        0
176
     1
 62
    18
420
        0
176
     1
 90
       50
176
     1
 90
        3
176
     1
 62
     5
420
      255
176
     1
290
     0
176
     1
 90
       50
176
     1
 90
       50
176
     1
 90
       50
176
     1
290
     0
176
     1
 90
       50
176
     1
 62
   256
176
     0
 40
1.0
176
     0
 90
        2
176
     1
  1
strokes_ogs.tif
176
     1
290
     0
176
     1
 40
1.0
176
     1
 40
1.0
176
     1
  0
VISUALSTYLE
  5
41
102
{ACAD_REACTORS
330
29
102
}
330
29
100
AcDbVisualStyle
  2
EdgeColorOff
 70
    22
177
     3
291
     1
 70
    58
 90
        2
176
     0
 90
        2
176
     0
 90
        0
176
     0
 90
        0
176
     0
 40
0.6
176
     0
 40
30.0
176
     0
 62
     7
420
 16777215
176
     0
 90
        1
176
     0
 90
        4
176
     0
 62
     7
176
     0
 62
   257
176
     0
 90
        1
176
     0
 90
        1
176
     0
 40
1.0
176
     0
 90
        8
176
     2
 62
     7
176
     0
 40
1.0
176
     0
 90
        1
176
     0
 90
        6
176
     0
 90
        2
176
     0
 62
     7
176
     0
 90
        5
176
     0
 90
        0
176
     0
 90
        0
176
     0
290
     0
176
     0
 90
        1
176
     0
 40
0.0
176
     0
 90
        0
176
     0
290
     0
176
     0
290
     1
176
     0
290
     1
176
     0
290
     0
176
     0
290
     0
176
     0
290
     0
176
     0
290
     0
176
     0
290
     0
176
     0
290
     0
176
     0
 90
       50
176
     0
 40
0.0
176
     0
 40
1.0
176
     0
 90
        0
176
     0
 62
    18
420
        0
176
     0
 90
       50
176
     0
 90
        3
176
     0
 62
     5
420
      255
176
     0
290
     0
176
     0
 90
       50
176
     0
 90
       50
176
     0
 90
       50
176
     0
290
     0
176
     0
 90
       50
176
     0
 62
   256
176
     0
 40
1.0
176
     0
 90
        2
176
     0
  1
strokes_ogs.tif
176
     0
290
     0
176
     0
 40
1.0
176
     0
 40
1.0
176
     0
  0
VISUALSTYLE
  5
38
102
{ACAD_REACTORS
330
29
102
}
330
29
100
AcDbVisualStyle
  2
Facepattern
 70
    15
177
     3
291
     1
 70
    58
 90
        2
176
     1
 90
        2
176
     1
 90
        0
176
     1
 90
        0
176
     1
 40
0.6
176
     1
 40
30.0
176
     1
 62
     7
420
 16777215
176
     1
 90
        1
176
     1
 90
        4
176
     1
 62
     7
176
     1
 62
   257
176
     1
 90
        1
176
     1
 90
        1
176
     1
 40
1.0
176
     1
 90
        8
176
     1
 62
     7
176
     1
 40
1.0
176
     1
 90
        1
176
     1
 90
        6
176
     1
 90
        2
176
     1
 62
     7
176
     1
 90
        5
176
     1
 90
        0
176
     1
 90
        0
176
     1
290
     0
176
     1
 90
        1
176
     1
 40
0.0
176
     1
 90
        0
176
     1
290
     0
176
     1
290
     1
176
     1
290
     1
176
     1
290
     0
176
     1
290
     0
176
     1
290
     0
176
     1
290
     0
176
     1
290
     0
176
     1
290
     0
176
     1
 90
       50
176
     1
 40
0.0
176
     1
 40
1.0
176
     1
 90
        0
176
     1
 62
    18
420
        0
176
     1
 90
       50
176
     1
 90
        3
176
     1
 62
     5
420
      255
176
     1
290
     0
176
     1
 90
       50
176
     1
 90
       50
176
     1
 90
       50
176
     1
290
     0
176
     1
 90
       50
176
     1
 62
   256
176
     0
 40
1.0
176
     0
 90
        2
176
     1
  1
strokes_ogs.tif
176
     1
290
     0
176
     1
 40
1.0
176
     1
 40
1.0
176
     1
  0
VISUALSTYLE
  5
2A
102
{ACAD_REACTORS
330
29
102
}
330
29
100
AcDbVisualStyle
  2
Flat
 70
     0
177
     3
291
     1
 70
    58
 90
        2
176
     1
 90
        1
176
     1
 90
        1
176
     1
 90
        2
176
     1
 40
0.6
176
     1
 40
30.0
176
     1
 62
     7
420
 16777215
176
     1
 90
        0
176
     1
 90
        0
176
     1
 62
     7
176
     1
 62
   257
176
     1
 90
        1
176
     1
 90
        1
176
     1
 40
1.0
176
     1
 90
        8
176
     1
 62
     7
176
     1
 40
1.0
176
     1
 90
        1
176
     1
 90
        6
176
     1
 90
        2
176
     1
 62
     7
176
     1
 90
        5
176
     1
 90
        0
176
     1
 90
        0
176
     1
290
     0
176
     1
 90
       13
176
     1
 40
0.0
176
     1
 90
        0
176
     1
290
     0
176
     1
290
     1
176
     1
290
     1
176
     1
290
     0
176
     1
290
     0
176
     1
290
     0
176
     1
290
     0
176
     1
290
     0
176
     1
290
     0
176
     1
 90
       50
176
     1
 40
0.0
176
     1
 40
1.0
176
     1
 90
        0
176
     1
 62
    18
420
        0
176
     1
 90
       50
176
     1
 90
        3
176
     1
 62
     5
420
      255
176
     1
290
     0
176
     1
 90
       50
176
     1
 90
       50
176
     1
 90
       50
176
     1
290
     0
176
     1
 90
       50
176
     1
 62
   256
176
     0
 40
1.0
176
     0
 90
        2
176
     1
  1
strokes_ogs.tif
176
     1
290
     0
176
     1
 40
1.0
176
     1
 40
1.0
176
     1
  0
VISUALSTYLE
  5
2B
102
{ACAD_REACTORS
330
29
102
}
330
29
100
AcDbVisualStyle
  2
FlatWithEdges
 70
     1
177
     3
291
     1
 70
    58
 90
        2
176
     1
 90
        1
176
     1
 90
        1
176
     1
 90
        2
176
     1
 40
0.6
176
     1
 40
30.0
176
     1
 62
     7
420
 16777215
176
     1
 90
        1
176
     1
 90
        0
176
     1
 62
     7
176
     1
 62
   257
176
     1
 90
        1
176
     1
 90
        1
176
     1
 40
1.0
176
     1
 90
        0
176
     1
 62
   257
176
     1
 40
1.0
176
     1
 90
        1
176
     1
 90
        6
176
     1
 90
        2
176
     1
 62
     7
176
     1
 90
        5
176
     1
 90
        0
176
     1
 90
        0
176
     1
290
     0
176
     1
 90
       13
176
     1
 40
0.0
176
     1
 90
        0
176
     1
290
     0
176
     1
290
     1
176
     1
290
     1
176
     1
290
     0
176
     1
290
     0
176
     1
290
     0
176
     1
290
     0
176
     1
290
     0
176
     1
290
     0
176
     1
 90
       50
176
     1
 40
0.0
176
     1
 40
1.0
176
     1
 90
        0
176
     1
 62
    18
420
        0
176
     1
 90
       50
176
     1
 90
        3
176
     1
 62
     5
420
      255
176
     1
290
     0
176
     1
 90
       50
176
     1
 90
       50
176
     1
 90
       50
176
     1
290
     0
176
     1
 90
       50
176
     1
 62
   256
176
     0
 40
1.0
176
     0
 90
        2
176
     1
  1
strokes_ogs.tif
176
     1
290
     0
176
     1
 40
1.0
176
     1
 40
1.0
176
     1
  0
VISUALSTYLE
  5
2C
102
{ACAD_REACTORS
330
29
102
}
330
29
100
AcDbVisualStyle
  2
Gouraud
 70
     2
177
     3
291
     1
 70
    58
 90
        2
176
     1
 90
        2
176
     1
 90
        1
176
     1
 90
        2
176
     1
 40
0.6
176
     1
 40
30.0
176
     1
 62
     7
420
 16777215
176
     1
 90
        0
176
     1
 90
        0
176
     1
 62
     7
176
     1
 62
   257
176
     1
 90
        1
176
     1
 90
        1
176
     1
 40
1.0
176
     1
 90
        0
176
     1
 62
     7
176
     1
 40
1.0
176
     1
 90
        1
176
     1
 90
        6
176
     1
 90
        2
176
     1
 62
     7
176
     1
 90
        5
176
     1
 90
        0
176
     1
 90
        0
176
     1
290
     0
176
     1
 90
       13
176
     1
 40
0.0
176
     1
 90
        0
176
     1
290
     0
176
     1
290
     1
176
     1
290
     1
176
     1
290
     0
176
     1
290
     0
176
     1
290
     0
176
     1
290
     0
176
     1
290
     0
176
     1
290
     0
176
     1
 90
       50
176
     1
 40
0.0
176
     1
 40
1.0
176
     1
 90
        0
176
     1
 62
    18
420
        0
176
     1
 90
       50
176
     1
 90
        3
176
     1
 62
     5
420
      255
176
     1
290
     0
176
     1
 90
       50
176
     1
 90
       50
176
     1
 90
       50
176
     1
290
     0
176
     1
 90
       50
176
     1
 62
   256
176
     0
 40
1.0
176
     0
 90
        2
176
     1
  1
strokes_ogs.tif
176
     1
290
     0
176
     1
 40
1.0
176
     1
 40
1.0
176
     1
  0
VISUALSTYLE
  5
2D
102
{ACAD_REACTORS
330
29
102
}
330
29
100
AcDbVisualStyle
  2
GouraudWithEdges
 70
     3
177
     3
291
     1
 70
    58
 90
        2
176
     1
 90
        2
176
     1
 90
        1
176
     1
 90
        2
176
     1
 40
0.6
176
     1
 40
30.0
176
     1
 62
     7
420
 16777215
176
     1
 90
        1
176
     1
 90
        0
176
     1
 62
     7
176
     1
 62
   257
176
     1
 90
        1
176
     1
 90
        1
176
     1
 40
1.0
176
     1
 90
        0
176
     1
 62
   257
176
     1
 40
1.0
176
     1
 90
        1
176
     1
 90
        6
176
     1
 90
        2
176
     1
 62
     7
176
     1
 90
        5
176
     1
 90
        0
176
     1
 90
        0
176
     1
290
     0
176
     1
 90
       13
176
     1
 40
0.0
176
     1
 90
        0
176
     1
290
     0
176
     1
290
     1
176
     1
290
     1
176
     1
290
     0
176
     1
290
     0
176
     1
290
     0
176
     1
290
     0
176
     1
290
     0
176
     1
290
     0
176
     1
 90
       50
176
     1
 40
0.0
176
     1
 40
1.0
176
     1
 90
        0
176
     1
 62
    18
420
        0
176
     1
 90
       50
176
     1
 90
        3
176
     1
 62
     5
420
      255
176
     1
290
     0
176
     1
 90
       50
176
     1
 90
       50
176
     1
 90
       50
176
     1
290
     0
176
     1
 90
       50
176
     1
 62
   256
176
     0
 40
1.0
176
     0
 90
        2
176
     1
  1
strokes_ogs.tif
176
     1
290
     0
176
     1
 40
1.0
176
     1
 40
1.0
176
     1
  0
VISUALSTYLE
  5
31
102
{ACAD_REACTORS
330
29
102
}
330
29
100
AcDbVisualStyle
  2
Hidden
 70
     6
177
     3
291
     0
 70
    58
 90
        1
176
     1
 90
        2
176
     1
 90
        2
176
     1
 90
        0
176
     1
 40
0.6
176
     1
 40
30.0
176
     1
 62
     7
420
 16777215
176
     1
 90
        2
176
     1
 90
        2
176
     1
 62
     7
176
     1
 62
   257
176
     1
 90
        2
176
     1
 90
        1
176
     1
 40
40.0
176
     1
 90
        0
176
     1
 62
   257
176
     1
 40
1.0
176
     1
 90
        1
176
     1
 90
        6
176
     1
 90
        2
176
     1
 62
     7
176
     1
 90
        3
176
     1
 90
        0
176
     1
 90
        0
176
     1
290
     0
176
     1
 90
        1
176
     1
 40
0.0
176
     1
 90
        0
176
     1
290
     0
176
     1
290
     1
176
     1
290
     1
176
     1
290
     0
176
     1
290
     0
176
     1
290
     0
176
     1
290
     0
176
     1
290
     0
176
     1
290
     0
176
     1
 90
       50
176
     1
 40
0.0
176
     1
 40
1.0
176
     1
 90
        0
176
     1
 62
    18
420
        0
176
     1
 90
       50
176
     1
 90
        3
176
     1
 62
     5
420
      255
176
     1
290
     0
176
     1
 90
       50
176
     1
 90
       50
176
     1
 90
       50
176
     1
290
     0
176
     1
 90
       50
176
     1
 62
   256
176
     0
 40
1.0
176
     0
 90
        2
176
     1
  1
strokes_ogs.tif
176
     1
290
     0
176
     1
 40
1.0
176
     1
 40
1.0
176
     1
  0
VISUALSTYLE
  5
3F
102
{ACAD_REACTORS
330
29
102
}
330
29
100
AcDbVisualStyle
  2
JitterOff
 70
    20
177
     3
291
     1
 70
    58
 90
        2
176
     0
 90
        2
176
     0
 90
        0
176
     0
 90
        0
176
     0
 40
0.6
176
     0
 40
30.0
176
     0
 62
     7
420
 16777215
176
     0
 90
        1
176
     0
 90
        4
176
     0
 62
     7
176
     0
 62
   257
176
     0
 90
        1
176
     0
 90
        1
176
     0
 40
1.0
176
     0
 90
       10
176
     2
 62
     7
176
     0
 40
1.0
176
     0
 90
        1
176
     0
 90
        6
176
     0
 90
        2
176
     0
 62
     7
176
     0
 90
        5
176
     0
 90
        0
176
     0
 90
        0
176
     0
290
     0
176
     0
 90
        1
176
     0
 40
0.0
176
     0
 90
        0
176
     0
290
     0
176
     0
290
     1
176
     0
290
     1
176
     0
290
     0
176
     0
290
     0
176
     0
290
     0
176
     0
290
     0
176
     0
290
     0
176
     0
290
     0
176
     0
 90
       50
176
     0
 40
0.0
176
     0
 40
1.0
176
     0
 90
        0
176
     0
 62
    18
420
        0
176
     0
 90
       50
176
     0
 90
        3
176
     0
 62
     5
420
      255
176
     0
290
     0
176
     0
 90
       50
176
     0
 90
       50
176
     0
 90
       50
176
     0
290
     0
176
     0
 90
       50
176
     0
 62
   256
176
     0
 40
1.0
176
     0
 90
        2
176
     0
  1
strokes_ogs.tif
176
     0
290
     0
176
     0
 40
1.0
176
     0
 40
1.0
176
     0
  0
VISUALSTYLE
  5
37
102
{ACAD_REACTORS
330
29
102
}
330
29
100
AcDbVisualStyle
  2
Linepattern
 70
    14
177
     3
291
     1
 70
    58
 90
        2
176
     1
 90
        2
176
     1
 90
        0
176
     1
 90
        0
176
     1
 40
0.6
176
     1
 40
30.0
176
     1
 62
     7
420
 16777215
176
     1
 90
        1
176
     1
 90
        4
176
     1
 62
     7
176
     1
 62
   257
176
     1
 90
        7
176
     1
 90
        7
176
     1
 40
1.0
176
     1
 90
        8
176
     1
 62
     7
176
     1
 40
1.0
176
     1
 90
        1
176
     1
 90
        6
176
     1
 90
        2
176
     1
 62
     7
176
     1
 90
        5
176
     1
 90
        0
176
     1
 90
        0
176
     1
290
     0
176
     1
 90
        1
176
     1
 40
0.0
176
     1
 90
        0
176
     1
290
     0
176
     1
290
     1
176
     1
290
     1
176
     1
290
     0
176
     1
290
     0
176
     1
290
     0
176
     1
290
     0
176
     1
290
     0
176
     1
290
     0
176
     1
 90
       50
176
     1
 40
0.0
176
     1
 40
1.0
176
     1
 90
        0
176
     1
 62
    18
420
        0
176
     1
 90
       50
176
     1
 90
        3
176
     1
 62
     5
420
      255
176
     1
290
     0
176
     1
 90
       50
176
     1
 90
       50
176
     1
 90
       50
176
     1
290
     0
176
     1
 90
       50
176
     1
 62
   256
176
     0
 40
1.0
176
     0
 90
        2
176
     1
  1
strokes_ogs.tif
176
     1
290
     0
176
     1
 40
1.0
176
     1
 40
1.0
176
     1
  0
VISUALSTYLE
  5
40
102
{ACAD_REACTORS
330
29
102
}
330
29
100
AcDbVisualStyle
  2
OverhangOff
 70
    21
177
     3
291
     1
 70
    58
 90
        2
176
     0
 90
        2
176
     0
 90
        0
176
     0
 90
        0
176
     0
 40
0.6
176
     0
 40
30.0
176
     0
 62
     7
420
 16777215
176
     0
 90
        1
176
     0
 90
        4
176
     0
 62
     7
176
     0
 62
   257
176
     0
 90
        1
176
     0
 90
        1
176
     0
 40
1.0
176
     0
 90
        9
176
     2
 62
     7
176
     0
 40
1.0
176
     0
 90
        1
176
     0
 90
        6
176
     0
 90
        2
176
     0
 62
     7
176
     0
 90
        5
176
     0
 90
        0
176
     0
 90
        0
176
     0
290
     0
176
     0
 90
        1
176
     0
 40
0.0
176
     0
 90
        0
176
     0
290
     0
176
     0
290
     1
176
     0
290
     1
176
     0
290
     0
176
     0
290
     0
176
     0
290
     0
176
     0
290
     0
176
     0
290
     0
176
     0
290
     0
176
     0
 90
       50
176
     0
 40
0.0
176
     0
 40
1.0
176
     0
 90
        0
176
     0
 62
    18
420
        0
176
     0
 90
       50
176
     0
 90
        3
176
     0
 62
     5
420
      255
176
     0
290
     0
176
     0
 90
       50
176
     0
 90
       50
176
     0
 90
       50
176
     0
290
     0
176
     0
 90
       50
176
     0
 62
   256
176
     0
 40
1.0
176
     0
 90
        2
176
     0
  1
strokes_ogs.tif
176
     0
290
     0
176
     0
 40
1.0
176
     0
 40
1.0
176
     0
  0
VISUALSTYLE
  5
33
102
{ACAD_REACTORS
330
29
102
}
330
29
100
AcDbVisualStyle
  2
Realistic
 70
     8
177
     3
291
     0
 70
    58
 90
        2
176
     1
 90
        3
176
     1
 90
        0
176
     1
 90
        2
176
     1
 40
0.6
176
     1
 40
30.0
176
     1
 62
     7
420
 16777215
176
     1
 90
        0
176
     1
 90
        0
176
     1
 62
     7
176
     1
 62
   257
176
     1
 90
        1
176
     1
 90
        1
176
     1
 40
1.0
176
     1
 90
        8
176
     1
 62
   257
176
     1
 40
1.0
176
     1
 90
        1
176
     1
 90
        6
176
     1
 90
        2
176
     1
 62
     7
176
     1
 90
        3
176
     1
 90
        0
176
     1
 90
        0
176
     1
290
     0
176
     1
 90
       13
176
     1
 40
0.0
176
     1
 90
        0
176
     1
290
     0
176
     1
290
     1
176
     1
290
     1
176
     1
290
     0
176
     1
290
     0
176
     1
290
     0
176
     1
290
     0
176
     1
290
     0
176
     1
290
     0
176
     1
 90
       50
176
     1
 40
0.0
176
     1
 40
1.0
176
     1
 90
        0
176
     1
 62
    18
420
        0
176
     1
 90
       50
176
     1
 90
        3
176
     1
 62
     5
420
      255
176
     1
290
     0
176
     1
 90
       50
176
     1
 90
       50
176
     1
 90
       50
176
     1
290
     0
176
     1
 90
       50
176
     1
 62
   256
176
     0
 40
1.0
176
     0
 90
        2
176
     1
  1
strokes_ogs.tif
176
     1
290
     0
176
     1
 40
1.0
176
     1
 40
1.0
176
     1
  0
VISUALSTYLE
  5
3E
102
{ACAD_REACTORS
330
29
102
}
330
29
100
AcDbVisualStyle
  2
Shaded
 70
    27
177
     3
291
     0
 70
    58
 90
        2
176
     1
 90
        2
176
     1
 90
        1
176
     1
 90
        2
176
     1
 40
0.6
176
     1
 40
30.0
176
     1
 62
     7
420
 16777215
176
     1
 90
        0
176
     1
 90
        4
176
     1
 62
     7
176
     1
 62
   257
176
     1
 90
        1
176
     1
 90
        1
176
     1
 40
1.0
176
     1
 90
        8
176
     1
 62
   257
176
     1
 40
1.0
176
     1
 90
        1
176
     1
 90
        6
176
     1
 90
        2
176
     1
 62
     8
420
  7895160
176
     1
 90
        3
176
     1
 90
        0
176
     1
 90
        0
176
     1
290
     0
176
     1
 90
        5
176
     1
 40
0.0
176
     1
 90
        0
176
     1
290
     0
176
     1
290
     1
176
     1
290
     1
176
     1
290
     0
176
     1
290
     0
176
     1
290
     0
176
     1
290
     0
176
     1
290
     0
176
     1
290
     0
176
     1
 90
       50
176
     1
 40
0.0
176
     1
 40
1.0
176
     1
 90
        0
176
     1
 62
    18
420
        0
176
     1
 90
       50
176
     1
 90
        3
176
     1
 62
     5
420
      255
176
     1
290
     0
176
     1
 90
       50
176
     1
 90
       50
176
     1
 90
       50
176
     1
290
     0
176
     1
 90
       50
176
     1
 62
   256
176
     0
 40
1.0
176
     0
 90
        2
176
     1
  1
strokes_ogs.tif
176
     1
290
     0
176
     1
 40
1.0
176
     1
 40
1.0
176
     1
  0
VISUALSTYLE
  5
3D
102
{ACAD_REACTORS
330
29
102
}
330
29
100
AcDbVisualStyle
  2
Shaded with edges
 70
    26
177
     3
291
     0
 70
    58
 90
        2
176
     1
 90
        2
176
     1
 90
        1
176
     1
 90
        2
176
     1
 40
0.6
176
     1
 40
30.0
176
     1
 62
     7
420
 16777215
176
     1
 90
        1
176
     1
 90
        2
176
     1
 62
     7
176
     1
 62
   257
176
     1
 90
        2
176
     1
 90
        1
176
     1
 40
1.0
176
     1
 90
        8
176
     1
 62
   257
176
     1
 40
1.0
176
     1
 90
        1
176
     1
 90
        6
176
     1
 90
        2
176
     1
 62
     7
176
     1
 90
        3
176
     1
 90
        0
176
     1
 90
        0
176
     1
290
     0
176
     1
 90
        5
176
     1
 40
0.0
176
     1
 90
        0
176
     1
290
     0
176
     1
290
     1
176
     1
290
     1
176
     1
290
     0
176
     1
290
     0
176
     1
290
     0
176
     1
290
     0
176
     1
290
     0
176
     1
290
     0
176
     1
 90
       50
176
     1
 40
0.0
176
     1
 40
1.0
176
     1
 90
        0
176
     1
 62
    18
420
        0
176
     1
 90
       50
176
     1
 90
        3
176
     1
 62
     5
420
      255
176
     1
290
     0
176
     1
 90
       50
176
     1
 90
       50
176
     1
 90
       50
176
     1
290
     0
176
     1
 90
       50
176
     1
 62
   256
176
     0
 40
1.0
176
     0
 90
        2
176
     1
  1
strokes_ogs.tif
176
     1
290
     0
176
     1
 40
1.0
176
     1
 40
1.0
176
     1
  0
VISUALSTYLE
  5
3A
102
{ACAD_REACTORS
330
29
102
}
330
29
100
AcDbVisualStyle
  2
Shades of Gray
 70
    23
177
     3
291
     0
 70
    58
 90
        2
176
     1
 90
        2
176
     1
 90
        3
176
     1
 90
        0
176
     1
 40
0.6
176
     1
 40
30.0
176
     1
 62
     7
420
 16777215
176
     1
 90
        2
176
     1
 90
        2
176
     1
 62
     7
176
     1
 62
     7
176
     1
 90
        1
176
     1
 90
        1
176
     1
 40
40.0
176
     1
 90
        8
176
     1
 62
     7
176
     1
 40
1.0
176
     1
 90
        1
176
     1
 90
        6
176
     1
 90
        2
176
     1
 62
     7
176
     1
 90
        3
176
     1
 90
        0
176
     1
 90
        0
176
     1
290
     0
176
     1
 90
        1
176
     1
 40
0.0
176
     1
 90
        0
176
     1
290
     0
176
     1
290
     1
176
     1
290
     1
176
     1
290
     0
176
     1
290
     0
176
     1
290
     0
176
     1
290
     0
176
     1
290
     0
176
     1
290
     0
176
     1
 90
       50
176
     1
 40
0.0
176
     1
 40
1.0
176
     1
 90
        0
176
     1
 62
    18
420
        0
176
     1
 90
       50
176
     1
 90
        3
176
     1
 62
     5
420
      255
176
     1
290
     0
176
     1
 90
       50
176
     1
 90
       50
176
     1
 90
       50
176
     1
290
     0
176
     1
 90
       50
176
     1
 62
   256
176
     0
 40
1.0
176
     0
 90
        2
176
     1
  1
strokes_ogs.tif
176
     1
290
     0
176
     1
 40
1.0
176
     1
 40
1.0
176
     1
  0
VISUALSTYLE
  5
3B
102
{ACAD_REACTORS
330
29
102
}
330
29
100
AcDbVisualStyle
  2
Sketchy
 70
    24
177
     3
291
     0
 70
    58
 90
        1
176
     1
 90
        2
176
     1
 90
        2
176
     1
 90
        0
176
     1
 40
0.6
176
     1
 40
30.0
176
     1
 62
     7
420
 16777215
176
     1
 90
        2
176
     1
 90
        2
176
     1
 62
     7
176
     1
 62
     7
176
     1
 90
        1
176
     1
 90
        1
176
     1
 40
40.0
176
     1
 90
       11
176
     1
 62
     7
176
     1
 40
1.0
176
     1
 90
        1
176
     1
 90
        6
176
     1
 90
        2
176
     1
 62
     7
176
     1
 90
        6
176
     1
 90
        0
176
     1
 90
        0
176
     1
290
     0
176
     1
 90
        1
176
     1
 40
0.0
176
     1
 90
        0
176
     1
290
     0
176
     1
290
     1
176
     1
290
     1
176
     1
290
     0
176
     1
290
     0
176
     1
290
     0
176
     1
290
     0
176
     1
290
     0
176
     1
290
     0
176
     1
 90
       50
176
     1
 40
0.0
176
     1
 40
1.0
176
     1
 90
        0
176
     1
 62
    18
420
        0
176
     1
 90
       50
176
     1
 90
        3
176
     1
 62
     5
420
      255
176
     1
290
     0
176
     1
 90
       50
176
     1
 90
       50
176
     1
 90
       50
176
     1
290
     0
176
     1
 90
       50
176
     1
 62
   256
176
     0
 40
1.0
176
     0
 90
        2
176
     1
  1
strokes_ogs.tif
176
     1
290
     0
176
     1
 40
1.0
176
     1
 40
1.0
176
     1
  0
VISUALSTYLE
  5
36
102
{ACAD_REACTORS
330
29
102
}
330
29
100
AcDbVisualStyle
  2
Thicken
 70
    13
177
     3
291
     1
 70
    58
 90
        2
176
     1
 90
        2
176
     1
 90
        0
176
     1
 90
        0
176
     1
 40
0.6
176
     1
 40
30.0
176
     1
 62
     7
420
 16777215
176
     1
 90
        1
176
     1
 90
        4
176
     1
 62
     7
176
     1
 62
   257
176
     1
 90
        1
176
     1
 90
        1
176
     1
 40
1.0
176
     1
 90
       12
176
     1
 62
     7
176
     1
 40
1.0
176
     1
 90
        1
176
     1
 90
        6
176
     1
 90
        2
176
     1
 62
     7
176
     1
 90
        5
176
     1
 90
        0
176
     1
 90
        0
176
     1
290
     0
176
     1
 90
        1
176
     1
 40
0.0
176
     1
 90
        0
176
     1
290
     0
176
     1
290
     1
176
     1
290
     1
176
     1
290
     0
176
     1
290
     0
176
     1
290
     0
176
     1
290
     0
176
     1
290
     0
176
     1
290
     0
176
     1
 90
       50
176
     1
 40
0.0
176
     1
 40
1.0
176
     1
 90
        0
176
     1
 62
    18
420
        0
176
     1
 90
       50
176
     1
 90
        3
176
     1
 62
     5
420
      255
176
     1
290
     0
176
     1
 90
       50
176
     1
 90
       50
176
     1
 90
       50
176
     1
290
     0
176
     1
 90
       50
176
     1
 62
   256
176
     0
 40
1.0
176
     0
 90
        2
176
     1
  1
strokes_ogs.tif
176
     1
290
     0
176
     1
 40
1.0
176
     1
 40
1.0
176
     1
  0
VISUALSTYLE
  5
30
102
{ACAD_REACTORS
330
29
102
}
330
29
100
AcDbVisualStyle
  2
Wireframe
 70
     5
177
     3
291
     0
 70
    58
 90
        0
176
     1
 90
        2
176
     1
 90
        0
176
     1
 90
        0
176
     1
 40
0.6
176
     1
 40
30.0
176
     1
 62
     7
420
 16777215
176
     1
 90
        1
176
     1
 90
        4
176
     1
 62
     7
176
     1
 62
   257
176
     1
 90
        1
176
     1
 90
        1
176
     1
 40
1.0
176
     1
 90
        0
176
     1
 62
   257
176
     1
 40
1.0
176
     1
 90
        1
176
     1
 90
        6
176
     1
 90
        2
176
     1
 62
     7
176
     1
 90
        3
176
     1
 90
        0
176
     1
 90
        0
176
     1
290
     0
176
     1
 90
        1
176
     1
 40
0.0
176
     1
 90
        0
176
     1
290
     0
176
     1
290
     1
176
     1
290
     1
176
     1
290
     0
176
     1
290
     0
176
     1
290
     0
176
     1
290
     0
176
     1
290
     0
176
     1
290
     0
176
     1
 90
       50
176
     1
 40
0.0
176
     1
 40
1.0
176
     1
 90
        0
176
     1
 62
    18
420
        0
176
     1
 90
       50
176
     1
 90
        3
176
     1
 62
     5
420
      255
176
     1
290
     0
176
     1
 90
       50
176
     1
 90
       50
176
     1
 90
       50
176
     1
290
     0
176
     1
 90
       50
176
     1
 62
   256
176
     0
 40
1.0
176
     0
 90
        2
176
     1
  1
strokes_ogs.tif
176
     1
290
     0
176
     1
 40
1.0
176
     1
 40
1.0
176
     1
  0
VISUALSTYLE
  5
3C
102
{ACAD_REACTORS
330
29
102
}
330
29
100
AcDbVisualStyle
  2
X-Ray
 70
    25
177
     3
291
     0
 70
    58
 90
        2
176
     1
 90
        2
176
     1
 90
        1
176
     1
 90
        1
176
     1
 40
0.5
176
     1
 40
30.0
176
     1
 62
     7
420
 16777215
176
     1
 90
        1
176
     1
 90
        0
176
     1
 62
     7
176
     1
 62
   257
176
     1
 90
        1
176
     1
 90
        1
176
     1
 40
1.0
176
     1
 90
        8
176
     1
 62
     7
176
     1
 40
1.0
176
     1
 90
        1
176
     1
 90
        6
176
     1
 90
        2
176
     1
 62
     7
176
     1
 90
        3
176
     1
 90
        0
176
     1
 90
        0
176
     1
290
     0
176
     1
 90
       13
176
     1
 40
0.0
176
     1
 90
        0
176
     1
290
     0
176
     1
290
     1
176
     1
290
     1
176
     1
290
     0
176
     1
290
     0
176
     1
290
     0
176
     1
290
     0
176
     1
290
     0
176
     1
290
     0
176
     1
 90
       50
176
     1
 40
0.0
176
     1
 40
1.0
176
     1
 90
        0
176
     1
 62
    18
420
        0
176
     1
 90
       50
176
     1
 90
        3
176
     1
 62
     5
420
      255
176
     1
290
     0
176
     1
 90
       50
176
     1
 90
       50
176
     1
 90
       50
176
     1
290
     0
176
     1
 90
       50
176
     1
 62
   256
176
     0
 40
1.0
176
     0
 90
        2
176
     1
  1
strokes_ogs.tif
176
     1
290
     0
176
     1
 40
1.0
176
     1
 40
1.0
176
     1
  0
DICTIONARYVAR
  5
C2
102
{ACAD_REACTORS
330
BD
102
}
330
BD
100
DictionaryVariables
280
     0
  1
1:1
  0
DICTIONARYVAR
  5
BF
102
{ACAD_REACTORS
330
BD
102
}
330
BD
100
DictionaryVariables
280
     0
  1
STANDARD
  0
DICTIONARYVAR
  5
BE
102
{ACAD_REACTORS
330
BD
102
}
330
BD
100
DictionaryVariables
280
     0
  1
STANDARD
  0
DICTIONARYVAR
  5
C0
102
{ACAD_REACTORS
330
BD
102
}
330
BD
100
DictionaryVariables
280
     0
  1
Imperial24
  0
DICTIONARYVAR
  5
C1
102
{ACAD_REACTORS
330
BD
102
}
330
BD
100
DictionaryVariables
280
     0
  1
Imperial24
  0
DICTIONARY
  5
1A
330
19
100
AcDbDictionary
280
     1
281
     1
  3
BUMPTILE
360
1C
  3
DIFFUSETILE
360
1B
  3
OPACITYTILE
360
1F
  3
REFLECTIONTILE
360
1E
  3
REFRACTIONTILE
360
20
  3
SPECULARTILE
360
1D
  0
DICTIONARY
  5
12
330
11
100
AcDbDictionary
280
     1
281
     1
  3
BUMPTILE
360
14
  3
DIFFUSETILE
360
13
  3
OPACITYTILE
360
17
  3
REFLECTIONTILE
360
16
  3
REFRACTIONTILE
360
18
  3
SPECULARTILE
360
15
  0
DICTIONARY
  5
22
330
21
100
AcDbDictionary
280
     1
281
     1
  3
BUMPTILE
360
24
  3
DIFFUSETILE
360
23
  3
OPACITYTILE
360
27
  3
REFLECTIONTILE
360
26
  3
REFRACTIONTILE
360
28
  3
SPECULARTILE
360
25
  0
DICTIONARY
  5
C3
330
65
100
AcDbDictionary
280
     1
281
     1
  3
ACAD_ROUNDTRIP_2008_TABLESTYLE_CELLSTYLEMAP
360
C4
  0
XRECORD
  5
1C
102
{ACAD_REACTORS
330
1A
102
}
330
1A
100
AcDbXrecord
280
     1
270
     1
271
     1
  0
XRECORD
  5
1B
102
{ACAD_REACTORS
330
1A
102
}
330
1A
100
AcDbXrecord
280
     1
270
     1
271
     1
  0
XRECORD
  5
1F
102
{ACAD_REACTORS
330
1A
102
}
330
1A
100
AcDbXrecord
280
     1
270
     1
271
     1
  0
XRECORD
  5
1E
102
{ACAD_REACTORS
330
1A
102
}
330
1A
100
AcDbXrecord
280
     1
270
     1
271
     1
  0
XRECORD
  5
20
102
{ACAD_REACTORS
330
1A
102
}
330
1A
100
AcDbXrecord
280
     1
270
     1
271
     1
  0
XRECORD
  5
1D
102
{ACAD_REACTORS
330
1A
102
}
330
1A
100
AcDbXrecord
280
     1
270
     1
271
     1
  0
XRECORD
  5
14
102
{ACAD_REACTORS
330
12
102
}
330
12
100
AcDbXrecord
280
     1
270
     1
271
     1
  0
XRECORD
  5
13
102
{ACAD_REACTORS
330
12
102
}
330
12
100
AcDbXrecord
280
     1
270
     1
271
     1
  0
XRECORD
  5
17
102
{ACAD_REACTORS
330
12
102
}
330
12
100
AcDbXrecord
280
     1
270
     1
271
     1
  0
XRECORD
  5
16
102
{ACAD_REACTORS
330
12
102
}
330
12
100
AcDbXrecord
280
     1
270
     1
271
     1
  0
XRECORD
  5
18
102
{ACAD_REACTORS
330
12
102
}
330
12
100
AcDbXrecord
280
     1
270
     1
271
     1
  0
XRECORD
  5
15
102
{ACAD_REACTORS
330
12
102
}
330
12
100
AcDbXrecord
280
     1
270
     1
271
     1
  0
XRECORD
  5
24
102
{ACAD_REACTORS
330
22
102
}
330
22
100
AcDbXrecord
280
     1
270
     1
271
     1
  0
XRECORD
  5
23
102
{ACAD_REACTORS
330
22
102
}
330
22
100
AcDbXrecord
280
     1
270
     1
271
     1
  0
XRECORD
  5
27
102
{ACAD_REACTORS
330
22
102
}
330
22
100
AcDbXrecord
280
     1
270
     1
271
     1
  0
XRECORD
  5
26
102
{ACAD_REACTORS
330
22
102
}
330
22
100
AcDbXrecord
280
     1
270
     1
271
     1
  0
XRECORD
  5
28
102
{ACAD_REACTORS
330
22
102
}
330
22
100
AcDbXrecord
280
     1
270
     1
271
     1
  0
XRECORD
  5
25
102
{ACAD_REACTORS
330
22
102
}
330
22
100
AcDbXrecord
280
     1
270
     1
271
     1
  0
CELLSTYLEMAP
  5
C4
102
{ACAD_REACTORS
330
C3
102
}
330
C3
100
AcDbCellStyleMap
 90
        3
300
CELLSTYLE
  1
TABLEFORMAT_BEGIN
 90
        5
170
     1
 91
        0
 92
    32768
 62
   257
 93
        1
300
CONTENTFORMAT
  1
CONTENTFORMAT_BEGIN
 90
        0
 91
        0
 92
      512
 93
        0
300

 40
0.0
140
1.0
 94
        5
 62
     0
340
55
144
0.25
309
CONTENTFORMAT_END
171
     0
 94
        0
309
TABLEFORMAT_END
  1
CELLSTYLE_BEGIN
 90
        1
 91
        1
300
_TITLE
309
CELLSTYLE_END
300
CELLSTYLE
  1
TABLEFORMAT_BEGIN
 90
        5
170
     1
 91
        0
 92
        0
 62
   257
 93
        1
300
CONTENTFORMAT
  1
CONTENTFORMAT_BEGIN
 90
        0
 91
        0
 92
      512
 93
        0
300

 40
0.0
140
1.0
 94
        5
 62
     0
340
55
144
0.18
309
CONTENTFORMAT_END
171
     0
 94
        0
309
TABLEFORMAT_END
  1
CELLSTYLE_BEGIN
 90
        2
 91
        1
300
_HEADER
309
CELLSTYLE_END
300
CELLSTYLE
  1
TABLEFORMAT_BEGIN
 90
        5
170
     1
 91
        0
 92
        0
 62
   257
 93
        1
300
CONTENTFORMAT
  1
CONTENTFORMAT_BEGIN
 90
        0
 91
        0
 92
      512
 93
        0
300

 40
0.0
140
1.0
 94
        2
 62
     0
340
55
144
0.18
309
CONTENTFORMAT_END
171
     0
 94
        0
309
TABLEFORMAT_END
  1
CELLSTYLE_BEGIN
 90
        3
 91
        2
300
_DATA
309
CELLSTYLE_END
  0
ENDSEC
  0
EOF
