  0
SECTION
  2
HEADER
  9
$ACADVER
  1
AC1018
  9
$ACADMAINTVER
 70
     0
  9
$DWGCODEPAGE
  3
ANSI_1252
  9
$INSBASE
 10
0.0
 20
0.0
 30
0.0
  9
$EXTMIN
 10
1.000000000000000E+20
 20
1.000000000000000E+20
 30
1.000000000000000E+20
  9
$EXTMAX
 10
-1.000000000000000E+20
 20
-1.000000000000000E+20
 30
-1.000000000000000E+20
  9
$LIMMIN
 10
0.0
 20
0.0
  9
$LIMMAX
 10
12.0
 20
9.0
  9
$ORTHOMODE
 70
     0
  9
$REGENMODE
 70
     1
  9
$FILLMODE
 70
     1
  9
$QTEXTMODE
 70
     0
  9
$MIRRTEXT
 70
     1
  9
$LTSCALE
 40
1.0
  9
$ATTMODE
 70
     1
  9
$TEXTSIZE
 40
0.2
  9
$TRACEWID
 40
0.05
  9
$TEXTSTYLE
  7
Standard
  9
$CLAYER
  8
0
  9
$CELTYPE
  6
ByLayer
  9
$CECOLOR
 62
   256
  9
$CELTSCALE
 40
1.0
  9
$DISPSILH
 70
     0
  9
$DIMSCALE
 40
1.0
  9
$DIMASZ
 40
0.18
  9
$DIMEXO
 40
0.0625
  9
$DIMDLI
 40
0.38
  9
$DIMRND
 40
0.0
  9
$DIMDLE
 40
0.0
  9
$DIMEXE
 40
0.18
  9
$DIMTP
 40
0.0
  9
$DIMTM
 40
0.0
  9
$DIMTXT
 40
0.18
  9
$DIMCEN
 40
0.09
  9
$DIMTSZ
 40
0.0
  9
$DIMTOL
 70
     0
  9
$DIMLIM
 70
     0
  9
$DIMTIH
 70
     1
  9
$DIMTOH
 70
     1
  9
$DIMSE1
 70
     0
  9
$DIMSE2
 70
     0
  9
$DIMTAD
 70
     0
  9
$DIMZIN
 70
     0
  9
$DIMBLK
  1

  9
$DIMASO
 70
     1
  9
$DIMSHO
 70
     1
  9
$DIMPOST
  1

  9
$DIMAPOST
  1

  9
$DIMALT
 70
     0
  9
$DIMALTD
 70
     2
  9
$DIMALTF
 40
25.4
  9
$DIMLFAC
 40
1.0
  9
$DIMTOFL
 70
     0
  9
$DIMTVP
 40
0.0
  9
$DIMTIX
 70
     0
  9
$DIMSOXD
 70
     0
  9
$DIMSAH
 70
     0
  9
$DIMBLK1
  1

  9
$DIMBLK2
  1

  9
$DIMSTYLE
  2
Standard
  9
$DIMCLRD
 70
     0
  9
$DIMCLRE
 70
     0
  9
$DIMCLRT
 70
     0
  9
$DIMTFAC
 40
1.0
  9
$DIMGAP
 40
0.09
  9
$DIMJUST
 70
     0
  9
$DIMSD1
 70
     0
  9
$DIMSD2
 70
     0
  9
$DIMTOLJ
 70
     1
  9
$DIMTZIN
 70
     0
  9
$DIMALTZ
 70
     0
  9
$DIMALTTZ
 70
     0
  9
$DIMUPT
 70
     0
  9
$DIMDEC
 70
     4
  9
$DIMTDEC
 70
     4
  9
$DIMALTU
 70
     2
  9
$DIMALTTD
 70
     2
  9
$DIMTXSTY
  7
Standard
  9
$DIMAUNIT
 70
     0
  9
$DIMADEC
 70
     0
  9
$DIMALTRND
 40
0.0
  9
$DIMAZIN
 70
     0
  9
$DIMDSEP
 70
    46
  9
$DIMATFIT
 70
     3
  9
$DIMFRAC
 70
     0
  9
$DIMLDRBLK
  1

  9
$DIMLUNIT
 70
     2
  9
$DIMLWD
 70
    -2
  9
$DIMLWE
 70
    -2
  9
$DIMTMOVE
 70
     0
  9
$LUNITS
 70
     2
  9
$LUPREC
 70
     4
  9
$SKETCHINC
 40
0.1
  9
$FILLETRAD
 40
0.5
  9
$AUNITS
 70
     0
  9
$AUPREC
 70
     0
  9
$MENU
  1
.
  9
$ELEVATION
 40
0.0
  9
$PELEVATION
 40
0.0
  9
$THICKNESS
 40
0.0
  9
$LIMCHECK
 70
     0
  9
$CHAMFERA
 40
0.5
  9
$CHAMFERB
 40
0.5
  9
$CHAMFERC
 40
1.0
  9
$CHAMFERD
 40
0.0
  9
$SKPOLY
 70
     0
  9
$TDCREATE
 40
2459967.682312928
  9
$TDUCREATE
 40
2459968.015646262
  9
$TDUPDATE
 40
2459967.682312975
  9
$TDUUPDATE
 40
2459968.015646308
  9
$TDINDWG
 40
0.0000000116
  9
$TDUSRTIMER
 40
0.0000000116
  9
$USRTIMER
 70
     1
  9
$ANGBASE
 50
0.0
  9
$ANGDIR
 70
     0
  9
$PDMODE
 70
     0
  9
$PDSIZE
 40
0.0
  9
$PLINEWID
 40
0.0
  9
$SPLFRAME
 70
     0
  9
$SPLINETYPE
 70
     6
  9
$SPLINESEGS
 70
     8
  9
$HANDSEED
  5
141
  9
$SURFTAB1
 70
     6
  9
$SURFTAB2
 70
     6
  9
$SURFTYPE
 70
     6
  9
$SURFU
 70
     6
  9
$SURFV
 70
     6
  9
$UCSBASE
  2

  9
$UCSNAME
  2

  9
$UCSORG
 10
0.0
 20
0.0
 30
0.0
  9
$UCSXDIR
 10
1.0
 20
0.0
 30
0.0
  9
$UCSYDIR
 10
0.0
 20
1.0
 30
0.0
  9
$UCSORTHOREF
  2

  9
$UCSORTHOVIEW
 70
     0
  9
$UCSORGTOP
 10
0.0
 20
0.0
 30
0.0
  9
$UCSORGBOTTOM
 10
0.0
 20
0.0
 30
0.0
  9
$UCSORGLEFT
 10
0.0
 20
0.0
 30
0.0
  9
$UCSORGRIGHT
 10
0.0
 20
0.0
 30
0.0
  9
$UCSORGFRONT
 10
0.0
 20
0.0
 30
0.0
  9
$UCSORGBACK
 10
0.0
 20
0.0
 30
0.0
  9
$PUCSBASE
  2

  9
$PUCSNAME
  2

  9
$PUCSORG
 10
0.0
 20
0.0
 30
0.0
  9
$PUCSXDIR
 10
1.0
 20
0.0
 30
0.0
  9
$PUCSYDIR
 10
0.0
 20
1.0
 30
0.0
  9
$PUCSORTHOREF
  2

  9
$PUCSORTHOVIEW
 70
     0
  9
$PUCSORGTOP
 10
0.0
 20
0.0
 30
0.0
  9
$PUCSORGBOTTOM
 10
0.0
 20
0.0
 30
0.0
  9
$PUCSORGLEFT
 10
0.0
 20
0.0
 30
0.0
  9
$PUCSORGRIGHT
 10
0.0
 20
0.0
 30
0.0
  9
$PUCSORGFRONT
 10
0.0
 20
0.0
 30
0.0
  9
$PUCSORGBACK
 10
0.0
 20
0.0
 30
0.0
  9
$USERI1
 70
     0
  9
$USERI2
 70
     0
  9
$USERI3
 70
     0
  9
$USERI4
 70
     0
  9
$USERI5
 70
     0
  9
$USERR1
 40
0.0
  9
$USERR2
 40
0.0
  9
$USERR3
 40
0.0
  9
$USERR4
 40
0.0
  9
$USERR5
 40
0.0
  9
$WORLDVIEW
 70
     1
  9
$SHADEDGE
 70
     3
  9
$SHADEDIF
 70
    70
  9
$TILEMODE
 70
     1
  9
$MAXACTVP
 70
    64
  9
$PINSBASE
 10
0.0
 20
0.0
 30
0.0
  9
$PLIMCHECK
 70
     0
  9
$PEXTMIN
 10
1.000000000000000E+20
 20
1.000000000000000E+20
 30
1.000000000000000E+20
  9
$PEXTMAX
 10
-1.000000000000000E+20
 20
-1.000000000000000E+20
 30
-1.000000000000000E+20
  9
$PLIMMIN
 10
0.0
 20
0.0
  9
$PLIMMAX
 10
12.0
 20
9.0
  9
$UNITMODE
 70
     0
  9
$VISRETAIN
 70
     1
  9
$PLINEGEN
 70
     0
  9
$PSLTSCALE
 70
     1
  9
$TREEDEPTH
 70
  3020
  9
$CMLSTYLE
  2
Standard
  9
$CMLJUST
 70
     0
  9
$CMLSCALE
 40
1.0
  9
$PROXYGRAPHICS
 70
     1
  9
$MEASUREMENT
 70
     0
  9
$CELWEIGHT
370
    -1
  9
$ENDCAPS
280
     0
  9
$JOINSTYLE
280
     0
  9
$LWDISPLAY
290
     1
  9
$INSUNITS
 70
     1
  9
$HYPERLINKBASE
  1

  9
$STYLESHEET
  1

  9
$XEDIT
290
     1
  9
$CEPSNTYPE
380
     0
  9
$PSTYLEMODE
290
     1
  9
$FINGERPRINTGUID
  2
{30E2D9D6-E2DB-41F9-888F-A2398BDF147D}
  9
$VERSIONGUID
  2
{FAEB1C32-E019-11D5-929B-00C0DF256EC4}
  9
$EXTNAMES
290
     1
  9
$PSVPSCALE
 40
0.0
  9
$OLESTARTUP
290
     0
  9
$SORTENTS
280
   127
  9
$INDEXCTL
280
     0
  9
$HIDETEXT
280
     1
  9
$XCLIPFRAME
290
     0
  9
$HALOGAP
280
     0
  9
$OBSCOLOR
 70
   257
  9
$OBSLTYPE
280
     0
  9
$INTERSECTIONDISPLAY
280
     0
  9
$INTERSECTIONCOLOR
 70
   257
  9
$DIMASSOC
280
     2
  9
$PROJECTNAME
  1

  0
ENDSEC
  0
SECTION
  2
CLASSES
  0
CLASS
  1
ACDBDICTIONARYWDFLT
  2
AcDbDictionaryWithDefault
  3
ObjectDBX Classes
 90
        0
 91
        4
280
     0
281
     0
  0
CLASS
  1
VISUALSTYLE
  2
AcDbVisualStyle
  3
ObjectDBX Classes
 90
     4095
 91
        4
280
     0
281
     0
  0
CLASS
  1
MATERIAL
  2
AcDbMaterial
  3
ObjectDBX Classes
 90
     1153
 91
        4
280
     0
281
     0
  0
CLASS
  1
SUN
  2
AcDbSun
  3
SCENEOE
 90
     1024
 91
        4
280
     0
281
     0
  0
ENDSEC
  0
SECTION
  2
TABLES
  0
TABLE
  2
VPORT
  5
8
330
0
100
AcDbSymbolTable
 70
     1
  0
VPORT
  5
29
330
8
100
AcDbSymbolTableRecord
100
AcDbViewportTableRecord
  2
*Active
 70
     0
 10
0.0
 20
0.0
 11
1.0
 21
1.0
 12
0.0
 22
0.0
 13
0.0
 23
0.0
 14
0.5
 24
0.5
 15
0.5
 25
0.5
 16
0.0
 26
0.0
 36
1.0
 17
0.9588254593173624
 27
-1.541283902012506
 37
0.0
 40
3.500000000000012
 41
0.7028571428571398
 42
50.0
 43
0.0
 44
0.0
 50
0.0
 51
0.0
 71
     0
 72
   100
 73
     1
 74
     3
 75
     0
 76
     0
 77
     0
 78
     0
281
     0
 65
     1
110
0.0
120
0.0
130
0.0
111
1.0
121
0.0
131
0.0
112
0.0
122
1.0
132
0.0
 79
     0
146
0.0
  0
ENDTAB
  0
TABLE
  2
LTYPE
  5
5
330
0
100
AcDbSymbolTable
 70
     1
  0
LTYPE
  5
14
330
5
100
AcDbSymbolTableRecord
100
AcDbLinetypeTableRecord
  2
ByBlock
 70
     0
  3

 72
    65
 73
     0
 40
0.0
  0
LTYPE
  5
15
330
5
100
AcDbSymbolTableRecord
100
AcDbLinetypeTableRecord
  2
ByLayer
 70
     0
  3

 72
    65
 73
     0
 40
0.0
  0
LTYPE
  5
16
330
5
100
AcDbSymbolTableRecord
100
AcDbLinetypeTableRecord
  2
Continuous
 70
     0
  3
Solid line
 72
    65
 73
     0
 40
0.0
  0
ENDTAB
  0
TABLE
  2
LAYER
  5
2
330
0
100
AcDbSymbolTable
 70
     6
  0
LAYER
  5
10
330
2
100
AcDbSymbolTableRecord
100
AcDbLayerTableRecord
  2
0
 70
     0
 62
     7
  6
Continuous
370
    -3
390
F
  0
LAYER
  5
40
330
2
100
AcDbSymbolTableRecord
100
AcDbLayerTableRecord
  2
Green
 70
     5
 62
     7
  6
Continuous
370
    -3
390
F
  0
LAYER
  5
51
330
2
100
AcDbSymbolTableRecord
100
AcDbLayerTableRecord
  2
Mint Green
 70
     5
 62
     7
  6
Continuous
370
    -3
390
F
  0
LAYER
  5
62
330
2
100
AcDbSymbolTableRecord
100
AcDbLayerTableRecord
  2
Red
 70
     5
 62
     7
  6
Continuous
370
    -3
390
F
  0
LAYER
  5
73
330
2
100
AcDbSymbolTableRecord
100
AcDbLayerTableRecord
  2
White
 70
     4
 62
     7
  6
Continuous
370
    -3
390
F
  0
LAYER
  5
83
330
2
100
AcDbSymbolTableRecord
100
AcDbLayerTableRecord
  2
ENG
 70
     0
 62
     7
  6
Continuous
370
    -3
390
F
  0
ENDTAB
  0
TABLE
  2
STYLE
  5
3
330
0
100
AcDbSymbolTable
 70
     1
  0
STYLE
  5
11
330
3
100
AcDbSymbolTableRecord
100
AcDbTextStyleTableRecord
  2
Standard
 70
     0
 40
0.0
 41
1.0
 50
0.0
 71
     0
 42
0.2
  3
txt
  4

  0
ENDTAB
  0
TABLE
  2
VIEW
  5
6
330
0
100
AcDbSymbolTable
 70
     0
  0
ENDTAB
  0
TABLE
  2
UCS
  5
7
330
0
100
AcDbSymbolTable
 70
     0
  0
ENDTAB
  0
TABLE
  2
APPID
  5
9
330
0
100
AcDbSymbolTable
 70
     1
  0
APPID
  5
12
330
9
100
AcDbSymbolTableRecord
100
AcDbRegAppTableRecord
  2
ACAD
 70
     0
  0
ENDTAB
  0
TABLE
  2
DIMSTYLE
  5
A
330
0
100
AcDbSymbolTable
 70
     1
100
AcDbDimStyleTable
  0
DIMSTYLE
105
27
330
A
100
AcDbSymbolTableRecord
100
AcDbDimStyleTableRecord
  2
Standard
 70
     0
178
     0
340
11
  0
ENDTAB
  0
TABLE
  2
BLOCK_RECORD
  5
1
330
0
100
AcDbSymbolTable
 70
     7
  0
BLOCK_RECORD
  5
1F
330
1
100
AcDbSymbolTableRecord
100
AcDbBlockTableRecord
  2
*Model_Space
340
22
  0
BLOCK_RECORD
  5
1B
330
1
100
AcDbSymbolTableRecord
100
AcDbBlockTableRecord
  2
*Paper_Space
340
1E
  0
BLOCK_RECORD
  5
23
330
1
100
AcDbSymbolTableRecord
100
AcDbBlockTableRecord
  2
*Paper_Space0
340
26
  0
BLOCK_RECORD
  5
86
330
1
100
AcDbSymbolTableRecord
100
AcDbBlockTableRecord
  2
block 2
340
0
102
{BLKREFS
331
87
102
}
  0
BLOCK_RECORD
  5
F1
330
1
100
AcDbSymbolTableRecord
100
AcDbBlockTableRecord
  2
block 3
340
0
102
{BLKREFS
331
F2
102
}
  0
BLOCK_RECORD
  5
FD
330
1
100
AcDbSymbolTableRecord
100
AcDbBlockTableRecord
  2
block 4
340
0
102
{BLKREFS
331
FE
102
}
  0
BLOCK_RECORD
  5
104
330
1
100
AcDbSymbolTableRecord
100
AcDbBlockTableRecord
  2
block 5
340
0
102
{BLKREFS
331
105
102
}
  0
BLOCK_RECORD
  5
10B
330
1
100
AcDbSymbolTableRecord
100
AcDbBlockTableRecord
  2
block 6
340
0
102
{BLKREFS
331
10C
102
}
  0
BLOCK_RECORD
  5
111
330
1
100
AcDbSymbolTableRecord
100
AcDbBlockTableRecord
  2
block 7
340
0
102
{BLKREFS
331
112
102
}
  0
ENDTAB
  0
ENDSEC
  0
SECTION
  2
BLOCKS
  0
BLOCK
  5
20
330
1F
100
AcDbEntity
  8
0
100
AcDbBlockBegin
  2
*Model_Space
 70
     0
 10
0.0
 20
0.0
 30
0.0
  3
*Model_Space
  1

  0
ENDBLK
  5
21
330
1F
100
AcDbEntity
  8
0
100
AcDbBlockEnd
  0
BLOCK
  5
1C
330
1B
100
AcDbEntity
 67
     1
  8
0
100
AcDbBlockBegin
  2
*Paper_Space
 70
     0
 10
0.0
 20
0.0
 30
0.0
  3
*Paper_Space
  1

  0
ENDBLK
  5
1D
330
1B
100
AcDbEntity
 67
     1
  8
0
100
AcDbBlockEnd
  0
BLOCK
  5
24
330
23
100
AcDbEntity
  8
0
100
AcDbBlockBegin
  2
*Paper_Space0
 70
     0
 10
0.0
 20
0.0
 30
0.0
  3
*Paper_Space0
  1

  0
ENDBLK
  5
25
330
23
100
AcDbEntity
  8
0
100
AcDbBlockEnd
  0
BLOCK
  5
88
330
86
100
AcDbEntity
  8
0
100
AcDbBlockBegin
  2
block 2
 70
     0
 10
0.0
 20
0.0
 30
0.0
  3
block 2
  1

  0
SPLINE
  5
8A
330
86
100
AcDbEntity
  8
ENG
370
     0
100
AcDbSpline
210
0.0
220
0.0
230
1.0
 70
    11
 71
     3
 72
    41
 73
    37
 74
     0
 42
0.0000000001
 43
0.0000000001
 12
1.0
 22
0.0
 32
0.0
 13
1.0
 23
0.0
 33
0.0
 40
0.0
 40
0.0
 40
0.0
 40
0.0
 40
1.0
 40
1.0
 40
1.0
 40
2.0
 40
2.0
 40
2.0
 40
3.0
 40
3.0
 40
3.0
 40
4.0
 40
4.0
 40
4.0
 40
5.0
 40
5.0
 40
5.0
 40
6.0
 40
6.0
 40
6.0
 40
7.0
 40
7.0
 40
7.0
 40
8.0
 40
8.0
 40
8.0
 40
9.0
 40
9.0
 40
9.0
 40
10.0
 40
10.0
 40
10.0
 40
11.0
 40
11.0
 40
11.0
 40
12.0
 40
12.0
 40
12.0
 40
12.0
 10
0.7275644938151041
 20
-2.69890394306089
 30
0.0
 10
0.7275644938151041
 20
-2.69890394306089
 30
0.0
 10
0.7712521023220485
 20
-2.69890394306089
 30
0.0
 10
0.7712521023220485
 20
-2.69890394306089
 30
0.0
 10
0.7994503445095485
 20
-2.69890394306089
 30
0.0
 10
0.8185204399956597
 20
-2.700149347863797
 30
0.0
 10
0.8284556070963541
 20
-2.702640157469583
 30
0.0
 10
0.8383975558810763
 20
-2.705130967075345
 30
0.0
 10
0.8459523518880208
 20
-2.709247721840484
 30
0.0
 10
0.851133558485243
 20
-2.714938529898139
 30
0.0
 10
0.8563079833984375
 20
-2.720646635244722
 30
0.0
 10
0.8595428466796875
 20
-2.7269947402817
 30
0.0
 10
0.8608449300130208
 20
-2.734000142297974
 30
0.0
 10
0.8621334499782985
 20
-2.741005544314248
 30
0.0
 10
0.8627844916449652
 20
-2.754756889012848
 30
0.0
 10
0.8627844916449652
 20
-2.775254176393799
 30
0.0
 10
0.8627844916449652
 20
-2.775254176393799
 30
0.0
 10
0.8627844916449652
 20
-2.851068193769909
 30
0.0
 10
0.8627844916449652
 20
-2.851068193769909
 30
0.0
 10
0.8627844916449652
 20
-2.87051034652619
 30
0.0
 10
0.8618350558810763
 20
-2.883500610511924
 30
0.0
 10
0.8599429660373263
 20
-2.89005628301604
 30
0.0
 10
0.8580440945095485
 20
-2.896611955520155
 30
0.0
 10
0.8547414143880208
 20
-2.901731953043155
 30
0.0
 10
0.8500213623046875
 20
-2.905433572873992
 30
0.0
 10
0.8453080919053819
 20
-2.909135192704803
 30
0.0
 10
0.8394826253255208
 20
-2.911712488755231
 30
0.0
 10
0.8325517442491319
 20
-2.913182758314204
 30
0.0
 10
0.8256140814887152
 20
-2.914653027873176
 30
0.0
 10
0.8151635064019097
 20
-2.91539681129714
 30
0.0
 10
0.801206800672743
 20
-2.91539681129714
 30
0.0
 10
0.801206800672743
 20
-2.91539681129714
 30
0.0
 10
0.7275644938151041
 20
-2.91539681129714
 30
0.0
 10
0.7275644938151041
 20
-2.91539681129714
 30
0.0
 10
0.7275644938151041
 20
-2.91539681129714
 30
0.0
 10
0.7275644938151041
 20
-2.69890394306089
 30
0.0
 10
0.7275644938151041
 20
-2.69890394306089
 30
0.0
  0
SPLINE
  5
8B
330
86
100
AcDbEntity
  8
ENG
370
     0
100
AcDbSpline
210
0.0
220
0.0
230
1.0
 70
    11
 71
     3
 72
    26
 73
    22
 74
     0
 42
0.0000000001
 43
0.0000000001
 12
1.0
 22
0.0
 32
0.0
 13
1.0
 23
0.0
 33
0.0
 40
0.0
 40
0.0
 40
0.0
 40
0.0
 40
1.0
 40
1.0
 40
1.0
 40
2.0
 40
2.0
 40
2.0
 40
3.0
 40
3.0
 40
3.0
 40
4.0
 40
4.0
 40
4.0
 40
5.0
 40
5.0
 40
5.0
 40
6.0
 40
6.0
 40
6.0
 40
7.0
 40
7.0
 40
7.0
 40
7.0
 10
0.785948011610243
 20
-2.735937438658033
 30
0.0
 10
0.785948011610243
 20
-2.735937438658033
 30
0.0
 10
0.785948011610243
 20
-2.878363315699997
 30
0.0
 10
0.785948011610243
 20
-2.878363315699997
 30
0.0
 10
0.7943640814887152
 20
-2.878363315699997
 30
0.0
 10
0.7995452880859375
 20
-2.87673737054067
 30
0.0
 10
0.8014848497178819
 20
-2.873468182933064
 30
0.0
 10
0.8034244113498263
 20
-2.870216292614411
 30
0.0
 10
0.8043941921657985
 20
-2.861377377971646
 30
0.0
 10
0.8043941921657985
 20
-2.846934141715868
 30
0.0
 10
0.8043941921657985
 20
-2.846934141715868
 30
0.0
 10
0.8043941921657985
 20
-2.762817425653793
 30
0.0
 10
0.8043941921657985
 20
-2.762817425653793
 30
0.0
 10
0.8043941921657985
 20
-2.753009862831024
 30
0.0
 10
0.8040686713324652
 20
-2.74673094694976
 30
0.0
 10
0.8034244113498263
 20
-2.743963380721122
 30
0.0
 10
0.8027801513671875
 20
-2.741195814492458
 30
0.0
 10
0.8012949625651041
 20
-2.739172031687758
 30
0.0
 10
0.7989891899956597
 20
-2.737874735018093
 30
0.0
 10
0.7966766357421875
 20
-2.73659473563733
 30
0.0
 10
0.7923295762803819
 20
-2.735937438658033
 30
0.0
 10
0.785948011610243
 20
-2.735937438658033
 30
0.0
  0
HATCH
  5
8C
330
86
100
AcDbEntity
  8
ENG
 62
     7
100
AcDbHatch
 10
0.0
 20
0.0
 30
0.0
210
0.0
220
0.0
230
1.0
  2
SOLID
 70
     1
 71
     0
 91
        2
 92
        1
 93
        1
 72
     4
 94
        3
 73
     0
 74
     1
 95
       41
 96
       37
 40
0.0
 40
0.0
 40
0.0
 40
0.0
 40
1.0
 40
1.0
 40
1.0
 40
2.0
 40
2.0
 40
2.0
 40
3.0
 40
3.0
 40
3.0
 40
4.0
 40
4.0
 40
4.0
 40
5.0
 40
5.0
 40
5.0
 40
6.0
 40
6.0
 40
6.0
 40
7.0
 40
7.0
 40
7.0
 40
8.0
 40
8.0
 40
8.0
 40
9.0
 40
9.0
 40
9.0
 40
10.0
 40
10.0
 40
10.0
 40
11.0
 40
11.0
 40
11.0
 40
12.0
 40
12.0
 40
12.0
 40
12.0
 10
0.7275644938151041
 20
-2.69890394306089
 10
0.7275644938151041
 20
-2.69890394306089
 10
0.7712521023220485
 20
-2.69890394306089
 10
0.7712521023220485
 20
-2.69890394306089
 10
0.7994503445095485
 20
-2.69890394306089
 10
0.8185204399956597
 20
-2.700149347863797
 10
0.8284556070963541
 20
-2.702640157469583
 10
0.8383975558810763
 20
-2.705130967075345
 10
0.8459523518880208
 20
-2.709247721840484
 10
0.851133558485243
 20
-2.714938529898139
 10
0.8563079833984375
 20
-2.720646635244722
 10
0.8595428466796875
 20
-2.7269947402817
 10
0.8608449300130208
 20
-2.734000142297974
 10
0.8621334499782985
 20
-2.741005544314248
 10
0.8627844916449652
 20
-2.754756889012848
 10
0.8627844916449652
 20
-2.775254176393799
 10
0.8627844916449652
 20
-2.775254176393799
 10
0.8627844916449652
 20
-2.851068193769909
 10
0.8627844916449652
 20
-2.851068193769909
 10
0.8627844916449652
 20
-2.87051034652619
 10
0.8618350558810763
 20
-2.883500610511924
 10
0.8599429660373263
 20
-2.89005628301604
 10
0.8580440945095485
 20
-2.896611955520155
 10
0.8547414143880208
 20
-2.901731953043155
 10
0.8500213623046875
 20
-2.905433572873992
 10
0.8453080919053819
 20
-2.909135192704803
 10
0.8394826253255208
 20
-2.911712488755231
 10
0.8325517442491319
 20
-2.913182758314204
 10
0.8256140814887152
 20
-2.914653027873176
 10
0.8151635064019097
 20
-2.91539681129714
 10
0.801206800672743
 20
-2.91539681129714
 10
0.801206800672743
 20
-2.91539681129714
 10
0.7275644938151041
 20
-2.91539681129714
 10
0.7275644938151041
 20
-2.91539681129714
 10
0.7275644938151041
 20
-2.91539681129714
 10
0.7275644938151041
 20
-2.69890394306089
 10
0.7275644938151041
 20
-2.69890394306089
 97
        0
 92
        1
 93
        1
 72
     4
 94
        3
 73
     0
 74
     1
 95
       26
 96
       22
 40
0.0
 40
0.0
 40
0.0
 40
0.0
 40
1.0
 40
1.0
 40
1.0
 40
2.0
 40
2.0
 40
2.0
 40
3.0
 40
3.0
 40
3.0
 40
4.0
 40
4.0
 40
4.0
 40
5.0
 40
5.0
 40
5.0
 40
6.0
 40
6.0
 40
6.0
 40
7.0
 40
7.0
 40
7.0
 40
7.0
 10
0.785948011610243
 20
-2.735937438658033
 10
0.785948011610243
 20
-2.735937438658033
 10
0.785948011610243
 20
-2.878363315699997
 10
0.785948011610243
 20
-2.878363315699997
 10
0.7943640814887152
 20
-2.878363315699997
 10
0.7995452880859375
 20
-2.87673737054067
 10
0.8014848497178819
 20
-2.873468182933064
 10
0.8034244113498263
 20
-2.870216292614411
 10
0.8043941921657985
 20
-2.861377377971646
 10
0.8043941921657985
 20
-2.846934141715868
 10
0.8043941921657985
 20
-2.846934141715868
 10
0.8043941921657985
 20
-2.762817425653793
 10
0.8043941921657985
 20
-2.762817425653793
 10
0.8043941921657985
 20
-2.753009862831024
 10
0.8040686713324652
 20
-2.74673094694976
 10
0.8034244113498263
 20
-2.743963380721122
 10
0.8027801513671875
 20
-2.741195814492458
 10
0.8012949625651041
 20
-2.739172031687758
 10
0.7989891899956597
 20
-2.737874735018093
 10
0.7966766357421875
 20
-2.73659473563733
 10
0.7923295762803819
 20
-2.735937438658033
 10
0.785948011610243
 20
-2.735937438658033
 97
        0
 75
     2
 76
     1
 98
        0
  0
POLYLINE
  5
8D
330
86
100
AcDbEntity
  8
ENG
370
     0
100
AcDb2dPolyline
 66
     1
 10
0.0
 20
0.0
 30
0.0
  0
VERTEX
  5
8E
330
8D
100
AcDbEntity
  8
ENG
370
     0
100
AcDbVertex
100
AcDb2dVertex
 10
0.9429439968532985
 20
-2.69890394306089
 30
0.0
  0
VERTEX
  5
8F
330
8D
100
AcDbEntity
  8
ENG
370
     0
100
AcDbVertex
100
AcDb2dVertex
 10
0.9429439968532985
 20
-2.91539681129714
 30
0.0
  0
VERTEX
  5
90
330
8D
100
AcDbEntity
  8
ENG
370
     0
100
AcDbVertex
100
AcDb2dVertex
 10
0.8845604790581597
 20
-2.91539681129714
 30
0.0
  0
VERTEX
  5
91
330
8D
100
AcDbEntity
  8
ENG
370
     0
100
AcDbVertex
100
AcDb2dVertex
 10
0.8845604790581597
 20
-2.69890394306089
 30
0.0
  0
VERTEX
  5
92
330
8D
100
AcDbEntity
  8
ENG
370
     0
100
AcDbVertex
100
AcDb2dVertex
 10
0.9429439968532985
 20
-2.69890394306089
 30
0.0
  0
SEQEND
  5
93
330
8D
100
AcDbEntity
  8
ENG
370
     0
  0
HATCH
  5
94
330
86
100
AcDbEntity
  8
ENG
 62
     7
100
AcDbHatch
 10
0.0
 20
0.0
 30
0.0
210
0.0
220
0.0
230
1.0
  2
SOLID
 70
     1
 71
     0
 91
        1
 92
        1
 93
        4
 72
     1
 10
0.9429439968532985
 20
-2.69890394306089
 11
0.9429439968532985
 21
-2.91539681129714
 72
     1
 10
0.9429439968532985
 20
-2.91539681129714
 11
0.8845604790581597
 21
-2.91539681129714
 72
     1
 10
0.8845604790581597
 20
-2.91539681129714
 11
0.8845604790581597
 21
-2.69890394306089
 72
     1
 10
0.8845604790581597
 20
-2.69890394306089
 11
0.9429439968532985
 21
-2.69890394306089
 97
        0
 75
     2
 76
     1
 98
        0
  0
SPLINE
  5
95
330
86
100
AcDbEntity
  8
ENG
370
     0
100
AcDbSpline
210
0.0
220
0.0
230
1.0
 70
    11
 71
     3
 72
    41
 73
    37
 74
     0
 42
0.0000000001
 43
0.0000000001
 12
1.0
 22
0.0
 32
0.0
 13
1.0
 23
0.0
 33
0.0
 40
0.0
 40
0.0
 40
0.0
 40
0.0
 40
1.0
 40
1.0
 40
1.0
 40
2.0
 40
2.0
 40
2.0
 40
3.0
 40
3.0
 40
3.0
 40
4.0
 40
4.0
 40
4.0
 40
5.0
 40
5.0
 40
5.0
 40
6.0
 40
6.0
 40
6.0
 40
7.0
 40
7.0
 40
7.0
 40
8.0
 40
8.0
 40
8.0
 40
9.0
 40
9.0
 40
9.0
 40
10.0
 40
10.0
 40
10.0
 40
11.0
 40
11.0
 40
11.0
 40
12.0
 40
12.0
 40
12.0
 40
12.0
 10
0.9663814968532985
 20
-2.69890394306089
 30
0.0
 10
0.9663814968532985
 20
-2.69890394306089
 30
0.0
 10
1.010069105360243
 20
-2.69890394306089
 30
0.0
 10
1.010069105360243
 20
-2.69890394306089
 30
0.0
 10
1.038267347547743
 20
-2.69890394306089
 30
0.0
 10
1.057337443033854
 20
-2.700149347863797
 30
0.0
 10
1.067272610134549
 20
-2.702640157469583
 30
0.0
 10
1.077214558919271
 20
-2.705130967075345
 30
0.0
 10
1.084769354926215
 20
-2.709247721840484
 30
0.0
 10
1.089950561523438
 20
-2.714938529898139
 30
0.0
 10
1.095124986436632
 20
-2.720646635244722
 30
0.0
 10
1.098359849717882
 20
-2.7269947402817
 30
0.0
 10
1.099661933051215
 20
-2.734000142297974
 30
0.0
 10
1.100950453016493
 20
-2.741005544314248
 30
0.0
 10
1.10160149468316
 20
-2.754756889012848
 30
0.0
 10
1.10160149468316
 20
-2.775254176393799
 30
0.0
 10
1.10160149468316
 20
-2.775254176393799
 30
0.0
 10
1.10160149468316
 20
-2.851068193769909
 30
0.0
 10
1.10160149468316
 20
-2.851068193769909
 30
0.0
 10
1.10160149468316
 20
-2.87051034652619
 30
0.0
 10
1.100652058919271
 20
-2.883500610511924
 30
0.0
 10
1.098759969075521
 20
-2.89005628301604
 30
0.0
 10
1.096861097547743
 20
-2.896611955520155
 30
0.0
 10
1.093558417426215
 20
-2.901731953043155
 30
0.0
 10
1.088838365342882
 20
-2.905433572873992
 30
0.0
 10
1.084125094943576
 20
-2.909135192704803
 30
0.0
 10
1.078299628363715
 20
-2.911712488755231
 30
0.0
 10
1.071368747287326
 20
-2.913182758314204
 30
0.0
 10
1.06443108452691
 20
-2.914653027873176
 30
0.0
 10
1.053980509440104
 20
-2.91539681129714
 30
0.0
 10
1.040023803710938
 20
-2.91539681129714
 30
0.0
 10
1.040023803710938
 20
-2.91539681129714
 30
0.0
 10
0.9663814968532985
 20
-2.91539681129714
 30
0.0
 10
0.9663814968532985
 20
-2.91539681129714
 30
0.0
 10
0.9663814968532985
 20
-2.91539681129714
 30
0.0
 10
0.9663814968532985
 20
-2.69890394306089
 30
0.0
 10
0.9663814968532985
 20
-2.69890394306089
 30
0.0
  0
SPLINE
  5
96
330
86
100
AcDbEntity
  8
ENG
370
     0
100
AcDbSpline
210
0.0
220
0.0
230
1.0
 70
    11
 71
     3
 72
    26
 73
    22
 74
     0
 42
0.0000000001
 43
0.0000000001
 12
1.0
 22
0.0
 32
0.0
 13
1.0
 23
0.0
 33
0.0
 40
0.0
 40
0.0
 40
0.0
 40
0.0
 40
1.0
 40
1.0
 40
1.0
 40
2.0
 40
2.0
 40
2.0
 40
3.0
 40
3.0
 40
3.0
 40
4.0
 40
4.0
 40
4.0
 40
5.0
 40
5.0
 40
5.0
 40
6.0
 40
6.0
 40
6.0
 40
7.0
 40
7.0
 40
7.0
 40
7.0
 10
1.024765014648438
 20
-2.735937438658033
 30
0.0
 10
1.024765014648438
 20
-2.735937438658033
 30
0.0
 10
1.024765014648438
 20
-2.878363315699997
 30
0.0
 10
1.024765014648438
 20
-2.878363315699997
 30
0.0
 10
1.03318108452691
 20
-2.878363315699997
 30
0.0
 10
1.038362291124132
 20
-2.87673737054067
 30
0.0
 10
1.040301852756076
 20
-2.873468182933064
 30
0.0
 10
1.042241414388021
 20
-2.870216292614411
 30
0.0
 10
1.043211195203993
 20
-2.861377377971646
 30
0.0
 10
1.043211195203993
 20
-2.846934141715868
 30
0.0
 10
1.043211195203993
 20
-2.846934141715868
 30
0.0
 10
1.043211195203993
 20
-2.762817425653793
 30
0.0
 10
1.043211195203993
 20
-2.762817425653793
 30
0.0
 10
1.043211195203993
 20
-2.753009862831024
 30
0.0
 10
1.04288567437066
 20
-2.74673094694976
 30
0.0
 10
1.042241414388021
 20
-2.743963380721122
 30
0.0
 10
1.041597154405382
 20
-2.741195814492458
 30
0.0
 10
1.040111965603299
 20
-2.739172031687758
 30
0.0
 10
1.037806193033854
 20
-2.737874735018093
 30
0.0
 10
1.035493638780382
 20
-2.73659473563733
 30
0.0
 10
1.031146579318576
 20
-2.735937438658033
 30
0.0
 10
1.024765014648438
 20
-2.735937438658033
 30
0.0
  0
HATCH
  5
97
330
86
100
AcDbEntity
  8
ENG
 62
     7
100
AcDbHatch
 10
0.0
 20
0.0
 30
0.0
210
0.0
220
0.0
230
1.0
  2
SOLID
 70
     1
 71
     0
 91
        2
 92
        1
 93
        1
 72
     4
 94
        3
 73
     0
 74
     1
 95
       41
 96
       37
 40
0.0
 40
0.0
 40
0.0
 40
0.0
 40
1.0
 40
1.0
 40
1.0
 40
2.0
 40
2.0
 40
2.0
 40
3.0
 40
3.0
 40
3.0
 40
4.0
 40
4.0
 40
4.0
 40
5.0
 40
5.0
 40
5.0
 40
6.0
 40
6.0
 40
6.0
 40
7.0
 40
7.0
 40
7.0
 40
8.0
 40
8.0
 40
8.0
 40
9.0
 40
9.0
 40
9.0
 40
10.0
 40
10.0
 40
10.0
 40
11.0
 40
11.0
 40
11.0
 40
12.0
 40
12.0
 40
12.0
 40
12.0
 10
0.9663814968532985
 20
-2.69890394306089
 10
0.9663814968532985
 20
-2.69890394306089
 10
1.010069105360243
 20
-2.69890394306089
 10
1.010069105360243
 20
-2.69890394306089
 10
1.038267347547743
 20
-2.69890394306089
 10
1.057337443033854
 20
-2.700149347863797
 10
1.067272610134549
 20
-2.702640157469583
 10
1.077214558919271
 20
-2.705130967075345
 10
1.084769354926215
 20
-2.709247721840484
 10
1.089950561523438
 20
-2.714938529898139
 10
1.095124986436632
 20
-2.720646635244722
 10
1.098359849717882
 20
-2.7269947402817
 10
1.099661933051215
 20
-2.734000142297974
 10
1.100950453016493
 20
-2.741005544314248
 10
1.10160149468316
 20
-2.754756889012848
 10
1.10160149468316
 20
-2.775254176393799
 10
1.10160149468316
 20
-2.775254176393799
 10
1.10160149468316
 20
-2.851068193769909
 10
1.10160149468316
 20
-2.851068193769909
 10
1.10160149468316
 20
-2.87051034652619
 10
1.100652058919271
 20
-2.883500610511924
 10
1.098759969075521
 20
-2.89005628301604
 10
1.096861097547743
 20
-2.896611955520155
 10
1.093558417426215
 20
-2.901731953043155
 10
1.088838365342882
 20
-2.905433572873992
 10
1.084125094943576
 20
-2.909135192704803
 10
1.078299628363715
 20
-2.911712488755231
 10
1.071368747287326
 20
-2.913182758314204
 10
1.06443108452691
 20
-2.914653027873176
 10
1.053980509440104
 20
-2.91539681129714
 10
1.040023803710938
 20
-2.91539681129714
 10
1.040023803710938
 20
-2.91539681129714
 10
0.9663814968532985
 20
-2.91539681129714
 10
0.9663814968532985
 20
-2.91539681129714
 10
0.9663814968532985
 20
-2.91539681129714
 10
0.9663814968532985
 20
-2.69890394306089
 10
0.9663814968532985
 20
-2.69890394306089
 97
        0
 92
        1
 93
        1
 72
     4
 94
        3
 73
     0
 74
     1
 95
       26
 96
       22
 40
0.0
 40
0.0
 40
0.0
 40
0.0
 40
1.0
 40
1.0
 40
1.0
 40
2.0
 40
2.0
 40
2.0
 40
3.0
 40
3.0
 40
3.0
 40
4.0
 40
4.0
 40
4.0
 40
5.0
 40
5.0
 40
5.0
 40
6.0
 40
6.0
 40
6.0
 40
7.0
 40
7.0
 40
7.0
 40
7.0
 10
1.024765014648438
 20
-2.735937438658033
 10
1.024765014648438
 20
-2.735937438658033
 10
1.024765014648438
 20
-2.878363315699997
 10
1.024765014648438
 20
-2.878363315699997
 10
1.03318108452691
 20
-2.878363315699997
 10
1.038362291124132
 20
-2.87673737054067
 10
1.040301852756076
 20
-2.873468182933064
 10
1.042241414388021
 20
-2.870216292614411
 10
1.043211195203993
 20
-2.861377377971646
 10
1.043211195203993
 20
-2.846934141715868
 10
1.043211195203993
 20
-2.846934141715868
 10
1.043211195203993
 20
-2.762817425653793
 10
1.043211195203993
 20
-2.762817425653793
 10
1.043211195203993
 20
-2.753009862831024
 10
1.04288567437066
 20
-2.74673094694976
 10
1.042241414388021
 20
-2.743963380721122
 10
1.041597154405382
 20
-2.741195814492458
 10
1.040111965603299
 20
-2.739172031687758
 10
1.037806193033854
 20
-2.737874735018093
 10
1.035493638780382
 20
-2.73659473563733
 10
1.031146579318576
 20
-2.735937438658033
 10
1.024765014648438
 20
-2.735937438658033
 97
        0
 75
     2
 76
     1
 98
        0
  0
POLYLINE
  5
98
330
86
100
AcDbEntity
  8
ENG
370
     0
100
AcDb2dPolyline
 66
     1
 10
0.0
 20
0.0
 30
0.0
  0
VERTEX
  5
99
330
98
100
AcDbEntity
  8
ENG
370
     0
100
AcDbVertex
100
AcDb2dVertex
 10
1.253748575846354
 20
-2.69890394306089
 30
0.0
  0
VERTEX
  5
9A
330
98
100
AcDbEntity
  8
ENG
370
     0
100
AcDbVertex
100
AcDb2dVertex
 10
1.253748575846354
 20
-2.91539681129714
 30
0.0
  0
VERTEX
  5
9B
330
98
100
AcDbEntity
  8
ENG
370
     0
100
AcDbVertex
100
AcDb2dVertex
 10
1.202573988172743
 20
-2.91539681129714
 30
0.0
  0
VERTEX
  5
9C
330
98
100
AcDbEntity
  8
ENG
370
     0
100
AcDbVertex
100
AcDb2dVertex
 10
1.172192043728298
 20
-2.816975237290712
 30
0.0
  0
VERTEX
  5
9D
330
98
100
AcDbEntity
  8
ENG
370
     0
100
AcDbVertex
100
AcDb2dVertex
 10
1.172192043728298
 20
-2.91539681129714
 30
0.0
  0
VERTEX
  5
9E
330
98
100
AcDbEntity
  8
ENG
370
     0
100
AcDbVertex
100
AcDb2dVertex
 10
1.123377482096354
 20
-2.91539681129714
 30
0.0
  0
VERTEX
  5
9F
330
98
100
AcDbEntity
  8
ENG
370
     0
100
AcDbVertex
100
AcDb2dVertex
 10
1.123377482096354
 20
-2.69890394306089
 30
0.0
  0
VERTEX
  5
A0
330
98
100
AcDbEntity
  8
ENG
370
     0
100
AcDbVertex
100
AcDb2dVertex
 10
1.172192043728298
 20
-2.69890394306089
 30
0.0
  0
VERTEX
  5
A1
330
98
100
AcDbEntity
  8
ENG
370
     0
100
AcDbVertex
100
AcDb2dVertex
 10
1.20493401421441
 20
-2.796374166176191
 30
0.0
  0
VERTEX
  5
A2
330
98
100
AcDbEntity
  8
ENG
370
     0
100
AcDbVertex
100
AcDb2dVertex
 10
1.20493401421441
 20
-2.69890394306089
 30
0.0
  0
VERTEX
  5
A3
330
98
100
AcDbEntity
  8
ENG
370
     0
100
AcDbVertex
100
AcDb2dVertex
 10
1.253748575846354
 20
-2.69890394306089
 30
0.0
  0
SEQEND
  5
A4
330
98
100
AcDbEntity
  8
ENG
370
     0
  0
HATCH
  5
A5
330
86
100
AcDbEntity
  8
ENG
 62
     7
100
AcDbHatch
 10
0.0
 20
0.0
 30
0.0
210
0.0
220
0.0
230
1.0
  2
SOLID
 70
     1
 71
     0
 91
        1
 92
        1
 93
       10
 72
     1
 10
1.253748575846354
 20
-2.69890394306089
 11
1.253748575846354
 21
-2.91539681129714
 72
     1
 10
1.253748575846354
 20
-2.91539681129714
 11
1.202573988172743
 21
-2.91539681129714
 72
     1
 10
1.202573988172743
 20
-2.91539681129714
 11
1.172192043728298
 21
-2.816975237290712
 72
     1
 10
1.172192043728298
 20
-2.816975237290712
 11
1.172192043728298
 21
-2.91539681129714
 72
     1
 10
1.172192043728298
 20
-2.91539681129714
 11
1.123377482096354
 21
-2.91539681129714
 72
     1
 10
1.123377482096354
 20
-2.91539681129714
 11
1.123377482096354
 21
-2.69890394306089
 72
     1
 10
1.123377482096354
 20
-2.69890394306089
 11
1.172192043728298
 21
-2.69890394306089
 72
     1
 10
1.172192043728298
 20
-2.69890394306089
 11
1.20493401421441
 21
-2.796374166176191
 72
     1
 10
1.20493401421441
 20
-2.796374166176191
 11
1.20493401421441
 21
-2.69890394306089
 72
     1
 10
1.20493401421441
 20
-2.69890394306089
 11
1.253748575846354
 21
-2.69890394306089
 97
        0
 75
     2
 76
     1
 98
        0
  0
SPLINE
  5
A6
330
86
100
AcDbEntity
  8
ENG
370
     0
100
AcDbSpline
210
0.0
220
0.0
230
1.0
 70
    11
 71
     3
 72
    32
 73
    28
 74
     0
 42
0.0000000001
 43
0.0000000001
 12
1.0
 22
0.0
 32
0.0
 13
1.0
 23
0.0
 33
0.0
 40
0.0
 40
0.0
 40
0.0
 40
0.0
 40
1.0
 40
1.0
 40
1.0
 40
2.0
 40
2.0
 40
2.0
 40
3.0
 40
3.0
 40
3.0
 40
4.0
 40
4.0
 40
4.0
 40
5.0
 40
5.0
 40
5.0
 40
6.0
 40
6.0
 40
6.0
 40
7.0
 40
7.0
 40
7.0
 40
8.0
 40
8.0
 40
8.0
 40
9.0
 40
9.0
 40
9.0
 40
9.0
 10
1.308110555013021
 20
-2.69890394306089
 30
0.0
 10
1.308110555013021
 20
-2.69890394306089
 30
0.0
 10
1.308110555013021
 20
-2.718294203950386
 30
0.0
 10
1.308110555013021
 20
-2.718294203950386
 30
0.0
 10
1.308110555013021
 20
-2.728361226107103
 30
0.0
 10
1.30686272515191
 20
-2.736681222081971
 30
0.0
 10
1.304367065429688
 20
-2.743219597297159
 30
0.0
 10
1.301871405707465
 20
-2.749775269801274
 30
0.0
 10
1.297558254665798
 20
-2.755310402258601
 30
0.0
 10
1.291400485568576
 20
-2.759807697380135
 30
0.0
 10
1.28525627983941
 20
-2.764304992501694
 30
0.0
 10
1.27829827202691
 20
-2.767366612642162
 30
0.0
 10
1.270526462131076
 20
-2.76897526051256
 30
0.0
 10
1.270526462131076
 20
-2.76897526051256
 30
0.0
 10
1.270526462131076
 20
-2.753321214031757
 30
0.0
 10
1.270526462131076
 20
-2.753321214031757
 30
0.0
 10
1.276073879665798
 20
-2.750380674913812
 30
0.0
 10
1.279220581054688
 20
-2.746367703882268
 30
0.0
 10
1.279966566297743
 20
-2.741282300937125
 30
0.0
 10
1.279966566297743
 20
-2.741282300937125
 30
0.0
 10
1.270526462131076
 20
-2.741282300937125
 30
0.0
 10
1.270526462131076
 20
-2.741282300937125
 30
0.0
 10
1.270526462131076
 20
-2.741282300937125
 30
0.0
 10
1.270526462131076
 20
-2.69890394306089
 30
0.0
 10
1.270526462131076
 20
-2.69890394306089
 30
0.0
 10
1.270526462131076
 20
-2.69890394306089
 30
0.0
 10
1.308110555013021
 20
-2.69890394306089
 30
0.0
 10
1.308110555013021
 20
-2.69890394306089
 30
0.0
  0
HATCH
  5
A7
330
86
100
AcDbEntity
  8
ENG
 62
     7
100
AcDbHatch
 10
0.0
 20
0.0
 30
0.0
210
0.0
220
0.0
230
1.0
  2
SOLID
 70
     1
 71
     0
 91
        1
 92
        1
 93
        1
 72
     4
 94
        3
 73
     0
 74
     1
 95
       32
 96
       28
 40
0.0
 40
0.0
 40
0.0
 40
0.0
 40
1.0
 40
1.0
 40
1.0
 40
2.0
 40
2.0
 40
2.0
 40
3.0
 40
3.0
 40
3.0
 40
4.0
 40
4.0
 40
4.0
 40
5.0
 40
5.0
 40
5.0
 40
6.0
 40
6.0
 40
6.0
 40
7.0
 40
7.0
 40
7.0
 40
8.0
 40
8.0
 40
8.0
 40
9.0
 40
9.0
 40
9.0
 40
9.0
 10
1.308110555013021
 20
-2.69890394306089
 10
1.308110555013021
 20
-2.69890394306089
 10
1.308110555013021
 20
-2.718294203950386
 10
1.308110555013021
 20
-2.718294203950386
 10
1.308110555013021
 20
-2.728361226107103
 10
1.30686272515191
 20
-2.736681222081971
 10
1.304367065429688
 20
-2.743219597297159
 10
1.301871405707465
 20
-2.749775269801274
 10
1.297558254665798
 20
-2.755310402258601
 10
1.291400485568576
 20
-2.759807697380135
 10
1.28525627983941
 20
-2.764304992501694
 10
1.27829827202691
 20
-2.767366612642162
 10
1.270526462131076
 20
-2.76897526051256
 10
1.270526462131076
 20
-2.76897526051256
 10
1.270526462131076
 20
-2.753321214031757
 10
1.270526462131076
 20
-2.753321214031757
 10
1.276073879665798
 20
-2.750380674913812
 10
1.279220581054688
 20
-2.746367703882268
 10
1.279966566297743
 20
-2.741282300937125
 10
1.279966566297743
 20
-2.741282300937125
 10
1.270526462131076
 20
-2.741282300937125
 10
1.270526462131076
 20
-2.741282300937125
 10
1.270526462131076
 20
-2.741282300937125
 10
1.270526462131076
 20
-2.69890394306089
 10
1.270526462131076
 20
-2.69890394306089
 10
1.270526462131076
 20
-2.69890394306089
 10
1.308110555013021
 20
-2.69890394306089
 10
1.308110555013021
 20
-2.69890394306089
 97
        0
 75
     2
 76
     1
 98
        0
  0
POLYLINE
  5
A8
330
86
100
AcDbEntity
  8
ENG
370
     0
100
AcDb2dPolyline
 66
     1
 10
0.0
 20
0.0
 30
0.0
  0
VERTEX
  5
A9
330
A8
100
AcDbEntity
  8
ENG
370
     0
100
AcDbVertex
100
AcDb2dVertex
 10
1.442496405707465
 20
-2.69890394306089
 30
0.0
  0
VERTEX
  5
AA
330
A8
100
AcDbEntity
  8
ENG
370
     0
100
AcDbVertex
100
AcDb2dVertex
 10
1.442496405707465
 20
-2.742216354539273
 30
0.0
  0
VERTEX
  5
AB
330
A8
100
AcDbEntity
  8
ENG
370
     0
100
AcDbVertex
100
AcDb2dVertex
 10
1.407828436957465
 20
-2.742216354539273
 30
0.0
  0
VERTEX
  5
AC
330
A8
100
AcDbEntity
  8
ENG
370
     0
100
AcDbVertex
100
AcDb2dVertex
 10
1.407828436957465
 20
-2.91539681129714
 30
0.0
  0
VERTEX
  5
AD
330
A8
100
AcDbEntity
  8
ENG
370
     0
100
AcDbVertex
100
AcDb2dVertex
 10
1.349438137478298
 20
-2.91539681129714
 30
0.0
  0
VERTEX
  5
AE
330
A8
100
AcDbEntity
  8
ENG
370
     0
100
AcDbVertex
100
AcDb2dVertex
 10
1.349438137478298
 20
-2.742216354539273
 30
0.0
  0
VERTEX
  5
AF
330
A8
100
AcDbEntity
  8
ENG
370
     0
100
AcDbVertex
100
AcDb2dVertex
 10
1.314905802408854
 20
-2.742216354539273
 30
0.0
  0
VERTEX
  5
B0
330
A8
100
AcDbEntity
  8
ENG
370
     0
100
AcDbVertex
100
AcDb2dVertex
 10
1.314905802408854
 20
-2.69890394306089
 30
0.0
  0
VERTEX
  5
B1
330
A8
100
AcDbEntity
  8
ENG
370
     0
100
AcDbVertex
100
AcDb2dVertex
 10
1.442496405707465
 20
-2.69890394306089
 30
0.0
  0
SEQEND
  5
B2
330
A8
100
AcDbEntity
  8
ENG
370
     0
  0
HATCH
  5
B3
330
86
100
AcDbEntity
  8
ENG
 62
     7
100
AcDbHatch
 10
0.0
 20
0.0
 30
0.0
210
0.0
220
0.0
230
1.0
  2
SOLID
 70
     1
 71
     0
 91
        1
 92
        1
 93
        8
 72
     1
 10
1.442496405707465
 20
-2.69890394306089
 11
1.442496405707465
 21
-2.742216354539273
 72
     1
 10
1.442496405707465
 20
-2.742216354539273
 11
1.407828436957465
 21
-2.742216354539273
 72
     1
 10
1.407828436957465
 20
-2.742216354539273
 11
1.407828436957465
 21
-2.91539681129714
 72
     1
 10
1.407828436957465
 20
-2.91539681129714
 11
1.349438137478298
 21
-2.91539681129714
 72
     1
 10
1.349438137478298
 20
-2.91539681129714
 11
1.349438137478298
 21
-2.742216354539273
 72
     1
 10
1.349438137478298
 20
-2.742216354539273
 11
1.314905802408854
 21
-2.742216354539273
 72
     1
 10
1.314905802408854
 20
-2.742216354539273
 11
1.314905802408854
 21
-2.69890394306089
 72
     1
 10
1.314905802408854
 20
-2.69890394306089
 11
1.442496405707465
 21
-2.69890394306089
 97
        0
 75
     2
 76
     1
 98
        0
  0
POLYLINE
  5
B4
330
86
100
AcDbEntity
  8
ENG
370
     0
100
AcDb2dPolyline
 66
     1
 10
0.0
 20
0.0
 30
0.0
  0
VERTEX
  5
B5
330
B4
100
AcDbEntity
  8
ENG
370
     0
100
AcDbVertex
100
AcDb2dVertex
 10
1.564281887478298
 20
-2.69890394306089
 30
0.0
  0
VERTEX
  5
B6
330
B4
100
AcDbEntity
  8
ENG
370
     0
100
AcDbVertex
100
AcDb2dVertex
 10
1.564281887478298
 20
-2.91539681129714
 30
0.0
  0
VERTEX
  5
B7
330
B4
100
AcDbEntity
  8
ENG
370
     0
100
AcDbVertex
100
AcDb2dVertex
 10
1.505891587999132
 20
-2.91539681129714
 30
0.0
  0
VERTEX
  5
B8
330
B4
100
AcDbEntity
  8
ENG
370
     0
100
AcDbVertex
100
AcDb2dVertex
 10
1.505891587999132
 20
-2.69890394306089
 30
0.0
  0
VERTEX
  5
B9
330
B4
100
AcDbEntity
  8
ENG
370
     0
100
AcDbVertex
100
AcDb2dVertex
 10
1.564281887478298
 20
-2.69890394306089
 30
0.0
  0
SEQEND
  5
BA
330
B4
100
AcDbEntity
  8
ENG
370
     0
  0
HATCH
  5
BB
330
86
100
AcDbEntity
  8
ENG
 62
     7
100
AcDbHatch
 10
0.0
 20
0.0
 30
0.0
210
0.0
220
0.0
230
1.0
  2
SOLID
 70
     1
 71
     0
 91
        1
 92
        1
 93
        4
 72
     1
 10
1.564281887478298
 20
-2.69890394306089
 11
1.564281887478298
 21
-2.91539681129714
 72
     1
 10
1.564281887478298
 20
-2.91539681129714
 11
1.505891587999132
 21
-2.91539681129714
 72
     1
 10
1.505891587999132
 20
-2.91539681129714
 11
1.505891587999132
 21
-2.69890394306089
 72
     1
 10
1.505891587999132
 20
-2.69890394306089
 11
1.564281887478298
 21
-2.69890394306089
 97
        0
 75
     2
 76
     1
 98
        0
  0
SPLINE
  5
BC
330
86
100
AcDbEntity
  8
ENG
370
     0
100
AcDbSpline
210
0.0
220
0.0
230
1.0
 70
    11
 71
     3
 72
    41
 73
    37
 74
     0
 42
0.0000000001
 43
0.0000000001
 12
1.0
 22
0.0
 32
0.0
 13
1.0
 23
0.0
 33
0.0
 40
0.0
 40
0.0
 40
0.0
 40
0.0
 40
1.0
 40
1.0
 40
1.0
 40
2.0
 40
2.0
 40
2.0
 40
3.0
 40
3.0
 40
3.0
 40
4.0
 40
4.0
 40
4.0
 40
5.0
 40
5.0
 40
5.0
 40
6.0
 40
6.0
 40
6.0
 40
7.0
 40
7.0
 40
7.0
 40
8.0
 40
8.0
 40
8.0
 40
9.0
 40
9.0
 40
9.0
 40
10.0
 40
10.0
 40
10.0
 40
11.0
 40
11.0
 40
11.0
 40
12.0
 40
12.0
 40
12.0
 40
12.0
 10
1.637781778971354
 20
-2.69890394306089
 30
0.0
 10
1.637781778971354
 20
-2.69890394306089
 30
0.0
 10
1.681469387478298
 20
-2.69890394306089
 30
0.0
 10
1.681469387478298
 20
-2.69890394306089
 30
0.0
 10
1.709667629665798
 20
-2.69890394306089
 30
0.0
 10
1.72873772515191
 20
-2.700149347863797
 30
0.0
 10
1.738679673936632
 20
-2.702640157469583
 30
0.0
 10
1.748608059353298
 20
-2.705130967075345
 30
0.0
 10
1.756176418728298
 20
-2.709247721840484
 30
0.0
 10
1.761357625325521
 20
-2.714938529898139
 30
0.0
 10
1.766525268554688
 20
-2.720646635244722
 30
0.0
 10
1.769766913519965
 20
-2.7269947402817
 30
0.0
 10
1.771055433485243
 20
-2.734000142297974
 30
0.0
 10
1.772357516818576
 20
-2.741005544314248
 30
0.0
 10
1.772994995117188
 20
-2.754756889012848
 30
0.0
 10
1.772994995117188
 20
-2.775254176393799
 30
0.0
 10
1.772994995117188
 20
-2.775254176393799
 30
0.0
 10
1.772994995117188
 20
-2.851068193769909
 30
0.0
 10
1.772994995117188
 20
-2.851068193769909
 30
0.0
 10
1.772994995117188
 20
-2.87051034652619
 30
0.0
 10
1.772045559353298
 20
-2.883500610511924
 30
0.0
 10
1.770160251193576
 20
-2.89005628301604
 30
0.0
 10
1.768261379665798
 20
-2.896611955520155
 30
0.0
 10
1.764951917860243
 20
-2.901731953043155
 30
0.0
 10
1.760245429144965
 20
-2.905433572873992
 30
0.0
 10
1.755525377061632
 20
-2.909135192704803
 30
0.0
 10
1.749706692165798
 20
-2.911712488755231
 30
0.0
 10
1.742762247721354
 20
-2.913182758314204
 30
0.0
 10
1.735831366644965
 20
-2.914653027873176
 30
0.0
 10
1.725387573242188
 20
-2.91539681129714
 30
0.0
 10
1.711417304144965
 20
-2.91539681129714
 30
0.0
 10
1.711417304144965
 20
-2.91539681129714
 30
0.0
 10
1.637781778971354
 20
-2.91539681129714
 30
0.0
 10
1.637781778971354
 20
-2.91539681129714
 30
0.0
 10
1.637781778971354
 20
-2.91539681129714
 30
0.0
 10
1.637781778971354
 20
-2.69890394306089
 30
0.0
 10
1.637781778971354
 20
-2.69890394306089
 30
0.0
  0
SPLINE
  5
BD
330
86
100
AcDbEntity
  8
ENG
370
     0
100
AcDbSpline
210
0.0
220
0.0
230
1.0
 70
    11
 71
     3
 72
    26
 73
    22
 74
     0
 42
0.0000000001
 43
0.0000000001
 12
1.0
 22
0.0
 32
0.0
 13
1.0
 23
0.0
 33
0.0
 40
0.0
 40
0.0
 40
0.0
 40
0.0
 40
1.0
 40
1.0
 40
1.0
 40
2.0
 40
2.0
 40
2.0
 40
3.0
 40
3.0
 40
3.0
 40
4.0
 40
4.0
 40
4.0
 40
5.0
 40
5.0
 40
5.0
 40
6.0
 40
6.0
 40
6.0
 40
7.0
 40
7.0
 40
7.0
 40
7.0
 10
1.696172078450521
 20
-2.735937438658033
 30
0.0
 10
1.696172078450521
 20
-2.735937438658033
 30
0.0
 10
1.696172078450521
 20
-2.878363315699997
 30
0.0
 10
1.696172078450521
 20
-2.878363315699997
 30
0.0
 10
1.704581366644965
 20
-2.878363315699997
 30
0.0
 10
1.709762573242188
 20
-2.87673737054067
 30
0.0
 10
1.711702134874132
 20
-2.873468182933064
 30
0.0
 10
1.713641696506076
 20
-2.870216292614411
 30
0.0
 10
1.714618259006076
 20
-2.861377377971646
 30
0.0
 10
1.714618259006076
 20
-2.846934141715868
 30
0.0
 10
1.714618259006076
 20
-2.846934141715868
 30
0.0
 10
1.714618259006076
 20
-2.762817425653793
 30
0.0
 10
1.714618259006076
 20
-2.762817425653793
 30
0.0
 10
1.714618259006076
 20
-2.753009862831024
 30
0.0
 10
1.714292738172743
 20
-2.74673094694976
 30
0.0
 10
1.713641696506076
 20
-2.743963380721122
 30
0.0
 10
1.71299065483941
 20
-2.741195814492458
 30
0.0
 10
1.711512247721354
 20
-2.739172031687758
 30
0.0
 10
1.70920647515191
 20
-2.737874735018093
 30
0.0
 10
1.70688713921441
 20
-2.73659473563733
 30
0.0
 10
1.702546861436632
 20
-2.735937438658033
 30
0.0
 10
1.696172078450521
 20
-2.735937438658033
 30
0.0
  0
HATCH
  5
BE
330
86
100
AcDbEntity
  8
ENG
 62
     7
100
AcDbHatch
 10
0.0
 20
0.0
 30
0.0
210
0.0
220
0.0
230
1.0
  2
SOLID
 70
     1
 71
     0
 91
        2
 92
        1
 93
        1
 72
     4
 94
        3
 73
     0
 74
     1
 95
       41
 96
       37
 40
0.0
 40
0.0
 40
0.0
 40
0.0
 40
1.0
 40
1.0
 40
1.0
 40
2.0
 40
2.0
 40
2.0
 40
3.0
 40
3.0
 40
3.0
 40
4.0
 40
4.0
 40
4.0
 40
5.0
 40
5.0
 40
5.0
 40
6.0
 40
6.0
 40
6.0
 40
7.0
 40
7.0
 40
7.0
 40
8.0
 40
8.0
 40
8.0
 40
9.0
 40
9.0
 40
9.0
 40
10.0
 40
10.0
 40
10.0
 40
11.0
 40
11.0
 40
11.0
 40
12.0
 40
12.0
 40
12.0
 40
12.0
 10
1.637781778971354
 20
-2.69890394306089
 10
1.637781778971354
 20
-2.69890394306089
 10
1.681469387478298
 20
-2.69890394306089
 10
1.681469387478298
 20
-2.69890394306089
 10
1.709667629665798
 20
-2.69890394306089
 10
1.72873772515191
 20
-2.700149347863797
 10
1.738679673936632
 20
-2.702640157469583
 10
1.748608059353298
 20
-2.705130967075345
 10
1.756176418728298
 20
-2.709247721840484
 10
1.761357625325521
 20
-2.714938529898139
 10
1.766525268554688
 20
-2.720646635244722
 10
1.769766913519965
 20
-2.7269947402817
 10
1.771055433485243
 20
-2.734000142297974
 10
1.772357516818576
 20
-2.741005544314248
 10
1.772994995117188
 20
-2.754756889012848
 10
1.772994995117188
 20
-2.775254176393799
 10
1.772994995117188
 20
-2.775254176393799
 10
1.772994995117188
 20
-2.851068193769909
 10
1.772994995117188
 20
-2.851068193769909
 10
1.772994995117188
 20
-2.87051034652619
 10
1.772045559353298
 20
-2.883500610511924
 10
1.770160251193576
 20
-2.89005628301604
 10
1.768261379665798
 20
-2.896611955520155
 10
1.764951917860243
 20
-2.901731953043155
 10
1.760245429144965
 20
-2.905433572873992
 10
1.755525377061632
 20
-2.909135192704803
 10
1.749706692165798
 20
-2.911712488755231
 10
1.742762247721354
 20
-2.913182758314204
 10
1.735831366644965
 20
-2.914653027873176
 10
1.725387573242188
 20
-2.91539681129714
 10
1.711417304144965
 20
-2.91539681129714
 10
1.711417304144965
 20
-2.91539681129714
 10
1.637781778971354
 20
-2.91539681129714
 10
1.637781778971354
 20
-2.91539681129714
 10
1.637781778971354
 20
-2.91539681129714
 10
1.637781778971354
 20
-2.69890394306089
 10
1.637781778971354
 20
-2.69890394306089
 97
        0
 92
        1
 93
        1
 72
     4
 94
        3
 73
     0
 74
     1
 95
       26
 96
       22
 40
0.0
 40
0.0
 40
0.0
 40
0.0
 40
1.0
 40
1.0
 40
1.0
 40
2.0
 40
2.0
 40
2.0
 40
3.0
 40
3.0
 40
3.0
 40
4.0
 40
4.0
 40
4.0
 40
5.0
 40
5.0
 40
5.0
 40
6.0
 40
6.0
 40
6.0
 40
7.0
 40
7.0
 40
7.0
 40
7.0
 10
1.696172078450521
 20
-2.735937438658033
 10
1.696172078450521
 20
-2.735937438658033
 10
1.696172078450521
 20
-2.878363315699997
 10
1.696172078450521
 20
-2.878363315699997
 10
1.704581366644965
 20
-2.878363315699997
 10
1.709762573242188
 20
-2.87673737054067
 10
1.711702134874132
 20
-2.873468182933064
 10
1.713641696506076
 20
-2.870216292614411
 10
1.714618259006076
 20
-2.861377377971646
 10
1.714618259006076
 20
-2.846934141715868
 10
1.714618259006076
 20
-2.846934141715868
 10
1.714618259006076
 20
-2.762817425653793
 10
1.714618259006076
 20
-2.762817425653793
 10
1.714618259006076
 20
-2.753009862831024
 10
1.714292738172743
 20
-2.74673094694976
 10
1.713641696506076
 20
-2.743963380721122
 10
1.71299065483941
 20
-2.741195814492458
 10
1.711512247721354
 20
-2.739172031687758
 10
1.70920647515191
 20
-2.737874735018093
 10
1.70688713921441
 20
-2.73659473563733
 10
1.702546861436632
 20
-2.735937438658033
 10
1.696172078450521
 20
-2.735937438658033
 97
        0
 75
     2
 76
     1
 98
        0
  0
SPLINE
  5
BF
330
86
100
AcDbEntity
  8
ENG
370
     0
100
AcDbSpline
210
0.0
220
0.0
230
1.0
 70
    11
 71
     3
 72
    59
 73
    55
 74
     0
 42
0.0000000001
 43
0.0000000001
 12
1.0
 22
0.0
 32
0.0
 13
1.0
 23
0.0
 33
0.0
 40
0.0
 40
0.0
 40
0.0
 40
0.0
 40
1.0
 40
1.0
 40
1.0
 40
2.0
 40
2.0
 40
2.0
 40
3.0
 40
3.0
 40
3.0
 40
4.0
 40
4.0
 40
4.0
 40
5.0
 40
5.0
 40
5.0
 40
6.0
 40
6.0
 40
6.0
 40
7.0
 40
7.0
 40
7.0
 40
8.0
 40
8.0
 40
8.0
 40
9.0
 40
9.0
 40
9.0
 40
10.0
 40
10.0
 40
10.0
 40
11.0
 40
11.0
 40
11.0
 40
12.0
 40
12.0
 40
12.0
 40
13.0
 40
13.0
 40
13.0
 40
14.0
 40
14.0
 40
14.0
 40
15.0
 40
15.0
 40
15.0
 40
16.0
 40
16.0
 40
16.0
 40
17.0
 40
17.0
 40
17.0
 40
18.0
 40
18.0
 40
18.0
 40
18.0
 10
1.92820061577691
 20
-2.82567577362205
 30
0.0
 10
1.92820061577691
 20
-2.847418465805883
 30
0.0
 10
1.927658081054688
 20
-2.862830350241691
 30
0.0
 10
1.926600138346354
 20
-2.871876832351593
 30
0.0
 10
1.925528632269965
 20
-2.880923314461496
 30
0.0
 10
1.922205607096354
 20
-2.889191418569579
 30
0.0
 10
1.916617499457465
 20
-2.896681144675868
 30
0.0
 10
1.911015828450521
 20
-2.904170870782157
 30
0.0
 10
1.903461032443576
 20
-2.909913570706622
 30
0.0
 10
1.893939548068576
 20
-2.913926541738167
 30
0.0
 10
1.884418063693576
 20
-2.917939512769711
 30
0.0
 10
1.873323228624132
 20
-2.919945998285483
 30
0.0
 10
1.860655042860243
 20
-2.919945998285483
 30
0.0
 10
1.848637898763021
 20
-2.919945998285483
 30
0.0
 10
1.837841457790798
 20
-2.91804329650328
 30
0.0
 10
1.828265719943576
 20
-2.914255190227803
 30
0.0
 10
1.81870354546441
 20
-2.91046708395235
 30
0.0
 10
1.810999552408854
 20
-2.904793573183623
 30
0.0
 10
1.805180867513021
 20
-2.897217360632668
 30
0.0
 10
1.799348619249132
 20
-2.889641148081738
 30
0.0
 10
1.795889960394965
 20
-2.881390341262583
 30
0.0
 10
1.79477776421441
 20
-2.872464940175178
 30
0.0
 10
1.793665568033854
 20
-2.8635568363767
 30
0.0
 10
1.793109469943576
 20
-2.847954681762682
 30
0.0
 10
1.793109469943576
 20
-2.82567577362205
 30
0.0
 10
1.793109469943576
 20
-2.82567577362205
 30
0.0
 10
1.793109469943576
 20
-2.788624980735979
 30
0.0
 10
1.793109469943576
 20
-2.788624980735979
 30
0.0
 10
1.793109469943576
 20
-2.766882288552147
 30
0.0
 10
1.793638441297743
 20
-2.751470404116339
 30
0.0
 10
1.794709947374132
 20
-2.742423922006436
 30
0.0
 10
1.795767890082465
 20
-2.733377439896533
 30
0.0
 10
1.799090915256076
 20
-2.725109335788425
 30
0.0
 10
1.804692586263021
 20
-2.717619609682136
 30
0.0
 10
1.81028069390191
 20
-2.710129883575847
 30
0.0
 10
1.81784905327691
 20
-2.704387183651407
 30
0.0
 10
1.82737053765191
 20
-2.700374212619863
 30
0.0
 10
1.83689202202691
 20
-2.696361241588319
 30
0.0
 10
1.847986857096354
 20
-2.694354756072546
 30
0.0
 10
1.860655042860243
 20
-2.694354756072546
 30
0.0
 10
1.872672186957465
 20
-2.694354756072546
 30
0.0
 10
1.883468627929688
 20
-2.696240160565821
 30
0.0
 10
1.893030802408854
 20
-2.700028266841274
 30
0.0
 10
1.902606540256076
 20
-2.703816373116751
 30
0.0
 10
1.910296969943576
 20
-2.709507181174406
 30
0.0
 10
1.916129218207465
 20
-2.717083393725336
 30
0.0
 10
1.921947903103298
 20
-2.724659606276266
 30
0.0
 10
1.925420125325521
 20
-2.732910413095447
 30
0.0
 10
1.926532321506076
 20
-2.741818516893924
 30
0.0
 10
1.927644517686632
 20
-2.750743917981304
 30
0.0
 10
1.92820061577691
 20
-2.766346072595347
 30
0.0
 10
1.92820061577691
 20
-2.788624980735979
 30
0.0
 10
1.92820061577691
 20
-2.788624980735979
 30
0.0
 10
1.92820061577691
 20
-2.82567577362205
 30
0.0
 10
1.92820061577691
 20
-2.82567577362205
 30
0.0
  0
SPLINE
  5
C0
330
86
100
AcDbEntity
  8
ENG
370
     0
100
AcDbSpline
210
0.0
220
0.0
230
1.0
 70
    11
 71
     3
 72
    35
 73
    31
 74
     0
 42
0.0000000001
 43
0.0000000001
 12
1.0
 22
0.0
 32
0.0
 13
1.0
 23
0.0
 33
0.0
 40
0.0
 40
0.0
 40
0.0
 40
0.0
 40
1.0
 40
1.0
 40
1.0
 40
2.0
 40
2.0
 40
2.0
 40
3.0
 40
3.0
 40
3.0
 40
4.0
 40
4.0
 40
4.0
 40
5.0
 40
5.0
 40
5.0
 40
6.0
 40
6.0
 40
6.0
 40
7.0
 40
7.0
 40
7.0
 40
8.0
 40
8.0
 40
8.0
 40
9.0
 40
9.0
 40
9.0
 40
10.0
 40
10.0
 40
10.0
 40
10.0
 10
1.869810316297743
 20
-2.754532024256782
 30
0.0
 10
1.869810316297743
 20
-2.744447704811137
 30
0.0
 10
1.869227091471354
 20
-2.738013113329518
 30
0.0
 10
1.868074205186632
 20
-2.735210952522998
 30
0.0
 10
1.86692131890191
 20
-2.732391494427576
 30
0.0
 10
1.864534166124132
 20
-2.730990414024316
 30
0.0
 10
1.860926310221354
 20
-2.730990414024316
 30
0.0
 10
1.857874552408854
 20
-2.730990414024316
 30
0.0
 10
1.855541653103298
 20
-2.732132035093628
 30
0.0
 10
1.853927612304688
 20
-2.734397979943348
 30
0.0
 10
1.852313571506076
 20
-2.736681222081971
 30
0.0
 10
1.851499769422743
 20
-2.743392570186466
 30
0.0
 10
1.851499769422743
 20
-2.754532024256782
 30
0.0
 10
1.851499769422743
 20
-2.754532024256782
 30
0.0
 10
1.851499769422743
 20
-2.855617380758278
 30
0.0
 10
1.851499769422743
 20
-2.855617380758278
 30
0.0
 10
1.851499769422743
 20
-2.86819250980971
 30
0.0
 10
1.85202874077691
 20
-2.875941695249922
 30
0.0
 10
1.853100246853298
 20
-2.878882234367868
 30
0.0
 10
1.854158189561632
 20
-2.881840070774741
 30
0.0
 10
1.856626722547743
 20
-2.883310340333714
 30
0.0
 10
1.860519409179688
 20
-2.883310340333714
 30
0.0
 10
1.864493476019965
 20
-2.883310340333714
 30
0.0
 10
1.867029825846354
 20
-2.881615206018649
 30
0.0
 10
1.86814202202691
 20
-2.878224937388571
 30
0.0
 10
1.869254218207465
 20
-2.874834668758467
 30
0.0
 10
1.869810316297743
 20
-2.866774132117522
 30
0.0
 10
1.869810316297743
 20
-2.854026030176783
 30
0.0
 10
1.869810316297743
 20
-2.854026030176783
 30
0.0
 10
1.869810316297743
 20
-2.754532024256782
 30
0.0
 10
1.869810316297743
 20
-2.754532024256782
 30
0.0
  0
HATCH
  5
C1
330
86
100
AcDbEntity
  8
ENG
 62
     7
100
AcDbHatch
 10
0.0
 20
0.0
 30
0.0
210
0.0
220
0.0
230
1.0
  2
SOLID
 70
     1
 71
     0
 91
        2
 92
        1
 93
        1
 72
     4
 94
        3
 73
     0
 74
     1
 95
       59
 96
       55
 40
0.0
 40
0.0
 40
0.0
 40
0.0
 40
1.0
 40
1.0
 40
1.0
 40
2.0
 40
2.0
 40
2.0
 40
3.0
 40
3.0
 40
3.0
 40
4.0
 40
4.0
 40
4.0
 40
5.0
 40
5.0
 40
5.0
 40
6.0
 40
6.0
 40
6.0
 40
7.0
 40
7.0
 40
7.0
 40
8.0
 40
8.0
 40
8.0
 40
9.0
 40
9.0
 40
9.0
 40
10.0
 40
10.0
 40
10.0
 40
11.0
 40
11.0
 40
11.0
 40
12.0
 40
12.0
 40
12.0
 40
13.0
 40
13.0
 40
13.0
 40
14.0
 40
14.0
 40
14.0
 40
15.0
 40
15.0
 40
15.0
 40
16.0
 40
16.0
 40
16.0
 40
17.0
 40
17.0
 40
17.0
 40
18.0
 40
18.0
 40
18.0
 40
18.0
 10
1.92820061577691
 20
-2.82567577362205
 10
1.92820061577691
 20
-2.847418465805883
 10
1.927658081054688
 20
-2.862830350241691
 10
1.926600138346354
 20
-2.871876832351593
 10
1.925528632269965
 20
-2.880923314461496
 10
1.922205607096354
 20
-2.889191418569579
 10
1.916617499457465
 20
-2.896681144675868
 10
1.911015828450521
 20
-2.904170870782157
 10
1.903461032443576
 20
-2.909913570706622
 10
1.893939548068576
 20
-2.913926541738167
 10
1.884418063693576
 20
-2.917939512769711
 10
1.873323228624132
 20
-2.919945998285483
 10
1.860655042860243
 20
-2.919945998285483
 10
1.848637898763021
 20
-2.919945998285483
 10
1.837841457790798
 20
-2.91804329650328
 10
1.828265719943576
 20
-2.914255190227803
 10
1.81870354546441
 20
-2.91046708395235
 10
1.810999552408854
 20
-2.904793573183623
 10
1.805180867513021
 20
-2.897217360632668
 10
1.799348619249132
 20
-2.889641148081738
 10
1.795889960394965
 20
-2.881390341262583
 10
1.79477776421441
 20
-2.872464940175178
 10
1.793665568033854
 20
-2.8635568363767
 10
1.793109469943576
 20
-2.847954681762682
 10
1.793109469943576
 20
-2.82567577362205
 10
1.793109469943576
 20
-2.82567577362205
 10
1.793109469943576
 20
-2.788624980735979
 10
1.793109469943576
 20
-2.788624980735979
 10
1.793109469943576
 20
-2.766882288552147
 10
1.793638441297743
 20
-2.751470404116339
 10
1.794709947374132
 20
-2.742423922006436
 10
1.795767890082465
 20
-2.733377439896533
 10
1.799090915256076
 20
-2.725109335788425
 10
1.804692586263021
 20
-2.717619609682136
 10
1.81028069390191
 20
-2.710129883575847
 10
1.81784905327691
 20
-2.704387183651407
 10
1.82737053765191
 20
-2.700374212619863
 10
1.83689202202691
 20
-2.696361241588319
 10
1.847986857096354
 20
-2.694354756072546
 10
1.860655042860243
 20
-2.694354756072546
 10
1.872672186957465
 20
-2.694354756072546
 10
1.883468627929688
 20
-2.696240160565821
 10
1.893030802408854
 20
-2.700028266841274
 10
1.902606540256076
 20
-2.703816373116751
 10
1.910296969943576
 20
-2.709507181174406
 10
1.916129218207465
 20
-2.717083393725336
 10
1.921947903103298
 20
-2.724659606276266
 10
1.925420125325521
 20
-2.732910413095447
 10
1.926532321506076
 20
-2.741818516893924
 10
1.927644517686632
 20
-2.750743917981304
 10
1.92820061577691
 20
-2.766346072595347
 10
1.92820061577691
 20
-2.788624980735979
 10
1.92820061577691
 20
-2.788624980735979
 10
1.92820061577691
 20
-2.82567577362205
 10
1.92820061577691
 20
-2.82567577362205
 97
        0
 92
        1
 93
        1
 72
     4
 94
        3
 73
     0
 74
     1
 95
       35
 96
       31
 40
0.0
 40
0.0
 40
0.0
 40
0.0
 40
1.0
 40
1.0
 40
1.0
 40
2.0
 40
2.0
 40
2.0
 40
3.0
 40
3.0
 40
3.0
 40
4.0
 40
4.0
 40
4.0
 40
5.0
 40
5.0
 40
5.0
 40
6.0
 40
6.0
 40
6.0
 40
7.0
 40
7.0
 40
7.0
 40
8.0
 40
8.0
 40
8.0
 40
9.0
 40
9.0
 40
9.0
 40
10.0
 40
10.0
 40
10.0
 40
10.0
 10
1.869810316297743
 20
-2.754532024256782
 10
1.869810316297743
 20
-2.744447704811137
 10
1.869227091471354
 20
-2.738013113329518
 10
1.868074205186632
 20
-2.735210952522998
 10
1.86692131890191
 20
-2.732391494427576
 10
1.864534166124132
 20
-2.730990414024316
 10
1.860926310221354
 20
-2.730990414024316
 10
1.857874552408854
 20
-2.730990414024316
 10
1.855541653103298
 20
-2.732132035093628
 10
1.853927612304688
 20
-2.734397979943348
 10
1.852313571506076
 20
-2.736681222081971
 10
1.851499769422743
 20
-2.743392570186466
 10
1.851499769422743
 20
-2.754532024256782
 10
1.851499769422743
 20
-2.754532024256782
 10
1.851499769422743
 20
-2.855617380758278
 10
1.851499769422743
 20
-2.855617380758278
 10
1.851499769422743
 20
-2.86819250980971
 10
1.85202874077691
 20
-2.875941695249922
 10
1.853100246853298
 20
-2.878882234367868
 10
1.854158189561632
 20
-2.881840070774741
 10
1.856626722547743
 20
-2.883310340333714
 10
1.860519409179688
 20
-2.883310340333714
 10
1.864493476019965
 20
-2.883310340333714
 10
1.867029825846354
 20
-2.881615206018649
 10
1.86814202202691
 20
-2.878224937388571
 10
1.869254218207465
 20
-2.874834668758467
 10
1.869810316297743
 20
-2.866774132117522
 10
1.869810316297743
 20
-2.854026030176783
 10
1.869810316297743
 20
-2.854026030176783
 10
1.869810316297743
 20
-2.754532024256782
 10
1.869810316297743
 20
-2.754532024256782
 97
        0
 75
     2
 76
     1
 98
        0
  0
POLYLINE
  5
C2
330
86
100
AcDbEntity
  8
ENG
370
     0
100
AcDb2dPolyline
 66
     1
 10
0.0
 20
0.0
 30
0.0
  0
VERTEX
  5
C3
330
C2
100
AcDbEntity
  8
ENG
370
     0
100
AcDbVertex
100
AcDb2dVertex
 10
0.7881824826956618
 20
-2.944065558550341
 30
0.0
  0
VERTEX
  5
C4
330
C2
100
AcDbEntity
  8
ENG
370
     0
100
AcDbVertex
100
AcDb2dVertex
 10
0.7881824826956618
 20
-3.16055842678659
 30
0.0
  0
VERTEX
  5
C5
330
C2
100
AcDbEntity
  8
ENG
370
     0
100
AcDbVertex
100
AcDb2dVertex
 10
0.7275644938151041
 20
-3.16055842678659
 30
0.0
  0
VERTEX
  5
C6
330
C2
100
AcDbEntity
  8
ENG
370
     0
100
AcDbVertex
100
AcDb2dVertex
 10
0.7275644938151041
 20
-2.944065558550341
 30
0.0
  0
VERTEX
  5
C7
330
C2
100
AcDbEntity
  8
ENG
370
     0
100
AcDbVertex
100
AcDb2dVertex
 10
0.7881824826956618
 20
-2.944065558550341
 30
0.0
  0
SEQEND
  5
C8
330
C2
100
AcDbEntity
  8
ENG
370
     0
  0
HATCH
  5
C9
330
86
100
AcDbEntity
  8
ENG
 62
     7
100
AcDbHatch
 10
0.0
 20
0.0
 30
0.0
210
0.0
220
0.0
230
1.0
  2
SOLID
 70
     1
 71
     0
 91
        1
 92
        1
 93
        4
 72
     1
 10
0.7881824826956618
 20
-2.944065558550341
 11
0.7881824826956618
 21
-3.16055842678659
 72
     1
 10
0.7881824826956618
 20
-3.16055842678659
 11
0.7275644938151041
 21
-3.16055842678659
 72
     1
 10
0.7275644938151041
 20
-3.16055842678659
 11
0.7275644938151041
 21
-2.944065558550341
 72
     1
 10
0.7275644938151041
 20
-2.944065558550341
 11
0.7881824826956618
 21
-2.944065558550341
 97
        0
 75
     2
 76
     1
 98
        0
  0
POLYLINE
  5
CA
330
86
100
AcDbEntity
  8
ENG
370
     0
100
AcDb2dPolyline
 66
     1
 10
0.0
 20
0.0
 30
0.0
  0
VERTEX
  5
CB
330
CA
100
AcDbEntity
  8
ENG
370
     0
100
AcDbVertex
100
AcDb2dVertex
 10
0.9346331216463947
 20
-2.944065558550341
 30
0.0
  0
VERTEX
  5
CC
330
CA
100
AcDbEntity
  8
ENG
370
     0
100
AcDbVertex
100
AcDb2dVertex
 10
0.9346331216463947
 20
-2.987377970028749
 30
0.0
  0
VERTEX
  5
CD
330
CA
100
AcDbEntity
  8
ENG
370
     0
100
AcDbVertex
100
AcDb2dVertex
 10
0.8986312890123775
 20
-2.987377970028749
 30
0.0
  0
VERTEX
  5
CE
330
CA
100
AcDbEntity
  8
ENG
370
     0
100
AcDbVertex
100
AcDb2dVertex
 10
0.8986312890123775
 20
-3.16055842678659
 30
0.0
  0
VERTEX
  5
CF
330
CA
100
AcDbEntity
  8
ENG
370
     0
100
AcDbVertex
100
AcDb2dVertex
 10
0.8380133001318073
 20
-3.16055842678659
 30
0.0
  0
VERTEX
  5
D0
330
CA
100
AcDbEntity
  8
ENG
370
     0
100
AcDbVertex
100
AcDb2dVertex
 10
0.8380133001318073
 20
-2.987377970028749
 30
0.0
  0
VERTEX
  5
D1
330
CA
100
AcDbEntity
  8
ENG
370
     0
100
AcDbVertex
100
AcDb2dVertex
 10
0.8021522921902715
 20
-2.987377970028749
 30
0.0
  0
VERTEX
  5
D2
330
CA
100
AcDbEntity
  8
ENG
370
     0
100
AcDbVertex
100
AcDb2dVertex
 10
0.8021522921902715
 20
-2.944065558550341
 30
0.0
  0
VERTEX
  5
D3
330
CA
100
AcDbEntity
  8
ENG
370
     0
100
AcDbVertex
100
AcDb2dVertex
 10
0.9346331216463947
 20
-2.944065558550341
 30
0.0
  0
SEQEND
  5
D4
330
CA
100
AcDbEntity
  8
ENG
370
     0
  0
HATCH
  5
D5
330
86
100
AcDbEntity
  8
ENG
 62
     7
100
AcDbHatch
 10
0.0
 20
0.0
 30
0.0
210
0.0
220
0.0
230
1.0
  2
SOLID
 70
     1
 71
     0
 91
        1
 92
        1
 93
        8
 72
     1
 10
0.9346331216463947
 20
-2.944065558550341
 11
0.9346331216463947
 21
-2.987377970028749
 72
     1
 10
0.9346331216463947
 20
-2.987377970028749
 11
0.8986312890123775
 21
-2.987377970028749
 72
     1
 10
0.8986312890123775
 20
-2.987377970028749
 11
0.8986312890123775
 21
-3.16055842678659
 72
     1
 10
0.8986312890123775
 20
-3.16055842678659
 11
0.8380133001318073
 21
-3.16055842678659
 72
     1
 10
0.8380133001318073
 20
-3.16055842678659
 11
0.8380133001318073
 21
-2.987377970028749
 72
     1
 10
0.8380133001318073
 20
-2.987377970028749
 11
0.8021522921902715
 21
-2.987377970028749
 72
     1
 10
0.8021522921902715
 20
-2.987377970028749
 11
0.8021522921902715
 21
-2.944065558550341
 72
     1
 10
0.8021522921902715
 20
-2.944065558550341
 11
0.9346331216463947
 21
-2.944065558550341
 97
        0
 75
     2
 76
     1
 98
        0
  0
POLYLINE
  5
D6
330
86
100
AcDbEntity
  8
ENG
370
     0
100
AcDb2dPolyline
 66
     1
 10
0.0
 20
0.0
 30
0.0
  0
VERTEX
  5
D7
330
D6
100
AcDbEntity
  8
ENG
370
     0
100
AcDbVertex
100
AcDb2dVertex
 10
1.000433459210436
 20
-2.944065558550341
 30
0.0
  0
VERTEX
  5
D8
330
D6
100
AcDbEntity
  8
ENG
370
     0
100
AcDbVertex
100
AcDb2dVertex
 10
1.103101701267305
 20
-2.944065558550341
 30
0.0
  0
VERTEX
  5
D9
330
D6
100
AcDbEntity
  8
ENG
370
     0
100
AcDbVertex
100
AcDb2dVertex
 10
1.103101701267305
 20
-2.987377970028749
 30
0.0
  0
VERTEX
  5
DA
330
D6
100
AcDbEntity
  8
ENG
370
     0
100
AcDbVertex
100
AcDb2dVertex
 10
1.061051448091007
 20
-2.987377970028749
 30
0.0
  0
VERTEX
  5
DB
330
D6
100
AcDbEntity
  8
ENG
370
     0
100
AcDbVertex
100
AcDb2dVertex
 10
1.061051448091007
 20
-3.028441733946364
 30
0.0
  0
VERTEX
  5
DC
330
D6
100
AcDbEntity
  8
ENG
370
     0
100
AcDbVertex
100
AcDb2dVertex
 10
1.098489692588373
 20
-3.028441733946364
 30
0.0
  0
VERTEX
  5
DD
330
D6
100
AcDbEntity
  8
ENG
370
     0
100
AcDbVertex
100
AcDb2dVertex
 10
1.098489692588373
 20
-3.069626578886477
 30
0.0
  0
VERTEX
  5
DE
330
D6
100
AcDbEntity
  8
ENG
370
     0
100
AcDbVertex
100
AcDb2dVertex
 10
1.061051448091007
 20
-3.069626578886477
 30
0.0
  0
VERTEX
  5
DF
330
D6
100
AcDbEntity
  8
ENG
370
     0
100
AcDbVertex
100
AcDb2dVertex
 10
1.061051448091007
 20
-3.16055842678659
 30
0.0
  0
VERTEX
  5
E0
330
D6
100
AcDbEntity
  8
ENG
370
     0
100
AcDbVertex
100
AcDb2dVertex
 10
1.000433459210436
 20
-3.16055842678659
 30
0.0
  0
VERTEX
  5
E1
330
D6
100
AcDbEntity
  8
ENG
370
     0
100
AcDbVertex
100
AcDb2dVertex
 10
1.000433459210436
 20
-2.944065558550341
 30
0.0
  0
SEQEND
  5
E2
330
D6
100
AcDbEntity
  8
ENG
370
     0
  0
HATCH
  5
E3
330
86
100
AcDbEntity
  8
ENG
 62
     7
100
AcDbHatch
 10
0.0
 20
0.0
 30
0.0
210
0.0
220
0.0
230
1.0
  2
SOLID
 70
     1
 71
     0
 91
        1
 92
        1
 93
       10
 72
     1
 10
1.000433459210436
 20
-2.944065558550341
 11
1.103101701267305
 21
-2.944065558550341
 72
     1
 10
1.103101701267305
 20
-2.944065558550341
 11
1.103101701267305
 21
-2.987377970028749
 72
     1
 10
1.103101701267305
 20
-2.987377970028749
 11
1.061051448091007
 21
-2.987377970028749
 72
     1
 10
1.061051448091007
 20
-2.987377970028749
 11
1.061051448091007
 21
-3.028441733946364
 72
     1
 10
1.061051448091007
 20
-3.028441733946364
 11
1.098489692588373
 21
-3.028441733946364
 72
     1
 10
1.098489692588373
 20
-3.028441733946364
 11
1.098489692588373
 21
-3.069626578886477
 72
     1
 10
1.098489692588373
 20
-3.069626578886477
 11
1.061051448091007
 21
-3.069626578886477
 72
     1
 10
1.061051448091007
 20
-3.069626578886477
 11
1.061051448091007
 21
-3.16055842678659
 72
     1
 10
1.061051448091007
 20
-3.16055842678659
 11
1.000433459210436
 21
-3.16055842678659
 72
     1
 10
1.000433459210436
 20
-3.16055842678659
 11
1.000433459210436
 21
-2.944065558550341
 97
        0
 75
     2
 76
     1
 98
        0
  0
SPLINE
  5
E4
330
86
100
AcDbEntity
  8
ENG
370
     0
100
AcDbSpline
210
0.0
220
0.0
230
1.0
 70
    11
 71
     3
 72
    59
 73
    55
 74
     0
 42
0.0000000001
 43
0.0000000001
 12
1.0
 22
0.0
 32
0.0
 13
1.0
 23
0.0
 33
0.0
 40
0.0
 40
0.0
 40
0.0
 40
0.0
 40
1.0
 40
1.0
 40
1.0
 40
2.0
 40
2.0
 40
2.0
 40
3.0
 40
3.0
 40
3.0
 40
4.0
 40
4.0
 40
4.0
 40
5.0
 40
5.0
 40
5.0
 40
6.0
 40
6.0
 40
6.0
 40
7.0
 40
7.0
 40
7.0
 40
8.0
 40
8.0
 40
8.0
 40
9.0
 40
9.0
 40
9.0
 40
10.0
 40
10.0
 40
10.0
 40
11.0
 40
11.0
 40
11.0
 40
12.0
 40
12.0
 40
12.0
 40
13.0
 40
13.0
 40
13.0
 40
14.0
 40
14.0
 40
14.0
 40
15.0
 40
15.0
 40
15.0
 40
16.0
 40
16.0
 40
16.0
 40
17.0
 40
17.0
 40
17.0
 40
18.0
 40
18.0
 40
18.0
 40
18.0
 10
1.256311925457339
 20
-3.070837389111501
 30
0.0
 10
1.256311925457339
 20
-3.092580081295333
 30
0.0
 10
1.255762709156645
 20
-3.107991965731142
 30
0.0
 10
1.254664276555256
 20
-3.117038447841044
 30
0.0
 10
1.253551761484636
 20
-3.126084929950947
 30
0.0
 10
1.250101556518732
 20
-3.134353034059056
 30
0.0
 10
1.244285496719057
 20
-3.141842760165344
 30
0.0
 10
1.238483519388637
 20
-3.149332486271633
 30
0.0
 10
1.230639584017177
 20
-3.155075186196073
 30
0.0
 10
1.220753690604649
 20
-3.159088157227618
 30
0.0
 10
1.210853714722892
 20
-3.163101128259162
 30
0.0
 10
1.199334254877562
 20
-3.165107613774934
 30
0.0
 10
1.186195311068609
 20
-3.165107613774934
 30
0.0
 10
1.173704160845116
 20
-3.165107613774934
 30
0.0
 10
1.16250155655785
 20
-3.163204911992731
 30
0.0
 10
1.152566374502991
 20
-3.159416805717278
 30
0.0
 10
1.142631192448082
 20
-3.155628699441801
 30
0.0
 10
1.134639391149525
 20
-3.149955188673074
 30
0.0
 10
1.128590970607244
 20
-3.142378976122144
 30
0.0
 10
1.122542550064989
 20
-3.134802763571214
 30
0.0
 10
1.118937437937348
 20
-3.126551956752034
 30
0.0
 10
1.117789716693576
 20
-3.117626555664629
 30
0.0
 10
1.116634954215189
 20
-3.108718451866177
 30
0.0
 10
1.116057572976009
 20
-3.093116297252133
 30
0.0
 10
1.116057572976009
 20
-3.070837389111501
 30
0.0
 10
1.116057572976009
 20
-3.070837389111501
 30
0.0
 10
1.116057572976009
 20
-3.03378659622543
 30
0.0
 10
1.116057572976009
 20
-3.03378659622543
 30
0.0
 10
1.116057572976009
 20
-3.012043904041598
 30
0.0
 10
1.116613830511318
 20
-2.99663201960579
 30
0.0
 10
1.117719304347348
 20
-2.987585537495887
 30
0.0
 10
1.118817736948737
 20
-2.978539055385984
 30
0.0
 10
1.122274983149257
 20
-2.970270951277901
 30
0.0
 10
1.128084001714291
 20
-2.962781225171612
 30
0.0
 10
1.133893020279326
 20
-2.955291499065323
 30
0.0
 10
1.141736955650812
 20
-2.949548799140858
 30
0.0
 10
1.151629890297954
 20
-2.945535828109314
 30
0.0
 10
1.161515783710456
 20
-2.94152285707777
 30
0.0
 10
1.173042284790426
 20
-2.939516371561997
 30
0.0
 10
1.186195311068609
 20
-2.939516371561997
 30
0.0
 10
1.198672378822872
 20
-2.939516371561997
 30
0.0
 10
1.209882024344754
 20
-2.941401776055272
 30
0.0
 10
1.219810165164997
 20
-2.94518988233075
 30
0.0
 10
1.229752388454497
 20
-2.948977988606202
 30
0.0
 10
1.237737148518464
 20
-2.954668796663857
 30
0.0
 10
1.24379261029536
 20
-2.962245009214813
 30
0.0
 10
1.249833989603
 20
-2.969821221765743
 30
0.0
 10
1.253439101730641
 20
-2.978072028584898
 30
0.0
 10
1.254593864209028
 20
-2.986980132383375
 30
0.0
 10
1.255734544218159
 20
-2.99590553347078
 30
0.0
 10
1.256311925457339
 20
-3.011507688084798
 30
0.0
 10
1.256311925457339
 20
-3.03378659622543
 30
0.0
 10
1.256311925457339
 20
-3.03378659622543
 30
0.0
 10
1.256311925457339
 20
-3.070837389111501
 30
0.0
 10
1.256311925457339
 20
-3.070837389111501
 30
0.0
  0
SPLINE
  5
E5
330
86
100
AcDbEntity
  8
ENG
370
     0
100
AcDbSpline
210
0.0
220
0.0
230
1.0
 70
    11
 71
     3
 72
    35
 73
    31
 74
     0
 42
0.0000000001
 43
0.0000000001
 12
1.0
 22
0.0
 32
0.0
 13
1.0
 23
0.0
 33
0.0
 40
0.0
 40
0.0
 40
0.0
 40
0.0
 40
1.0
 40
1.0
 40
1.0
 40
2.0
 40
2.0
 40
2.0
 40
3.0
 40
3.0
 40
3.0
 40
4.0
 40
4.0
 40
4.0
 40
5.0
 40
5.0
 40
5.0
 40
6.0
 40
6.0
 40
6.0
 40
7.0
 40
7.0
 40
7.0
 40
8.0
 40
8.0
 40
8.0
 40
9.0
 40
9.0
 40
9.0
 40
10.0
 40
10.0
 40
10.0
 40
10.0
 10
1.195686895342154
 20
-2.999693639746233
 30
0.0
 10
1.195686895342154
 20
-2.989609320300588
 30
0.0
 10
1.195095431633717
 20
-2.983174728818969
 30
0.0
 10
1.193898421747589
 20
-2.980372568012474
 30
0.0
 10
1.192687329392205
 20
-2.977553109917026
 30
0.0
 10
1.19022289727372
 20
-2.976152029513767
 30
0.0
 10
1.186476960453597
 20
-2.976152029513767
 30
0.0
 10
1.183308404872655
 20
-2.976152029513767
 30
0.0
 10
1.180886220161887
 20
-2.977293650583104
 30
0.0
 10
1.179210406321317
 20
-2.979559595432799
 30
0.0
 10
1.177520510011492
 20
-2.981842837571447
 30
0.0
 10
1.176689644325809
 20
-2.988554185675917
 30
0.0
 10
1.176689644325809
 20
-2.999693639746233
 30
0.0
 10
1.176689644325809
 20
-2.999693639746233
 30
0.0
 10
1.176689644325809
 20
-3.100778996247729
 30
0.0
 10
1.176689644325809
 20
-3.100778996247729
 30
0.0
 10
1.176689644325809
 20
-3.113354125299161
 30
0.0
 10
1.177238860626504
 20
-3.121103310739373
 30
0.0
 10
1.178337293227893
 20
-3.124043849857319
 30
0.0
 10
1.179449808298538
 20
-3.127001686264192
 30
0.0
 10
1.182012817701788
 20
-3.128471955823165
 30
0.0
 10
1.186040403906873
 20
-3.128471955823165
 30
0.0
 10
1.190166567396722
 20
-3.128471955823165
 30
0.0
 10
1.192814071615455
 20
-3.126776821508126
 30
0.0
 10
1.193968834093842
 20
-3.123386552878022
 30
0.0
 10
1.195123596572229
 20
-3.119996284247918
 30
0.0
 10
1.195686895342154
 20
-3.111935747606973
 30
0.0
 10
1.195686895342154
 20
-3.099187645666259
 30
0.0
 10
1.195686895342154
 20
-3.099187645666259
 30
0.0
 10
1.195686895342154
 20
-2.999693639746233
 30
0.0
 10
1.195686895342154
 20
-2.999693639746233
 30
0.0
  0
HATCH
  5
E6
330
86
100
AcDbEntity
  8
ENG
 62
     7
100
AcDbHatch
 10
0.0
 20
0.0
 30
0.0
210
0.0
220
0.0
230
1.0
  2
SOLID
 70
     1
 71
     0
 91
        2
 92
        1
 93
        1
 72
     4
 94
        3
 73
     0
 74
     1
 95
       59
 96
       55
 40
0.0
 40
0.0
 40
0.0
 40
0.0
 40
1.0
 40
1.0
 40
1.0
 40
2.0
 40
2.0
 40
2.0
 40
3.0
 40
3.0
 40
3.0
 40
4.0
 40
4.0
 40
4.0
 40
5.0
 40
5.0
 40
5.0
 40
6.0
 40
6.0
 40
6.0
 40
7.0
 40
7.0
 40
7.0
 40
8.0
 40
8.0
 40
8.0
 40
9.0
 40
9.0
 40
9.0
 40
10.0
 40
10.0
 40
10.0
 40
11.0
 40
11.0
 40
11.0
 40
12.0
 40
12.0
 40
12.0
 40
13.0
 40
13.0
 40
13.0
 40
14.0
 40
14.0
 40
14.0
 40
15.0
 40
15.0
 40
15.0
 40
16.0
 40
16.0
 40
16.0
 40
17.0
 40
17.0
 40
17.0
 40
18.0
 40
18.0
 40
18.0
 40
18.0
 10
1.256311925457339
 20
-3.070837389111501
 10
1.256311925457339
 20
-3.092580081295333
 10
1.255762709156645
 20
-3.107991965731142
 10
1.254664276555256
 20
-3.117038447841044
 10
1.253551761484636
 20
-3.126084929950947
 10
1.250101556518732
 20
-3.134353034059056
 10
1.244285496719057
 20
-3.141842760165344
 10
1.238483519388637
 20
-3.149332486271633
 10
1.230639584017177
 20
-3.155075186196073
 10
1.220753690604649
 20
-3.159088157227618
 10
1.210853714722892
 20
-3.163101128259162
 10
1.199334254877562
 20
-3.165107613774934
 10
1.186195311068609
 20
-3.165107613774934
 10
1.173704160845116
 20
-3.165107613774934
 10
1.16250155655785
 20
-3.163204911992731
 10
1.152566374502991
 20
-3.159416805717278
 10
1.142631192448082
 20
-3.155628699441801
 10
1.134639391149525
 20
-3.149955188673074
 10
1.128590970607244
 20
-3.142378976122144
 10
1.122542550064989
 20
-3.134802763571214
 10
1.118937437937348
 20
-3.126551956752034
 10
1.117789716693576
 20
-3.117626555664629
 10
1.116634954215189
 20
-3.108718451866177
 10
1.116057572976009
 20
-3.093116297252133
 10
1.116057572976009
 20
-3.070837389111501
 10
1.116057572976009
 20
-3.070837389111501
 10
1.116057572976009
 20
-3.03378659622543
 10
1.116057572976009
 20
-3.03378659622543
 10
1.116057572976009
 20
-3.012043904041598
 10
1.116613830511318
 20
-2.99663201960579
 10
1.117719304347348
 20
-2.987585537495887
 10
1.118817736948737
 20
-2.978539055385984
 10
1.122274983149257
 20
-2.970270951277901
 10
1.128084001714291
 20
-2.962781225171612
 10
1.133893020279326
 20
-2.955291499065323
 10
1.141736955650812
 20
-2.949548799140858
 10
1.151629890297954
 20
-2.945535828109314
 10
1.161515783710456
 20
-2.94152285707777
 10
1.173042284790426
 20
-2.939516371561997
 10
1.186195311068609
 20
-2.939516371561997
 10
1.198672378822872
 20
-2.939516371561997
 10
1.209882024344754
 20
-2.941401776055272
 10
1.219810165164997
 20
-2.94518988233075
 10
1.229752388454497
 20
-2.948977988606202
 10
1.237737148518464
 20
-2.954668796663857
 10
1.24379261029536
 20
-2.962245009214813
 10
1.249833989603
 20
-2.969821221765743
 10
1.253439101730641
 20
-2.978072028584898
 10
1.254593864209028
 20
-2.986980132383375
 10
1.255734544218159
 20
-2.99590553347078
 10
1.256311925457339
 20
-3.011507688084798
 10
1.256311925457339
 20
-3.03378659622543
 10
1.256311925457339
 20
-3.03378659622543
 10
1.256311925457339
 20
-3.070837389111501
 10
1.256311925457339
 20
-3.070837389111501
 97
        0
 92
        1
 93
        1
 72
     4
 94
        3
 73
     0
 74
     1
 95
       35
 96
       31
 40
0.0
 40
0.0
 40
0.0
 40
0.0
 40
1.0
 40
1.0
 40
1.0
 40
2.0
 40
2.0
 40
2.0
 40
3.0
 40
3.0
 40
3.0
 40
4.0
 40
4.0
 40
4.0
 40
5.0
 40
5.0
 40
5.0
 40
6.0
 40
6.0
 40
6.0
 40
7.0
 40
7.0
 40
7.0
 40
8.0
 40
8.0
 40
8.0
 40
9.0
 40
9.0
 40
9.0
 40
10.0
 40
10.0
 40
10.0
 40
10.0
 10
1.195686895342154
 20
-2.999693639746233
 10
1.195686895342154
 20
-2.989609320300588
 10
1.195095431633717
 20
-2.983174728818969
 10
1.193898421747589
 20
-2.980372568012474
 10
1.192687329392205
 20
-2.977553109917026
 10
1.19022289727372
 20
-2.976152029513767
 10
1.186476960453597
 20
-2.976152029513767
 10
1.183308404872655
 20
-2.976152029513767
 10
1.180886220161887
 20
-2.977293650583104
 10
1.179210406321317
 20
-2.979559595432799
 10
1.177520510011492
 20
-2.981842837571447
 10
1.176689644325809
 20
-2.988554185675917
 10
1.176689644325809
 20
-2.999693639746233
 10
1.176689644325809
 20
-2.999693639746233
 10
1.176689644325809
 20
-3.100778996247729
 10
1.176689644325809
 20
-3.100778996247729
 10
1.176689644325809
 20
-3.113354125299161
 10
1.177238860626504
 20
-3.121103310739373
 10
1.178337293227893
 20
-3.124043849857319
 10
1.179449808298538
 20
-3.127001686264192
 10
1.182012817701788
 20
-3.128471955823165
 10
1.186040403906873
 20
-3.128471955823165
 10
1.190166567396722
 20
-3.128471955823165
 10
1.192814071615455
 20
-3.126776821508126
 10
1.193968834093842
 20
-3.123386552878022
 10
1.195123596572229
 20
-3.119996284247918
 10
1.195686895342154
 20
-3.111935747606973
 10
1.195686895342154
 20
-3.099187645666259
 10
1.195686895342154
 20
-3.099187645666259
 10
1.195686895342154
 20
-2.999693639746233
 10
1.195686895342154
 20
-2.999693639746233
 97
        0
 75
     2
 76
     1
 98
        0
  0
SPLINE
  5
E7
330
86
100
AcDbEntity
  8
ENG
370
     0
100
AcDbSpline
210
0.0
220
0.0
230
1.0
 70
    11
 71
     3
 72
    56
 73
    52
 74
     0
 42
0.0000000001
 43
0.0000000001
 12
1.0
 22
0.0
 32
0.0
 13
1.0
 23
0.0
 33
0.0
 40
0.0
 40
0.0
 40
0.0
 40
0.0
 40
1.0
 40
1.0
 40
1.0
 40
2.0
 40
2.0
 40
2.0
 40
3.0
 40
3.0
 40
3.0
 40
4.0
 40
4.0
 40
4.0
 40
5.0
 40
5.0
 40
5.0
 40
6.0
 40
6.0
 40
6.0
 40
7.0
 40
7.0
 40
7.0
 40
8.0
 40
8.0
 40
8.0
 40
9.0
 40
9.0
 40
9.0
 40
10.0
 40
10.0
 40
10.0
 40
11.0
 40
11.0
 40
11.0
 40
12.0
 40
12.0
 40
12.0
 40
13.0
 40
13.0
 40
13.0
 40
14.0
 40
14.0
 40
14.0
 40
15.0
 40
15.0
 40
15.0
 40
16.0
 40
16.0
 40
16.0
 40
17.0
 40
17.0
 40
17.0
 40
17.0
 10
1.278928371070581
 20
-2.944065558550341
 30
0.0
 10
1.278928371070581
 20
-2.944065558550341
 30
0.0
 10
1.321837654871059
 20
-2.944065558550341
 30
0.0
 10
1.321837654871059
 20
-2.944065558550341
 30
0.0
 10
1.350439149914943
 20
-2.944065558550341
 30
0.0
 10
1.369802545131759
 20
-2.945086098597156
 30
0.0
 10
1.379941922990737
 20
-2.947127178690784
 30
0.0
 10
1.390067218380485
 20
-2.949185556073341
 30
0.0
 10
1.398319545360159
 20
-2.954426634618863
 30
0.0
 10
1.404698903929759
 20
-2.962850414327325
 30
0.0
 10
1.411092344968615
 20
-2.971274194035787
 30
0.0
 10
1.414274983018812
 20
-2.984714187533655
 30
0.0
 10
1.414274983018812
 20
-3.003170394820977
 30
0.0
 10
1.414274983018812
 20
-3.020017954237902
 30
0.0
 10
1.412021787939036
 20
-3.031330381197499
 30
0.0
 10
1.407515397779485
 20
-3.03712497298875
 30
0.0
 10
1.402994925150678
 20
-3.042919564779974
 30
0.0
 10
1.394122969524081
 20
-3.046396319854719
 30
0.0
 10
1.380871365961133
 20
-3.047555238212984
 30
0.0
 10
1.392869629760955
 20
-3.050322804441622
 30
0.0
 10
1.400938884640381
 20
-3.054024424272459
 30
0.0
 10
1.40506504813023
 20
-3.058660097705443
 30
0.0
 10
1.409191211620055
 20
-3.063295771138428
 30
0.0
 10
1.411754221023304
 20
-3.067550904214992
 30
0.0
 10
1.41276815880921
 20
-3.071425496935085
 30
0.0
 10
1.413782096595115
 20
-3.075317386944132
 30
0.0
 10
1.414274983018812
 20
-3.085989814213361
 30
0.0
 10
1.414274983018812
 20
-3.103460076031726
 30
0.0
 10
1.414274983018812
 20
-3.103460076031726
 30
0.0
 10
1.414274983018812
 20
-3.16055842678659
 30
0.0
 10
1.414274983018812
 20
-3.16055842678659
 30
0.0
 10
1.414274983018812
 20
-3.16055842678659
 30
0.0
 10
1.35797327096293
 20
-3.16055842678659
 30
0.0
 10
1.35797327096293
 20
-3.16055842678659
 30
0.0
 10
1.35797327096293
 20
-3.16055842678659
 30
0.0
 10
1.35797327096293
 20
-3.088619002130599
 30
0.0
 10
1.35797327096293
 20
-3.088619002130599
 30
0.0
 10
1.35797327096293
 20
-3.0770298185481
 30
0.0
 10
1.356987498115536
 20
-3.069851443642543
 30
0.0
 10
1.355030034889978
 20
-3.067083877413905
 30
0.0
 10
1.353058489195165
 20
-3.064316311185242
 30
0.0
 10
1.347904305450179
 20
-3.06293252807091
 30
0.0
 10
1.339539318716536
 20
-3.06293252807091
 30
0.0
 10
1.339539318716536
 20
-3.06293252807091
 30
0.0
 10
1.339539318716536
 20
-3.16055842678659
 30
0.0
 10
1.339539318716536
 20
-3.16055842678659
 30
0.0
 10
1.339539318716536
 20
-3.16055842678659
 30
0.0
 10
1.278928371070581
 20
-3.16055842678659
 30
0.0
 10
1.278928371070581
 20
-3.16055842678659
 30
0.0
 10
1.278928371070581
 20
-3.16055842678659
 30
0.0
 10
1.278928371070581
 20
-2.944065558550341
 30
0.0
 10
1.278928371070581
 20
-2.944065558550341
 30
0.0
  0
SPLINE
  5
E8
330
86
100
AcDbEntity
  8
ENG
370
     0
100
AcDbSpline
210
0.0
220
0.0
230
1.0
 70
    11
 71
     3
 72
    23
 73
    19
 74
     0
 42
0.0000000001
 43
0.0000000001
 12
1.0
 22
0.0
 32
0.0
 13
1.0
 23
0.0
 33
0.0
 40
0.0
 40
0.0
 40
0.0
 40
0.0
 40
1.0
 40
1.0
 40
1.0
 40
2.0
 40
2.0
 40
2.0
 40
3.0
 40
3.0
 40
3.0
 40
4.0
 40
4.0
 40
4.0
 40
5.0
 40
5.0
 40
5.0
 40
6.0
 40
6.0
 40
6.0
 40
6.0
 10
1.339539318716536
 20
-2.981099054147484
 30
0.0
 10
1.339539318716536
 20
-2.981099054147484
 30
0.0
 10
1.339539318716536
 20
-3.029237409237087
 30
0.0
 10
1.339539318716536
 20
-3.029237409237087
 30
0.0
 10
1.346355233832835
 20
-3.029237409237087
 30
0.0
 10
1.351143273377374
 20
-3.028372544790626
 30
0.0
 10
1.353875272411591
 20
-3.026625518608802
 30
0.0
 10
1.356607271445834
 20
-3.024895789715881
 30
0.0
 10
1.35797327096293
 20
-3.01925687352501
 30
0.0
 10
1.35797327096293
 20
-3.009726067325093
 30
0.0
 10
1.35797327096293
 20
-3.009726067325093
 30
0.0
 10
1.35797327096293
 20
-2.997808235252958
 30
0.0
 10
1.35797327096293
 20
-2.997808235252958
 30
0.0
 10
1.35797327096293
 20
-2.990958508837063
 30
0.0
 10
1.356649518853576
 20
-2.986443916426575
 30
0.0
 10
1.354016097104073
 20
-2.984316349888306
 30
0.0
 10
1.351382675354595
 20
-2.982171486061083
 30
0.0
 10
1.346552388402339
 20
-2.981099054147484
 30
0.0
 10
1.339539318716536
 20
-2.981099054147484
 30
0.0
  0
HATCH
  5
E9
330
86
100
AcDbEntity
  8
ENG
 62
     7
100
AcDbHatch
 10
0.0
 20
0.0
 30
0.0
210
0.0
220
0.0
230
1.0
  2
SOLID
 70
     1
 71
     0
 91
        2
 92
        1
 93
        1
 72
     4
 94
        3
 73
     0
 74
     1
 95
       56
 96
       52
 40
0.0
 40
0.0
 40
0.0
 40
0.0
 40
1.0
 40
1.0
 40
1.0
 40
2.0
 40
2.0
 40
2.0
 40
3.0
 40
3.0
 40
3.0
 40
4.0
 40
4.0
 40
4.0
 40
5.0
 40
5.0
 40
5.0
 40
6.0
 40
6.0
 40
6.0
 40
7.0
 40
7.0
 40
7.0
 40
8.0
 40
8.0
 40
8.0
 40
9.0
 40
9.0
 40
9.0
 40
10.0
 40
10.0
 40
10.0
 40
11.0
 40
11.0
 40
11.0
 40
12.0
 40
12.0
 40
12.0
 40
13.0
 40
13.0
 40
13.0
 40
14.0
 40
14.0
 40
14.0
 40
15.0
 40
15.0
 40
15.0
 40
16.0
 40
16.0
 40
16.0
 40
17.0
 40
17.0
 40
17.0
 40
17.0
 10
1.278928371070581
 20
-2.944065558550341
 10
1.278928371070581
 20
-2.944065558550341
 10
1.321837654871059
 20
-2.944065558550341
 10
1.321837654871059
 20
-2.944065558550341
 10
1.350439149914943
 20
-2.944065558550341
 10
1.369802545131759
 20
-2.945086098597156
 10
1.379941922990737
 20
-2.947127178690784
 10
1.390067218380485
 20
-2.949185556073341
 10
1.398319545360159
 20
-2.954426634618863
 10
1.404698903929759
 20
-2.962850414327325
 10
1.411092344968615
 20
-2.971274194035787
 10
1.414274983018812
 20
-2.984714187533655
 10
1.414274983018812
 20
-3.003170394820977
 10
1.414274983018812
 20
-3.020017954237902
 10
1.412021787939036
 20
-3.031330381197499
 10
1.407515397779485
 20
-3.03712497298875
 10
1.402994925150678
 20
-3.042919564779974
 10
1.394122969524081
 20
-3.046396319854719
 10
1.380871365961133
 20
-3.047555238212984
 10
1.392869629760955
 20
-3.050322804441622
 10
1.400938884640381
 20
-3.054024424272459
 10
1.40506504813023
 20
-3.058660097705443
 10
1.409191211620055
 20
-3.063295771138428
 10
1.411754221023304
 20
-3.067550904214992
 10
1.41276815880921
 20
-3.071425496935085
 10
1.413782096595115
 20
-3.075317386944132
 10
1.414274983018812
 20
-3.085989814213361
 10
1.414274983018812
 20
-3.103460076031726
 10
1.414274983018812
 20
-3.103460076031726
 10
1.414274983018812
 20
-3.16055842678659
 10
1.414274983018812
 20
-3.16055842678659
 10
1.414274983018812
 20
-3.16055842678659
 10
1.35797327096293
 20
-3.16055842678659
 10
1.35797327096293
 20
-3.16055842678659
 10
1.35797327096293
 20
-3.16055842678659
 10
1.35797327096293
 20
-3.088619002130599
 10
1.35797327096293
 20
-3.088619002130599
 10
1.35797327096293
 20
-3.0770298185481
 10
1.356987498115536
 20
-3.069851443642543
 10
1.355030034889978
 20
-3.067083877413905
 10
1.353058489195165
 20
-3.064316311185242
 10
1.347904305450179
 20
-3.06293252807091
 10
1.339539318716536
 20
-3.06293252807091
 10
1.339539318716536
 20
-3.06293252807091
 10
1.339539318716536
 20
-3.16055842678659
 10
1.339539318716536
 20
-3.16055842678659
 10
1.339539318716536
 20
-3.16055842678659
 10
1.278928371070581
 20
-3.16055842678659
 10
1.278928371070581
 20
-3.16055842678659
 10
1.278928371070581
 20
-3.16055842678659
 10
1.278928371070581
 20
-2.944065558550341
 10
1.278928371070581
 20
-2.944065558550341
 97
        0
 92
        1
 93
        1
 72
     4
 94
        3
 73
     0
 74
     1
 95
       23
 96
       19
 40
0.0
 40
0.0
 40
0.0
 40
0.0
 40
1.0
 40
1.0
 40
1.0
 40
2.0
 40
2.0
 40
2.0
 40
3.0
 40
3.0
 40
3.0
 40
4.0
 40
4.0
 40
4.0
 40
5.0
 40
5.0
 40
5.0
 40
6.0
 40
6.0
 40
6.0
 40
6.0
 10
1.339539318716536
 20
-2.981099054147484
 10
1.339539318716536
 20
-2.981099054147484
 10
1.339539318716536
 20
-3.029237409237087
 10
1.339539318716536
 20
-3.029237409237087
 10
1.346355233832835
 20
-3.029237409237087
 10
1.351143273377374
 20
-3.028372544790626
 10
1.353875272411591
 20
-3.026625518608802
 10
1.356607271445834
 20
-3.024895789715881
 10
1.35797327096293
 20
-3.01925687352501
 10
1.35797327096293
 20
-3.009726067325093
 10
1.35797327096293
 20
-3.009726067325093
 10
1.35797327096293
 20
-2.997808235252958
 10
1.35797327096293
 20
-2.997808235252958
 10
1.35797327096293
 20
-2.990958508837063
 10
1.356649518853576
 20
-2.986443916426575
 10
1.354016097104073
 20
-2.984316349888306
 10
1.351382675354595
 20
-2.982171486061083
 10
1.346552388402339
 20
-2.981099054147484
 10
1.339539318716536
 20
-2.981099054147484
 97
        0
 75
     2
 76
     1
 98
        0
  0
SPLINE
  5
EA
330
86
100
AcDbEntity
  8
ENG
370
     0
100
AcDbSpline
210
0.0
220
0.0
230
1.0
 70
    11
 71
     3
 72
    32
 73
    28
 74
     0
 42
0.0000000001
 43
0.0000000001
 12
1.0
 22
0.0
 32
0.0
 13
1.0
 23
0.0
 33
0.0
 40
0.0
 40
0.0
 40
0.0
 40
0.0
 40
1.0
 40
1.0
 40
1.0
 40
2.0
 40
2.0
 40
2.0
 40
3.0
 40
3.0
 40
3.0
 40
4.0
 40
4.0
 40
4.0
 40
5.0
 40
5.0
 40
5.0
 40
6.0
 40
6.0
 40
6.0
 40
7.0
 40
7.0
 40
7.0
 40
8.0
 40
8.0
 40
8.0
 40
9.0
 40
9.0
 40
9.0
 40
9.0
 10
1.618893261200835
 20
-2.944065558550341
 30
0.0
 10
1.618893261200835
 20
-2.944065558550341
 30
0.0
 10
1.57470247269877
 20
-3.082201707937909
 30
0.0
 10
1.57470247269877
 20
-3.082201707937909
 30
0.0
 10
1.57470247269877
 20
-3.082201707937909
 30
0.0
 10
1.57470247269877
 20
-3.16055842678659
 30
0.0
 10
1.57470247269877
 20
-3.16055842678659
 30
0.0
 10
1.57470247269877
 20
-3.16055842678659
 30
0.0
 10
1.518541585335369
 20
-3.16055842678659
 30
0.0
 10
1.518541585335369
 20
-3.16055842678659
 30
0.0
 10
1.518541585335369
 20
-3.16055842678659
 30
0.0
 10
1.518541585335369
 20
-3.082201707937909
 30
0.0
 10
1.518541585335369
 20
-3.082201707937909
 30
0.0
 10
1.518541585335369
 20
-3.082201707937909
 30
0.0
 10
1.475913950919903
 20
-2.944065558550341
 30
0.0
 10
1.475913950919903
 20
-2.944065558550341
 30
0.0
 10
1.475913950919903
 20
-2.944065558550341
 30
0.0
 10
1.531610116798068
 20
-2.944065558550341
 30
0.0
 10
1.531610116798068
 20
-2.944065558550341
 30
0.0
 10
1.540313082793697
 20
-2.986322835404078
 30
0.0
 10
1.545213782092206
 20
-3.014759578403452
 30
0.0
 10
1.546312214693595
 20
-3.029375787548512
 30
0.0
 10
1.549692007313272
 20
-3.006283906828205
 30
0.0
 10
1.555324995012698
 20
-2.977829866539903
 30
0.0
 10
1.563211177791901
 20
-2.944065558550341
 30
0.0
 10
1.563211177791901
 20
-2.944065558550341
 30
0.0
 10
1.618893261200835
 20
-2.944065558550341
 30
0.0
 10
1.618893261200835
 20
-2.944065558550341
 30
0.0
  0
HATCH
  5
EB
330
86
100
AcDbEntity
  8
ENG
 62
     7
100
AcDbHatch
 10
0.0
 20
0.0
 30
0.0
210
0.0
220
0.0
230
1.0
  2
SOLID
 70
     1
 71
     0
 91
        1
 92
        1
 93
        1
 72
     4
 94
        3
 73
     0
 74
     1
 95
       32
 96
       28
 40
0.0
 40
0.0
 40
0.0
 40
0.0
 40
1.0
 40
1.0
 40
1.0
 40
2.0
 40
2.0
 40
2.0
 40
3.0
 40
3.0
 40
3.0
 40
4.0
 40
4.0
 40
4.0
 40
5.0
 40
5.0
 40
5.0
 40
6.0
 40
6.0
 40
6.0
 40
7.0
 40
7.0
 40
7.0
 40
8.0
 40
8.0
 40
8.0
 40
9.0
 40
9.0
 40
9.0
 40
9.0
 10
1.618893261200835
 20
-2.944065558550341
 10
1.618893261200835
 20
-2.944065558550341
 10
1.57470247269877
 20
-3.082201707937909
 10
1.57470247269877
 20
-3.082201707937909
 10
1.57470247269877
 20
-3.082201707937909
 10
1.57470247269877
 20
-3.16055842678659
 10
1.57470247269877
 20
-3.16055842678659
 10
1.57470247269877
 20
-3.16055842678659
 10
1.518541585335369
 20
-3.16055842678659
 10
1.518541585335369
 20
-3.16055842678659
 10
1.518541585335369
 20
-3.16055842678659
 10
1.518541585335369
 20
-3.082201707937909
 10
1.518541585335369
 20
-3.082201707937909
 10
1.518541585335369
 20
-3.082201707937909
 10
1.475913950919903
 20
-2.944065558550341
 10
1.475913950919903
 20
-2.944065558550341
 10
1.475913950919903
 20
-2.944065558550341
 10
1.531610116798068
 20
-2.944065558550341
 10
1.531610116798068
 20
-2.944065558550341
 10
1.540313082793697
 20
-2.986322835404078
 10
1.545213782092206
 20
-3.014759578403452
 10
1.546312214693595
 20
-3.029375787548512
 10
1.549692007313272
 20
-3.006283906828205
 10
1.555324995012698
 20
-2.977829866539903
 10
1.563211177791901
 20
-2.944065558550341
 10
1.563211177791901
 20
-2.944065558550341
 10
1.618893261200835
 20
-2.944065558550341
 10
1.618893261200835
 20
-2.944065558550341
 97
        0
 75
     2
 76
     1
 98
        0
  0
SPLINE
  5
EC
330
86
100
AcDbEntity
  8
ENG
370
     0
100
AcDbSpline
210
0.0
220
0.0
230
1.0
 70
    11
 71
     3
 72
    59
 73
    55
 74
     0
 42
0.0000000001
 43
0.0000000001
 12
1.0
 22
0.0
 32
0.0
 13
1.0
 23
0.0
 33
0.0
 40
0.0
 40
0.0
 40
0.0
 40
0.0
 40
1.0
 40
1.0
 40
1.0
 40
2.0
 40
2.0
 40
2.0
 40
3.0
 40
3.0
 40
3.0
 40
4.0
 40
4.0
 40
4.0
 40
5.0
 40
5.0
 40
5.0
 40
6.0
 40
6.0
 40
6.0
 40
7.0
 40
7.0
 40
7.0
 40
8.0
 40
8.0
 40
8.0
 40
9.0
 40
9.0
 40
9.0
 40
10.0
 40
10.0
 40
10.0
 40
11.0
 40
11.0
 40
11.0
 40
12.0
 40
12.0
 40
12.0
 40
13.0
 40
13.0
 40
13.0
 40
14.0
 40
14.0
 40
14.0
 40
15.0
 40
15.0
 40
15.0
 40
16.0
 40
16.0
 40
16.0
 40
17.0
 40
17.0
 40
17.0
 40
18.0
 40
18.0
 40
18.0
 40
18.0
 10
1.767801291035438
 20
-3.070837389111501
 30
0.0
 10
1.767801291035438
 20
-3.092580081295333
 30
0.0
 10
1.767237992265513
 20
-3.107991965731142
 30
0.0
 10
1.766139559664124
 20
-3.117038447841044
 30
0.0
 10
1.765027044593479
 20
-3.126084929950947
 30
0.0
 10
1.761576839627575
 20
-3.134353034059056
 30
0.0
 10
1.755774862297155
 20
-3.141842760165344
 30
0.0
 10
1.74995880249748
 20
-3.149332486271633
 30
0.0
 10
1.74211486712602
 20
-3.155075186196073
 30
0.0
 10
1.732228973713518
 20
-3.159088157227618
 30
0.0
 10
1.722343080300991
 20
-3.163101128259162
 30
0.0
 10
1.710823620455661
 20
-3.165107613774934
 30
0.0
 10
1.697670594177453
 20
-3.165107613774934
 30
0.0
 10
1.685193526423215
 20
-3.165107613774934
 30
0.0
 10
1.673983880901334
 20
-3.163204911992731
 30
0.0
 10
1.664041657611834
 20
-3.159416805717278
 30
0.0
 10
1.654113516791565
 20
-3.155628699441801
 30
0.0
 10
1.646114674258367
 20
-3.149955188673074
 30
0.0
 10
1.640073294950728
 20
-3.142378976122144
 30
0.0
 10
1.634017833173832
 20
-3.134802763571214
 30
0.0
 10
1.630426803515446
 20
-3.126551956752034
 30
0.0
 10
1.62927204103706
 20
-3.117626555664629
 30
0.0
 10
1.628117278558673
 20
-3.108718451866177
 30
0.0
 10
1.627539897319467
 20
-3.093116297252133
 30
0.0
 10
1.627539897319467
 20
-3.070837389111501
 30
0.0
 10
1.627539897319467
 20
-3.070837389111501
 30
0.0
 10
1.627539897319467
 20
-3.03378659622543
 30
0.0
 10
1.627539897319467
 20
-3.03378659622543
 30
0.0
 10
1.627539897319467
 20
-3.012043904041598
 30
0.0
 10
1.628089113620161
 20
-2.99663201960579
 30
0.0
 10
1.629201628690806
 20
-2.987585537495887
 30
0.0
 10
1.630300061292195
 20
-2.978539055385984
 30
0.0
 10
1.6337502662581
 20
-2.970270951277901
 30
0.0
 10
1.639566326057775
 20
-2.962781225171612
 30
0.0
 10
1.645368303388194
 20
-2.955291499065323
 30
0.0
 10
1.65322632122891
 20
-2.949548799140858
 30
0.0
 10
1.663112214641412
 20
-2.945535828109314
 30
0.0
 10
1.67299810805394
 20
-2.94152285707777
 30
0.0
 10
1.684517567899269
 20
-2.939516371561997
 30
0.0
 10
1.697670594177453
 20
-2.939516371561997
 30
0.0
 10
1.710147661931716
 20
-2.939516371561997
 30
0.0
 10
1.721357307453597
 20
-2.941401776055272
 30
0.0
 10
1.73128544827384
 20
-2.94518988233075
 30
0.0
 10
1.741227671563365
 20
-2.948977988606202
 30
0.0
 10
1.749212431627307
 20
-2.954668796663857
 30
0.0
 10
1.755267893404203
 20
-2.962245009214813
 30
0.0
 10
1.761309272711843
 20
-2.969821221765743
 30
0.0
 10
1.764914384839484
 20
-2.978072028584898
 30
0.0
 10
1.766069147317871
 20
-2.986980132383375
 30
0.0
 10
1.767223909796257
 20
-2.99590553347078
 30
0.0
 10
1.767801291035438
 20
-3.011507688084798
 30
0.0
 10
1.767801291035438
 20
-3.03378659622543
 30
0.0
 10
1.767801291035438
 20
-3.03378659622543
 30
0.0
 10
1.767801291035438
 20
-3.070837389111501
 30
0.0
 10
1.767801291035438
 20
-3.070837389111501
 30
0.0
  0
SPLINE
  5
ED
330
86
100
AcDbEntity
  8
ENG
370
     0
100
AcDbSpline
210
0.0
220
0.0
230
1.0
 70
    11
 71
     3
 72
    35
 73
    31
 74
     0
 42
0.0000000001
 43
0.0000000001
 12
1.0
 22
0.0
 32
0.0
 13
1.0
 23
0.0
 33
0.0
 40
0.0
 40
0.0
 40
0.0
 40
0.0
 40
1.0
 40
1.0
 40
1.0
 40
2.0
 40
2.0
 40
2.0
 40
3.0
 40
3.0
 40
3.0
 40
4.0
 40
4.0
 40
4.0
 40
5.0
 40
5.0
 40
5.0
 40
6.0
 40
6.0
 40
6.0
 40
7.0
 40
7.0
 40
7.0
 40
8.0
 40
8.0
 40
8.0
 40
9.0
 40
9.0
 40
9.0
 40
10.0
 40
10.0
 40
10.0
 40
10.0
 10
1.707176260920253
 20
-2.999693639746233
 30
0.0
 10
1.707176260920253
 20
-2.989609320300588
 30
0.0
 10
1.706570714742586
 20
-2.983174728818969
 30
0.0
 10
1.705373704856432
 20
-2.980372568012474
 30
0.0
 10
1.704176694970303
 20
-2.977553109917026
 30
0.0
 10
1.701698180382563
 20
-2.976152029513767
 30
0.0
 10
1.69795224356244
 20
-2.976152029513767
 30
0.0
 10
1.694783687981499
 20
-2.976152029513767
 30
0.0
 10
1.692361503270755
 20
-2.977293650583104
 30
0.0
 10
1.69068568943016
 20
-2.979559595432799
 30
0.0
 10
1.689009875589591
 20
-2.981842837571447
 30
0.0
 10
1.688164927434652
 20
-2.988554185675917
 30
0.0
 10
1.688164927434652
 20
-2.999693639746233
 30
0.0
 10
1.688164927434652
 20
-2.999693639746233
 30
0.0
 10
1.688164927434652
 20
-3.100778996247729
 30
0.0
 10
1.688164927434652
 20
-3.100778996247729
 30
0.0
 10
1.688164927434652
 20
-3.113354125299161
 30
0.0
 10
1.688714143735347
 20
-3.121103310739373
 30
0.0
 10
1.689826658805992
 20
-3.124043849857319
 30
0.0
 10
1.690925091407381
 20
-3.127001686264192
 30
0.0
 10
1.693488100810631
 20
-3.128471955823165
 30
0.0
 10
1.697529769484971
 20
-3.128471955823165
 30
0.0
 10
1.701655932974821
 20
-3.128471955823165
 30
0.0
 10
1.704289354724299
 20
-3.126776821508126
 30
0.0
 10
1.705444117202685
 20
-3.123386552878022
 30
0.0
 10
1.706598879681072
 20
-3.119996284247918
 30
0.0
 10
1.707176260920253
 20
-3.111935747606973
 30
0.0
 10
1.707176260920253
 20
-3.099187645666259
 30
0.0
 10
1.707176260920253
 20
-3.099187645666259
 30
0.0
 10
1.707176260920253
 20
-2.999693639746233
 30
0.0
 10
1.707176260920253
 20
-2.999693639746233
 30
0.0
  0
HATCH
  5
EE
330
86
100
AcDbEntity
  8
ENG
 62
     7
100
AcDbHatch
 10
0.0
 20
0.0
 30
0.0
210
0.0
220
0.0
230
1.0
  2
SOLID
 70
     1
 71
     0
 91
        2
 92
        1
 93
        1
 72
     4
 94
        3
 73
     0
 74
     1
 95
       59
 96
       55
 40
0.0
 40
0.0
 40
0.0
 40
0.0
 40
1.0
 40
1.0
 40
1.0
 40
2.0
 40
2.0
 40
2.0
 40
3.0
 40
3.0
 40
3.0
 40
4.0
 40
4.0
 40
4.0
 40
5.0
 40
5.0
 40
5.0
 40
6.0
 40
6.0
 40
6.0
 40
7.0
 40
7.0
 40
7.0
 40
8.0
 40
8.0
 40
8.0
 40
9.0
 40
9.0
 40
9.0
 40
10.0
 40
10.0
 40
10.0
 40
11.0
 40
11.0
 40
11.0
 40
12.0
 40
12.0
 40
12.0
 40
13.0
 40
13.0
 40
13.0
 40
14.0
 40
14.0
 40
14.0
 40
15.0
 40
15.0
 40
15.0
 40
16.0
 40
16.0
 40
16.0
 40
17.0
 40
17.0
 40
17.0
 40
18.0
 40
18.0
 40
18.0
 40
18.0
 10
1.767801291035438
 20
-3.070837389111501
 10
1.767801291035438
 20
-3.092580081295333
 10
1.767237992265513
 20
-3.107991965731142
 10
1.766139559664124
 20
-3.117038447841044
 10
1.765027044593479
 20
-3.126084929950947
 10
1.761576839627575
 20
-3.134353034059056
 10
1.755774862297155
 20
-3.141842760165344
 10
1.74995880249748
 20
-3.149332486271633
 10
1.74211486712602
 20
-3.155075186196073
 10
1.732228973713518
 20
-3.159088157227618
 10
1.722343080300991
 20
-3.163101128259162
 10
1.710823620455661
 20
-3.165107613774934
 10
1.697670594177453
 20
-3.165107613774934
 10
1.685193526423215
 20
-3.165107613774934
 10
1.673983880901334
 20
-3.163204911992731
 10
1.664041657611834
 20
-3.159416805717278
 10
1.654113516791565
 20
-3.155628699441801
 10
1.646114674258367
 20
-3.149955188673074
 10
1.640073294950728
 20
-3.142378976122144
 10
1.634017833173832
 20
-3.134802763571214
 10
1.630426803515446
 20
-3.126551956752034
 10
1.62927204103706
 20
-3.117626555664629
 10
1.628117278558673
 20
-3.108718451866177
 10
1.627539897319467
 20
-3.093116297252133
 10
1.627539897319467
 20
-3.070837389111501
 10
1.627539897319467
 20
-3.070837389111501
 10
1.627539897319467
 20
-3.03378659622543
 10
1.627539897319467
 20
-3.03378659622543
 10
1.627539897319467
 20
-3.012043904041598
 10
1.628089113620161
 20
-2.99663201960579
 10
1.629201628690806
 20
-2.987585537495887
 10
1.630300061292195
 20
-2.978539055385984
 10
1.6337502662581
 20
-2.970270951277901
 10
1.639566326057775
 20
-2.962781225171612
 10
1.645368303388194
 20
-2.955291499065323
 10
1.65322632122891
 20
-2.949548799140858
 10
1.663112214641412
 20
-2.945535828109314
 10
1.67299810805394
 20
-2.94152285707777
 10
1.684517567899269
 20
-2.939516371561997
 10
1.697670594177453
 20
-2.939516371561997
 10
1.710147661931716
 20
-2.939516371561997
 10
1.721357307453597
 20
-2.941401776055272
 10
1.73128544827384
 20
-2.94518988233075
 10
1.741227671563365
 20
-2.948977988606202
 10
1.749212431627307
 20
-2.954668796663857
 10
1.755267893404203
 20
-2.962245009214813
 10
1.761309272711843
 20
-2.969821221765743
 10
1.764914384839484
 20
-2.978072028584898
 10
1.766069147317871
 20
-2.986980132383375
 10
1.767223909796257
 20
-2.99590553347078
 10
1.767801291035438
 20
-3.011507688084798
 10
1.767801291035438
 20
-3.03378659622543
 10
1.767801291035438
 20
-3.03378659622543
 10
1.767801291035438
 20
-3.070837389111501
 10
1.767801291035438
 20
-3.070837389111501
 97
        0
 92
        1
 93
        1
 72
     4
 94
        3
 73
     0
 74
     1
 95
       35
 96
       31
 40
0.0
 40
0.0
 40
0.0
 40
0.0
 40
1.0
 40
1.0
 40
1.0
 40
2.0
 40
2.0
 40
2.0
 40
3.0
 40
3.0
 40
3.0
 40
4.0
 40
4.0
 40
4.0
 40
5.0
 40
5.0
 40
5.0
 40
6.0
 40
6.0
 40
6.0
 40
7.0
 40
7.0
 40
7.0
 40
8.0
 40
8.0
 40
8.0
 40
9.0
 40
9.0
 40
9.0
 40
10.0
 40
10.0
 40
10.0
 40
10.0
 10
1.707176260920253
 20
-2.999693639746233
 10
1.707176260920253
 20
-2.989609320300588
 10
1.706570714742586
 20
-2.983174728818969
 10
1.705373704856432
 20
-2.980372568012474
 10
1.704176694970303
 20
-2.977553109917026
 10
1.701698180382563
 20
-2.976152029513767
 10
1.69795224356244
 20
-2.976152029513767
 10
1.694783687981499
 20
-2.976152029513767
 10
1.692361503270755
 20
-2.977293650583104
 10
1.69068568943016
 20
-2.979559595432799
 10
1.689009875589591
 20
-2.981842837571447
 10
1.688164927434652
 20
-2.988554185675917
 10
1.688164927434652
 20
-2.999693639746233
 10
1.688164927434652
 20
-2.999693639746233
 10
1.688164927434652
 20
-3.100778996247729
 10
1.688164927434652
 20
-3.100778996247729
 10
1.688164927434652
 20
-3.113354125299161
 10
1.688714143735347
 20
-3.121103310739373
 10
1.689826658805992
 20
-3.124043849857319
 10
1.690925091407381
 20
-3.127001686264192
 10
1.693488100810631
 20
-3.128471955823165
 10
1.697529769484971
 20
-3.128471955823165
 10
1.701655932974821
 20
-3.128471955823165
 10
1.704289354724299
 20
-3.126776821508126
 10
1.705444117202685
 20
-3.123386552878022
 10
1.706598879681072
 20
-3.119996284247918
 10
1.707176260920253
 20
-3.111935747606973
 10
1.707176260920253
 20
-3.099187645666259
 10
1.707176260920253
 20
-3.099187645666259
 10
1.707176260920253
 20
-2.999693639746233
 10
1.707176260920253
 20
-2.999693639746233
 97
        0
 75
     2
 76
     1
 98
        0
  0
SPLINE
  5
EF
330
86
100
AcDbEntity
  8
ENG
370
     0
100
AcDbSpline
210
0.0
220
0.0
230
1.0
 70
    11
 71
     3
 72
    59
 73
    55
 74
     0
 42
0.0000000001
 43
0.0000000001
 12
1.0
 22
0.0
 32
0.0
 13
1.0
 23
0.0
 33
0.0
 40
0.0
 40
0.0
 40
0.0
 40
0.0
 40
1.0
 40
1.0
 40
1.0
 40
2.0
 40
2.0
 40
2.0
 40
3.0
 40
3.0
 40
3.0
 40
4.0
 40
4.0
 40
4.0
 40
5.0
 40
5.0
 40
5.0
 40
6.0
 40
6.0
 40
6.0
 40
7.0
 40
7.0
 40
7.0
 40
8.0
 40
8.0
 40
8.0
 40
9.0
 40
9.0
 40
9.0
 40
10.0
 40
10.0
 40
10.0
 40
11.0
 40
11.0
 40
11.0
 40
12.0
 40
12.0
 40
12.0
 40
13.0
 40
13.0
 40
13.0
 40
14.0
 40
14.0
 40
14.0
 40
15.0
 40
15.0
 40
15.0
 40
16.0
 40
16.0
 40
16.0
 40
17.0
 40
17.0
 40
17.0
 40
18.0
 40
18.0
 40
18.0
 40
18.0
 10
1.92820061577691
 20
-2.944065558550341
 30
0.0
 10
1.92820061577691
 20
-2.944065558550341
 30
0.0
 10
1.92820061577691
 20
-3.088757380442025
 30
0.0
 10
1.92820061577691
 20
-3.088757380442025
 30
0.0
 10
1.92820061577691
 20
-3.105155210346766
 30
0.0
 10
1.927623234537729
 20
-3.116675204773527
 30
0.0
 10
1.926482554528573
 20
-3.123317363722309
 30
0.0
 10
1.925327792050186
 20
-3.129959522671065
 30
0.0
 10
1.921919834492049
 20
-3.13677465450913
 30
0.0
 10
1.916258681854111
 20
-3.143780056525379
 30
0.0
 10
1.910583446746917
 20
-3.150768161252724
 30
0.0
 10
1.903119738045158
 20
-3.156078428953959
 30
0.0
 10
1.893867555748834
 20
-3.15969356234013
 30
0.0
 10
1.88460129098328
 20
-3.163291398437372
 30
0.0
 10
1.873673294846362
 20
-3.165107613774934
 30
0.0
 10
1.861097649807359
 20
-3.165107613774934
 30
0.0
 10
1.847184170189772
 20
-3.165107613774934
 30
0.0
 10
1.834890174535733
 20
-3.162962749947736
 30
0.0
 10
1.824243827783802
 20
-3.158690319582244
 30
0.0
 10
1.813583398562615
 20
-3.154400591927848
 30
0.0
 10
1.805612720967929
 20
-3.148830864892691
 30
0.0
 10
1.800331794999693
 20
-3.141963841187842
 30
0.0
 10
1.795050869031481
 20
-3.135114114771921
 30
0.0
 10
1.791938643327537
 20
-3.127866550710653
 30
0.0
 10
1.79098103541863
 20
-3.120238446292938
 30
0.0
 10
1.790023427509722
 20
-3.112610341875198
 30
0.0
 10
1.78954462355528
 20
-3.096593052326878
 30
0.0
 10
1.78954462355528
 20
-3.072169280359049
 30
0.0
 10
1.78954462355528
 20
-3.072169280359049
 30
0.0
 10
1.78954462355528
 20
-2.944065558550341
 30
0.0
 10
1.78954462355528
 20
-2.944065558550341
 30
0.0
 10
1.78954462355528
 20
-2.944065558550341
 30
0.0
 10
1.85015557120121
 20
-2.944065558550341
 30
0.0
 10
1.85015557120121
 20
-2.944065558550341
 30
0.0
 10
1.85015557120121
 20
-2.944065558550341
 30
0.0
 10
1.85015557120121
 20
-3.106400615149671
 30
0.0
 10
1.85015557120121
 20
-3.106400615149671
 30
0.0
 10
1.85015557120121
 20
-3.115844934904948
 30
0.0
 10
1.850704787501905
 20
-3.121898986030121
 30
0.0
 10
1.85181730257255
 20
-3.124528173947333
 30
0.0
 10
1.852915735173939
 20
-3.127157361864546
 30
0.0
 10
1.855154847784459
 20
-3.128471955823165
 30
0.0
 10
1.858506475465624
 20
-3.128471955823165
 30
0.0
 10
1.862350989570485
 20
-3.128471955823165
 30
0.0
 10
1.864829504158251
 20
-3.12701898355312
 30
0.0
 10
1.86592793675964
 20
-3.124113039013031
 30
0.0
 10
1.86702636936103
 20
-3.121224391761896
 30
0.0
 10
1.86758966813098
 20
-3.114374665345975
 30
0.0
 10
1.86758966813098
 20
-3.103598454343152
 30
0.0
 10
1.86758966813098
 20
-3.103598454343152
 30
0.0
 10
1.86758966813098
 20
-2.944065558550341
 30
0.0
 10
1.86758966813098
 20
-2.944065558550341
 30
0.0
 10
1.86758966813098
 20
-2.944065558550341
 30
0.0
 10
1.92820061577691
 20
-2.944065558550341
 30
0.0
 10
1.92820061577691
 20
-2.944065558550341
 30
0.0
  0
HATCH
  5
F0
330
86
100
AcDbEntity
  8
ENG
 62
     7
100
AcDbHatch
 10
0.0
 20
0.0
 30
0.0
210
0.0
220
0.0
230
1.0
  2
SOLID
 70
     1
 71
     0
 91
        1
 92
        1
 93
        1
 72
     4
 94
        3
 73
     0
 74
     1
 95
       59
 96
       55
 40
0.0
 40
0.0
 40
0.0
 40
0.0
 40
1.0
 40
1.0
 40
1.0
 40
2.0
 40
2.0
 40
2.0
 40
3.0
 40
3.0
 40
3.0
 40
4.0
 40
4.0
 40
4.0
 40
5.0
 40
5.0
 40
5.0
 40
6.0
 40
6.0
 40
6.0
 40
7.0
 40
7.0
 40
7.0
 40
8.0
 40
8.0
 40
8.0
 40
9.0
 40
9.0
 40
9.0
 40
10.0
 40
10.0
 40
10.0
 40
11.0
 40
11.0
 40
11.0
 40
12.0
 40
12.0
 40
12.0
 40
13.0
 40
13.0
 40
13.0
 40
14.0
 40
14.0
 40
14.0
 40
15.0
 40
15.0
 40
15.0
 40
16.0
 40
16.0
 40
16.0
 40
17.0
 40
17.0
 40
17.0
 40
18.0
 40
18.0
 40
18.0
 40
18.0
 10
1.92820061577691
 20
-2.944065558550341
 10
1.92820061577691
 20
-2.944065558550341
 10
1.92820061577691
 20
-3.088757380442025
 10
1.92820061577691
 20
-3.088757380442025
 10
1.92820061577691
 20
-3.105155210346766
 10
1.927623234537729
 20
-3.116675204773527
 10
1.926482554528573
 20
-3.123317363722309
 10
1.925327792050186
 20
-3.129959522671065
 10
1.921919834492049
 20
-3.13677465450913
 10
1.916258681854111
 20
-3.143780056525379
 10
1.910583446746917
 20
-3.150768161252724
 10
1.903119738045158
 20
-3.156078428953959
 10
1.893867555748834
 20
-3.15969356234013
 10
1.88460129098328
 20
-3.163291398437372
 10
1.873673294846362
 20
-3.165107613774934
 10
1.861097649807359
 20
-3.165107613774934
 10
1.847184170189772
 20
-3.165107613774934
 10
1.834890174535733
 20
-3.162962749947736
 10
1.824243827783802
 20
-3.158690319582244
 10
1.813583398562615
 20
-3.154400591927848
 10
1.805612720967929
 20
-3.148830864892691
 10
1.800331794999693
 20
-3.141963841187842
 10
1.795050869031481
 20
-3.135114114771921
 10
1.791938643327537
 20
-3.127866550710653
 10
1.79098103541863
 20
-3.120238446292938
 10
1.790023427509722
 20
-3.112610341875198
 10
1.78954462355528
 20
-3.096593052326878
 10
1.78954462355528
 20
-3.072169280359049
 10
1.78954462355528
 20
-3.072169280359049
 10
1.78954462355528
 20
-2.944065558550341
 10
1.78954462355528
 20
-2.944065558550341
 10
1.78954462355528
 20
-2.944065558550341
 10
1.85015557120121
 20
-2.944065558550341
 10
1.85015557120121
 20
-2.944065558550341
 10
1.85015557120121
 20
-2.944065558550341
 10
1.85015557120121
 20
-3.106400615149671
 10
1.85015557120121
 20
-3.106400615149671
 10
1.85015557120121
 20
-3.115844934904948
 10
1.850704787501905
 20
-3.121898986030121
 10
1.85181730257255
 20
-3.124528173947333
 10
1.852915735173939
 20
-3.127157361864546
 10
1.855154847784459
 20
-3.128471955823165
 10
1.858506475465624
 20
-3.128471955823165
 10
1.862350989570485
 20
-3.128471955823165
 10
1.864829504158251
 20
-3.12701898355312
 10
1.86592793675964
 20
-3.124113039013031
 10
1.86702636936103
 20
-3.121224391761896
 10
1.86758966813098
 20
-3.114374665345975
 10
1.86758966813098
 20
-3.103598454343152
 10
1.86758966813098
 20
-3.103598454343152
 10
1.86758966813098
 20
-2.944065558550341
 10
1.86758966813098
 20
-2.944065558550341
 10
1.86758966813098
 20
-2.944065558550341
 10
1.92820061577691
 20
-2.944065558550341
 10
1.92820061577691
 20
-2.944065558550341
 97
        0
 75
     2
 76
     1
 98
        0
  0
ENDBLK
  5
89
330
86
100
AcDbEntity
  8
0
100
AcDbBlockEnd
  0
BLOCK
  5
F3
330
F1
100
AcDbEntity
  8
0
100
AcDbBlockBegin
  2
block 3
 70
     0
 10
0.0
 20
0.0
 30
0.0
  3
block 3
  1

  0
SPLINE
  5
F5
330
F1
100
AcDbEntity
  8
ENG
370
     0
100
AcDbSpline
210
0.0
220
0.0
230
1.0
 70
    11
 71
     3
 72
    29
 73
    25
 74
     0
 42
0.0000000001
 43
0.0000000001
 12
1.0
 22
0.0
 32
0.0
 13
1.0
 23
0.0
 33
0.0
 40
0.0
 40
0.0
 40
0.0
 40
0.0
 40
1.0
 40
1.0
 40
1.0
 40
2.0
 40
2.0
 40
2.0
 40
3.0
 40
3.0
 40
3.0
 40
4.0
 40
4.0
 40
4.0
 40
5.0
 40
5.0
 40
5.0
 40
6.0
 40
6.0
 40
6.0
 40
7.0
 40
7.0
 40
7.0
 40
8.0
 40
8.0
 40
8.0
 40
8.0
 10
0.2535536024305555
 20
-2.847439236111111
 30
0.0
 10
0.2535536024305555
 20
-2.847439236111111
 30
0.0
 10
0.2535468207465278
 20
-2.847439236111111
 30
0.0
 10
0.2535468207465278
 20
-2.847439236111111
 30
0.0
 10
0.2484402126736111
 20
-2.837076822916667
 30
0.0
 10
0.2408854166666667
 20
-2.828599717881944
 30
0.0
 10
0.2322794596354167
 20
-2.823540581597222
 30
0.0
 10
0.2227376302083333
 20
-2.817952473958333
 30
0.0
 10
0.2129923502604167
 20
-2.817097981770833
 30
0.0
 10
0.2047932942708333
 20
-2.821139865451389
 30
0.0
 10
0.1886528862847222
 20
-2.829087999131944
 30
0.0
 10
0.1847805447048611
 20
-2.853122287326389
 30
0.0
 10
0.1959771050347222
 20
-2.875827365451389
 30
0.0
 10
0.2010837131076389
 20
-2.886189778645833
 30
0.0
 10
0.2086385091145833
 20
-2.894666883680555
 30
0.0
 10
0.2172444661458333
 20
-2.899726019965278
 30
0.0
 10
0.2228190104166667
 20
-2.902994791666667
 30
0.0
 10
0.2284681532118056
 20
-2.904635959201389
 30
0.0
 10
0.2338392469618056
 20
-2.904635959201389
 30
0.0
 10
0.2376573350694444
 20
-2.904635959201389
 30
0.0
 10
0.2413262261284722
 20
-2.90380859375
 30
0.0
 10
0.2447306315104167
 20
-2.902126736111111
 30
0.0
 10
0.2608710394965278
 20
-2.894178602430555
 30
0.0
 10
0.2647433810763889
 20
-2.870144314236111
 30
0.0
 10
0.2535536024305555
 20
-2.847439236111111
 30
0.0
  0
SPLINE
  5
F6
330
F1
100
AcDbEntity
  8
ENG
370
     0
100
AcDbSpline
210
0.0
220
0.0
230
1.0
 70
    11
 71
     3
 72
    29
 73
    25
 74
     0
 42
0.0000000001
 43
0.0000000001
 12
1.0
 22
0.0
 32
0.0
 13
1.0
 23
0.0
 33
0.0
 40
0.0
 40
0.0
 40
0.0
 40
0.0
 40
1.0
 40
1.0
 40
1.0
 40
2.0
 40
2.0
 40
2.0
 40
3.0
 40
3.0
 40
3.0
 40
4.0
 40
4.0
 40
4.0
 40
5.0
 40
5.0
 40
5.0
 40
6.0
 40
6.0
 40
6.0
 40
7.0
 40
7.0
 40
7.0
 40
8.0
 40
8.0
 40
8.0
 40
8.0
 10
0.23858642578125
 20
-2.889675564236111
 30
0.0
 10
0.2333916558159722
 20
-2.892252604166667
 30
0.0
 10
0.2273898654513889
 20
-2.889567057291667
 30
0.0
 10
0.2242702907986111
 20
-2.887736002604167
 30
0.0
 10
0.2180650499131944
 20
-2.884101019965278
 30
0.0
 10
0.2122938368055556
 20
-2.877522786458333
 30
0.0
 10
0.20843505859375
 20
-2.869696723090278
 30
0.0
 10
0.207627190483941
 20
-2.868058098687066
 30
0.0
 10
0.2069676717122396
 20
-2.866402520073784
 30
0.0
 10
0.20635986328125
 20
-2.864750332302517
 30
0.0
 10
0.2078314887152778
 20
-2.866279602050781
 30
0.0
 10
0.2094955444335938
 20
-2.867661370171441
 30
0.0
 10
0.2114783393012153
 20
-2.868700663248698
 30
0.0
 10
0.2213728162977431
 20
-2.873887803819444
 30
0.0
 10
0.2335993448893229
 20
-2.870072258843316
 30
0.0
 10
0.2387864854600694
 20
-2.860177781846788
 30
0.0
 10
0.2399580213758681
 20
-2.857943216959635
 30
0.0
 10
0.2406090630425347
 20
-2.855586581759983
 30
0.0
 10
0.2408955891927083
 20
-2.853222317165799
 30
0.0
 10
0.2409566243489583
 20
-2.853342692057292
 30
0.0
 10
0.2410354614257812
 20
-2.853448655870225
 30
0.0
 10
0.2410956488715278
 20
-2.853569878472222
 30
0.0
 10
0.2485826280381944
 20
-2.8687744140625
 30
0.0
 10
0.2474365234375
 20
-2.885308159722222
 30
0.0
 10
0.23858642578125
 20
-2.889675564236111
 30
0.0
  0
HATCH
  5
F7
330
F1
100
AcDbEntity
  8
ENG
 62
     7
100
AcDbHatch
 10
0.0
 20
0.0
 30
0.0
210
0.0
220
0.0
230
1.0
  2
SOLID
 70
     1
 71
     0
 91
        2
 92
        1
 93
        1
 72
     4
 94
        3
 73
     0
 74
     1
 95
       29
 96
       25
 40
0.0
 40
0.0
 40
0.0
 40
0.0
 40
1.0
 40
1.0
 40
1.0
 40
2.0
 40
2.0
 40
2.0
 40
3.0
 40
3.0
 40
3.0
 40
4.0
 40
4.0
 40
4.0
 40
5.0
 40
5.0
 40
5.0
 40
6.0
 40
6.0
 40
6.0
 40
7.0
 40
7.0
 40
7.0
 40
8.0
 40
8.0
 40
8.0
 40
8.0
 10
0.2535536024305555
 20
-2.847439236111111
 10
0.2535536024305555
 20
-2.847439236111111
 10
0.2535468207465278
 20
-2.847439236111111
 10
0.2535468207465278
 20
-2.847439236111111
 10
0.2484402126736111
 20
-2.837076822916667
 10
0.2408854166666667
 20
-2.828599717881944
 10
0.2322794596354167
 20
-2.823540581597222
 10
0.2227376302083333
 20
-2.817952473958333
 10
0.2129923502604167
 20
-2.817097981770833
 10
0.2047932942708333
 20
-2.821139865451389
 10
0.1886528862847222
 20
-2.829087999131944
 10
0.1847805447048611
 20
-2.853122287326389
 10
0.1959771050347222
 20
-2.875827365451389
 10
0.2010837131076389
 20
-2.886189778645833
 10
0.2086385091145833
 20
-2.894666883680555
 10
0.2172444661458333
 20
-2.899726019965278
 10
0.2228190104166667
 20
-2.902994791666667
 10
0.2284681532118056
 20
-2.904635959201389
 10
0.2338392469618056
 20
-2.904635959201389
 10
0.2376573350694444
 20
-2.904635959201389
 10
0.2413262261284722
 20
-2.90380859375
 10
0.2447306315104167
 20
-2.902126736111111
 10
0.2608710394965278
 20
-2.894178602430555
 10
0.2647433810763889
 20
-2.870144314236111
 10
0.2535536024305555
 20
-2.847439236111111
 97
        0
 92
        1
 93
        1
 72
     4
 94
        3
 73
     0
 74
     1
 95
       29
 96
       25
 40
0.0
 40
0.0
 40
0.0
 40
0.0
 40
1.0
 40
1.0
 40
1.0
 40
2.0
 40
2.0
 40
2.0
 40
3.0
 40
3.0
 40
3.0
 40
4.0
 40
4.0
 40
4.0
 40
5.0
 40
5.0
 40
5.0
 40
6.0
 40
6.0
 40
6.0
 40
7.0
 40
7.0
 40
7.0
 40
8.0
 40
8.0
 40
8.0
 40
8.0
 10
0.23858642578125
 20
-2.889675564236111
 10
0.2333916558159722
 20
-2.892252604166667
 10
0.2273898654513889
 20
-2.889567057291667
 10
0.2242702907986111
 20
-2.887736002604167
 10
0.2180650499131944
 20
-2.884101019965278
 10
0.2122938368055556
 20
-2.877522786458333
 10
0.20843505859375
 20
-2.869696723090278
 10
0.207627190483941
 20
-2.868058098687066
 10
0.2069676717122396
 20
-2.866402520073784
 10
0.20635986328125
 20
-2.864750332302517
 10
0.2078314887152778
 20
-2.866279602050781
 10
0.2094955444335938
 20
-2.867661370171441
 10
0.2114783393012153
 20
-2.868700663248698
 10
0.2213728162977431
 20
-2.873887803819444
 10
0.2335993448893229
 20
-2.870072258843316
 10
0.2387864854600694
 20
-2.860177781846788
 10
0.2399580213758681
 20
-2.857943216959635
 10
0.2406090630425347
 20
-2.855586581759983
 10
0.2408955891927083
 20
-2.853222317165799
 10
0.2409566243489583
 20
-2.853342692057292
 10
0.2410354614257812
 20
-2.853448655870225
 10
0.2410956488715278
 20
-2.853569878472222
 10
0.2485826280381944
 20
-2.8687744140625
 10
0.2474365234375
 20
-2.885308159722222
 10
0.23858642578125
 20
-2.889675564236111
 97
        0
 75
     2
 76
     1
 98
        0
  0
SPLINE
  5
F8
330
F1
100
AcDbEntity
  8
ENG
370
     0
100
AcDbSpline
210
0.0
220
0.0
230
1.0
 70
    11
 71
     3
 72
   116
 73
   112
 74
     0
 42
0.0000000001
 43
0.0000000001
 12
1.0
 22
0.0
 32
0.0
 13
1.0
 23
0.0
 33
0.0
 40
0.0
 40
0.0
 40
0.0
 40
0.0
 40
1.0
 40
1.0
 40
1.0
 40
2.0
 40
2.0
 40
2.0
 40
3.0
 40
3.0
 40
3.0
 40
4.0
 40
4.0
 40
4.0
 40
5.0
 40
5.0
 40
5.0
 40
6.0
 40
6.0
 40
6.0
 40
7.0
 40
7.0
 40
7.0
 40
8.0
 40
8.0
 40
8.0
 40
9.0
 40
9.0
 40
9.0
 40
10.0
 40
10.0
 40
10.0
 40
11.0
 40
11.0
 40
11.0
 40
12.0
 40
12.0
 40
12.0
 40
13.0
 40
13.0
 40
13.0
 40
14.0
 40
14.0
 40
14.0
 40
15.0
 40
15.0
 40
15.0
 40
16.0
 40
16.0
 40
16.0
 40
17.0
 40
17.0
 40
17.0
 40
18.0
 40
18.0
 40
18.0
 40
19.0
 40
19.0
 40
19.0
 40
20.0
 40
20.0
 40
20.0
 40
21.0
 40
21.0
 40
21.0
 40
22.0
 40
22.0
 40
22.0
 40
23.0
 40
23.0
 40
23.0
 40
24.0
 40
24.0
 40
24.0
 40
25.0
 40
25.0
 40
25.0
 40
26.0
 40
26.0
 40
26.0
 40
27.0
 40
27.0
 40
27.0
 40
28.0
 40
28.0
 40
28.0
 40
29.0
 40
29.0
 40
29.0
 40
30.0
 40
30.0
 40
30.0
 40
31.0
 40
31.0
 40
31.0
 40
32.0
 40
32.0
 40
32.0
 40
33.0
 40
33.0
 40
33.0
 40
34.0
 40
34.0
 40
34.0
 40
35.0
 40
35.0
 40
35.0
 40
36.0
 40
36.0
 40
36.0
 40
37.0
 40
37.0
 40
37.0
 40
37.0
 10
0.6722217135959201
 20
-3.166168212890625
 30
0.0
 10
0.6695259941948785
 20
-3.164067586263021
 30
0.0
 10
0.666487799750434
 20
-3.16276126437717
 30
0.0
 10
0.663358900282118
 20
-3.162072075737847
 30
0.0
 10
0.6621771918402778
 20
-3.160526699490017
 30
0.0
 10
0.6610031127929688
 20
-3.158987257215712
 30
0.0
 10
0.659634060329861
 20
-3.157301161024305
 30
0.0
 10
0.6442803276909722
 20
-3.138420952690972
 30
0.0
 10
0.622402615017361
 20
-3.117316351996528
 30
0.0
 10
0.6211140950520833
 20
-3.116095648871528
 30
0.0
 10
0.4427761501736111
 20
-2.967237684461805
 30
0.0
 10
0.3770480685763889
 20
-2.850375705295139
 30
0.0
 10
0.3710055881076389
 20
-2.839213053385417
 30
0.0
 10
0.3693305121527777
 20
-2.830044216579861
 30
0.0
 10
0.3579915364583333
 20
-2.769402398003472
 30
0.0
 10
0.3469712999131944
 20
-2.743686252170139
 30
0.0
 10
0.3347710503472222
 20
-2.715216742621528
 30
0.0
 10
0.32122802734375
 20
-2.690151638454861
 30
0.0
 10
0.2789374457465277
 20
-2.671800401475694
 30
0.0
 10
0.2374471028645833
 20
-2.653801812065972
 30
0.0
 10
0.1973402235243056
 20
-2.653598361545139
 30
0.0
 10
0.1956515842013889
 20
-2.653598361545139
 30
0.0
 10
0.1956515842013889
 20
-2.653598361545139
 30
0.0
 10
0.1948377821180556
 20
-2.653652615017361
 30
0.0
 10
0.1948377821180556
 20
-2.653652615017361
 30
0.0
 10
0.1141221788194444
 20
-2.663213941786024
 30
0.0
 10
0.0792100694444444
 20
-2.718152364095052
 30
0.0
 10
0.0686925252278646
 20
-2.739191691080729
 30
0.0
 10
0.0686925252278646
 20
-2.739191691080729
 30
0.0
 10
0.0796915690104167
 20
-2.737263997395833
 30
0.0
 10
0.0796915690104167
 20
-2.737263997395833
 30
0.0
 10
0.0796915690104167
 20
-2.737263997395833
 30
0.0
 10
0.0811055501302083
 20
-2.745409647623698
 30
0.0
 10
0.0811055501302083
 20
-2.745409647623698
 30
0.0
 10
0.0906100802951389
 20
-2.726376003689236
 30
0.0
 10
0.1223042805989583
 20
-2.676403469509549
 30
0.0
 10
0.1960313585069444
 20
-2.667487250434028
 30
0.0
 10
0.20013427734375
 20
-2.667555067274305
 30
0.0
 10
0.2366061740451389
 20
-2.668585883246528
 30
0.0
 10
0.2734103732638889
 20
-2.684549967447917
 30
0.0
 10
0.3110826280381944
 20
-2.700893825954861
 30
0.0
 10
0.3228013780381944
 20
-2.722540961371528
 30
0.0
 10
0.3342081705729166
 20
-2.749165852864583
 30
0.0
 10
0.3452623155381944
 20
-2.77496337890625
 30
0.0
 10
0.3574083116319444
 20
-2.842074924045139
 30
0.0
 10
0.3575303819444444
 20
-2.842753092447917
 30
0.0
 10
0.3575303819444444
 20
-2.842753092447917
 30
0.0
 10
0.3581882052951389
 20
-2.844692654079861
 30
0.0
 10
0.3581882052951389
 20
-2.844692654079861
 30
0.0
 10
0.3607516818576389
 20
-2.849683973524305
 30
0.0
 10
0.4231160481770833
 20
-2.968919542100694
 30
0.0
 10
0.6118503146701388
 20
-3.126430935329861
 30
0.0
 10
0.6120613945855035
 20
-3.12662845187717
 30
0.0
 10
0.63275146484375
 20
-3.14662848578559
 30
0.0
 10
0.647507561577691
 20
-3.164467705620659
 30
0.0
 10
0.6450958251953125
 20
-3.16585710313585
 30
0.0
 10
0.6428934733072916
 20
-3.167701721191406
 30
0.0
 10
0.6410776774088541
 20
-3.170032077365451
 30
0.0
 10
0.6401994493272569
 20
-3.171158684624566
 30
0.0
 10
0.6394746568467882
 20
-3.172353108723958
 30
0.0
 10
0.6388465033637153
 20
-3.173578898111979
 30
0.0
 10
0.6233266194661458
 20
-3.166169908311632
 30
0.0
 10
0.6019075181749132
 20
-3.154153611924913
 30
0.0
 10
0.575039333767361
 20
-3.137742784288194
 30
0.0
 10
0.5000339084201388
 20
-3.091939290364583
 30
0.0
 10
0.4391750759548611
 20
-3.05169677734375
 30
0.0
 10
0.3902723524305555
 20
-3.019361707899305
 30
0.0
 10
0.3159925672743055
 20
-2.970248752170139
 30
0.0
 10
0.2711588541666666
 20
-2.94061279296875
 30
0.0
 10
0.2469685872395833
 20
-2.938144259982639
 30
0.0
 10
0.2469685872395833
 20
-2.938144259982639
 30
0.0
 10
0.2376166449652778
 20
-2.937221950954861
 30
0.0
 10
0.2376166449652778
 20
-2.937221950954861
 30
0.0
 10
0.2016737196180556
 20
-2.933803982204861
 30
0.0
 10
0.1609429253472222
 20
-2.929924858940972
 30
0.0
 10
0.1202935112847222
 20
-2.896735297309028
 30
0.0
 10
0.1102727254231771
 20
-2.888537089029948
 30
0.0
 10
0.1017583211263021
 20
-2.879451327853733
 30
0.0
 10
0.0947418212890625
 20
-2.869767930772569
 30
0.0
 10
0.0953089396158854
 20
-2.877495659722222
 30
0.0
 10
0.0959506564670139
 20
-2.885565863715278
 30
0.0
 10
0.0966423882378472
 20
-2.893661499023438
 30
0.0
 10
0.1012479994032118
 20
-2.898470560709635
 30
0.0
 10
0.1061579386393229
 20
-2.90312025282118
 30
0.0
 10
0.1115044487847222
 20
-2.907491048177083
 30
0.0
 10
0.1554294162326389
 20
-2.943352593315972
 30
0.0
 10
0.2002699110243056
 20
-2.947625054253472
 30
0.0
 10
0.2362942165798611
 20
-2.951056586371528
 30
0.0
 10
0.2362942165798611
 20
-2.951056586371528
 30
0.0
 10
0.2455579969618056
 20
-2.951951768663194
 30
0.0
 10
0.2455579969618056
 20
-2.951951768663194
 30
0.0
 10
0.2663506401909722
 20
-2.954081217447917
 30
0.0
 10
0.3126017252604166
 20
-2.984666612413194
 30
0.0
 10
0.3826158311631944
 20
-3.03094482421875
 30
0.0
 10
0.4316067165798611
 20
-3.063347710503472
 30
0.0
 10
0.4925876193576388
 20
-3.103658040364583
 30
0.0
 10
0.5677964952256944
 20
-3.14959716796875
 30
0.0
 10
0.5954793294270833
 20
-3.166497124565972
 30
0.0
 10
0.6176350911458333
 20
-3.178921169704861
 30
0.0
 10
0.6336466471354166
 20
-3.186516655815972
 30
0.0
 10
0.634823269314236
 20
-3.18707529703776
 30
0.0
 10
0.6357947455512153
 20
-3.187467787000868
 30
0.0
 10
0.6369094848632812
 20
-3.187977261013454
 30
0.0
 10
0.6379097832573785
 20
-3.193023681640625
 30
0.0
 10
0.6405648125542535
 20
-3.197765774197048
 30
0.0
 10
0.644940694173177
 20
-3.201176113552517
 30
0.0
 10
0.6546079847547742
 20
-3.208708869086371
 30
0.0
 10
0.6685519748263888
 20
-3.206979539659288
 30
0.0
 10
0.676084730360243
 20
-3.197312249077691
 30
0.0
 10
0.6836183336046007
 20
-3.187644958496094
 30
0.0
 10
0.6818881564670138
 20
-3.173701816134983
 30
0.0
 10
0.6722217135959201
 20
-3.166168212890625
 30
0.0
  0
HATCH
  5
F9
330
F1
100
AcDbEntity
  8
ENG
 62
     7
100
AcDbHatch
 10
0.0
 20
0.0
 30
0.0
210
0.0
220
0.0
230
1.0
  2
SOLID
 70
     1
 71
     0
 91
        1
 92
        1
 93
        1
 72
     4
 94
        3
 73
     0
 74
     1
 95
      116
 96
      112
 40
0.0
 40
0.0
 40
0.0
 40
0.0
 40
1.0
 40
1.0
 40
1.0
 40
2.0
 40
2.0
 40
2.0
 40
3.0
 40
3.0
 40
3.0
 40
4.0
 40
4.0
 40
4.0
 40
5.0
 40
5.0
 40
5.0
 40
6.0
 40
6.0
 40
6.0
 40
7.0
 40
7.0
 40
7.0
 40
8.0
 40
8.0
 40
8.0
 40
9.0
 40
9.0
 40
9.0
 40
10.0
 40
10.0
 40
10.0
 40
11.0
 40
11.0
 40
11.0
 40
12.0
 40
12.0
 40
12.0
 40
13.0
 40
13.0
 40
13.0
 40
14.0
 40
14.0
 40
14.0
 40
15.0
 40
15.0
 40
15.0
 40
16.0
 40
16.0
 40
16.0
 40
17.0
 40
17.0
 40
17.0
 40
18.0
 40
18.0
 40
18.0
 40
19.0
 40
19.0
 40
19.0
 40
20.0
 40
20.0
 40
20.0
 40
21.0
 40
21.0
 40
21.0
 40
22.0
 40
22.0
 40
22.0
 40
23.0
 40
23.0
 40
23.0
 40
24.0
 40
24.0
 40
24.0
 40
25.0
 40
25.0
 40
25.0
 40
26.0
 40
26.0
 40
26.0
 40
27.0
 40
27.0
 40
27.0
 40
28.0
 40
28.0
 40
28.0
 40
29.0
 40
29.0
 40
29.0
 40
30.0
 40
30.0
 40
30.0
 40
31.0
 40
31.0
 40
31.0
 40
32.0
 40
32.0
 40
32.0
 40
33.0
 40
33.0
 40
33.0
 40
34.0
 40
34.0
 40
34.0
 40
35.0
 40
35.0
 40
35.0
 40
36.0
 40
36.0
 40
36.0
 40
37.0
 40
37.0
 40
37.0
 40
37.0
 10
0.6722217135959201
 20
-3.166168212890625
 10
0.6695259941948785
 20
-3.164067586263021
 10
0.666487799750434
 20
-3.16276126437717
 10
0.663358900282118
 20
-3.162072075737847
 10
0.6621771918402778
 20
-3.160526699490017
 10
0.6610031127929688
 20
-3.158987257215712
 10
0.659634060329861
 20
-3.157301161024305
 10
0.6442803276909722
 20
-3.138420952690972
 10
0.622402615017361
 20
-3.117316351996528
 10
0.6211140950520833
 20
-3.116095648871528
 10
0.4427761501736111
 20
-2.967237684461805
 10
0.3770480685763889
 20
-2.850375705295139
 10
0.3710055881076389
 20
-2.839213053385417
 10
0.3693305121527777
 20
-2.830044216579861
 10
0.3579915364583333
 20
-2.769402398003472
 10
0.3469712999131944
 20
-2.743686252170139
 10
0.3347710503472222
 20
-2.715216742621528
 10
0.32122802734375
 20
-2.690151638454861
 10
0.2789374457465277
 20
-2.671800401475694
 10
0.2374471028645833
 20
-2.653801812065972
 10
0.1973402235243056
 20
-2.653598361545139
 10
0.1956515842013889
 20
-2.653598361545139
 10
0.1956515842013889
 20
-2.653598361545139
 10
0.1948377821180556
 20
-2.653652615017361
 10
0.1948377821180556
 20
-2.653652615017361
 10
0.1141221788194444
 20
-2.663213941786024
 10
0.0792100694444444
 20
-2.718152364095052
 10
0.0686925252278646
 20
-2.739191691080729
 10
0.0686925252278646
 20
-2.739191691080729
 10
0.0796915690104167
 20
-2.737263997395833
 10
0.0796915690104167
 20
-2.737263997395833
 10
0.0796915690104167
 20
-2.737263997395833
 10
0.0811055501302083
 20
-2.745409647623698
 10
0.0811055501302083
 20
-2.745409647623698
 10
0.0906100802951389
 20
-2.726376003689236
 10
0.1223042805989583
 20
-2.676403469509549
 10
0.1960313585069444
 20
-2.667487250434028
 10
0.20013427734375
 20
-2.667555067274305
 10
0.2366061740451389
 20
-2.668585883246528
 10
0.2734103732638889
 20
-2.684549967447917
 10
0.3110826280381944
 20
-2.700893825954861
 10
0.3228013780381944
 20
-2.722540961371528
 10
0.3342081705729166
 20
-2.749165852864583
 10
0.3452623155381944
 20
-2.77496337890625
 10
0.3574083116319444
 20
-2.842074924045139
 10
0.3575303819444444
 20
-2.842753092447917
 10
0.3575303819444444
 20
-2.842753092447917
 10
0.3581882052951389
 20
-2.844692654079861
 10
0.3581882052951389
 20
-2.844692654079861
 10
0.3607516818576389
 20
-2.849683973524305
 10
0.4231160481770833
 20
-2.968919542100694
 10
0.6118503146701388
 20
-3.126430935329861
 10
0.6120613945855035
 20
-3.12662845187717
 10
0.63275146484375
 20
-3.14662848578559
 10
0.647507561577691
 20
-3.164467705620659
 10
0.6450958251953125
 20
-3.16585710313585
 10
0.6428934733072916
 20
-3.167701721191406
 10
0.6410776774088541
 20
-3.170032077365451
 10
0.6401994493272569
 20
-3.171158684624566
 10
0.6394746568467882
 20
-3.172353108723958
 10
0.6388465033637153
 20
-3.173578898111979
 10
0.6233266194661458
 20
-3.166169908311632
 10
0.6019075181749132
 20
-3.154153611924913
 10
0.575039333767361
 20
-3.137742784288194
 10
0.5000339084201388
 20
-3.091939290364583
 10
0.4391750759548611
 20
-3.05169677734375
 10
0.3902723524305555
 20
-3.019361707899305
 10
0.3159925672743055
 20
-2.970248752170139
 10
0.2711588541666666
 20
-2.94061279296875
 10
0.2469685872395833
 20
-2.938144259982639
 10
0.2469685872395833
 20
-2.938144259982639
 10
0.2376166449652778
 20
-2.937221950954861
 10
0.2376166449652778
 20
-2.937221950954861
 10
0.2016737196180556
 20
-2.933803982204861
 10
0.1609429253472222
 20
-2.929924858940972
 10
0.1202935112847222
 20
-2.896735297309028
 10
0.1102727254231771
 20
-2.888537089029948
 10
0.1017583211263021
 20
-2.879451327853733
 10
0.0947418212890625
 20
-2.869767930772569
 10
0.0953089396158854
 20
-2.877495659722222
 10
0.0959506564670139
 20
-2.885565863715278
 10
0.0966423882378472
 20
-2.893661499023438
 10
0.1012479994032118
 20
-2.898470560709635
 10
0.1061579386393229
 20
-2.90312025282118
 10
0.1115044487847222
 20
-2.907491048177083
 10
0.1554294162326389
 20
-2.943352593315972
 10
0.2002699110243056
 20
-2.947625054253472
 10
0.2362942165798611
 20
-2.951056586371528
 10
0.2362942165798611
 20
-2.951056586371528
 10
0.2455579969618056
 20
-2.951951768663194
 10
0.2455579969618056
 20
-2.951951768663194
 10
0.2663506401909722
 20
-2.954081217447917
 10
0.3126017252604166
 20
-2.984666612413194
 10
0.3826158311631944
 20
-3.03094482421875
 10
0.4316067165798611
 20
-3.063347710503472
 10
0.4925876193576388
 20
-3.103658040364583
 10
0.5677964952256944
 20
-3.14959716796875
 10
0.5954793294270833
 20
-3.166497124565972
 10
0.6176350911458333
 20
-3.178921169704861
 10
0.6336466471354166
 20
-3.186516655815972
 10
0.634823269314236
 20
-3.18707529703776
 10
0.6357947455512153
 20
-3.187467787000868
 10
0.6369094848632812
 20
-3.187977261013454
 10
0.6379097832573785
 20
-3.193023681640625
 10
0.6405648125542535
 20
-3.197765774197048
 10
0.644940694173177
 20
-3.201176113552517
 10
0.6546079847547742
 20
-3.208708869086371
 10
0.6685519748263888
 20
-3.206979539659288
 10
0.676084730360243
 20
-3.197312249077691
 10
0.6836183336046007
 20
-3.187644958496094
 10
0.6818881564670138
 20
-3.173701816134983
 10
0.6722217135959201
 20
-3.166168212890625
 97
        0
 75
     2
 76
     1
 98
        0
  0
SPLINE
  5
FA
330
F1
100
AcDbEntity
  8
ENG
370
     0
100
AcDbSpline
210
0.0
220
0.0
230
1.0
 70
    11
 71
     3
 72
    23
 73
    19
 74
     0
 42
0.0000000001
 43
0.0000000001
 12
1.0
 22
0.0
 32
0.0
 13
1.0
 23
0.0
 33
0.0
 40
0.0
 40
0.0
 40
0.0
 40
0.0
 40
1.0
 40
1.0
 40
1.0
 40
2.0
 40
2.0
 40
2.0
 40
3.0
 40
3.0
 40
3.0
 40
4.0
 40
4.0
 40
4.0
 40
5.0
 40
5.0
 40
5.0
 40
6.0
 40
6.0
 40
6.0
 40
6.0
 10
0.3333333333333333
 20
-2.812608506944444
 30
0.0
 10
0.3220689561631944
 20
-2.789767795138889
 30
0.0
 10
0.3006388346354166
 20
-2.778062608506944
 30
0.0
 10
0.2844577365451389
 20
-2.786064995659722
 30
0.0
 10
0.2683173285590278
 20
-2.794026692708333
 30
0.0
 10
0.2644992404513889
 20
-2.818155924479167
 30
0.0
 10
0.2757636176215278
 20
-2.840996636284722
 30
0.0
 10
0.2846272786458333
 20
-2.858981662326389
 30
0.0
 10
0.2998250325520833
 20
-2.870022243923611
 30
0.0
 10
0.3137681749131944
 20
-2.870022243923611
 30
0.0
 10
0.3175320095486111
 20
-2.870022243923611
 30
0.0
 10
0.3212076822916666
 20
-2.869222005208333
 30
0.0
 10
0.3246392144097222
 20
-2.867526584201389
 30
0.0
 10
0.3328382703993055
 20
-2.863484700520833
 30
0.0
 10
0.3380872938368055
 20
-2.855183919270833
 30
0.0
 10
0.3394300672743055
 20
-2.844170464409722
 30
0.0
 10
0.34063720703125
 20
-2.834228515625
 30
0.0
 10
0.3384738498263889
 20
-2.823011610243055
 30
0.0
 10
0.3333333333333333
 20
-2.812608506944444
 30
0.0
  0
SPLINE
  5
FB
330
F1
100
AcDbEntity
  8
ENG
370
     0
100
AcDbSpline
210
0.0
220
0.0
230
1.0
 70
    11
 71
     3
 72
    29
 73
    25
 74
     0
 42
0.0000000001
 43
0.0000000001
 12
1.0
 22
0.0
 32
0.0
 13
1.0
 23
0.0
 33
0.0
 40
0.0
 40
0.0
 40
0.0
 40
0.0
 40
1.0
 40
1.0
 40
1.0
 40
2.0
 40
2.0
 40
2.0
 40
3.0
 40
3.0
 40
3.0
 40
4.0
 40
4.0
 40
4.0
 40
5.0
 40
5.0
 40
5.0
 40
6.0
 40
6.0
 40
6.0
 40
7.0
 40
7.0
 40
7.0
 40
8.0
 40
8.0
 40
8.0
 40
8.0
 10
0.3256429036458333
 20
-2.842488606770833
 30
0.0
 10
0.3252020941840277
 20
-2.846096462673611
 30
0.0
 10
0.3236965603298611
 20
-2.852511935763889
 30
0.0
 10
0.3184950086805555
 20
-2.855075412326389
 30
0.0
 10
0.3098483615451389
 20
-2.859375
 30
0.0
 10
0.295654296875
 20
-2.849921332465278
 30
0.0
 10
0.2882147894965277
 20
-2.834865993923611
 30
0.0
 10
0.2876010470920139
 20
-2.833619859483507
 30
0.0
 10
0.2871339586046007
 20
-2.832350836859809
 30
0.0
 10
0.2866363525390625
 20
-2.831086900499132
 30
0.0
 10
0.2874823676215277
 20
-2.831717597113715
 30
0.0
 10
0.2883385552300347
 20
-2.832340664333767
 30
0.0
 10
0.2893032497829861
 20
-2.83284674750434
 30
0.0
 10
0.2991977267795139
 20
-2.83803473578559
 30
0.0
 10
0.3114242553710938
 20
-2.834219190809462
 30
0.0
 10
0.3166122436523438
 20
-2.82432386610243
 30
0.0
 10
0.318161858452691
 20
-2.821368747287326
 30
0.0
 10
0.318817138671875
 20
-2.818211025661892
 30
0.0
 10
0.3188383314344618
 20
-2.815089755588108
 30
0.0
 10
0.3195521036783854
 20
-2.816273159450955
 30
0.0
 10
0.3202565511067708
 20
-2.817470974392361
 30
0.0
 10
0.3208821614583333
 20
-2.818739149305555
 30
0.0
 10
0.3247748480902777
 20
-2.826646592881944
 30
0.0
 10
0.3265109592013889
 20
-2.835300021701389
 30
0.0
 10
0.3256429036458333
 20
-2.842488606770833
 30
0.0
  0
HATCH
  5
FC
330
F1
100
AcDbEntity
  8
ENG
 62
     7
100
AcDbHatch
 10
0.0
 20
0.0
 30
0.0
210
0.0
220
0.0
230
1.0
  2
SOLID
 70
     1
 71
     0
 91
        2
 92
        1
 93
        1
 72
     4
 94
        3
 73
     0
 74
     1
 95
       23
 96
       19
 40
0.0
 40
0.0
 40
0.0
 40
0.0
 40
1.0
 40
1.0
 40
1.0
 40
2.0
 40
2.0
 40
2.0
 40
3.0
 40
3.0
 40
3.0
 40
4.0
 40
4.0
 40
4.0
 40
5.0
 40
5.0
 40
5.0
 40
6.0
 40
6.0
 40
6.0
 40
6.0
 10
0.3333333333333333
 20
-2.812608506944444
 10
0.3220689561631944
 20
-2.789767795138889
 10
0.3006388346354166
 20
-2.778062608506944
 10
0.2844577365451389
 20
-2.786064995659722
 10
0.2683173285590278
 20
-2.794026692708333
 10
0.2644992404513889
 20
-2.818155924479167
 10
0.2757636176215278
 20
-2.840996636284722
 10
0.2846272786458333
 20
-2.858981662326389
 10
0.2998250325520833
 20
-2.870022243923611
 10
0.3137681749131944
 20
-2.870022243923611
 10
0.3175320095486111
 20
-2.870022243923611
 10
0.3212076822916666
 20
-2.869222005208333
 10
0.3246392144097222
 20
-2.867526584201389
 10
0.3328382703993055
 20
-2.863484700520833
 10
0.3380872938368055
 20
-2.855183919270833
 10
0.3394300672743055
 20
-2.844170464409722
 10
0.34063720703125
 20
-2.834228515625
 10
0.3384738498263889
 20
-2.823011610243055
 10
0.3333333333333333
 20
-2.812608506944444
 97
        0
 92
        1
 93
        1
 72
     4
 94
        3
 73
     0
 74
     1
 95
       29
 96
       25
 40
0.0
 40
0.0
 40
0.0
 40
0.0
 40
1.0
 40
1.0
 40
1.0
 40
2.0
 40
2.0
 40
2.0
 40
3.0
 40
3.0
 40
3.0
 40
4.0
 40
4.0
 40
4.0
 40
5.0
 40
5.0
 40
5.0
 40
6.0
 40
6.0
 40
6.0
 40
7.0
 40
7.0
 40
7.0
 40
8.0
 40
8.0
 40
8.0
 40
8.0
 10
0.3256429036458333
 20
-2.842488606770833
 10
0.3252020941840277
 20
-2.846096462673611
 10
0.3236965603298611
 20
-2.852511935763889
 10
0.3184950086805555
 20
-2.855075412326389
 10
0.3098483615451389
 20
-2.859375
 10
0.295654296875
 20
-2.849921332465278
 10
0.2882147894965277
 20
-2.834865993923611
 10
0.2876010470920139
 20
-2.833619859483507
 10
0.2871339586046007
 20
-2.832350836859809
 10
0.2866363525390625
 20
-2.831086900499132
 10
0.2874823676215277
 20
-2.831717597113715
 10
0.2883385552300347
 20
-2.832340664333767
 10
0.2893032497829861
 20
-2.83284674750434
 10
0.2991977267795139
 20
-2.83803473578559
 10
0.3114242553710938
 20
-2.834219190809462
 10
0.3166122436523438
 20
-2.82432386610243
 10
0.318161858452691
 20
-2.821368747287326
 10
0.318817138671875
 20
-2.818211025661892
 10
0.3188383314344618
 20
-2.815089755588108
 10
0.3195521036783854
 20
-2.816273159450955
 10
0.3202565511067708
 20
-2.817470974392361
 10
0.3208821614583333
 20
-2.818739149305555
 10
0.3247748480902777
 20
-2.826646592881944
 10
0.3265109592013889
 20
-2.835300021701389
 10
0.3256429036458333
 20
-2.842488606770833
 97
        0
 75
     2
 76
     1
 98
        0
  0
INSERT
  5
FE
330
F1
100
AcDbEntity
  8
ENG
100
AcDbBlockReference
  2
block 4
 10
0.0
 20
0.0
 30
0.0
  0
INSERT
  5
105
330
F1
100
AcDbEntity
  8
ENG
100
AcDbBlockReference
  2
block 5
 10
0.0
 20
0.0
 30
0.0
  0
INSERT
  5
10C
330
F1
100
AcDbEntity
  8
ENG
100
AcDbBlockReference
  2
block 6
 10
0.0
 20
0.0
 30
0.0
  0
INSERT
  5
112
330
F1
100
AcDbEntity
  8
ENG
100
AcDbBlockReference
  2
block 7
 10
0.0
 20
0.0
 30
0.0
  0
ENDBLK
  5
F4
330
F1
100
AcDbEntity
  8
0
100
AcDbBlockEnd
  0
BLOCK
  5
FF
330
FD
100
AcDbEntity
  8
0
100
AcDbBlockBegin
  2
block 4
 70
     0
 10
0.0
 20
0.0
 30
0.0
  3
block 4
  1

  0
POLYLINE
  5
101
330
FD
100
AcDbEntity
  8
ENG
 62
     7
370
    35
100
AcDb2dPolyline
 66
     1
 10
0.0
 20
0.0
 30
0.0
  0
VERTEX
  5
102
330
101
100
AcDbEntity
  8
ENG
 62
     7
370
    35
100
AcDbVertex
100
AcDb2dVertex
 10
0.6542433186311629
 20
-3.161912216583055
 30
0.0
  0
VERTEX
  5
117
330
101
100
AcDbEntity
  8
0
100
AcDbVertex
100
AcDb2dVertex
 10
0.6542433186311629
 20
-3.161912216583055
 30
0.0
  0
SEQEND
  5
103
330
101
100
AcDbEntity
  8
ENG
 62
     7
370
    35
  0
ENDBLK
  5
100
330
FD
100
AcDbEntity
  8
0
100
AcDbBlockEnd
  0
BLOCK
  5
106
330
104
100
AcDbEntity
  8
0
100
AcDbBlockBegin
  2
block 5
 70
     0
 10
0.0
 20
0.0
 30
0.0
  3
block 5
  1

  0
POLYLINE
  5
108
330
104
100
AcDbEntity
  8
ENG
 62
     7
370
    35
100
AcDb2dPolyline
 66
     1
 10
0.0
 20
0.0
 30
0.0
  0
VERTEX
  5
109
330
108
100
AcDbEntity
  8
ENG
 62
     7
370
    35
100
AcDbVertex
100
AcDb2dVertex
 10
0.636623021937036
 20
-3.180462740757043
 30
0.0
  0
VERTEX
  5
118
330
108
100
AcDbEntity
  8
0
100
AcDbVertex
100
AcDb2dVertex
 10
0.636623021937036
 20
-3.180462740757043
 30
0.0
  0
SEQEND
  5
10A
330
108
100
AcDbEntity
  8
ENG
 62
     7
370
    35
  0
ENDBLK
  5
107
330
104
100
AcDbEntity
  8
0
100
AcDbBlockEnd
  0
BLOCK
  5
10D
330
10B
100
AcDbEntity
  8
0
100
AcDbBlockBegin
  2
block 6
 70
     0
 10
0.0
 20
0.0
 30
0.0
  3
block 6
  1

  0
SPLINE
  5
10F
330
10B
100
AcDbEntity
  8
ENG
370
     0
100
AcDbSpline
210
0.0
220
0.0
230
1.0
 70
    11
 71
     3
 72
    62
 73
    58
 74
     0
 42
0.0000000001
 43
0.0000000001
 12
1.0
 22
0.0
 32
0.0
 13
1.0
 23
0.0
 33
0.0
 40
0.0
 40
0.0
 40
0.0
 40
0.0
 40
1.0
 40
1.0
 40
1.0
 40
2.0
 40
2.0
 40
2.0
 40
3.0
 40
3.0
 40
3.0
 40
4.0
 40
4.0
 40
4.0
 40
5.0
 40
5.0
 40
5.0
 40
6.0
 40
6.0
 40
6.0
 40
7.0
 40
7.0
 40
7.0
 40
8.0
 40
8.0
 40
8.0
 40
9.0
 40
9.0
 40
9.0
 40
10.0
 40
10.0
 40
10.0
 40
11.0
 40
11.0
 40
11.0
 40
12.0
 40
12.0
 40
12.0
 40
13.0
 40
13.0
 40
13.0
 40
14.0
 40
14.0
 40
14.0
 40
15.0
 40
15.0
 40
15.0
 40
16.0
 40
16.0
 40
16.0
 40
17.0
 40
17.0
 40
17.0
 40
18.0
 40
18.0
 40
18.0
 40
19.0
 40
19.0
 40
19.0
 40
19.0
 10
0.2573352389865451
 20
-2.663795471191406
 30
0.0
 10
0.2681994967990451
 20
-2.655480278862847
 30
0.0
 10
0.2828809950086805
 20
-2.646565755208333
 30
0.0
 10
0.2913750542534722
 20
-2.647148980034722
 30
0.0
 10
0.30621337890625
 20
-2.648491753472222
 30
0.0
 10
0.3469984266493055
 20
-2.66552734375
 30
0.0
 10
0.3633355034722222
 20
-2.673109266493055
 30
0.0
 10
0.3730875651041666
 20
-2.6776123046875
 30
0.0
 10
0.4096544053819444
 20
-2.7119140625
 30
0.0
 10
0.4138726128472222
 20
-2.717542860243055
 30
0.0
 10
0.4189520941840277
 20
-2.724324544270833
 30
0.0
 10
0.4292873806423611
 20
-2.746826171875
 30
0.0
 10
0.4284464518229166
 20
-2.7518310546875
 30
0.0
 10
0.4261813693576388
 20
-2.759670681423611
 30
0.0
 10
0.4179755316840277
 20
-2.774142795138889
 30
0.0
 10
0.4156155056423611
 20
-2.7757568359375
 30
0.0
 10
0.4095662434895833
 20
-2.776597764756944
 30
0.0
 10
0.3864000108506944
 20
-2.775119357638889
 30
0.0
 10
0.3776584201388889
 20
-2.7677001953125
 30
0.0
 10
0.3726603190104166
 20
-2.763468424479167
 30
0.0
 10
0.3643731011284722
 20
-2.758165147569444
 30
0.0
 10
0.3555976019965277
 20
-2.752549913194444
 30
0.0
 10
0.3555976019965277
 20
-2.752549913194444
 30
0.0
 10
0.3487955729166666
 20
-2.748157925075955
 30
0.0
 10
0.3487955729166666
 20
-2.748157925075955
 30
0.0
 10
0.3510309855143229
 20
-2.754091050889757
 30
0.0
 10
0.353255377875434
 20
-2.761238945855034
 30
0.0
 10
0.3553890652126736
 20
-2.768937852647569
 30
0.0
 10
0.3607737223307291
 20
-2.772443135579427
 30
0.0
 10
0.3657014634874132
 20
-2.775772942437066
 30
0.0
 10
0.3686726888020833
 20
-2.778293185763889
 30
0.0
 10
0.3797268337673611
 20
-2.787679036458333
 30
0.0
 10
0.4004923502604166
 20
-2.789808485243055
 30
0.0
 10
0.4115261501736111
 20
-2.789808485243055
 30
0.0
 10
0.4141845703125
 20
-2.789808485243055
 30
0.0
 10
0.4162801106770833
 20
-2.789686414930555
 30
0.0
 10
0.41754150390625
 20
-2.789510091145833
 30
0.0
 10
0.4307996961805555
 20
-2.787679036458333
 30
0.0
 10
0.4416978624131944
 20
-2.755995008680555
 30
0.0
 10
0.4417928059895833
 20
-2.755683051215278
 30
0.0
 10
0.4453464084201388
 20
-2.743326822916667
 30
0.0
 10
0.4281005859375
 20
-2.713365342881944
 30
0.0
 10
0.42498779296875
 20
-2.709214952256944
 30
0.0
 10
0.4203559027777777
 20
-2.703030056423611
 30
0.0
 10
0.3824734157986111
 20
-2.666653103298611
 30
0.0
 10
0.3691745334201389
 20
-2.660495334201389
 30
0.0
 10
0.3686319986979166
 20
-2.660251193576389
 30
0.0
 10
0.31390380859375
 20
-2.635240342881944
 30
0.0
 10
0.2926296657986111
 20
-2.633314344618055
 30
0.0
 10
0.2727525499131944
 20
-2.631388346354167
 30
0.0
 10
0.24407958984375
 20
-2.656453450520833
 30
0.0
 10
0.2408786349826389
 20
-2.659288194444444
 30
0.0
 10
0.2408786349826389
 20
-2.659288194444444
 30
0.0
 10
0.2408108181423611
 20
-2.659367031521267
 30
0.0
 10
0.2408108181423611
 20
-2.659367031521267
 30
0.0
 10
0.2460852728949653
 20
-2.660572475857205
 30
0.0
 10
0.2516276041666666
 20
-2.662039015028212
 30
0.0
 10
0.2573352389865451
 20
-2.663795471191406
 30
0.0
  0
HATCH
  5
110
330
10B
100
AcDbEntity
  8
ENG
 62
     7
100
AcDbHatch
 10
0.0
 20
0.0
 30
0.0
210
0.0
220
0.0
230
1.0
  2
SOLID
 70
     1
 71
     0
 91
        1
 92
        1
 93
        1
 72
     4
 94
        3
 73
     0
 74
     1
 95
       62
 96
       58
 40
0.0
 40
0.0
 40
0.0
 40
0.0
 40
1.0
 40
1.0
 40
1.0
 40
2.0
 40
2.0
 40
2.0
 40
3.0
 40
3.0
 40
3.0
 40
4.0
 40
4.0
 40
4.0
 40
5.0
 40
5.0
 40
5.0
 40
6.0
 40
6.0
 40
6.0
 40
7.0
 40
7.0
 40
7.0
 40
8.0
 40
8.0
 40
8.0
 40
9.0
 40
9.0
 40
9.0
 40
10.0
 40
10.0
 40
10.0
 40
11.0
 40
11.0
 40
11.0
 40
12.0
 40
12.0
 40
12.0
 40
13.0
 40
13.0
 40
13.0
 40
14.0
 40
14.0
 40
14.0
 40
15.0
 40
15.0
 40
15.0
 40
16.0
 40
16.0
 40
16.0
 40
17.0
 40
17.0
 40
17.0
 40
18.0
 40
18.0
 40
18.0
 40
19.0
 40
19.0
 40
19.0
 40
19.0
 10
0.2573352389865451
 20
-2.663795471191406
 10
0.2681994967990451
 20
-2.655480278862847
 10
0.2828809950086805
 20
-2.646565755208333
 10
0.2913750542534722
 20
-2.647148980034722
 10
0.30621337890625
 20
-2.648491753472222
 10
0.3469984266493055
 20
-2.66552734375
 10
0.3633355034722222
 20
-2.673109266493055
 10
0.3730875651041666
 20
-2.6776123046875
 10
0.4096544053819444
 20
-2.7119140625
 10
0.4138726128472222
 20
-2.717542860243055
 10
0.4189520941840277
 20
-2.724324544270833
 10
0.4292873806423611
 20
-2.746826171875
 10
0.4284464518229166
 20
-2.7518310546875
 10
0.4261813693576388
 20
-2.759670681423611
 10
0.4179755316840277
 20
-2.774142795138889
 10
0.4156155056423611
 20
-2.7757568359375
 10
0.4095662434895833
 20
-2.776597764756944
 10
0.3864000108506944
 20
-2.775119357638889
 10
0.3776584201388889
 20
-2.7677001953125
 10
0.3726603190104166
 20
-2.763468424479167
 10
0.3643731011284722
 20
-2.758165147569444
 10
0.3555976019965277
 20
-2.752549913194444
 10
0.3555976019965277
 20
-2.752549913194444
 10
0.3487955729166666
 20
-2.748157925075955
 10
0.3487955729166666
 20
-2.748157925075955
 10
0.3510309855143229
 20
-2.754091050889757
 10
0.353255377875434
 20
-2.761238945855034
 10
0.3553890652126736
 20
-2.768937852647569
 10
0.3607737223307291
 20
-2.772443135579427
 10
0.3657014634874132
 20
-2.775772942437066
 10
0.3686726888020833
 20
-2.778293185763889
 10
0.3797268337673611
 20
-2.787679036458333
 10
0.4004923502604166
 20
-2.789808485243055
 10
0.4115261501736111
 20
-2.789808485243055
 10
0.4141845703125
 20
-2.789808485243055
 10
0.4162801106770833
 20
-2.789686414930555
 10
0.41754150390625
 20
-2.789510091145833
 10
0.4307996961805555
 20
-2.787679036458333
 10
0.4416978624131944
 20
-2.755995008680555
 10
0.4417928059895833
 20
-2.755683051215278
 10
0.4453464084201388
 20
-2.743326822916667
 10
0.4281005859375
 20
-2.713365342881944
 10
0.42498779296875
 20
-2.709214952256944
 10
0.4203559027777777
 20
-2.703030056423611
 10
0.3824734157986111
 20
-2.666653103298611
 10
0.3691745334201389
 20
-2.660495334201389
 10
0.3686319986979166
 20
-2.660251193576389
 10
0.31390380859375
 20
-2.635240342881944
 10
0.2926296657986111
 20
-2.633314344618055
 10
0.2727525499131944
 20
-2.631388346354167
 10
0.24407958984375
 20
-2.656453450520833
 10
0.2408786349826389
 20
-2.659288194444444
 10
0.2408786349826389
 20
-2.659288194444444
 10
0.2408108181423611
 20
-2.659367031521267
 10
0.2408108181423611
 20
-2.659367031521267
 10
0.2460852728949653
 20
-2.660572475857205
 10
0.2516276041666666
 20
-2.662039015028212
 10
0.2573352389865451
 20
-2.663795471191406
 97
        0
 75
     2
 76
     1
 98
        0
  0
ENDBLK
  5
10E
330
10B
100
AcDbEntity
  8
0
100
AcDbBlockEnd
  0
BLOCK
  5
113
330
111
100
AcDbEntity
  8
0
100
AcDbBlockBegin
  2
block 7
 70
     0
 10
0.0
 20
0.0
 30
0.0
  3
block 7
  1

  0
SPLINE
  5
115
330
111
100
AcDbEntity
  8
ENG
370
     0
100
AcDbSpline
210
0.0
220
0.0
230
1.0
 70
    11
 71
     3
 72
    62
 73
    58
 74
     0
 42
0.0000000001
 43
0.0000000001
 12
1.0
 22
0.0
 32
0.0
 13
1.0
 23
0.0
 33
0.0
 40
0.0
 40
0.0
 40
0.0
 40
0.0
 40
1.0
 40
1.0
 40
1.0
 40
2.0
 40
2.0
 40
2.0
 40
3.0
 40
3.0
 40
3.0
 40
4.0
 40
4.0
 40
4.0
 40
5.0
 40
5.0
 40
5.0
 40
6.0
 40
6.0
 40
6.0
 40
7.0
 40
7.0
 40
7.0
 40
8.0
 40
8.0
 40
8.0
 40
9.0
 40
9.0
 40
9.0
 40
10.0
 40
10.0
 40
10.0
 40
11.0
 40
11.0
 40
11.0
 40
12.0
 40
12.0
 40
12.0
 40
13.0
 40
13.0
 40
13.0
 40
14.0
 40
14.0
 40
14.0
 40
15.0
 40
15.0
 40
15.0
 40
16.0
 40
16.0
 40
16.0
 40
17.0
 40
17.0
 40
17.0
 40
18.0
 40
18.0
 40
18.0
 40
19.0
 40
19.0
 40
19.0
 40
19.0
 10
0.0572306315104167
 20
-3.023220486111111
 30
0.0
 10
0.0450642903645833
 20
-3.023220486111111
 30
0.0
 10
0.0330742730034722
 20
-3.021402994791667
 30
0.0
 10
0.0304836697048611
 20
-3.020806206597222
 30
0.0
 10
0.0154351128472222
 20
-3.017293294270833
 30
0.0
 10
-0.0074462890625
 20
-2.981906467013889
 30
0.0
 10
-0.0110677083333333
 20
-2.973971896701389
 30
0.0
 10
-0.0150824652777778
 20
-2.9652099609375
 30
0.0
 10
-0.0320570203993056
 20
-2.900119357638889
 30
0.0
 10
-0.0303276909722222
 20
-2.882229275173611
 30
0.0
 10
-0.0302530924479167
 20
-2.8814697265625
 30
0.0
 10
-0.0224677191840278
 20
-2.805447048611111
 30
0.0
 10
-0.0104709201388889
 20
-2.781155056423611
 30
0.0
 10
0.0005018446180556
 20
-2.758938259548611
 30
0.0
 10
0.04833984375
 20
-2.743503146701389
 30
0.0
 10
0.0537651909722222
 20
-2.741807725694444
 30
0.0
 10
0.0537651909722222
 20
-2.741807725694444
 30
0.0
 10
0.0796915690104167
 20
-2.737263997395833
 30
0.0
 10
0.0796915690104167
 20
-2.737263997395833
 30
0.0
 10
0.0796915690104167
 20
-2.737263997395833
 30
0.0
 10
0.0820651584201389
 20
-2.750935872395833
 30
0.0
 10
0.0820651584201389
 20
-2.750935872395833
 30
0.0
 10
0.0820651584201389
 20
-2.750935872395833
 30
0.0
 10
0.0570136176215278
 20
-2.755276150173611
 30
0.0
 10
0.0570136176215278
 20
-2.755276150173611
 30
0.0
 10
0.03961181640625
 20
-2.760769314236111
 30
0.0
 10
0.0082736545138889
 20
-2.774563259548611
 30
0.0
 10
0.0019802517361111
 20
-2.787312825520833
 30
0.0
 10
-0.0065578884548611
 20
-2.804592556423611
 30
0.0
 10
-0.0142890082465278
 20
-2.860649956597222
 30
0.0
 10
-0.0165066189236111
 20
-2.883558485243055
 30
0.0
 10
-0.01788330078125
 20
-2.897854275173611
 30
0.0
 10
-0.0023057725694444
 20
-2.959743923611111
 30
0.0
 10
0.0015597873263889
 20
-2.968193901909722
 30
0.0
 10
0.0065036349826389
 20
-2.97900390625
 30
0.0
 10
0.0269639756944444
 20
-3.005723741319444
 30
0.0
 10
0.03363037109375
 20
-3.007269965277778
 30
0.0
 10
0.04559326171875
 20
-3.010064019097222
 30
0.0
 10
0.06951904296875
 20
-3.010023328993055
 30
0.0
 10
0.0735948350694444
 20
-3.0072021484375
 30
0.0
 10
0.0785047743055556
 20
-3.001247829861111
 30
0.0
 10
0.0927802191840278
 20
-2.97412109375
 30
0.0
 10
0.0899115668402778
 20
-2.959377712673611
 30
0.0
 10
0.0867648654513889
 20
-2.943210177951389
 30
0.0
 10
0.0759955512152778
 20
-2.831651475694444
 30
0.0
 10
0.0795830620659722
 20
-2.819566514756944
 30
0.0
 10
0.0795830620659722
 20
-2.819566514756944
 30
0.0
 10
0.0929022894965278
 20
-2.823527018229167
 30
0.0
 10
0.0929022894965278
 20
-2.823527018229167
 30
0.0
 10
0.0908949110243056
 20
-2.833116319444444
 30
0.0
 10
0.0996636284722222
 20
-2.936781141493055
 30
0.0
 10
0.1035427517361111
 20
-2.956719292534722
 30
0.0
 10
0.1077609592013889
 20
-2.978407118055555
 30
0.0
 10
0.0890706380208333
 20
-3.01025390625
 30
0.0
 10
0.0839097764756944
 20
-3.016438802083333
 30
0.0
 10
0.0795084635416667
 20
-3.021714952256944
 30
0.0
 10
0.06829833984375
 20
-3.023220486111111
 30
0.0
 10
0.0572306315104167
 20
-3.023220486111111
 30
0.0
  0
HATCH
  5
116
330
111
100
AcDbEntity
  8
ENG
 62
     7
100
AcDbHatch
 10
0.0
 20
0.0
 30
0.0
210
0.0
220
0.0
230
1.0
  2
SOLID
 70
     1
 71
     0
 91
        1
 92
        1
 93
        1
 72
     4
 94
        3
 73
     0
 74
     1
 95
       62
 96
       58
 40
0.0
 40
0.0
 40
0.0
 40
0.0
 40
1.0
 40
1.0
 40
1.0
 40
2.0
 40
2.0
 40
2.0
 40
3.0
 40
3.0
 40
3.0
 40
4.0
 40
4.0
 40
4.0
 40
5.0
 40
5.0
 40
5.0
 40
6.0
 40
6.0
 40
6.0
 40
7.0
 40
7.0
 40
7.0
 40
8.0
 40
8.0
 40
8.0
 40
9.0
 40
9.0
 40
9.0
 40
10.0
 40
10.0
 40
10.0
 40
11.0
 40
11.0
 40
11.0
 40
12.0
 40
12.0
 40
12.0
 40
13.0
 40
13.0
 40
13.0
 40
14.0
 40
14.0
 40
14.0
 40
15.0
 40
15.0
 40
15.0
 40
16.0
 40
16.0
 40
16.0
 40
17.0
 40
17.0
 40
17.0
 40
18.0
 40
18.0
 40
18.0
 40
19.0
 40
19.0
 40
19.0
 40
19.0
 10
0.0572306315104167
 20
-3.023220486111111
 10
0.0450642903645833
 20
-3.023220486111111
 10
0.0330742730034722
 20
-3.021402994791667
 10
0.0304836697048611
 20
-3.020806206597222
 10
0.0154351128472222
 20
-3.017293294270833
 10
-0.0074462890625
 20
-2.981906467013889
 10
-0.0110677083333333
 20
-2.973971896701389
 10
-0.0150824652777778
 20
-2.9652099609375
 10
-0.0320570203993056
 20
-2.900119357638889
 10
-0.0303276909722222
 20
-2.882229275173611
 10
-0.0302530924479167
 20
-2.8814697265625
 10
-0.0224677191840278
 20
-2.805447048611111
 10
-0.0104709201388889
 20
-2.781155056423611
 10
0.0005018446180556
 20
-2.758938259548611
 10
0.04833984375
 20
-2.743503146701389
 10
0.0537651909722222
 20
-2.741807725694444
 10
0.0537651909722222
 20
-2.741807725694444
 10
0.0796915690104167
 20
-2.737263997395833
 10
0.0796915690104167
 20
-2.737263997395833
 10
0.0796915690104167
 20
-2.737263997395833
 10
0.0820651584201389
 20
-2.750935872395833
 10
0.0820651584201389
 20
-2.750935872395833
 10
0.0820651584201389
 20
-2.750935872395833
 10
0.0570136176215278
 20
-2.755276150173611
 10
0.0570136176215278
 20
-2.755276150173611
 10
0.03961181640625
 20
-2.760769314236111
 10
0.0082736545138889
 20
-2.774563259548611
 10
0.0019802517361111
 20
-2.787312825520833
 10
-0.0065578884548611
 20
-2.804592556423611
 10
-0.0142890082465278
 20
-2.860649956597222
 10
-0.0165066189236111
 20
-2.883558485243055
 10
-0.01788330078125
 20
-2.897854275173611
 10
-0.0023057725694444
 20
-2.959743923611111
 10
0.0015597873263889
 20
-2.968193901909722
 10
0.0065036349826389
 20
-2.97900390625
 10
0.0269639756944444
 20
-3.005723741319444
 10
0.03363037109375
 20
-3.007269965277778
 10
0.04559326171875
 20
-3.010064019097222
 10
0.06951904296875
 20
-3.010023328993055
 10
0.0735948350694444
 20
-3.0072021484375
 10
0.0785047743055556
 20
-3.001247829861111
 10
0.0927802191840278
 20
-2.97412109375
 10
0.0899115668402778
 20
-2.959377712673611
 10
0.0867648654513889
 20
-2.943210177951389
 10
0.0759955512152778
 20
-2.831651475694444
 10
0.0795830620659722
 20
-2.819566514756944
 10
0.0795830620659722
 20
-2.819566514756944
 10
0.0929022894965278
 20
-2.823527018229167
 10
0.0929022894965278
 20
-2.823527018229167
 10
0.0908949110243056
 20
-2.833116319444444
 10
0.0996636284722222
 20
-2.936781141493055
 10
0.1035427517361111
 20
-2.956719292534722
 10
0.1077609592013889
 20
-2.978407118055555
 10
0.0890706380208333
 20
-3.01025390625
 10
0.0839097764756944
 20
-3.016438802083333
 10
0.0795084635416667
 20
-3.021714952256944
 10
0.06829833984375
 20
-3.023220486111111
 10
0.0572306315104167
 20
-3.023220486111111
 97
        0
 75
     2
 76
     1
 98
        0
  0
ENDBLK
  5
114
330
111
100
AcDbEntity
  8
0
100
AcDbBlockEnd
  0
ENDSEC
  0
SECTION
  2
ENTITIES
  0
POLYLINE
  5
41
330
1F
100
AcDbEntity
  8
Green
 62
     7
370
    70
100
AcDb2dPolyline
 66
     1
 10
0.0
 20
0.0
 30
0.0
  0
VERTEX
  5
42
330
41
100
AcDbEntity
  8
Green
 62
     7
370
    70
100
AcDbVertex
100
AcDb2dVertex
 10
2.189166666666678
 20
-3.298611111111111
 30
0.0
  0
VERTEX
  5
43
330
41
100
AcDbEntity
  8
Green
 62
     7
370
    70
100
AcDbVertex
100
AcDb2dVertex
 10
-0.270833333333346
 20
-3.298611111111111
 30
0.0
  0
VERTEX
  5
44
330
41
100
AcDbEntity
  8
Green
 62
     7
370
    70
100
AcDbVertex
100
AcDb2dVertex
 10
-0.270833333333346
 20
0.2013888888888889
 30
0.0
  0
VERTEX
  5
45
330
41
100
AcDbEntity
  8
Green
 62
     7
370
    70
100
AcDbVertex
100
AcDb2dVertex
 10
2.189166666666678
 20
0.2013888888888889
 30
0.0
  0
VERTEX
  5
46
330
41
100
AcDbEntity
  8
Green
 62
     7
370
    70
100
AcDbVertex
100
AcDb2dVertex
 10
2.189166666666678
 20
-3.298611111111111
 30
0.0
  0
SEQEND
  5
48
330
41
100
AcDbEntity
  8
Green
 62
     7
370
    70
  0
HATCH
  5
47
330
1F
100
AcDbEntity
  8
Green
 62
   114
100
AcDbHatch
 10
0.0
 20
0.0
 30
0.0
210
0.0
220
0.0
230
1.0
  2
SOLID
 70
     1
 71
     0
 91
        1
 92
        1
 93
        4
 72
     1
 10
2.189166666666678
 20
-3.298611111111111
 11
-0.2708333333333459
 21
-3.298611111111111
 72
     1
 10
-0.270833333333346
 20
-3.298611111111111
 11
-0.270833333333346
 21
0.2013888888888888
 72
     1
 10
-0.270833333333346
 20
0.2013888888888889
 11
2.189166666666678
 21
0.2013888888888889
 72
     1
 10
2.189166666666678
 20
0.2013888888888889
 11
2.189166666666678
 21
-3.298611111111111
 97
        0
 75
     2
 76
     1
 98
        0
  0
POLYLINE
  5
49
330
1F
100
AcDbEntity
  8
Green
 62
     7
370
    70
100
AcDb2dPolyline
 66
     1
 10
0.0
 20
0.0
 30
0.0
  0
VERTEX
  5
4A
330
49
100
AcDbEntity
  8
Green
 62
     7
370
    70
100
AcDbVertex
100
AcDb2dVertex
 10
2.039337270341321
 20
-2.578611111111109
 30
0.0
  0
VERTEX
  5
4B
330
49
100
AcDbEntity
  8
Green
 62
     7
370
    70
100
AcDbVertex
100
AcDb2dVertex
 10
-0.1210039370079762
 20
-2.578611111111109
 30
0.0
  0
VERTEX
  5
4C
330
49
100
AcDbEntity
  8
Green
 62
     7
370
    70
100
AcDbVertex
100
AcDb2dVertex
 10
-0.1210039370079762
 20
-0.1486111111111212
 30
0.0
  0
VERTEX
  5
4D
330
49
100
AcDbEntity
  8
Green
 62
     7
370
    70
100
AcDbVertex
100
AcDb2dVertex
 10
2.039337270341321
 20
-0.1486111111111212
 30
0.0
  0
VERTEX
  5
4E
330
49
100
AcDbEntity
  8
Green
 62
     7
370
    70
100
AcDbVertex
100
AcDb2dVertex
 10
2.039337270341321
 20
-2.578611111111109
 30
0.0
  0
SEQEND
  5
50
330
49
100
AcDbEntity
  8
Green
 62
     7
370
    70
  0
HATCH
  5
4F
330
1F
100
AcDbEntity
  8
Green
 62
   114
100
AcDbHatch
 10
0.0
 20
0.0
 30
0.0
210
0.0
220
0.0
230
1.0
  2
SOLID
 70
     1
 71
     0
 91
        1
 92
        1
 93
        4
 72
     1
 10
2.039337270341321
 20
-2.578611111111109
 11
-0.1210039370079761
 21
-2.578611111111109
 72
     1
 10
-0.1210039370079762
 20
-2.578611111111109
 11
-0.1210039370079762
 21
-0.148611111111121
 72
     1
 10
-0.1210039370079762
 20
-0.1486111111111212
 11
2.039337270341321
 21
-0.1486111111111212
 72
     1
 10
2.039337270341321
 20
-0.1486111111111212
 11
2.039337270341321
 21
-2.578611111111109
 97
        0
 75
     2
 76
     1
 98
        0
  0
POLYLINE
  5
52
330
1F
100
AcDbEntity
  8
Mint Green
 62
     7
370
    70
100
AcDb2dPolyline
 66
     1
 10
0.0
 20
0.0
 30
0.0
  0
VERTEX
  5
53
330
52
100
AcDbEntity
  8
Mint Green
 62
     7
370
    70
100
AcDbVertex
100
AcDb2dVertex
 10
2.18454794718107
 20
-3.291283902012512
 30
0.0
  0
VERTEX
  5
54
330
52
100
AcDbEntity
  8
Mint Green
 62
     7
370
    70
100
AcDbVertex
100
AcDb2dVertex
 10
-0.2754520528189409
 20
-3.291283902012512
 30
0.0
  0
VERTEX
  5
55
330
52
100
AcDbEntity
  8
Mint Green
 62
     7
370
    70
100
AcDbVertex
100
AcDb2dVertex
 10
-0.2754520528189409
 20
0.2087160979874877
 30
0.0
  0
VERTEX
  5
56
330
52
100
AcDbEntity
  8
Mint Green
 62
     7
370
    70
100
AcDbVertex
100
AcDb2dVertex
 10
2.18454794718107
 20
0.2087160979874877
 30
0.0
  0
VERTEX
  5
57
330
52
100
AcDbEntity
  8
Mint Green
 62
     7
370
    70
100
AcDbVertex
100
AcDb2dVertex
 10
2.18454794718107
 20
-3.291283902012512
 30
0.0
  0
SEQEND
  5
59
330
52
100
AcDbEntity
  8
Mint Green
 62
     7
370
    70
  0
HATCH
  5
58
330
1F
100
AcDbEntity
  8
Mint Green
 62
    81
100
AcDbHatch
 10
0.0
 20
0.0
 30
0.0
210
0.0
220
0.0
230
1.0
  2
SOLID
 70
     1
 71
     0
 91
        1
 92
        1
 93
        4
 72
     1
 10
2.18454794718107
 20
-3.291283902012512
 11
-0.2754520528189408
 21
-3.291283902012512
 72
     1
 10
-0.2754520528189409
 20
-3.291283902012512
 11
-0.2754520528189409
 21
0.2087160979874878
 72
     1
 10
-0.2754520528189409
 20
0.2087160979874877
 11
2.18454794718107
 21
0.2087160979874877
 72
     1
 10
2.18454794718107
 20
0.2087160979874877
 11
2.18454794718107
 21
-3.291283902012512
 97
        0
 75
     2
 76
     1
 98
        0
  0
POLYLINE
  5
5A
330
1F
100
AcDbEntity
  8
Mint Green
 62
     7
370
    70
100
AcDb2dPolyline
 66
     1
 10
0.0
 20
0.0
 30
0.0
  0
VERTEX
  5
5B
330
5A
100
AcDbEntity
  8
Mint Green
 62
     7
370
    70
100
AcDbVertex
100
AcDb2dVertex
 10
2.034718550855713
 20
-2.57128390201251
 30
0.0
  0
VERTEX
  5
5C
330
5A
100
AcDbEntity
  8
Mint Green
 62
     7
370
    70
100
AcDbVertex
100
AcDb2dVertex
 10
-0.1256226564935711
 20
-2.57128390201251
 30
0.0
  0
VERTEX
  5
5D
330
5A
100
AcDbEntity
  8
Mint Green
 62
     7
370
    70
100
AcDbVertex
100
AcDb2dVertex
 10
-0.1256226564935711
 20
-0.1412839020125223
 30
0.0
  0
VERTEX
  5
5E
330
5A
100
AcDbEntity
  8
Mint Green
 62
     7
370
    70
100
AcDbVertex
100
AcDb2dVertex
 10
2.034718550855713
 20
-0.1412839020125223
 30
0.0
  0
VERTEX
  5
5F
330
5A
100
AcDbEntity
  8
Mint Green
 62
     7
370
    70
100
AcDbVertex
100
AcDb2dVertex
 10
2.034718550855713
 20
-2.57128390201251
 30
0.0
  0
SEQEND
  5
61
330
5A
100
AcDbEntity
  8
Mint Green
 62
     7
370
    70
  0
HATCH
  5
60
330
1F
100
AcDbEntity
  8
Mint Green
 62
    81
100
AcDbHatch
 10
0.0
 20
0.0
 30
0.0
210
0.0
220
0.0
230
1.0
  2
SOLID
 70
     1
 71
     0
 91
        1
 92
        1
 93
        4
 72
     1
 10
2.034718550855713
 20
-2.57128390201251
 11
-0.125622656493571
 21
-2.57128390201251
 72
     1
 10
-0.1256226564935711
 20
-2.57128390201251
 11
-0.1256226564935711
 21
-0.1412839020125225
 72
     1
 10
-0.1256226564935711
 20
-0.1412839020125223
 11
2.034718550855713
 21
-0.1412839020125223
 72
     1
 10
2.034718550855713
 20
-0.1412839020125223
 11
2.034718550855713
 21
-2.57128390201251
 97
        0
 75
     2
 76
     1
 98
        0
  0
POLYLINE
  5
63
330
1F
100
AcDbEntity
  8
Red
 62
     7
370
    70
100
AcDb2dPolyline
 66
     1
 10
0.0
 20
0.0
 30
0.0
  0
VERTEX
  5
64
330
63
100
AcDbEntity
  8
Red
 62
     7
370
    70
100
AcDbVertex
100
AcDb2dVertex
 10
2.18454794718107
 20
-3.291283902012512
 30
0.0
  0
VERTEX
  5
65
330
63
100
AcDbEntity
  8
Red
 62
     7
370
    70
100
AcDbVertex
100
AcDb2dVertex
 10
-0.2754520528189409
 20
-3.291283902012512
 30
0.0
  0
VERTEX
  5
66
330
63
100
AcDbEntity
  8
Red
 62
     7
370
    70
100
AcDbVertex
100
AcDb2dVertex
 10
-0.2754520528189409
 20
0.2087160979874877
 30
0.0
  0
VERTEX
  5
67
330
63
100
AcDbEntity
  8
Red
 62
     7
370
    70
100
AcDbVertex
100
AcDb2dVertex
 10
2.18454794718107
 20
0.2087160979874877
 30
0.0
  0
VERTEX
  5
68
330
63
100
AcDbEntity
  8
Red
 62
     7
370
    70
100
AcDbVertex
100
AcDb2dVertex
 10
2.18454794718107
 20
-3.291283902012512
 30
0.0
  0
SEQEND
  5
6A
330
63
100
AcDbEntity
  8
Red
 62
     7
370
    70
  0
HATCH
  5
69
330
1F
100
AcDbEntity
  8
Red
 62
     1
100
AcDbHatch
 10
0.0
 20
0.0
 30
0.0
210
0.0
220
0.0
230
1.0
  2
SOLID
 70
     1
 71
     0
 91
        1
 92
        1
 93
        4
 72
     1
 10
2.18454794718107
 20
-3.291283902012512
 11
-0.2754520528189408
 21
-3.291283902012512
 72
     1
 10
-0.2754520528189409
 20
-3.291283902012512
 11
-0.2754520528189409
 21
0.2087160979874878
 72
     1
 10
-0.2754520528189409
 20
0.2087160979874877
 11
2.18454794718107
 21
0.2087160979874877
 72
     1
 10
2.18454794718107
 20
0.2087160979874877
 11
2.18454794718107
 21
-3.291283902012512
 97
        0
 75
     2
 76
     1
 98
        0
  0
POLYLINE
  5
6B
330
1F
100
AcDbEntity
  8
Red
 62
     7
370
    70
100
AcDb2dPolyline
 66
     1
 10
0.0
 20
0.0
 30
0.0
  0
VERTEX
  5
6C
330
6B
100
AcDbEntity
  8
Red
 62
     7
370
    70
100
AcDbVertex
100
AcDb2dVertex
 10
2.034718550855713
 20
-2.57128390201251
 30
0.0
  0
VERTEX
  5
6D
330
6B
100
AcDbEntity
  8
Red
 62
     7
370
    70
100
AcDbVertex
100
AcDb2dVertex
 10
-0.1256226564935711
 20
-2.57128390201251
 30
0.0
  0
VERTEX
  5
6E
330
6B
100
AcDbEntity
  8
Red
 62
     7
370
    70
100
AcDbVertex
100
AcDb2dVertex
 10
-0.1256226564935711
 20
-0.1412839020125223
 30
0.0
  0
VERTEX
  5
6F
330
6B
100
AcDbEntity
  8
Red
 62
     7
370
    70
100
AcDbVertex
100
AcDb2dVertex
 10
2.034718550855713
 20
-0.1412839020125223
 30
0.0
  0
VERTEX
  5
70
330
6B
100
AcDbEntity
  8
Red
 62
     7
370
    70
100
AcDbVertex
100
AcDb2dVertex
 10
2.034718550855713
 20
-2.57128390201251
 30
0.0
  0
SEQEND
  5
72
330
6B
100
AcDbEntity
  8
Red
 62
     7
370
    70
  0
HATCH
  5
71
330
1F
100
AcDbEntity
  8
Red
 62
    22
100
AcDbHatch
 10
0.0
 20
0.0
 30
0.0
210
0.0
220
0.0
230
1.0
  2
SOLID
 70
     1
 71
     0
 91
        1
 92
        1
 93
        4
 72
     1
 10
2.034718550855713
 20
-2.57128390201251
 11
-0.125622656493571
 21
-2.57128390201251
 72
     1
 10
-0.1256226564935711
 20
-2.57128390201251
 11
-0.1256226564935711
 21
-0.1412839020125225
 72
     1
 10
-0.1256226564935711
 20
-0.1412839020125223
 11
2.034718550855713
 21
-0.1412839020125223
 72
     1
 10
2.034718550855713
 20
-0.1412839020125223
 11
2.034718550855713
 21
-2.57128390201251
 97
        0
 75
     2
 76
     1
 98
        0
  0
POLYLINE
  5
74
330
1F
100
AcDbEntity
  8
White
 62
     7
370
    70
100
AcDb2dPolyline
 66
     1
 10
0.0
 20
0.0
 30
0.0
  0
VERTEX
  5
75
330
74
100
AcDbEntity
  8
White
 62
     7
370
    70
100
AcDbVertex
100
AcDb2dVertex
 10
2.188825459317361
 20
-3.291283902012512
 30
0.0
  0
VERTEX
  5
76
330
74
100
AcDbEntity
  8
White
 62
     7
370
    70
100
AcDbVertex
100
AcDb2dVertex
 10
-0.2711745406826619
 20
-3.291283902012512
 30
0.0
  0
VERTEX
  5
77
330
74
100
AcDbEntity
  8
White
 62
     7
370
    70
100
AcDbVertex
100
AcDb2dVertex
 10
-0.2711745406826619
 20
0.2087160979874877
 30
0.0
  0
VERTEX
  5
78
330
74
100
AcDbEntity
  8
White
 62
     7
370
    70
100
AcDbVertex
100
AcDb2dVertex
 10
2.188825459317361
 20
0.2087160979874877
 30
0.0
  0
VERTEX
  5
79
330
74
100
AcDbEntity
  8
White
 62
     7
370
    70
100
AcDbVertex
100
AcDb2dVertex
 10
2.188825459317361
 20
-3.291283902012512
 30
0.0
  0
SEQEND
  5
7A
330
74
100
AcDbEntity
  8
White
 62
     7
370
    70
  0
POLYLINE
  5
7B
330
1F
100
AcDbEntity
  8
White
 62
     7
370
    70
100
AcDb2dPolyline
 66
     1
 10
0.0
 20
0.0
 30
0.0
  0
VERTEX
  5
7C
330
7B
100
AcDbEntity
  8
White
 62
     7
370
    70
100
AcDbVertex
100
AcDb2dVertex
 10
2.038996062992005
 20
-2.57128390201251
 30
0.0
  0
VERTEX
  5
7D
330
7B
100
AcDbEntity
  8
White
 62
     7
370
    70
100
AcDbVertex
100
AcDb2dVertex
 10
-0.1213451443572922
 20
-2.57128390201251
 30
0.0
  0
VERTEX
  5
7E
330
7B
100
AcDbEntity
  8
White
 62
     7
370
    70
100
AcDbVertex
100
AcDb2dVertex
 10
-0.1213451443572922
 20
-0.1412839020125223
 30
0.0
  0
VERTEX
  5
7F
330
7B
100
AcDbEntity
  8
White
 62
     7
370
    70
100
AcDbVertex
100
AcDb2dVertex
 10
2.038996062992005
 20
-0.1412839020125223
 30
0.0
  0
VERTEX
  5
80
330
7B
100
AcDbEntity
  8
White
 62
     7
370
    70
100
AcDbVertex
100
AcDb2dVertex
 10
2.038996062992005
 20
-2.57128390201251
 30
0.0
  0
SEQEND
  5
82
330
7B
100
AcDbEntity
  8
White
 62
     7
370
    70
  0
HATCH
  5
81
330
1F
100
AcDbEntity
  8
White
 62
   255
100
AcDbHatch
 10
0.0
 20
0.0
 30
0.0
210
0.0
220
0.0
230
1.0
  2
SOLID
 70
     1
 71
     0
 91
        1
 92
        1
 93
        4
 72
     1
 10
2.038996062992005
 20
-2.57128390201251
 11
-0.1213451443572922
 21
-2.57128390201251
 72
     1
 10
-0.1213451443572922
 20
-2.57128390201251
 11
-0.1213451443572922
 21
-0.1412839020125225
 72
     1
 10
-0.1213451443572922
 20
-0.1412839020125223
 11
2.038996062992005
 21
-0.1412839020125223
 72
     1
 10
2.038996062992005
 20
-0.1412839020125223
 11
2.038996062992005
 21
-2.57128390201251
 97
        0
 75
     2
 76
     1
 98
        0
  0
SPLINE
  5
84
330
1F
100
AcDbEntity
  8
ENG
370
     0
100
AcDbSpline
210
0.0
220
0.0
230
1.0
 70
    11
 71
     3
 72
    29
 73
    25
 74
     0
 42
0.0000000001
 43
0.0000000001
 12
1.0
 22
0.0
 32
0.0
 13
1.0
 23
0.0
 33
0.0
 40
0.0
 40
0.0
 40
0.0
 40
0.0
 40
1.0
 40
1.0
 40
1.0
 40
2.0
 40
2.0
 40
2.0
 40
3.0
 40
3.0
 40
3.0
 40
4.0
 40
4.0
 40
4.0
 40
5.0
 40
5.0
 40
5.0
 40
6.0
 40
6.0
 40
6.0
 40
7.0
 40
7.0
 40
7.0
 40
8.0
 40
8.0
 40
8.0
 40
8.0
 10
1.945552147239267
 20
-3.243268575323782
 30
0.0
 10
1.945552147239267
 20
-3.243268575323782
 30
0.0
 10
-0.0339979550102246
 20
-3.243268575323782
 30
0.0
 10
-0.0339979550102246
 20
-3.243268575323782
 30
0.0
 10
-0.0713957055214678
 20
-3.243268575323782
 30
0.0
 10
-0.1019938650306737
 20
-3.212670415814576
 30
0.0
 10
-0.1019938650306737
 20
-3.175272665303333
 30
0.0
 10
-0.1019938650306737
 20
-3.175272665303333
 30
0.0
 10
-0.1019938650306737
 20
-2.675272665303333
 30
0.0
 10
-0.1019938650306737
 20
-2.675272665303333
 30
0.0
 10
-0.1019938650306737
 20
-2.63787491479209
 30
0.0
 10
-0.0713957055214678
 20
-2.607276755282883
 30
0.0
 10
-0.0339979550102246
 20
-2.607276755282883
 30
0.0
 10
-0.0339979550102246
 20
-2.607276755282883
 30
0.0
 10
1.945552147239267
 20
-2.607276755282883
 30
0.0
 10
1.945552147239267
 20
-2.607276755282883
 30
0.0
 10
1.98294989775051
 20
-2.607276755282883
 30
0.0
 10
2.013548057259716
 20
-2.63787491479209
 30
0.0
 10
2.013548057259716
 20
-2.675272665303333
 30
0.0
 10
2.013548057259716
 20
-2.675272665303333
 30
0.0
 10
2.013548057259716
 20
-3.175272665303333
 30
0.0
 10
2.013548057259716
 20
-3.175272665303333
 30
0.0
 10
2.013548057259716
 20
-3.212670415814576
 30
0.0
 10
1.98294989775051
 20
-3.243268575323782
 30
0.0
 10
1.945552147239267
 20
-3.243268575323782
 30
0.0
  0
HATCH
  5
85
330
1F
100
AcDbEntity
  8
ENG
 62
   252
100
AcDbHatch
 10
0.0
 20
0.0
 30
0.0
210
0.0
220
0.0
230
1.0
  2
SOLID
 70
     1
 71
     0
 91
        1
 92
        1
 93
        1
 72
     4
 94
        3
 73
     0
 74
     1
 95
       29
 96
       25
 40
0.0
 40
0.0
 40
0.0
 40
0.0
 40
1.0
 40
1.0
 40
1.0
 40
2.0
 40
2.0
 40
2.0
 40
3.0
 40
3.0
 40
3.0
 40
4.0
 40
4.0
 40
4.0
 40
5.0
 40
5.0
 40
5.0
 40
6.0
 40
6.0
 40
6.0
 40
7.0
 40
7.0
 40
7.0
 40
8.0
 40
8.0
 40
8.0
 40
8.0
 10
1.945552147239267
 20
-3.243268575323782
 10
1.945552147239267
 20
-3.243268575323782
 10
-0.0339979550102246
 20
-3.243268575323782
 10
-0.0339979550102246
 20
-3.243268575323782
 10
-0.0713957055214678
 20
-3.243268575323782
 10
-0.1019938650306737
 20
-3.212670415814576
 10
-0.1019938650306737
 20
-3.175272665303333
 10
-0.1019938650306737
 20
-3.175272665303333
 10
-0.1019938650306737
 20
-2.675272665303333
 10
-0.1019938650306737
 20
-2.675272665303333
 10
-0.1019938650306737
 20
-2.63787491479209
 10
-0.0713957055214678
 20
-2.607276755282883
 10
-0.0339979550102246
 20
-2.607276755282883
 10
-0.0339979550102246
 20
-2.607276755282883
 10
1.945552147239267
 20
-2.607276755282883
 10
1.945552147239267
 20
-2.607276755282883
 10
1.98294989775051
 20
-2.607276755282883
 10
2.013548057259716
 20
-2.63787491479209
 10
2.013548057259716
 20
-2.675272665303333
 10
2.013548057259716
 20
-2.675272665303333
 10
2.013548057259716
 20
-3.175272665303333
 10
2.013548057259716
 20
-3.175272665303333
 10
2.013548057259716
 20
-3.212670415814576
 10
1.98294989775051
 20
-3.243268575323782
 10
1.945552147239267
 20
-3.243268575323782
 97
        0
 75
     2
 76
     1
 98
        0
  0
INSERT
  5
87
330
1F
100
AcDbEntity
  8
ENG
100
AcDbBlockReference
  2
block 2
 10
0.0
 20
0.0
 30
0.0
  0
INSERT
  5
F2
330
1F
100
AcDbEntity
  8
ENG
100
AcDbBlockReference
  2
block 3
 10
0.0
 20
0.0
 30
0.0
  0
ENDSEC
  0
SECTION
  2
OBJECTS
  0
DICTIONARY
  5
C
330
0
100
AcDbDictionary
281
     1
  3
ACAD_GROUP
350
D
  3
ACAD_LAYOUT
350
1A
  3
ACAD_MATERIAL
350
3B
  3
ACAD_MLEADERSTYLE
350
140
  3
ACAD_MLINESTYLE
350
17
  3
ACAD_PLOTSETTINGS
350
19
  3
ACAD_PLOTSTYLENAME
350
E
  3
ACAD_TABLESTYLE
350
13F
  3
ACAD_VISUALSTYLE
350
2A
  0
DICTIONARY
  5
D
102
{ACAD_REACTORS
330
C
102
}
330
C
100
AcDbDictionary
281
     1
  0
DICTIONARY
  5
1A
102
{ACAD_REACTORS
330
C
102
}
330
C
100
AcDbDictionary
281
     1
  3
Layout1
350
1E
  3
Layout2
350
26
  3
Model
350
22
  0
DICTIONARY
  5
3B
102
{ACAD_REACTORS
330
C
102
}
330
C
100
AcDbDictionary
281
     1
  3
ByBlock
350
3D
  3
ByLayer
350
3C
  3
Global
350
3E
  0
DICTIONARY
  5
140
102
{ACAD_REACTORS
330
C
102
}
330
C
100
AcDbDictionary
281
     1
  0
DICTIONARY
  5
17
102
{ACAD_REACTORS
330
C
102
}
330
C
100
AcDbDictionary
281
     1
  3
Standard
350
18
  0
DICTIONARY
  5
19
102
{ACAD_REACTORS
330
C
102
}
330
C
100
AcDbDictionary
281
     1
  0
ACDBDICTIONARYWDFLT
  5
E
102
{ACAD_REACTORS
330
C
102
}
330
C
100
AcDbDictionary
281
     1
  3
Normal
350
F
100
AcDbDictionaryWithDefault
340
F
  0
DICTIONARY
  5
13F
102
{ACAD_REACTORS
330
C
102
}
330
C
100
AcDbDictionary
281
     1
  0
DICTIONARY
  5
2A
102
{ACAD_REACTORS
330
C
102
}
330
C
100
AcDbDictionary
281
     1
  3
2dWireframe
350
2F
  3
3D Hidden
350
31
  3
3dWireframe
350
30
  3
Basic
350
32
  3
Brighten
350
36
  3
ColorChange
350
3A
  3
Conceptual
350
34
  3
Dim
350
35
  3
Facepattern
350
39
  3
Flat
350
2B
  3
FlatWithEdges
350
2C
  3
Gouraud
350
2D
  3
GouraudWithEdges
350
2E
  3
Linepattern
350
38
  3
Realistic
350
33
  3
Thicken
350
37
  0
LAYOUT
  5
1E
102
{ACAD_REACTORS
330
1A
102
}
330
1A
100
AcDbPlotSettings
  1

  2
none_device
  4

  6

 40
0.0
 41
0.0
 42
0.0
 43
0.0
 44
0.0
 45
0.0
 46
0.0
 47
0.0
 48
0.0
 49
0.0
140
0.0
141
0.0
142
1.0
143
1.0
 70
   688
 72
     0
 73
     0
 74
     5
  7

 75
    16
 76
     0
 77
     2
 78
   300
147
1.0
148
0.0
149
0.0
100
AcDbLayout
  1
Layout1
 70
     1
 71
     1
 10
0.0
 20
0.0
 11
12.0
 21
9.0
 12
0.0
 22
0.0
 32
0.0
 14
1.000000000000000E+20
 24
1.000000000000000E+20
 34
1.000000000000000E+20
 15
-1.000000000000000E+20
 25
-1.000000000000000E+20
 35
-1.000000000000000E+20
146
0.0
 13
0.0
 23
0.0
 33
0.0
 16
1.0
 26
0.0
 36
0.0
 17
0.0
 27
1.0
 37
0.0
 76
     0
330
1B
  0
LAYOUT
  5
26
102
{ACAD_REACTORS
330
1A
102
}
330
1A
100
AcDbPlotSettings
  1

  2
none_device
  4

  6

 40
0.0
 41
0.0
 42
0.0
 43
0.0
 44
0.0
 45
0.0
 46
0.0
 47
0.0
 48
0.0
 49
0.0
140
0.0
141
0.0
142
1.0
143
1.0
 70
   688
 72
     0
 73
     0
 74
     5
  7

 75
    16
 76
     0
 77
     2
 78
   300
147
1.0
148
0.0
149
0.0
100
AcDbLayout
  1
Layout2
 70
     1
 71
     2
 10
0.0
 20
0.0
 11
0.0
 21
0.0
 12
0.0
 22
0.0
 32
0.0
 14
0.0
 24
0.0
 34
0.0
 15
0.0
 25
0.0
 35
0.0
146
0.0
 13
0.0
 23
0.0
 33
0.0
 16
1.0
 26
0.0
 36
0.0
 17
0.0
 27
1.0
 37
0.0
 76
     0
330
23
  0
LAYOUT
  5
22
102
{ACAD_REACTORS
330
1A
102
}
330
1A
100
AcDbPlotSettings
  1

  2
none_device
  4

  6

 40
0.0
 41
0.0
 42
0.0
 43
0.0
 44
0.0
 45
0.0
 46
0.0
 47
0.0
 48
0.0
 49
0.0
140
0.0
141
0.0
142
1.0
143
1.0
 70
  1712
 72
     0
 73
     0
 74
     0
  7

 75
     0
 76
     0
 77
     2
 78
   300
147
1.0
148
0.0
149
0.0
100
AcDbLayout
  1
Model
 70
     1
 71
     0
 10
0.0
 20
0.0
 11
12.0
 21
9.0
 12
0.0
 22
0.0
 32
0.0
 14
1.000000000000000E+20
 24
1.000000000000000E+20
 34
1.000000000000000E+20
 15
-1.000000000000000E+20
 25
-1.000000000000000E+20
 35
-1.000000000000000E+20
146
0.0
 13
0.0
 23
0.0
 33
0.0
 16
1.0
 26
0.0
 36
0.0
 17
0.0
 27
1.0
 37
0.0
 76
     0
330
1F
331
29
  0
MATERIAL
  5
3D
102
{ACAD_REACTORS
330
3B
102
}
102
{ACAD_XDICTIONARY
360
13B
102
}
330
3B
100
AcDbMaterial
  1
ByBlock
  0
MATERIAL
  5
3C
102
{ACAD_REACTORS
330
3B
102
}
102
{ACAD_XDICTIONARY
360
139
102
}
330
3B
100
AcDbMaterial
  1
ByLayer
  0
MATERIAL
  5
3E
102
{ACAD_REACTORS
330
3B
102
}
102
{ACAD_XDICTIONARY
360
13D
102
}
330
3B
100
AcDbMaterial
  1
Global
  0
MLINESTYLE
  5
18
102
{ACAD_REACTORS
330
17
102
}
330
17
100
AcDbMlineStyle
  2
Standard
 70
     0
  3

 62
   256
 51
90.0
 52
90.0
 71
     2
 49
0.5
 62
   256
  6
BYLAYER
 49
-0.5
 62
   256
  6
BYLAYER
  0
ACDBPLACEHOLDER
  5
F
102
{ACAD_REACTORS
330
E
102
}
330
E
  0
VISUALSTYLE
  5
2F
102
{ACAD_REACTORS
330
2A
102
}
102
{ACAD_XDICTIONARY
360
121
102
}
330
2A
100
AcDbVisualStyle
  2
2dWireframe
 70
     4
 71
     0
 72
     2
 73
     0
 90
        0
 40
-0.6
 41
-30.0
 62
     5
 63
     7
421
 16777215
 74
     1
 91
        4
 64
     7
 65
   257
 75
     1
175
     1
 42
1.0
 92
        0
 66
   257
 43
1.0
 76
     1
 77
     6
 78
     2
 67
     7
 79
     5
170
     0
171
     0
290
     0
174
     0
 93
        1
 44
0.0
173
     0
291
     0
 45
0.0
1001
ACAD
1000
AcDbSavedByObjectVersion
1070
     0
  0
VISUALSTYLE
  5
31
102
{ACAD_REACTORS
330
2A
102
}
102
{ACAD_XDICTIONARY
360
125
102
}
330
2A
100
AcDbVisualStyle
  2
3D Hidden
 70
     6
 71
     1
 72
     2
 73
     2
 90
        0
 40
-0.6
 41
-30.0
 62
     5
 63
     7
421
 16777215
 74
     2
 91
        2
 64
     7
 65
   257
 75
     2
175
     1
 42
40.0
 92
        0
 66
   257
 43
1.0
 76
     1
 77
     6
 78
     2
 67
     7
 79
     3
170
     0
171
     0
290
     0
174
     0
 93
        1
 44
0.0
173
     0
291
     0
 45
0.0
1001
ACAD
1000
AcDbSavedByObjectVersion
1070
     0
  0
VISUALSTYLE
  5
30
102
{ACAD_REACTORS
330
2A
102
}
102
{ACAD_XDICTIONARY
360
123
102
}
330
2A
100
AcDbVisualStyle
  2
3dWireframe
 70
     5
 71
     0
 72
     2
 73
     0
 90
        0
 40
-0.6
 41
-30.0
 62
     5
 63
     7
421
 16777215
 74
     1
 91
        4
 64
     7
 65
   257
 75
     1
175
     1
 42
1.0
 92
        0
 66
   257
 43
1.0
 76
     1
 77
     6
 78
     2
 67
     7
 79
     5
170
     0
171
     0
290
     0
174
     0
 93
        1
 44
0.0
173
     0
291
     0
 45
0.0
1001
ACAD
1000
AcDbSavedByObjectVersion
1070
     0
  0
VISUALSTYLE
  5
32
102
{ACAD_REACTORS
330
2A
102
}
102
{ACAD_XDICTIONARY
360
127
102
}
330
2A
100
AcDbVisualStyle
  2
Basic
 70
     7
 71
     1
 72
     0
 73
     1
 90
        0
 40
-0.6
 41
-30.0
 62
     5
 63
     7
421
 16777215
 74
     0
 91
        4
 64
     7
 65
   257
 75
     1
175
     1
 42
1.0
 92
        8
 66
     7
 43
1.0
 76
     1
 77
     6
 78
     2
 67
     7
 79
     5
170
     0
171
     0
290
     0
174
     0
 93
        1
 44
0.0
173
     0
291
     1
 45
0.0
1001
ACAD
1000
AcDbSavedByObjectVersion
1070
     0
  0
VISUALSTYLE
  5
36
102
{ACAD_REACTORS
330
2A
102
}
102
{ACAD_XDICTIONARY
360
12F
102
}
330
2A
100
AcDbVisualStyle
  2
Brighten
 70
    12
 71
     2
 72
     2
 73
     0
 90
        0
 40
-0.6
 41
-30.0
 62
     5
 63
     7
421
 16777215
 74
     1
 91
        4
 64
     7
 65
   257
 75
     1
175
     1
 42
1.0
 92
        8
 66
     7
 43
1.0
 76
     1
 77
     6
 78
     2
 67
     7
 79
     5
170
     0
171
     0
290
     0
174
     0
 93
        1
 44
50.0
173
     0
291
     1
 45
0.0
1001
ACAD
1000
AcDbSavedByObjectVersion
1070
     0
  0
VISUALSTYLE
  5
3A
102
{ACAD_REACTORS
330
2A
102
}
102
{ACAD_XDICTIONARY
360
137
102
}
330
2A
100
AcDbVisualStyle
  2
ColorChange
 70
    16
 71
     2
 72
     2
 73
     3
 90
        0
 40
-0.6
 41
-30.0
 62
     5
 63
     8
421
  8421504
 74
     1
 91
        4
 64
     7
 65
   257
 75
     1
175
     1
 42
1.0
 92
        8
 66
     8
424
  8421504
 43
1.0
 76
     1
 77
     6
 78
     2
 67
     7
 79
     5
170
     0
171
     0
290
     0
174
     0
 93
        1
 44
0.0
173
     0
291
     1
 45
0.0
1001
ACAD
1000
AcDbSavedByObjectVersion
1070
     0
  0
VISUALSTYLE
  5
34
102
{ACAD_REACTORS
330
2A
102
}
102
{ACAD_XDICTIONARY
360
12B
102
}
330
2A
100
AcDbVisualStyle
  2
Conceptual
 70
     9
 71
     3
 72
     2
 73
     0
 90
        0
 40
-0.6
 41
-30.0
 62
     5
 63
     7
421
 16777215
 74
     2
 91
        2
 64
     7
 65
   257
 75
     1
175
     1
 42
40.0
 92
        8
 66
     7
 43
1.0
 76
     1
 77
     6
 78
     2
 67
     7
 79
     3
170
     0
171
     0
290
     0
174
     0
 93
        1
 44
0.0
173
     0
291
     0
 45
0.0
1001
ACAD
1000
AcDbSavedByObjectVersion
1070
     0
  0
VISUALSTYLE
  5
35
102
{ACAD_REACTORS
330
2A
102
}
102
{ACAD_XDICTIONARY
360
12D
102
}
330
2A
100
AcDbVisualStyle
  2
Dim
 70
    11
 71
     2
 72
     2
 73
     0
 90
        0
 40
-0.6
 41
-30.0
 62
     5
 63
     7
421
 16777215
 74
     1
 91
        4
 64
     7
 65
   257
 75
     1
175
     1
 42
1.0
 92
        8
 66
     7
 43
1.0
 76
     1
 77
     6
 78
     2
 67
     7
 79
     5
170
     0
171
     0
290
     0
174
     0
 93
        1
 44
-50.0
173
     0
291
     1
 45
0.0
1001
ACAD
1000
AcDbSavedByObjectVersion
1070
     0
  0
VISUALSTYLE
  5
39
102
{ACAD_REACTORS
330
2A
102
}
102
{ACAD_XDICTIONARY
360
135
102
}
330
2A
100
AcDbVisualStyle
  2
Facepattern
 70
    15
 71
     2
 72
     2
 73
     0
 90
        0
 40
-0.6
 41
-30.0
 62
     5
 63
     7
421
 16777215
 74
     1
 91
        4
 64
     7
 65
   257
 75
     1
175
     1
 42
1.0
 92
        8
 66
     7
 43
1.0
 76
     1
 77
     6
 78
     2
 67
     7
 79
     5
170
     0
171
     0
290
     0
174
     0
 93
        1
 44
0.0
173
     0
291
     1
 45
0.0
1001
ACAD
1000
AcDbSavedByObjectVersion
1070
     0
  0
VISUALSTYLE
  5
2B
102
{ACAD_REACTORS
330
2A
102
}
102
{ACAD_XDICTIONARY
360
119
102
}
330
2A
100
AcDbVisualStyle
  2
Flat
 70
     0
 71
     2
 72
     1
 73
     1
 90
        2
 40
-0.6
 41
30.0
 62
     5
 63
     7
421
 16777215
 74
     0
 91
        4
 64
     7
 65
   257
 75
     1
175
     1
 42
1.0
 92
        8
 66
     7
 43
1.0
 76
     1
 77
     6
 78
     2
 67
     7
 79
     5
170
     0
171
     0
290
     0
174
     0
 93
       13
 44
0.0
173
     0
291
     1
 45
0.0
1001
ACAD
1000
AcDbSavedByObjectVersion
1070
     0
  0
VISUALSTYLE
  5
2C
102
{ACAD_REACTORS
330
2A
102
}
102
{ACAD_XDICTIONARY
360
11B
102
}
330
2A
100
AcDbVisualStyle
  2
FlatWithEdges
 70
     1
 71
     2
 72
     1
 73
     1
 90
        2
 40
-0.6
 41
30.0
 62
     5
 63
     7
421
 16777215
 74
     1
 91
        4
 64
     7
 65
   257
 75
     1
175
     1
 42
1.0
 92
        0
 66
   257
 43
1.0
 76
     1
 77
     6
 78
     2
 67
     7
 79
     5
170
     0
171
     0
290
     0
174
     0
 93
       13
 44
0.0
173
     0
291
     1
 45
0.0
1001
ACAD
1000
AcDbSavedByObjectVersion
1070
     0
  0
VISUALSTYLE
  5
2D
102
{ACAD_REACTORS
330
2A
102
}
102
{ACAD_XDICTIONARY
360
11D
102
}
330
2A
100
AcDbVisualStyle
  2
Gouraud
 70
     2
 71
     2
 72
     2
 73
     1
 90
        2
 40
-0.6
 41
30.0
 62
     5
 63
     7
421
 16777215
 74
     0
 91
        4
 64
     7
 65
   257
 75
     1
175
     1
 42
1.0
 92
        0
 66
     7
 43
1.0
 76
     1
 77
     6
 78
     2
 67
     7
 79
     5
170
     0
171
     0
290
     0
174
     0
 93
       13
 44
0.0
173
     0
291
     1
 45
0.0
1001
ACAD
1000
AcDbSavedByObjectVersion
1070
     0
  0
VISUALSTYLE
  5
2E
102
{ACAD_REACTORS
330
2A
102
}
102
{ACAD_XDICTIONARY
360
11F
102
}
330
2A
100
AcDbVisualStyle
  2
GouraudWithEdges
 70
     3
 71
     2
 72
     2
 73
     1
 90
        2
 40
-0.6
 41
30.0
 62
     5
 63
     7
421
 16777215
 74
     1
 91
        4
 64
     7
 65
   257
 75
     1
175
     1
 42
1.0
 92
        0
 66
   257
 43
1.0
 76
     1
 77
     6
 78
     2
 67
     7
 79
     5
170
     0
171
     0
290
     0
174
     0
 93
       13
 44
0.0
173
     0
291
     1
 45
0.0
1001
ACAD
1000
AcDbSavedByObjectVersion
1070
     0
  0
VISUALSTYLE
  5
38
102
{ACAD_REACTORS
330
2A
102
}
102
{ACAD_XDICTIONARY
360
133
102
}
330
2A
100
AcDbVisualStyle
  2
Linepattern
 70
    14
 71
     2
 72
     2
 73
     0
 90
        0
 40
-0.6
 41
-30.0
 62
     5
 63
     7
421
 16777215
 74
     1
 91
        4
 64
     7
 65
   257
 75
     7
175
     7
 42
1.0
 92
        8
 66
     7
 43
1.0
 76
     1
 77
     6
 78
     2
 67
     7
 79
     5
170
     0
171
     0
290
     0
174
     0
 93
        1
 44
0.0
173
     0
291
     1
 45
0.0
1001
ACAD
1000
AcDbSavedByObjectVersion
1070
     0
  0
VISUALSTYLE
  5
33
102
{ACAD_REACTORS
330
2A
102
}
102
{ACAD_XDICTIONARY
360
129
102
}
330
2A
100
AcDbVisualStyle
  2
Realistic
 70
     8
 71
     2
 72
     2
 73
     0
 90
        0
 40
-0.6
 41
-30.0
 62
     5
 63
     7
421
 16777215
 74
     1
 91
        0
 64
     7
 65
   257
 75
     1
175
     1
 42
1.0
 92
        8
 66
     8
424
  7895160
 43
1.0
 76
     1
 77
     6
 78
     2
 67
     7
 79
     5
170
     0
171
     0
290
     0
174
     0
 93
       13
 44
0.0
173
     0
291
     0
 45
0.0
1001
ACAD
1000
AcDbSavedByObjectVersion
1070
     0
  0
VISUALSTYLE
  5
37
102
{ACAD_REACTORS
330
2A
102
}
102
{ACAD_XDICTIONARY
360
131
102
}
330
2A
100
AcDbVisualStyle
  2
Thicken
 70
    13
 71
     2
 72
     2
 73
     0
 90
        0
 40
-0.6
 41
-30.0
 62
     5
 63
     7
421
 16777215
 74
     1
 91
        4
 64
     7
 65
   257
 75
     1
175
     1
 42
1.0
 92
       12
 66
     7
 43
1.0
 76
     1
 77
     6
 78
     2
 67
     7
 79
     5
170
     0
171
     0
290
     0
174
     0
 93
        1
 44
0.0
173
     0
291
     1
 45
0.0
1001
ACAD
1000
AcDbSavedByObjectVersion
1070
     0
  0
DICTIONARY
  5
13B
330
3D
100
AcDbDictionary
280
     1
281
     1
  3
ACAD_XREC_ROUNDTRIP
360
13C
  0
DICTIONARY
  5
139
330
3C
100
AcDbDictionary
280
     1
281
     1
  3
ACAD_XREC_ROUNDTRIP
360
13A
  0
DICTIONARY
  5
13D
330
3E
100
AcDbDictionary
280
     1
281
     1
  3
ACAD_XREC_ROUNDTRIP
360
13E
  0
DICTIONARY
  5
121
330
2F
100
AcDbDictionary
280
     1
281
     1
  3
ACAD_XREC_ROUNDTRIP
360
122
  0
DICTIONARY
  5
125
330
31
100
AcDbDictionary
280
     1
281
     1
  3
ACAD_XREC_ROUNDTRIP
360
126
  0
DICTIONARY
  5
123
330
30
100
AcDbDictionary
280
     1
281
     1
  3
ACAD_XREC_ROUNDTRIP
360
124
  0
DICTIONARY
  5
127
330
32
100
AcDbDictionary
280
     1
281
     1
  3
ACAD_XREC_ROUNDTRIP
360
128
  0
DICTIONARY
  5
12F
330
36
100
AcDbDictionary
280
     1
281
     1
  3
ACAD_XREC_ROUNDTRIP
360
130
  0
DICTIONARY
  5
137
330
3A
100
AcDbDictionary
280
     1
281
     1
  3
ACAD_XREC_ROUNDTRIP
360
138
  0
DICTIONARY
  5
12B
330
34
100
AcDbDictionary
280
     1
281
     1
  3
ACAD_XREC_ROUNDTRIP
360
12C
  0
DICTIONARY
  5
12D
330
35
100
AcDbDictionary
280
     1
281
     1
  3
ACAD_XREC_ROUNDTRIP
360
12E
  0
DICTIONARY
  5
135
330
39
100
AcDbDictionary
280
     1
281
     1
  3
ACAD_XREC_ROUNDTRIP
360
136
  0
DICTIONARY
  5
119
330
2B
100
AcDbDictionary
280
     1
281
     1
  3
ACAD_XREC_ROUNDTRIP
360
11A
  0
DICTIONARY
  5
11B
330
2C
100
AcDbDictionary
280
     1
281
     1
  3
ACAD_XREC_ROUNDTRIP
360
11C
  0
DICTIONARY
  5
11D
330
2D
100
AcDbDictionary
280
     1
281
     1
  3
ACAD_XREC_ROUNDTRIP
360
11E
  0
DICTIONARY
  5
11F
330
2E
100
AcDbDictionary
280
     1
281
     1
  3
ACAD_XREC_ROUNDTRIP
360
120
  0
DICTIONARY
  5
133
330
38
100
AcDbDictionary
280
     1
281
     1
  3
ACAD_XREC_ROUNDTRIP
360
134
  0
DICTIONARY
  5
129
330
33
100
AcDbDictionary
280
     1
281
     1
  3
ACAD_XREC_ROUNDTRIP
360
12A
  0
DICTIONARY
  5
131
330
37
100
AcDbDictionary
280
     1
281
     1
  3
ACAD_XREC_ROUNDTRIP
360
132
  0
XRECORD
  5
13C
102
{ACAD_REACTORS
330
13B
102
}
330
13B
100
AcDbXrecord
280
     1
102
MATERIAL
148
0.0
149
0.0
149
0.0
 93
        0
 94
      127
282
     0
 72
     1
 77
     1
171
     1
175
     1
179
     1
273
     0
  0
XRECORD
  5
13A
102
{ACAD_REACTORS
330
139
102
}
330
139
100
AcDbXrecord
280
     1
102
MATERIAL
148
0.0
149
0.0
149
0.0
 93
        0
 94
      127
282
     0
 72
     1
 77
     1
171
     1
175
     1
179
     1
273
     0
  0
XRECORD
  5
13E
102
{ACAD_REACTORS
330
13D
102
}
330
13D
100
AcDbXrecord
280
     1
102
MATERIAL
148
0.0
149
0.0
149
0.0
 93
        0
 94
      127
282
     0
 72
     1
 77
     1
171
     1
175
     1
179
     1
273
     0
  0
XRECORD
  5
122
102
{ACAD_REACTORS
330
121
102
}
330
121
100
AcDbXrecord
280
     1
102
RTVSPropertyOp0
 70
     1
102
RTVSPropertyOp1
 70
     1
102
RTVSPropertyOp2
 70
     1
102
RTVSPropertyOp3
 70
     1
102
RTVSPropertyOp4
 70
     1
102
RTVSPropertyOp5
 70
     1
102
RTVSPropertyOp6
 70
     1
102
RTVSPropertyOp7
 70
     1
102
RTVSPropertyOp8
 70
     1
102
RTVSPropertyOp9
 70
     1
102
RTVSPropertyOp10
 70
     1
102
RTVSPropertyOp11
 70
     1
102
RTVSPropertyOp12
 70
     1
102
RTVSPropertyOp13
 70
     1
102
RTVSPropertyOp14
 70
     1
102
RTVSPropertyOp15
 70
     1
102
RTVSPropertyOp16
 70
     1
102
RTVSPropertyOp17
 70
     1
102
RTVSPropertyOp18
 70
     1
102
RTVSPropertyOp19
 70
     1
102
RTVSPropertyOp20
 70
     1
102
RTVSPropertyOp21
 70
     1
102
RTVSPropertyOp22
 70
     1
102
RTVSPropertyOp23
 70
     1
102
RTVSPropertyOp24
 70
     1
102
RTVSPropertyOp25
 70
     1
102
RTVSPropertyOp26
 70
     1
102
RTVSPropertyOp27
 70
     1
102
RTVSPropertyOp28
 70
     1
102
RTVSPropertyOp29
 70
     1
102
RTVSPropertyOp30
 70
     1
102
RTVSPropertyOp31
 70
     1
102
RTVSPropertyOp32
 70
     1
  0
XRECORD
  5
126
102
{ACAD_REACTORS
330
125
102
}
330
125
100
AcDbXrecord
280
     1
102
RTVSPropertyOp0
 70
     1
102
RTVSPropertyOp1
 70
     1
102
RTVSPropertyOp2
 70
     1
102
RTVSPropertyOp3
 70
     1
102
RTVSPropertyOp4
 70
     1
102
RTVSPropertyOp5
 70
     1
102
RTVSPropertyOp6
 70
     1
102
RTVSPropertyOp7
 70
     1
102
RTVSPropertyOp8
 70
     1
102
RTVSPropertyOp9
 70
     1
102
RTVSPropertyOp10
 70
     1
102
RTVSPropertyOp11
 70
     1
102
RTVSPropertyOp12
 70
     1
102
RTVSPropertyOp13
 70
     1
102
RTVSPropertyOp14
 70
     1
102
RTVSPropertyOp15
 70
     1
102
RTVSPropertyOp16
 70
     1
102
RTVSPropertyOp17
 70
     1
102
RTVSPropertyOp18
 70
     1
102
RTVSPropertyOp19
 70
     1
102
RTVSPropertyOp20
 70
     1
102
RTVSPropertyOp21
 70
     1
102
RTVSPropertyOp22
 70
     1
102
RTVSPropertyOp23
 70
     1
102
RTVSPropertyOp24
 70
     1
102
RTVSPropertyOp25
 70
     1
102
RTVSPropertyOp26
 70
     1
102
RTVSPropertyOp27
 70
     1
102
RTVSPropertyOp28
 70
     1
102
RTVSPropertyOp29
 70
     1
102
RTVSPropertyOp30
 70
     1
102
RTVSPropertyOp31
 70
     1
102
RTVSPropertyOp32
 70
     1
  0
XRECORD
  5
124
102
{ACAD_REACTORS
330
123
102
}
330
123
100
AcDbXrecord
280
     1
102
RTVSPropertyOp0
 70
     1
102
RTVSPropertyOp1
 70
     1
102
RTVSPropertyOp2
 70
     1
102
RTVSPropertyOp3
 70
     1
102
RTVSPropertyOp4
 70
     1
102
RTVSPropertyOp5
 70
     1
102
RTVSPropertyOp6
 70
     1
102
RTVSPropertyOp7
 70
     1
102
RTVSPropertyOp8
 70
     1
102
RTVSPropertyOp9
 70
     1
102
RTVSPropertyOp10
 70
     1
102
RTVSPropertyOp11
 70
     1
102
RTVSPropertyOp12
 70
     1
102
RTVSPropertyOp13
 70
     1
102
RTVSPropertyOp14
 70
     1
102
RTVSPropertyOp15
 70
     1
102
RTVSPropertyOp16
 70
     1
102
RTVSPropertyOp17
 70
     1
102
RTVSPropertyOp18
 70
     1
102
RTVSPropertyOp19
 70
     1
102
RTVSPropertyOp20
 70
     1
102
RTVSPropertyOp21
 70
     1
102
RTVSPropertyOp22
 70
     1
102
RTVSPropertyOp23
 70
     1
102
RTVSPropertyOp24
 70
     1
102
RTVSPropertyOp25
 70
     1
102
RTVSPropertyOp26
 70
     1
102
RTVSPropertyOp27
 70
     1
102
RTVSPropertyOp28
 70
     1
102
RTVSPropertyOp29
 70
     1
102
RTVSPropertyOp30
 70
     1
102
RTVSPropertyOp31
 70
     1
102
RTVSPropertyOp32
 70
     1
  0
XRECORD
  5
128
102
{ACAD_REACTORS
330
127
102
}
330
127
100
AcDbXrecord
280
     1
102
RTVSPropertyOp0
 70
     1
102
RTVSPropertyOp1
 70
     1
102
RTVSPropertyOp2
 70
     1
102
RTVSPropertyOp3
 70
     1
102
RTVSPropertyOp4
 70
     1
102
RTVSPropertyOp5
 70
     1
102
RTVSPropertyOp6
 70
     1
102
RTVSPropertyOp7
 70
     1
102
RTVSPropertyOp8
 70
     1
102
RTVSPropertyOp9
 70
     1
102
RTVSPropertyOp10
 70
     1
102
RTVSPropertyOp11
 70
     1
102
RTVSPropertyOp12
 70
     1
102
RTVSPropertyOp13
 70
     1
102
RTVSPropertyOp14
 70
     1
102
RTVSPropertyOp15
 70
     1
102
RTVSPropertyOp16
 70
     1
102
RTVSPropertyOp17
 70
     1
102
RTVSPropertyOp18
 70
     1
102
RTVSPropertyOp19
 70
     1
102
RTVSPropertyOp20
 70
     1
102
RTVSPropertyOp21
 70
     1
102
RTVSPropertyOp22
 70
     1
102
RTVSPropertyOp23
 70
     1
102
RTVSPropertyOp24
 70
     1
102
RTVSPropertyOp25
 70
     1
102
RTVSPropertyOp26
 70
     1
102
RTVSPropertyOp27
 70
     1
102
RTVSPropertyOp28
 70
     1
102
RTVSPropertyOp29
 70
     1
102
RTVSPropertyOp30
 70
     1
102
RTVSPropertyOp31
 70
     1
102
RTVSPropertyOp32
 70
     1
  0
XRECORD
  5
130
102
{ACAD_REACTORS
330
12F
102
}
330
12F
100
AcDbXrecord
280
     1
102
RTVSPropertyOp0
 70
     1
102
RTVSPropertyOp1
 70
     1
102
RTVSPropertyOp2
 70
     1
102
RTVSPropertyOp3
 70
     1
102
RTVSPropertyOp4
 70
     1
102
RTVSPropertyOp5
 70
     1
102
RTVSPropertyOp6
 70
     1
102
RTVSPropertyOp7
 70
     1
102
RTVSPropertyOp8
 70
     1
102
RTVSPropertyOp9
 70
     1
102
RTVSPropertyOp10
 70
     1
102
RTVSPropertyOp11
 70
     1
102
RTVSPropertyOp12
 70
     1
102
RTVSPropertyOp13
 70
     1
102
RTVSPropertyOp14
 70
     1
102
RTVSPropertyOp15
 70
     1
102
RTVSPropertyOp16
 70
     1
102
RTVSPropertyOp17
 70
     1
102
RTVSPropertyOp18
 70
     1
102
RTVSPropertyOp19
 70
     1
102
RTVSPropertyOp20
 70
     1
102
RTVSPropertyOp21
 70
     1
102
RTVSPropertyOp22
 70
     1
102
RTVSPropertyOp23
 70
     1
102
RTVSPropertyOp24
 70
     1
102
RTVSPropertyOp25
 70
     1
102
RTVSPropertyOp26
 70
     1
102
RTVSPropertyOp27
 70
     1
102
RTVSPropertyOp28
 70
     1
102
RTVSPropertyOp29
 70
     1
102
RTVSPropertyOp30
 70
     1
102
RTVSPropertyOp31
 70
     1
102
RTVSPropertyOp32
 70
     1
  0
XRECORD
  5
138
102
{ACAD_REACTORS
330
137
102
}
330
137
100
AcDbXrecord
280
     1
102
RTVSPropertyOp0
 70
     1
102
RTVSPropertyOp1
 70
     1
102
RTVSPropertyOp2
 70
     1
102
RTVSPropertyOp3
 70
     1
102
RTVSPropertyOp4
 70
     1
102
RTVSPropertyOp5
 70
     1
102
RTVSPropertyOp6
 70
     1
102
RTVSPropertyOp7
 70
     1
102
RTVSPropertyOp8
 70
     1
102
RTVSPropertyOp9
 70
     1
102
RTVSPropertyOp10
 70
     1
102
RTVSPropertyOp11
 70
     1
102
RTVSPropertyOp12
 70
     1
102
RTVSPropertyOp13
 70
     1
102
RTVSPropertyOp14
 70
     1
102
RTVSPropertyOp15
 70
     1
102
RTVSPropertyOp16
 70
     1
102
RTVSPropertyOp17
 70
     1
102
RTVSPropertyOp18
 70
     1
102
RTVSPropertyOp19
 70
     1
102
RTVSPropertyOp20
 70
     1
102
RTVSPropertyOp21
 70
     1
102
RTVSPropertyOp22
 70
     1
102
RTVSPropertyOp23
 70
     1
102
RTVSPropertyOp24
 70
     1
102
RTVSPropertyOp25
 70
     1
102
RTVSPropertyOp26
 70
     1
102
RTVSPropertyOp27
 70
     1
102
RTVSPropertyOp28
 70
     1
102
RTVSPropertyOp29
 70
     1
102
RTVSPropertyOp30
 70
     1
102
RTVSPropertyOp31
 70
     1
102
RTVSPropertyOp32
 70
     1
  0
XRECORD
  5
12C
102
{ACAD_REACTORS
330
12B
102
}
330
12B
100
AcDbXrecord
280
     1
102
RTVSPropertyOp0
 70
     1
102
RTVSPropertyOp1
 70
     1
102
RTVSPropertyOp2
 70
     1
102
RTVSPropertyOp3
 70
     1
102
RTVSPropertyOp4
 70
     1
102
RTVSPropertyOp5
 70
     1
102
RTVSPropertyOp6
 70
     1
102
RTVSPropertyOp7
 70
     1
102
RTVSPropertyOp8
 70
     1
102
RTVSPropertyOp9
 70
     1
102
RTVSPropertyOp10
 70
     1
102
RTVSPropertyOp11
 70
     1
102
RTVSPropertyOp12
 70
     1
102
RTVSPropertyOp13
 70
     1
102
RTVSPropertyOp14
 70
     1
102
RTVSPropertyOp15
 70
     1
102
RTVSPropertyOp16
 70
     1
102
RTVSPropertyOp17
 70
     1
102
RTVSPropertyOp18
 70
     1
102
RTVSPropertyOp19
 70
     1
102
RTVSPropertyOp20
 70
     1
102
RTVSPropertyOp21
 70
     1
102
RTVSPropertyOp22
 70
     1
102
RTVSPropertyOp23
 70
     1
102
RTVSPropertyOp24
 70
     1
102
RTVSPropertyOp25
 70
     1
102
RTVSPropertyOp26
 70
     1
102
RTVSPropertyOp27
 70
     1
102
RTVSPropertyOp28
 70
     1
102
RTVSPropertyOp29
 70
     1
102
RTVSPropertyOp30
 70
     1
102
RTVSPropertyOp31
 70
     1
102
RTVSPropertyOp32
 70
     1
  0
XRECORD
  5
12E
102
{ACAD_REACTORS
330
12D
102
}
330
12D
100
AcDbXrecord
280
     1
102
RTVSPropertyOp0
 70
     1
102
RTVSPropertyOp1
 70
     1
102
RTVSPropertyOp2
 70
     1
102
RTVSPropertyOp3
 70
     1
102
RTVSPropertyOp4
 70
     1
102
RTVSPropertyOp5
 70
     1
102
RTVSPropertyOp6
 70
     1
102
RTVSPropertyOp7
 70
     1
102
RTVSPropertyOp8
 70
     1
102
RTVSPropertyOp9
 70
     1
102
RTVSPropertyOp10
 70
     1
102
RTVSPropertyOp11
 70
     1
102
RTVSPropertyOp12
 70
     1
102
RTVSPropertyOp13
 70
     1
102
RTVSPropertyOp14
 70
     1
102
RTVSPropertyOp15
 70
     1
102
RTVSPropertyOp16
 70
     1
102
RTVSPropertyOp17
 70
     1
102
RTVSPropertyOp18
 70
     1
102
RTVSPropertyOp19
 70
     1
102
RTVSPropertyOp20
 70
     1
102
RTVSPropertyOp21
 70
     1
102
RTVSPropertyOp22
 70
     1
102
RTVSPropertyOp23
 70
     1
102
RTVSPropertyOp24
 70
     1
102
RTVSPropertyOp25
 70
     1
102
RTVSPropertyOp26
 70
     1
102
RTVSPropertyOp27
 70
     1
102
RTVSPropertyOp28
 70
     1
102
RTVSPropertyOp29
 70
     1
102
RTVSPropertyOp30
 70
     1
102
RTVSPropertyOp31
 70
     1
102
RTVSPropertyOp32
 70
     1
  0
XRECORD
  5
136
102
{ACAD_REACTORS
330
135
102
}
330
135
100
AcDbXrecord
280
     1
102
RTVSPropertyOp0
 70
     1
102
RTVSPropertyOp1
 70
     1
102
RTVSPropertyOp2
 70
     1
102
RTVSPropertyOp3
 70
     1
102
RTVSPropertyOp4
 70
     1
102
RTVSPropertyOp5
 70
     1
102
RTVSPropertyOp6
 70
     1
102
RTVSPropertyOp7
 70
     1
102
RTVSPropertyOp8
 70
     1
102
RTVSPropertyOp9
 70
     1
102
RTVSPropertyOp10
 70
     1
102
RTVSPropertyOp11
 70
     1
102
RTVSPropertyOp12
 70
     1
102
RTVSPropertyOp13
 70
     1
102
RTVSPropertyOp14
 70
     1
102
RTVSPropertyOp15
 70
     1
102
RTVSPropertyOp16
 70
     1
102
RTVSPropertyOp17
 70
     1
102
RTVSPropertyOp18
 70
     1
102
RTVSPropertyOp19
 70
     1
102
RTVSPropertyOp20
 70
     1
102
RTVSPropertyOp21
 70
     1
102
RTVSPropertyOp22
 70
     1
102
RTVSPropertyOp23
 70
     1
102
RTVSPropertyOp24
 70
     1
102
RTVSPropertyOp25
 70
     1
102
RTVSPropertyOp26
 70
     1
102
RTVSPropertyOp27
 70
     1
102
RTVSPropertyOp28
 70
     1
102
RTVSPropertyOp29
 70
     1
102
RTVSPropertyOp30
 70
     1
102
RTVSPropertyOp31
 70
     1
102
RTVSPropertyOp32
 70
     1
  0
XRECORD
  5
11A
102
{ACAD_REACTORS
330
119
102
}
330
119
100
AcDbXrecord
280
     1
102
RTVSPropertyOp0
 70
     1
102
RTVSPropertyOp1
 70
     1
102
RTVSPropertyOp2
 70
     1
102
RTVSPropertyOp3
 70
     1
102
RTVSPropertyOp4
 70
     1
102
RTVSPropertyOp5
 70
     1
102
RTVSPropertyOp6
 70
     1
102
RTVSPropertyOp7
 70
     1
102
RTVSPropertyOp8
 70
     1
102
RTVSPropertyOp9
 70
     1
102
RTVSPropertyOp10
 70
     1
102
RTVSPropertyOp11
 70
     1
102
RTVSPropertyOp12
 70
     1
102
RTVSPropertyOp13
 70
     1
102
RTVSPropertyOp14
 70
     1
102
RTVSPropertyOp15
 70
     1
102
RTVSPropertyOp16
 70
     1
102
RTVSPropertyOp17
 70
     1
102
RTVSPropertyOp18
 70
     1
102
RTVSPropertyOp19
 70
     1
102
RTVSPropertyOp20
 70
     1
102
RTVSPropertyOp21
 70
     1
102
RTVSPropertyOp22
 70
     1
102
RTVSPropertyOp23
 70
     1
102
RTVSPropertyOp24
 70
     1
102
RTVSPropertyOp25
 70
     1
102
RTVSPropertyOp26
 70
     1
102
RTVSPropertyOp27
 70
     1
102
RTVSPropertyOp28
 70
     1
102
RTVSPropertyOp29
 70
     1
102
RTVSPropertyOp30
 70
     1
102
RTVSPropertyOp31
 70
     1
102
RTVSPropertyOp32
 70
     1
  0
XRECORD
  5
11C
102
{ACAD_REACTORS
330
11B
102
}
330
11B
100
AcDbXrecord
280
     1
102
RTVSPropertyOp0
 70
     1
102
RTVSPropertyOp1
 70
     1
102
RTVSPropertyOp2
 70
     1
102
RTVSPropertyOp3
 70
     1
102
RTVSPropertyOp4
 70
     1
102
RTVSPropertyOp5
 70
     1
102
RTVSPropertyOp6
 70
     1
102
RTVSPropertyOp7
 70
     1
102
RTVSPropertyOp8
 70
     1
102
RTVSPropertyOp9
 70
     1
102
RTVSPropertyOp10
 70
     1
102
RTVSPropertyOp11
 70
     1
102
RTVSPropertyOp12
 70
     1
102
RTVSPropertyOp13
 70
     1
102
RTVSPropertyOp14
 70
     1
102
RTVSPropertyOp15
 70
     1
102
RTVSPropertyOp16
 70
     1
102
RTVSPropertyOp17
 70
     1
102
RTVSPropertyOp18
 70
     1
102
RTVSPropertyOp19
 70
     1
102
RTVSPropertyOp20
 70
     1
102
RTVSPropertyOp21
 70
     1
102
RTVSPropertyOp22
 70
     1
102
RTVSPropertyOp23
 70
     1
102
RTVSPropertyOp24
 70
     1
102
RTVSPropertyOp25
 70
     1
102
RTVSPropertyOp26
 70
     1
102
RTVSPropertyOp27
 70
     1
102
RTVSPropertyOp28
 70
     1
102
RTVSPropertyOp29
 70
     1
102
RTVSPropertyOp30
 70
     1
102
RTVSPropertyOp31
 70
     1
102
RTVSPropertyOp32
 70
     1
  0
XRECORD
  5
11E
102
{ACAD_REACTORS
330
11D
102
}
330
11D
100
AcDbXrecord
280
     1
102
RTVSPropertyOp0
 70
     1
102
RTVSPropertyOp1
 70
     1
102
RTVSPropertyOp2
 70
     1
102
RTVSPropertyOp3
 70
     1
102
RTVSPropertyOp4
 70
     1
102
RTVSPropertyOp5
 70
     1
102
RTVSPropertyOp6
 70
     1
102
RTVSPropertyOp7
 70
     1
102
RTVSPropertyOp8
 70
     1
102
RTVSPropertyOp9
 70
     1
102
RTVSPropertyOp10
 70
     1
102
RTVSPropertyOp11
 70
     1
102
RTVSPropertyOp12
 70
     1
102
RTVSPropertyOp13
 70
     1
102
RTVSPropertyOp14
 70
     1
102
RTVSPropertyOp15
 70
     1
102
RTVSPropertyOp16
 70
     1
102
RTVSPropertyOp17
 70
     1
102
RTVSPropertyOp18
 70
     1
102
RTVSPropertyOp19
 70
     1
102
RTVSPropertyOp20
 70
     1
102
RTVSPropertyOp21
 70
     1
102
RTVSPropertyOp22
 70
     1
102
RTVSPropertyOp23
 70
     1
102
RTVSPropertyOp24
 70
     1
102
RTVSPropertyOp25
 70
     1
102
RTVSPropertyOp26
 70
     1
102
RTVSPropertyOp27
 70
     1
102
RTVSPropertyOp28
 70
     1
102
RTVSPropertyOp29
 70
     1
102
RTVSPropertyOp30
 70
     1
102
RTVSPropertyOp31
 70
     1
102
RTVSPropertyOp32
 70
     1
  0
XRECORD
  5
120
102
{ACAD_REACTORS
330
11F
102
}
330
11F
100
AcDbXrecord
280
     1
102
RTVSPropertyOp0
 70
     1
102
RTVSPropertyOp1
 70
     1
102
RTVSPropertyOp2
 70
     1
102
RTVSPropertyOp3
 70
     1
102
RTVSPropertyOp4
 70
     1
102
RTVSPropertyOp5
 70
     1
102
RTVSPropertyOp6
 70
     1
102
RTVSPropertyOp7
 70
     1
102
RTVSPropertyOp8
 70
     1
102
RTVSPropertyOp9
 70
     1
102
RTVSPropertyOp10
 70
     1
102
RTVSPropertyOp11
 70
     1
102
RTVSPropertyOp12
 70
     1
102
RTVSPropertyOp13
 70
     1
102
RTVSPropertyOp14
 70
     1
102
RTVSPropertyOp15
 70
     1
102
RTVSPropertyOp16
 70
     1
102
RTVSPropertyOp17
 70
     1
102
RTVSPropertyOp18
 70
     1
102
RTVSPropertyOp19
 70
     1
102
RTVSPropertyOp20
 70
     1
102
RTVSPropertyOp21
 70
     1
102
RTVSPropertyOp22
 70
     1
102
RTVSPropertyOp23
 70
     1
102
RTVSPropertyOp24
 70
     1
102
RTVSPropertyOp25
 70
     1
102
RTVSPropertyOp26
 70
     1
102
RTVSPropertyOp27
 70
     1
102
RTVSPropertyOp28
 70
     1
102
RTVSPropertyOp29
 70
     1
102
RTVSPropertyOp30
 70
     1
102
RTVSPropertyOp31
 70
     1
102
RTVSPropertyOp32
 70
     1
  0
XRECORD
  5
134
102
{ACAD_REACTORS
330
133
102
}
330
133
100
AcDbXrecord
280
     1
102
RTVSPropertyOp0
 70
     1
102
RTVSPropertyOp1
 70
     1
102
RTVSPropertyOp2
 70
     1
102
RTVSPropertyOp3
 70
     1
102
RTVSPropertyOp4
 70
     1
102
RTVSPropertyOp5
 70
     1
102
RTVSPropertyOp6
 70
     1
102
RTVSPropertyOp7
 70
     1
102
RTVSPropertyOp8
 70
     1
102
RTVSPropertyOp9
 70
     1
102
RTVSPropertyOp10
 70
     1
102
RTVSPropertyOp11
 70
     1
102
RTVSPropertyOp12
 70
     1
102
RTVSPropertyOp13
 70
     1
102
RTVSPropertyOp14
 70
     1
102
RTVSPropertyOp15
 70
     1
102
RTVSPropertyOp16
 70
     1
102
RTVSPropertyOp17
 70
     1
102
RTVSPropertyOp18
 70
     1
102
RTVSPropertyOp19
 70
     1
102
RTVSPropertyOp20
 70
     1
102
RTVSPropertyOp21
 70
     1
102
RTVSPropertyOp22
 70
     1
102
RTVSPropertyOp23
 70
     1
102
RTVSPropertyOp24
 70
     1
102
RTVSPropertyOp25
 70
     1
102
RTVSPropertyOp26
 70
     1
102
RTVSPropertyOp27
 70
     1
102
RTVSPropertyOp28
 70
     1
102
RTVSPropertyOp29
 70
     1
102
RTVSPropertyOp30
 70
     1
102
RTVSPropertyOp31
 70
     1
102
RTVSPropertyOp32
 70
     1
  0
XRECORD
  5
12A
102
{ACAD_REACTORS
330
129
102
}
330
129
100
AcDbXrecord
280
     1
102
RTVSPropertyOp0
 70
     1
102
RTVSPropertyOp1
 70
     1
102
RTVSPropertyOp2
 70
     1
102
RTVSPropertyOp3
 70
     1
102
RTVSPropertyOp4
 70
     1
102
RTVSPropertyOp5
 70
     1
102
RTVSPropertyOp6
 70
     1
102
RTVSPropertyOp7
 70
     1
102
RTVSPropertyOp8
 70
     1
102
RTVSPropertyOp9
 70
     1
102
RTVSPropertyOp10
 70
     1
102
RTVSPropertyOp11
 70
     1
102
RTVSPropertyOp12
 70
     1
102
RTVSPropertyOp13
 70
     1
102
RTVSPropertyOp14
 70
     1
102
RTVSPropertyOp15
 70
     1
102
RTVSPropertyOp16
 70
     1
102
RTVSPropertyOp17
 70
     1
102
RTVSPropertyOp18
 70
     1
102
RTVSPropertyOp19
 70
     1
102
RTVSPropertyOp20
 70
     1
102
RTVSPropertyOp21
 70
     1
102
RTVSPropertyOp22
 70
     1
102
RTVSPropertyOp23
 70
     1
102
RTVSPropertyOp24
 70
     1
102
RTVSPropertyOp25
 70
     1
102
RTVSPropertyOp26
 70
     1
102
RTVSPropertyOp27
 70
     1
102
RTVSPropertyOp28
 70
     1
102
RTVSPropertyOp29
 70
     1
102
RTVSPropertyOp30
 70
     1
102
RTVSPropertyOp31
 70
     1
102
RTVSPropertyOp32
 70
     1
  0
XRECORD
  5
132
102
{ACAD_REACTORS
330
131
102
}
330
131
100
AcDbXrecord
280
     1
102
RTVSPropertyOp0
 70
     1
102
RTVSPropertyOp1
 70
     1
102
RTVSPropertyOp2
 70
     1
102
RTVSPropertyOp3
 70
     1
102
RTVSPropertyOp4
 70
     1
102
RTVSPropertyOp5
 70
     1
102
RTVSPropertyOp6
 70
     1
102
RTVSPropertyOp7
 70
     1
102
RTVSPropertyOp8
 70
     1
102
RTVSPropertyOp9
 70
     1
102
RTVSPropertyOp10
 70
     1
102
RTVSPropertyOp11
 70
     1
102
RTVSPropertyOp12
 70
     1
102
RTVSPropertyOp13
 70
     1
102
RTVSPropertyOp14
 70
     1
102
RTVSPropertyOp15
 70
     1
102
RTVSPropertyOp16
 70
     1
102
RTVSPropertyOp17
 70
     1
102
RTVSPropertyOp18
 70
     1
102
RTVSPropertyOp19
 70
     1
102
RTVSPropertyOp20
 70
     1
102
RTVSPropertyOp21
 70
     1
102
RTVSPropertyOp22
 70
     1
102
RTVSPropertyOp23
 70
     1
102
RTVSPropertyOp24
 70
     1
102
RTVSPropertyOp25
 70
     1
102
RTVSPropertyOp26
 70
     1
102
RTVSPropertyOp27
 70
     1
102
RTVSPropertyOp28
 70
     1
102
RTVSPropertyOp29
 70
     1
102
RTVSPropertyOp30
 70
     1
102
RTVSPropertyOp31
 70
     1
102
RTVSPropertyOp32
 70
     1
  0
ENDSEC
  0
EOF
