  0
SECTION
  2
HEADER
  9
$ACADVER
  1
AC1032
  9
$ACADMAINTVER
 90
      228
  9
$DWGCODEPAGE
  3
ANSI_1252
  9
$REQUIREDVERSIONS
160
                 0
  9
$INSBASE
 10
0.0
 20
0.0
 30
0.0
  9
$EXTMIN
 10
1.000000000000000E+20
 20
1.000000000000000E+20
 30
1.000000000000000E+20
  9
$EXTMAX
 10
-1.000000000000000E+20
 20
-1.000000000000000E+20
 30
-1.000000000000000E+20
  9
$LIMMIN
 10
0.0
 20
0.0
  9
$LIMMAX
 10
12.0
 20
9.0
  9
$ORTHOMODE
 70
     0
  9
$REGENMODE
 70
     1
  9
$FILLMODE
 70
     1
  9
$QTEXTMODE
 70
     0
  9
$MIRRTEXT
 70
     0
  9
$LTSCALE
 40
1.0
  9
$ATTMODE
 70
     1
  9
$TEXTSIZE
 40
0.2
  9
$TRACEWID
 40
0.05
  9
$TEXTSTYLE
  7
Standard
  9
$CLAYER
  8
0
  9
$CELTYPE
  6
ByLayer
  9
$CECOLOR
 62
   256
  9
$CELTSCALE
 40
1.0
  9
$DISPSILH
 70
     0
  9
$DIMSCALE
 40
1.0
  9
$DIMASZ
 40
0.18
  9
$DIMEXO
 40
0.0625
  9
$DIMDLI
 40
0.38
  9
$DIMRND
 40
0.0
  9
$DIMDLE
 40
0.0
  9
$DIMEXE
 40
0.18
  9
$DIMTP
 40
0.0
  9
$DIMTM
 40
0.0
  9
$DIMTXT
 40
0.18
  9
$DIMCEN
 40
0.09
  9
$DIMTSZ
 40
0.0
  9
$DIMTOL
 70
     0
  9
$DIMLIM
 70
     0
  9
$DIMTIH
 70
     1
  9
$DIMTOH
 70
     1
  9
$DIMSE1
 70
     0
  9
$DIMSE2
 70
     0
  9
$DIMTAD
 70
     0
  9
$DIMZIN
 70
     0
  9
$DIMBLK
  1

  9
$DIMASO
 70
     1
  9
$DIMSHO
 70
     1
  9
$DIMPOST
  1

  9
$DIMAPOST
  1

  9
$DIMALT
 70
     0
  9
$DIMALTD
 70
     2
  9
$DIMALTF
 40
25.4
  9
$DIMLFAC
 40
1.0
  9
$DIMTOFL
 70
     0
  9
$DIMTVP
 40
0.0
  9
$DIMTIX
 70
     0
  9
$DIMSOXD
 70
     0
  9
$DIMSAH
 70
     0
  9
$DIMBLK1
  1

  9
$DIMBLK2
  1

  9
$DIMSTYLE
  2
Standard
  9
$DIMCLRD
 70
     0
  9
$DIMCLRE
 70
     0
  9
$DIMCLRT
 70
     0
  9
$DIMTFAC
 40
1.0
  9
$DIMGAP
 40
0.09
  9
$DIMJUST
 70
     0
  9
$DIMSD1
 70
     0
  9
$DIMSD2
 70
     0
  9
$DIMTOLJ
 70
     1
  9
$DIMTZIN
 70
     0
  9
$DIMALTZ
 70
     0
  9
$DIMALTTZ
 70
     0
  9
$DIMUPT
 70
     0
  9
$DIMDEC
 70
     4
  9
$DIMTDEC
 70
     4
  9
$DIMALTU
 70
     2
  9
$DIMALTTD
 70
     2
  9
$DIMTXSTY
  7
Standard
  9
$DIMAUNIT
 70
     0
  9
$DIMADEC
 70
     0
  9
$DIMALTRND
 40
0.0
  9
$DIMAZIN
 70
     0
  9
$DIMDSEP
 70
    46
  9
$DIMATFIT
 70
     3
  9
$DIMFRAC
 70
     0
  9
$DIMLDRBLK
  1

  9
$DIMLUNIT
 70
     2
  9
$DIMLWD
 70
    -2
  9
$DIMLWE
 70
    -2
  9
$DIMTMOVE
 70
     0
  9
$DIMFXL
 40
1.0
  9
$DIMFXLON
 70
     0
  9
$DIMJOGANG
 40
0.7853981633974483
  9
$DIMTFILL
 70
     0
  9
$DIMTFILLCLR
 70
     0
  9
$DIMARCSYM
 70
     0
  9
$DIMLTYPE
  6

  9
$DIMLTEX1
  6

  9
$DIMLTEX2
  6

  9
$DIMTXTDIRECTION
 70
     0
  9
$LUNITS
 70
     2
  9
$LUPREC
 70
     4
  9
$SKETCHINC
 40
0.1
  9
$FILLETRAD
 40
0.0
  9
$AUNITS
 70
     0
  9
$AUPREC
 70
     0
  9
$MENU
  1
.
  9
$ELEVATION
 40
0.0
  9
$PELEVATION
 40
0.0
  9
$THICKNESS
 40
0.0
  9
$LIMCHECK
 70
     0
  9
$CHAMFERA
 40
0.0
  9
$CHAMFERB
 40
0.0
  9
$CHAMFERC
 40
0.0
  9
$CHAMFERD
 40
0.0
  9
$SKPOLY
 70
     0
  9
$TDCREATE
 40
2460323.364930556
  9
$TDUCREATE
 40
2460323.698263889
  9
$TDUPDATE
 40
2460323.364930556
  9
$TDUUPDATE
 40
2460323.698263889
  9
$TDINDWG
 40
0.0000000000
  9
$TDUSRTIMER
 40
0.0000000000
  9
$USRTIMER
 70
     1
  9
$ANGBASE
 50
0.0
  9
$ANGDIR
 70
     0
  9
$PDMODE
 70
     0
  9
$PDSIZE
 40
0.0
  9
$PLINEWID
 40
0.0
  9
$SPLFRAME
 70
     0
  9
$SPLINETYPE
 70
     6
  9
$SPLINESEGS
 70
     8
  9
$HANDSEED
  5
AA
  9
$SURFTAB1
 70
     6
  9
$SURFTAB2
 70
     6
  9
$SURFTYPE
 70
     6
  9
$SURFU
 70
     6
  9
$SURFV
 70
     6
  9
$UCSBASE
  2

  9
$UCSNAME
  2

  9
$UCSORG
 10
0.0
 20
0.0
 30
0.0
  9
$UCSXDIR
 10
1.0
 20
0.0
 30
0.0
  9
$UCSYDIR
 10
0.0
 20
1.0
 30
0.0
  9
$UCSORTHOREF
  2

  9
$UCSORTHOVIEW
 70
     0
  9
$UCSORGTOP
 10
0.0
 20
0.0
 30
0.0
  9
$UCSORGBOTTOM
 10
0.0
 20
0.0
 30
0.0
  9
$UCSORGLEFT
 10
0.0
 20
0.0
 30
0.0
  9
$UCSORGRIGHT
 10
0.0
 20
0.0
 30
0.0
  9
$UCSORGFRONT
 10
0.0
 20
0.0
 30
0.0
  9
$UCSORGBACK
 10
0.0
 20
0.0
 30
0.0
  9
$PUCSBASE
  2

  9
$PUCSNAME
  2

  9
$PUCSORG
 10
0.0
 20
0.0
 30
0.0
  9
$PUCSXDIR
 10
1.0
 20
0.0
 30
0.0
  9
$PUCSYDIR
 10
0.0
 20
1.0
 30
0.0
  9
$PUCSORTHOREF
  2

  9
$PUCSORTHOVIEW
 70
     0
  9
$PUCSORGTOP
 10
0.0
 20
0.0
 30
0.0
  9
$PUCSORGBOTTOM
 10
0.0
 20
0.0
 30
0.0
  9
$PUCSORGLEFT
 10
0.0
 20
0.0
 30
0.0
  9
$PUCSORGRIGHT
 10
0.0
 20
0.0
 30
0.0
  9
$PUCSORGFRONT
 10
0.0
 20
0.0
 30
0.0
  9
$PUCSORGBACK
 10
0.0
 20
0.0
 30
0.0
  9
$USERI1
 70
     0
  9
$USERI2
 70
     0
  9
$USERI3
 70
     0
  9
$USERI4
 70
     0
  9
$USERI5
 70
     0
  9
$USERR1
 40
0.0
  9
$USERR2
 40
0.0
  9
$USERR3
 40
0.0
  9
$USERR4
 40
0.0
  9
$USERR5
 40
0.0
  9
$WORLDVIEW
 70
     1
  9
$SHADEDGE
 70
     3
  9
$SHADEDIF
 70
    70
  9
$TILEMODE
 70
     1
  9
$MAXACTVP
 70
    64
  9
$PINSBASE
 10
0.0
 20
0.0
 30
0.0
  9
$PLIMCHECK
 70
     0
  9
$PEXTMIN
 10
1.000000000000000E+20
 20
1.000000000000000E+20
 30
1.000000000000000E+20
  9
$PEXTMAX
 10
-1.000000000000000E+20
 20
-1.000000000000000E+20
 30
-1.000000000000000E+20
  9
$PLIMMIN
 10
0.0
 20
0.0
  9
$PLIMMAX
 10
12.0
 20
9.0
  9
$UNITMODE
 70
     0
  9
$VISRETAIN
 70
     1
  9
$PLINEGEN
 70
     0
  9
$PSLTSCALE
 70
     1
  9
$TREEDEPTH
 70
  3020
  9
$CMLSTYLE
  2
Standard
  9
$CMLJUST
 70
     0
  9
$CMLSCALE
 40
1.0
  9
$PROXYGRAPHICS
 70
     1
  9
$MEASUREMENT
 70
     0
  9
$CELWEIGHT
370
    -1
  9
$ENDCAPS
280
     0
  9
$JOINSTYLE
280
     0
  9
$LWDISPLAY
290
     1
  9
$INSUNITS
 70
     1
  9
$HYPERLINKBASE
  1

  9
$STYLESHEET
  1

  9
$XEDIT
290
     1
  9
$CEPSNTYPE
380
     0
  9
$PSTYLEMODE
290
     1
  9
$FINGERPRINTGUID
  2
{C200B980-12D8-EB4A-8404-BD6D6E98E3DE}
  9
$VERSIONGUID
  2
{68B47C1B-3C5C-F643-AFF7-04F0FA9DD650}
  9
$EXTNAMES
290
     1
  9
$PSVPSCALE
 40
0.0
  9
$OLESTARTUP
290
     0
  9
$SORTENTS
280
   127
  9
$INDEXCTL
280
     0
  9
$HIDETEXT
280
     1
  9
$XCLIPFRAME
280
     2
  9
$HALOGAP
280
     0
  9
$OBSCOLOR
 70
   257
  9
$OBSLTYPE
280
     0
  9
$INTERSECTIONDISPLAY
280
     0
  9
$INTERSECTIONCOLOR
 70
   257
  9
$DIMASSOC
280
     2
  9
$PROJECTNAME
  1

  9
$CAMERADISPLAY
290
     0
  9
$LENSLENGTH
 40
50.0
  9
$CAMERAHEIGHT
 40
0.0
  9
$STEPSPERSEC
 40
2.0
  9
$STEPSIZE
 40
6.0
  9
$3DDWFPREC
 40
2.0
  9
$PSOLWIDTH
 40
0.25
  9
$PSOLHEIGHT
 40
4.0
  9
$LOFTANG1
 40
1.570796326794896
  9
$LOFTANG2
 40
1.570796326794896
  9
$LOFTMAG1
 40
0.0
  9
$LOFTMAG2
 40
0.0
  9
$LOFTPARAM
 70
     7
  9
$LOFTNORMALS
280
     1
  9
$LATITUDE
 40
37.795
  9
$LONGITUDE
 40
-122.394
  9
$NORTHDIRECTION
 40
0.0
  9
$TIMEZONE
 70
 -8000
  9
$LIGHTGLYPHDISPLAY
280
     1
  9
$TILEMODELIGHTSYNCH
280
     1
  9
$CMATERIAL
347
11
  9
$SOLIDHIST
280
     0
  9
$SHOWHIST
280
     1
  9
$DWFFRAME
280
     2
  9
$DGNFRAME
280
     0
  9
$REALWORLDSCALE
290
     1
  9
$INTERFERECOLOR
 62
     1
  9
$INTERFEREOBJVS
345
33
  9
$INTERFEREVPVS
346
30
  9
$CSHADOW
280
     0
  9
$SHADOWPLANELOCATION
 40
0.0
  0
ENDSEC
  0
SECTION
  2
CLASSES
  0
CLASS
  1
ACDBDICTIONARYWDFLT
  2
AcDbDictionaryWithDefault
  3
ObjectDBX Classes
 90
        0
 91
        1
280
     0
281
     0
  0
CLASS
  1
MATERIAL
  2
AcDbMaterial
  3
ObjectDBX Classes
 90
     1153
 91
        3
280
     0
281
     0
  0
CLASS
  1
VISUALSTYLE
  2
AcDbVisualStyle
  3
ObjectDBX Classes
 90
     4095
 91
       24
280
     0
281
     0
  0
CLASS
  1
SCALE
  2
AcDbScale
  3
ObjectDBX Classes
 90
     1153
 91
       17
280
     0
281
     0
  0
CLASS
  1
TABLESTYLE
  2
AcDbTableStyle
  3
ObjectDBX Classes
 90
     4095
 91
        1
280
     0
281
     0
  0
CLASS
  1
MLEADERSTYLE
  2
AcDbMLeaderStyle
  3
ACDB_MLEADERSTYLE_CLASS
 90
     4095
 91
        1
280
     0
281
     0
  0
CLASS
  1
ACDBSECTIONVIEWSTYLE
  2
AcDbSectionViewStyle
  3
ObjectDBX Classes
 90
     1025
 91
        1
280
     0
281
     0
  0
CLASS
  1
ACDBDETAILVIEWSTYLE
  2
AcDbDetailViewStyle
  3
ObjectDBX Classes
 90
     1025
 91
        1
280
     0
281
     0
  0
CLASS
  1
DICTIONARYVAR
  2
AcDbDictionaryVar
  3
ObjectDBX Classes
 90
        0
 91
        5
280
     0
281
     0
  0
CLASS
  1
CELLSTYLEMAP
  2
AcDbCellStyleMap
  3
ObjectDBX Classes
 90
     1152
 91
        1
280
     0
281
     0
  0
ENDSEC
  0
SECTION
  2
TABLES
  0
TABLE
  2
VPORT
  5
8
330
0
100
AcDbSymbolTable
 70
     1
  0
VPORT
  5
57
330
8
100
AcDbSymbolTableRecord
100
AcDbViewportTableRecord
  2
*Active
 70
     0
 10
0.0
 20
0.0
 11
1.0
 21
1.0
 12
0.0
 22
0.0
 13
0.0
 23
0.0
 14
1.0
 24
1.0
 15
0.0
 25
0.0
 16
0.0
 26
0.0
 36
1.0
 17
1.348897298177083
 27
-2.472704803893015
 37
0.0
 40
5.49843197316956
 41
1.338258692190152
 42
50.0
 43
0.0
 44
0.0
 50
0.0
 51
0.0
 71
     0
 72
   100
 73
     1
 74
     1
 75
     0
 76
     0
 77
     0
 78
     0
281
     0
 65
     1
110
0.0
120
0.0
130
0.0
111
1.0
121
0.0
131
0.0
112
0.0
122
1.0
132
0.0
 79
     0
146
0.0
 60
     3
 61
     5
292
     1
282
     1
141
0.0
142
0.0
 63
   250
421
  3355443
  0
ENDTAB
  0
TABLE
  2
LTYPE
  5
5
330
0
100
AcDbSymbolTable
 70
     1
  0
LTYPE
  5
5B
330
5
100
AcDbSymbolTableRecord
100
AcDbLinetypeTableRecord
  2
ByBlock
 70
     0
  3

 72
    65
 73
     0
 40
0.0
  0
LTYPE
  5
5C
330
5
100
AcDbSymbolTableRecord
100
AcDbLinetypeTableRecord
  2
ByLayer
 70
     0
  3

 72
    65
 73
     0
 40
0.0
  0
LTYPE
  5
5D
330
5
100
AcDbSymbolTableRecord
100
AcDbLinetypeTableRecord
  2
Continuous
 70
     0
  3
Solid line
 72
    65
 73
     0
 40
0.0
  0
ENDTAB
  0
TABLE
  2
LAYER
  5
2
330
0
100
AcDbSymbolTable
 70
    18
  0
LAYER
  5
54
330
2
100
AcDbSymbolTableRecord
100
AcDbLayerTableRecord
  2
0
 70
     0
 62
     7
  6
Continuous
370
    -3
390
F
347
21
348
0
  0
LAYER
  5
78
330
2
100
AcDbSymbolTableRecord
100
AcDbLayerTableRecord
  2
Fonts
 70
     1
 62
     7
  6
Continuous
370
     0
390
F
347
21
348
0
  0
LAYER
  5
79
330
2
100
AcDbSymbolTableRecord
100
AcDbLayerTableRecord
  2
Green
 70
     5
 62
     7
  6
Continuous
370
     0
390
F
347
21
348
0
  0
LAYER
  5
7A
330
2
100
AcDbSymbolTableRecord
100
AcDbLayerTableRecord
  2
White
 70
     4
 62
     7
  6
Continuous
370
     0
390
F
347
21
348
0
  0
LAYER
  5
7B
330
2
100
AcDbSymbolTableRecord
100
AcDbLayerTableRecord
  2
Date
 70
     1
 62
     7
  6
Continuous
370
     0
390
F
347
21
348
0
  0
LAYER
  5
7C
330
2
100
AcDbSymbolTableRecord
100
AcDbLayerTableRecord
  2
Mr&Mrs with Date
 70
     1
 62
     7
  6
Continuous
370
     0
390
F
347
21
348
0
  0
LAYER
  5
7D
330
2
100
AcDbSymbolTableRecord
100
AcDbLayerTableRecord
  2
TML FRIENDSGIVING
 70
     1
 62
     7
  6
Continuous
370
     0
390
F
347
21
348
0
  0
LAYER
  5
7E
330
2
100
AcDbSymbolTableRecord
100
AcDbLayerTableRecord
  2
Merry Christmas
 70
     5
 62
     7
  6
Continuous
370
     0
390
F
347
21
348
0
  0
LAYER
  5
7F
330
2
100
AcDbSymbolTableRecord
100
AcDbLayerTableRecord
  2
Let It Snow
 70
     1
 62
     7
  6
Continuous
370
     0
390
F
347
21
348
0
  0
LAYER
  5
80
330
2
100
AcDbSymbolTableRecord
100
AcDbLayerTableRecord
  2
Happy Holidays
 70
     1
 62
     7
  6
Continuous
370
     0
390
F
347
21
348
0
  0
LAYER
  5
81
330
2
100
AcDbSymbolTableRecord
100
AcDbLayerTableRecord
  2
Fuck Thank You
 70
     1
 62
     7
  6
Continuous
370
     0
390
F
347
21
348
0
  0
LAYER
  5
82
330
2
100
AcDbSymbolTableRecord
100
AcDbLayerTableRecord
  2
Cole Huber
 70
     1
 62
     7
  6
Continuous
370
     0
390
F
347
21
348
0
  0
LAYER
  5
83
330
2
100
AcDbSymbolTableRecord
100
AcDbLayerTableRecord
  2
Inner Circle
 70
     1
 62
     7
  6
Continuous
370
     0
390
F
347
21
348
0
  0
LAYER
  5
84
330
2
100
AcDbSymbolTableRecord
100
AcDbLayerTableRecord
  2
Christmas In Vegas
 70
     1
 62
     7
  6
Continuous
370
     0
390
F
347
21
348
0
  0
LAYER
  5
85
330
2
100
AcDbSymbolTableRecord
100
AcDbLayerTableRecord
  2
Happy New Year 2024 Chinese Dragon
 70
     1
 62
     7
  6
Continuous
370
     0
390
F
347
21
348
0
  0
LAYER
  5
86
330
2
100
AcDbSymbolTableRecord
100
AcDbLayerTableRecord
  2
My First Christmas (Holly)
 70
     1
 62
     7
  6
Continuous
370
     0
390
F
347
21
348
0
  0
LAYER
  5
87
330
2
100
AcDbSymbolTableRecord
100
AcDbLayerTableRecord
  2
Another TML Friendsmas
 70
     1
 62
     7
  6
Continuous
370
     0
390
F
347
21
348
0
  0
LAYER
  5
88
330
2
100
AcDbSymbolTableRecord
100
AcDbLayerTableRecord
  2
Milo's Baptism
 70
     0
 62
     7
  6
Continuous
370
     0
390
F
347
21
348
0
  0
ENDTAB
  0
TABLE
  2
STYLE
  5
3
330
0
100
AcDbSymbolTable
 70
     2
  0
STYLE
  5
55
330
3
100
AcDbSymbolTableRecord
100
AcDbTextStyleTableRecord
  2
Standard
 70
     0
 40
0.0
 41
1.0
 50
0.0
 71
     0
 42
0.2
  3
txt
  4

  0
STYLE
  5
5A
330
3
100
AcDbSymbolTableRecord
100
AcDbTextStyleTableRecord
  2
Annotative
 70
     0
 40
0.0
 41
1.0
 50
0.0
 71
     0
 42
0.2
  3
txt
  4

1001
AcadAnnotative
1000
AnnotativeData
1002
{
1070
     1
1070
     1
1002
}
  0
ENDTAB
  0
TABLE
  2
VIEW
  5
6
330
0
100
AcDbSymbolTable
 70
     0
  0
ENDTAB
  0
TABLE
  2
UCS
  5
7
330
0
100
AcDbSymbolTable
 70
     0
  0
ENDTAB
  0
TABLE
  2
APPID
  5
9
330
0
100
AcDbSymbolTable
 70
     2
  0
APPID
  5
56
330
9
100
AcDbSymbolTableRecord
100
AcDbRegAppTableRecord
  2
ACAD
 70
     0
  0
APPID
  5
5E
330
9
100
AcDbSymbolTableRecord
100
AcDbRegAppTableRecord
  2
AcadAnnotative
 70
     0
  0
ENDTAB
  0
TABLE
  2
DIMSTYLE
  5
A
330
0
100
AcDbSymbolTable
 70
     2
100
AcDbDimStyleTable
 71
     0
  0
DIMSTYLE
105
58
330
A
100
AcDbSymbolTableRecord
100
AcDbDimStyleTableRecord
  2
Standard
 70
     0
340
55
  0
DIMSTYLE
105
59
330
A
100
AcDbSymbolTableRecord
100
AcDbDimStyleTableRecord
  2
Annotative
 70
     0
340
55
1001
AcadAnnotative
1000
AnnotativeData
1002
{
1070
     1
1070
     1
1002
}
  0
ENDTAB
  0
TABLE
  2
BLOCK_RECORD
  5
1
330
0
100
AcDbSymbolTable
 70
     2
  0
BLOCK_RECORD
  5
70
330
1
100
AcDbSymbolTableRecord
100
AcDbBlockTableRecord
  2
*Model_Space
340
73
 70
     0
280
     1
281
     0
  0
BLOCK_RECORD
  5
6C
330
1
100
AcDbSymbolTableRecord
100
AcDbBlockTableRecord
  2
*Paper_Space
340
6F
 70
     0
280
     1
281
     0
  0
BLOCK_RECORD
  5
74
330
1
100
AcDbSymbolTableRecord
100
AcDbBlockTableRecord
  2
*Paper_Space0
340
77
 70
     0
280
     1
281
     0
  0
BLOCK_RECORD
  5
8B
330
1
100
AcDbSymbolTableRecord
100
AcDbBlockTableRecord
  2
Block_0
340
0
102
{BLKREFS
331
8C
102
}
 70
     0
280
     1
281
     0
  0
ENDTAB
  0
ENDSEC
  0
SECTION
  2
BLOCKS
  0
BLOCK
  5
71
330
70
100
AcDbEntity
  8
0
100
AcDbBlockBegin
  2
*Model_Space
 70
     0
 10
0.0
 20
0.0
 30
0.0
  3
*Model_Space
  1

  0
ENDBLK
  5
72
330
70
100
AcDbEntity
  8
0
100
AcDbBlockEnd
  0
BLOCK
  5
6D
330
6C
100
AcDbEntity
 67
     1
  8
0
100
AcDbBlockBegin
  2
*Paper_Space
 70
     0
 10
0.0
 20
0.0
 30
0.0
  3
*Paper_Space
  1

  0
ENDBLK
  5
6E
330
6C
100
AcDbEntity
 67
     1
  8
0
100
AcDbBlockEnd
  0
BLOCK
  5
75
330
74
100
AcDbEntity
 67
     1
  8
0
100
AcDbBlockBegin
  2
*Paper_Space0
 70
     0
 10
0.0
 20
0.0
 30
0.0
  3
*Paper_Space0
  1

  0
ENDBLK
  5
76
330
74
100
AcDbEntity
 67
     1
  8
0
100
AcDbBlockEnd
  0
BLOCK
  5
8D
330
8B
100
AcDbEntity
  8
0
100
AcDbBlockBegin
  2
Block_0
 70
     0
 10
0.0
 20
0.0
 30
0.0
  3
Block_0
  1

  0
SPLINE
  5
8F
330
8B
100
AcDbEntity
  8
Milo's Baptism
100
AcDbSpline
210
0.0
220
0.0
230
1.0
 70
     9
 71
     3
 72
    35
 73
    31
 74
     0
 42
0.0000000001
 43
0.0000000001
 40
0.0
 40
0.0
 40
0.0
 40
0.0
 40
1.0
 40
1.0
 40
1.0
 40
2.0
 40
2.0
 40
2.0
 40
3.0
 40
3.0
 40
3.0
 40
4.0
 40
4.0
 40
4.0
 40
5.0
 40
5.0
 40
5.0
 40
6.0
 40
6.0
 40
6.0
 40
7.0
 40
7.0
 40
7.0
 40
8.0
 40
8.0
 40
8.0
 40
9.0
 40
9.0
 40
9.0
 40
10.0
 40
10.0
 40
10.0
 40
10.0
 10
1.038084783170815
 20
0.0432399091427366
 30
0.0
 10
1.038084783170815
 20
0.0432399091427366
 30
0.0
 10
1.02534199888262
 20
0.0276081274587088
 30
0.0
 10
1.02534199888262
 20
0.0276081274587088
 30
0.0
 10
1.021517129090953
 20
0.0227592233788477
 30
0.0
 10
1.014470959386092
 20
0.0157130536739866
 30
0.0
 10
1.009547456781926
 20
0.0113117407399588
 30
0.0
 10
1.004461193761092
 20
0.0068561743337088
 30
0.0
 10
1.001192422059703
 20
0.0045504017642644
 30
0.0
 10
0.9992121703235927
 20
0.0033568253753755
 30
0.0
 10
0.9991986069555371
 20
0.0036823462087088
 30
0.0
 10
0.9991918252715095
 20
0.0040485571462088
 30
0.0
 10
0.9991918252715095
 20
0.0044418948198199
 30
0.0
 10
0.9991918252715095
 20
0.0133937177364866
 30
0.0
 10
1.005173270584009
 20
0.0246241864864866
 30
0.0
 10
1.016932710688176
 20
0.0374483509830144
 30
0.0
 10
1.017515935514565
 20
0.0382282446462088
 30
0.0
 10
1.018004216764565
 20
0.0390013566253755
 30
0.0
 10
1.01844502622637
 20
0.0397812502885699
 30
0.0
 10
1.01875020200762
 20
0.0399575740732922
 30
0.0
 10
1.019075722840953
 20
0.0401542429100977
 30
0.0
 10
1.019435152094426
 20
0.0403712567989866
 30
0.0
 10
1.019435152094426
 20
0.0403712567989866
 30
0.0
 10
1.020920340896509
 20
0.0411850588823199
 30
0.0
 10
1.020920340896509
 20
0.0411850588823199
 30
0.0
 10
1.02723408872637
 20
0.0457491322330144
 30
0.0
 10
1.030367226747203
 20
0.0467053496809311
 30
0.0
 10
1.031886323969426
 20
0.0467053496809311
 30
0.0
 10
1.033791977181231
 20
0.0467053496809311
 30
0.0
 10
1.035609468500676
 20
0.0464069555837088
 30
0.0
 10
1.038084783170815
 20
0.0432399091427366
 30
0.0
  0
SPLINE
  5
90
330
8B
100
AcDbEntity
  8
Milo's Baptism
100
AcDbSpline
210
0.0
220
0.0
230
1.0
 70
     9
 71
     3
 72
    17
 73
    13
 74
     0
 42
0.0000000001
 43
0.0000000001
 40
0.0
 40
0.0
 40
0.0
 40
0.0
 40
1.0
 40
1.0
 40
1.0
 40
2.0
 40
2.0
 40
2.0
 40
3.0
 40
3.0
 40
3.0
 40
4.0
 40
4.0
 40
4.0
 40
4.0
 10
0.871886052702065
 20
-0.072801486256569
 30
0.0
 10
0.8699600544381761
 20
-0.0750665687218467
 30
0.0
 10
0.8683867037437316
 20
-0.0767145179405967
 30
0.0
 10
0.8671727823027595
 20
-0.0779013126454579
 30
0.0
 10
0.8672338174590095
 20
-0.0754531247114301
 30
0.0
 10
0.8677763521812316
 20
-0.0738933373850412
 30
0.0
 10
0.8686104993166484
 20
-0.0722318247982356
 30
0.0
 10
0.8749106837784539
 20
-0.0597738712392079
 30
0.0
 10
0.8803767211048427
 20
-0.052354708912819
 30
0.0
 10
0.887022771452065
 20
-0.0465156789649023
 30
0.0
 10
0.8835166408097039
 20
-0.0563626841732356
 30
0.0
 10
0.8786067015735927
 20
-0.064866915944069
 30
0.0
 10
0.871886052702065
 20
-0.072801486256569
 30
0.0
  0
SPLINE
  5
91
330
8B
100
AcDbEntity
  8
Milo's Baptism
100
AcDbSpline
210
0.0
220
0.0
230
1.0
 70
     9
 71
     3
 72
   398
 73
   394
 74
     0
 42
0.0000000001
 43
0.0000000001
 40
0.0
 40
0.0
 40
0.0
 40
0.0
 40
1.0
 40
1.0
 40
1.0
 40
2.0
 40
2.0
 40
2.0
 40
3.0
 40
3.0
 40
3.0
 40
4.0
 40
4.0
 40
4.0
 40
5.0
 40
5.0
 40
5.0
 40
6.0
 40
6.0
 40
6.0
 40
7.0
 40
7.0
 40
7.0
 40
8.0
 40
8.0
 40
8.0
 40
9.0
 40
9.0
 40
9.0
 40
10.0
 40
10.0
 40
10.0
 40
11.0
 40
11.0
 40
11.0
 40
12.0
 40
12.0
 40
12.0
 40
13.0
 40
13.0
 40
13.0
 40
14.0
 40
14.0
 40
14.0
 40
15.0
 40
15.0
 40
15.0
 40
16.0
 40
16.0
 40
16.0
 40
17.0
 40
17.0
 40
17.0
 40
18.0
 40
18.0
 40
18.0
 40
19.0
 40
19.0
 40
19.0
 40
20.0
 40
20.0
 40
20.0
 40
21.0
 40
21.0
 40
21.0
 40
22.0
 40
22.0
 40
22.0
 40
23.0
 40
23.0
 40
23.0
 40
24.0
 40
24.0
 40
24.0
 40
25.0
 40
25.0
 40
25.0
 40
26.0
 40
26.0
 40
26.0
 40
27.0
 40
27.0
 40
27.0
 40
28.0
 40
28.0
 40
28.0
 40
29.0
 40
29.0
 40
29.0
 40
30.0
 40
30.0
 40
30.0
 40
31.0
 40
31.0
 40
31.0
 40
32.0
 40
32.0
 40
32.0
 40
33.0
 40
33.0
 40
33.0
 40
34.0
 40
34.0
 40
34.0
 40
35.0
 40
35.0
 40
35.0
 40
36.0
 40
36.0
 40
36.0
 40
37.0
 40
37.0
 40
37.0
 40
38.0
 40
38.0
 40
38.0
 40
39.0
 40
39.0
 40
39.0
 40
40.0
 40
40.0
 40
40.0
 40
41.0
 40
41.0
 40
41.0
 40
42.0
 40
42.0
 40
42.0
 40
43.0
 40
43.0
 40
43.0
 40
44.0
 40
44.0
 40
44.0
 40
45.0
 40
45.0
 40
45.0
 40
46.0
 40
46.0
 40
46.0
 40
47.0
 40
47.0
 40
47.0
 40
48.0
 40
48.0
 40
48.0
 40
49.0
 40
49.0
 40
49.0
 40
50.0
 40
50.0
 40
50.0
 40
51.0
 40
51.0
 40
51.0
 40
52.0
 40
52.0
 40
52.0
 40
53.0
 40
53.0
 40
53.0
 40
54.0
 40
54.0
 40
54.0
 40
55.0
 40
55.0
 40
55.0
 40
56.0
 40
56.0
 40
56.0
 40
57.0
 40
57.0
 40
57.0
 40
58.0
 40
58.0
 40
58.0
 40
59.0
 40
59.0
 40
59.0
 40
60.0
 40
60.0
 40
60.0
 40
61.0
 40
61.0
 40
61.0
 40
62.0
 40
62.0
 40
62.0
 40
63.0
 40
63.0
 40
63.0
 40
64.0
 40
64.0
 40
64.0
 40
65.0
 40
65.0
 40
65.0
 40
66.0
 40
66.0
 40
66.0
 40
67.0
 40
67.0
 40
67.0
 40
68.0
 40
68.0
 40
68.0
 40
69.0
 40
69.0
 40
69.0
 40
70.0
 40
70.0
 40
70.0
 40
71.0
 40
71.0
 40
71.0
 40
72.0
 40
72.0
 40
72.0
 40
73.0
 40
73.0
 40
73.0
 40
74.0
 40
74.0
 40
74.0
 40
75.0
 40
75.0
 40
75.0
 40
76.0
 40
76.0
 40
76.0
 40
77.0
 40
77.0
 40
77.0
 40
78.0
 40
78.0
 40
78.0
 40
79.0
 40
79.0
 40
79.0
 40
80.0
 40
80.0
 40
80.0
 40
81.0
 40
81.0
 40
81.0
 40
82.0
 40
82.0
 40
82.0
 40
83.0
 40
83.0
 40
83.0
 40
84.0
 40
84.0
 40
84.0
 40
85.0
 40
85.0
 40
85.0
 40
86.0
 40
86.0
 40
86.0
 40
87.0
 40
87.0
 40
87.0
 40
88.0
 40
88.0
 40
88.0
 40
89.0
 40
89.0
 40
89.0
 40
90.0
 40
90.0
 40
90.0
 40
91.0
 40
91.0
 40
91.0
 40
92.0
 40
92.0
 40
92.0
 40
93.0
 40
93.0
 40
93.0
 40
94.0
 40
94.0
 40
94.0
 40
95.0
 40
95.0
 40
95.0
 40
96.0
 40
96.0
 40
96.0
 40
97.0
 40
97.0
 40
97.0
 40
98.0
 40
98.0
 40
98.0
 40
99.0
 40
99.0
 40
99.0
 40
100.0
 40
100.0
 40
100.0
 40
101.0
 40
101.0
 40
101.0
 40
102.0
 40
102.0
 40
102.0
 40
103.0
 40
103.0
 40
103.0
 40
104.0
 40
104.0
 40
104.0
 40
105.0
 40
105.0
 40
105.0
 40
106.0
 40
106.0
 40
106.0
 40
107.0
 40
107.0
 40
107.0
 40
108.0
 40
108.0
 40
108.0
 40
109.0
 40
109.0
 40
109.0
 40
110.0
 40
110.0
 40
110.0
 40
111.0
 40
111.0
 40
111.0
 40
112.0
 40
112.0
 40
112.0
 40
113.0
 40
113.0
 40
113.0
 40
114.0
 40
114.0
 40
114.0
 40
115.0
 40
115.0
 40
115.0
 40
116.0
 40
116.0
 40
116.0
 40
117.0
 40
117.0
 40
117.0
 40
118.0
 40
118.0
 40
118.0
 40
119.0
 40
119.0
 40
119.0
 40
120.0
 40
120.0
 40
120.0
 40
121.0
 40
121.0
 40
121.0
 40
122.0
 40
122.0
 40
122.0
 40
123.0
 40
123.0
 40
123.0
 40
124.0
 40
124.0
 40
124.0
 40
125.0
 40
125.0
 40
125.0
 40
126.0
 40
126.0
 40
126.0
 40
127.0
 40
127.0
 40
127.0
 40
128.0
 40
128.0
 40
128.0
 40
129.0
 40
129.0
 40
129.0
 40
130.0
 40
130.0
 40
130.0
 40
131.0
 40
131.0
 40
131.0
 40
131.0
 10
1.210393810948592
 20
-0.0014649519683745
 30
0.0
 10
1.207138602615259
 20
-0.0014649519683745
 30
0.0
 10
1.204141098274981
 20
-0.0033231333919856
 30
0.0
 10
1.204208915115259
 20
-0.0033231333919856
 30
0.0
 10
1.202947521886092
 20
-0.0039741750586523
 30
0.0
 10
1.201889579177759
 20
-0.0049236108225412
 30
0.0
 10
1.20069600278887
 20
-0.0059612084787912
 30
0.0
 10
1.199855073969426
 20
-0.006578341725319
 30
0.0
 10
1.198105399490259
 20
-0.0078736433746245
 30
0.0
 10
1.198091836122203
 20
-0.0080296221072634
 30
0.0
 10
1.198024019281926
 20
-0.0080296221072634
 30
0.0
 10
1.197956202441648
 20
-0.0080296221072634
 30
0.0
 10
1.19788838560137
 20
-0.0080296221072634
 30
0.0
 10
1.19788838560137
 20
-0.007921115162819
 30
0.0
 10
1.197874822233315
 20
-0.0078058265343467
 30
0.0
 10
1.197874822233315
 20
-0.0076905379058745
 30
0.0
 10
1.198078272754148
 20
-0.0068021372982356
 30
0.0
 10
1.19947529966387
 20
-0.003648654225319
 30
0.0
 10
1.202011649490259
 20
0.0005695532399588
 30
0.0
 10
1.20374776060137
 20
0.0037569447330144
 30
0.0
 10
1.205185477615259
 20
0.0069307728580144
 30
0.0
 10
1.206501124316648
 20
0.0099350588823199
 30
0.0
 10
1.206501124316648
 20
0.0099350588823199
 30
0.0
 10
1.212306245844426
 20
0.0253972984656533
 30
0.0
 10
1.212306245844426
 20
0.0253972984656533
 30
0.0
 10
1.213174301399981
 20
0.0279133032399588
 30
0.0
 10
1.213242118240259
 20
0.0319687502885699
 30
0.0
 10
1.213174301399981
 20
0.0323213978580144
 30
0.0
 10
1.213499822233315
 20
0.0340642906531533
 30
0.0
 10
1.215358003656926
 20
0.0397405601844033
 30
0.0
 10
1.215371567024981
 20
0.0397744686045422
 30
0.0
 10
1.215371567024981
 20
0.0397744686045422
 30
0.0
 10
1.215900538379148
 20
0.0414359811913477
 30
0.0
 10
1.215900538379148
 20
0.0414359811913477
 30
0.0
 10
1.215900538379148
 20
0.0414359811913477
 30
0.0
 10
1.21558858091387
 20
0.0431517472503755
 30
0.0
 10
1.21558858091387
 20
0.0431517472503755
 30
0.0
 10
1.212102795323592
 20
0.0620862090559311
 30
0.0
 10
1.20509053403887
 20
0.0687932945594033
 30
0.0
 10
1.188787365636092
 20
0.0687932945594033
 30
0.0
 10
1.181463146886092
 20
0.0687932945594033
 30
0.0
 10
1.173243745844426
 20
0.0653753258094033
 30
0.0
 10
1.164305486295815
 20
0.0585868600975977
 30
0.0
 10
1.161430052268037
 20
0.0563556860524588
 30
0.0
 10
1.157564492372203
 20
0.0522188587955144
 30
0.0
 10
1.153251341330537
 20
0.0476005319725977
 30
0.0
 10
1.153251341330537
 20
0.0476005319725977
 30
0.0
 10
1.143160195497203
 20
0.0362005211219033
 30
0.0
 10
1.143160195497203
 20
0.0362005211219033
 30
0.0
 10
1.143160195497203
 20
0.0362005211219033
 30
0.0
 10
1.144245264941648
 20
0.0451319989864866
 30
0.0
 10
1.144245264941648
 20
0.0451319989864866
 30
0.0
 10
1.144570785774981
 20
0.0470986873545422
 30
0.0
 10
1.144611475879148
 20
0.0503742407399588
 30
0.0
 10
1.144611475879148
 20
0.0520086265906533
 30
0.0
 10
1.144611475879148
 20
0.0621065541080144
 30
0.0
 10
1.139470959386092
 20
0.0654499243337088
 30
0.0
 10
1.135849540115259
 20
0.0669690215559311
 30
0.0
 10
1.133421697233315
 20
0.0681829429969033
 30
0.0
 10
1.130654770149981
 20
0.0687797311913477
 30
0.0
 10
1.127385998448592
 20
0.0687932945594033
 30
0.0
 10
1.127385998448592
 20
0.0687932945594033
 30
0.0
 10
1.127385998448592
 20
0.0804103192989866
 30
0.0
 10
1.127385998448592
 20
0.0804103192989866
 30
0.0
 10
1.127385998448592
 20
0.0804103192989866
 30
0.0
 10
1.123751015809703
 20
0.0686847876149588
 30
0.0
 10
1.123751015809703
 20
0.0686847876149588
 30
0.0
 10
1.122950777094426
 20
0.0686101890906533
 30
0.0
 10
1.12220479185137
 20
0.0684745554100977
 30
0.0
 10
1.121485933344426
 20
0.0682371964691255
 30
0.0
 10
1.114473672059703
 20
0.0661755645246811
 30
0.0
 10
1.10975361997637
 20
0.0620929907399588
 30
0.0
 10
1.104735173795815
 20
0.0537989911739866
 30
0.0
 10
1.100422022754148
 20
0.0469494903059311
 30
0.0
 10
1.094304943761092
 20
0.0398015953406533
 30
0.0
 10
1.08802510435137
 20
0.0325655384830144
 30
0.0
 10
1.08802510435137
 20
0.0325655384830144
 30
0.0
 10
1.083413559212481
 20
0.0262178822330144
 30
0.0
 10
1.083413559212481
 20
0.0262178822330144
 30
0.0
 10
1.083413559212481
 20
0.0262178822330144
 30
0.0
 10
1.081575722840953
 20
0.0242240671288477
 30
0.0
 10
1.081575722840953
 20
0.0242240671288477
 30
0.0
 10
1.076007960254148
 20
0.0169134117469033
 30
0.0
 10
1.065103012337481
 20
0.0062593861392644
 30
0.0
 10
1.060708481087481
 20
0.0040824655663477
 30
0.0
 10
1.060701699403453
 20
0.0044486765038477
 30
0.0
 10
1.060701699403453
 20
0.0048420141774588
 30
0.0
 10
1.060701699403453
 20
0.005262478587181
 30
0.0
 10
1.060701699403453
 20
0.0103216148719033
 30
0.0
 10
1.067083264073592
 20
0.0254718969899588
 30
0.0
 10
1.069233057910398
 20
0.0305920684309311
 30
0.0
 10
1.073159652962481
 20
0.0405001087955144
 30
0.0
 10
1.074495644715953
 20
0.0438773874413477
 30
0.0
 10
1.074950017545815
 20
0.0455999351844033
 30
0.0
 10
1.076231755827065
 20
0.0485974395246811
 30
0.0
 10
1.076828544021509
 20
0.0520628800628755
 30
0.0
 10
1.076828544021509
 20
0.0563828127885699
 30
0.0
 10
1.076828544021509
 20
0.0613537871809311
 30
0.0
 10
1.073647934212481
 20
0.0671521270246811
 30
0.0
 10
1.064689329611787
 20
0.0671521270246811
 30
0.0
 10
1.064689329611787
 20
0.0671521270246811
 30
0.0
 10
1.062505627354842
 20
0.0671521270246811
 30
0.0
 10
1.062505627354842
 20
0.0671521270246811
 30
0.0
 10
1.057927990636092
 20
0.0671521270246811
 30
0.0
 10
1.054048867372203
 20
0.0647446291948199
 30
0.0
 10
1.052312756261092
 20
0.0609943579274588
 30
0.0
 10
1.045626015809703
 20
0.0679998375281533
 30
0.0
 10
1.03840352232012
 20
0.0709837785003755
 30
0.0
 10
1.028875256261092
 20
0.0709837785003755
 30
0.0
 10
1.021164481521509
 20
0.0709837785003755
 30
0.0
 10
1.013324854785398
 20
0.0687593861392644
 30
0.0
 10
1.005437756261092
 20
0.0640189890038477
 30
0.0
 10
1.005437756261092
 20
0.0640189890038477
 30
0.0
 10
0.9993138955840095
 20
0.0591497398719033
 30
0.0
 10
0.9993138955840095
 20
0.0591497398719033
 30
0.0
 10
0.9973200804798427
 20
0.0578137481184311
 30
0.0
 10
0.9950143079103984
 20
0.0561251087955144
 30
0.0
 10
0.9936308443687316
 20
0.0547280818857922
 30
0.0
 10
0.9906469033965095
 20
0.0520560983788477
 30
0.0
 10
0.9877579060006761
 20
0.0490721574066255
 30
0.0
 10
0.9850181056534539
 20
0.0458237307573199
 30
0.0
 10
0.9827191147680371
 20
0.0457152238128755
 30
0.0
 10
0.9795317232749816
 20
0.0447183162607922
 30
0.0
 10
0.977171697233315
 20
0.0423515085350977
 30
0.0
 10
0.977171697233315
 20
0.0423515085350977
 30
0.0
 10
0.9632963717124816
 20
0.0294663088823199
 30
0.0
 10
0.9632963717124816
 20
0.0294663088823199
 30
0.0
 10
0.9599936915909539
 20
0.0263196074934311
 30
0.0
 10
0.9567791733617871
 20
0.0232407229448199
 30
0.0
 10
0.9531306273548427
 20
0.0202228735524588
 30
0.0
 10
0.951353826139565
 20
0.0185952693857922
 30
0.0
 10
0.9496041516603984
 20
0.0170490454274588
 30
0.0
 10
0.9477730969728984
 20
0.0155502932573199
 30
0.0
 10
0.9522422267472039
 20
0.0277098527191255
 30
0.0
 10
0.9562705470597039
 20
0.0397066517642644
 30
0.0
 10
0.9600276000110927
 20
0.0511405710350977
 30
0.0
 10
0.9600276000110927
 20
0.0511405710350977
 30
0.0
 10
0.9644967297853984
 20
0.0645004885698199
 30
0.0
 10
0.9644967297853984
 20
0.0645004885698199
 30
0.0
 10
0.967650212858315
 20
0.0740151912607922
 30
0.0
 10
0.9706273721465095
 20
0.08299414091357
 30
0.0
 10
0.9736180948027595
 20
0.0908269859656533
 30
0.0
 10
0.9769343382923427
 20
0.0995821400455144
 30
0.0
 10
0.9795317232749816
 20
0.1130302194725977
 30
0.0
 10
0.9795317232749816
 20
0.1214462893510699
 30
0.0
 10
0.9795317232749816
 20
0.1260239260698199
 30
0.0
 10
0.9785415974069261
 20
0.1303709855316255
 30
0.0
 10
0.9782567666777595
 20
0.1315238718163477
 30
0.0
 10
0.9782567666777595
 20
0.1315238718163477
 30
0.0
 10
0.9772056056534539
 20
0.1359319664344032
 30
0.0
 10
0.9772056056534539
 20
0.1359319664344032
 30
0.0
 10
0.9762358248374816
 20
0.1407944338823199
 30
0.0
 10
0.9734282076499816
 20
0.1448634442989866
 30
0.0
 10
0.9711766885527595
 20
0.1481389976844032
 30
0.0
 10
0.9711766885527595
 20
0.1481389976844032
 30
0.0
 10
0.9705663369902595
 20
0.1490341799760699
 30
0.0
 10
0.9705663369902595
 20
0.1490341799760699
 30
0.0
 10
0.9668092840388705
 20
0.1583793405663477
 30
0.0
 10
0.9599462198027595
 20
0.1639335397850977
 30
0.0
 10
0.9520794663305371
 20
0.1639335397850977
 30
0.0
 10
0.9419476303930371
 20
0.1639335397850977
 30
0.0
 10
0.9320938435006761
 20
0.1617769642642644
 30
0.0
 10
0.9214126911569261
 20
0.1570704755489866
 30
0.0
 10
0.9181032293513705
 20
0.1552597659135699
 30
0.0
 10
0.9148751477541484
 20
0.1532049156531532
 30
0.0
 10
0.9074220770076205
 20
0.1476168080142644
 30
0.0
 10
0.9035361720597039
 20
0.1456704646982921
 30
0.0
 10
0.8999283161569261
 20
0.1433579104448199
 30
0.0
 10
0.894957341764565
 20
0.1383869360524588
 30
0.0
 10
0.8844864216256761
 20
0.1279160159135699
 30
0.0
 10
0.8769316256187316
 20
0.1158717450802366
 30
0.0
 10
0.8725031859485927
 20
0.1025932077538477
 30
0.0
 10
0.8725031859485927
 20
0.1025932077538477
 30
0.0
 10
0.8719742145944261
 20
0.0999212242469033
 30
0.0
 10
0.8719742145944261
 20
0.0999212242469033
 30
0.0
 10
0.871702947233315
 20
0.0989650067989866
 30
0.0
 10
0.8713231729277595
 20
0.0976493600975977
 30
0.0
 10
0.8713299546117871
 20
0.0961302628753755
 30
0.0
 10
0.871275701139565
 20
0.0954860028927366
 30
0.0
 10
0.8710179971465095
 20
0.0940075957746811
 30
0.0
 10
0.870054998014565
 20
0.0890230580142644
 30
0.0
 10
0.8693022310874816
 20
0.0847234703406533
 30
0.0
 10
0.868040837858315
 20
0.0768974069725977
 30
0.0
 10
0.868040837858315
 20
0.0727877064517644
 30
0.0
 10
0.868040837858315
 20
0.0649955515038477
 30
0.0
 10
0.868895330045815
 20
0.0580985788475977
 30
0.0
 10
0.870726384733315
 20
0.0510863175628755
 30
0.0
 10
0.870726384733315
 20
0.0510863175628755
 30
0.0
 10
0.8726998547853984
 20
0.0434908314517644
 30
0.0
 10
0.8726998547853984
 20
0.0434908314517644
 30
0.0
 10
0.8736357271812316
 20
0.0403102216427366
 30
0.0
 10
0.8744291842124816
 20
0.0370075415212088
 30
0.0
 10
0.8752904580840095
 20
0.0334742841427366
 30
0.0
 10
0.8752904580840095
 20
0.0334742841427366
 30
0.0
 10
0.8763009290041484
 20
0.0293578019378755
 30
0.0
 10
0.8763009290041484
 20
0.0293578019378755
 30
0.0
 10
0.8767417384659539
 20
0.0249157988996811
 30
0.0
 10
0.8799020032228984
 20
0.0207857533267644
 30
0.0
 10
0.8879925522680371
 20
0.0208467884830144
 30
0.0
 10
0.8942723916777595
 20
0.0219928930837088
 30
0.0
 10
0.8983346204103984
 20
0.0265027129621811
 30
0.0
 10
0.8983346204103984
 20
0.0323281795420422
 30
0.0
 10
0.8983346204103984
 20
0.0360445423892644
 30
0.0
 10
0.8978056490562316
 20
0.0396117081878755
 30
0.0
 10
0.8972631143340095
 20
0.0430907120941255
 30
0.0
 10
0.8968562132923427
 20
0.0457355688649588
 30
0.0
 10
0.896422185514565
 20
0.0483261721635699
 30
0.0
 10
0.896422185514565
 20
0.0509167754621811
 30
0.0
 10
0.896422185514565
 20
0.0590005428232922
 30
0.0
 10
0.8974258747506761
 20
0.0681625979448199
 30
0.0
 10
0.8998808443687316
 20
0.0825804581878755
 30
0.0
 10
0.902220525358315
 20
0.0966117624413477
 30
0.0
 10
0.9100669337784539
 20
0.1176621096635699
 30
0.0
 10
0.9245526108617871
 20
0.1308524850975977
 30
0.0
 10
0.9278688543513705
 20
0.1339313696462088
 30
0.0
 10
0.9315919988826205
 20
0.1361354169552366
 30
0.0
 10
0.9395265691951205
 20
0.1403739694725977
 30
0.0
 10
0.9415339476673427
 20
0.1415811092295421
 30
0.0
 10
0.9442466212784539
 20
0.141798123118431
 30
0.0
 10
0.9475899915041484
 20
0.1418388132225977
 30
0.0
 10
0.9475899915041484
 20
0.1418388132225977
 30
0.0
 10
0.947996892545815
 20
0.1415336374413477
 30
0.0
 10
0.947996892545815
 20
0.1415336374413477
 30
0.0
 10
0.9491701238826205
 20
0.1385157880489866
 30
0.0
 10
0.951109685514565
 20
0.1310423722503755
 30
0.0
 10
0.9511571573027595
 20
0.1292926977712088
 30
0.0
 10
0.9511503756187316
 20
0.1292180992469032
 30
0.0
 10
0.950987615202065
 20
0.1273599178232921
 30
0.0
 10
0.9487700045249816
 20
0.1184013132225977
 30
0.0
 10
0.9477391885527595
 20
0.1116942277191255
 30
0.0
 10
0.9452638738826205
 20
0.1054143883094033
 30
0.0
 10
0.9428360310006761
 20
0.0998059356184311
 30
0.0
 10
0.9373564303062316
 20
0.0850015193857922
 30
0.0
 10
0.9288521985353984
 20
0.0617064347503755
 30
0.0
 10
0.9241863999242871
 20
0.0482380102712088
 30
0.0
 10
0.9165976954972039
 20
0.0260483401323199
 30
0.0
 10
0.9089004841256761
 20
0.0059270836219033
 30
0.0
 10
0.9012982163305371
 20
-0.0116103512739301
 30
0.0
 10
0.882689275358315
 20
-0.0214844832183745
 30
0.0
 10
0.8638497571291484
 20
-0.0320164385135134
 30
0.0
 10
0.8546877020076205
 20
-0.0518121741905967
 30
0.0
 10
0.8546877020076205
 20
-0.0518121741905967
 30
0.0
 10
0.8486384398548427
 20
-0.0628052839996245
 30
0.0
 10
0.8486384398548427
 20
-0.0628052839996245
 30
0.0
 10
0.8459868013999816
 20
-0.0677287866037912
 30
0.0
 10
0.8448067883791484
 20
-0.0725370005794856
 30
0.0
 10
0.8448067883791484
 20
-0.0783963755794856
 30
0.0
 10
0.8448067883791484
 20
-0.0884739580447634
 30
0.0
 10
0.8519818100805371
 20
-0.1031088321767078
 30
0.0
 10
0.8632326238826205
 20
-0.1031088321767078
 30
0.0
 10
0.8727744533097039
 20
-0.1031088321767078
 30
0.0
 10
0.8855308009659539
 20
-0.095201388600319
 30
0.0
 10
0.8907866060874816
 20
-0.0896336260135134
 30
0.0
 10
0.9014338500110927
 20
-0.0779148760135134
 30
0.0
 10
0.9162653929798427
 20
-0.0581869571767079
 30
0.0
 10
0.9236167384659539
 20
-0.0425958655968467
 30
0.0
 10
0.9263022853409539
 20
-0.037034884694069
 30
0.0
 10
0.9284588608617871
 20
-0.0320028751454579
 30
0.0
 10
0.9310833725805371
 20
-0.025865451100319
 30
0.0
 10
0.9310833725805371
 20
-0.025865451100319
 30
0.0
 10
0.9339927150284539
 20
-0.0191312388607356
 30
0.0
 10
0.9339927150284539
 20
-0.0191312388607356
 30
0.0
 10
0.9469050414173427
 20
-0.0121664493642079
 30
0.0
 10
0.9572674546117871
 20
-0.0059205183746245
 30
0.0
 10
0.9672636568687316
 20
0.0020140519378755
 30
0.0
 10
0.9673111286569261
 20
-0.0013496633399023
 30
0.0
 10
0.9676569945423427
 20
-0.0062189124718467
 30
0.0
 10
0.9685250500978984
 20
-0.0099691837392078
 30
0.0
 10
0.9685250500978984
 20
-0.0099691837392078
 30
0.0
 10
0.9690811481881761
 20
-0.0115154076975412
 30
0.0
 10
0.9690811481881761
 20
-0.0115154076975412
 30
0.0
 10
0.9704849567819261
 20
-0.0143230248850412
 30
0.0
 10
0.9731637219728984
 20
-0.0172662757530967
 30
0.0
 10
0.9750422484485927
 20
-0.0186226125586523
 30
0.0
 10
0.9752321356013705
 20
-0.0188057180274023
 30
0.0
 10
0.9754491494902595
 20
-0.0190702037044856
 30
0.0
 10
0.9757136351673427
 20
-0.0194296329579579
 30
0.0
 10
0.9787314845597039
 20
-0.0263333872982356
 30
0.0
 10
0.9857098374242871
 20
-0.0274455834787912
 30
0.0
 10
0.9987103257055371
 20
-0.0234782983225412
 30
0.0
 10
1.003816933778453
 20
-0.0228950734961523
 30
0.0
 10
1.009065957215953
 20
-0.0188396264475412
 30
0.0
 10
1.016756386903453
 20
-0.0116985131662912
 30
0.0
 10
1.018133068761092
 20
-0.0106134437218467
 30
0.0
 10
1.019448715462481
 20
-0.0093927405968467
 30
0.0
 10
1.020757580479842
 20
-0.0081584741037912
 30
0.0
 10
1.021768051399981
 20
-0.0072090383399023
 30
0.0
 10
1.022771740636092
 20
-0.0062460392079578
 30
0.0
 10
1.024277274490259
 20
-0.005052462819069
 30
0.0
 10
1.026054075705537
 20
-0.0034180769683745
 30
0.0
 10
1.027810531868731
 20
-0.0017769094336523
 30
0.0
 10
1.02961445982012
 20
-0.0000204532704578
 30
0.0
 10
1.029756875184703
 20
-0.0066122501454578
 30
0.0
 10
1.030638494108315
 20
-0.0096368812218467
 30
0.0
 10
1.035907862597898
 20
-0.0170356984961523
 30
0.0
 10
1.040431245844426
 20
-0.0223050669857356
 30
0.0
 10
1.052272066156926
 20
-0.0227323130794856
 30
0.0
 10
1.052387354785398
 20
-0.0227323130794856
 30
0.0
 10
1.061379867806231
 20
-0.0227323130794856
 30
0.0
 10
1.073770004524981
 20
-0.0136312931142079
 30
0.0
 10
1.075323010167342
 20
-0.0124580617774023
 30
0.0
 10
1.08253194028887
 20
-0.0066868486697634
 30
0.0
 10
1.088554075705537
 20
-0.0011869029232356
 30
0.0
 10
1.095078055740259
 20
0.0056151261566255
 30
0.0
 10
1.095918984559703
 20
0.0065849069725977
 30
0.0
 10
1.096800603483315
 20
0.0076767581010699
 30
0.0
 10
1.097750039247203
 20
0.0088432077538477
 30
0.0
 10
1.097750039247203
 20
0.0088432077538477
 30
0.0
 10
1.10670186216387
 20
0.0191513674760699
 30
0.0
 10
1.10670186216387
 20
0.0191513674760699
 30
0.0
 10
1.107624171191648
 20
0.0201618383962088
 30
0.0
 10
1.108505790115259
 20
0.0211384008962088
 30
0.0
 10
1.109360282302759
 20
0.0221149633962088
 30
0.0
 10
1.109278902094426
 20
0.0218843861392644
 30
0.0
 10
1.109183958518037
 20
0.0216538088823199
 30
0.0
 10
1.109102578309703
 20
0.0214232316253755
 30
0.0
 10
1.108003945497203
 20
0.0184867624413477
 30
0.0
 10
1.106973129524981
 20
0.0156316734656533
 30
0.0
 10
1.106661172059703
 20
0.01347509794482
 30
0.0
 10
1.106661172059703
 20
0.01347509794482
 30
0.0
 10
1.102782048795815
 20
-0.0001764320030967
 30
0.0
 10
1.102782048795815
 20
-0.0001764320030967
 30
0.0
 10
1.102036063552759
 20
-0.003038302662819
 30
0.0
 10
1.101168007997203
 20
-0.006334201100319
 30
0.0
 10
1.099336953309703
 20
-0.0110813799197634
 30
0.0
 10
1.098835108691648
 20
-0.0119765622114301
 30
0.0
 10
1.09791279966387
 20
-0.0136516381662912
 30
0.0
 10
1.09791279966387
 20
-0.0163371850412912
 30
0.0
 10
1.09791279966387
 20
-0.0248007267079579
 30
0.0
 10
1.104057005393037
 20
-0.0309381507530967
 30
0.0
 10
1.112520547059703
 20
-0.0309381507530967
 30
0.0
 10
1.118149344802759
 20
-0.0309381507530967
 30
0.0
 10
1.122516749316648
 20
-0.0281440969336523
 30
0.0
 10
1.125202296191648
 20
-0.0230917423329579
 30
0.0
 10
1.125202296191648
 20
-0.0230917423329579
 30
0.0
 10
1.129379813552759
 20
-0.0166423608225412
 30
0.0
 10
1.129379813552759
 20
-0.0166423608225412
 30
0.0
 10
1.13099385435137
 20
-0.0141670461524023
 30
0.0
 10
1.132390881261092
 20
-0.0120308156836523
 30
0.0
 10
1.13355733091387
 20
-0.0108575843468467
 30
0.0
 10
1.135117118240259
 20
-0.0092910153364301
 30
0.0
 10
1.13892842466387
 20
-0.0036011824371245
 30
0.0
 10
1.139118311816648
 20
-0.003282443287819
 30
0.0
 10
1.139118311816648
 20
-0.003282443287819
 30
0.0
 10
1.141098563552759
 20
-0.0007460934614301
 30
0.0
 10
1.141098563552759
 20
-0.0007460934614301
 30
0.0
 10
1.142265013205537
 20
0.0007390953406533
 30
0.0
 10
1.143431462858315
 20
0.0022446291948199
 30
0.0
 10
1.14417744810137
 20
0.003309353587181
 30
0.0
 10
1.145750798795815
 20
0.0049437394378755
 30
0.0
 10
1.147758177268037
 20
0.0072020402191255
 30
0.0
 10
1.149629922059703
 20
0.0093314890038477
 30
0.0
 10
1.149629922059703
 20
0.0093314890038477
 30
0.0
 10
1.152044201573592
 20
0.0120441626149588
 30
0.0
 10
1.152044201573592
 20
0.0120441626149588
 30
0.0
 10
1.168605073969426
 20
0.0320840389170422
 30
0.0
 10
1.17396260435137
 20
0.0358071834482922
 30
0.0
 10
1.179794852615259
 20
0.0398626304969033
 30
0.0
 10
1.179794852615259
 20
0.0398626304969033
 30
0.0
 10
1.183796046191648
 20
0.0428736982052366
 30
0.0
 10
1.183796046191648
 20
0.0428736982052366
 30
0.0
 10
1.183619722406926
 20
0.0415716148719033
 30
0.0
 10
1.183307764941648
 20
0.0399440107052366
 30
0.0
 10
1.182778793587481
 20
0.0379027238128755
 30
0.0
 10
1.182616033170815
 20
0.0371296118337088
 30
0.0
 10
1.181463146886092
 20
0.0339964738128755
 30
0.0
 10
1.179659218934703
 20
0.0303547094899588
 30
0.0
 10
1.179035304004148
 20
0.0288763023719033
 30
0.0
 10
1.178289318761092
 20
0.0274589304100977
 30
0.0
 10
1.177638277094426
 20
0.0262314456010699
 30
0.0
 10
1.176729531434703
 20
0.0244885528059311
 30
0.0
 10
1.175997109559703
 20
0.0229830189517644
 30
0.0
 10
1.175603771886092
 20
0.0217962242469033
 30
0.0
 10
1.175603771886092
 20
0.0217962242469033
 30
0.0
 10
1.173650646886092
 20
0.0153739694725977
 30
0.0
 10
1.173650646886092
 20
0.0153739694725977
 30
0.0
 10
1.171100733691648
 20
0.0094196508962088
 30
0.0
 10
1.168998411643037
 20
0.0037908531531533
 30
0.0
 10
1.168998411643037
 20
-0.0048557939822634
 30
0.0
 10
1.168998411643037
 20
-0.0201620548329579
 30
0.0
 10
1.176729531434703
 20
-0.0291274411176801
 30
0.0
 10
1.190889687684703
 20
-0.0301107853017079
 30
0.0
 10
1.190889687684703
 20
-0.0301107853017079
 30
0.0
 10
1.196450668587481
 20
-0.0303888343468467
 30
0.0
 10
1.196450668587481
 20
-0.0303888343468467
 30
0.0
 10
1.200234848274981
 20
-0.0303888343468467
 30
0.0
 10
1.210366684212481
 20
-0.0251398109093467
 30
0.0
 10
1.21668721372637
 20
-0.0206842445030967
 30
0.0
 10
1.217121241504148
 20
-0.020250216725319
 30
0.0
 10
1.220891857823592
 20
-0.0163236216732356
 30
0.0
 10
1.220891857823592
 20
-0.0116917314822634
 30
0.0
 10
1.220891857823592
 20
-0.005479708912819
 30
0.0
 10
1.216768593934703
 20
-0.0014649519683745
 30
0.0
 10
1.210393810948592
 20
-0.0014649519683745
 30
0.0
  0
HATCH
  5
92
330
8B
100
AcDbEntity
  8
Milo's Baptism
 62
    18
420
        0
440
 33554687
100
AcDbHatch
 10
0.0
 20
0.0
 30
0.0
210
0.0
220
0.0
230
1.0
  2
SOLID
 70
     1
 71
     1
 91
        3
 92
        1
 93
        1
 72
     4
 94
        3
 73
     0
 74
     0
 95
       35
 96
       31
 40
0.0
 40
0.0
 40
0.0
 40
0.0
 40
1.0
 40
1.0
 40
1.0
 40
2.0
 40
2.0
 40
2.0
 40
3.0
 40
3.0
 40
3.0
 40
4.0
 40
4.0
 40
4.0
 40
5.0
 40
5.0
 40
5.0
 40
6.0
 40
6.0
 40
6.0
 40
7.0
 40
7.0
 40
7.0
 40
8.0
 40
8.0
 40
8.0
 40
9.0
 40
9.0
 40
9.0
 40
10.0
 40
10.0
 40
10.0
 40
10.0
 10
1.038084783170815
 20
0.0432399091427366
 10
1.038084783170815
 20
0.0432399091427366
 10
1.02534199888262
 20
0.0276081274587088
 10
1.02534199888262
 20
0.0276081274587088
 10
1.021517129090953
 20
0.0227592233788477
 10
1.014470959386092
 20
0.0157130536739866
 10
1.009547456781926
 20
0.0113117407399588
 10
1.004461193761092
 20
0.0068561743337088
 10
1.001192422059703
 20
0.0045504017642644
 10
0.9992121703235927
 20
0.0033568253753755
 10
0.9991986069555371
 20
0.0036823462087088
 10
0.9991918252715095
 20
0.0040485571462088
 10
0.9991918252715095
 20
0.0044418948198199
 10
0.9991918252715095
 20
0.0133937177364866
 10
1.005173270584009
 20
0.0246241864864866
 10
1.016932710688176
 20
0.0374483509830144
 10
1.017515935514565
 20
0.0382282446462088
 10
1.018004216764565
 20
0.0390013566253755
 10
1.01844502622637
 20
0.0397812502885699
 10
1.01875020200762
 20
0.0399575740732922
 10
1.019075722840953
 20
0.0401542429100977
 10
1.019435152094426
 20
0.0403712567989866
 10
1.019435152094426
 20
0.0403712567989866
 10
1.020920340896509
 20
0.0411850588823199
 10
1.020920340896509
 20
0.0411850588823199
 10
1.02723408872637
 20
0.0457491322330144
 10
1.030367226747203
 20
0.0467053496809311
 10
1.031886323969426
 20
0.0467053496809311
 10
1.033791977181231
 20
0.0467053496809311
 10
1.035609468500676
 20
0.0464069555837088
 10
1.038084783170815
 20
0.0432399091427366
 97
        0
 97
        1
330
8F
 92
        1
 93
        1
 72
     4
 94
        3
 73
     0
 74
     0
 95
       17
 96
       13
 40
0.0
 40
0.0
 40
0.0
 40
0.0
 40
1.0
 40
1.0
 40
1.0
 40
2.0
 40
2.0
 40
2.0
 40
3.0
 40
3.0
 40
3.0
 40
4.0
 40
4.0
 40
4.0
 40
4.0
 10
0.871886052702065
 20
-0.072801486256569
 10
0.8699600544381761
 20
-0.0750665687218467
 10
0.8683867037437316
 20
-0.0767145179405967
 10
0.8671727823027595
 20
-0.0779013126454579
 10
0.8672338174590095
 20
-0.0754531247114301
 10
0.8677763521812316
 20
-0.0738933373850412
 10
0.8686104993166484
 20
-0.0722318247982356
 10
0.8749106837784539
 20
-0.0597738712392079
 10
0.8803767211048427
 20
-0.052354708912819
 10
0.887022771452065
 20
-0.0465156789649023
 10
0.8835166408097039
 20
-0.0563626841732356
 10
0.8786067015735927
 20
-0.064866915944069
 10
0.871886052702065
 20
-0.072801486256569
 97
        0
 97
        1
330
90
 92
        1
 93
        1
 72
     4
 94
        3
 73
     0
 74
     0
 95
      398
 96
      394
 40
0.0
 40
0.0
 40
0.0
 40
0.0
 40
1.0
 40
1.0
 40
1.0
 40
2.0
 40
2.0
 40
2.0
 40
3.0
 40
3.0
 40
3.0
 40
4.0
 40
4.0
 40
4.0
 40
5.0
 40
5.0
 40
5.0
 40
6.0
 40
6.0
 40
6.0
 40
7.0
 40
7.0
 40
7.0
 40
8.0
 40
8.0
 40
8.0
 40
9.0
 40
9.0
 40
9.0
 40
10.0
 40
10.0
 40
10.0
 40
11.0
 40
11.0
 40
11.0
 40
12.0
 40
12.0
 40
12.0
 40
13.0
 40
13.0
 40
13.0
 40
14.0
 40
14.0
 40
14.0
 40
15.0
 40
15.0
 40
15.0
 40
16.0
 40
16.0
 40
16.0
 40
17.0
 40
17.0
 40
17.0
 40
18.0
 40
18.0
 40
18.0
 40
19.0
 40
19.0
 40
19.0
 40
20.0
 40
20.0
 40
20.0
 40
21.0
 40
21.0
 40
21.0
 40
22.0
 40
22.0
 40
22.0
 40
23.0
 40
23.0
 40
23.0
 40
24.0
 40
24.0
 40
24.0
 40
25.0
 40
25.0
 40
25.0
 40
26.0
 40
26.0
 40
26.0
 40
27.0
 40
27.0
 40
27.0
 40
28.0
 40
28.0
 40
28.0
 40
29.0
 40
29.0
 40
29.0
 40
30.0
 40
30.0
 40
30.0
 40
31.0
 40
31.0
 40
31.0
 40
32.0
 40
32.0
 40
32.0
 40
33.0
 40
33.0
 40
33.0
 40
34.0
 40
34.0
 40
34.0
 40
35.0
 40
35.0
 40
35.0
 40
36.0
 40
36.0
 40
36.0
 40
37.0
 40
37.0
 40
37.0
 40
38.0
 40
38.0
 40
38.0
 40
39.0
 40
39.0
 40
39.0
 40
40.0
 40
40.0
 40
40.0
 40
41.0
 40
41.0
 40
41.0
 40
42.0
 40
42.0
 40
42.0
 40
43.0
 40
43.0
 40
43.0
 40
44.0
 40
44.0
 40
44.0
 40
45.0
 40
45.0
 40
45.0
 40
46.0
 40
46.0
 40
46.0
 40
47.0
 40
47.0
 40
47.0
 40
48.0
 40
48.0
 40
48.0
 40
49.0
 40
49.0
 40
49.0
 40
50.0
 40
50.0
 40
50.0
 40
51.0
 40
51.0
 40
51.0
 40
52.0
 40
52.0
 40
52.0
 40
53.0
 40
53.0
 40
53.0
 40
54.0
 40
54.0
 40
54.0
 40
55.0
 40
55.0
 40
55.0
 40
56.0
 40
56.0
 40
56.0
 40
57.0
 40
57.0
 40
57.0
 40
58.0
 40
58.0
 40
58.0
 40
59.0
 40
59.0
 40
59.0
 40
60.0
 40
60.0
 40
60.0
 40
61.0
 40
61.0
 40
61.0
 40
62.0
 40
62.0
 40
62.0
 40
63.0
 40
63.0
 40
63.0
 40
64.0
 40
64.0
 40
64.0
 40
65.0
 40
65.0
 40
65.0
 40
66.0
 40
66.0
 40
66.0
 40
67.0
 40
67.0
 40
67.0
 40
68.0
 40
68.0
 40
68.0
 40
69.0
 40
69.0
 40
69.0
 40
70.0
 40
70.0
 40
70.0
 40
71.0
 40
71.0
 40
71.0
 40
72.0
 40
72.0
 40
72.0
 40
73.0
 40
73.0
 40
73.0
 40
74.0
 40
74.0
 40
74.0
 40
75.0
 40
75.0
 40
75.0
 40
76.0
 40
76.0
 40
76.0
 40
77.0
 40
77.0
 40
77.0
 40
78.0
 40
78.0
 40
78.0
 40
79.0
 40
79.0
 40
79.0
 40
80.0
 40
80.0
 40
80.0
 40
81.0
 40
81.0
 40
81.0
 40
82.0
 40
82.0
 40
82.0
 40
83.0
 40
83.0
 40
83.0
 40
84.0
 40
84.0
 40
84.0
 40
85.0
 40
85.0
 40
85.0
 40
86.0
 40
86.0
 40
86.0
 40
87.0
 40
87.0
 40
87.0
 40
88.0
 40
88.0
 40
88.0
 40
89.0
 40
89.0
 40
89.0
 40
90.0
 40
90.0
 40
90.0
 40
91.0
 40
91.0
 40
91.0
 40
92.0
 40
92.0
 40
92.0
 40
93.0
 40
93.0
 40
93.0
 40
94.0
 40
94.0
 40
94.0
 40
95.0
 40
95.0
 40
95.0
 40
96.0
 40
96.0
 40
96.0
 40
97.0
 40
97.0
 40
97.0
 40
98.0
 40
98.0
 40
98.0
 40
99.0
 40
99.0
 40
99.0
 40
100.0
 40
100.0
 40
100.0
 40
101.0
 40
101.0
 40
101.0
 40
102.0
 40
102.0
 40
102.0
 40
103.0
 40
103.0
 40
103.0
 40
104.0
 40
104.0
 40
104.0
 40
105.0
 40
105.0
 40
105.0
 40
106.0
 40
106.0
 40
106.0
 40
107.0
 40
107.0
 40
107.0
 40
108.0
 40
108.0
 40
108.0
 40
109.0
 40
109.0
 40
109.0
 40
110.0
 40
110.0
 40
110.0
 40
111.0
 40
111.0
 40
111.0
 40
112.0
 40
112.0
 40
112.0
 40
113.0
 40
113.0
 40
113.0
 40
114.0
 40
114.0
 40
114.0
 40
115.0
 40
115.0
 40
115.0
 40
116.0
 40
116.0
 40
116.0
 40
117.0
 40
117.0
 40
117.0
 40
118.0
 40
118.0
 40
118.0
 40
119.0
 40
119.0
 40
119.0
 40
120.0
 40
120.0
 40
120.0
 40
121.0
 40
121.0
 40
121.0
 40
122.0
 40
122.0
 40
122.0
 40
123.0
 40
123.0
 40
123.0
 40
124.0
 40
124.0
 40
124.0
 40
125.0
 40
125.0
 40
125.0
 40
126.0
 40
126.0
 40
126.0
 40
127.0
 40
127.0
 40
127.0
 40
128.0
 40
128.0
 40
128.0
 40
129.0
 40
129.0
 40
129.0
 40
130.0
 40
130.0
 40
130.0
 40
131.0
 40
131.0
 40
131.0
 40
131.0
 10
1.210393810948592
 20
-0.0014649519683745
 10
1.207138602615259
 20
-0.0014649519683745
 10
1.204141098274981
 20
-0.0033231333919856
 10
1.204208915115259
 20
-0.0033231333919856
 10
1.202947521886092
 20
-0.0039741750586523
 10
1.201889579177759
 20
-0.0049236108225412
 10
1.20069600278887
 20
-0.0059612084787912
 10
1.199855073969426
 20
-0.006578341725319
 10
1.198105399490259
 20
-0.0078736433746245
 10
1.198091836122203
 20
-0.0080296221072634
 10
1.198024019281926
 20
-0.0080296221072634
 10
1.197956202441648
 20
-0.0080296221072634
 10
1.19788838560137
 20
-0.0080296221072634
 10
1.19788838560137
 20
-0.007921115162819
 10
1.197874822233315
 20
-0.0078058265343467
 10
1.197874822233315
 20
-0.0076905379058745
 10
1.198078272754148
 20
-0.0068021372982356
 10
1.19947529966387
 20
-0.003648654225319
 10
1.202011649490259
 20
0.0005695532399588
 10
1.20374776060137
 20
0.0037569447330144
 10
1.205185477615259
 20
0.0069307728580144
 10
1.206501124316648
 20
0.0099350588823199
 10
1.206501124316648
 20
0.0099350588823199
 10
1.212306245844426
 20
0.0253972984656533
 10
1.212306245844426
 20
0.0253972984656533
 10
1.213174301399981
 20
0.0279133032399588
 10
1.213242118240259
 20
0.0319687502885699
 10
1.213174301399981
 20
0.0323213978580144
 10
1.213499822233315
 20
0.0340642906531533
 10
1.215358003656926
 20
0.0397405601844033
 10
1.215371567024981
 20
0.0397744686045422
 10
1.215371567024981
 20
0.0397744686045422
 10
1.215900538379148
 20
0.0414359811913477
 10
1.215900538379148
 20
0.0414359811913477
 10
1.215900538379148
 20
0.0414359811913477
 10
1.21558858091387
 20
0.0431517472503755
 10
1.21558858091387
 20
0.0431517472503755
 10
1.212102795323592
 20
0.0620862090559311
 10
1.20509053403887
 20
0.0687932945594033
 10
1.188787365636092
 20
0.0687932945594033
 10
1.181463146886092
 20
0.0687932945594033
 10
1.173243745844426
 20
0.0653753258094033
 10
1.164305486295815
 20
0.0585868600975977
 10
1.161430052268037
 20
0.0563556860524588
 10
1.157564492372203
 20
0.0522188587955144
 10
1.153251341330537
 20
0.0476005319725977
 10
1.153251341330537
 20
0.0476005319725977
 10
1.143160195497203
 20
0.0362005211219033
 10
1.143160195497203
 20
0.0362005211219033
 10
1.143160195497203
 20
0.0362005211219033
 10
1.144245264941648
 20
0.0451319989864866
 10
1.144245264941648
 20
0.0451319989864866
 10
1.144570785774981
 20
0.0470986873545422
 10
1.144611475879148
 20
0.0503742407399588
 10
1.144611475879148
 20
0.0520086265906533
 10
1.144611475879148
 20
0.0621065541080144
 10
1.139470959386092
 20
0.0654499243337088
 10
1.135849540115259
 20
0.0669690215559311
 10
1.133421697233315
 20
0.0681829429969033
 10
1.130654770149981
 20
0.0687797311913477
 10
1.127385998448592
 20
0.0687932945594033
 10
1.127385998448592
 20
0.0687932945594033
 10
1.127385998448592
 20
0.0804103192989866
 10
1.127385998448592
 20
0.0804103192989866
 10
1.127385998448592
 20
0.0804103192989866
 10
1.123751015809703
 20
0.0686847876149588
 10
1.123751015809703
 20
0.0686847876149588
 10
1.122950777094426
 20
0.0686101890906533
 10
1.12220479185137
 20
0.0684745554100977
 10
1.121485933344426
 20
0.0682371964691255
 10
1.114473672059703
 20
0.0661755645246811
 10
1.10975361997637
 20
0.0620929907399588
 10
1.104735173795815
 20
0.0537989911739866
 10
1.100422022754148
 20
0.0469494903059311
 10
1.094304943761092
 20
0.0398015953406533
 10
1.08802510435137
 20
0.0325655384830144
 10
1.08802510435137
 20
0.0325655384830144
 10
1.083413559212481
 20
0.0262178822330144
 10
1.083413559212481
 20
0.0262178822330144
 10
1.083413559212481
 20
0.0262178822330144
 10
1.081575722840953
 20
0.0242240671288477
 10
1.081575722840953
 20
0.0242240671288477
 10
1.076007960254148
 20
0.0169134117469033
 10
1.065103012337481
 20
0.0062593861392644
 10
1.060708481087481
 20
0.0040824655663477
 10
1.060701699403453
 20
0.0044486765038477
 10
1.060701699403453
 20
0.0048420141774588
 10
1.060701699403453
 20
0.005262478587181
 10
1.060701699403453
 20
0.0103216148719033
 10
1.067083264073592
 20
0.0254718969899588
 10
1.069233057910398
 20
0.0305920684309311
 10
1.073159652962481
 20
0.0405001087955144
 10
1.074495644715953
 20
0.0438773874413477
 10
1.074950017545815
 20
0.0455999351844033
 10
1.076231755827065
 20
0.0485974395246811
 10
1.076828544021509
 20
0.0520628800628755
 10
1.076828544021509
 20
0.0563828127885699
 10
1.076828544021509
 20
0.0613537871809311
 10
1.073647934212481
 20
0.0671521270246811
 10
1.064689329611787
 20
0.0671521270246811
 10
1.064689329611787
 20
0.0671521270246811
 10
1.062505627354842
 20
0.0671521270246811
 10
1.062505627354842
 20
0.0671521270246811
 10
1.057927990636092
 20
0.0671521270246811
 10
1.054048867372203
 20
0.0647446291948199
 10
1.052312756261092
 20
0.0609943579274588
 10
1.045626015809703
 20
0.0679998375281533
 10
1.03840352232012
 20
0.0709837785003755
 10
1.028875256261092
 20
0.0709837785003755
 10
1.021164481521509
 20
0.0709837785003755
 10
1.013324854785398
 20
0.0687593861392644
 10
1.005437756261092
 20
0.0640189890038477
 10
1.005437756261092
 20
0.0640189890038477
 10
0.9993138955840095
 20
0.0591497398719033
 10
0.9993138955840095
 20
0.0591497398719033
 10
0.9973200804798427
 20
0.0578137481184311
 10
0.9950143079103984
 20
0.0561251087955144
 10
0.9936308443687316
 20
0.0547280818857922
 10
0.9906469033965095
 20
0.0520560983788477
 10
0.9877579060006761
 20
0.0490721574066255
 10
0.9850181056534539
 20
0.0458237307573199
 10
0.9827191147680371
 20
0.0457152238128755
 10
0.9795317232749816
 20
0.0447183162607922
 10
0.977171697233315
 20
0.0423515085350977
 10
0.977171697233315
 20
0.0423515085350977
 10
0.9632963717124816
 20
0.0294663088823199
 10
0.9632963717124816
 20
0.0294663088823199
 10
0.9599936915909539
 20
0.0263196074934311
 10
0.9567791733617871
 20
0.0232407229448199
 10
0.9531306273548427
 20
0.0202228735524588
 10
0.951353826139565
 20
0.0185952693857922
 10
0.9496041516603984
 20
0.0170490454274588
 10
0.9477730969728984
 20
0.0155502932573199
 10
0.9522422267472039
 20
0.0277098527191255
 10
0.9562705470597039
 20
0.0397066517642644
 10
0.9600276000110927
 20
0.0511405710350977
 10
0.9600276000110927
 20
0.0511405710350977
 10
0.9644967297853984
 20
0.0645004885698199
 10
0.9644967297853984
 20
0.0645004885698199
 10
0.967650212858315
 20
0.0740151912607922
 10
0.9706273721465095
 20
0.08299414091357
 10
0.9736180948027595
 20
0.0908269859656533
 10
0.9769343382923427
 20
0.0995821400455144
 10
0.9795317232749816
 20
0.1130302194725977
 10
0.9795317232749816
 20
0.1214462893510699
 10
0.9795317232749816
 20
0.1260239260698199
 10
0.9785415974069261
 20
0.1303709855316255
 10
0.9782567666777595
 20
0.1315238718163477
 10
0.9782567666777595
 20
0.1315238718163477
 10
0.9772056056534539
 20
0.1359319664344032
 10
0.9772056056534539
 20
0.1359319664344032
 10
0.9762358248374816
 20
0.1407944338823199
 10
0.9734282076499816
 20
0.1448634442989866
 10
0.9711766885527595
 20
0.1481389976844032
 10
0.9711766885527595
 20
0.1481389976844032
 10
0.9705663369902595
 20
0.1490341799760699
 10
0.9705663369902595
 20
0.1490341799760699
 10
0.9668092840388705
 20
0.1583793405663477
 10
0.9599462198027595
 20
0.1639335397850977
 10
0.9520794663305371
 20
0.1639335397850977
 10
0.9419476303930371
 20
0.1639335397850977
 10
0.9320938435006761
 20
0.1617769642642644
 10
0.9214126911569261
 20
0.1570704755489866
 10
0.9181032293513705
 20
0.1552597659135699
 10
0.9148751477541484
 20
0.1532049156531532
 10
0.9074220770076205
 20
0.1476168080142644
 10
0.9035361720597039
 20
0.1456704646982921
 10
0.8999283161569261
 20
0.1433579104448199
 10
0.894957341764565
 20
0.1383869360524588
 10
0.8844864216256761
 20
0.1279160159135699
 10
0.8769316256187316
 20
0.1158717450802366
 10
0.8725031859485927
 20
0.1025932077538477
 10
0.8725031859485927
 20
0.1025932077538477
 10
0.8719742145944261
 20
0.0999212242469033
 10
0.8719742145944261
 20
0.0999212242469033
 10
0.871702947233315
 20
0.0989650067989866
 10
0.8713231729277595
 20
0.0976493600975977
 10
0.8713299546117871
 20
0.0961302628753755
 10
0.871275701139565
 20
0.0954860028927366
 10
0.8710179971465095
 20
0.0940075957746811
 10
0.870054998014565
 20
0.0890230580142644
 10
0.8693022310874816
 20
0.0847234703406533
 10
0.868040837858315
 20
0.0768974069725977
 10
0.868040837858315
 20
0.0727877064517644
 10
0.868040837858315
 20
0.0649955515038477
 10
0.868895330045815
 20
0.0580985788475977
 10
0.870726384733315
 20
0.0510863175628755
 10
0.870726384733315
 20
0.0510863175628755
 10
0.8726998547853984
 20
0.0434908314517644
 10
0.8726998547853984
 20
0.0434908314517644
 10
0.8736357271812316
 20
0.0403102216427366
 10
0.8744291842124816
 20
0.0370075415212088
 10
0.8752904580840095
 20
0.0334742841427366
 10
0.8752904580840095
 20
0.0334742841427366
 10
0.8763009290041484
 20
0.0293578019378755
 10
0.8763009290041484
 20
0.0293578019378755
 10
0.8767417384659539
 20
0.0249157988996811
 10
0.8799020032228984
 20
0.0207857533267644
 10
0.8879925522680371
 20
0.0208467884830144
 10
0.8942723916777595
 20
0.0219928930837088
 10
0.8983346204103984
 20
0.0265027129621811
 10
0.8983346204103984
 20
0.0323281795420422
 10
0.8983346204103984
 20
0.0360445423892644
 10
0.8978056490562316
 20
0.0396117081878755
 10
0.8972631143340095
 20
0.0430907120941255
 10
0.8968562132923427
 20
0.0457355688649588
 10
0.896422185514565
 20
0.0483261721635699
 10
0.896422185514565
 20
0.0509167754621811
 10
0.896422185514565
 20
0.0590005428232922
 10
0.8974258747506761
 20
0.0681625979448199
 10
0.8998808443687316
 20
0.0825804581878755
 10
0.902220525358315
 20
0.0966117624413477
 10
0.9100669337784539
 20
0.1176621096635699
 10
0.9245526108617871
 20
0.1308524850975977
 10
0.9278688543513705
 20
0.1339313696462088
 10
0.9315919988826205
 20
0.1361354169552366
 10
0.9395265691951205
 20
0.1403739694725977
 10
0.9415339476673427
 20
0.1415811092295421
 10
0.9442466212784539
 20
0.141798123118431
 10
0.9475899915041484
 20
0.1418388132225977
 10
0.9475899915041484
 20
0.1418388132225977
 10
0.947996892545815
 20
0.1415336374413477
 10
0.947996892545815
 20
0.1415336374413477
 10
0.9491701238826205
 20
0.1385157880489866
 10
0.951109685514565
 20
0.1310423722503755
 10
0.9511571573027595
 20
0.1292926977712088
 10
0.9511503756187316
 20
0.1292180992469032
 10
0.950987615202065
 20
0.1273599178232921
 10
0.9487700045249816
 20
0.1184013132225977
 10
0.9477391885527595
 20
0.1116942277191255
 10
0.9452638738826205
 20
0.1054143883094033
 10
0.9428360310006761
 20
0.0998059356184311
 10
0.9373564303062316
 20
0.0850015193857922
 10
0.9288521985353984
 20
0.0617064347503755
 10
0.9241863999242871
 20
0.0482380102712088
 10
0.9165976954972039
 20
0.0260483401323199
 10
0.9089004841256761
 20
0.0059270836219033
 10
0.9012982163305371
 20
-0.0116103512739301
 10
0.882689275358315
 20
-0.0214844832183745
 10
0.8638497571291484
 20
-0.0320164385135134
 10
0.8546877020076205
 20
-0.0518121741905967
 10
0.8546877020076205
 20
-0.0518121741905967
 10
0.8486384398548427
 20
-0.0628052839996245
 10
0.8486384398548427
 20
-0.0628052839996245
 10
0.8459868013999816
 20
-0.0677287866037912
 10
0.8448067883791484
 20
-0.0725370005794856
 10
0.8448067883791484
 20
-0.0783963755794856
 10
0.8448067883791484
 20
-0.0884739580447634
 10
0.8519818100805371
 20
-0.1031088321767078
 10
0.8632326238826205
 20
-0.1031088321767078
 10
0.8727744533097039
 20
-0.1031088321767078
 10
0.8855308009659539
 20
-0.095201388600319
 10
0.8907866060874816
 20
-0.0896336260135134
 10
0.9014338500110927
 20
-0.0779148760135134
 10
0.9162653929798427
 20
-0.0581869571767079
 10
0.9236167384659539
 20
-0.0425958655968467
 10
0.9263022853409539
 20
-0.037034884694069
 10
0.9284588608617871
 20
-0.0320028751454579
 10
0.9310833725805371
 20
-0.025865451100319
 10
0.9310833725805371
 20
-0.025865451100319
 10
0.9339927150284539
 20
-0.0191312388607356
 10
0.9339927150284539
 20
-0.0191312388607356
 10
0.9469050414173427
 20
-0.0121664493642079
 10
0.9572674546117871
 20
-0.0059205183746245
 10
0.9672636568687316
 20
0.0020140519378755
 10
0.9673111286569261
 20
-0.0013496633399023
 10
0.9676569945423427
 20
-0.0062189124718467
 10
0.9685250500978984
 20
-0.0099691837392078
 10
0.9685250500978984
 20
-0.0099691837392078
 10
0.9690811481881761
 20
-0.0115154076975412
 10
0.9690811481881761
 20
-0.0115154076975412
 10
0.9704849567819261
 20
-0.0143230248850412
 10
0.9731637219728984
 20
-0.0172662757530967
 10
0.9750422484485927
 20
-0.0186226125586523
 10
0.9752321356013705
 20
-0.0188057180274023
 10
0.9754491494902595
 20
-0.0190702037044856
 10
0.9757136351673427
 20
-0.0194296329579579
 10
0.9787314845597039
 20
-0.0263333872982356
 10
0.9857098374242871
 20
-0.0274455834787912
 10
0.9987103257055371
 20
-0.0234782983225412
 10
1.003816933778453
 20
-0.0228950734961523
 10
1.009065957215953
 20
-0.0188396264475412
 10
1.016756386903453
 20
-0.0116985131662912
 10
1.018133068761092
 20
-0.0106134437218467
 10
1.019448715462481
 20
-0.0093927405968467
 10
1.020757580479842
 20
-0.0081584741037912
 10
1.021768051399981
 20
-0.0072090383399023
 10
1.022771740636092
 20
-0.0062460392079578
 10
1.024277274490259
 20
-0.005052462819069
 10
1.026054075705537
 20
-0.0034180769683745
 10
1.027810531868731
 20
-0.0017769094336523
 10
1.02961445982012
 20
-0.0000204532704578
 10
1.029756875184703
 20
-0.0066122501454578
 10
1.030638494108315
 20
-0.0096368812218467
 10
1.035907862597898
 20
-0.0170356984961523
 10
1.040431245844426
 20
-0.0223050669857356
 10
1.052272066156926
 20
-0.0227323130794856
 10
1.052387354785398
 20
-0.0227323130794856
 10
1.061379867806231
 20
-0.0227323130794856
 10
1.073770004524981
 20
-0.0136312931142079
 10
1.075323010167342
 20
-0.0124580617774023
 10
1.08253194028887
 20
-0.0066868486697634
 10
1.088554075705537
 20
-0.0011869029232356
 10
1.095078055740259
 20
0.0056151261566255
 10
1.095918984559703
 20
0.0065849069725977
 10
1.096800603483315
 20
0.0076767581010699
 10
1.097750039247203
 20
0.0088432077538477
 10
1.097750039247203
 20
0.0088432077538477
 10
1.10670186216387
 20
0.0191513674760699
 10
1.10670186216387
 20
0.0191513674760699
 10
1.107624171191648
 20
0.0201618383962088
 10
1.108505790115259
 20
0.0211384008962088
 10
1.109360282302759
 20
0.0221149633962088
 10
1.109278902094426
 20
0.0218843861392644
 10
1.109183958518037
 20
0.0216538088823199
 10
1.109102578309703
 20
0.0214232316253755
 10
1.108003945497203
 20
0.0184867624413477
 10
1.106973129524981
 20
0.0156316734656533
 10
1.106661172059703
 20
0.01347509794482
 10
1.106661172059703
 20
0.01347509794482
 10
1.102782048795815
 20
-0.0001764320030967
 10
1.102782048795815
 20
-0.0001764320030967
 10
1.102036063552759
 20
-0.003038302662819
 10
1.101168007997203
 20
-0.006334201100319
 10
1.099336953309703
 20
-0.0110813799197634
 10
1.098835108691648
 20
-0.0119765622114301
 10
1.09791279966387
 20
-0.0136516381662912
 10
1.09791279966387
 20
-0.0163371850412912
 10
1.09791279966387
 20
-0.0248007267079579
 10
1.104057005393037
 20
-0.0309381507530967
 10
1.112520547059703
 20
-0.0309381507530967
 10
1.118149344802759
 20
-0.0309381507530967
 10
1.122516749316648
 20
-0.0281440969336523
 10
1.125202296191648
 20
-0.0230917423329579
 10
1.125202296191648
 20
-0.0230917423329579
 10
1.129379813552759
 20
-0.0166423608225412
 10
1.129379813552759
 20
-0.0166423608225412
 10
1.13099385435137
 20
-0.0141670461524023
 10
1.132390881261092
 20
-0.0120308156836523
 10
1.13355733091387
 20
-0.0108575843468467
 10
1.135117118240259
 20
-0.0092910153364301
 10
1.13892842466387
 20
-0.0036011824371245
 10
1.139118311816648
 20
-0.003282443287819
 10
1.139118311816648
 20
-0.003282443287819
 10
1.141098563552759
 20
-0.0007460934614301
 10
1.141098563552759
 20
-0.0007460934614301
 10
1.142265013205537
 20
0.0007390953406533
 10
1.143431462858315
 20
0.0022446291948199
 10
1.14417744810137
 20
0.003309353587181
 10
1.145750798795815
 20
0.0049437394378755
 10
1.147758177268037
 20
0.0072020402191255
 10
1.149629922059703
 20
0.0093314890038477
 10
1.149629922059703
 20
0.0093314890038477
 10
1.152044201573592
 20
0.0120441626149588
 10
1.152044201573592
 20
0.0120441626149588
 10
1.168605073969426
 20
0.0320840389170422
 10
1.17396260435137
 20
0.0358071834482922
 10
1.179794852615259
 20
0.0398626304969033
 10
1.179794852615259
 20
0.0398626304969033
 10
1.183796046191648
 20
0.0428736982052366
 10
1.183796046191648
 20
0.0428736982052366
 10
1.183619722406926
 20
0.0415716148719033
 10
1.183307764941648
 20
0.0399440107052366
 10
1.182778793587481
 20
0.0379027238128755
 10
1.182616033170815
 20
0.0371296118337088
 10
1.181463146886092
 20
0.0339964738128755
 10
1.179659218934703
 20
0.0303547094899588
 10
1.179035304004148
 20
0.0288763023719033
 10
1.178289318761092
 20
0.0274589304100977
 10
1.177638277094426
 20
0.0262314456010699
 10
1.176729531434703
 20
0.0244885528059311
 10
1.175997109559703
 20
0.0229830189517644
 10
1.175603771886092
 20
0.0217962242469033
 10
1.175603771886092
 20
0.0217962242469033
 10
1.173650646886092
 20
0.0153739694725977
 10
1.173650646886092
 20
0.0153739694725977
 10
1.171100733691648
 20
0.0094196508962088
 10
1.168998411643037
 20
0.0037908531531533
 10
1.168998411643037
 20
-0.0048557939822634
 10
1.168998411643037
 20
-0.0201620548329579
 10
1.176729531434703
 20
-0.0291274411176801
 10
1.190889687684703
 20
-0.0301107853017079
 10
1.190889687684703
 20
-0.0301107853017079
 10
1.196450668587481
 20
-0.0303888343468467
 10
1.196450668587481
 20
-0.0303888343468467
 10
1.200234848274981
 20
-0.0303888343468467
 10
1.210366684212481
 20
-0.0251398109093467
 10
1.21668721372637
 20
-0.0206842445030967
 10
1.217121241504148
 20
-0.020250216725319
 10
1.220891857823592
 20
-0.0163236216732356
 10
1.220891857823592
 20
-0.0116917314822634
 10
1.220891857823592
 20
-0.005479708912819
 10
1.216768593934703
 20
-0.0014649519683745
 10
1.210393810948592
 20
-0.0014649519683745
 97
        0
 97
        1
330
91
 75
     2
 76
     1
 98
        1
 10
0.0
 20
0.0
450
        0
451
        0
460
0.0
461
0.0
452
        0
462
0.0
453
        0
470

  0
SPLINE
  5
93
330
8B
100
AcDbEntity
  8
Milo's Baptism
100
AcDbSpline
210
0.0
220
0.0
230
1.0
 70
    11
 71
     3
 72
    89
 73
    85
 74
     0
 42
0.0000000001
 43
0.0000000001
 40
0.0
 40
0.0
 40
0.0
 40
0.0
 40
1.0
 40
1.0
 40
1.0
 40
2.0
 40
2.0
 40
2.0
 40
3.0
 40
3.0
 40
3.0
 40
4.0
 40
4.0
 40
4.0
 40
5.0
 40
5.0
 40
5.0
 40
6.0
 40
6.0
 40
6.0
 40
7.0
 40
7.0
 40
7.0
 40
8.0
 40
8.0
 40
8.0
 40
9.0
 40
9.0
 40
9.0
 40
10.0
 40
10.0
 40
10.0
 40
11.0
 40
11.0
 40
11.0
 40
12.0
 40
12.0
 40
12.0
 40
13.0
 40
13.0
 40
13.0
 40
14.0
 40
14.0
 40
14.0
 40
15.0
 40
15.0
 40
15.0
 40
16.0
 40
16.0
 40
16.0
 40
17.0
 40
17.0
 40
17.0
 40
18.0
 40
18.0
 40
18.0
 40
19.0
 40
19.0
 40
19.0
 40
20.0
 40
20.0
 40
20.0
 40
21.0
 40
21.0
 40
21.0
 40
22.0
 40
22.0
 40
22.0
 40
23.0
 40
23.0
 40
23.0
 40
24.0
 40
24.0
 40
24.0
 40
25.0
 40
25.0
 40
25.0
 40
26.0
 40
26.0
 40
26.0
 40
27.0
 40
27.0
 40
27.0
 40
28.0
 40
28.0
 40
28.0
 40
28.0
 10
1.372164101747203
 20
0.0212062177364866
 30
0.0
 10
1.372164101747203
 20
0.0212062177364866
 30
0.0
 10
1.375405746712481
 20
0.0300020619205144
 30
0.0
 10
1.375405746712481
 20
0.0300020619205144
 30
0.0
 10
1.379759587858315
 20
0.0418021921288477
 30
0.0
 10
1.384276189420815
 20
0.0540092233788477
 30
0.0
 10
1.387667031434703
 20
0.0666570640906533
 30
0.0
 10
1.389199692024981
 20
0.0725367841427366
 30
0.0
 10
1.390488211990259
 20
0.0766600480316255
 30
0.0
 10
1.391993745844426
 20
0.0807494035003755
 30
0.0
 10
1.391993745844426
 20
0.0807494035003755
 30
0.0
 10
1.398734739768037
 20
0.0950112850107922
 30
0.0
 10
1.398734739768037
 20
0.0950112850107922
 30
0.0
 10
1.400565794455537
 20
0.0978392472503755
 30
0.0
 10
1.401284652962481
 20
0.1017048071462088
 30
0.0
 10
1.401284652962481
 20
0.1083237307573199
 30
0.0
 10
1.401284652962481
 20
0.122694119212181
 30
0.0
 10
1.393675603483315
 20
0.1248371313649588
 30
0.0
 10
1.389145438552759
 20
0.1248371313649588
 30
0.0
 10
1.385795286643037
 20
0.1248371313649588
 30
0.0
 10
1.382974106087481
 20
0.1237995337087088
 30
0.0
 10
1.374673324837481
 20
0.117323025462181
 30
0.0
 10
1.372828706781926
 20
0.1156682945594033
 30
0.0
 10
1.371214665983315
 20
0.1139118383962088
 30
0.0
 10
1.369627751920815
 20
0.1121757272850977
 30
0.0
 10
1.368759696365259
 20
0.1112330732052366
 30
0.0
 10
1.367905204177759
 20
0.1102972008094033
 30
0.0
 10
1.367023585254148
 20
0.1094155818857921
 30
0.0
 10
1.367023585254148
 20
0.1094155818857921
 30
0.0
 10
1.364541488899981
 20
0.106886013743431
 30
0.0
 10
1.364541488899981
 20
0.106886013743431
 30
0.0
 10
1.361503294455537
 20
0.1037528757225977
 30
0.0
 10
1.358614297059703
 20
0.1007960614864866
 30
0.0
 10
1.35279561216387
 20
0.0962184247677366
 30
0.0
 10
1.332993094802759
 20
0.0801729603580144
 30
0.0
 10
1.329588689420815
 20
0.0775959204274588
 30
0.0
 10
1.326401297927759
 20
0.0754732533267644
 30
0.0
 10
1.325343355219426
 20
0.0747340497677366
 30
0.0
 10
1.324434609559703
 20
0.0741847333614866
 30
0.0
 10
1.323552990636092
 20
0.0736625436913477
 30
0.0
 10
1.322047456781926
 20
0.0727470163475977
 30
0.0
 10
1.320623303136092
 20
0.0718789607920422
 30
0.0
 10
1.318331093934703
 20
0.0700139976844033
 30
0.0
 10
1.315998194629148
 20
0.0676810983788477
 30
0.0
 10
1.313583915115259
 20
0.0652668188649588
 30
0.0
 10
1.313583915115259
 20
0.0610282663475977
 30
0.0
 10
1.313583915115259
 20
0.0550468210350977
 30
0.0
 10
1.318643051399981
 20
0.0499876847503755
 30
0.0
 10
1.324638060080537
 20
0.0499876847503755
 30
0.0
 10
1.328978337858315
 20
0.0499876847503755
 30
0.0
 10
1.332097912511092
 20
0.0510185007225977
 30
0.0
 10
1.333617009733315
 20
0.0525986331010699
 30
0.0
 10
1.335448064420815
 20
0.0540702585350977
 30
0.0
 10
1.33704854185137
 20
0.0555351022850977
 30
0.0
 10
1.338581202441648
 20
0.0569660376149588
 30
0.0
 10
1.340330876920815
 20
0.0585868600975977
 30
0.0
 10
1.341985607823592
 20
0.0601602107920422
 30
0.0
 10
1.344047239768037
 20
0.0615301109656533
 30
0.0
 10
1.344047239768037
 20
0.0615301109656533
 30
0.0
 10
1.35853291685137
 20
0.0711397572330144
 30
0.0
 10
1.35853291685137
 20
0.0711397572330144
 30
0.0
 10
1.35853291685137
 20
0.0711397572330144
 30
0.0
 10
1.33033467466387
 20
-0.0078261715864301
 30
0.0
 10
1.33033467466387
 20
-0.0078261715864301
 30
0.0
 10
1.328327296191648
 20
-0.0092299801801801
 30
0.0
 10
1.326414861295815
 20
-0.0117595483225412
 30
0.0
 10
1.325668876052759
 20
-0.0163032766211523
 30
0.0
 10
1.325668876052759
 20
-0.0163032766211523
 30
0.0
 10
1.32545186216387
 20
-0.0179376624718467
 30
0.0
 10
1.32545186216387
 20
-0.0179376624718467
 30
0.0
 10
1.325221284906926
 20
-0.0195652666385134
 30
0.0
 10
1.325072087858315
 20
-0.0208266598676801
 30
0.0
 10
1.325072087858315
 20
-0.022081271412819
 30
0.0
 10
1.325072087858315
 20
-0.0340509437218467
 30
0.0
 10
1.332586193761092
 20
-0.0405071069162912
 30
0.0
 10
1.339666271886092
 20
-0.0405071069162912
 30
0.0
 10
1.343341944629148
 20
-0.0405071069162912
 30
0.0
 10
1.352524344802759
 20
-0.0386896155968467
 30
0.0
 10
1.358248086122203
 20
-0.0219117293121245
 30
0.0
 10
1.358248086122203
 20
-0.0219117293121245
 30
0.0
 10
1.370224540115259
 20
0.0124646270246811
 30
0.0
 10
1.370224540115259
 20
0.0124646270246811
 30
0.0
 10
1.370224540115259
 20
0.0124646270246811
 30
0.0
 10
1.372164101747203
 20
0.0212062177364866
 30
0.0
 10
1.372164101747203
 20
0.0212062177364866
 30
0.0
  0
HATCH
  5
94
330
8B
100
AcDbEntity
  8
Milo's Baptism
 62
    18
420
        0
440
 33554687
100
AcDbHatch
 10
0.0
 20
0.0
 30
0.0
210
0.0
220
0.0
230
1.0
  2
SOLID
 70
     1
 71
     1
 91
        1
 92
        1
 93
        1
 72
     4
 94
        3
 73
     0
 74
     0
 95
       89
 96
       85
 40
0.0
 40
0.0
 40
0.0
 40
0.0
 40
1.0
 40
1.0
 40
1.0
 40
2.0
 40
2.0
 40
2.0
 40
3.0
 40
3.0
 40
3.0
 40
4.0
 40
4.0
 40
4.0
 40
5.0
 40
5.0
 40
5.0
 40
6.0
 40
6.0
 40
6.0
 40
7.0
 40
7.0
 40
7.0
 40
8.0
 40
8.0
 40
8.0
 40
9.0
 40
9.0
 40
9.0
 40
10.0
 40
10.0
 40
10.0
 40
11.0
 40
11.0
 40
11.0
 40
12.0
 40
12.0
 40
12.0
 40
13.0
 40
13.0
 40
13.0
 40
14.0
 40
14.0
 40
14.0
 40
15.0
 40
15.0
 40
15.0
 40
16.0
 40
16.0
 40
16.0
 40
17.0
 40
17.0
 40
17.0
 40
18.0
 40
18.0
 40
18.0
 40
19.0
 40
19.0
 40
19.0
 40
20.0
 40
20.0
 40
20.0
 40
21.0
 40
21.0
 40
21.0
 40
22.0
 40
22.0
 40
22.0
 40
23.0
 40
23.0
 40
23.0
 40
24.0
 40
24.0
 40
24.0
 40
25.0
 40
25.0
 40
25.0
 40
26.0
 40
26.0
 40
26.0
 40
27.0
 40
27.0
 40
27.0
 40
28.0
 40
28.0
 40
28.0
 40
28.0
 10
1.372164101747203
 20
0.0212062177364866
 10
1.372164101747203
 20
0.0212062177364866
 10
1.375405746712481
 20
0.0300020619205144
 10
1.375405746712481
 20
0.0300020619205144
 10
1.379759587858315
 20
0.0418021921288477
 10
1.384276189420815
 20
0.0540092233788477
 10
1.387667031434703
 20
0.0666570640906533
 10
1.389199692024981
 20
0.0725367841427366
 10
1.390488211990259
 20
0.0766600480316255
 10
1.391993745844426
 20
0.0807494035003755
 10
1.391993745844426
 20
0.0807494035003755
 10
1.398734739768037
 20
0.0950112850107922
 10
1.398734739768037
 20
0.0950112850107922
 10
1.400565794455537
 20
0.0978392472503755
 10
1.401284652962481
 20
0.1017048071462088
 10
1.401284652962481
 20
0.1083237307573199
 10
1.401284652962481
 20
0.122694119212181
 10
1.393675603483315
 20
0.1248371313649588
 10
1.389145438552759
 20
0.1248371313649588
 10
1.385795286643037
 20
0.1248371313649588
 10
1.382974106087481
 20
0.1237995337087088
 10
1.374673324837481
 20
0.117323025462181
 10
1.372828706781926
 20
0.1156682945594033
 10
1.371214665983315
 20
0.1139118383962088
 10
1.369627751920815
 20
0.1121757272850977
 10
1.368759696365259
 20
0.1112330732052366
 10
1.367905204177759
 20
0.1102972008094033
 10
1.367023585254148
 20
0.1094155818857921
 10
1.367023585254148
 20
0.1094155818857921
 10
1.364541488899981
 20
0.106886013743431
 10
1.364541488899981
 20
0.106886013743431
 10
1.361503294455537
 20
0.1037528757225977
 10
1.358614297059703
 20
0.1007960614864866
 10
1.35279561216387
 20
0.0962184247677366
 10
1.332993094802759
 20
0.0801729603580144
 10
1.329588689420815
 20
0.0775959204274588
 10
1.326401297927759
 20
0.0754732533267644
 10
1.325343355219426
 20
0.0747340497677366
 10
1.324434609559703
 20
0.0741847333614866
 10
1.323552990636092
 20
0.0736625436913477
 10
1.322047456781926
 20
0.0727470163475977
 10
1.320623303136092
 20
0.0718789607920422
 10
1.318331093934703
 20
0.0700139976844033
 10
1.315998194629148
 20
0.0676810983788477
 10
1.313583915115259
 20
0.0652668188649588
 10
1.313583915115259
 20
0.0610282663475977
 10
1.313583915115259
 20
0.0550468210350977
 10
1.318643051399981
 20
0.0499876847503755
 10
1.324638060080537
 20
0.0499876847503755
 10
1.328978337858315
 20
0.0499876847503755
 10
1.332097912511092
 20
0.0510185007225977
 10
1.333617009733315
 20
0.0525986331010699
 10
1.335448064420815
 20
0.0540702585350977
 10
1.33704854185137
 20
0.0555351022850977
 10
1.338581202441648
 20
0.0569660376149588
 10
1.340330876920815
 20
0.0585868600975977
 10
1.341985607823592
 20
0.0601602107920422
 10
1.344047239768037
 20
0.0615301109656533
 10
1.344047239768037
 20
0.0615301109656533
 10
1.35853291685137
 20
0.0711397572330144
 10
1.35853291685137
 20
0.0711397572330144
 10
1.35853291685137
 20
0.0711397572330144
 10
1.33033467466387
 20
-0.0078261715864301
 10
1.33033467466387
 20
-0.0078261715864301
 10
1.328327296191648
 20
-0.0092299801801801
 10
1.326414861295815
 20
-0.0117595483225412
 10
1.325668876052759
 20
-0.0163032766211523
 10
1.325668876052759
 20
-0.0163032766211523
 10
1.32545186216387
 20
-0.0179376624718467
 10
1.32545186216387
 20
-0.0179376624718467
 10
1.325221284906926
 20
-0.0195652666385134
 10
1.325072087858315
 20
-0.0208266598676801
 10
1.325072087858315
 20
-0.022081271412819
 10
1.325072087858315
 20
-0.0340509437218467
 10
1.332586193761092
 20
-0.0405071069162912
 10
1.339666271886092
 20
-0.0405071069162912
 10
1.343341944629148
 20
-0.0405071069162912
 10
1.352524344802759
 20
-0.0386896155968467
 10
1.358248086122203
 20
-0.0219117293121245
 10
1.358248086122203
 20
-0.0219117293121245
 10
1.370224540115259
 20
0.0124646270246811
 10
1.370224540115259
 20
0.0124646270246811
 10
1.370224540115259
 20
0.0124646270246811
 10
1.372164101747203
 20
0.0212062177364866
 10
1.372164101747203
 20
0.0212062177364866
 97
        0
 97
        1
330
93
 75
     2
 76
     1
 98
        1
 10
0.0
 20
0.0
450
        0
451
        0
460
0.0
461
0.0
452
        0
462
0.0
453
        0
470

  0
SPLINE
  5
95
330
8B
100
AcDbEntity
  8
Milo's Baptism
100
AcDbSpline
210
0.0
220
0.0
230
1.0
 70
     9
 71
     3
 72
   113
 73
   109
 74
     0
 42
0.0000000001
 43
0.0000000001
 40
0.0
 40
0.0
 40
0.0
 40
0.0
 40
1.0
 40
1.0
 40
1.0
 40
2.0
 40
2.0
 40
2.0
 40
3.0
 40
3.0
 40
3.0
 40
4.0
 40
4.0
 40
4.0
 40
5.0
 40
5.0
 40
5.0
 40
6.0
 40
6.0
 40
6.0
 40
7.0
 40
7.0
 40
7.0
 40
8.0
 40
8.0
 40
8.0
 40
9.0
 40
9.0
 40
9.0
 40
10.0
 40
10.0
 40
10.0
 40
11.0
 40
11.0
 40
11.0
 40
12.0
 40
12.0
 40
12.0
 40
13.0
 40
13.0
 40
13.0
 40
14.0
 40
14.0
 40
14.0
 40
15.0
 40
15.0
 40
15.0
 40
16.0
 40
16.0
 40
16.0
 40
17.0
 40
17.0
 40
17.0
 40
18.0
 40
18.0
 40
18.0
 40
19.0
 40
19.0
 40
19.0
 40
20.0
 40
20.0
 40
20.0
 40
21.0
 40
21.0
 40
21.0
 40
22.0
 40
22.0
 40
22.0
 40
23.0
 40
23.0
 40
23.0
 40
24.0
 40
24.0
 40
24.0
 40
25.0
 40
25.0
 40
25.0
 40
26.0
 40
26.0
 40
26.0
 40
27.0
 40
27.0
 40
27.0
 40
28.0
 40
28.0
 40
28.0
 40
29.0
 40
29.0
 40
29.0
 40
30.0
 40
30.0
 40
30.0
 40
31.0
 40
31.0
 40
31.0
 40
32.0
 40
32.0
 40
32.0
 40
33.0
 40
33.0
 40
33.0
 40
34.0
 40
34.0
 40
34.0
 40
35.0
 40
35.0
 40
35.0
 40
36.0
 40
36.0
 40
36.0
 40
36.0
 10
1.45728779966387
 20
0.0339015302364866
 30
0.0
 10
1.469603337858315
 20
0.0400321725975977
 30
0.0
 10
1.473794418587481
 20
0.0473292646114866
 30
0.0
 10
1.477876992372203
 20
0.0544364694725977
 30
0.0
 10
1.477876992372203
 20
0.0544364694725977
 30
0.0
 10
1.472248194629148
 20
0.0585732967295422
 30
0.0
 10
1.472248194629148
 20
0.0585732967295422
 30
0.0
 10
1.472248194629148
 20
0.0585732967295422
 30
0.0
 10
1.478066879524981
 20
0.0547823353580144
 30
0.0
 10
1.478066879524981
 20
0.0547823353580144
 30
0.0
 10
1.480671046191648
 20
0.0587699655663477
 30
0.0
 10
1.482108763205537
 20
0.0606756187781533
 30
0.0
 10
1.483560043587481
 20
0.0625812719899588
 30
0.0
 10
1.483560043587481
 20
0.0625812719899588
 30
0.0
 10
1.486191336990259
 20
0.0661348744205144
 30
0.0
 10
1.486191336990259
 20
0.0661348744205144
 30
0.0
 10
1.490680811816648
 20
0.0727063262434311
 30
0.0
 10
1.493678316156926
 20
0.0781248917816255
 30
0.0
 10
1.493678316156926
 20
0.08317724638232
 30
0.0
 10
1.493678316156926
 20
0.0947535810177366
 30
0.0
 10
1.488361475879148
 20
0.1042818470767644
 30
0.0
 10
1.477497218066648
 20
0.1122435441253755
 30
0.0
 10
1.473021306608315
 20
0.1156072594031533
 30
0.0
 10
1.466212495844426
 20
0.1174586591427366
 30
0.0
 10
1.458305052268037
 20
0.1174586591427366
 30
0.0
 10
1.458305052268037
 20
0.1174586591427366
 30
0.0
 10
1.451197847406926
 20
0.1174586591427366
 30
0.0
 10
1.451197847406926
 20
0.1174586591427366
 30
0.0
 10
1.43323994810137
 20
0.1174586591427366
 30
0.0
 10
1.423691336990259
 20
0.1091985679969033
 30
0.0
 10
1.41322041685137
 20
0.1001246747677366
 30
0.0
 10
1.410846827441648
 20
0.0977578670420422
 30
0.0
 10
1.407890013205537
 20
0.0948146161739866
 30
0.0
 10
1.407890013205537
 20
0.0905557186045422
 30
0.0
 10
1.407890013205537
 20
0.0845674916080144
 30
0.0
 10
1.412949149490259
 20
0.0795083553232922
 30
0.0
 10
1.418930594802759
 20
0.0795083553232922
 30
0.0
 10
1.420748086122203
 20
0.0795083553232922
 30
0.0
 10
1.423528576573592
 20
0.0798610028927366
 30
0.0
 10
1.42615986997637
 20
0.0825262047156533
 30
0.0
 10
1.434976059212481
 20
0.0900064021982922
 30
0.0
 10
1.44105244810137
 20
0.0945501304969033
 30
0.0
 10
1.451157157302759
 20
0.0945501304969033
 30
0.0
 10
1.452201536643037
 20
0.0943534616600977
 30
0.0
 10
1.454493745844426
 20
0.0915865345767644
 30
0.0
 10
1.455470308344426
 20
0.0904065215559311
 30
0.0
 10
1.455470308344426
 20
0.0904065215559311
 30
0.0
 10
1.457871024490259
 20
0.0866155601844033
 30
0.0
 10
1.457871024490259
 20
0.0866155601844033
 30
0.0
 10
1.457871024490259
 20
0.0866155601844033
 30
0.0
 10
1.458467812684703
 20
0.08207861356982
 30
0.0
 10
1.458467812684703
 20
0.08207861356982
 30
0.0
 10
1.458467812684703
 20
0.0800169816253755
 30
0.0
 10
1.457179292719426
 20
0.0708617081878755
 30
0.0
 10
1.456446870844426
 20
0.0686305341427366
 30
0.0
 10
1.453056028830537
 20
0.0594752607052366
 30
0.0
 10
1.439451970670815
 20
0.0500894100107922
 30
0.0
 10
1.429930486295815
 20
0.0457423505489866
 30
0.0
 10
1.426512517545815
 20
0.0460814347503755
 30
0.0
 10
1.422796154698592
 20
0.0461017798024588
 30
0.0
 10
1.42030049497637
 20
0.0461017798024588
 30
0.0
 10
1.404472044455537
 20
0.0461017798024588
 30
0.0
 10
1.403237777962481
 20
0.0370211048892644
 30
0.0
 10
1.403237777962481
 20
0.0342406144378755
 30
0.0
 10
1.403237777962481
 20
0.0342406144378755
 30
0.0
 10
1.403237777962481
 20
0.0312295467295422
 30
0.0
 10
1.403237777962481
 20
0.0312295467295422
 30
0.0
 10
1.403237777962481
 20
0.0271876630489866
 30
0.0
 10
1.406655746712481
 20
0.0208467884830144
 30
0.0
 10
1.415621132997203
 20
0.0200058596635699
 30
0.0
 10
1.41761494810137
 20
0.0196735571462088
 30
0.0
 10
1.420273368240259
 20
0.0196396487260699
 30
0.0
 10
1.421941662511092
 20
0.0196396487260699
 30
0.0
 10
1.423664210254148
 20
0.0196396487260699
 30
0.0
 10
1.425129054004148
 20
0.0196396487260699
 30
0.0
 10
1.426783784906926
 20
0.0199448245073199
 30
0.0
 10
1.436196762337481
 20
0.0169608835350977
 30
0.0
 10
1.440971067893037
 20
0.0088974612260699
 30
0.0
 10
1.440971067893037
 20
-0.0040352102149023
 30
0.0
 10
1.440971067893037
 20
-0.0070530596072634
 30
0.0
 10
1.440265772754148
 20
-0.0098538951107356
 30
0.0
 10
1.438597478483315
 20
-0.013414279225319
 30
0.0
 10
1.433890989768037
 20
-0.0235935869510134
 30
0.0
 10
1.428547022754148
 20
-0.0351224497982356
 30
0.0
 10
1.416868962858315
 20
-0.0421754011871245
 30
0.0
 10
1.413898585254148
 20
-0.0440471459787912
 30
0.0
 10
1.406954140809703
 20
-0.0452068139475412
 30
0.0
 10
1.398707613031926
 20
-0.0452068139475412
 30
0.0
 10
1.388006115636092
 20
-0.0452068139475412
 30
0.0
 10
1.382743528830537
 20
-0.044481173756569
 30
0.0
 10
1.380776840462481
 20
-0.0402561846072634
 30
0.0
 10
1.37965108091387
 20
-0.0357124563086523
 30
0.0
 10
1.37550069028887
 20
-0.0326335717600412
 30
0.0
 10
1.370278793587481
 20
-0.0326335717600412
 30
0.0
 10
1.363456419455537
 20
-0.0326335717600412
 30
0.0
 10
1.359224648622203
 20
-0.0382216793989301
 30
0.0
 10
1.359224648622203
 20
-0.0434028859961523
 30
0.0
 10
1.359224648622203
 20
-0.0629205726280967
 30
0.0
 10
1.386337821365259
 20
-0.0694852427669856
 30
0.0
 10
1.398707613031926
 20
-0.0694852427669856
 30
0.0
 10
1.420571762337481
 20
-0.0694852427669856
 30
0.0
 10
1.452499930740259
 20
-0.0547011715864301
 30
0.0
 10
1.465778468066648
 20
-0.0325996633399023
 30
0.0
 10
1.47230244810137
 20
-0.0253975149024023
 30
0.0
 10
1.475082938552759
 20
-0.0088773326107356
 30
0.0
 10
1.475082938552759
 20
-0.0032146264475412
 30
0.0
 10
1.475082938552759
 20
0.0123629017642644
 30
0.0
 10
1.469237126920815
 20
0.0246106231184311
 30
0.0
 10
1.45728779966387
 20
0.0339015302364866
 30
0.0
  0
HATCH
  5
96
330
8B
100
AcDbEntity
  8
Milo's Baptism
 62
    18
420
        0
440
 33554687
100
AcDbHatch
 10
0.0
 20
0.0
 30
0.0
210
0.0
220
0.0
230
1.0
  2
SOLID
 70
     1
 71
     1
 91
        1
 92
        1
 93
        1
 72
     4
 94
        3
 73
     0
 74
     0
 95
      113
 96
      109
 40
0.0
 40
0.0
 40
0.0
 40
0.0
 40
1.0
 40
1.0
 40
1.0
 40
2.0
 40
2.0
 40
2.0
 40
3.0
 40
3.0
 40
3.0
 40
4.0
 40
4.0
 40
4.0
 40
5.0
 40
5.0
 40
5.0
 40
6.0
 40
6.0
 40
6.0
 40
7.0
 40
7.0
 40
7.0
 40
8.0
 40
8.0
 40
8.0
 40
9.0
 40
9.0
 40
9.0
 40
10.0
 40
10.0
 40
10.0
 40
11.0
 40
11.0
 40
11.0
 40
12.0
 40
12.0
 40
12.0
 40
13.0
 40
13.0
 40
13.0
 40
14.0
 40
14.0
 40
14.0
 40
15.0
 40
15.0
 40
15.0
 40
16.0
 40
16.0
 40
16.0
 40
17.0
 40
17.0
 40
17.0
 40
18.0
 40
18.0
 40
18.0
 40
19.0
 40
19.0
 40
19.0
 40
20.0
 40
20.0
 40
20.0
 40
21.0
 40
21.0
 40
21.0
 40
22.0
 40
22.0
 40
22.0
 40
23.0
 40
23.0
 40
23.0
 40
24.0
 40
24.0
 40
24.0
 40
25.0
 40
25.0
 40
25.0
 40
26.0
 40
26.0
 40
26.0
 40
27.0
 40
27.0
 40
27.0
 40
28.0
 40
28.0
 40
28.0
 40
29.0
 40
29.0
 40
29.0
 40
30.0
 40
30.0
 40
30.0
 40
31.0
 40
31.0
 40
31.0
 40
32.0
 40
32.0
 40
32.0
 40
33.0
 40
33.0
 40
33.0
 40
34.0
 40
34.0
 40
34.0
 40
35.0
 40
35.0
 40
35.0
 40
36.0
 40
36.0
 40
36.0
 40
36.0
 10
1.45728779966387
 20
0.0339015302364866
 10
1.469603337858315
 20
0.0400321725975977
 10
1.473794418587481
 20
0.0473292646114866
 10
1.477876992372203
 20
0.0544364694725977
 10
1.477876992372203
 20
0.0544364694725977
 10
1.472248194629148
 20
0.0585732967295422
 10
1.472248194629148
 20
0.0585732967295422
 10
1.472248194629148
 20
0.0585732967295422
 10
1.478066879524981
 20
0.0547823353580144
 10
1.478066879524981
 20
0.0547823353580144
 10
1.480671046191648
 20
0.0587699655663477
 10
1.482108763205537
 20
0.0606756187781533
 10
1.483560043587481
 20
0.0625812719899588
 10
1.483560043587481
 20
0.0625812719899588
 10
1.486191336990259
 20
0.0661348744205144
 10
1.486191336990259
 20
0.0661348744205144
 10
1.490680811816648
 20
0.0727063262434311
 10
1.493678316156926
 20
0.0781248917816255
 10
1.493678316156926
 20
0.08317724638232
 10
1.493678316156926
 20
0.0947535810177366
 10
1.488361475879148
 20
0.1042818470767644
 10
1.477497218066648
 20
0.1122435441253755
 10
1.473021306608315
 20
0.1156072594031533
 10
1.466212495844426
 20
0.1174586591427366
 10
1.458305052268037
 20
0.1174586591427366
 10
1.458305052268037
 20
0.1174586591427366
 10
1.451197847406926
 20
0.1174586591427366
 10
1.451197847406926
 20
0.1174586591427366
 10
1.43323994810137
 20
0.1174586591427366
 10
1.423691336990259
 20
0.1091985679969033
 10
1.41322041685137
 20
0.1001246747677366
 10
1.410846827441648
 20
0.0977578670420422
 10
1.407890013205537
 20
0.0948146161739866
 10
1.407890013205537
 20
0.0905557186045422
 10
1.407890013205537
 20
0.0845674916080144
 10
1.412949149490259
 20
0.0795083553232922
 10
1.418930594802759
 20
0.0795083553232922
 10
1.420748086122203
 20
0.0795083553232922
 10
1.423528576573592
 20
0.0798610028927366
 10
1.42615986997637
 20
0.0825262047156533
 10
1.434976059212481
 20
0.0900064021982922
 10
1.44105244810137
 20
0.0945501304969033
 10
1.451157157302759
 20
0.0945501304969033
 10
1.452201536643037
 20
0.0943534616600977
 10
1.454493745844426
 20
0.0915865345767644
 10
1.455470308344426
 20
0.0904065215559311
 10
1.455470308344426
 20
0.0904065215559311
 10
1.457871024490259
 20
0.0866155601844033
 10
1.457871024490259
 20
0.0866155601844033
 10
1.457871024490259
 20
0.0866155601844033
 10
1.458467812684703
 20
0.08207861356982
 10
1.458467812684703
 20
0.08207861356982
 10
1.458467812684703
 20
0.0800169816253755
 10
1.457179292719426
 20
0.0708617081878755
 10
1.456446870844426
 20
0.0686305341427366
 10
1.453056028830537
 20
0.0594752607052366
 10
1.439451970670815
 20
0.0500894100107922
 10
1.429930486295815
 20
0.0457423505489866
 10
1.426512517545815
 20
0.0460814347503755
 10
1.422796154698592
 20
0.0461017798024588
 10
1.42030049497637
 20
0.0461017798024588
 10
1.404472044455537
 20
0.0461017798024588
 10
1.403237777962481
 20
0.0370211048892644
 10
1.403237777962481
 20
0.0342406144378755
 10
1.403237777962481
 20
0.0342406144378755
 10
1.403237777962481
 20
0.0312295467295422
 10
1.403237777962481
 20
0.0312295467295422
 10
1.403237777962481
 20
0.0271876630489866
 10
1.406655746712481
 20
0.0208467884830144
 10
1.415621132997203
 20
0.0200058596635699
 10
1.41761494810137
 20
0.0196735571462088
 10
1.420273368240259
 20
0.0196396487260699
 10
1.421941662511092
 20
0.0196396487260699
 10
1.423664210254148
 20
0.0196396487260699
 10
1.425129054004148
 20
0.0196396487260699
 10
1.426783784906926
 20
0.0199448245073199
 10
1.436196762337481
 20
0.0169608835350977
 10
1.440971067893037
 20
0.0088974612260699
 10
1.440971067893037
 20
-0.0040352102149023
 10
1.440971067893037
 20
-0.0070530596072634
 10
1.440265772754148
 20
-0.0098538951107356
 10
1.438597478483315
 20
-0.013414279225319
 10
1.433890989768037
 20
-0.0235935869510134
 10
1.428547022754148
 20
-0.0351224497982356
 10
1.416868962858315
 20
-0.0421754011871245
 10
1.413898585254148
 20
-0.0440471459787912
 10
1.406954140809703
 20
-0.0452068139475412
 10
1.398707613031926
 20
-0.0452068139475412
 10
1.388006115636092
 20
-0.0452068139475412
 10
1.382743528830537
 20
-0.044481173756569
 10
1.380776840462481
 20
-0.0402561846072634
 10
1.37965108091387
 20
-0.0357124563086523
 10
1.37550069028887
 20
-0.0326335717600412
 10
1.370278793587481
 20
-0.0326335717600412
 10
1.363456419455537
 20
-0.0326335717600412
 10
1.359224648622203
 20
-0.0382216793989301
 10
1.359224648622203
 20
-0.0434028859961523
 10
1.359224648622203
 20
-0.0629205726280967
 10
1.386337821365259
 20
-0.0694852427669856
 10
1.398707613031926
 20
-0.0694852427669856
 10
1.420571762337481
 20
-0.0694852427669856
 10
1.452499930740259
 20
-0.0547011715864301
 10
1.465778468066648
 20
-0.0325996633399023
 10
1.47230244810137
 20
-0.0253975149024023
 10
1.475082938552759
 20
-0.0088773326107356
 10
1.475082938552759
 20
-0.0032146264475412
 10
1.475082938552759
 20
0.0123629017642644
 10
1.469237126920815
 20
0.0246106231184311
 10
1.45728779966387
 20
0.0339015302364866
 97
        0
 97
        1
330
95
 75
     2
 76
     1
 98
        1
 10
0.0
 20
0.0
450
        0
451
        0
460
0.0
461
0.0
452
        0
462
0.0
453
        0
470

  0
SPLINE
  5
97
330
8B
100
AcDbEntity
  8
Milo's Baptism
100
AcDbSpline
210
0.0
220
0.0
230
1.0
 70
     9
 71
     3
 72
    59
 73
    55
 74
     0
 42
0.0000000001
 43
0.0000000001
 40
0.0
 40
0.0
 40
0.0
 40
0.0
 40
1.0
 40
1.0
 40
1.0
 40
2.0
 40
2.0
 40
2.0
 40
3.0
 40
3.0
 40
3.0
 40
4.0
 40
4.0
 40
4.0
 40
5.0
 40
5.0
 40
5.0
 40
6.0
 40
6.0
 40
6.0
 40
7.0
 40
7.0
 40
7.0
 40
8.0
 40
8.0
 40
8.0
 40
9.0
 40
9.0
 40
9.0
 40
10.0
 40
10.0
 40
10.0
 40
11.0
 40
11.0
 40
11.0
 40
12.0
 40
12.0
 40
12.0
 40
13.0
 40
13.0
 40
13.0
 40
14.0
 40
14.0
 40
14.0
 40
15.0
 40
15.0
 40
15.0
 40
16.0
 40
16.0
 40
16.0
 40
17.0
 40
17.0
 40
17.0
 40
18.0
 40
18.0
 40
18.0
 40
18.0
 10
1.522025755393037
 20
0.0113795575802366
 30
0.0
 10
1.52027608091387
 20
0.0129122181705144
 30
0.0
 10
1.517359956781926
 20
0.0154824764170422
 30
0.0
 10
1.512422890809703
 20
0.0154824764170422
 30
0.0
 10
1.501422999316648
 20
0.0154824764170422
 30
0.0
 10
1.493651189420815
 20
0.0092365454274588
 30
0.0
 10
1.49207783872637
 20
-0.0018447262739301
 30
0.0
 10
1.49207783872637
 20
-0.0046455617774023
 30
0.0
 10
1.493461302268037
 20
-0.0072022566558745
 30
0.0
 10
1.494736258865259
 20
-0.0089654945030967
 30
0.0
 10
1.494736258865259
 20
-0.0089654945030967
 30
0.0
 10
1.495034652962481
 20
-0.0127496741905967
 30
0.0
 10
1.495034652962481
 20
-0.0127496741905967
 30
0.0
 10
1.495034652962481
 20
-0.0127496741905967
 30
0.0
 10
1.496689383865259
 20
-0.0145196937218467
 30
0.0
 10
1.496689383865259
 20
-0.0145196937218467
 30
0.0
 10
1.499578381261092
 20
-0.0176121416385134
 30
0.0
 10
1.50086690122637
 20
-0.0194364146419856
 30
0.0
 10
1.501260238899981
 20
-0.021104708912819
 30
0.0
 10
1.501260238899981
 20
-0.021104708912819
 30
0.0
 10
1.50062276060137
 20
-0.0235732418989301
 30
0.0
 10
1.50062276060137
 20
-0.0235732418989301
 30
0.0
 10
1.498886649490259
 20
-0.0359430335655967
 30
0.0
 10
1.491575994108315
 20
-0.0431180552669856
 30
0.0
 10
1.479409652962481
 20
-0.0514188365169856
 30
0.0
 10
1.475679726747203
 20
-0.0540365665517079
 30
0.0
 10
1.471027491504148
 20
-0.057298556569069
 30
0.0
 10
1.471027491504148
 20
-0.0628120656836523
 30
0.0
 10
1.471027491504148
 20
-0.0688002926801801
 30
0.0
 10
1.475422022754148
 20
-0.0733101125586523
 30
0.0
 10
1.481254271018037
 20
-0.0733101125586523
 30
0.0
 10
1.482271523622203
 20
-0.0733101125586523
 30
0.0
 10
1.485214774490259
 20
-0.0729981550933745
 30
0.0
 10
1.486978012337481
 20
-0.0724217119510134
 30
0.0
 10
1.486978012337481
 20
-0.0724217119510134
 30
0.0
 10
1.488469982823592
 20
-0.0717231984961523
 30
0.0
 10
1.488469982823592
 20
-0.0717231984961523
 30
0.0
 10
1.496513060080537
 20
-0.0667250973676801
 30
0.0
 10
1.50697041685137
 20
-0.0597603078711523
 30
0.0
 10
1.516505464594426
 20
-0.0502252601280967
 30
0.0
 10
1.522432656434703
 20
-0.044298068287819
 30
0.0
 10
1.531398042719426
 20
-0.0297174476280967
 30
0.0
 10
1.53138447935137
 20
-0.0217896589996245
 30
0.0
 10
1.53138447935137
 20
-0.0217896589996245
 30
0.0
 10
1.531723563552759
 20
-0.018297091725319
 30
0.0
 10
1.531723563552759
 20
-0.018297091725319
 30
0.0
 10
1.531981267545815
 20
-0.0159709741037912
 30
0.0
 10
1.532211844802759
 20
-0.0137533634267079
 30
0.0
 10
1.532211844802759
 20
-0.0114136824371245
 30
0.0
 10
1.532211844802759
 20
-0.0041708438954578
 30
0.0
 10
1.526664427268037
 20
0.0068358292816255
 30
0.0
 10
1.52308369810137
 20
0.0104369035003755
 30
0.0
 10
1.52308369810137
 20
0.0104369035003755
 30
0.0
 10
1.522025755393037
 20
0.0113795575802366
 30
0.0
 10
1.522025755393037
 20
0.0113795575802366
 30
0.0
  0
HATCH
  5
98
330
8B
100
AcDbEntity
  8
Milo's Baptism
 62
    18
420
        0
440
 33554687
100
AcDbHatch
 10
0.0
 20
0.0
 30
0.0
210
0.0
220
0.0
230
1.0
  2
SOLID
 70
     1
 71
     1
 91
        1
 92
        1
 93
        1
 72
     4
 94
        3
 73
     0
 74
     0
 95
       59
 96
       55
 40
0.0
 40
0.0
 40
0.0
 40
0.0
 40
1.0
 40
1.0
 40
1.0
 40
2.0
 40
2.0
 40
2.0
 40
3.0
 40
3.0
 40
3.0
 40
4.0
 40
4.0
 40
4.0
 40
5.0
 40
5.0
 40
5.0
 40
6.0
 40
6.0
 40
6.0
 40
7.0
 40
7.0
 40
7.0
 40
8.0
 40
8.0
 40
8.0
 40
9.0
 40
9.0
 40
9.0
 40
10.0
 40
10.0
 40
10.0
 40
11.0
 40
11.0
 40
11.0
 40
12.0
 40
12.0
 40
12.0
 40
13.0
 40
13.0
 40
13.0
 40
14.0
 40
14.0
 40
14.0
 40
15.0
 40
15.0
 40
15.0
 40
16.0
 40
16.0
 40
16.0
 40
17.0
 40
17.0
 40
17.0
 40
18.0
 40
18.0
 40
18.0
 40
18.0
 10
1.522025755393037
 20
0.0113795575802366
 10
1.52027608091387
 20
0.0129122181705144
 10
1.517359956781926
 20
0.0154824764170422
 10
1.512422890809703
 20
0.0154824764170422
 10
1.501422999316648
 20
0.0154824764170422
 10
1.493651189420815
 20
0.0092365454274588
 10
1.49207783872637
 20
-0.0018447262739301
 10
1.49207783872637
 20
-0.0046455617774023
 10
1.493461302268037
 20
-0.0072022566558745
 10
1.494736258865259
 20
-0.0089654945030967
 10
1.494736258865259
 20
-0.0089654945030967
 10
1.495034652962481
 20
-0.0127496741905967
 10
1.495034652962481
 20
-0.0127496741905967
 10
1.495034652962481
 20
-0.0127496741905967
 10
1.496689383865259
 20
-0.0145196937218467
 10
1.496689383865259
 20
-0.0145196937218467
 10
1.499578381261092
 20
-0.0176121416385134
 10
1.50086690122637
 20
-0.0194364146419856
 10
1.501260238899981
 20
-0.021104708912819
 10
1.501260238899981
 20
-0.021104708912819
 10
1.50062276060137
 20
-0.0235732418989301
 10
1.50062276060137
 20
-0.0235732418989301
 10
1.498886649490259
 20
-0.0359430335655967
 10
1.491575994108315
 20
-0.0431180552669856
 10
1.479409652962481
 20
-0.0514188365169856
 10
1.475679726747203
 20
-0.0540365665517079
 10
1.471027491504148
 20
-0.057298556569069
 10
1.471027491504148
 20
-0.0628120656836523
 10
1.471027491504148
 20
-0.0688002926801801
 10
1.475422022754148
 20
-0.0733101125586523
 10
1.481254271018037
 20
-0.0733101125586523
 10
1.482271523622203
 20
-0.0733101125586523
 10
1.485214774490259
 20
-0.0729981550933745
 10
1.486978012337481
 20
-0.0724217119510134
 10
1.486978012337481
 20
-0.0724217119510134
 10
1.488469982823592
 20
-0.0717231984961523
 10
1.488469982823592
 20
-0.0717231984961523
 10
1.496513060080537
 20
-0.0667250973676801
 10
1.50697041685137
 20
-0.0597603078711523
 10
1.516505464594426
 20
-0.0502252601280967
 10
1.522432656434703
 20
-0.044298068287819
 10
1.531398042719426
 20
-0.0297174476280967
 10
1.53138447935137
 20
-0.0217896589996245
 10
1.53138447935137
 20
-0.0217896589996245
 10
1.531723563552759
 20
-0.018297091725319
 10
1.531723563552759
 20
-0.018297091725319
 10
1.531981267545815
 20
-0.0159709741037912
 10
1.532211844802759
 20
-0.0137533634267079
 10
1.532211844802759
 20
-0.0114136824371245
 10
1.532211844802759
 20
-0.0041708438954578
 10
1.526664427268037
 20
0.0068358292816255
 10
1.52308369810137
 20
0.0104369035003755
 10
1.52308369810137
 20
0.0104369035003755
 10
1.522025755393037
 20
0.0113795575802366
 10
1.522025755393037
 20
0.0113795575802366
 97
        0
 97
        1
330
97
 75
     2
 76
     1
 98
        1
 10
0.0
 20
0.0
450
        0
451
        0
460
0.0
461
0.0
452
        0
462
0.0
453
        0
470

  0
SPLINE
  5
99
330
8B
100
AcDbEntity
  8
Milo's Baptism
100
AcDbSpline
210
0.0
220
0.0
230
1.0
 70
     9
 71
     3
 72
    83
 73
    79
 74
     0
 42
0.0000000001
 43
0.0000000001
 40
0.0
 40
0.0
 40
0.0
 40
0.0
 40
1.0
 40
1.0
 40
1.0
 40
2.0
 40
2.0
 40
2.0
 40
3.0
 40
3.0
 40
3.0
 40
4.0
 40
4.0
 40
4.0
 40
5.0
 40
5.0
 40
5.0
 40
6.0
 40
6.0
 40
6.0
 40
7.0
 40
7.0
 40
7.0
 40
8.0
 40
8.0
 40
8.0
 40
9.0
 40
9.0
 40
9.0
 40
10.0
 40
10.0
 40
10.0
 40
11.0
 40
11.0
 40
11.0
 40
12.0
 40
12.0
 40
12.0
 40
13.0
 40
13.0
 40
13.0
 40
14.0
 40
14.0
 40
14.0
 40
15.0
 40
15.0
 40
15.0
 40
16.0
 40
16.0
 40
16.0
 40
17.0
 40
17.0
 40
17.0
 40
18.0
 40
18.0
 40
18.0
 40
19.0
 40
19.0
 40
19.0
 40
20.0
 40
20.0
 40
20.0
 40
21.0
 40
21.0
 40
21.0
 40
22.0
 40
22.0
 40
22.0
 40
23.0
 40
23.0
 40
23.0
 40
24.0
 40
24.0
 40
24.0
 40
25.0
 40
25.0
 40
25.0
 40
26.0
 40
26.0
 40
26.0
 40
26.0
 10
1.728677231087481
 20
0.0047402889170422
 30
0.0
 10
1.72511006528887
 20
0.0071274416948199
 30
0.0
 10
1.719101493240259
 20
0.008924587962181
 30
0.0
 10
1.714693398622203
 20
0.008924587962181
 30
0.0
 10
1.711099106087481
 20
0.008924587962181
 30
0.0
 10
1.70789815122637
 20
0.0087686092295422
 30
0.0
 10
1.704887083518037
 20
0.008619412180931
 30
0.0
 10
1.702418550531926
 20
0.008497341868431
 30
0.0
 10
1.70008565122637
 20
0.008375271555931
 30
0.0
 10
1.697752751920814
 20
0.008375271555931
 30
0.0
 10
1.692707179004148
 20
0.008375271555931
 30
0.0
 10
1.685722044455537
 20
0.0078530818857922
 30
0.0
 10
1.677814600879148
 20
0.0067476673892644
 30
0.0
 10
1.680812105219426
 20
0.0087482641774588
 30
0.0
 10
1.684257200705537
 20
0.0110133466427366
 30
0.0
 10
1.687892183344426
 20
0.0134004994205144
 30
0.0
 10
1.69581319028887
 20
0.0185952693857922
 30
0.0
 10
1.705185477615259
 20
0.0249429256357922
 30
0.0
 10
1.714693398622203
 20
0.0326672637434311
 30
0.0
 10
1.735743745844426
 20
0.0497231990732922
 30
0.0
 10
1.745970525358314
 20
0.0664264868337088
 30
0.0
 10
1.745970525358314
 20
0.0837197811045422
 30
0.0
 10
1.745970525358314
 20
0.1177299265038477
 30
0.0
 10
1.715846284906926
 20
0.1177299265038477
 30
0.0
 10
1.70594502622637
 20
0.1177299265038477
 30
0.0
 10
1.688380464594426
 20
0.1177299265038477
 30
0.0
 10
1.66505147153887
 20
0.106580837962181
 30
0.0
 10
1.652627426399981
 20
0.0920815975107922
 30
0.0
 10
1.650375907302759
 20
0.0891926001149588
 30
0.0
 10
1.64515401060137
 20
0.0818683813649588
 30
0.0
 10
1.64515401060137
 20
0.0763413088823199
 30
0.0
 10
1.64515401060137
 20
0.0702513566253755
 30
0.0
 10
1.650226710254148
 20
0.0652939456010699
 30
0.0
 10
1.656465859559703
 20
0.0652939456010699
 30
0.0
 10
1.660751883865259
 20
0.0652939456010699
 30
0.0
 10
1.664780204177759
 20
0.0681490345767644
 30
0.0
 10
1.666529878656926
 20
0.0725435658267644
 30
0.0
 10
1.67091084653887
 20
0.0843030059309311
 30
0.0
 10
1.692802122580537
 20
0.0918103301496811
 30
0.0
 10
1.70594502622637
 20
0.0918103301496811
 30
0.0
 10
1.710515881261092
 20
0.0918103301496811
 30
0.0
 10
1.712943724143037
 20
0.0871106231184311
 30
0.0
 10
1.712943724143037
 20
0.0837197811045422
 30
0.0
 10
1.712943724143037
 20
0.0726927628753755
 30
0.0
 10
1.701903142545814
 20
0.0577323679100977
 30
0.0
 10
1.680201753656926
 20
0.0393133140906533
 30
0.0
 10
1.680201753656926
 20
0.0393133140906533
 30
0.0
 10
1.63709736997637
 20
0.0037162546288477
 30
0.0
 10
1.63709736997637
 20
0.0037162546288477
 30
0.0
 10
1.631861909906926
 20
0.0017563479448199
 30
0.0
 10
1.625460000184703
 20
-0.001268283131569
 30
0.0
 10
1.625460000184703
 20
-0.0114136824371245
 30
0.0
 10
1.625460000184703
 20
-0.0262045353017079
 30
0.0
 10
1.63782979185137
 20
-0.0266453447635134
 30
0.0
 10
1.643105942024981
 20
-0.0268284502322634
 30
0.0
 10
1.643105942024981
 20
-0.0268284502322634
 30
0.0
 10
1.644353771886092
 20
-0.0268759220204579
 30
0.0
 10
1.644353771886092
 20
-0.0268759220204579
 30
0.0
 10
1.644353771886092
 20
-0.0268759220204579
 30
0.0
 10
1.645547348274981
 20
-0.026475802662819
 30
0.0
 10
1.645547348274981
 20
-0.026475802662819
 30
0.0
 10
1.658052773622203
 20
-0.0223050669857356
 30
0.0
 10
1.661090968066648
 20
-0.0216404619510134
 30
0.0
 10
1.664359739768037
 20
-0.0216404619510134
 30
0.0
 10
1.665282048795814
 20
-0.021654025319069
 30
0.0
 10
1.669893593934703
 20
-0.0219185109961523
 30
0.0
 10
1.675997109559703
 20
-0.022264376881569
 30
0.0
 10
1.688841619108314
 20
-0.022996798756569
 30
0.0
 10
1.706162040115259
 20
-0.023973361256569
 30
0.0
 10
1.713201428136092
 20
-0.0240886498850412
 30
0.0
 10
1.716063298795814
 20
-0.0250448673329579
 30
0.0
 10
1.718681028830537
 20
-0.0254721134267079
 30
0.0
 10
1.721529336122203
 20
-0.0254721134267079
 30
0.0
 10
1.730616792719426
 20
-0.0254721134267079
 30
0.0
 10
1.738592053136092
 20
-0.0181411129926801
 30
0.0
 10
1.738592053136092
 20
-0.0097792965864301
 30
0.0
 10
1.738592053136092
 20
-0.0032756616037912
 30
0.0
 10
1.734590859559703
 20
0.0022242841427366
 30
0.0
 10
1.728677231087481
 20
0.0047402889170422
 30
0.0
  0
HATCH
  5
9A
330
8B
100
AcDbEntity
  8
Milo's Baptism
 62
    18
420
        0
440
 33554687
100
AcDbHatch
 10
0.0
 20
0.0
 30
0.0
210
0.0
220
0.0
230
1.0
  2
SOLID
 70
     1
 71
     1
 91
        1
 92
        1
 93
        1
 72
     4
 94
        3
 73
     0
 74
     0
 95
       83
 96
       79
 40
0.0
 40
0.0
 40
0.0
 40
0.0
 40
1.0
 40
1.0
 40
1.0
 40
2.0
 40
2.0
 40
2.0
 40
3.0
 40
3.0
 40
3.0
 40
4.0
 40
4.0
 40
4.0
 40
5.0
 40
5.0
 40
5.0
 40
6.0
 40
6.0
 40
6.0
 40
7.0
 40
7.0
 40
7.0
 40
8.0
 40
8.0
 40
8.0
 40
9.0
 40
9.0
 40
9.0
 40
10.0
 40
10.0
 40
10.0
 40
11.0
 40
11.0
 40
11.0
 40
12.0
 40
12.0
 40
12.0
 40
13.0
 40
13.0
 40
13.0
 40
14.0
 40
14.0
 40
14.0
 40
15.0
 40
15.0
 40
15.0
 40
16.0
 40
16.0
 40
16.0
 40
17.0
 40
17.0
 40
17.0
 40
18.0
 40
18.0
 40
18.0
 40
19.0
 40
19.0
 40
19.0
 40
20.0
 40
20.0
 40
20.0
 40
21.0
 40
21.0
 40
21.0
 40
22.0
 40
22.0
 40
22.0
 40
23.0
 40
23.0
 40
23.0
 40
24.0
 40
24.0
 40
24.0
 40
25.0
 40
25.0
 40
25.0
 40
26.0
 40
26.0
 40
26.0
 40
26.0
 10
1.728677231087481
 20
0.0047402889170422
 10
1.72511006528887
 20
0.0071274416948199
 10
1.719101493240259
 20
0.008924587962181
 10
1.714693398622203
 20
0.008924587962181
 10
1.711099106087481
 20
0.008924587962181
 10
1.70789815122637
 20
0.0087686092295422
 10
1.704887083518037
 20
0.008619412180931
 10
1.702418550531926
 20
0.008497341868431
 10
1.70008565122637
 20
0.008375271555931
 10
1.697752751920814
 20
0.008375271555931
 10
1.692707179004148
 20
0.008375271555931
 10
1.685722044455537
 20
0.0078530818857922
 10
1.677814600879148
 20
0.0067476673892644
 10
1.680812105219426
 20
0.0087482641774588
 10
1.684257200705537
 20
0.0110133466427366
 10
1.687892183344426
 20
0.0134004994205144
 10
1.69581319028887
 20
0.0185952693857922
 10
1.705185477615259
 20
0.0249429256357922
 10
1.714693398622203
 20
0.0326672637434311
 10
1.735743745844426
 20
0.0497231990732922
 10
1.745970525358314
 20
0.0664264868337088
 10
1.745970525358314
 20
0.0837197811045422
 10
1.745970525358314
 20
0.1177299265038477
 10
1.715846284906926
 20
0.1177299265038477
 10
1.70594502622637
 20
0.1177299265038477
 10
1.688380464594426
 20
0.1177299265038477
 10
1.66505147153887
 20
0.106580837962181
 10
1.652627426399981
 20
0.0920815975107922
 10
1.650375907302759
 20
0.0891926001149588
 10
1.64515401060137
 20
0.0818683813649588
 10
1.64515401060137
 20
0.0763413088823199
 10
1.64515401060137
 20
0.0702513566253755
 10
1.650226710254148
 20
0.0652939456010699
 10
1.656465859559703
 20
0.0652939456010699
 10
1.660751883865259
 20
0.0652939456010699
 10
1.664780204177759
 20
0.0681490345767644
 10
1.666529878656926
 20
0.0725435658267644
 10
1.67091084653887
 20
0.0843030059309311
 10
1.692802122580537
 20
0.0918103301496811
 10
1.70594502622637
 20
0.0918103301496811
 10
1.710515881261092
 20
0.0918103301496811
 10
1.712943724143037
 20
0.0871106231184311
 10
1.712943724143037
 20
0.0837197811045422
 10
1.712943724143037
 20
0.0726927628753755
 10
1.701903142545814
 20
0.0577323679100977
 10
1.680201753656926
 20
0.0393133140906533
 10
1.680201753656926
 20
0.0393133140906533
 10
1.63709736997637
 20
0.0037162546288477
 10
1.63709736997637
 20
0.0037162546288477
 10
1.631861909906926
 20
0.0017563479448199
 10
1.625460000184703
 20
-0.001268283131569
 10
1.625460000184703
 20
-0.0114136824371245
 10
1.625460000184703
 20
-0.0262045353017079
 10
1.63782979185137
 20
-0.0266453447635134
 10
1.643105942024981
 20
-0.0268284502322634
 10
1.643105942024981
 20
-0.0268284502322634
 10
1.644353771886092
 20
-0.0268759220204579
 10
1.644353771886092
 20
-0.0268759220204579
 10
1.644353771886092
 20
-0.0268759220204579
 10
1.645547348274981
 20
-0.026475802662819
 10
1.645547348274981
 20
-0.026475802662819
 10
1.658052773622203
 20
-0.0223050669857356
 10
1.661090968066648
 20
-0.0216404619510134
 10
1.664359739768037
 20
-0.0216404619510134
 10
1.665282048795814
 20
-0.021654025319069
 10
1.669893593934703
 20
-0.0219185109961523
 10
1.675997109559703
 20
-0.022264376881569
 10
1.688841619108314
 20
-0.022996798756569
 10
1.706162040115259
 20
-0.023973361256569
 10
1.713201428136092
 20
-0.0240886498850412
 10
1.716063298795814
 20
-0.0250448673329579
 10
1.718681028830537
 20
-0.0254721134267079
 10
1.721529336122203
 20
-0.0254721134267079
 10
1.730616792719426
 20
-0.0254721134267079
 10
1.738592053136092
 20
-0.0181411129926801
 10
1.738592053136092
 20
-0.0097792965864301
 10
1.738592053136092
 20
-0.0032756616037912
 10
1.734590859559703
 20
0.0022242841427366
 10
1.728677231087481
 20
0.0047402889170422
 97
        0
 97
        1
330
99
 75
     2
 76
     1
 98
        1
 10
0.0
 20
0.0
450
        0
451
        0
460
0.0
461
0.0
452
        0
462
0.0
453
        0
470

  0
SPLINE
  5
9B
330
8B
100
AcDbEntity
  8
Milo's Baptism
100
AcDbSpline
210
0.0
220
0.0
230
1.0
 70
     9
 71
     3
 72
    62
 73
    58
 74
     0
 42
0.0000000001
 43
0.0000000001
 40
0.0
 40
0.0
 40
0.0
 40
0.0
 40
1.0
 40
1.0
 40
1.0
 40
2.0
 40
2.0
 40
2.0
 40
3.0
 40
3.0
 40
3.0
 40
4.0
 40
4.0
 40
4.0
 40
5.0
 40
5.0
 40
5.0
 40
6.0
 40
6.0
 40
6.0
 40
7.0
 40
7.0
 40
7.0
 40
8.0
 40
8.0
 40
8.0
 40
9.0
 40
9.0
 40
9.0
 40
10.0
 40
10.0
 40
10.0
 40
11.0
 40
11.0
 40
11.0
 40
12.0
 40
12.0
 40
12.0
 40
13.0
 40
13.0
 40
13.0
 40
14.0
 40
14.0
 40
14.0
 40
15.0
 40
15.0
 40
15.0
 40
16.0
 40
16.0
 40
16.0
 40
17.0
 40
17.0
 40
17.0
 40
18.0
 40
18.0
 40
18.0
 40
19.0
 40
19.0
 40
19.0
 40
19.0
 10
1.772391966330537
 20
0.0139701608788477
 30
0.0
 10
1.77271748716387
 20
0.0159097225107922
 30
0.0
 10
1.773029444629148
 20
0.0181612416080144
 30
0.0
 10
1.773029444629148
 20
0.0213893232052366
 30
0.0
 10
1.773029444629148
 20
0.0269774308441255
 30
0.0
 10
1.774440034906926
 20
0.0331080732052366
 30
0.0
 10
1.77735615903887
 20
0.0404322919552366
 30
0.0
 10
1.778400538379148
 20
0.0427787546288477
 30
0.0
 10
1.781533676399981
 20
0.0493095163475977
 30
0.0
 10
1.782917139941648
 20
0.0518187394378755
 30
0.0
 10
1.782917139941648
 20
0.0518187394378755
 30
0.0
 10
1.787067530566648
 20
0.0598482533267644
 30
0.0
 10
1.787067530566648
 20
0.0598482533267644
 30
0.0
 10
1.791380681608314
 20
0.0684881187781533
 30
0.0
 10
1.798813407302759
 20
0.0749442819725977
 30
0.0
 10
1.804659218934703
 20
0.0795015736392644
 30
0.0
 10
1.804659218934703
 20
0.0795015736392644
 30
0.0
 10
1.820596176399981
 20
0.0912677954274588
 30
0.0
 10
1.820596176399981
 20
0.0912677954274588
 30
0.0
 10
1.820596176399981
 20
0.0912677954274588
 30
0.0
 10
1.827879705045814
 20
0.0912677954274588
 30
0.0
 10
1.827879705045814
 20
0.0912677954274588
 30
0.0
 10
1.831473997580537
 20
0.0896944447330144
 30
0.0
 10
1.831867335254148
 20
0.0880193687781533
 30
0.0
 10
1.831867335254148
 20
0.0796236439517644
 30
0.0
 10
1.831867335254148
 20
0.0762938370941255
 30
0.0
 10
1.832179292719425
 20
0.0740490996809311
 30
0.0
 10
1.832450560080537
 20
0.0721909182573199
 30
0.0
 10
1.832559067024981
 20
0.0714110245941255
 30
0.0
 10
1.832681137337481
 20
0.0707532012434311
 30
0.0
 10
1.832681137337481
 20
0.0700546877885699
 30
0.0
 10
1.832681137337481
 20
0.0681219078406533
 30
0.0
 10
1.831528251052759
 20
0.0638291018510699
 30
0.0
 10
1.829249605219425
 20
0.0573051218163477
 30
0.0
 10
1.829249605219425
 20
0.0573051218163477
 30
0.0
 10
1.829208915115259
 20
0.0572033965559311
 30
0.0
 10
1.829208915115259
 20
0.0572033965559311
 30
0.0
 10
1.826753945497203
 20
0.0498181426496811
 30
0.0
 10
1.825004271018037
 20
0.0451591257225977
 30
0.0
 10
1.823661497580537
 20
0.0426634660003755
 30
0.0
 10
1.823661497580537
 20
0.0426634660003755
 30
0.0
 10
1.816513602615259
 20
0.0256617841427366
 30
0.0
 10
1.816513602615259
 20
0.0256617841427366
 30
0.0
 10
1.813950126052759
 20
0.0205619577538477
 30
0.0
 10
1.811427339594425
 20
0.0154824764170422
 30
0.0
 10
1.808999496712481
 20
0.0116033531531533
 30
0.0
 10
1.804523585254148
 20
0.0049844295420422
 30
0.0
 10
1.798243745844426
 20
-0.0013157549197634
 30
0.0
 10
1.782740816156926
 20
-0.0025771481489301
 30
0.0
 10
1.782740816156926
 20
-0.0025771481489301
 30
0.0
 10
1.781289535774981
 20
-0.0026992184614301
 30
0.0
 10
1.781289535774981
 20
-0.0026992184614301
 30
0.0
 10
1.775728554872203
 20
0.001905544993431
 30
0.0
 10
1.772215642545814
 20
0.0071003149587088
 30
0.0
 10
1.772215642545814
 20
0.0109997832746811
 30
0.0
 10
1.772215642545814
 20
0.0119899091427366
 30
0.0
 10
1.772202079177759
 20
0.0127833661739866
 30
0.0
 10
1.772391966330537
 20
0.0139701608788477
 30
0.0
  0
SPLINE
  5
9C
330
8B
100
AcDbEntity
  8
Milo's Baptism
100
AcDbSpline
210
0.0
220
0.0
230
1.0
 70
     9
 71
     3
 72
    59
 73
    55
 74
     0
 42
0.0000000001
 43
0.0000000001
 40
0.0
 40
0.0
 40
0.0
 40
0.0
 40
1.0
 40
1.0
 40
1.0
 40
2.0
 40
2.0
 40
2.0
 40
3.0
 40
3.0
 40
3.0
 40
4.0
 40
4.0
 40
4.0
 40
5.0
 40
5.0
 40
5.0
 40
6.0
 40
6.0
 40
6.0
 40
7.0
 40
7.0
 40
7.0
 40
8.0
 40
8.0
 40
8.0
 40
9.0
 40
9.0
 40
9.0
 40
10.0
 40
10.0
 40
10.0
 40
11.0
 40
11.0
 40
11.0
 40
12.0
 40
12.0
 40
12.0
 40
13.0
 40
13.0
 40
13.0
 40
14.0
 40
14.0
 40
14.0
 40
15.0
 40
15.0
 40
15.0
 40
16.0
 40
16.0
 40
16.0
 40
17.0
 40
17.0
 40
17.0
 40
18.0
 40
18.0
 40
18.0
 40
18.0
 10
1.858872001052759
 20
0.0618488501149588
 30
0.0
 10
1.858872001052759
 20
0.0944416235524588
 30
0.0
 10
1.847288884733314
 20
0.113905056712181
 30
0.0
 10
1.827879705045814
 20
0.113905056712181
 30
0.0
 10
1.827364297059703
 20
0.113905056712181
 30
0.0
 10
1.826618311816648
 20
0.1138508032399588
 30
0.0
 10
1.82484151060137
 20
0.1136812611392644
 30
0.0
 10
1.82142354185137
 20
0.1176621096635699
 30
0.0
 10
1.816337278830537
 20
0.120191677805931
 30
0.0
 10
1.811196762337481
 20
0.120191677805931
 30
0.0
 10
1.807222695497203
 20
0.120191677805931
 30
0.0
 10
1.804767725879148
 20
0.1177299265038477
 30
0.0
 10
1.803411389073592
 20
0.1163328995941255
 30
0.0
 10
1.80274678403887
 20
0.1155394425628755
 30
0.0
 10
1.802204249316648
 20
0.1150579429969033
 30
0.0
 10
1.80189229185137
 20
0.1148070206878755
 30
0.0
 10
1.799355942024981
 20
0.1127521704274588
 30
0.0
 10
1.797117986295814
 20
0.1112941083614866
 30
0.0
 10
1.79383565122637
 20
0.1091375328406533
 30
0.0
 10
1.791651948969426
 20
0.1076998158267644
 30
0.0
 10
1.789047782302759
 20
0.1059840497677366
 30
0.0
 10
1.786118094802759
 20
0.1039495445594033
 30
0.0
 10
1.779892508865259
 20
0.1003349069725977
 30
0.0
 10
1.774358654698592
 20
0.0955199113128755
 30
0.0
 10
1.769136757997203
 20
0.0891451283267644
 30
0.0
 10
1.754000039247203
 20
0.0701631947330144
 30
0.0
 10
1.743841076573592
 20
0.0429347333614866
 30
0.0
 10
1.743841076573592
 20
0.0213893232052366
 30
0.0
 10
1.743841076573592
 20
0.0159436309309311
 30
0.0
 10
1.746201102615259
 20
0.0115965714691255
 30
0.0
 10
1.748099974143037
 20
0.0080972225107922
 30
0.0
 10
1.749198606955537
 20
0.0060966257225977
 30
0.0
 10
1.750229422927759
 20
0.0041977541948199
 30
0.0
 10
1.750392183344426
 20
0.0038925784135699
 30
0.0
 10
1.750392183344426
 20
0.0038925784135699
 30
0.0
 10
1.750392183344426
 20
-0.0002103404232356
 30
0.0
 10
1.750392183344426
 20
-0.0002103404232356
 30
0.0
 10
1.750392183344426
 20
-0.0002103404232356
 30
0.0
 10
1.750785521018037
 20
-0.0025228946767078
 30
0.0
 10
1.750785521018037
 20
-0.0025228946767078
 30
0.0
 10
1.752874279698592
 20
-0.0084161780968467
 30
0.0
 10
1.758598021018037
 20
-0.0160048825239301
 30
0.0
 10
1.765556028830537
 20
-0.0220134545725412
 30
0.0
 10
1.773788993240259
 20
-0.0286595049197634
 30
0.0
 10
1.781343789247203
 20
-0.0317587345204579
 30
0.0
 10
1.789332613031926
 20
-0.0317587345204579
 30
0.0
 10
1.798609956781926
 20
-0.0317587345204579
 30
0.0
 10
1.806992118240259
 20
-0.0276286889475412
 30
0.0
 10
1.814655421191648
 20
-0.023179904225319
 30
0.0
 10
1.835298867372203
 20
-0.0113458655968467
 30
0.0
 10
1.845023802268037
 20
0.008680447337181
 30
0.0
 10
1.853880681608314
 20
0.0297307945594033
 30
0.0
 10
1.857013819629148
 20
0.0366209855316255
 30
0.0
 10
1.858872001052759
 20
0.0486313479448199
 30
0.0
 10
1.858872001052759
 20
0.0618488501149588
 30
0.0
  0
HATCH
  5
9D
330
8B
100
AcDbEntity
  8
Milo's Baptism
 62
    18
420
        0
440
 33554687
100
AcDbHatch
 10
0.0
 20
0.0
 30
0.0
210
0.0
220
0.0
230
1.0
  2
SOLID
 70
     1
 71
     1
 91
        2
 92
        1
 93
        1
 72
     4
 94
        3
 73
     0
 74
     0
 95
       62
 96
       58
 40
0.0
 40
0.0
 40
0.0
 40
0.0
 40
1.0
 40
1.0
 40
1.0
 40
2.0
 40
2.0
 40
2.0
 40
3.0
 40
3.0
 40
3.0
 40
4.0
 40
4.0
 40
4.0
 40
5.0
 40
5.0
 40
5.0
 40
6.0
 40
6.0
 40
6.0
 40
7.0
 40
7.0
 40
7.0
 40
8.0
 40
8.0
 40
8.0
 40
9.0
 40
9.0
 40
9.0
 40
10.0
 40
10.0
 40
10.0
 40
11.0
 40
11.0
 40
11.0
 40
12.0
 40
12.0
 40
12.0
 40
13.0
 40
13.0
 40
13.0
 40
14.0
 40
14.0
 40
14.0
 40
15.0
 40
15.0
 40
15.0
 40
16.0
 40
16.0
 40
16.0
 40
17.0
 40
17.0
 40
17.0
 40
18.0
 40
18.0
 40
18.0
 40
19.0
 40
19.0
 40
19.0
 40
19.0
 10
1.772391966330537
 20
0.0139701608788477
 10
1.77271748716387
 20
0.0159097225107922
 10
1.773029444629148
 20
0.0181612416080144
 10
1.773029444629148
 20
0.0213893232052366
 10
1.773029444629148
 20
0.0269774308441255
 10
1.774440034906926
 20
0.0331080732052366
 10
1.77735615903887
 20
0.0404322919552366
 10
1.778400538379148
 20
0.0427787546288477
 10
1.781533676399981
 20
0.0493095163475977
 10
1.782917139941648
 20
0.0518187394378755
 10
1.782917139941648
 20
0.0518187394378755
 10
1.787067530566648
 20
0.0598482533267644
 10
1.787067530566648
 20
0.0598482533267644
 10
1.791380681608314
 20
0.0684881187781533
 10
1.798813407302759
 20
0.0749442819725977
 10
1.804659218934703
 20
0.0795015736392644
 10
1.804659218934703
 20
0.0795015736392644
 10
1.820596176399981
 20
0.0912677954274588
 10
1.820596176399981
 20
0.0912677954274588
 10
1.820596176399981
 20
0.0912677954274588
 10
1.827879705045814
 20
0.0912677954274588
 10
1.827879705045814
 20
0.0912677954274588
 10
1.831473997580537
 20
0.0896944447330144
 10
1.831867335254148
 20
0.0880193687781533
 10
1.831867335254148
 20
0.0796236439517644
 10
1.831867335254148
 20
0.0762938370941255
 10
1.832179292719425
 20
0.0740490996809311
 10
1.832450560080537
 20
0.0721909182573199
 10
1.832559067024981
 20
0.0714110245941255
 10
1.832681137337481
 20
0.0707532012434311
 10
1.832681137337481
 20
0.0700546877885699
 10
1.832681137337481
 20
0.0681219078406533
 10
1.831528251052759
 20
0.0638291018510699
 10
1.829249605219425
 20
0.0573051218163477
 10
1.829249605219425
 20
0.0573051218163477
 10
1.829208915115259
 20
0.0572033965559311
 10
1.829208915115259
 20
0.0572033965559311
 10
1.826753945497203
 20
0.0498181426496811
 10
1.825004271018037
 20
0.0451591257225977
 10
1.823661497580537
 20
0.0426634660003755
 10
1.823661497580537
 20
0.0426634660003755
 10
1.816513602615259
 20
0.0256617841427366
 10
1.816513602615259
 20
0.0256617841427366
 10
1.813950126052759
 20
0.0205619577538477
 10
1.811427339594425
 20
0.0154824764170422
 10
1.808999496712481
 20
0.0116033531531533
 10
1.804523585254148
 20
0.0049844295420422
 10
1.798243745844426
 20
-0.0013157549197634
 10
1.782740816156926
 20
-0.0025771481489301
 10
1.782740816156926
 20
-0.0025771481489301
 10
1.781289535774981
 20
-0.0026992184614301
 10
1.781289535774981
 20
-0.0026992184614301
 10
1.775728554872203
 20
0.001905544993431
 10
1.772215642545814
 20
0.0071003149587088
 10
1.772215642545814
 20
0.0109997832746811
 10
1.772215642545814
 20
0.0119899091427366
 10
1.772202079177759
 20
0.0127833661739866
 10
1.772391966330537
 20
0.0139701608788477
 97
        0
 97
        1
330
9B
 92
        1
 93
        1
 72
     4
 94
        3
 73
     0
 74
     0
 95
       59
 96
       55
 40
0.0
 40
0.0
 40
0.0
 40
0.0
 40
1.0
 40
1.0
 40
1.0
 40
2.0
 40
2.0
 40
2.0
 40
3.0
 40
3.0
 40
3.0
 40
4.0
 40
4.0
 40
4.0
 40
5.0
 40
5.0
 40
5.0
 40
6.0
 40
6.0
 40
6.0
 40
7.0
 40
7.0
 40
7.0
 40
8.0
 40
8.0
 40
8.0
 40
9.0
 40
9.0
 40
9.0
 40
10.0
 40
10.0
 40
10.0
 40
11.0
 40
11.0
 40
11.0
 40
12.0
 40
12.0
 40
12.0
 40
13.0
 40
13.0
 40
13.0
 40
14.0
 40
14.0
 40
14.0
 40
15.0
 40
15.0
 40
15.0
 40
16.0
 40
16.0
 40
16.0
 40
17.0
 40
17.0
 40
17.0
 40
18.0
 40
18.0
 40
18.0
 40
18.0
 10
1.858872001052759
 20
0.0618488501149588
 10
1.858872001052759
 20
0.0944416235524588
 10
1.847288884733314
 20
0.113905056712181
 10
1.827879705045814
 20
0.113905056712181
 10
1.827364297059703
 20
0.113905056712181
 10
1.826618311816648
 20
0.1138508032399588
 10
1.82484151060137
 20
0.1136812611392644
 10
1.82142354185137
 20
0.1176621096635699
 10
1.816337278830537
 20
0.120191677805931
 10
1.811196762337481
 20
0.120191677805931
 10
1.807222695497203
 20
0.120191677805931
 10
1.804767725879148
 20
0.1177299265038477
 10
1.803411389073592
 20
0.1163328995941255
 10
1.80274678403887
 20
0.1155394425628755
 10
1.802204249316648
 20
0.1150579429969033
 10
1.80189229185137
 20
0.1148070206878755
 10
1.799355942024981
 20
0.1127521704274588
 10
1.797117986295814
 20
0.1112941083614866
 10
1.79383565122637
 20
0.1091375328406533
 10
1.791651948969426
 20
0.1076998158267644
 10
1.789047782302759
 20
0.1059840497677366
 10
1.786118094802759
 20
0.1039495445594033
 10
1.779892508865259
 20
0.1003349069725977
 10
1.774358654698592
 20
0.0955199113128755
 10
1.769136757997203
 20
0.0891451283267644
 10
1.754000039247203
 20
0.0701631947330144
 10
1.743841076573592
 20
0.0429347333614866
 10
1.743841076573592
 20
0.0213893232052366
 10
1.743841076573592
 20
0.0159436309309311
 10
1.746201102615259
 20
0.0115965714691255
 10
1.748099974143037
 20
0.0080972225107922
 10
1.749198606955537
 20
0.0060966257225977
 10
1.750229422927759
 20
0.0041977541948199
 10
1.750392183344426
 20
0.0038925784135699
 10
1.750392183344426
 20
0.0038925784135699
 10
1.750392183344426
 20
-0.0002103404232356
 10
1.750392183344426
 20
-0.0002103404232356
 10
1.750392183344426
 20
-0.0002103404232356
 10
1.750785521018037
 20
-0.0025228946767078
 10
1.750785521018037
 20
-0.0025228946767078
 10
1.752874279698592
 20
-0.0084161780968467
 10
1.758598021018037
 20
-0.0160048825239301
 10
1.765556028830537
 20
-0.0220134545725412
 10
1.773788993240259
 20
-0.0286595049197634
 10
1.781343789247203
 20
-0.0317587345204579
 10
1.789332613031926
 20
-0.0317587345204579
 10
1.798609956781926
 20
-0.0317587345204579
 10
1.806992118240259
 20
-0.0276286889475412
 10
1.814655421191648
 20
-0.023179904225319
 10
1.835298867372203
 20
-0.0113458655968467
 10
1.845023802268037
 20
0.008680447337181
 10
1.853880681608314
 20
0.0297307945594033
 10
1.857013819629148
 20
0.0366209855316255
 10
1.858872001052759
 20
0.0486313479448199
 10
1.858872001052759
 20
0.0618488501149588
 97
        0
 97
        1
330
9C
 75
     2
 76
     1
 98
        1
 10
0.0
 20
0.0
450
        0
451
        0
460
0.0
461
0.0
452
        0
462
0.0
453
        0
470

  0
SPLINE
  5
9E
330
8B
100
AcDbEntity
  8
Milo's Baptism
100
AcDbSpline
210
0.0
220
0.0
230
1.0
 70
     9
 71
     3
 72
    32
 73
    28
 74
     0
 42
0.0000000001
 43
0.0000000001
 40
0.0
 40
0.0
 40
0.0
 40
0.0
 40
1.0
 40
1.0
 40
1.0
 40
2.0
 40
2.0
 40
2.0
 40
3.0
 40
3.0
 40
3.0
 40
4.0
 40
4.0
 40
4.0
 40
5.0
 40
5.0
 40
5.0
 40
6.0
 40
6.0
 40
6.0
 40
7.0
 40
7.0
 40
7.0
 40
8.0
 40
8.0
 40
8.0
 40
9.0
 40
9.0
 40
9.0
 40
9.0
 10
2.01136494810137
 20
0.0292357316253755
 30
0.0
 10
2.01136494810137
 20
0.0292357316253755
 30
0.0
 10
2.022297022754148
 20
0.0437281903927366
 30
0.0
 10
2.022297022754148
 20
0.0437281903927366
 30
0.0
 10
2.027410412511092
 20
0.0505098744205144
 30
0.0
 10
2.033161280566648
 20
0.0567354603580144
 30
0.0
 10
2.039061345670814
 20
0.0626626521982922
 30
0.0
 10
2.032686562684703
 20
0.0453964846635699
 30
0.0
 10
2.02576924497637
 20
0.0275538739864866
 30
0.0
 10
2.019136757997203
 20
0.0125460072330144
 30
0.0
 10
2.01759053403887
 20
0.01231542997607
 30
0.0
 10
2.016139253656926
 20
0.0120441626149588
 30
0.0
 10
2.014728663379148
 20
0.0117796769378755
 30
0.0
 10
2.014728663379148
 20
0.0117796769378755
 30
0.0
 10
2.012911172059703
 20
0.0114473744205144
 30
0.0
 10
2.012911172059703
 20
0.0114473744205144
 30
0.0
 10
2.012911172059703
 20
0.0114473744205144
 30
0.0
 10
2.008001232823592
 20
0.0119288739864866
 30
0.0
 10
2.008001232823592
 20
0.0119288739864866
 30
0.0
 10
2.003932222406926
 20
0.0119288739864866
 30
0.0
 10
2.000934718066648
 20
0.01164404325732
 30
0.0
 10
1.998398368240259
 20
0.0113931209482922
 30
0.0
 10
1.997516749316648
 20
0.0113049590559311
 30
0.0
 10
1.996689383865259
 20
0.0112235788475977
 30
0.0
 10
1.995902708518037
 20
0.0111693253753755
 30
0.0
 10
2.000460000184703
 20
0.0156723635698199
 30
0.0
 10
2.005478446365259
 20
0.0217351890906533
 30
0.0
 10
2.01136494810137
 20
0.0292357316253755
 30
0.0
  0
SPLINE
  5
9F
330
8B
100
AcDbEntity
  8
Milo's Baptism
100
AcDbSpline
210
0.0
220
0.0
230
1.0
 70
     9
 71
     3
 72
   218
 73
   214
 74
     0
 42
0.0000000001
 43
0.0000000001
 40
0.0
 40
0.0
 40
0.0
 40
0.0
 40
1.0
 40
1.0
 40
1.0
 40
2.0
 40
2.0
 40
2.0
 40
3.0
 40
3.0
 40
3.0
 40
4.0
 40
4.0
 40
4.0
 40
5.0
 40
5.0
 40
5.0
 40
6.0
 40
6.0
 40
6.0
 40
7.0
 40
7.0
 40
7.0
 40
8.0
 40
8.0
 40
8.0
 40
9.0
 40
9.0
 40
9.0
 40
10.0
 40
10.0
 40
10.0
 40
11.0
 40
11.0
 40
11.0
 40
12.0
 40
12.0
 40
12.0
 40
13.0
 40
13.0
 40
13.0
 40
14.0
 40
14.0
 40
14.0
 40
15.0
 40
15.0
 40
15.0
 40
16.0
 40
16.0
 40
16.0
 40
17.0
 40
17.0
 40
17.0
 40
18.0
 40
18.0
 40
18.0
 40
19.0
 40
19.0
 40
19.0
 40
20.0
 40
20.0
 40
20.0
 40
21.0
 40
21.0
 40
21.0
 40
22.0
 40
22.0
 40
22.0
 40
23.0
 40
23.0
 40
23.0
 40
24.0
 40
24.0
 40
24.0
 40
25.0
 40
25.0
 40
25.0
 40
26.0
 40
26.0
 40
26.0
 40
27.0
 40
27.0
 40
27.0
 40
28.0
 40
28.0
 40
28.0
 40
29.0
 40
29.0
 40
29.0
 40
30.0
 40
30.0
 40
30.0
 40
31.0
 40
31.0
 40
31.0
 40
32.0
 40
32.0
 40
32.0
 40
33.0
 40
33.0
 40
33.0
 40
34.0
 40
34.0
 40
34.0
 40
35.0
 40
35.0
 40
35.0
 40
36.0
 40
36.0
 40
36.0
 40
37.0
 40
37.0
 40
37.0
 40
38.0
 40
38.0
 40
38.0
 40
39.0
 40
39.0
 40
39.0
 40
40.0
 40
40.0
 40
40.0
 40
41.0
 40
41.0
 40
41.0
 40
42.0
 40
42.0
 40
42.0
 40
43.0
 40
43.0
 40
43.0
 40
44.0
 40
44.0
 40
44.0
 40
45.0
 40
45.0
 40
45.0
 40
46.0
 40
46.0
 40
46.0
 40
47.0
 40
47.0
 40
47.0
 40
48.0
 40
48.0
 40
48.0
 40
49.0
 40
49.0
 40
49.0
 40
50.0
 40
50.0
 40
50.0
 40
51.0
 40
51.0
 40
51.0
 40
52.0
 40
52.0
 40
52.0
 40
53.0
 40
53.0
 40
53.0
 40
54.0
 40
54.0
 40
54.0
 40
55.0
 40
55.0
 40
55.0
 40
56.0
 40
56.0
 40
56.0
 40
57.0
 40
57.0
 40
57.0
 40
58.0
 40
58.0
 40
58.0
 40
59.0
 40
59.0
 40
59.0
 40
60.0
 40
60.0
 40
60.0
 40
61.0
 40
61.0
 40
61.0
 40
62.0
 40
62.0
 40
62.0
 40
63.0
 40
63.0
 40
63.0
 40
64.0
 40
64.0
 40
64.0
 40
65.0
 40
65.0
 40
65.0
 40
66.0
 40
66.0
 40
66.0
 40
67.0
 40
67.0
 40
67.0
 40
68.0
 40
68.0
 40
68.0
 40
69.0
 40
69.0
 40
69.0
 40
70.0
 40
70.0
 40
70.0
 40
71.0
 40
71.0
 40
71.0
 40
71.0
 10
2.075099214594426
 20
0.0722926435177366
 30
0.0
 10
2.075899453309703
 20
0.0751409508094033
 30
0.0
 10
2.076604748448592
 20
0.0779824764170422
 30
0.0
 10
2.077269353483314
 20
0.0806002064517644
 30
0.0
 10
2.078110282302759
 20
0.0839435766774588
 30
0.0
 10
2.079263168587481
 20
0.0885212133962088
 30
0.0
 10
2.080036280566648
 20
0.0901216908267644
 30
0.0
 10
2.080673758865259
 20
0.0916950415212088
 30
0.0
 10
2.085610824837481
 20
0.1064791127017644
 30
0.0
 10
2.087265555740259
 20
0.1145493166948199
 30
0.0
 10
2.088337061816648
 20
0.1161837025455144
 30
0.0
 10
2.089571328309703
 20
0.1185640736392644
 30
0.0
 10
2.089571328309703
 20
0.1209037546288477
 30
0.0
 10
2.089571328309703
 20
0.1268919816253755
 30
0.0
 10
2.083698389941648
 20
0.132764919993431
 30
0.0
 10
2.077716944629148
 20
0.132764919993431
 30
0.0
 10
2.070881007129148
 20
0.132764919993431
 30
0.0
 10
2.064085759733314
 20
0.1228094078406533
 30
0.0
 10
2.063882309212481
 20
0.1225042320594033
 30
0.0
 10
2.061929184212481
 20
0.1198051218163477
 30
0.0
 10
2.060586410774981
 20
0.1181503909135699
 30
0.0
 10
2.059596284906926
 20
0.1169296877885699
 30
0.0
 10
2.058673975879148
 20
0.115797146555931
 30
0.0
 10
2.058009370844426
 20
0.1149494360524588
 30
0.0
 10
2.057860173795814
 20
0.1146510419552366
 30
0.0
 10
2.057860173795814
 20
0.1146510419552366
 30
0.0
 10
2.055879922059703
 20
0.1122435441253755
 30
0.0
 10
2.055879922059703
 20
0.1122435441253755
 30
0.0
 10
2.05299092466387
 20
0.1086899416948199
 30
0.0
 10
2.049030421191648
 20
0.1038274742469033
 30
0.0
 10
2.047524887337481
 20
0.1025592993337088
 30
0.0
 10
2.043198172927759
 20
0.0995685766774588
 30
0.0
 10
2.040241358691648
 20
0.09623876981982
 30
0.0
 10
2.038356050531926
 20
0.09410253935107
 30
0.0
 10
2.03736592466387
 20
0.0931124134830144
 30
0.0
 10
2.036375798795814
 20
0.0920476890906533
 30
0.0
 10
2.035399236295814
 20
0.0910168731184311
 30
0.0
 10
2.033961519281926
 20
0.0894774308441255
 30
0.0
 10
2.032618745844426
 20
0.0879718969899588
 30
0.0
 10
2.031723563552759
 20
0.0872869469031533
 30
0.0
 10
2.022514036643037
 20
0.0810477975975977
 30
0.0
 10
1.966185369108314
 20
0.0215181752017644
 30
0.0
 10
1.95606709653887
 20
0.0083820532399588
 30
0.0
 10
1.9547073688913
 20
0.007400404476938
 30
0.0
 10
1.953360356901283
 20
0.0062729495073199
 30
0.0
 10
1.952355819954669
 20
0.0047046850758963
 30
0.0
 10
1.952132024381752
 20
0.0048182782833616
 30
0.0
 10
1.951970959386092
 20
0.0049776478580144
 30
0.0
 10
1.951740382129148
 20
0.0050861548024588
 30
0.0
 10
1.94813252622637
 20
0.0072969837955144
 30
0.0
 10
1.942490165115259
 20
0.008924587962181
 30
0.0
 10
1.938299084386092
 20
0.008924587962181
 30
0.0
 10
1.93470479185137
 20
0.008924587962181
 30
0.0
 10
1.931503836990259
 20
0.0087686092295422
 30
0.0
 10
1.928492769281925
 20
0.008619412180931
 30
0.0
 10
1.926024236295814
 20
0.008497341868431
 30
0.0
 10
1.923691336990259
 20
0.008375271555931
 30
0.0
 10
1.921358437684703
 20
0.008375271555931
 30
0.0
 10
1.916312864768037
 20
0.008375271555931
 30
0.0
 10
1.909327730219425
 20
0.0078530818857922
 30
0.0
 10
1.901420286643037
 20
0.0067476673892644
 30
0.0
 10
1.904417790983314
 20
0.0087482641774588
 30
0.0
 10
1.907862886469425
 20
0.0110133466427366
 30
0.0
 10
1.911497869108314
 20
0.0134004994205144
 30
0.0
 10
1.919418876052759
 20
0.0185952693857922
 30
0.0
 10
1.928791163379148
 20
0.0249429256357922
 30
0.0
 10
1.938299084386092
 20
0.0326672637434311
 30
0.0
 10
1.959349431608314
 20
0.0497231990732922
 30
0.0
 10
1.969576211122203
 20
0.0664264868337088
 30
0.0
 10
1.969576211122203
 20
0.0837197811045422
 30
0.0
 10
1.969576211122203
 20
0.1177299265038477
 30
0.0
 10
1.939451970670814
 20
0.1177299265038477
 30
0.0
 10
1.929550711990259
 20
0.1177299265038477
 30
0.0
 10
1.911986150358314
 20
0.1177299265038477
 30
0.0
 10
1.888657157302759
 20
0.106580837962181
 30
0.0
 10
1.87623311216387
 20
0.0920815975107922
 30
0.0
 10
1.873981593066648
 20
0.0891926001149588
 30
0.0
 10
1.868759696365259
 20
0.0818683813649588
 30
0.0
 10
1.868759696365259
 20
0.0763413088823199
 30
0.0
 10
1.868759696365259
 20
0.0702513566253755
 30
0.0
 10
1.873832396018037
 20
0.0652939456010699
 30
0.0
 10
1.880071545323592
 20
0.0652939456010699
 30
0.0
 10
1.884357569629148
 20
0.0652939456010699
 30
0.0
 10
1.888385889941648
 20
0.0681490345767644
 30
0.0
 10
1.890135564420814
 20
0.0725435658267644
 30
0.0
 10
1.894516532302759
 20
0.0843030059309311
 30
0.0
 10
1.916407808344425
 20
0.0918103301496811
 30
0.0
 10
1.929550711990259
 20
0.0918103301496811
 30
0.0
 10
1.934121567024981
 20
0.0918103301496811
 30
0.0
 10
1.936549409906925
 20
0.0871106231184311
 30
0.0
 10
1.936549409906925
 20
0.0837197811045422
 30
0.0
 10
1.936549409906925
 20
0.0726927628753755
 30
0.0
 10
1.925508828309703
 20
0.0577323679100977
 30
0.0
 10
1.903807439420814
 20
0.0393133140906533
 30
0.0
 10
1.903807439420814
 20
0.0393133140906533
 30
0.0
 10
1.860703055740259
 20
0.0037162546288477
 30
0.0
 10
1.860703055740259
 20
0.0037162546288477
 30
0.0
 10
1.855467595670814
 20
0.0017563479448199
 30
0.0
 10
1.849065685948592
 20
-0.001268283131569
 30
0.0
 10
1.849065685948592
 20
-0.0114136824371245
 30
0.0
 10
1.849065685948592
 20
-0.0262045353017079
 30
0.0
 10
1.861435477615259
 20
-0.0266453447635134
 30
0.0
 10
1.86671162778887
 20
-0.0268284502322634
 30
0.0
 10
1.86671162778887
 20
-0.0268284502322634
 30
0.0
 10
1.867959457649981
 20
-0.0268759220204579
 30
0.0
 10
1.867959457649981
 20
-0.0268759220204579
 30
0.0
 10
1.867959457649981
 20
-0.0268759220204579
 30
0.0
 10
1.86915303403887
 20
-0.026475802662819
 30
0.0
 10
1.86915303403887
 20
-0.026475802662819
 30
0.0
 10
1.881658459386092
 20
-0.0223050669857356
 30
0.0
 10
1.884696653830537
 20
-0.0216404619510134
 30
0.0
 10
1.887965425531925
 20
-0.0216404619510134
 30
0.0
 10
1.888887734559703
 20
-0.021654025319069
 30
0.0
 10
1.893499279698592
 20
-0.0219185109961523
 30
0.0
 10
1.899602795323592
 20
-0.022264376881569
 30
0.0
 10
1.912447304872203
 20
-0.022996798756569
 30
0.0
 10
1.929767725879148
 20
-0.023973361256569
 30
0.0
 10
1.936807113899981
 20
-0.0240886498850412
 30
0.0
 10
1.939668984559703
 20
-0.0250448673329579
 30
0.0
 10
1.942286714594425
 20
-0.0254721134267079
 30
0.0
 10
1.945135021886092
 20
-0.0254721134267079
 30
0.0
 10
1.95336205232229
 20
-0.0254721134267079
 30
0.0
 10
1.960359902528453
 20
-0.0193863997222808
 30
0.0
 10
1.961672158387828
 20
-0.0120443790517079
 30
0.0
 10
1.962874211881752
 20
-0.0122936059397287
 30
0.0
 10
1.96404320466604
 20
-0.012620822194069
 30
0.0
 10
1.96534444028887
 20
-0.012620822194069
 30
0.0
 10
1.96534444028887
 20
-0.012620822194069
 30
0.0
 10
1.971095308344425
 20
-0.012620822194069
 30
0.0
 10
1.971095308344425
 20
-0.012620822194069
 30
0.0
 10
1.976520655566648
 20
-0.012620822194069
 30
0.0
 10
1.981810369108314
 20
-0.0123359914649023
 30
0.0
 10
1.986991575705537
 20
-0.0120443790517079
 30
0.0
 10
1.991698064420814
 20
-0.0117866750586523
 30
0.0
 10
1.996323172927759
 20
-0.0115289710655967
 30
0.0
 10
2.000704140809703
 20
-0.0115289710655967
 30
0.0
 10
2.000704140809703
 20
-0.0115289710655967
 30
0.0
 10
2.00440694028887
 20
-0.0116306963260134
 30
0.0
 10
2.009249062684703
 20
-0.011705294850319
 30
0.0
 10
2.007038233691648
 20
-0.0184598521419856
 30
0.0
 10
2.006034544455537
 20
-0.0237766924197634
 30
0.0
 10
2.005044418587481
 20
-0.0292359480621245
 30
0.0
 10
2.005044418587481
 20
-0.0292359480621245
 30
0.0
 10
2.001490816156926
 20
-0.038804904225319
 30
0.0
 10
2.001490816156926
 20
-0.038804904225319
 30
0.0
 10
2.001490816156926
 20
-0.038804904225319
 30
0.0
 10
2.001056788379148
 20
-0.0412191837392079
 30
0.0
 10
2.001056788379148
 20
-0.0412191837392079
 30
0.0
 10
2.001056788379148
 20
-0.0506525062218467
 30
0.0
 10
2.009913667719426
 20
-0.065111056569069
 30
0.0
 10
2.017563407302759
 20
-0.065111056569069
 30
0.0
 10
2.023707613031926
 20
-0.065111056569069
 30
0.0
 10
2.032469548795814
 20
-0.0602078990169856
 30
0.0
 10
2.039278359559703
 20
-0.0368721242774023
 30
0.0
 10
2.039278359559703
 20
-0.0368721242774023
 30
0.0
 10
2.040241358691648
 20
-0.0334541555274023
 30
0.0
 10
2.040241358691648
 20
-0.0334541555274023
 30
0.0
 10
2.040241358691648
 20
-0.0334541555274023
 30
0.0
 10
2.040227795323592
 20
-0.0334270287912912
 30
0.0
 10
2.040227795323592
 20
-0.0334270287912912
 30
0.0
 10
2.040471935948592
 20
-0.0325860999718467
 30
0.0
 10
2.040702513205537
 20
-0.0316909176801801
 30
0.0
 10
2.040878836990259
 20
-0.0307279185482356
 30
0.0
 10
2.041380681608314
 20
-0.0259536129926801
 30
0.0
 10
2.041624822233314
 20
-0.0246922197635134
 30
0.0
 10
2.041923216330537
 20
-0.023118869069069
 30
0.0
 10
2.042397934212481
 20
-0.0200399845204579
 30
0.0
 10
2.043089665983314
 20
-0.0154623478017079
 30
0.0
 10
2.044106918587481
 20
-0.0112305769683745
 30
0.0
 10
2.044106918587481
 20
-0.0112305769683745
 30
0.0
 10
2.050088363899981
 20
-0.0112034502322634
 30
0.0
 10
2.050088363899981
 20
-0.0112034502322634
 30
0.0
 10
2.050088363899981
 20
-0.0112034502322634
 30
0.0
 10
2.05775166685137
 20
-0.012071505787819
 30
0.0
 10
2.05775166685137
 20
-0.012071505787819
 30
0.0
 10
2.060152382997203
 20
-0.012071505787819
 30
0.0
 10
2.070623303136092
 20
-0.0105524085655967
 30
0.0
 10
2.072169527094426
 20
-0.0103082679405967
 30
0.0
 10
2.079520872580537
 20
-0.0089315860829578
 30
0.0
 10
2.084661389073592
 20
-0.002977267506569
 30
0.0
 10
2.084661389073592
 20
0.004163845774681
 30
0.0
 10
2.084661389073592
 20
0.0068222659135699
 30
0.0
 10
2.084661389073592
 20
0.0138074004621811
 30
0.0
 10
2.077988211990259
 20
0.0165472008094033
 30
0.0
 10
2.077988211990259
 20
0.0165472008094033
 30
0.0
 10
2.07789326841387
 20
0.0176729603580144
 30
0.0
 10
2.07789326841387
 20
0.0176729603580144
 30
0.0
 10
2.07789326841387
 20
0.0176729603580144
 30
0.0
 10
2.07142354185137
 20
0.0176729603580144
 30
0.0
 10
2.07142354185137
 20
0.0176729603580144
 30
0.0
 10
2.07142354185137
 20
0.0176729603580144
 30
0.0
 10
2.07142354185137
 20
0.01072851591357
 30
0.0
 10
2.07142354185137
 20
0.01072851591357
 30
0.0
 10
2.071454907139998
 20
0.01072851591357
 30
0.0
 10
2.071355725011092
 20
0.010710713992997
 30
0.0
 10
2.071360811274113
 20
0.0107073231509831
 30
0.0
 10
2.071360811274113
 20
0.0107073231509831
 30
0.0
 10
2.071247218066648
 20
0.0106946074934311
 30
0.0
 10
2.071247218066648
 20
0.0106946074934311
 30
0.0
 10
2.071247218066648
 20
0.0106946074934311
 30
0.0
 10
2.069850191156926
 20
0.0174627281531533
 30
0.0
 10
2.069850191156926
 20
0.0174627281531533
 30
0.0
 10
2.069158459386092
 20
0.0173203127885699
 30
0.0
 10
2.066879813552759
 20
0.0169744469031533
 30
0.0
 10
2.065835434212481
 20
0.0168184681705144
 30
0.0
 10
2.061956310948592
 20
0.0164454755489866
 30
0.0
 10
2.05836201841387
 20
0.0159097225107922
 30
0.0
 10
2.054916922927759
 20
0.0153739694725977
 30
0.0
 10
2.068032699837481
 20
0.0468070749413477
 30
0.0
 10
2.070406289247203
 20
0.0553587785003755
 30
0.0
 10
2.072929075705537
 20
0.0643784182573199
 30
0.0
 10
2.072929075705537
 20
0.0643784182573199
 30
0.0
 10
2.075099214594426
 20
0.0722926435177366
 30
0.0
 10
2.075099214594426
 20
0.0722926435177366
 30
0.0
  0
HATCH
  5
A0
330
8B
100
AcDbEntity
  8
Milo's Baptism
 62
    18
420
        0
440
 33554687
100
AcDbHatch
 10
0.0
 20
0.0
 30
0.0
210
0.0
220
0.0
230
1.0
  2
SOLID
 70
     1
 71
     1
 91
        2
 92
        1
 93
        1
 72
     4
 94
        3
 73
     0
 74
     0
 95
       32
 96
       28
 40
0.0
 40
0.0
 40
0.0
 40
0.0
 40
1.0
 40
1.0
 40
1.0
 40
2.0
 40
2.0
 40
2.0
 40
3.0
 40
3.0
 40
3.0
 40
4.0
 40
4.0
 40
4.0
 40
5.0
 40
5.0
 40
5.0
 40
6.0
 40
6.0
 40
6.0
 40
7.0
 40
7.0
 40
7.0
 40
8.0
 40
8.0
 40
8.0
 40
9.0
 40
9.0
 40
9.0
 40
9.0
 10
2.01136494810137
 20
0.0292357316253755
 10
2.01136494810137
 20
0.0292357316253755
 10
2.022297022754148
 20
0.0437281903927366
 10
2.022297022754148
 20
0.0437281903927366
 10
2.027410412511092
 20
0.0505098744205144
 10
2.033161280566648
 20
0.0567354603580144
 10
2.039061345670814
 20
0.0626626521982922
 10
2.032686562684703
 20
0.0453964846635699
 10
2.02576924497637
 20
0.0275538739864866
 10
2.019136757997203
 20
0.0125460072330144
 10
2.01759053403887
 20
0.01231542997607
 10
2.016139253656926
 20
0.0120441626149588
 10
2.014728663379148
 20
0.0117796769378755
 10
2.014728663379148
 20
0.0117796769378755
 10
2.012911172059703
 20
0.0114473744205144
 10
2.012911172059703
 20
0.0114473744205144
 10
2.012911172059703
 20
0.0114473744205144
 10
2.008001232823592
 20
0.0119288739864866
 10
2.008001232823592
 20
0.0119288739864866
 10
2.003932222406926
 20
0.0119288739864866
 10
2.000934718066648
 20
0.01164404325732
 10
1.998398368240259
 20
0.0113931209482922
 10
1.997516749316648
 20
0.0113049590559311
 10
1.996689383865259
 20
0.0112235788475977
 10
1.995902708518037
 20
0.0111693253753755
 10
2.000460000184703
 20
0.0156723635698199
 10
2.005478446365259
 20
0.0217351890906533
 10
2.01136494810137
 20
0.0292357316253755
 97
        0
 97
        1
330
9E
 92
        1
 93
        1
 72
     4
 94
        3
 73
     0
 74
     0
 95
      218
 96
      214
 40
0.0
 40
0.0
 40
0.0
 40
0.0
 40
1.0
 40
1.0
 40
1.0
 40
2.0
 40
2.0
 40
2.0
 40
3.0
 40
3.0
 40
3.0
 40
4.0
 40
4.0
 40
4.0
 40
5.0
 40
5.0
 40
5.0
 40
6.0
 40
6.0
 40
6.0
 40
7.0
 40
7.0
 40
7.0
 40
8.0
 40
8.0
 40
8.0
 40
9.0
 40
9.0
 40
9.0
 40
10.0
 40
10.0
 40
10.0
 40
11.0
 40
11.0
 40
11.0
 40
12.0
 40
12.0
 40
12.0
 40
13.0
 40
13.0
 40
13.0
 40
14.0
 40
14.0
 40
14.0
 40
15.0
 40
15.0
 40
15.0
 40
16.0
 40
16.0
 40
16.0
 40
17.0
 40
17.0
 40
17.0
 40
18.0
 40
18.0
 40
18.0
 40
19.0
 40
19.0
 40
19.0
 40
20.0
 40
20.0
 40
20.0
 40
21.0
 40
21.0
 40
21.0
 40
22.0
 40
22.0
 40
22.0
 40
23.0
 40
23.0
 40
23.0
 40
24.0
 40
24.0
 40
24.0
 40
25.0
 40
25.0
 40
25.0
 40
26.0
 40
26.0
 40
26.0
 40
27.0
 40
27.0
 40
27.0
 40
28.0
 40
28.0
 40
28.0
 40
29.0
 40
29.0
 40
29.0
 40
30.0
 40
30.0
 40
30.0
 40
31.0
 40
31.0
 40
31.0
 40
32.0
 40
32.0
 40
32.0
 40
33.0
 40
33.0
 40
33.0
 40
34.0
 40
34.0
 40
34.0
 40
35.0
 40
35.0
 40
35.0
 40
36.0
 40
36.0
 40
36.0
 40
37.0
 40
37.0
 40
37.0
 40
38.0
 40
38.0
 40
38.0
 40
39.0
 40
39.0
 40
39.0
 40
40.0
 40
40.0
 40
40.0
 40
41.0
 40
41.0
 40
41.0
 40
42.0
 40
42.0
 40
42.0
 40
43.0
 40
43.0
 40
43.0
 40
44.0
 40
44.0
 40
44.0
 40
45.0
 40
45.0
 40
45.0
 40
46.0
 40
46.0
 40
46.0
 40
47.0
 40
47.0
 40
47.0
 40
48.0
 40
48.0
 40
48.0
 40
49.0
 40
49.0
 40
49.0
 40
50.0
 40
50.0
 40
50.0
 40
51.0
 40
51.0
 40
51.0
 40
52.0
 40
52.0
 40
52.0
 40
53.0
 40
53.0
 40
53.0
 40
54.0
 40
54.0
 40
54.0
 40
55.0
 40
55.0
 40
55.0
 40
56.0
 40
56.0
 40
56.0
 40
57.0
 40
57.0
 40
57.0
 40
58.0
 40
58.0
 40
58.0
 40
59.0
 40
59.0
 40
59.0
 40
60.0
 40
60.0
 40
60.0
 40
61.0
 40
61.0
 40
61.0
 40
62.0
 40
62.0
 40
62.0
 40
63.0
 40
63.0
 40
63.0
 40
64.0
 40
64.0
 40
64.0
 40
65.0
 40
65.0
 40
65.0
 40
66.0
 40
66.0
 40
66.0
 40
67.0
 40
67.0
 40
67.0
 40
68.0
 40
68.0
 40
68.0
 40
69.0
 40
69.0
 40
69.0
 40
70.0
 40
70.0
 40
70.0
 40
71.0
 40
71.0
 40
71.0
 40
71.0
 10
2.075099214594426
 20
0.0722926435177366
 10
2.075899453309703
 20
0.0751409508094033
 10
2.076604748448592
 20
0.0779824764170422
 10
2.077269353483314
 20
0.0806002064517644
 10
2.078110282302759
 20
0.0839435766774588
 10
2.079263168587481
 20
0.0885212133962088
 10
2.080036280566648
 20
0.0901216908267644
 10
2.080673758865259
 20
0.0916950415212088
 10
2.085610824837481
 20
0.1064791127017644
 10
2.087265555740259
 20
0.1145493166948199
 10
2.088337061816648
 20
0.1161837025455144
 10
2.089571328309703
 20
0.1185640736392644
 10
2.089571328309703
 20
0.1209037546288477
 10
2.089571328309703
 20
0.1268919816253755
 10
2.083698389941648
 20
0.132764919993431
 10
2.077716944629148
 20
0.132764919993431
 10
2.070881007129148
 20
0.132764919993431
 10
2.064085759733314
 20
0.1228094078406533
 10
2.063882309212481
 20
0.1225042320594033
 10
2.061929184212481
 20
0.1198051218163477
 10
2.060586410774981
 20
0.1181503909135699
 10
2.059596284906926
 20
0.1169296877885699
 10
2.058673975879148
 20
0.115797146555931
 10
2.058009370844426
 20
0.1149494360524588
 10
2.057860173795814
 20
0.1146510419552366
 10
2.057860173795814
 20
0.1146510419552366
 10
2.055879922059703
 20
0.1122435441253755
 10
2.055879922059703
 20
0.1122435441253755
 10
2.05299092466387
 20
0.1086899416948199
 10
2.049030421191648
 20
0.1038274742469033
 10
2.047524887337481
 20
0.1025592993337088
 10
2.043198172927759
 20
0.0995685766774588
 10
2.040241358691648
 20
0.09623876981982
 10
2.038356050531926
 20
0.09410253935107
 10
2.03736592466387
 20
0.0931124134830144
 10
2.036375798795814
 20
0.0920476890906533
 10
2.035399236295814
 20
0.0910168731184311
 10
2.033961519281926
 20
0.0894774308441255
 10
2.032618745844426
 20
0.0879718969899588
 10
2.031723563552759
 20
0.0872869469031533
 10
2.022514036643037
 20
0.0810477975975977
 10
1.966185369108314
 20
0.0215181752017644
 10
1.95606709653887
 20
0.0083820532399588
 10
1.9547073688913
 20
0.007400404476938
 10
1.953360356901283
 20
0.0062729495073199
 10
1.952355819954669
 20
0.0047046850758963
 10
1.952132024381752
 20
0.0048182782833616
 10
1.951970959386092
 20
0.0049776478580144
 10
1.951740382129148
 20
0.0050861548024588
 10
1.94813252622637
 20
0.0072969837955144
 10
1.942490165115259
 20
0.008924587962181
 10
1.938299084386092
 20
0.008924587962181
 10
1.93470479185137
 20
0.008924587962181
 10
1.931503836990259
 20
0.0087686092295422
 10
1.928492769281925
 20
0.008619412180931
 10
1.926024236295814
 20
0.008497341868431
 10
1.923691336990259
 20
0.008375271555931
 10
1.921358437684703
 20
0.008375271555931
 10
1.916312864768037
 20
0.008375271555931
 10
1.909327730219425
 20
0.0078530818857922
 10
1.901420286643037
 20
0.0067476673892644
 10
1.904417790983314
 20
0.0087482641774588
 10
1.907862886469425
 20
0.0110133466427366
 10
1.911497869108314
 20
0.0134004994205144
 10
1.919418876052759
 20
0.0185952693857922
 10
1.928791163379148
 20
0.0249429256357922
 10
1.938299084386092
 20
0.0326672637434311
 10
1.959349431608314
 20
0.0497231990732922
 10
1.969576211122203
 20
0.0664264868337088
 10
1.969576211122203
 20
0.0837197811045422
 10
1.969576211122203
 20
0.1177299265038477
 10
1.939451970670814
 20
0.1177299265038477
 10
1.929550711990259
 20
0.1177299265038477
 10
1.911986150358314
 20
0.1177299265038477
 10
1.888657157302759
 20
0.106580837962181
 10
1.87623311216387
 20
0.0920815975107922
 10
1.873981593066648
 20
0.0891926001149588
 10
1.868759696365259
 20
0.0818683813649588
 10
1.868759696365259
 20
0.0763413088823199
 10
1.868759696365259
 20
0.0702513566253755
 10
1.873832396018037
 20
0.0652939456010699
 10
1.880071545323592
 20
0.0652939456010699
 10
1.884357569629148
 20
0.0652939456010699
 10
1.888385889941648
 20
0.0681490345767644
 10
1.890135564420814
 20
0.0725435658267644
 10
1.894516532302759
 20
0.0843030059309311
 10
1.916407808344425
 20
0.0918103301496811
 10
1.929550711990259
 20
0.0918103301496811
 10
1.934121567024981
 20
0.0918103301496811
 10
1.936549409906925
 20
0.0871106231184311
 10
1.936549409906925
 20
0.0837197811045422
 10
1.936549409906925
 20
0.0726927628753755
 10
1.925508828309703
 20
0.0577323679100977
 10
1.903807439420814
 20
0.0393133140906533
 10
1.903807439420814
 20
0.0393133140906533
 10
1.860703055740259
 20
0.0037162546288477
 10
1.860703055740259
 20
0.0037162546288477
 10
1.855467595670814
 20
0.0017563479448199
 10
1.849065685948592
 20
-0.001268283131569
 10
1.849065685948592
 20
-0.0114136824371245
 10
1.849065685948592
 20
-0.0262045353017079
 10
1.861435477615259
 20
-0.0266453447635134
 10
1.86671162778887
 20
-0.0268284502322634
 10
1.86671162778887
 20
-0.0268284502322634
 10
1.867959457649981
 20
-0.0268759220204579
 10
1.867959457649981
 20
-0.0268759220204579
 10
1.867959457649981
 20
-0.0268759220204579
 10
1.86915303403887
 20
-0.026475802662819
 10
1.86915303403887
 20
-0.026475802662819
 10
1.881658459386092
 20
-0.0223050669857356
 10
1.884696653830537
 20
-0.0216404619510134
 10
1.887965425531925
 20
-0.0216404619510134
 10
1.888887734559703
 20
-0.021654025319069
 10
1.893499279698592
 20
-0.0219185109961523
 10
1.899602795323592
 20
-0.022264376881569
 10
1.912447304872203
 20
-0.022996798756569
 10
1.929767725879148
 20
-0.023973361256569
 10
1.936807113899981
 20
-0.0240886498850412
 10
1.939668984559703
 20
-0.0250448673329579
 10
1.942286714594425
 20
-0.0254721134267079
 10
1.945135021886092
 20
-0.0254721134267079
 10
1.95336205232229
 20
-0.0254721134267079
 10
1.960359902528453
 20
-0.0193863997222808
 10
1.961672158387828
 20
-0.0120443790517079
 10
1.962874211881752
 20
-0.0122936059397287
 10
1.96404320466604
 20
-0.012620822194069
 10
1.96534444028887
 20
-0.012620822194069
 10
1.96534444028887
 20
-0.012620822194069
 10
1.971095308344425
 20
-0.012620822194069
 10
1.971095308344425
 20
-0.012620822194069
 10
1.976520655566648
 20
-0.012620822194069
 10
1.981810369108314
 20
-0.0123359914649023
 10
1.986991575705537
 20
-0.0120443790517079
 10
1.991698064420814
 20
-0.0117866750586523
 10
1.996323172927759
 20
-0.0115289710655967
 10
2.000704140809703
 20
-0.0115289710655967
 10
2.000704140809703
 20
-0.0115289710655967
 10
2.00440694028887
 20
-0.0116306963260134
 10
2.009249062684703
 20
-0.011705294850319
 10
2.007038233691648
 20
-0.0184598521419856
 10
2.006034544455537
 20
-0.0237766924197634
 10
2.005044418587481
 20
-0.0292359480621245
 10
2.005044418587481
 20
-0.0292359480621245
 10
2.001490816156926
 20
-0.038804904225319
 10
2.001490816156926
 20
-0.038804904225319
 10
2.001490816156926
 20
-0.038804904225319
 10
2.001056788379148
 20
-0.0412191837392079
 10
2.001056788379148
 20
-0.0412191837392079
 10
2.001056788379148
 20
-0.0506525062218467
 10
2.009913667719426
 20
-0.065111056569069
 10
2.017563407302759
 20
-0.065111056569069
 10
2.023707613031926
 20
-0.065111056569069
 10
2.032469548795814
 20
-0.0602078990169856
 10
2.039278359559703
 20
-0.0368721242774023
 10
2.039278359559703
 20
-0.0368721242774023
 10
2.040241358691648
 20
-0.0334541555274023
 10
2.040241358691648
 20
-0.0334541555274023
 10
2.040241358691648
 20
-0.0334541555274023
 10
2.040227795323592
 20
-0.0334270287912912
 10
2.040227795323592
 20
-0.0334270287912912
 10
2.040471935948592
 20
-0.0325860999718467
 10
2.040702513205537
 20
-0.0316909176801801
 10
2.040878836990259
 20
-0.0307279185482356
 10
2.041380681608314
 20
-0.0259536129926801
 10
2.041624822233314
 20
-0.0246922197635134
 10
2.041923216330537
 20
-0.023118869069069
 10
2.042397934212481
 20
-0.0200399845204579
 10
2.043089665983314
 20
-0.0154623478017079
 10
2.044106918587481
 20
-0.0112305769683745
 10
2.044106918587481
 20
-0.0112305769683745
 10
2.050088363899981
 20
-0.0112034502322634
 10
2.050088363899981
 20
-0.0112034502322634
 10
2.050088363899981
 20
-0.0112034502322634
 10
2.05775166685137
 20
-0.012071505787819
 10
2.05775166685137
 20
-0.012071505787819
 10
2.060152382997203
 20
-0.012071505787819
 10
2.070623303136092
 20
-0.0105524085655967
 10
2.072169527094426
 20
-0.0103082679405967
 10
2.079520872580537
 20
-0.0089315860829578
 10
2.084661389073592
 20
-0.002977267506569
 10
2.084661389073592
 20
0.004163845774681
 10
2.084661389073592
 20
0.0068222659135699
 10
2.084661389073592
 20
0.0138074004621811
 10
2.077988211990259
 20
0.0165472008094033
 10
2.077988211990259
 20
0.0165472008094033
 10
2.07789326841387
 20
0.0176729603580144
 10
2.07789326841387
 20
0.0176729603580144
 10
2.07789326841387
 20
0.0176729603580144
 10
2.07142354185137
 20
0.0176729603580144
 10
2.07142354185137
 20
0.0176729603580144
 10
2.07142354185137
 20
0.0176729603580144
 10
2.07142354185137
 20
0.01072851591357
 10
2.07142354185137
 20
0.01072851591357
 10
2.071454907139998
 20
0.01072851591357
 10
2.071355725011092
 20
0.010710713992997
 10
2.071360811274113
 20
0.0107073231509831
 10
2.071360811274113
 20
0.0107073231509831
 10
2.071247218066648
 20
0.0106946074934311
 10
2.071247218066648
 20
0.0106946074934311
 10
2.071247218066648
 20
0.0106946074934311
 10
2.069850191156926
 20
0.0174627281531533
 10
2.069850191156926
 20
0.0174627281531533
 10
2.069158459386092
 20
0.0173203127885699
 10
2.066879813552759
 20
0.0169744469031533
 10
2.065835434212481
 20
0.0168184681705144
 10
2.061956310948592
 20
0.0164454755489866
 10
2.05836201841387
 20
0.0159097225107922
 10
2.054916922927759
 20
0.0153739694725977
 10
2.068032699837481
 20
0.0468070749413477
 10
2.070406289247203
 20
0.0553587785003755
 10
2.072929075705537
 20
0.0643784182573199
 10
2.072929075705537
 20
0.0643784182573199
 10
2.075099214594426
 20
0.0722926435177366
 10
2.075099214594426
 20
0.0722926435177366
 97
        0
 97
        1
330
9F
 75
     2
 76
     1
 98
        1
 10
0.0
 20
0.0
450
        0
451
        0
460
0.0
461
0.0
452
        0
462
0.0
453
        0
470

  0
ENDBLK
  5
8E
330
8B
100
AcDbEntity
  8
0
100
AcDbBlockEnd
  0
ENDSEC
  0
SECTION
  2
ENTITIES
  0
SPLINE
  5
89
330
70
100
AcDbEntity
  8
Milo's Baptism
 62
    18
420
        0
370
    35
100
AcDbSpline
210
0.0
220
0.0
230
1.0
 70
     9
 71
     3
 72
    29
 73
    25
 74
     0
 42
0.0000000001
 43
0.0000000001
 40
0.0
 40
0.0
 40
0.0
 40
0.0
 40
1.0
 40
1.0
 40
1.0
 40
2.0
 40
2.0
 40
2.0
 40
3.0
 40
3.0
 40
3.0
 40
4.0
 40
4.0
 40
4.0
 40
5.0
 40
5.0
 40
5.0
 40
6.0
 40
6.0
 40
6.0
 40
7.0
 40
7.0
 40
7.0
 40
8.0
 40
8.0
 40
8.0
 40
8.0
 10
2.078004661181314
 20
-0.1238429653447434
 30
0.0
 10
2.078004661181314
 20
-0.1238429653447434
 30
0.0
 10
0.856373455507537
 20
-0.1238429653447434
 30
0.0
 10
0.856373455507537
 20
-0.1238429653447434
 30
0.0
 10
0.824548536412673
 20
-0.1238429653447434
 30
0.0
 10
0.7987493420323517
 20
-0.098043770964422
 30
0.0
 10
0.7987493420323517
 20
-0.0662188518695707
 30
0.0
 10
0.7987493420323517
 20
-0.0662188518695707
 30
0.0
 10
0.7987493420323517
 20
0.1270435594779479
 30
0.0
 10
0.7987493420323517
 20
0.1270435594779479
 30
0.0
 10
0.7987493420323517
 20
0.1588684785727992
 30
0.0
 10
0.824548536412673
 20
0.1846676729531206
 30
0.0
 10
0.856373455507537
 20
0.1846676729531206
 30
0.0
 10
0.856373455507537
 20
0.1846676729531206
 30
0.0
 10
2.078004661181314
 20
0.1846676729531206
 30
0.0
 10
2.078004661181314
 20
0.1846676729531206
 30
0.0
 10
2.109829580276153
 20
0.1846676729531206
 30
0.0
 10
2.135628774656475
 20
0.1588684785727992
 30
0.0
 10
2.135628774656475
 20
0.1270435594779479
 30
0.0
 10
2.135628774656475
 20
0.1270435594779479
 30
0.0
 10
2.135628774656475
 20
-0.0662188518695707
 30
0.0
 10
2.135628774656475
 20
-0.0662188518695707
 30
0.0
 10
2.135628774656475
 20
-0.098043770964422
 30
0.0
 10
2.109829580276153
 20
-0.1238429653447434
 30
0.0
 10
2.078004661181314
 20
-0.1238429653447434
 30
0.0
  0
HATCH
  5
8A
330
70
100
AcDbEntity
  8
Milo's Baptism
 62
    18
420
        0
440
 33554559
100
AcDbHatch
 10
0.0
 20
0.0
 30
0.0
210
0.0
220
0.0
230
1.0
  2
SOLID
 70
     1
 71
     1
 91
        1
 92
        1
 93
        1
 72
     4
 94
        3
 73
     0
 74
     0
 95
       29
 96
       25
 40
0.0
 40
0.0
 40
0.0
 40
0.0
 40
1.0
 40
1.0
 40
1.0
 40
2.0
 40
2.0
 40
2.0
 40
3.0
 40
3.0
 40
3.0
 40
4.0
 40
4.0
 40
4.0
 40
5.0
 40
5.0
 40
5.0
 40
6.0
 40
6.0
 40
6.0
 40
7.0
 40
7.0
 40
7.0
 40
8.0
 40
8.0
 40
8.0
 40
8.0
 10
2.078004661181314
 20
-0.1238429653447434
 10
2.078004661181314
 20
-0.1238429653447434
 10
0.856373455507537
 20
-0.1238429653447434
 10
0.856373455507537
 20
-0.1238429653447434
 10
0.824548536412673
 20
-0.1238429653447434
 10
0.7987493420323517
 20
-0.098043770964422
 10
0.7987493420323517
 20
-0.0662188518695707
 10
0.7987493420323517
 20
-0.0662188518695707
 10
0.7987493420323517
 20
0.1270435594779479
 10
0.7987493420323517
 20
0.1270435594779479
 10
0.7987493420323517
 20
0.1588684785727992
 10
0.824548536412673
 20
0.1846676729531206
 10
0.856373455507537
 20
0.1846676729531206
 10
0.856373455507537
 20
0.1846676729531206
 10
2.078004661181314
 20
0.1846676729531206
 10
2.078004661181314
 20
0.1846676729531206
 10
2.109829580276153
 20
0.1846676729531206
 10
2.135628774656475
 20
0.1588684785727992
 10
2.135628774656475
 20
0.1270435594779479
 10
2.135628774656475
 20
0.1270435594779479
 10
2.135628774656475
 20
-0.0662188518695707
 10
2.135628774656475
 20
-0.0662188518695707
 10
2.135628774656475
 20
-0.098043770964422
 10
2.109829580276153
 20
-0.1238429653447434
 10
2.078004661181314
 20
-0.1238429653447434
 97
        0
 97
        1
330
89
 75
     2
 76
     1
 98
        1
 10
0.0
 20
0.0
450
        0
451
        0
460
0.0
461
0.0
452
        0
462
0.0
453
        0
470

  0
INSERT
  5
8C
330
70
100
AcDbEntity
  8
Milo's Baptism
100
AcDbBlockReference
  2
Block_0
 10
0.0
 20
0.0
 30
0.0
  0
ENDSEC
  0
SECTION
  2
OBJECTS
  0
DICTIONARY
  5
C
330
0
100
AcDbDictionary
281
     1
  3
ACAD_COLOR
350
63
  3
ACAD_DETAILVIEWSTYLE
350
6A
  3
ACAD_GROUP
350
D
  3
ACAD_LAYOUT
350
62
  3
ACAD_MATERIAL
350
10
  3
ACAD_MLEADERSTYLE
350
66
  3
ACAD_MLINESTYLE
350
5F
  3
ACAD_PLOTSETTINGS
350
61
  3
ACAD_PLOTSTYLENAME
350
E
  3
ACAD_SCALELIST
350
42
  3
ACAD_SECTIONVIEWSTYLE
350
68
  3
ACAD_TABLESTYLE
350
64
  3
ACAD_VISUALSTYLE
350
29
  3
ACDB_RECOMPOSE_DATA
350
A9
  3
AcDbVariableDictionary
350
A1
  0
DICTIONARY
  5
63
102
{ACAD_REACTORS
330
C
102
}
330
C
100
AcDbDictionary
281
     1
  0
DICTIONARY
  5
6A
102
{ACAD_REACTORS
330
C
102
}
330
C
100
AcDbDictionary
281
     1
  3
Imperial24
350
6B
  0
DICTIONARY
  5
D
102
{ACAD_REACTORS
330
C
102
}
330
C
100
AcDbDictionary
281
     1
  0
DICTIONARY
  5
62
102
{ACAD_REACTORS
330
C
102
}
330
C
100
AcDbDictionary
281
     1
  3
Layout1
350
6F
  3
Layout2
350
77
  3
Model
350
73
  0
DICTIONARY
  5
10
102
{ACAD_REACTORS
330
C
102
}
330
C
100
AcDbDictionary
281
     1
  3
ByBlock
350
19
  3
ByLayer
350
11
  3
Global
350
21
  0
DICTIONARY
  5
66
102
{ACAD_REACTORS
330
C
102
}
330
C
100
AcDbDictionary
281
     1
  3
Standard
350
67
  0
DICTIONARY
  5
5F
102
{ACAD_REACTORS
330
C
102
}
330
C
100
AcDbDictionary
281
     1
  3
Standard
350
60
  0
DICTIONARY
  5
61
102
{ACAD_REACTORS
330
C
102
}
330
C
100
AcDbDictionary
281
     1
  0
ACDBDICTIONARYWDFLT
  5
E
102
{ACAD_REACTORS
330
C
102
}
330
C
100
AcDbDictionary
281
     1
  3
Normal
350
F
100
AcDbDictionaryWithDefault
340
F
  0
DICTIONARY
  5
42
102
{ACAD_REACTORS
330
C
102
}
330
C
100
AcDbDictionary
281
     1
  3
A0
350
43
  3
A1
350
44
  3
A2
350
45
  3
A3
350
46
  3
A4
350
47
  3
A5
350
48
  3
A6
350
49
  3
A7
350
4A
  3
A8
350
4B
  3
A9
350
4C
  3
B0
350
4D
  3
B1
350
4E
  3
B2
350
4F
  3
B3
350
50
  3
B4
350
51
  3
B5
350
52
  3
B6
350
53
  0
DICTIONARY
  5
68
102
{ACAD_REACTORS
330
C
102
}
330
C
100
AcDbDictionary
281
     1
  3
Imperial24
350
69
  0
DICTIONARY
  5
64
102
{ACAD_REACTORS
330
C
102
}
330
C
100
AcDbDictionary
281
     1
  3
Standard
350
65
  0
DICTIONARY
  5
29
102
{ACAD_REACTORS
330
C
102
}
330
C
100
AcDbDictionary
281
     1
  3
2dWireframe
350
2F
  3
Basic
350
2E
  3
Brighten
350
35
  3
ColorChange
350
39
  3
Conceptual
350
32
  3
Dim
350
34
  3
EdgeColorOff
350
41
  3
Facepattern
350
38
  3
Flat
350
2A
  3
FlatWithEdges
350
2B
  3
Gouraud
350
2C
  3
GouraudWithEdges
350
2D
  3
Hidden
350
31
  3
JitterOff
350
3F
  3
Linepattern
350
37
  3
OverhangOff
350
40
  3
Realistic
350
33
  3
Shaded
350
3E
  3
Shaded with edges
350
3D
  3
Shades of Gray
350
3A
  3
Sketchy
350
3B
  3
Thicken
350
36
  3
Wireframe
350
30
  3
X-Ray
350
3C
  0
XRECORD
  5
A9
102
{ACAD_REACTORS
330
C
102
}
330
C
100
AcDbXrecord
280
     1
 90
        1
330
65
  0
DICTIONARY
  5
A1
102
{ACAD_REACTORS
330
C
102
}
330
C
100
AcDbDictionary
281
     1
  3
CANNOSCALE
350
A6
  3
CMLEADERSTYLE
350
A3
  3
CTABLESTYLE
350
A2
  3
CVIEWDETAILSTYLE
350
A4
  3
CVIEWSECTIONSTYLE
350
A5
  0
ACDBDETAILVIEWSTYLE
  5
6B
102
{ACAD_REACTORS
330
6A
102
}
330
6A
100
AcDbModelDocViewStyle
 70
     0
  3
Imperial24
290
     1
300
Imperial24
 90
        0
100
AcDbDetailViewStyle
 70
     0
 71
     0
 90
        3
 71
     1
340
55
 62
   256
 40
0.24
340
0
 62
   256
 40
0.24
300

 40
0.36
280
     3
 71
     2
340
5D
 90
       25
 62
   256
 71
     3
340
55
 62
   256
 40
0.24
 90
        1
 40
0.75
 90
        1
300
%<\AcVar ViewType \f "%tc1">% %<\AcVar ViewDetailId>%\PSCALE %<\AcVar ViewScale \f "%sn">%
 71
     4
340
5D
 90
       25
 62
   256
340
5D
 90
       25
 62
   256
280
     0
  0
LAYOUT
  5
6F
102
{ACAD_REACTORS
330
62
102
}
330
62
100
AcDbPlotSettings
  1

  2

  4

  6

 40
0.0
 41
0.0
 42
0.0
 43
0.0
 44
0.0
 45
0.0
 46
0.0
 47
0.0
 48
0.0
 49
0.0
140
0.0
141
0.0
142
1.0
143
1.0
 70
   688
 72
     0
 73
     0
 74
     5
  7

 75
    16
147
1.0
 76
     0
 77
     2
 78
   300
148
0.0
149
0.0
100
AcDbLayout
  1
Layout1
 70
     1
 71
     1
 10
0.0
 20
0.0
 11
12.0
 21
9.0
 12
0.0
 22
0.0
 32
0.0
 14
0.0
 24
0.0
 34
0.0
 15
0.0
 25
0.0
 35
0.0
146
0.0
 13
0.0
 23
0.0
 33
0.0
 16
1.0
 26
0.0
 36
0.0
 17
0.0
 27
1.0
 37
0.0
 76
     0
330
6C
  0
LAYOUT
  5
77
102
{ACAD_REACTORS
330
62
102
}
330
62
100
AcDbPlotSettings
  1

  2

  4

  6

 40
0.0
 41
0.0
 42
0.0
 43
0.0
 44
0.0
 45
0.0
 46
0.0
 47
0.0
 48
0.0
 49
0.0
140
0.0
141
0.0
142
1.0
143
1.0
 70
   688
 72
     0
 73
     0
 74
     5
  7

 75
    16
147
1.0
 76
     0
 77
     2
 78
   300
148
0.0
149
0.0
100
AcDbLayout
  1
Layout2
 70
     1
 71
     2
 10
0.0
 20
0.0
 11
12.0
 21
9.0
 12
0.0
 22
0.0
 32
0.0
 14
0.0
 24
0.0
 34
0.0
 15
0.0
 25
0.0
 35
0.0
146
0.0
 13
0.0
 23
0.0
 33
0.0
 16
1.0
 26
0.0
 36
0.0
 17
0.0
 27
1.0
 37
0.0
 76
     0
330
74
  0
LAYOUT
  5
73
102
{ACAD_REACTORS
330
62
102
}
330
62
100
AcDbPlotSettings
  1

  2

  4

  6

 40
0.0
 41
0.0
 42
0.0
 43
0.0
 44
0.0
 45
0.0
 46
0.0
 47
0.0
 48
0.0
 49
0.0
140
0.0
141
0.0
142
1.0
143
1.0
 70
  1712
 72
     0
 73
     0
 74
     0
  7

 75
     0
147
1.0
 76
     0
 77
     2
 78
   300
148
0.0
149
0.0
100
AcDbLayout
  1
Model
 70
     1
 71
     0
 10
0.0
 20
0.0
 11
12.0
 21
9.0
 12
0.0
 22
0.0
 32
0.0
 14
0.0
 24
0.0
 34
0.0
 15
0.0
 25
0.0
 35
0.0
146
0.0
 13
0.0
 23
0.0
 33
0.0
 16
1.0
 26
0.0
 36
0.0
 17
0.0
 27
1.0
 37
0.0
 76
     0
330
70
  0
MATERIAL
  5
19
102
{ACAD_XDICTIONARY
360
1A
102
}
102
{ACAD_REACTORS
330
10
102
}
330
10
100
AcDbMaterial
  1
ByBlock
 72
     0
 43
0.0208333333333333
 43
0.0
 43
0.0
 43
0.0
 43
0.0
 43
0.0208333333333333
 43
0.0
 43
0.0
 43
0.0
 43
0.0
 43
1.0
 43
0.0
 43
0.0
 43
0.0
 43
0.0
 43
1.0
 77
     0
 47
0.0208333333333333
 47
0.0
 47
0.0
 47
0.0
 47
0.0
 47
0.0208333333333333
 47
0.0
 47
0.0
 47
0.0
 47
0.0
 47
1.0
 47
0.0
 47
0.0
 47
0.0
 47
0.0
 47
1.0
171
     0
 49
0.0208333333333333
 49
0.0
 49
0.0
 49
0.0
 49
0.0
 49
0.0208333333333333
 49
0.0
 49
0.0
 49
0.0
 49
0.0
 49
1.0
 49
0.0
 49
0.0
 49
0.0
 49
0.0
 49
1.0
175
     0
142
0.0208333333333333
142
0.0
142
0.0
142
0.0
142
0.0
142
0.0208333333333333
142
0.0
142
0.0
142
0.0
142
0.0
142
1.0
142
0.0
142
0.0
142
0.0
142
0.0
142
1.0
179
     0
144
0.0208333333333333
144
0.0
144
0.0
144
0.0
144
0.0
144
0.0208333333333333
144
0.0
144
0.0
144
0.0
144
0.0
144
1.0
144
0.0
144
0.0
144
0.0
144
0.0
144
1.0
147
0.0208333333333333
147
0.0
147
0.0
147
0.0
147
0.0
147
0.0208333333333333
147
0.0
147
0.0
147
0.0
147
0.0
147
1.0
147
0.0
147
0.0
147
0.0
147
0.0
147
1.0
  0
MATERIAL
  5
11
102
{ACAD_XDICTIONARY
360
12
102
}
102
{ACAD_REACTORS
330
10
102
}
330
10
100
AcDbMaterial
  1
ByLayer
 72
     0
 43
0.0208333333333333
 43
0.0
 43
0.0
 43
0.0
 43
0.0
 43
0.0208333333333333
 43
0.0
 43
0.0
 43
0.0
 43
0.0
 43
1.0
 43
0.0
 43
0.0
 43
0.0
 43
0.0
 43
1.0
 77
     0
 47
0.0208333333333333
 47
0.0
 47
0.0
 47
0.0
 47
0.0
 47
0.0208333333333333
 47
0.0
 47
0.0
 47
0.0
 47
0.0
 47
1.0
 47
0.0
 47
0.0
 47
0.0
 47
0.0
 47
1.0
171
     0
 49
0.0208333333333333
 49
0.0
 49
0.0
 49
0.0
 49
0.0
 49
0.0208333333333333
 49
0.0
 49
0.0
 49
0.0
 49
0.0
 49
1.0
 49
0.0
 49
0.0
 49
0.0
 49
0.0
 49
1.0
175
     0
142
0.0208333333333333
142
0.0
142
0.0
142
0.0
142
0.0
142
0.0208333333333333
142
0.0
142
0.0
142
0.0
142
0.0
142
1.0
142
0.0
142
0.0
142
0.0
142
0.0
142
1.0
179
     0
144
0.0208333333333333
144
0.0
144
0.0
144
0.0
144
0.0
144
0.0208333333333333
144
0.0
144
0.0
144
0.0
144
0.0
144
1.0
144
0.0
144
0.0
144
0.0
144
0.0
144
1.0
147
0.0208333333333333
147
0.0
147
0.0
147
0.0
147
0.0
147
0.0208333333333333
147
0.0
147
0.0
147
0.0
147
0.0
147
1.0
147
0.0
147
0.0
147
0.0
147
0.0
147
1.0
  0
MATERIAL
  5
21
102
{ACAD_XDICTIONARY
360
22
102
}
102
{ACAD_REACTORS
330
10
102
}
330
10
100
AcDbMaterial
  1
Global
 72
     0
 43
0.0208333333333333
 43
0.0
 43
0.0
 43
0.0
 43
0.0
 43
0.0208333333333333
 43
0.0
 43
0.0
 43
0.0
 43
0.0
 43
1.0
 43
0.0
 43
0.0
 43
0.0
 43
0.0
 43
1.0
 77
     0
 47
0.0208333333333333
 47
0.0
 47
0.0
 47
0.0
 47
0.0
 47
0.0208333333333333
 47
0.0
 47
0.0
 47
0.0
 47
0.0
 47
1.0
 47
0.0
 47
0.0
 47
0.0
 47
0.0
 47
1.0
171
     0
 49
0.0208333333333333
 49
0.0
 49
0.0
 49
0.0
 49
0.0
 49
0.0208333333333333
 49
0.0
 49
0.0
 49
0.0
 49
0.0
 49
1.0
 49
0.0
 49
0.0
 49
0.0
 49
0.0
 49
1.0
175
     0
142
0.0208333333333333
142
0.0
142
0.0
142
0.0
142
0.0
142
0.0208333333333333
142
0.0
142
0.0
142
0.0
142
0.0
142
1.0
142
0.0
142
0.0
142
0.0
142
0.0
142
1.0
179
     0
144
0.0208333333333333
144
0.0
144
0.0
144
0.0
144
0.0
144
0.0208333333333333
144
0.0
144
0.0
144
0.0
144
0.0
144
1.0
144
0.0
144
0.0
144
0.0
144
0.0
144
1.0
147
0.0208333333333333
147
0.0
147
0.0
147
0.0
147
0.0
147
0.0208333333333333
147
0.0
147
0.0
147
0.0
147
0.0
147
1.0
147
0.0
147
0.0
147
0.0
147
0.0
147
1.0
  0
MLEADERSTYLE
  5
67
102
{ACAD_REACTORS
330
66
102
}
330
66
100
AcDbMLeaderStyle
179
     2
170
     2
171
     1
172
     0
 90
        2
 40
0.0
 41
0.0
173
     1
 91
-1056964608
340
5B
 92
       -2
290
     1
 42
0.09
291
     1
 43
0.36
  3
Standard
 44
0.18
300

342
55
174
     1
178
     6
175
     1
176
     0
 93
-1056964608
 45
0.18
292
     0
297
     0
 46
0.18
 94
-1056964608
 47
1.0
 49
1.0
140
1.0
293
     1
141
0.0
294
     1
177
     0
142
1.0
295
     1
296
     0
143
0.125
271
     0
272
     9
273
     9
298
     1
  0
MLINESTYLE
  5
60
102
{ACAD_REACTORS
330
5F
102
}
330
5F
100
AcDbMlineStyle
  2
STANDARD
 70
     0
  3

 62
   256
 51
90.0
 52
90.0
 71
     2
 49
0.5
 62
   256
  6
BYLAYER
 49
-0.5
 62
   256
  6
BYLAYER
  0
ACDBPLACEHOLDER
  5
F
102
{ACAD_REACTORS
330
E
102
}
330
E
  0
SCALE
  5
43
102
{ACAD_REACTORS
330
42
102
}
330
42
100
AcDbScale
 70
     0
300
1:1
140
1.0
141
1.0
290
     1
  0
SCALE
  5
44
102
{ACAD_REACTORS
330
42
102
}
330
42
100
AcDbScale
 70
     0
300
1/128" = 1'-0"
140
0.0078125
141
12.0
290
     0
  0
SCALE
  5
45
102
{ACAD_REACTORS
330
42
102
}
330
42
100
AcDbScale
 70
     0
300
1/64" = 1'-0"
140
0.015625
141
12.0
290
     0
  0
SCALE
  5
46
102
{ACAD_REACTORS
330
42
102
}
330
42
100
AcDbScale
 70
     0
300
1/32" = 1'-0"
140
0.03125
141
12.0
290
     0
  0
SCALE
  5
47
102
{ACAD_REACTORS
330
42
102
}
330
42
100
AcDbScale
 70
     0
300
1/16" = 1'-0"
140
0.0625
141
12.0
290
     0
  0
SCALE
  5
48
102
{ACAD_REACTORS
330
42
102
}
330
42
100
AcDbScale
 70
     0
300
3/32" = 1'-0"
140
0.09375
141
12.0
290
     0
  0
SCALE
  5
49
102
{ACAD_REACTORS
330
42
102
}
330
42
100
AcDbScale
 70
     0
300
1/8" = 1'-0"
140
0.125
141
12.0
290
     0
  0
SCALE
  5
4A
102
{ACAD_REACTORS
330
42
102
}
330
42
100
AcDbScale
 70
     0
300
3/16" = 1'-0"
140
0.1875
141
12.0
290
     0
  0
SCALE
  5
4B
102
{ACAD_REACTORS
330
42
102
}
330
42
100
AcDbScale
 70
     0
300
1/4" = 1'-0"
140
0.25
141
12.0
290
     0
  0
SCALE
  5
4C
102
{ACAD_REACTORS
330
42
102
}
330
42
100
AcDbScale
 70
     0
300
3/8" = 1'-0"
140
0.375
141
12.0
290
     0
  0
SCALE
  5
4D
102
{ACAD_REACTORS
330
42
102
}
330
42
100
AcDbScale
 70
     0
300
1/2" = 1'-0"
140
0.5
141
12.0
290
     0
  0
SCALE
  5
4E
102
{ACAD_REACTORS
330
42
102
}
330
42
100
AcDbScale
 70
     0
300
3/4" = 1'-0"
140
0.75
141
12.0
290
     0
  0
SCALE
  5
4F
102
{ACAD_REACTORS
330
42
102
}
330
42
100
AcDbScale
 70
     0
300
1" = 1'-0"
140
1.0
141
12.0
290
     0
  0
SCALE
  5
50
102
{ACAD_REACTORS
330
42
102
}
330
42
100
AcDbScale
 70
     0
300
1-1/2" = 1'-0"
140
1.5
141
12.0
290
     0
  0
SCALE
  5
51
102
{ACAD_REACTORS
330
42
102
}
330
42
100
AcDbScale
 70
     0
300
3" = 1'-0"
140
3.0
141
12.0
290
     0
  0
SCALE
  5
52
102
{ACAD_REACTORS
330
42
102
}
330
42
100
AcDbScale
 70
     0
300
6" = 1'-0"
140
6.0
141
12.0
290
     0
  0
SCALE
  5
53
102
{ACAD_REACTORS
330
42
102
}
330
42
100
AcDbScale
 70
     0
300
1'-0" = 1'-0"
140
12.0
141
12.0
290
     0
  0
ACDBSECTIONVIEWSTYLE
  5
69
102
{ACAD_REACTORS
330
68
102
}
330
68
100
AcDbModelDocViewStyle
 70
     0
  3
Imperial24
290
     1
300
Imperial24
 90
        0
100
AcDbSectionViewStyle
 70
     0
 71
     0
 90
       78
 71
     1
340
55
 62
   256
 40
0.24
340
0
340
0
 62
   256
 40
0.24
300
I, O, Q, S, X, Z
 40
0.48
 90
        3
 40
0.18
 90
        1
 71
     2
340
5D
 90
       25
 62
   256
340
5D
 90
       50
 62
   256
 40
0.24
 40
0.0
 40
0.24
 71
     3
340
55
 62
   256
 40
0.24
 90
        1
 40
0.75
 90
        1
300
%<\AcVar ViewType \f "%tc1">% %<\AcVar ViewSectionStartId>%-%<\AcVar ViewSectionEndId>%\PSCALE %<\AcVar ViewScale \f "%sn">%
 71
     4
 62
   256
 62
   257
300
ANSI31
 40
1.0
 90
        0
290
     0
290
     0
 90
        6
 40
0.0
 40
1.570796326794896
 40
0.2617993877991494
 40
1.308996938995747
 40
-0.2617993877991494
 40
1.832595714594046
  0
TABLESTYLE
  5
65
102
{ACAD_XDICTIONARY
360
A7
102
}
102
{ACAD_REACTORS
330
64
102
}
330
64
100
AcDbTableStyle
280
     0
  3
Standard
 70
     0
 71
     0
 40
0.06
 41
0.06
280
     0
281
     0
  7
Standard
140
0.18
170
     2
 62
     0
 63
     7
283
     0
 90
      512
 91
        0
  1

274
    -2
284
     1
 64
     0
275
    -2
285
     1
 65
     0
276
    -2
286
     1
 66
     0
277
    -2
287
     1
 67
     0
278
    -2
288
     1
 68
     0
279
    -2
289
     1
 69
     0
  7
Standard
140
0.25
170
     5
 62
     0
 63
     7
283
     0
 90
      512
 91
        0
  1

274
    -2
284
     1
 64
     0
275
    -2
285
     1
 65
     0
276
    -2
286
     1
 66
     0
277
    -2
287
     1
 67
     0
278
    -2
288
     1
 68
     0
279
    -2
289
     1
 69
     0
  7
Standard
140
0.18
170
     5
 62
     0
 63
     7
283
     0
 90
      512
 91
        0
  1

274
    -2
284
     1
 64
     0
275
    -2
285
     1
 65
     0
276
    -2
286
     1
 66
     0
277
    -2
287
     1
 67
     0
278
    -2
288
     1
 68
     0
279
    -2
289
     1
 69
     0
  0
VISUALSTYLE
  5
2F
102
{ACAD_REACTORS
330
29
102
}
330
29
100
AcDbVisualStyle
  2
2dWireframe
 70
     4
177
     3
291
     0
 70
    58
 90
        0
176
     1
 90
        2
176
     1
 90
        0
176
     1
 90
        0
176
     1
 40
0.6
176
     1
 40
30.0
176
     1
 62
     7
420
 16777215
176
     1
 90
        1
176
     1
 90
        4
176
     1
 62
     7
176
     1
 62
   257
176
     1
 90
        1
176
     1
 90
        1
176
     1
 40
1.0
176
     1
 90
        0
176
     1
 62
   257
176
     1
 40
1.0
176
     1
 90
        1
176
     1
 90
        6
176
     1
 90
        2
176
     1
 62
     7
176
     1
 90
        5
176
     1
 90
        0
176
     1
 90
        0
176
     1
290
     0
176
     1
 90
        1
176
     1
 40
0.0
176
     1
 90
        0
176
     1
290
     1
176
     1
290
     1
176
     1
290
     0
176
     1
290
     0
176
     1
290
     0
176
     1
290
     0
176
     1
290
     0
176
     1
290
     0
176
     1
290
     0
176
     1
 90
       50
176
     1
 40
0.0
176
     1
 40
1.0
176
     1
 90
        0
176
     1
 62
    18
420
        0
176
     1
 90
       50
176
     1
 90
        3
176
     1
 62
     5
420
      255
176
     1
290
     0
176
     1
 90
       50
176
     1
 90
       50
176
     1
 90
       50
176
     1
290
     0
176
     1
 90
       50
176
     1
 62
   256
176
     0
 40
1.0
176
     0
 90
        2
176
     1
  1
strokes_ogs.tif
176
     1
290
     0
176
     1
 40
1.0
176
     1
 40
1.0
176
     1
  0
VISUALSTYLE
  5
2E
102
{ACAD_REACTORS
330
29
102
}
330
29
100
AcDbVisualStyle
  2
Basic
 70
     7
177
     3
291
     1
 70
    58
 90
        1
176
     1
 90
        0
176
     1
 90
        1
176
     1
 90
        0
176
     1
 40
0.6
176
     1
 40
30.0
176
     1
 62
     7
420
 16777215
176
     1
 90
        0
176
     1
 90
        4
176
     1
 62
     7
176
     1
 62
   257
176
     1
 90
        1
176
     1
 90
        1
176
     1
 40
1.0
176
     1
 90
        8
176
     1
 62
     7
176
     1
 40
1.0
176
     1
 90
        1
176
     1
 90
        6
176
     1
 90
        2
176
     1
 62
     7
176
     1
 90
        5
176
     1
 90
        0
176
     1
 90
        0
176
     1
290
     0
176
     1
 90
        1
176
     1
 40
0.0
176
     1
 90
        0
176
     1
290
     0
176
     1
290
     1
176
     1
290
     1
176
     1
290
     0
176
     1
290
     0
176
     1
290
     0
176
     1
290
     0
176
     1
290
     0
176
     1
290
     0
176
     1
 90
       50
176
     1
 40
0.0
176
     1
 40
1.0
176
     1
 90
        0
176
     1
 62
    18
420
        0
176
     1
 90
       50
176
     1
 90
        3
176
     1
 62
     5
420
      255
176
     1
290
     0
176
     1
 90
       50
176
     1
 90
       50
176
     1
 90
       50
176
     1
290
     0
176
     1
 90
       50
176
     1
 62
   256
176
     0
 40
1.0
176
     0
 90
        2
176
     1
  1
strokes_ogs.tif
176
     1
290
     0
176
     1
 40
1.0
176
     1
 40
1.0
176
     1
  0
VISUALSTYLE
  5
35
102
{ACAD_REACTORS
330
29
102
}
330
29
100
AcDbVisualStyle
  2
Brighten
 70
    12
177
     3
291
     1
 70
    58
 90
        2
176
     1
 90
        2
176
     1
 90
        0
176
     1
 90
        0
176
     1
 40
0.6
176
     1
 40
30.0
176
     1
 62
     7
420
 16777215
176
     1
 90
        1
176
     1
 90
        4
176
     1
 62
     7
176
     1
 62
   257
176
     1
 90
        1
176
     1
 90
        1
176
     1
 40
1.0
176
     1
 90
        8
176
     1
 62
     7
176
     1
 40
1.0
176
     1
 90
        1
176
     1
 90
        6
176
     1
 90
        2
176
     1
 62
     7
176
     1
 90
        5
176
     1
 90
        0
176
     1
 90
        0
176
     1
290
     0
176
     1
 90
        1
176
     1
 40
50.0
176
     1
 90
        0
176
     1
290
     0
176
     1
290
     1
176
     1
290
     1
176
     1
290
     0
176
     1
290
     0
176
     1
290
     0
176
     1
290
     0
176
     1
290
     0
176
     1
290
     0
176
     1
 90
       50
176
     1
 40
0.0
176
     1
 40
1.0
176
     1
 90
        0
176
     1
 62
    18
420
        0
176
     1
 90
       50
176
     1
 90
        3
176
     1
 62
     5
420
      255
176
     1
290
     0
176
     1
 90
       50
176
     1
 90
       50
176
     1
 90
       50
176
     1
290
     0
176
     1
 90
       50
176
     1
 62
   256
176
     0
 40
1.0
176
     0
 90
        2
176
     1
  1
strokes_ogs.tif
176
     1
290
     0
176
     1
 40
1.0
176
     1
 40
1.0
176
     1
  0
VISUALSTYLE
  5
39
102
{ACAD_REACTORS
330
29
102
}
330
29
100
AcDbVisualStyle
  2
ColorChange
 70
    16
177
     3
291
     1
 70
    58
 90
        2
176
     1
 90
        2
176
     1
 90
        3
176
     1
 90
        0
176
     1
 40
0.6
176
     1
 40
30.0
176
     1
 62
     8
420
  8421504
176
     1
 90
        1
176
     1
 90
        4
176
     1
 62
     7
176
     1
 62
   257
176
     1
 90
        1
176
     1
 90
        1
176
     1
 40
1.0
176
     1
 90
        8
176
     1
 62
     8
420
  8421504
176
     1
 40
1.0
176
     1
 90
        1
176
     1
 90
        6
176
     1
 90
        2
176
     1
 62
     7
176
     1
 90
        5
176
     1
 90
        0
176
     1
 90
        0
176
     1
290
     0
176
     1
 90
        1
176
     1
 40
0.0
176
     1
 90
        0
176
     1
290
     0
176
     1
290
     1
176
     1
290
     1
176
     1
290
     0
176
     1
290
     0
176
     1
290
     0
176
     1
290
     0
176
     1
290
     0
176
     1
290
     0
176
     1
 90
       50
176
     1
 40
0.0
176
     1
 40
1.0
176
     1
 90
        0
176
     1
 62
    18
420
        0
176
     1
 90
       50
176
     1
 90
        3
176
     1
 62
     5
420
      255
176
     1
290
     0
176
     1
 90
       50
176
     1
 90
       50
176
     1
 90
       50
176
     1
290
     0
176
     1
 90
       50
176
     1
 62
   256
176
     0
 40
1.0
176
     0
 90
        2
176
     1
  1
strokes_ogs.tif
176
     1
290
     0
176
     1
 40
1.0
176
     1
 40
1.0
176
     1
  0
VISUALSTYLE
  5
32
102
{ACAD_REACTORS
330
29
102
}
330
29
100
AcDbVisualStyle
  2
Conceptual
 70
     9
177
     3
291
     0
 70
    58
 90
        3
176
     1
 90
        2
176
     1
 90
        0
176
     1
 90
        0
176
     1
 40
0.6
176
     1
 40
30.0
176
     1
 62
     7
420
 16777215
176
     1
 90
        2
176
     1
 90
        2
176
     1
 62
     7
176
     1
 62
   257
176
     1
 90
        1
176
     1
 90
        1
176
     1
 40
179.0
176
     1
 90
        8
176
     1
 62
     7
176
     1
 40
1.0
176
     1
 90
        1
176
     1
 90
        6
176
     1
 90
        2
176
     1
 62
     7
176
     1
 90
        3
176
     1
 90
        0
176
     1
 90
        0
176
     1
290
     0
176
     1
 90
        1
176
     1
 40
0.0
176
     1
 90
        0
176
     1
290
     0
176
     1
290
     1
176
     1
290
     1
176
     1
290
     0
176
     1
290
     0
176
     1
290
     0
176
     1
290
     0
176
     1
290
     0
176
     1
290
     0
176
     1
 90
       50
176
     1
 40
0.0
176
     1
 40
1.0
176
     1
 90
        0
176
     1
 62
    18
420
        0
176
     1
 90
       50
176
     1
 90
        3
176
     1
 62
     5
420
      255
176
     1
290
     0
176
     1
 90
       50
176
     1
 90
       50
176
     1
 90
       50
176
     1
290
     0
176
     1
 90
       50
176
     1
 62
   256
176
     0
 40
1.0
176
     0
 90
        2
176
     1
  1
strokes_ogs.tif
176
     1
290
     0
176
     1
 40
1.0
176
     1
 40
1.0
176
     1
  0
VISUALSTYLE
  5
34
102
{ACAD_REACTORS
330
29
102
}
330
29
100
AcDbVisualStyle
  2
Dim
 70
    11
177
     3
291
     1
 70
    58
 90
        2
176
     1
 90
        2
176
     1
 90
        0
176
     1
 90
        0
176
     1
 40
0.6
176
     1
 40
30.0
176
     1
 62
     7
420
 16777215
176
     1
 90
        1
176
     1
 90
        4
176
     1
 62
     7
176
     1
 62
   257
176
     1
 90
        1
176
     1
 90
        1
176
     1
 40
1.0
176
     1
 90
        8
176
     1
 62
     7
176
     1
 40
1.0
176
     1
 90
        1
176
     1
 90
        6
176
     1
 90
        2
176
     1
 62
     7
176
     1
 90
        5
176
     1
 90
        0
176
     1
 90
        0
176
     1
290
     0
176
     1
 90
        1
176
     1
 40
-50.0
176
     1
 90
        0
176
     1
290
     0
176
     1
290
     1
176
     1
290
     1
176
     1
290
     0
176
     1
290
     0
176
     1
290
     0
176
     1
290
     0
176
     1
290
     0
176
     1
290
     0
176
     1
 90
       50
176
     1
 40
0.0
176
     1
 40
1.0
176
     1
 90
        0
176
     1
 62
    18
420
        0
176
     1
 90
       50
176
     1
 90
        3
176
     1
 62
     5
420
      255
176
     1
290
     0
176
     1
 90
       50
176
     1
 90
       50
176
     1
 90
       50
176
     1
290
     0
176
     1
 90
       50
176
     1
 62
   256
176
     0
 40
1.0
176
     0
 90
        2
176
     1
  1
strokes_ogs.tif
176
     1
290
     0
176
     1
 40
1.0
176
     1
 40
1.0
176
     1
  0
VISUALSTYLE
  5
41
102
{ACAD_REACTORS
330
29
102
}
330
29
100
AcDbVisualStyle
  2
EdgeColorOff
 70
    22
177
     3
291
     1
 70
    58
 90
        2
176
     0
 90
        2
176
     0
 90
        0
176
     0
 90
        0
176
     0
 40
0.6
176
     0
 40
30.0
176
     0
 62
     7
420
 16777215
176
     0
 90
        1
176
     0
 90
        4
176
     0
 62
     7
176
     0
 62
   257
176
     0
 90
        1
176
     0
 90
        1
176
     0
 40
1.0
176
     0
 90
        8
176
     2
 62
     7
176
     0
 40
1.0
176
     0
 90
        1
176
     0
 90
        6
176
     0
 90
        2
176
     0
 62
     7
176
     0
 90
        5
176
     0
 90
        0
176
     0
 90
        0
176
     0
290
     0
176
     0
 90
        1
176
     0
 40
0.0
176
     0
 90
        0
176
     0
290
     0
176
     0
290
     1
176
     0
290
     1
176
     0
290
     0
176
     0
290
     0
176
     0
290
     0
176
     0
290
     0
176
     0
290
     0
176
     0
290
     0
176
     0
 90
       50
176
     0
 40
0.0
176
     0
 40
1.0
176
     0
 90
        0
176
     0
 62
    18
420
        0
176
     0
 90
       50
176
     0
 90
        3
176
     0
 62
     5
420
      255
176
     0
290
     0
176
     0
 90
       50
176
     0
 90
       50
176
     0
 90
       50
176
     0
290
     0
176
     0
 90
       50
176
     0
 62
   256
176
     0
 40
1.0
176
     0
 90
        2
176
     0
  1
strokes_ogs.tif
176
     0
290
     0
176
     0
 40
1.0
176
     0
 40
1.0
176
     0
  0
VISUALSTYLE
  5
38
102
{ACAD_REACTORS
330
29
102
}
330
29
100
AcDbVisualStyle
  2
Facepattern
 70
    15
177
     3
291
     1
 70
    58
 90
        2
176
     1
 90
        2
176
     1
 90
        0
176
     1
 90
        0
176
     1
 40
0.6
176
     1
 40
30.0
176
     1
 62
     7
420
 16777215
176
     1
 90
        1
176
     1
 90
        4
176
     1
 62
     7
176
     1
 62
   257
176
     1
 90
        1
176
     1
 90
        1
176
     1
 40
1.0
176
     1
 90
        8
176
     1
 62
     7
176
     1
 40
1.0
176
     1
 90
        1
176
     1
 90
        6
176
     1
 90
        2
176
     1
 62
     7
176
     1
 90
        5
176
     1
 90
        0
176
     1
 90
        0
176
     1
290
     0
176
     1
 90
        1
176
     1
 40
0.0
176
     1
 90
        0
176
     1
290
     0
176
     1
290
     1
176
     1
290
     1
176
     1
290
     0
176
     1
290
     0
176
     1
290
     0
176
     1
290
     0
176
     1
290
     0
176
     1
290
     0
176
     1
 90
       50
176
     1
 40
0.0
176
     1
 40
1.0
176
     1
 90
        0
176
     1
 62
    18
420
        0
176
     1
 90
       50
176
     1
 90
        3
176
     1
 62
     5
420
      255
176
     1
290
     0
176
     1
 90
       50
176
     1
 90
       50
176
     1
 90
       50
176
     1
290
     0
176
     1
 90
       50
176
     1
 62
   256
176
     0
 40
1.0
176
     0
 90
        2
176
     1
  1
strokes_ogs.tif
176
     1
290
     0
176
     1
 40
1.0
176
     1
 40
1.0
176
     1
  0
VISUALSTYLE
  5
2A
102
{ACAD_REACTORS
330
29
102
}
330
29
100
AcDbVisualStyle
  2
Flat
 70
     0
177
     3
291
     1
 70
    58
 90
        2
176
     1
 90
        1
176
     1
 90
        1
176
     1
 90
        2
176
     1
 40
0.6
176
     1
 40
30.0
176
     1
 62
     7
420
 16777215
176
     1
 90
        0
176
     1
 90
        0
176
     1
 62
     7
176
     1
 62
   257
176
     1
 90
        1
176
     1
 90
        1
176
     1
 40
1.0
176
     1
 90
        8
176
     1
 62
     7
176
     1
 40
1.0
176
     1
 90
        1
176
     1
 90
        6
176
     1
 90
        2
176
     1
 62
     7
176
     1
 90
        5
176
     1
 90
        0
176
     1
 90
        0
176
     1
290
     0
176
     1
 90
       13
176
     1
 40
0.0
176
     1
 90
        0
176
     1
290
     0
176
     1
290
     1
176
     1
290
     1
176
     1
290
     0
176
     1
290
     0
176
     1
290
     0
176
     1
290
     0
176
     1
290
     0
176
     1
290
     0
176
     1
 90
       50
176
     1
 40
0.0
176
     1
 40
1.0
176
     1
 90
        0
176
     1
 62
    18
420
        0
176
     1
 90
       50
176
     1
 90
        3
176
     1
 62
     5
420
      255
176
     1
290
     0
176
     1
 90
       50
176
     1
 90
       50
176
     1
 90
       50
176
     1
290
     0
176
     1
 90
       50
176
     1
 62
   256
176
     0
 40
1.0
176
     0
 90
        2
176
     1
  1
strokes_ogs.tif
176
     1
290
     0
176
     1
 40
1.0
176
     1
 40
1.0
176
     1
  0
VISUALSTYLE
  5
2B
102
{ACAD_REACTORS
330
29
102
}
330
29
100
AcDbVisualStyle
  2
FlatWithEdges
 70
     1
177
     3
291
     1
 70
    58
 90
        2
176
     1
 90
        1
176
     1
 90
        1
176
     1
 90
        2
176
     1
 40
0.6
176
     1
 40
30.0
176
     1
 62
     7
420
 16777215
176
     1
 90
        1
176
     1
 90
        0
176
     1
 62
     7
176
     1
 62
   257
176
     1
 90
        1
176
     1
 90
        1
176
     1
 40
1.0
176
     1
 90
        0
176
     1
 62
   257
176
     1
 40
1.0
176
     1
 90
        1
176
     1
 90
        6
176
     1
 90
        2
176
     1
 62
     7
176
     1
 90
        5
176
     1
 90
        0
176
     1
 90
        0
176
     1
290
     0
176
     1
 90
       13
176
     1
 40
0.0
176
     1
 90
        0
176
     1
290
     0
176
     1
290
     1
176
     1
290
     1
176
     1
290
     0
176
     1
290
     0
176
     1
290
     0
176
     1
290
     0
176
     1
290
     0
176
     1
290
     0
176
     1
 90
       50
176
     1
 40
0.0
176
     1
 40
1.0
176
     1
 90
        0
176
     1
 62
    18
420
        0
176
     1
 90
       50
176
     1
 90
        3
176
     1
 62
     5
420
      255
176
     1
290
     0
176
     1
 90
       50
176
     1
 90
       50
176
     1
 90
       50
176
     1
290
     0
176
     1
 90
       50
176
     1
 62
   256
176
     0
 40
1.0
176
     0
 90
        2
176
     1
  1
strokes_ogs.tif
176
     1
290
     0
176
     1
 40
1.0
176
     1
 40
1.0
176
     1
  0
VISUALSTYLE
  5
2C
102
{ACAD_REACTORS
330
29
102
}
330
29
100
AcDbVisualStyle
  2
Gouraud
 70
     2
177
     3
291
     1
 70
    58
 90
        2
176
     1
 90
        2
176
     1
 90
        1
176
     1
 90
        2
176
     1
 40
0.6
176
     1
 40
30.0
176
     1
 62
     7
420
 16777215
176
     1
 90
        0
176
     1
 90
        0
176
     1
 62
     7
176
     1
 62
   257
176
     1
 90
        1
176
     1
 90
        1
176
     1
 40
1.0
176
     1
 90
        0
176
     1
 62
     7
176
     1
 40
1.0
176
     1
 90
        1
176
     1
 90
        6
176
     1
 90
        2
176
     1
 62
     7
176
     1
 90
        5
176
     1
 90
        0
176
     1
 90
        0
176
     1
290
     0
176
     1
 90
       13
176
     1
 40
0.0
176
     1
 90
        0
176
     1
290
     0
176
     1
290
     1
176
     1
290
     1
176
     1
290
     0
176
     1
290
     0
176
     1
290
     0
176
     1
290
     0
176
     1
290
     0
176
     1
290
     0
176
     1
 90
       50
176
     1
 40
0.0
176
     1
 40
1.0
176
     1
 90
        0
176
     1
 62
    18
420
        0
176
     1
 90
       50
176
     1
 90
        3
176
     1
 62
     5
420
      255
176
     1
290
     0
176
     1
 90
       50
176
     1
 90
       50
176
     1
 90
       50
176
     1
290
     0
176
     1
 90
       50
176
     1
 62
   256
176
     0
 40
1.0
176
     0
 90
        2
176
     1
  1
strokes_ogs.tif
176
     1
290
     0
176
     1
 40
1.0
176
     1
 40
1.0
176
     1
  0
VISUALSTYLE
  5
2D
102
{ACAD_REACTORS
330
29
102
}
330
29
100
AcDbVisualStyle
  2
GouraudWithEdges
 70
     3
177
     3
291
     1
 70
    58
 90
        2
176
     1
 90
        2
176
     1
 90
        1
176
     1
 90
        2
176
     1
 40
0.6
176
     1
 40
30.0
176
     1
 62
     7
420
 16777215
176
     1
 90
        1
176
     1
 90
        0
176
     1
 62
     7
176
     1
 62
   257
176
     1
 90
        1
176
     1
 90
        1
176
     1
 40
1.0
176
     1
 90
        0
176
     1
 62
   257
176
     1
 40
1.0
176
     1
 90
        1
176
     1
 90
        6
176
     1
 90
        2
176
     1
 62
     7
176
     1
 90
        5
176
     1
 90
        0
176
     1
 90
        0
176
     1
290
     0
176
     1
 90
       13
176
     1
 40
0.0
176
     1
 90
        0
176
     1
290
     0
176
     1
290
     1
176
     1
290
     1
176
     1
290
     0
176
     1
290
     0
176
     1
290
     0
176
     1
290
     0
176
     1
290
     0
176
     1
290
     0
176
     1
 90
       50
176
     1
 40
0.0
176
     1
 40
1.0
176
     1
 90
        0
176
     1
 62
    18
420
        0
176
     1
 90
       50
176
     1
 90
        3
176
     1
 62
     5
420
      255
176
     1
290
     0
176
     1
 90
       50
176
     1
 90
       50
176
     1
 90
       50
176
     1
290
     0
176
     1
 90
       50
176
     1
 62
   256
176
     0
 40
1.0
176
     0
 90
        2
176
     1
  1
strokes_ogs.tif
176
     1
290
     0
176
     1
 40
1.0
176
     1
 40
1.0
176
     1
  0
VISUALSTYLE
  5
31
102
{ACAD_REACTORS
330
29
102
}
330
29
100
AcDbVisualStyle
  2
Hidden
 70
     6
177
     3
291
     0
 70
    58
 90
        1
176
     1
 90
        2
176
     1
 90
        2
176
     1
 90
        0
176
     1
 40
0.6
176
     1
 40
30.0
176
     1
 62
     7
420
 16777215
176
     1
 90
        2
176
     1
 90
        2
176
     1
 62
     7
176
     1
 62
   257
176
     1
 90
        2
176
     1
 90
        1
176
     1
 40
40.0
176
     1
 90
        0
176
     1
 62
   257
176
     1
 40
1.0
176
     1
 90
        1
176
     1
 90
        6
176
     1
 90
        2
176
     1
 62
     7
176
     1
 90
        3
176
     1
 90
        0
176
     1
 90
        0
176
     1
290
     0
176
     1
 90
        1
176
     1
 40
0.0
176
     1
 90
        0
176
     1
290
     0
176
     1
290
     1
176
     1
290
     1
176
     1
290
     0
176
     1
290
     0
176
     1
290
     0
176
     1
290
     0
176
     1
290
     0
176
     1
290
     0
176
     1
 90
       50
176
     1
 40
0.0
176
     1
 40
1.0
176
     1
 90
        0
176
     1
 62
    18
420
        0
176
     1
 90
       50
176
     1
 90
        3
176
     1
 62
     5
420
      255
176
     1
290
     0
176
     1
 90
       50
176
     1
 90
       50
176
     1
 90
       50
176
     1
290
     0
176
     1
 90
       50
176
     1
 62
   256
176
     0
 40
1.0
176
     0
 90
        2
176
     1
  1
strokes_ogs.tif
176
     1
290
     0
176
     1
 40
1.0
176
     1
 40
1.0
176
     1
  0
VISUALSTYLE
  5
3F
102
{ACAD_REACTORS
330
29
102
}
330
29
100
AcDbVisualStyle
  2
JitterOff
 70
    20
177
     3
291
     1
 70
    58
 90
        2
176
     0
 90
        2
176
     0
 90
        0
176
     0
 90
        0
176
     0
 40
0.6
176
     0
 40
30.0
176
     0
 62
     7
420
 16777215
176
     0
 90
        1
176
     0
 90
        4
176
     0
 62
     7
176
     0
 62
   257
176
     0
 90
        1
176
     0
 90
        1
176
     0
 40
1.0
176
     0
 90
       10
176
     2
 62
     7
176
     0
 40
1.0
176
     0
 90
        1
176
     0
 90
        6
176
     0
 90
        2
176
     0
 62
     7
176
     0
 90
        5
176
     0
 90
        0
176
     0
 90
        0
176
     0
290
     0
176
     0
 90
        1
176
     0
 40
0.0
176
     0
 90
        0
176
     0
290
     0
176
     0
290
     1
176
     0
290
     1
176
     0
290
     0
176
     0
290
     0
176
     0
290
     0
176
     0
290
     0
176
     0
290
     0
176
     0
290
     0
176
     0
 90
       50
176
     0
 40
0.0
176
     0
 40
1.0
176
     0
 90
        0
176
     0
 62
    18
420
        0
176
     0
 90
       50
176
     0
 90
        3
176
     0
 62
     5
420
      255
176
     0
290
     0
176
     0
 90
       50
176
     0
 90
       50
176
     0
 90
       50
176
     0
290
     0
176
     0
 90
       50
176
     0
 62
   256
176
     0
 40
1.0
176
     0
 90
        2
176
     0
  1
strokes_ogs.tif
176
     0
290
     0
176
     0
 40
1.0
176
     0
 40
1.0
176
     0
  0
VISUALSTYLE
  5
37
102
{ACAD_REACTORS
330
29
102
}
330
29
100
AcDbVisualStyle
  2
Linepattern
 70
    14
177
     3
291
     1
 70
    58
 90
        2
176
     1
 90
        2
176
     1
 90
        0
176
     1
 90
        0
176
     1
 40
0.6
176
     1
 40
30.0
176
     1
 62
     7
420
 16777215
176
     1
 90
        1
176
     1
 90
        4
176
     1
 62
     7
176
     1
 62
   257
176
     1
 90
        7
176
     1
 90
        7
176
     1
 40
1.0
176
     1
 90
        8
176
     1
 62
     7
176
     1
 40
1.0
176
     1
 90
        1
176
     1
 90
        6
176
     1
 90
        2
176
     1
 62
     7
176
     1
 90
        5
176
     1
 90
        0
176
     1
 90
        0
176
     1
290
     0
176
     1
 90
        1
176
     1
 40
0.0
176
     1
 90
        0
176
     1
290
     0
176
     1
290
     1
176
     1
290
     1
176
     1
290
     0
176
     1
290
     0
176
     1
290
     0
176
     1
290
     0
176
     1
290
     0
176
     1
290
     0
176
     1
 90
       50
176
     1
 40
0.0
176
     1
 40
1.0
176
     1
 90
        0
176
     1
 62
    18
420
        0
176
     1
 90
       50
176
     1
 90
        3
176
     1
 62
     5
420
      255
176
     1
290
     0
176
     1
 90
       50
176
     1
 90
       50
176
     1
 90
       50
176
     1
290
     0
176
     1
 90
       50
176
     1
 62
   256
176
     0
 40
1.0
176
     0
 90
        2
176
     1
  1
strokes_ogs.tif
176
     1
290
     0
176
     1
 40
1.0
176
     1
 40
1.0
176
     1
  0
VISUALSTYLE
  5
40
102
{ACAD_REACTORS
330
29
102
}
330
29
100
AcDbVisualStyle
  2
OverhangOff
 70
    21
177
     3
291
     1
 70
    58
 90
        2
176
     0
 90
        2
176
     0
 90
        0
176
     0
 90
        0
176
     0
 40
0.6
176
     0
 40
30.0
176
     0
 62
     7
420
 16777215
176
     0
 90
        1
176
     0
 90
        4
176
     0
 62
     7
176
     0
 62
   257
176
     0
 90
        1
176
     0
 90
        1
176
     0
 40
1.0
176
     0
 90
        9
176
     2
 62
     7
176
     0
 40
1.0
176
     0
 90
        1
176
     0
 90
        6
176
     0
 90
        2
176
     0
 62
     7
176
     0
 90
        5
176
     0
 90
        0
176
     0
 90
        0
176
     0
290
     0
176
     0
 90
        1
176
     0
 40
0.0
176
     0
 90
        0
176
     0
290
     0
176
     0
290
     1
176
     0
290
     1
176
     0
290
     0
176
     0
290
     0
176
     0
290
     0
176
     0
290
     0
176
     0
290
     0
176
     0
290
     0
176
     0
 90
       50
176
     0
 40
0.0
176
     0
 40
1.0
176
     0
 90
        0
176
     0
 62
    18
420
        0
176
     0
 90
       50
176
     0
 90
        3
176
     0
 62
     5
420
      255
176
     0
290
     0
176
     0
 90
       50
176
     0
 90
       50
176
     0
 90
       50
176
     0
290
     0
176
     0
 90
       50
176
     0
 62
   256
176
     0
 40
1.0
176
     0
 90
        2
176
     0
  1
strokes_ogs.tif
176
     0
290
     0
176
     0
 40
1.0
176
     0
 40
1.0
176
     0
  0
VISUALSTYLE
  5
33
102
{ACAD_REACTORS
330
29
102
}
330
29
100
AcDbVisualStyle
  2
Realistic
 70
     8
177
     3
291
     0
 70
    58
 90
        2
176
     1
 90
        3
176
     1
 90
        0
176
     1
 90
        2
176
     1
 40
0.6
176
     1
 40
30.0
176
     1
 62
     7
420
 16777215
176
     1
 90
        0
176
     1
 90
        0
176
     1
 62
     7
176
     1
 62
   257
176
     1
 90
        1
176
     1
 90
        1
176
     1
 40
1.0
176
     1
 90
        8
176
     1
 62
   257
176
     1
 40
1.0
176
     1
 90
        1
176
     1
 90
        6
176
     1
 90
        2
176
     1
 62
     7
176
     1
 90
        3
176
     1
 90
        0
176
     1
 90
        0
176
     1
290
     0
176
     1
 90
       13
176
     1
 40
0.0
176
     1
 90
        0
176
     1
290
     0
176
     1
290
     1
176
     1
290
     1
176
     1
290
     0
176
     1
290
     0
176
     1
290
     0
176
     1
290
     0
176
     1
290
     0
176
     1
290
     0
176
     1
 90
       50
176
     1
 40
0.0
176
     1
 40
1.0
176
     1
 90
        0
176
     1
 62
    18
420
        0
176
     1
 90
       50
176
     1
 90
        3
176
     1
 62
     5
420
      255
176
     1
290
     0
176
     1
 90
       50
176
     1
 90
       50
176
     1
 90
       50
176
     1
290
     0
176
     1
 90
       50
176
     1
 62
   256
176
     0
 40
1.0
176
     0
 90
        2
176
     1
  1
strokes_ogs.tif
176
     1
290
     0
176
     1
 40
1.0
176
     1
 40
1.0
176
     1
  0
VISUALSTYLE
  5
3E
102
{ACAD_REACTORS
330
29
102
}
330
29
100
AcDbVisualStyle
  2
Shaded
 70
    27
177
     3
291
     0
 70
    58
 90
        2
176
     1
 90
        2
176
     1
 90
        1
176
     1
 90
        2
176
     1
 40
0.6
176
     1
 40
30.0
176
     1
 62
     7
420
 16777215
176
     1
 90
        0
176
     1
 90
        4
176
     1
 62
     7
176
     1
 62
   257
176
     1
 90
        1
176
     1
 90
        1
176
     1
 40
1.0
176
     1
 90
        8
176
     1
 62
   257
176
     1
 40
1.0
176
     1
 90
        1
176
     1
 90
        6
176
     1
 90
        2
176
     1
 62
     8
420
  7895160
176
     1
 90
        3
176
     1
 90
        0
176
     1
 90
        0
176
     1
290
     0
176
     1
 90
        5
176
     1
 40
0.0
176
     1
 90
        0
176
     1
290
     0
176
     1
290
     1
176
     1
290
     1
176
     1
290
     0
176
     1
290
     0
176
     1
290
     0
176
     1
290
     0
176
     1
290
     0
176
     1
290
     0
176
     1
 90
       50
176
     1
 40
0.0
176
     1
 40
1.0
176
     1
 90
        0
176
     1
 62
    18
420
        0
176
     1
 90
       50
176
     1
 90
        3
176
     1
 62
     5
420
      255
176
     1
290
     0
176
     1
 90
       50
176
     1
 90
       50
176
     1
 90
       50
176
     1
290
     0
176
     1
 90
       50
176
     1
 62
   256
176
     0
 40
1.0
176
     0
 90
        2
176
     1
  1
strokes_ogs.tif
176
     1
290
     0
176
     1
 40
1.0
176
     1
 40
1.0
176
     1
  0
VISUALSTYLE
  5
3D
102
{ACAD_REACTORS
330
29
102
}
330
29
100
AcDbVisualStyle
  2
Shaded with edges
 70
    26
177
     3
291
     0
 70
    58
 90
        2
176
     1
 90
        2
176
     1
 90
        1
176
     1
 90
        2
176
     1
 40
0.6
176
     1
 40
30.0
176
     1
 62
     7
420
 16777215
176
     1
 90
        1
176
     1
 90
        2
176
     1
 62
     7
176
     1
 62
   257
176
     1
 90
        2
176
     1
 90
        1
176
     1
 40
1.0
176
     1
 90
        8
176
     1
 62
   257
176
     1
 40
1.0
176
     1
 90
        1
176
     1
 90
        6
176
     1
 90
        2
176
     1
 62
     7
176
     1
 90
        3
176
     1
 90
        0
176
     1
 90
        0
176
     1
290
     0
176
     1
 90
        5
176
     1
 40
0.0
176
     1
 90
        0
176
     1
290
     0
176
     1
290
     1
176
     1
290
     1
176
     1
290
     0
176
     1
290
     0
176
     1
290
     0
176
     1
290
     0
176
     1
290
     0
176
     1
290
     0
176
     1
 90
       50
176
     1
 40
0.0
176
     1
 40
1.0
176
     1
 90
        0
176
     1
 62
    18
420
        0
176
     1
 90
       50
176
     1
 90
        3
176
     1
 62
     5
420
      255
176
     1
290
     0
176
     1
 90
       50
176
     1
 90
       50
176
     1
 90
       50
176
     1
290
     0
176
     1
 90
       50
176
     1
 62
   256
176
     0
 40
1.0
176
     0
 90
        2
176
     1
  1
strokes_ogs.tif
176
     1
290
     0
176
     1
 40
1.0
176
     1
 40
1.0
176
     1
  0
VISUALSTYLE
  5
3A
102
{ACAD_REACTORS
330
29
102
}
330
29
100
AcDbVisualStyle
  2
Shades of Gray
 70
    23
177
     3
291
     0
 70
    58
 90
        2
176
     1
 90
        2
176
     1
 90
        3
176
     1
 90
        0
176
     1
 40
0.6
176
     1
 40
30.0
176
     1
 62
     7
420
 16777215
176
     1
 90
        2
176
     1
 90
        2
176
     1
 62
     7
176
     1
 62
     7
176
     1
 90
        1
176
     1
 90
        1
176
     1
 40
40.0
176
     1
 90
        8
176
     1
 62
     7
176
     1
 40
1.0
176
     1
 90
        1
176
     1
 90
        6
176
     1
 90
        2
176
     1
 62
     7
176
     1
 90
        3
176
     1
 90
        0
176
     1
 90
        0
176
     1
290
     0
176
     1
 90
        1
176
     1
 40
0.0
176
     1
 90
        0
176
     1
290
     0
176
     1
290
     1
176
     1
290
     1
176
     1
290
     0
176
     1
290
     0
176
     1
290
     0
176
     1
290
     0
176
     1
290
     0
176
     1
290
     0
176
     1
 90
       50
176
     1
 40
0.0
176
     1
 40
1.0
176
     1
 90
        0
176
     1
 62
    18
420
        0
176
     1
 90
       50
176
     1
 90
        3
176
     1
 62
     5
420
      255
176
     1
290
     0
176
     1
 90
       50
176
     1
 90
       50
176
     1
 90
       50
176
     1
290
     0
176
     1
 90
       50
176
     1
 62
   256
176
     0
 40
1.0
176
     0
 90
        2
176
     1
  1
strokes_ogs.tif
176
     1
290
     0
176
     1
 40
1.0
176
     1
 40
1.0
176
     1
  0
VISUALSTYLE
  5
3B
102
{ACAD_REACTORS
330
29
102
}
330
29
100
AcDbVisualStyle
  2
Sketchy
 70
    24
177
     3
291
     0
 70
    58
 90
        1
176
     1
 90
        2
176
     1
 90
        2
176
     1
 90
        0
176
     1
 40
0.6
176
     1
 40
30.0
176
     1
 62
     7
420
 16777215
176
     1
 90
        2
176
     1
 90
        2
176
     1
 62
     7
176
     1
 62
     7
176
     1
 90
        1
176
     1
 90
        1
176
     1
 40
40.0
176
     1
 90
       11
176
     1
 62
     7
176
     1
 40
1.0
176
     1
 90
        1
176
     1
 90
        6
176
     1
 90
        2
176
     1
 62
     7
176
     1
 90
        6
176
     1
 90
        0
176
     1
 90
        0
176
     1
290
     0
176
     1
 90
        1
176
     1
 40
0.0
176
     1
 90
        0
176
     1
290
     0
176
     1
290
     1
176
     1
290
     1
176
     1
290
     0
176
     1
290
     0
176
     1
290
     0
176
     1
290
     0
176
     1
290
     0
176
     1
290
     0
176
     1
 90
       50
176
     1
 40
0.0
176
     1
 40
1.0
176
     1
 90
        0
176
     1
 62
    18
420
        0
176
     1
 90
       50
176
     1
 90
        3
176
     1
 62
     5
420
      255
176
     1
290
     0
176
     1
 90
       50
176
     1
 90
       50
176
     1
 90
       50
176
     1
290
     0
176
     1
 90
       50
176
     1
 62
   256
176
     0
 40
1.0
176
     0
 90
        2
176
     1
  1
strokes_ogs.tif
176
     1
290
     0
176
     1
 40
1.0
176
     1
 40
1.0
176
     1
  0
VISUALSTYLE
  5
36
102
{ACAD_REACTORS
330
29
102
}
330
29
100
AcDbVisualStyle
  2
Thicken
 70
    13
177
     3
291
     1
 70
    58
 90
        2
176
     1
 90
        2
176
     1
 90
        0
176
     1
 90
        0
176
     1
 40
0.6
176
     1
 40
30.0
176
     1
 62
     7
420
 16777215
176
     1
 90
        1
176
     1
 90
        4
176
     1
 62
     7
176
     1
 62
   257
176
     1
 90
        1
176
     1
 90
        1
176
     1
 40
1.0
176
     1
 90
       12
176
     1
 62
     7
176
     1
 40
1.0
176
     1
 90
        1
176
     1
 90
        6
176
     1
 90
        2
176
     1
 62
     7
176
     1
 90
        5
176
     1
 90
        0
176
     1
 90
        0
176
     1
290
     0
176
     1
 90
        1
176
     1
 40
0.0
176
     1
 90
        0
176
     1
290
     0
176
     1
290
     1
176
     1
290
     1
176
     1
290
     0
176
     1
290
     0
176
     1
290
     0
176
     1
290
     0
176
     1
290
     0
176
     1
290
     0
176
     1
 90
       50
176
     1
 40
0.0
176
     1
 40
1.0
176
     1
 90
        0
176
     1
 62
    18
420
        0
176
     1
 90
       50
176
     1
 90
        3
176
     1
 62
     5
420
      255
176
     1
290
     0
176
     1
 90
       50
176
     1
 90
       50
176
     1
 90
       50
176
     1
290
     0
176
     1
 90
       50
176
     1
 62
   256
176
     0
 40
1.0
176
     0
 90
        2
176
     1
  1
strokes_ogs.tif
176
     1
290
     0
176
     1
 40
1.0
176
     1
 40
1.0
176
     1
  0
VISUALSTYLE
  5
30
102
{ACAD_REACTORS
330
29
102
}
330
29
100
AcDbVisualStyle
  2
Wireframe
 70
     5
177
     3
291
     0
 70
    58
 90
        0
176
     1
 90
        2
176
     1
 90
        0
176
     1
 90
        0
176
     1
 40
0.6
176
     1
 40
30.0
176
     1
 62
     7
420
 16777215
176
     1
 90
        1
176
     1
 90
        4
176
     1
 62
     7
176
     1
 62
   257
176
     1
 90
        1
176
     1
 90
        1
176
     1
 40
1.0
176
     1
 90
        0
176
     1
 62
   257
176
     1
 40
1.0
176
     1
 90
        1
176
     1
 90
        6
176
     1
 90
        2
176
     1
 62
     7
176
     1
 90
        3
176
     1
 90
        0
176
     1
 90
        0
176
     1
290
     0
176
     1
 90
        1
176
     1
 40
0.0
176
     1
 90
        0
176
     1
290
     0
176
     1
290
     1
176
     1
290
     1
176
     1
290
     0
176
     1
290
     0
176
     1
290
     0
176
     1
290
     0
176
     1
290
     0
176
     1
290
     0
176
     1
 90
       50
176
     1
 40
0.0
176
     1
 40
1.0
176
     1
 90
        0
176
     1
 62
    18
420
        0
176
     1
 90
       50
176
     1
 90
        3
176
     1
 62
     5
420
      255
176
     1
290
     0
176
     1
 90
       50
176
     1
 90
       50
176
     1
 90
       50
176
     1
290
     0
176
     1
 90
       50
176
     1
 62
   256
176
     0
 40
1.0
176
     0
 90
        2
176
     1
  1
strokes_ogs.tif
176
     1
290
     0
176
     1
 40
1.0
176
     1
 40
1.0
176
     1
  0
VISUALSTYLE
  5
3C
102
{ACAD_REACTORS
330
29
102
}
330
29
100
AcDbVisualStyle
  2
X-Ray
 70
    25
177
     3
291
     0
 70
    58
 90
        2
176
     1
 90
        2
176
     1
 90
        1
176
     1
 90
        1
176
     1
 40
0.5
176
     1
 40
30.0
176
     1
 62
     7
420
 16777215
176
     1
 90
        1
176
     1
 90
        0
176
     1
 62
     7
176
     1
 62
   257
176
     1
 90
        1
176
     1
 90
        1
176
     1
 40
1.0
176
     1
 90
        8
176
     1
 62
     7
176
     1
 40
1.0
176
     1
 90
        1
176
     1
 90
        6
176
     1
 90
        2
176
     1
 62
     7
176
     1
 90
        3
176
     1
 90
        0
176
     1
 90
        0
176
     1
290
     0
176
     1
 90
       13
176
     1
 40
0.0
176
     1
 90
        0
176
     1
290
     0
176
     1
290
     1
176
     1
290
     1
176
     1
290
     0
176
     1
290
     0
176
     1
290
     0
176
     1
290
     0
176
     1
290
     0
176
     1
290
     0
176
     1
 90
       50
176
     1
 40
0.0
176
     1
 40
1.0
176
     1
 90
        0
176
     1
 62
    18
420
        0
176
     1
 90
       50
176
     1
 90
        3
176
     1
 62
     5
420
      255
176
     1
290
     0
176
     1
 90
       50
176
     1
 90
       50
176
     1
 90
       50
176
     1
290
     0
176
     1
 90
       50
176
     1
 62
   256
176
     0
 40
1.0
176
     0
 90
        2
176
     1
  1
strokes_ogs.tif
176
     1
290
     0
176
     1
 40
1.0
176
     1
 40
1.0
176
     1
  0
DICTIONARYVAR
  5
A6
102
{ACAD_REACTORS
330
A1
102
}
330
A1
100
DictionaryVariables
280
     0
  1
1:1
  0
DICTIONARYVAR
  5
A3
102
{ACAD_REACTORS
330
A1
102
}
330
A1
100
DictionaryVariables
280
     0
  1
STANDARD
  0
DICTIONARYVAR
  5
A2
102
{ACAD_REACTORS
330
A1
102
}
330
A1
100
DictionaryVariables
280
     0
  1
STANDARD
  0
DICTIONARYVAR
  5
A4
102
{ACAD_REACTORS
330
A1
102
}
330
A1
100
DictionaryVariables
280
     0
  1
Imperial24
  0
DICTIONARYVAR
  5
A5
102
{ACAD_REACTORS
330
A1
102
}
330
A1
100
DictionaryVariables
280
     0
  1
Imperial24
  0
DICTIONARY
  5
1A
330
19
100
AcDbDictionary
280
     1
281
     1
  3
BUMPTILE
360
1C
  3
DIFFUSETILE
360
1B
  3
OPACITYTILE
360
1F
  3
REFLECTIONTILE
360
1E
  3
REFRACTIONTILE
360
20
  3
SPECULARTILE
360
1D
  0
DICTIONARY
  5
12
330
11
100
AcDbDictionary
280
     1
281
     1
  3
BUMPTILE
360
14
  3
DIFFUSETILE
360
13
  3
OPACITYTILE
360
17
  3
REFLECTIONTILE
360
16
  3
REFRACTIONTILE
360
18
  3
SPECULARTILE
360
15
  0
DICTIONARY
  5
22
330
21
100
AcDbDictionary
280
     1
281
     1
  3
BUMPTILE
360
24
  3
DIFFUSETILE
360
23
  3
OPACITYTILE
360
27
  3
REFLECTIONTILE
360
26
  3
REFRACTIONTILE
360
28
  3
SPECULARTILE
360
25
  0
DICTIONARY
  5
A7
330
65
100
AcDbDictionary
280
     1
281
     1
  3
ACAD_ROUNDTRIP_2008_TABLESTYLE_CELLSTYLEMAP
360
A8
  0
XRECORD
  5
1C
102
{ACAD_REACTORS
330
1A
102
}
330
1A
100
AcDbXrecord
280
     1
270
     1
271
     1
  0
XRECORD
  5
1B
102
{ACAD_REACTORS
330
1A
102
}
330
1A
100
AcDbXrecord
280
     1
270
     1
271
     1
  0
XRECORD
  5
1F
102
{ACAD_REACTORS
330
1A
102
}
330
1A
100
AcDbXrecord
280
     1
270
     1
271
     1
  0
XRECORD
  5
1E
102
{ACAD_REACTORS
330
1A
102
}
330
1A
100
AcDbXrecord
280
     1
270
     1
271
     1
  0
XRECORD
  5
20
102
{ACAD_REACTORS
330
1A
102
}
330
1A
100
AcDbXrecord
280
     1
270
     1
271
     1
  0
XRECORD
  5
1D
102
{ACAD_REACTORS
330
1A
102
}
330
1A
100
AcDbXrecord
280
     1
270
     1
271
     1
  0
XRECORD
  5
14
102
{ACAD_REACTORS
330
12
102
}
330
12
100
AcDbXrecord
280
     1
270
     1
271
     1
  0
XRECORD
  5
13
102
{ACAD_REACTORS
330
12
102
}
330
12
100
AcDbXrecord
280
     1
270
     1
271
     1
  0
XRECORD
  5
17
102
{ACAD_REACTORS
330
12
102
}
330
12
100
AcDbXrecord
280
     1
270
     1
271
     1
  0
XRECORD
  5
16
102
{ACAD_REACTORS
330
12
102
}
330
12
100
AcDbXrecord
280
     1
270
     1
271
     1
  0
XRECORD
  5
18
102
{ACAD_REACTORS
330
12
102
}
330
12
100
AcDbXrecord
280
     1
270
     1
271
     1
  0
XRECORD
  5
15
102
{ACAD_REACTORS
330
12
102
}
330
12
100
AcDbXrecord
280
     1
270
     1
271
     1
  0
XRECORD
  5
24
102
{ACAD_REACTORS
330
22
102
}
330
22
100
AcDbXrecord
280
     1
270
     1
271
     1
  0
XRECORD
  5
23
102
{ACAD_REACTORS
330
22
102
}
330
22
100
AcDbXrecord
280
     1
270
     1
271
     1
  0
XRECORD
  5
27
102
{ACAD_REACTORS
330
22
102
}
330
22
100
AcDbXrecord
280
     1
270
     1
271
     1
  0
XRECORD
  5
26
102
{ACAD_REACTORS
330
22
102
}
330
22
100
AcDbXrecord
280
     1
270
     1
271
     1
  0
XRECORD
  5
28
102
{ACAD_REACTORS
330
22
102
}
330
22
100
AcDbXrecord
280
     1
270
     1
271
     1
  0
XRECORD
  5
25
102
{ACAD_REACTORS
330
22
102
}
330
22
100
AcDbXrecord
280
     1
270
     1
271
     1
  0
CELLSTYLEMAP
  5
A8
102
{ACAD_REACTORS
330
A7
102
}
330
A7
100
AcDbCellStyleMap
 90
        3
300
CELLSTYLE
  1
TABLEFORMAT_BEGIN
 90
        5
170
     1
 91
        0
 92
    32768
 62
   257
 93
        1
300
CONTENTFORMAT
  1
CONTENTFORMAT_BEGIN
 90
        0
 91
        0
 92
      512
 93
        0
300

 40
0.0
140
1.0
 94
        5
 62
     0
340
55
144
0.25
309
CONTENTFORMAT_END
171
     0
 94
        0
309
TABLEFORMAT_END
  1
CELLSTYLE_BEGIN
 90
        1
 91
        1
300
_TITLE
309
CELLSTYLE_END
300
CELLSTYLE
  1
TABLEFORMAT_BEGIN
 90
        5
170
     1
 91
        0
 92
        0
 62
   257
 93
        1
300
CONTENTFORMAT
  1
CONTENTFORMAT_BEGIN
 90
        0
 91
        0
 92
      512
 93
        0
300

 40
0.0
140
1.0
 94
        5
 62
     0
340
55
144
0.18
309
CONTENTFORMAT_END
171
     0
 94
        0
309
TABLEFORMAT_END
  1
CELLSTYLE_BEGIN
 90
        2
 91
        1
300
_HEADER
309
CELLSTYLE_END
300
CELLSTYLE
  1
TABLEFORMAT_BEGIN
 90
        5
170
     1
 91
        0
 92
        0
 62
   257
 93
        1
300
CONTENTFORMAT
  1
CONTENTFORMAT_BEGIN
 90
        0
 91
        0
 92
      512
 93
        0
300

 40
0.0
140
1.0
 94
        2
 62
     0
340
55
144
0.18
309
CONTENTFORMAT_END
171
     0
 94
        0
309
TABLEFORMAT_END
  1
CELLSTYLE_BEGIN
 90
        3
 91
        2
300
_DATA
309
CELLSTYLE_END
  0
ENDSEC
  0
EOF
