  0
SECTION
  2
HEADER
  9
$ACADVER
  1
AC1032
  9
$ACADMAINTVER
 90
      228
  9
$DWGCODEPAGE
  3
ANSI_1252
  9
$REQUIREDVERSIONS
160
                 0
  9
$INSBASE
 10
0.0
 20
0.0
 30
0.0
  9
$EXTMIN
 10
1.000000000000000E+20
 20
1.000000000000000E+20
 30
1.000000000000000E+20
  9
$EXTMAX
 10
-1.000000000000000E+20
 20
-1.000000000000000E+20
 30
-1.000000000000000E+20
  9
$LIMMIN
 10
0.0
 20
0.0
  9
$LIMMAX
 10
12.0
 20
9.0
  9
$ORTHOMODE
 70
     0
  9
$REGENMODE
 70
     1
  9
$FILLMODE
 70
     1
  9
$QTEXTMODE
 70
     0
  9
$MIRRTEXT
 70
     0
  9
$LTSCALE
 40
1.0
  9
$ATTMODE
 70
     1
  9
$TEXTSIZE
 40
0.2
  9
$TRACEWID
 40
0.05
  9
$TEXTSTYLE
  7
Standard
  9
$CLAYER
  8
0
  9
$CELTYPE
  6
ByLayer
  9
$CECOLOR
 62
   256
  9
$CELTSCALE
 40
1.0
  9
$DISPSILH
 70
     0
  9
$DIMSCALE
 40
1.0
  9
$DIMASZ
 40
0.18
  9
$DIMEXO
 40
0.0625
  9
$DIMDLI
 40
0.38
  9
$DIMRND
 40
0.0
  9
$DIMDLE
 40
0.0
  9
$DIMEXE
 40
0.18
  9
$DIMTP
 40
0.0
  9
$DIMTM
 40
0.0
  9
$DIMTXT
 40
0.18
  9
$DIMCEN
 40
0.09
  9
$DIMTSZ
 40
0.0
  9
$DIMTOL
 70
     0
  9
$DIMLIM
 70
     0
  9
$DIMTIH
 70
     1
  9
$DIMTOH
 70
     1
  9
$DIMSE1
 70
     0
  9
$DIMSE2
 70
     0
  9
$DIMTAD
 70
     0
  9
$DIMZIN
 70
     0
  9
$DIMBLK
  1

  9
$DIMASO
 70
     1
  9
$DIMSHO
 70
     1
  9
$DIMPOST
  1

  9
$DIMAPOST
  1

  9
$DIMALT
 70
     0
  9
$DIMALTD
 70
     2
  9
$DIMALTF
 40
25.4
  9
$DIMLFAC
 40
1.0
  9
$DIMTOFL
 70
     0
  9
$DIMTVP
 40
0.0
  9
$DIMTIX
 70
     0
  9
$DIMSOXD
 70
     0
  9
$DIMSAH
 70
     0
  9
$DIMBLK1
  1

  9
$DIMBLK2
  1

  9
$DIMSTYLE
  2
Standard
  9
$DIMCLRD
 70
     0
  9
$DIMCLRE
 70
     0
  9
$DIMCLRT
 70
     0
  9
$DIMTFAC
 40
1.0
  9
$DIMGAP
 40
0.09
  9
$DIMJUST
 70
     0
  9
$DIMSD1
 70
     0
  9
$DIMSD2
 70
     0
  9
$DIMTOLJ
 70
     1
  9
$DIMTZIN
 70
     0
  9
$DIMALTZ
 70
     0
  9
$DIMALTTZ
 70
     0
  9
$DIMUPT
 70
     0
  9
$DIMDEC
 70
     4
  9
$DIMTDEC
 70
     4
  9
$DIMALTU
 70
     2
  9
$DIMALTTD
 70
     2
  9
$DIMTXSTY
  7
Standard
  9
$DIMAUNIT
 70
     0
  9
$DIMADEC
 70
     0
  9
$DIMALTRND
 40
0.0
  9
$DIMAZIN
 70
     0
  9
$DIMDSEP
 70
    46
  9
$DIMATFIT
 70
     3
  9
$DIMFRAC
 70
     0
  9
$DIMLDRBLK
  1

  9
$DIMLUNIT
 70
     2
  9
$DIMLWD
 70
    -2
  9
$DIMLWE
 70
    -2
  9
$DIMTMOVE
 70
     0
  9
$DIMFXL
 40
1.0
  9
$DIMFXLON
 70
     0
  9
$DIMJOGANG
 40
0.7853981633974483
  9
$DIMTFILL
 70
     0
  9
$DIMTFILLCLR
 70
     0
  9
$DIMARCSYM
 70
     0
  9
$DIMLTYPE
  6

  9
$DIMLTEX1
  6

  9
$DIMLTEX2
  6

  9
$DIMTXTDIRECTION
 70
     0
  9
$LUNITS
 70
     2
  9
$LUPREC
 70
     4
  9
$SKETCHINC
 40
0.1
  9
$FILLETRAD
 40
0.0
  9
$AUNITS
 70
     0
  9
$AUPREC
 70
     0
  9
$MENU
  1
.
  9
$ELEVATION
 40
0.0
  9
$PELEVATION
 40
0.0
  9
$THICKNESS
 40
0.0
  9
$LIMCHECK
 70
     0
  9
$CHAMFERA
 40
0.0
  9
$CHAMFERB
 40
0.0
  9
$CHAMFERC
 40
0.0
  9
$CHAMFERD
 40
0.0
  9
$SKPOLY
 70
     0
  9
$TDCREATE
 40
2460224.664884259
  9
$TDUCREATE
 40
2460224.956550926
  9
$TDUPDATE
 40
2460224.664884259
  9
$TDUUPDATE
 40
2460224.956550926
  9
$TDINDWG
 40
0.0000000000
  9
$TDUSRTIMER
 40
0.0000000000
  9
$USRTIMER
 70
     1
  9
$ANGBASE
 50
0.0
  9
$ANGDIR
 70
     0
  9
$PDMODE
 70
     0
  9
$PDSIZE
 40
0.0
  9
$PLINEWID
 40
0.0
  9
$SPLFRAME
 70
     0
  9
$SPLINETYPE
 70
     6
  9
$SPLINESEGS
 70
     8
  9
$HANDSEED
  5
BB
  9
$SURFTAB1
 70
     6
  9
$SURFTAB2
 70
     6
  9
$SURFTYPE
 70
     6
  9
$SURFU
 70
     6
  9
$SURFV
 70
     6
  9
$UCSBASE
  2

  9
$UCSNAME
  2

  9
$UCSORG
 10
0.0
 20
0.0
 30
0.0
  9
$UCSXDIR
 10
1.0
 20
0.0
 30
0.0
  9
$UCSYDIR
 10
0.0
 20
1.0
 30
0.0
  9
$UCSORTHOREF
  2

  9
$UCSORTHOVIEW
 70
     0
  9
$UCSORGTOP
 10
0.0
 20
0.0
 30
0.0
  9
$UCSORGBOTTOM
 10
0.0
 20
0.0
 30
0.0
  9
$UCSORGLEFT
 10
0.0
 20
0.0
 30
0.0
  9
$UCSORGRIGHT
 10
0.0
 20
0.0
 30
0.0
  9
$UCSORGFRONT
 10
0.0
 20
0.0
 30
0.0
  9
$UCSORGBACK
 10
0.0
 20
0.0
 30
0.0
  9
$PUCSBASE
  2

  9
$PUCSNAME
  2

  9
$PUCSORG
 10
0.0
 20
0.0
 30
0.0
  9
$PUCSXDIR
 10
1.0
 20
0.0
 30
0.0
  9
$PUCSYDIR
 10
0.0
 20
1.0
 30
0.0
  9
$PUCSORTHOREF
  2

  9
$PUCSORTHOVIEW
 70
     0
  9
$PUCSORGTOP
 10
0.0
 20
0.0
 30
0.0
  9
$PUCSORGBOTTOM
 10
0.0
 20
0.0
 30
0.0
  9
$PUCSORGLEFT
 10
0.0
 20
0.0
 30
0.0
  9
$PUCSORGRIGHT
 10
0.0
 20
0.0
 30
0.0
  9
$PUCSORGFRONT
 10
0.0
 20
0.0
 30
0.0
  9
$PUCSORGBACK
 10
0.0
 20
0.0
 30
0.0
  9
$USERI1
 70
     0
  9
$USERI2
 70
     0
  9
$USERI3
 70
     0
  9
$USERI4
 70
     0
  9
$USERI5
 70
     0
  9
$USERR1
 40
0.0
  9
$USERR2
 40
0.0
  9
$USERR3
 40
0.0
  9
$USERR4
 40
0.0
  9
$USERR5
 40
0.0
  9
$WORLDVIEW
 70
     1
  9
$SHADEDGE
 70
     3
  9
$SHADEDIF
 70
    70
  9
$TILEMODE
 70
     1
  9
$MAXACTVP
 70
    64
  9
$PINSBASE
 10
0.0
 20
0.0
 30
0.0
  9
$PLIMCHECK
 70
     0
  9
$PEXTMIN
 10
1.000000000000000E+20
 20
1.000000000000000E+20
 30
1.000000000000000E+20
  9
$PEXTMAX
 10
-1.000000000000000E+20
 20
-1.000000000000000E+20
 30
-1.000000000000000E+20
  9
$PLIMMIN
 10
0.0
 20
0.0
  9
$PLIMMAX
 10
12.0
 20
9.0
  9
$UNITMODE
 70
     0
  9
$VISRETAIN
 70
     1
  9
$PLINEGEN
 70
     0
  9
$PSLTSCALE
 70
     1
  9
$TREEDEPTH
 70
  3020
  9
$CMLSTYLE
  2
Standard
  9
$CMLJUST
 70
     0
  9
$CMLSCALE
 40
1.0
  9
$PROXYGRAPHICS
 70
     1
  9
$MEASUREMENT
 70
     0
  9
$CELWEIGHT
370
    -1
  9
$ENDCAPS
280
     0
  9
$JOINSTYLE
280
     0
  9
$LWDISPLAY
290
     1
  9
$INSUNITS
 70
     1
  9
$HYPERLINKBASE
  1

  9
$STYLESHEET
  1

  9
$XEDIT
290
     1
  9
$CEPSNTYPE
380
     0
  9
$PSTYLEMODE
290
     1
  9
$FINGERPRINTGUID
  2
{8F8DBD4E-6F86-F347-B904-C3072C7C77FF}
  9
$VERSIONGUID
  2
{B205D2E2-469E-174C-920A-E83D00EC976D}
  9
$EXTNAMES
290
     1
  9
$PSVPSCALE
 40
0.0
  9
$OLESTARTUP
290
     0
  9
$SORTENTS
280
   127
  9
$INDEXCTL
280
     0
  9
$HIDETEXT
280
     1
  9
$XCLIPFRAME
280
     2
  9
$HALOGAP
280
     0
  9
$OBSCOLOR
 70
   257
  9
$OBSLTYPE
280
     0
  9
$INTERSECTIONDISPLAY
280
     0
  9
$INTERSECTIONCOLOR
 70
   257
  9
$DIMASSOC
280
     2
  9
$PROJECTNAME
  1

  9
$CAMERADISPLAY
290
     0
  9
$LENSLENGTH
 40
50.0
  9
$CAMERAHEIGHT
 40
0.0
  9
$STEPSPERSEC
 40
2.0
  9
$STEPSIZE
 40
6.0
  9
$3DDWFPREC
 40
2.0
  9
$PSOLWIDTH
 40
0.25
  9
$PSOLHEIGHT
 40
4.0
  9
$LOFTANG1
 40
1.570796326794896
  9
$LOFTANG2
 40
1.570796326794896
  9
$LOFTMAG1
 40
0.0
  9
$LOFTMAG2
 40
0.0
  9
$LOFTPARAM
 70
     7
  9
$LOFTNORMALS
280
     1
  9
$LATITUDE
 40
37.795
  9
$LONGITUDE
 40
-122.394
  9
$NORTHDIRECTION
 40
0.0
  9
$TIMEZONE
 70
 -8000
  9
$LIGHTGLYPHDISPLAY
280
     1
  9
$TILEMODELIGHTSYNCH
280
     1
  9
$CMATERIAL
347
11
  9
$SOLIDHIST
280
     0
  9
$SHOWHIST
280
     1
  9
$DWFFRAME
280
     2
  9
$DGNFRAME
280
     0
  9
$REALWORLDSCALE
290
     1
  9
$INTERFERECOLOR
 62
     1
  9
$INTERFEREOBJVS
345
33
  9
$INTERFEREVPVS
346
30
  9
$CSHADOW
280
     0
  9
$SHADOWPLANELOCATION
 40
0.0
  0
ENDSEC
  0
SECTION
  2
CLASSES
  0
CLASS
  1
ACDBDICTIONARYWDFLT
  2
AcDbDictionaryWithDefault
  3
ObjectDBX Classes
 90
        0
 91
        1
280
     0
281
     0
  0
CLASS
  1
MATERIAL
  2
AcDbMaterial
  3
ObjectDBX Classes
 90
     1153
 91
        3
280
     0
281
     0
  0
CLASS
  1
VISUALSTYLE
  2
AcDbVisualStyle
  3
ObjectDBX Classes
 90
     4095
 91
       24
280
     0
281
     0
  0
CLASS
  1
SCALE
  2
AcDbScale
  3
ObjectDBX Classes
 90
     1153
 91
       17
280
     0
281
     0
  0
CLASS
  1
TABLESTYLE
  2
AcDbTableStyle
  3
ObjectDBX Classes
 90
     4095
 91
        1
280
     0
281
     0
  0
CLASS
  1
MLEADERSTYLE
  2
AcDbMLeaderStyle
  3
ACDB_MLEADERSTYLE_CLASS
 90
     4095
 91
        1
280
     0
281
     0
  0
CLASS
  1
ACDBSECTIONVIEWSTYLE
  2
AcDbSectionViewStyle
  3
ObjectDBX Classes
 90
     1025
 91
        1
280
     0
281
     0
  0
CLASS
  1
ACDBDETAILVIEWSTYLE
  2
AcDbDetailViewStyle
  3
ObjectDBX Classes
 90
     1025
 91
        1
280
     0
281
     0
  0
CLASS
  1
DICTIONARYVAR
  2
AcDbDictionaryVar
  3
ObjectDBX Classes
 90
        0
 91
        5
280
     0
281
     0
  0
CLASS
  1
CELLSTYLEMAP
  2
AcDbCellStyleMap
  3
ObjectDBX Classes
 90
     1152
 91
        1
280
     0
281
     0
  0
ENDSEC
  0
SECTION
  2
TABLES
  0
TABLE
  2
VPORT
  5
8
330
0
100
AcDbSymbolTable
 70
     1
  0
VPORT
  5
57
330
8
100
AcDbSymbolTableRecord
100
AcDbViewportTableRecord
  2
*Active
 70
     0
 10
0.0
 20
0.0
 11
1.0
 21
1.0
 12
0.0
 22
0.0
 13
0.0
 23
0.0
 14
1.0
 24
1.0
 15
0.0
 25
0.0
 16
0.0
 26
0.0
 36
1.0
 17
-0.0092103407118
 27
-1.544947506561811
 37
0.0
 40
3.605807086613904
 41
1.251598413331496
 42
50.0
 43
0.0
 44
0.0
 50
0.0
 51
0.0
 71
     0
 72
   100
 73
     1
 74
     1
 75
     0
 76
     0
 77
     0
 78
     0
281
     0
 65
     1
110
0.0
120
0.0
130
0.0
111
1.0
121
0.0
131
0.0
112
0.0
122
1.0
132
0.0
 79
     0
146
0.0
 60
     3
 61
     5
292
     1
282
     1
141
0.0
142
0.0
 63
   250
421
  3355443
  0
ENDTAB
  0
TABLE
  2
LTYPE
  5
5
330
0
100
AcDbSymbolTable
 70
     1
  0
LTYPE
  5
5B
330
5
100
AcDbSymbolTableRecord
100
AcDbLinetypeTableRecord
  2
ByBlock
 70
     0
  3

 72
    65
 73
     0
 40
0.0
  0
LTYPE
  5
5C
330
5
100
AcDbSymbolTableRecord
100
AcDbLinetypeTableRecord
  2
ByLayer
 70
     0
  3

 72
    65
 73
     0
 40
0.0
  0
LTYPE
  5
5D
330
5
100
AcDbSymbolTableRecord
100
AcDbLinetypeTableRecord
  2
Continuous
 70
     0
  3
Solid line
 72
    65
 73
     0
 40
0.0
  0
ENDTAB
  0
TABLE
  2
LAYER
  5
2
330
0
100
AcDbSymbolTable
 70
     5
  0
LAYER
  5
54
330
2
100
AcDbSymbolTableRecord
100
AcDbLayerTableRecord
  2
0
 70
     0
 62
     7
  6
Continuous
370
    -3
390
F
347
21
348
0
  0
LAYER
  5
78
330
2
100
AcDbSymbolTableRecord
100
AcDbLayerTableRecord
  2
Fonts
 70
     1
 62
     7
  6
Continuous
370
     0
390
F
347
21
348
0
  0
LAYER
  5
79
330
2
100
AcDbSymbolTableRecord
100
AcDbLayerTableRecord
  2
Green
 70
     5
 62
     7
  6
Continuous
370
     0
390
F
347
21
348
0
  0
LAYER
  5
7A
330
2
100
AcDbSymbolTableRecord
100
AcDbLayerTableRecord
  2
White
 70
     4
 62
     7
  6
Continuous
370
     0
390
F
347
21
348
0
  0
LAYER
  5
7B
330
2
100
AcDbSymbolTableRecord
100
AcDbLayerTableRecord
  2
Mr&Mrs with Date
 70
     0
 62
     7
  6
Continuous
370
     0
390
F
347
21
348
0
  0
ENDTAB
  0
TABLE
  2
STYLE
  5
3
330
0
100
AcDbSymbolTable
 70
     2
  0
STYLE
  5
55
330
3
100
AcDbSymbolTableRecord
100
AcDbTextStyleTableRecord
  2
Standard
 70
     0
 40
0.0
 41
1.0
 50
0.0
 71
     0
 42
0.2
  3
txt
  4

  0
STYLE
  5
5A
330
3
100
AcDbSymbolTableRecord
100
AcDbTextStyleTableRecord
  2
Annotative
 70
     0
 40
0.0
 41
1.0
 50
0.0
 71
     0
 42
0.2
  3
txt
  4

1001
AcadAnnotative
1000
AnnotativeData
1002
{
1070
     1
1070
     1
1002
}
  0
ENDTAB
  0
TABLE
  2
VIEW
  5
6
330
0
100
AcDbSymbolTable
 70
     0
  0
ENDTAB
  0
TABLE
  2
UCS
  5
7
330
0
100
AcDbSymbolTable
 70
     0
  0
ENDTAB
  0
TABLE
  2
APPID
  5
9
330
0
100
AcDbSymbolTable
 70
     2
  0
APPID
  5
56
330
9
100
AcDbSymbolTableRecord
100
AcDbRegAppTableRecord
  2
ACAD
 70
     0
  0
APPID
  5
5E
330
9
100
AcDbSymbolTableRecord
100
AcDbRegAppTableRecord
  2
AcadAnnotative
 70
     0
  0
ENDTAB
  0
TABLE
  2
DIMSTYLE
  5
A
330
0
100
AcDbSymbolTable
 70
     2
100
AcDbDimStyleTable
 71
     0
  0
DIMSTYLE
105
58
330
A
100
AcDbSymbolTableRecord
100
AcDbDimStyleTableRecord
  2
Standard
 70
     0
340
55
  0
DIMSTYLE
105
59
330
A
100
AcDbSymbolTableRecord
100
AcDbDimStyleTableRecord
  2
Annotative
 70
     0
340
55
1001
AcadAnnotative
1000
AnnotativeData
1002
{
1070
     1
1070
     1
1002
}
  0
ENDTAB
  0
TABLE
  2
BLOCK_RECORD
  5
1
330
0
100
AcDbSymbolTable
 70
     5
  0
BLOCK_RECORD
  5
70
330
1
100
AcDbSymbolTableRecord
100
AcDbBlockTableRecord
  2
*Model_Space
340
73
 70
     0
280
     1
281
     0
  0
BLOCK_RECORD
  5
6C
330
1
100
AcDbSymbolTableRecord
100
AcDbBlockTableRecord
  2
*Paper_Space
340
6F
 70
     0
280
     1
281
     0
  0
BLOCK_RECORD
  5
74
330
1
100
AcDbSymbolTableRecord
100
AcDbBlockTableRecord
  2
*Paper_Space0
340
77
 70
     0
280
     1
281
     0
  0
BLOCK_RECORD
  5
7E
330
1
100
AcDbSymbolTableRecord
100
AcDbBlockTableRecord
  2
Block_0
340
0
102
{BLKREFS
331
7F
102
}
 70
     0
280
     1
281
     0
  0
BLOCK_RECORD
  5
89
330
1
100
AcDbSymbolTableRecord
100
AcDbBlockTableRecord
  2
Block_1
340
0
102
{BLKREFS
331
8A
102
}
 70
     0
280
     1
281
     0
  0
BLOCK_RECORD
  5
8D
330
1
100
AcDbSymbolTableRecord
100
AcDbBlockTableRecord
  2
Block_2
340
0
102
{BLKREFS
331
8E
102
}
 70
     0
280
     1
281
     0
  0
BLOCK_RECORD
  5
9D
330
1
100
AcDbSymbolTableRecord
100
AcDbBlockTableRecord
  2
Block_3
340
0
102
{BLKREFS
331
9E
102
}
 70
     0
280
     1
281
     0
  0
ENDTAB
  0
ENDSEC
  0
SECTION
  2
BLOCKS
  0
BLOCK
  5
71
330
70
100
AcDbEntity
  8
0
100
AcDbBlockBegin
  2
*Model_Space
 70
     0
 10
0.0
 20
0.0
 30
0.0
  3
*Model_Space
  1

  0
ENDBLK
  5
72
330
70
100
AcDbEntity
  8
0
100
AcDbBlockEnd
  0
BLOCK
  5
6D
330
6C
100
AcDbEntity
 67
     1
  8
0
100
AcDbBlockBegin
  2
*Paper_Space
 70
     0
 10
0.0
 20
0.0
 30
0.0
  3
*Paper_Space
  1

  0
ENDBLK
  5
6E
330
6C
100
AcDbEntity
 67
     1
  8
0
100
AcDbBlockEnd
  0
BLOCK
  5
75
330
74
100
AcDbEntity
 67
     1
  8
0
100
AcDbBlockBegin
  2
*Paper_Space0
 70
     0
 10
0.0
 20
0.0
 30
0.0
  3
*Paper_Space0
  1

  0
ENDBLK
  5
76
330
74
100
AcDbEntity
 67
     1
  8
0
100
AcDbBlockEnd
  0
BLOCK
  5
80
330
7E
100
AcDbEntity
  8
0
100
AcDbBlockBegin
  2
Block_0
 70
     0
 10
0.0
 20
0.0
 30
0.0
  3
Block_0
  1

  0
SPLINE
  5
82
330
7E
100
AcDbEntity
  8
Mr&Mrs with Date
100
AcDbSpline
210
0.0
220
0.0
230
1.0
 70
     9
 71
     3
 72
   353
 73
   349
 74
     0
 42
0.0000000001
 43
0.0000000001
 40
0.0
 40
0.0
 40
0.0
 40
0.0
 40
1.0
 40
1.0
 40
1.0
 40
2.0
 40
2.0
 40
2.0
 40
3.0
 40
3.0
 40
3.0
 40
4.0
 40
4.0
 40
4.0
 40
5.0
 40
5.0
 40
5.0
 40
6.0
 40
6.0
 40
6.0
 40
7.0
 40
7.0
 40
7.0
 40
8.0
 40
8.0
 40
8.0
 40
9.0
 40
9.0
 40
9.0
 40
10.0
 40
10.0
 40
10.0
 40
11.0
 40
11.0
 40
11.0
 40
12.0
 40
12.0
 40
12.0
 40
13.0
 40
13.0
 40
13.0
 40
14.0
 40
14.0
 40
14.0
 40
15.0
 40
15.0
 40
15.0
 40
16.0
 40
16.0
 40
16.0
 40
17.0
 40
17.0
 40
17.0
 40
18.0
 40
18.0
 40
18.0
 40
19.0
 40
19.0
 40
19.0
 40
20.0
 40
20.0
 40
20.0
 40
21.0
 40
21.0
 40
21.0
 40
22.0
 40
22.0
 40
22.0
 40
23.0
 40
23.0
 40
23.0
 40
24.0
 40
24.0
 40
24.0
 40
25.0
 40
25.0
 40
25.0
 40
26.0
 40
26.0
 40
26.0
 40
27.0
 40
27.0
 40
27.0
 40
28.0
 40
28.0
 40
28.0
 40
29.0
 40
29.0
 40
29.0
 40
30.0
 40
30.0
 40
30.0
 40
31.0
 40
31.0
 40
31.0
 40
32.0
 40
32.0
 40
32.0
 40
33.0
 40
33.0
 40
33.0
 40
34.0
 40
34.0
 40
34.0
 40
35.0
 40
35.0
 40
35.0
 40
36.0
 40
36.0
 40
36.0
 40
37.0
 40
37.0
 40
37.0
 40
38.0
 40
38.0
 40
38.0
 40
39.0
 40
39.0
 40
39.0
 40
40.0
 40
40.0
 40
40.0
 40
41.0
 40
41.0
 40
41.0
 40
42.0
 40
42.0
 40
42.0
 40
43.0
 40
43.0
 40
43.0
 40
44.0
 40
44.0
 40
44.0
 40
45.0
 40
45.0
 40
45.0
 40
46.0
 40
46.0
 40
46.0
 40
47.0
 40
47.0
 40
47.0
 40
48.0
 40
48.0
 40
48.0
 40
49.0
 40
49.0
 40
49.0
 40
50.0
 40
50.0
 40
50.0
 40
51.0
 40
51.0
 40
51.0
 40
52.0
 40
52.0
 40
52.0
 40
53.0
 40
53.0
 40
53.0
 40
54.0
 40
54.0
 40
54.0
 40
55.0
 40
55.0
 40
55.0
 40
56.0
 40
56.0
 40
56.0
 40
57.0
 40
57.0
 40
57.0
 40
58.0
 40
58.0
 40
58.0
 40
59.0
 40
59.0
 40
59.0
 40
60.0
 40
60.0
 40
60.0
 40
61.0
 40
61.0
 40
61.0
 40
62.0
 40
62.0
 40
62.0
 40
63.0
 40
63.0
 40
63.0
 40
64.0
 40
64.0
 40
64.0
 40
65.0
 40
65.0
 40
65.0
 40
66.0
 40
66.0
 40
66.0
 40
67.0
 40
67.0
 40
67.0
 40
68.0
 40
68.0
 40
68.0
 40
69.0
 40
69.0
 40
69.0
 40
70.0
 40
70.0
 40
70.0
 40
71.0
 40
71.0
 40
71.0
 40
72.0
 40
72.0
 40
72.0
 40
73.0
 40
73.0
 40
73.0
 40
74.0
 40
74.0
 40
74.0
 40
75.0
 40
75.0
 40
75.0
 40
76.0
 40
76.0
 40
76.0
 40
77.0
 40
77.0
 40
77.0
 40
78.0
 40
78.0
 40
78.0
 40
79.0
 40
79.0
 40
79.0
 40
80.0
 40
80.0
 40
80.0
 40
81.0
 40
81.0
 40
81.0
 40
82.0
 40
82.0
 40
82.0
 40
83.0
 40
83.0
 40
83.0
 40
84.0
 40
84.0
 40
84.0
 40
85.0
 40
85.0
 40
85.0
 40
86.0
 40
86.0
 40
86.0
 40
87.0
 40
87.0
 40
87.0
 40
88.0
 40
88.0
 40
88.0
 40
89.0
 40
89.0
 40
89.0
 40
90.0
 40
90.0
 40
90.0
 40
91.0
 40
91.0
 40
91.0
 40
92.0
 40
92.0
 40
92.0
 40
93.0
 40
93.0
 40
93.0
 40
94.0
 40
94.0
 40
94.0
 40
95.0
 40
95.0
 40
95.0
 40
96.0
 40
96.0
 40
96.0
 40
97.0
 40
97.0
 40
97.0
 40
98.0
 40
98.0
 40
98.0
 40
99.0
 40
99.0
 40
99.0
 40
100.0
 40
100.0
 40
100.0
 40
101.0
 40
101.0
 40
101.0
 40
102.0
 40
102.0
 40
102.0
 40
103.0
 40
103.0
 40
103.0
 40
104.0
 40
104.0
 40
104.0
 40
105.0
 40
105.0
 40
105.0
 40
106.0
 40
106.0
 40
106.0
 40
107.0
 40
107.0
 40
107.0
 40
108.0
 40
108.0
 40
108.0
 40
109.0
 40
109.0
 40
109.0
 40
110.0
 40
110.0
 40
110.0
 40
111.0
 40
111.0
 40
111.0
 40
112.0
 40
112.0
 40
112.0
 40
113.0
 40
113.0
 40
113.0
 40
114.0
 40
114.0
 40
114.0
 40
115.0
 40
115.0
 40
115.0
 40
116.0
 40
116.0
 40
116.0
 40
116.0
 10
0.22711181640625
 20
-2.556802961561414
 30
0.0
 10
0.2212660047743055
 20
-2.556802961561414
 30
0.0
 10
0.2181328667534722
 20
-2.561536577012803
 30
0.0
 10
0.2176513671875
 20
-2.562363942464192
 30
0.0
 10
0.2176513671875
 20
-2.562363942464192
 30
0.0
 10
0.2131822374131944
 20
-2.567531585693359
 30
0.0
 10
0.2131822374131944
 20
-2.567531585693359
 30
0.0
 10
0.2081434461805555
 20
-2.573350270589192
 30
0.0
 10
0.2035115559895833
 20
-2.578721364339192
 30
0.0
 10
0.1990966796875
 20
-2.583522796630859
 30
0.0
 10
0.1967909071180556
 20
-2.585977766248914
 30
0.0
 10
0.1944783528645833
 20
-2.587876637776692
 30
0.0
 10
0.1923014322916666
 20
-2.589680565728081
 30
0.0
 10
0.1902737087673611
 20
-2.591348859998914
 30
0.0
 10
0.1883477105034722
 20
-2.592962900797525
 30
0.0
 10
0.1871134440104166
 20
-2.594251420762803
 30
0.0
 10
0.1856825086805556
 20
-2.595417870415581
 30
0.0
 10
0.1843058268229166
 20
-2.596814897325303
 30
0.0
 10
0.1829359266493056
 20
-2.598252614339192
 30
0.0
 10
0.1811794704861111
 20
-2.600097232394748
 30
0.0
 10
0.1791924370659722
 20
-2.602185991075303
 30
0.0
 10
0.1780327690972222
 20
-2.602185991075303
 30
0.0
 10
0.1754489474826389
 20
-2.602185991075303
 30
0.0
 10
0.1752454969618056
 20
-2.601033104790581
 30
0.0
 10
0.1750623914930556
 20
-2.600015852186414
 30
0.0
 10
0.1750623914930556
 20
-2.600015852186414
 30
0.0
 10
0.1745537651909722
 20
-2.597642262776692
 30
0.0
 10
0.1745537651909722
 20
-2.597642262776692
 30
0.0
 10
0.1749945746527778
 20
-2.595485687255859
 30
0.0
 10
0.1758083767361111
 20
-2.593288421630859
 30
0.0
 10
0.1768120659722222
 20
-2.591416676839192
 30
0.0
 10
0.1768120659722222
 20
-2.591416676839192
 30
0.0
 10
0.18524169921875
 20
-2.577826182047525
 30
0.0
 10
0.18524169921875
 20
-2.577826182047525
 30
0.0
 10
0.1901923285590278
 20
-2.569850921630859
 30
0.0
 10
0.19580078125
 20
-2.560817718505859
 30
0.0
 10
0.19580078125
 20
-2.550034840901692
 30
0.0
 10
0.19580078125
 20
-2.537298838297525
 30
0.0
 10
0.18365478515625
 20
-2.536756303575303
 30
0.0
 10
0.1778496636284722
 20
-2.536498599582248
 30
0.0
 10
0.1727294921875
 20
-2.536240895589192
 30
0.0
 10
0.1706339518229166
 20
-2.535996754964192
 30
0.0
 10
0.1681043836805556
 20
-2.535372840033637
 30
0.0
 10
0.1681043836805556
 20
-2.535372840033637
 30
0.0
 10
0.16705322265625
 20
-2.535739050971137
 30
0.0
 10
0.16705322265625
 20
-2.535739050971137
 30
0.0
 10
0.16705322265625
 20
-2.535739050971137
 30
0.0
 10
0.1636827256944444
 20
-2.532185448540581
 30
0.0
 10
0.1636827256944444
 20
-2.532185448540581
 30
0.0
 10
0.1636013454861111
 20
-2.531724294026692
 30
0.0
 10
0.1636081271701389
 20
-2.531127505832248
 30
0.0
 10
0.1636081271701389
 20
-2.530245886908637
 30
0.0
 10
0.1636081271701389
 20
-2.530245886908637
 30
0.0
 10
0.1636081271701389
 20
-2.526285383436414
 30
0.0
 10
0.1636081271701389
 20
-2.526285383436414
 30
0.0
 10
0.1636081271701389
 20
-2.521456824408637
 30
0.0
 10
0.1636081271701389
 20
-2.511419932047525
 30
0.0
 10
0.1490139431423611
 20
-2.511419932047525
 30
0.0
 10
0.1390719943576389
 20
-2.511419932047525
 30
0.0
 10
0.1309882269965278
 20
-2.518567827012803
 30
0.0
 10
0.1309882269965278
 20
-2.527343326144748
 30
0.0
 10
0.1309882269965278
 20
-2.52947277492947
 30
0.0
 10
0.1316324869791666
 20
-2.531873491075303
 30
0.0
 10
0.1331312391493056
 20
-2.535359276665581
 30
0.0
 10
0.1331312391493056
 20
-2.535359276665581
 30
0.0
 10
0.1332736545138889
 20
-2.535684797498914
 30
0.0
 10
0.1332736545138889
 20
-2.535684797498914
 30
0.0
 10
0.1334228515625
 20
-2.536485036214192
 30
0.0
 10
0.1336263020833333
 20
-2.538099077012803
 30
0.0
 10
0.1336263020833333
 20
-2.539468977186414
 30
0.0
 10
0.1336263020833333
 20
-2.539509667290581
 30
0.0
 10
0.1335788302951389
 20
-2.540608300103081
 30
0.0
 10
0.1323920355902778
 20
-2.544148339165581
 30
0.0
 10
0.1321750217013889
 20
-2.544799380832248
 30
0.0
 10
0.1315578884548611
 20
-2.546223534478081
 30
0.0
 10
0.1313680013020833
 20
-2.546874576144748
 30
0.0
 10
0.1309271918402778
 20
-2.547674814860025
 30
0.0
 10
0.1300455729166666
 20
-2.54863781399197
 30
0.0
 10
0.1285875108506944
 20
-2.550401051839192
 30
0.0
 10
0.1253153483072916
 20
-2.554418351915147
 30
0.0
 10
0.1220389472113715
 20
-2.558190663655598
 30
0.0
 10
0.1183641221788194
 20
-2.562146928575303
 30
0.0
 10
0.1172578599717882
 20
-2.563409169514973
 30
0.0
 10
0.1161575317382812
 20
-2.56465106540256
 30
0.0
 10
0.1151165432400174
 20
-2.56591330634223
 30
0.0
 10
0.1151165432400174
 20
-2.56591330634223
 30
0.0
 10
0.1129964192708333
 20
-2.568372514512803
 30
0.0
 10
0.1129964192708333
 20
-2.568372514512803
 30
0.0
 10
0.1128565470377604
 20
-2.568547142876518
 30
0.0
 10
0.1128599378797743
 20
-2.568681081136067
 30
0.0
 10
0.1127344767252604
 20
-2.568852318657768
 30
0.0
 10
0.1119562784830729
 20
-2.569826338026258
 30
0.0
 10
0.1111212836371528
 20
-2.570814768473307
 30
0.0
 10
0.1103651258680556
 20
-2.571776919894748
 30
0.0
 10
0.1078965928819444
 20
-2.574530283610025
 30
0.0
 10
0.1057061089409722
 20
-2.577256520589192
 30
0.0
 10
0.1036444769965278
 20
-2.579847123887803
 30
0.0
 10
0.0980495876736111
 20
-2.586452484130859
 30
0.0
 10
0.0925971137152778
 20
-2.591620127360025
 30
0.0
 10
0.0858222113715278
 20
-2.597628699408637
 30
0.0
 10
0.0846761067708333
 20
-2.598781585693359
 30
0.0
 10
0.0838148328993056
 20
-2.600124359130859
 30
0.0
 10
0.0830552842881944
 20
-2.601317935519748
 30
0.0
 10
0.0827704535590278
 20
-2.601751963297525
 30
0.0
 10
0.0824856228298611
 20
-2.602199554443359
 30
0.0
 10
0.0828111436631944
 20
-2.601955413818359
 30
0.0
 10
0.0826687282986111
 20
-2.602091047498914
 30
0.0
 10
0.0825263129340278
 20
-2.602213117811414
 30
0.0
 10
0.0823771158854167
 20
-2.602321624755859
 30
0.0
 10
0.0823771158854167
 20
-2.602308061387803
 30
0.0
 10
0.0823771158854167
 20
-2.602280934651692
 30
0.0
 10
0.0823771158854167
 20
-2.602267371283637
 30
0.0
 10
0.0823771158854167
 20
-2.602267371283637
 30
0.0
 10
0.0823635525173611
 20
-2.594481998019748
 30
0.0
 10
0.0823635525173611
 20
-2.594481998019748
 30
0.0
 10
0.0829603407118056
 20
-2.584092458089192
 30
0.0
 10
0.0885009765625
 20
-2.568033430311414
 30
0.0
 10
0.0989651150173611
 20
-2.546508365207248
 30
0.0
 10
0.1069675021701389
 20
-2.532049814860025
 30
0.0
 10
0.1096666124131944
 20
-2.527167002360025
 30
0.0
 10
0.1126844618055556
 20
-2.52031750149197
 30
0.0
 10
0.1135932074652778
 20
-2.518201616075303
 30
0.0
 10
0.1145901150173611
 20
-2.516180674235025
 30
0.0
 10
0.1155666775173611
 20
-2.514200422498914
 30
0.0
 10
0.1155666775173611
 20
-2.514200422498914
 30
0.0
 10
0.1175876193576389
 20
-2.510009341769748
 30
0.0
 10
0.1175876193576389
 20
-2.510009341769748
 30
0.0
 10
0.1195339626736111
 20
-2.506103091769748
 30
0.0
 10
0.1214667426215278
 20
-2.502196841769748
 30
0.0
 10
0.1231146918402778
 20
-2.497517479790581
 30
0.0
 10
0.1245930989583333
 20
-2.49346203274197
 30
0.0
 10
0.1245930989583333
 20
-2.489881303575303
 30
0.0
 10
0.1245930989583333
 20
-2.486707475450303
 30
0.0
 10
0.1245930989583333
 20
-2.486707475450303
 30
0.0
 10
0.1245930989583333
 20
-2.481160057915581
 30
0.0
 10
0.1245930989583333
 20
-2.481160057915581
 30
0.0
 10
0.1245930989583333
 20
-2.472059037950303
 30
0.0
 10
0.11895751953125
 20
-2.462347666422525
 30
0.0
 10
0.1031358506944444
 20
-2.462347666422525
 30
0.0
 10
0.0853610568576389
 20
-2.462347666422525
 30
0.0
 10
0.0689493815104167
 20
-2.477403004964192
 30
0.0
 10
0.0586276584201389
 20
-2.487331390380859
 30
0.0
 10
0.0589667426215278
 20
-2.484496646457248
 30
0.0
 10
0.0591295030381945
 20
-2.481770409478081
 30
0.0
 10
0.0591159396701389
 20
-2.479111989339192
 30
0.0
 10
0.0591159396701389
 20
-2.479111989339192
 30
0.0
 10
0.0586276584201389
 20
-2.474839528401692
 30
0.0
 10
0.0586276584201389
 20
-2.474839528401692
 30
0.0
 10
0.0586276584201389
 20
-2.460041893853081
 30
0.0
 10
0.0494791666666667
 20
-2.450479719373914
 30
0.0
 10
0.0353257921006945
 20
-2.450479719373914
 30
0.0
 10
0.0109659830729167
 20
-2.450479719373914
 30
0.0
 10
-0.0091213650173611
 20
-2.478271060519748
 30
0.0
 10
-0.0199313693576389
 20
-2.49321789211697
 30
0.0
 10
-0.0214911566840278
 20
-2.495401594373914
 30
0.0
 10
-0.0229695638020833
 20
-2.497476789686414
 30
0.0
 10
-0.0243665907118056
 20
-2.499457041422525
 30
0.0
 10
-0.01910400390625
 20
-2.485608842637803
 30
0.0
 10
-0.0147230360243056
 20
-2.469848208957248
 30
0.0
 10
-0.0147230360243056
 20
-2.461371103922525
 30
0.0
 10
-0.0147230360243056
 20
-2.44414562649197
 30
0.0
 10
-0.0243801540798611
 20
-2.442816416422525
 30
0.0
 10
-0.03802490234375
 20
-2.442816416422525
 30
0.0
 10
-0.0445692274305556
 20
-2.442816416422525
 30
0.0
 10
-0.0516153971354167
 20
-2.444104936387803
 30
0.0
 10
-0.0602281358506945
 20
-2.446858300103081
 30
0.0
 10
-0.0703870985243056
 20
-2.450167761908637
 30
0.0
 10
-0.0821465386284722
 20
-2.454385969373914
 30
0.0
 10
-0.0931667751736111
 20
-2.462713877360025
 30
0.0
 10
-0.0983751085069444
 20
-2.466701507568359
 30
0.0
 10
-0.1016574435763889
 20
-2.470648447672525
 30
0.0
 10
-0.1040513780381944
 20
-2.473523881700303
 30
0.0
 10
-0.1040513780381944
 20
-2.473523881700303
 30
0.0
 10
-0.1075439453125
 20
-2.477158864339192
 30
0.0
 10
-0.1075439453125
 20
-2.477158864339192
 30
0.0
 10
-0.1092664930555556
 20
-2.478908538818359
 30
0.0
 10
-0.1108127170138889
 20
-2.480481889512803
 30
0.0
 10
-0.1134982638888889
 20
-2.483601464165581
 30
0.0
 10
-0.1150580512152778
 20
-2.485676659478081
 30
0.0
 10
-0.1159464518229166
 20
-2.488145192464192
 30
0.0
 10
-0.1159464518229166
 20
-2.490396711561414
 30
0.0
 10
-0.1159464518229166
 20
-2.496310340033637
 30
0.0
 10
-0.1109551323784722
 20
-2.501301659478081
 30
0.0
 10
-0.10504150390625
 20
-2.501301659478081
 30
0.0
 10
-0.1007893880208333
 20
-2.501301659478081
 30
0.0
 10
-0.0976087782118056
 20
-2.499497731526692
 30
0.0
 10
-0.0959879557291667
 20
-2.496554480658637
 30
0.0
 10
-0.0950995551215278
 20
-2.495510101318359
 30
0.0
 10
-0.0926920572916667
 20
-2.493448469373914
 30
0.0
 10
-0.0880059136284722
 20
-2.489284515380859
 30
0.0
 10
-0.0880059136284722
 20
-2.489284515380859
 30
0.0
 10
-0.0790812174479167
 20
-2.481309254964192
 30
0.0
 10
-0.0790812174479167
 20
-2.481309254964192
 30
0.0
 10
-0.0780029296875
 20
-2.480454762776692
 30
0.0
 10
-0.0769178602430556
 20
-2.479518890380859
 30
0.0
 10
-0.0758870442708333
 20
-2.478610144721137
 30
0.0
 10
-0.0747205946180556
 20
-2.47759289211697
 30
0.0
 10
-0.0736829969618056
 20
-2.476589202880859
 30
0.0
 10
-0.0727403428819444
 20
-2.476046668158637
 30
0.0
 10
-0.05975341796875
 20
-2.468329111735025
 30
0.0
 10
-0.0512288411458333
 20
-2.465833452012803
 30
0.0
 10
-0.0459120008680556
 20
-2.465290917290581
 30
0.0
 10
-0.0476888020833333
 20
-2.473822275797525
 30
0.0
 10
-0.0558878580729167
 20
-2.495482974582248
 30
0.0
 10
-0.0625203450520833
 20
-2.507527245415581
 30
0.0
 10
-0.073974609375
 20
-2.527506086561414
 30
0.0
 10
-0.0780097113715278
 20
-2.535549163818359
 30
0.0
 10
-0.0806070963541667
 20
-2.541611989339192
 30
0.0
 10
-0.0989718967013889
 20
-2.58684582180447
 30
0.0
 10
-0.1078762478298611
 20
-2.603759341769748
 30
0.0
 10
-0.1119249131944444
 20
-2.609727223714192
 30
0.0
 10
-0.1140679253472222
 20
-2.612589094373914
 30
0.0
 10
-0.1151529947916666
 20
-2.615762922498914
 30
0.0
 10
-0.1151529947916666
 20
-2.619153764512803
 30
0.0
 10
-0.1151529947916666
 20
-2.624511294894748
 30
0.0
 10
-0.1077473958333333
 20
-2.635863833957248
 30
0.0
 10
-0.0995008680555556
 20
-2.635863833957248
 30
0.0
 10
-0.0945909288194444
 20
-2.635863833957248
 30
0.0
 10
-0.0899997287326389
 20
-2.631577809651692
 30
0.0
 10
-0.0877549913194444
 20
-2.628729502360025
 30
0.0
 10
-0.0877549913194444
 20
-2.628729502360025
 30
0.0
 10
-0.0856187608506944
 20
-2.627305348714192
 30
0.0
 10
-0.0856187608506944
 20
-2.627305348714192
 30
0.0
 10
-0.0856187608506944
 20
-2.627305348714192
 30
0.0
 10
-0.0839369032118056
 20
-2.625718434651692
 30
0.0
 10
-0.0839369032118056
 20
-2.625718434651692
 30
0.0
 10
-0.0759819878472222
 20
-2.615193261040581
 30
0.0
 10
-0.062255859375
 20
-2.594875335693359
 30
0.0
 10
-0.0463663736979167
 20
-2.571356455485025
 30
0.0
 10
-0.0463663736979167
 20
-2.571356455485025
 30
0.0
 10
-0.0327012803819445
 20
-2.550970713297525
 30
0.0
 10
-0.0327012803819445
 20
-2.550970713297525
 30
0.0
 10
-0.0249498155381945
 20
-2.539319780137803
 30
0.0
 10
-0.0182020399305556
 20
-2.529147254096137
 30
0.0
 10
-0.0136447482638889
 20
-2.522935231526692
 30
0.0
 10
-0.0058186848958333
 20
-2.511976030137803
 30
0.0
 10
0.01251220703125
 20
-2.489284515380859
 30
0.0
 10
0.02679443359375
 20
-2.480102115207248
 30
0.0
 10
0.0267130533854167
 20
-2.487087249755859
 30
0.0
 10
0.0233968098958333
 20
-2.497341156005859
 30
0.0
 10
0.01666259765625
 20
-2.511419932047525
 30
0.0
 10
0.0129326714409722
 20
-2.519191741943359
 30
0.0
 10
0.0091010199652778
 20
-2.526366763644748
 30
0.0
 10
0.0053575303819444
 20
-2.53337902492947
 30
0.0
 10
0.0030381944444444
 20
-2.537732866075303
 30
0.0
 10
0.0007527669270833
 20
-2.542018890380859
 30
0.0
 10
-0.0019259982638889
 20
-2.547498491075303
 30
0.0
 10
-0.0019259982638889
 20
-2.547498491075303
 30
0.0
 10
-0.0053575303819444
 20
-2.552801767985025
 30
0.0
 10
-0.0053575303819444
 20
-2.552801767985025
 30
0.0
 10
-0.0108642578125
 20
-2.56304211086697
 30
0.0
 10
-0.0182088216145833
 20
-2.576415591769748
 30
0.0
 10
-0.0271267361111111
 20
-2.591633690728081
 30
0.0
 10
-0.0271267361111111
 20
-2.591633690728081
 30
0.0
 10
-0.0279405381944445
 20
-2.59331554836697
 30
0.0
 10
-0.0279405381944445
 20
-2.59331554836697
 30
0.0
 10
-0.0290120442708333
 20
-2.595621320936414
 30
0.0
 10
-0.0299343532986111
 20
-2.597601572672525
 30
0.0
 10
-0.0299343532986111
 20
-2.600951724582248
 30
0.0
 10
-0.0299343532986111
 20
-2.612887488471137
 30
0.0
 10
-0.0225287543402778
 20
-2.617132822672525
 30
0.0
 10
-0.0155978732638889
 20
-2.617132822672525
 30
0.0
 10
-0.0113932291666667
 20
-2.617132822672525
 30
0.0
 10
-0.003662109375
 20
-2.615003373887803
 30
0.0
 10
0.0007731119791667
 20
-2.608520083957248
 30
0.0
 10
0.0007731119791667
 20
-2.608520083957248
 30
0.0
 10
0.0284762912326389
 20
-2.558132171630859
 30
0.0
 10
0.0284762912326389
 20
-2.558132171630859
 30
0.0
 10
0.0365532769097222
 20
-2.543497297498914
 30
0.0
 10
0.0484280056423611
 20
-2.529282887776692
 30
0.0
 10
0.0601331922743056
 20
-2.516017913818359
 30
0.0
 10
0.06793212890625
 20
-2.50688976711697
 30
0.0
 10
0.0808173285590278
 20
-2.494777679443359
 30
0.0
 10
0.0916680230034722
 20
-2.488552093505859
 30
0.0
 10
0.0885348849826389
 20
-2.497341156005859
 30
0.0
 10
0.0824449327256944
 20
-2.509290483262803
 30
0.0
 10
0.0768703884548611
 20
-2.520005544026692
 30
0.0
 10
0.0768703884548611
 20
-2.520005544026692
 30
0.0
 10
0.0681898328993056
 20
-2.537366655137803
 30
0.0
 10
0.0681898328993056
 20
-2.537366655137803
 30
0.0
 10
0.0611029730902778
 20
-2.551255544026692
 30
0.0
 10
0.0560845269097222
 20
-2.563638899061414
 30
0.0
 10
0.0532701280381945
 20
-2.574177636040581
 30
0.0
 10
0.0526529947916667
 20
-2.575805240207248
 30
0.0
 10
0.05267333984375
 20
-2.577337900797525
 30
0.0
 10
0.0527750651041667
 20
-2.579616546630859
 30
0.0
 10
0.0527750651041667
 20
-2.579616546630859
 30
0.0
 10
0.05206298828125
 20
-2.583441416422525
 30
0.0
 10
0.05206298828125
 20
-2.583441416422525
 30
0.0
 10
0.05096435546875
 20
-2.587876637776692
 30
0.0
 10
0.0502794053819445
 20
-2.591199662950303
 30
0.0
 10
0.0502794053819445
 20
-2.594088660346137
 30
0.0
 10
0.0502794053819445
 20
-2.611151377360025
 30
0.0
 10
0.0636054144965278
 20
-2.625569237603081
 30
0.0
 10
0.0793863932291667
 20
-2.625569237603081
 30
0.0
 10
0.0828314887152778
 20
-2.625569237603081
 30
0.0
 10
0.0885891384548611
 20
-2.625569237603081
 30
0.0
 10
0.0930379231770833
 20
-2.621120452880859
 30
0.0
 10
0.0930379231770833
 20
-2.621120452880859
 30
0.0
 10
0.09576416015625
 20
-2.618638356526692
 30
0.0
 10
0.09576416015625
 20
-2.618638356526692
 30
0.0
 10
0.1028578016493056
 20
-2.61260265774197
 30
0.0
 10
0.1068522135416666
 20
-2.608655717637803
 30
0.0
 10
0.1138441297743056
 20
-2.60137218899197
 30
0.0
 10
0.1182768079969618
 20
-2.596441056993272
 30
0.0
 10
0.1243633694118924
 20
-2.589642418755425
 30
0.0
 10
0.1314442952473958
 20
-2.581258561876084
 30
0.0
 10
0.1368238661024306
 20
-2.576749589708116
 30
0.0
 10
0.1408615112304687
 20
-2.572000715467664
 30
0.0
 10
0.1466742621527778
 20
-2.564791785346137
 30
0.0
 10
0.1488444010416666
 20
-2.562214745415581
 30
0.0
 10
0.150634765625
 20
-2.559936099582248
 30
0.0
 10
0.1521877712673611
 20
-2.557779524061414
 30
0.0
 10
0.1538492838541666
 20
-2.558376312255859
 30
0.0
 10
0.1557278103298611
 20
-2.558701833089192
 30
0.0
 10
0.157470703125
 20
-2.559000227186414
 30
0.0
 10
0.158935546875
 20
-2.559230804443359
 30
0.0
 10
0.1601223415798611
 20
-2.559434254964192
 30
0.0
 10
0.1610785590277778
 20
-2.559610578748914
 30
0.0
 10
0.1607801649305556
 20
-2.560899098714192
 30
0.0
 10
0.1604071723090278
 20
-2.561957041422525
 30
0.0
 10
0.1600816514756944
 20
-2.562784406873914
 30
0.0
 10
0.1592678493923611
 20
-2.564601898193359
 30
0.0
 10
0.1563313802083333
 20
-2.569810231526692
 30
0.0
 10
0.1541883680555556
 20
-2.573011186387803
 30
0.0
 10
0.1490003797743056
 20
-2.581393347846137
 30
0.0
 10
0.1447075737847222
 20
-2.589192284478081
 30
0.0
 10
0.1447075737847222
 20
-2.599893781873914
 30
0.0
 10
0.1447075737847222
 20
-2.616224077012803
 30
0.0
 10
0.1560601128472222
 20
-2.626369476318359
 30
0.0
 10
0.1743435329861111
 20
-2.626369476318359
 30
0.0
 10
0.1852891710069444
 20
-2.626369476318359
 30
0.0
 10
0.1904364691840278
 20
-2.62200207180447
 30
0.0
 10
0.1975572374131944
 20
-2.615952809651692
 30
0.0
 10
0.1975572374131944
 20
-2.615952809651692
 30
0.0
 10
0.199462890625
 20
-2.614338768853081
 30
0.0
 10
0.199462890625
 20
-2.614338768853081
 30
0.0
 10
0.2064887152777778
 20
-2.608845604790581
 30
0.0
 10
0.2288004557291666
 20
-2.584417978922525
 30
0.0
 10
0.2361857096354166
 20
-2.574136945936414
 30
0.0
 10
0.2361857096354166
 20
-2.574136945936414
 30
0.0
 10
0.2363349066840278
 20
-2.573919932047525
 30
0.0
 10
0.2363349066840278
 20
-2.573919932047525
 30
0.0
 10
0.2382541232638889
 20
-2.571017371283637
 30
0.0
 10
0.2385389539930555
 20
-2.568616655137803
 30
0.0
 10
0.2385389539930555
 20
-2.567450205485025
 30
0.0
 10
0.2385389539930555
 20
-2.562987857394748
 30
0.0
 10
0.2345648871527778
 20
-2.556802961561414
 30
0.0
 10
0.22711181640625
 20
-2.556802961561414
 30
0.0
  0
SPLINE
  5
83
330
7E
100
AcDbEntity
  8
Mr&Mrs with Date
100
AcDbSpline
210
0.0
220
0.0
230
1.0
 70
    11
 71
     3
 72
    14
 73
    10
 74
     0
 42
0.0000000001
 43
0.0000000001
 40
0.0
 40
0.0
 40
0.0
 40
0.0
 40
1.0
 40
1.0
 40
1.0
 40
2.0
 40
2.0
 40
2.0
 40
3.0
 40
3.0
 40
3.0
 40
3.0
 10
0.3181627061631944
 20
-2.561889224582248
 30
0.0
 10
0.3181627061631944
 20
-2.561889224582248
 30
0.0
 10
0.3175048828125
 20
-2.563435448540581
 30
0.0
 10
0.3175048828125
 20
-2.563435448540581
 30
0.0
 10
0.3172064887152777
 20
-2.562879350450303
 30
0.0
 10
0.3169013129340277
 20
-2.562323252360025
 30
0.0
 10
0.3165825737847222
 20
-2.561794281005859
 30
0.0
 10
0.3165825737847222
 20
-2.561794281005859
 30
0.0
 10
0.3181627061631944
 20
-2.561889224582248
 30
0.0
 10
0.3181627061631944
 20
-2.561889224582248
 30
0.0
  0
SPLINE
  5
84
330
7E
100
AcDbEntity
  8
Mr&Mrs with Date
100
AcDbSpline
210
0.0
220
0.0
230
1.0
 70
     9
 71
     3
 72
   131
 73
   127
 74
     0
 42
0.0000000001
 43
0.0000000001
 40
0.0
 40
0.0
 40
0.0
 40
0.0
 40
1.0
 40
1.0
 40
1.0
 40
2.0
 40
2.0
 40
2.0
 40
3.0
 40
3.0
 40
3.0
 40
4.0
 40
4.0
 40
4.0
 40
5.0
 40
5.0
 40
5.0
 40
6.0
 40
6.0
 40
6.0
 40
7.0
 40
7.0
 40
7.0
 40
8.0
 40
8.0
 40
8.0
 40
9.0
 40
9.0
 40
9.0
 40
10.0
 40
10.0
 40
10.0
 40
11.0
 40
11.0
 40
11.0
 40
12.0
 40
12.0
 40
12.0
 40
13.0
 40
13.0
 40
13.0
 40
14.0
 40
14.0
 40
14.0
 40
15.0
 40
15.0
 40
15.0
 40
16.0
 40
16.0
 40
16.0
 40
17.0
 40
17.0
 40
17.0
 40
18.0
 40
18.0
 40
18.0
 40
19.0
 40
19.0
 40
19.0
 40
20.0
 40
20.0
 40
20.0
 40
21.0
 40
21.0
 40
21.0
 40
22.0
 40
22.0
 40
22.0
 40
23.0
 40
23.0
 40
23.0
 40
24.0
 40
24.0
 40
24.0
 40
25.0
 40
25.0
 40
25.0
 40
26.0
 40
26.0
 40
26.0
 40
27.0
 40
27.0
 40
27.0
 40
28.0
 40
28.0
 40
28.0
 40
29.0
 40
29.0
 40
29.0
 40
30.0
 40
30.0
 40
30.0
 40
31.0
 40
31.0
 40
31.0
 40
32.0
 40
32.0
 40
32.0
 40
33.0
 40
33.0
 40
33.0
 40
34.0
 40
34.0
 40
34.0
 40
35.0
 40
35.0
 40
35.0
 40
36.0
 40
36.0
 40
36.0
 40
37.0
 40
37.0
 40
37.0
 40
38.0
 40
38.0
 40
38.0
 40
39.0
 40
39.0
 40
39.0
 40
40.0
 40
40.0
 40
40.0
 40
41.0
 40
41.0
 40
41.0
 40
42.0
 40
42.0
 40
42.0
 40
42.0
 10
0.4119669596354166
 20
-2.534681108262803
 30
0.0
 10
0.4035847981770833
 20
-2.532131195068359
 30
0.0
 10
0.3933037651909722
 20
-2.530951182047525
 30
0.0
 10
0.3796047634548611
 20
-2.530951182047525
 30
0.0
 10
0.3727823893229166
 20
-2.530951182047525
 30
0.0
 10
0.3664618598090277
 20
-2.531236012776692
 30
0.0
 10
0.3603854709201389
 20
-2.531520843505859
 30
0.0
 10
0.3589206271701389
 20
-2.531588660346137
 30
0.0
 10
0.3574625651041666
 20
-2.531656477186414
 30
0.0
 10
0.35601806640625
 20
-2.531710730658637
 30
0.0
 10
0.3584323459201389
 20
-2.527180565728081
 30
0.0
 10
0.36041259765625
 20
-2.523762596978081
 30
0.0
 10
0.3636203342013889
 20
-2.518323686387803
 30
0.0
 10
0.3640679253472222
 20
-2.517225053575303
 30
0.0
 10
0.3647935655381944
 20
-2.516139984130859
 30
0.0
 10
0.3676689995659722
 20
-2.511582692464192
 30
0.0
 10
0.3676689995659722
 20
-2.511582692464192
 30
0.0
 10
0.3696153428819444
 20
-2.507283104790581
 30
0.0
 10
0.3696153428819444
 20
-2.507283104790581
 30
0.0
 10
0.3709581163194444
 20
-2.504231346978081
 30
0.0
 10
0.3720228407118055
 20
-2.501803504096137
 30
0.0
 10
0.3737046983506944
 20
-2.499362097846137
 30
0.0
 10
0.3774142795138889
 20
-2.494004567464192
 30
0.0
 10
0.3807440863715277
 20
-2.488755544026692
 30
0.0
 10
0.3807440863715277
 20
-2.483533647325303
 30
0.0
 10
0.3807440863715277
 20
-2.475477006700303
 30
0.0
 10
0.3725653754340277
 20
-2.468410491943359
 30
0.0
 10
0.3632473415798611
 20
-2.468410491943359
 30
0.0
 10
0.3568996853298611
 20
-2.468410491943359
 30
0.0
 10
0.3517659505208333
 20
-2.471435123019748
 30
0.0
 10
0.3493923611111111
 20
-2.476779090033637
 30
0.0
 10
0.3485514322916666
 20
-2.478922102186414
 30
0.0
 10
0.3479953342013889
 20
-2.480848100450303
 30
0.0
 10
0.3477918836805555
 20
-2.482150183783637
 30
0.0
 10
0.3460150824652777
 20
-2.489406585693359
 30
0.0
 10
0.3450792100694444
 20
-2.49297375149197
 30
0.0
 10
0.3445977105034722
 20
-2.494791242811414
 30
0.0
 10
0.3442789713541666
 20
-2.496011945936414
 30
0.0
 10
0.3440823025173611
 20
-2.49675793117947
 30
0.0
 10
0.3439805772569444
 20
-2.497422536214192
 30
0.0
 10
0.3439805772569444
 20
-2.497422536214192
 30
0.0
 10
0.34332275390625
 20
-2.500230153401692
 30
0.0
 10
0.34332275390625
 20
-2.500230153401692
 30
0.0
 10
0.3425428602430555
 20
-2.50359386867947
 30
0.0
 10
0.3419392903645833
 20
-2.506442175971137
 30
0.0
 10
0.3416476779513889
 20
-2.507269541422525
 30
0.0
 10
0.3379448784722222
 20
-2.513752831353081
 30
0.0
 10
0.3343370225694444
 20
-2.521728091769748
 30
0.0
 10
0.3304104275173611
 20
-2.532117631700303
 30
0.0
 10
0.3173149956597222
 20
-2.532429589165581
 30
0.0
 10
0.3016560872395833
 20
-2.533094194200303
 30
0.0
 10
0.2882080078125
 20
-2.533799489339192
 30
0.0
 10
0.2828369140625
 20
-2.532076941596137
 30
0.0
 10
0.2771131727430555
 20
-2.531208886040581
 30
0.0
 10
0.2711656358506944
 20
-2.531208886040581
 30
0.0
 10
0.2639024522569444
 20
-2.531208886040581
 30
0.0
 10
0.2594468858506944
 20
-2.532199011908637
 30
0.0
 10
0.2554999457465278
 20
-2.533528221978081
 30
0.0
 10
0.2545233832465278
 20
-2.533772362603081
 30
0.0
 10
0.2534993489583333
 20
-2.53411144680447
 30
0.0
 10
0.2524142795138889
 20
-2.534464094373914
 30
0.0
 10
0.2512478298611111
 20
-2.534857432047525
 30
0.0
 10
0.2499796549479166
 20
-2.535291459825303
 30
0.0
 10
0.2481146918402778
 20
-2.535644107394748
 30
0.0
 10
0.2422010633680555
 20
-2.537108951144748
 30
0.0
 10
0.2375691731770833
 20
-2.542737748887803
 30
0.0
 10
0.2375691731770833
 20
-2.548447926839192
 30
0.0
 10
0.2375691731770833
 20
-2.557236989339192
 30
0.0
 10
0.2440728081597222
 20
-2.558552636040581
 30
0.0
 10
0.2479451497395833
 20
-2.558552636040581
 30
0.0
 10
0.2631293402777778
 20
-2.558552636040581
 30
0.0
 10
0.2711385091145833
 20
-2.559027353922525
 30
0.0
 10
0.2860175238715277
 20
-2.560451507568359
 30
0.0
 10
0.2928873697916666
 20
-2.565836164686414
 30
0.0
 10
0.3022121853298611
 20
-2.578111012776692
 30
0.0
 10
0.3022121853298611
 20
-2.583278656005859
 30
0.0
 10
0.3022121853298611
 20
-2.587157779269748
 30
0.0
 10
0.3013373480902777
 20
-2.591633690728081
 30
0.0
 10
0.2993977864583333
 20
-2.59771007961697
 30
0.0
 10
0.2981499565972222
 20
-2.601467132568359
 30
0.0
 10
0.2968953450520833
 20
-2.605224185519748
 30
0.0
 10
0.2930094401041666
 20
-2.614474402533637
 30
0.0
 10
0.2888319227430555
 20
-2.62053722805447
 30
0.0
 10
0.2854139539930555
 20
-2.626071082221137
 30
0.0
 10
0.2825995551215277
 20
-2.631225162082248
 30
0.0
 10
0.28167724609375
 20
-2.633693695068359
 30
0.0
 10
0.2808430989583333
 20
-2.636148664686414
 30
0.0
 10
0.2808430989583333
 20
-2.638942718505859
 30
0.0
 10
0.2808430989583333
 20
-2.647134992811414
 30
0.0
 10
0.2874891493055555
 20
-2.653550465901692
 30
0.0
 10
0.2959662543402777
 20
-2.653550465901692
 30
0.0
 10
0.3023885091145833
 20
-2.653550465901692
 30
0.0
 10
0.3075968424479166
 20
-2.650213877360025
 30
0.0
 10
0.3105740017361111
 20
-2.644259558783637
 30
0.0
 10
0.3146497938368055
 20
-2.636379241943359
 30
0.0
 10
0.3163587782118055
 20
-2.629556867811414
 30
0.0
 10
0.3179796006944444
 20
-2.623046451144748
 30
0.0
 10
0.3179796006944444
 20
-2.623046451144748
 30
0.0
 10
0.3191731770833333
 20
-2.61846203274197
 30
0.0
 10
0.3191731770833333
 20
-2.61846203274197
 30
0.0
 10
0.32073974609375
 20
-2.612399207221137
 30
0.0
 10
0.3216891818576389
 20
-2.608737097846137
 30
0.0
 10
0.3234049479166666
 20
-2.605115678575303
 30
0.0
 10
0.3258260091145833
 20
-2.599731021457248
 30
0.0
 10
0.3285251193576389
 20
-2.593261294894748
 30
0.0
 10
0.33074951171875
 20
-2.587415483262803
 30
0.0
 10
0.3335639105902777
 20
-2.57939953274197
 30
0.0
 10
0.3366631401909722
 20
-2.571641286214192
 30
0.0
 10
0.3403998480902777
 20
-2.563272688123914
 30
0.0
 10
0.3446112738715277
 20
-2.562784406873914
 30
0.0
 10
0.3513319227430555
 20
-2.562784406873914
 30
0.0
 10
0.3561197916666666
 20
-2.562784406873914
 30
0.0
 10
0.3561197916666666
 20
-2.562784406873914
 30
0.0
 10
0.3666788736979166
 20
-2.562784406873914
 30
0.0
 10
0.3666788736979166
 20
-2.562784406873914
 30
0.0
 10
0.3797675238715277
 20
-2.562784406873914
 30
0.0
 10
0.3902180989583333
 20
-2.564601898193359
 30
0.0
 10
0.3962673611111111
 20
-2.565646277533637
 30
0.0
 10
0.3962673611111111
 20
-2.565646277533637
 30
0.0
 10
0.4022962782118056
 20
-2.56621593899197
 30
0.0
 10
0.4022962782118056
 20
-2.56621593899197
 30
0.0
 10
0.4130113389756945
 20
-2.56621593899197
 30
0.0
 10
0.4216444227430556
 20
-2.555772145589192
 30
0.0
 10
0.4216444227430556
 20
-2.547132280137803
 30
0.0
 10
0.4216444227430556
 20
-2.540418412950303
 30
0.0
 10
0.4178738064236111
 20
-2.53582043117947
 30
0.0
 10
0.4119669596354166
 20
-2.534681108262803
 30
0.0
  0
SPLINE
  5
85
330
7E
100
AcDbEntity
  8
Mr&Mrs with Date
100
AcDbSpline
210
0.0
220
0.0
230
1.0
 70
     9
 71
     3
 72
    53
 73
    49
 74
     0
 42
0.0000000001
 43
0.0000000001
 40
0.0
 40
0.0
 40
0.0
 40
0.0
 40
1.0
 40
1.0
 40
1.0
 40
2.0
 40
2.0
 40
2.0
 40
3.0
 40
3.0
 40
3.0
 40
4.0
 40
4.0
 40
4.0
 40
5.0
 40
5.0
 40
5.0
 40
6.0
 40
6.0
 40
6.0
 40
7.0
 40
7.0
 40
7.0
 40
8.0
 40
8.0
 40
8.0
 40
9.0
 40
9.0
 40
9.0
 40
10.0
 40
10.0
 40
10.0
 40
11.0
 40
11.0
 40
11.0
 40
12.0
 40
12.0
 40
12.0
 40
13.0
 40
13.0
 40
13.0
 40
14.0
 40
14.0
 40
14.0
 40
15.0
 40
15.0
 40
15.0
 40
16.0
 40
16.0
 40
16.0
 40
16.0
 10
0.7807549370659723
 20
-2.570027245415581
 30
0.0
 10
0.7824367947048611
 20
-2.567952050103081
 30
0.0
 10
0.7845187717013889
 20
-2.564832475450303
 30
0.0
 10
0.7875230577256945
 20
-2.560302310519748
 30
0.0
 10
0.7880384657118055
 20
-2.559488508436414
 30
0.0
 10
0.7887234157986111
 20
-2.558674706353081
 30
0.0
 10
0.7893880208333333
 20
-2.557847340901692
 30
0.0
 10
0.7898220486111111
 20
-2.557318369547525
 30
0.0
 10
0.7902492947048611
 20
-2.556789398193359
 30
0.0
 10
0.7906833224826389
 20
-2.556219736735025
 30
0.0
 10
0.7913411458333333
 20
-2.557508256700303
 30
0.0
 10
0.7919854058159723
 20
-2.558796776665581
 30
0.0
 10
0.7925821940104166
 20
-2.560003916422525
 30
0.0
 10
0.7925821940104166
 20
-2.560003916422525
 30
0.0
 10
0.7949964735243055
 20
-2.564832475450303
 30
0.0
 10
0.7949964735243055
 20
-2.564832475450303
 30
0.0
 10
0.7972276475694445
 20
-2.569254133436414
 30
0.0
 10
0.7982245551215277
 20
-2.571139441596137
 30
0.0
 10
0.7989976671006945
 20
-2.57366222805447
 30
0.0
 10
0.7994927300347223
 20
-2.575316958957248
 30
0.0
 10
0.7994927300347223
 20
-2.577310774061414
 30
0.0
 10
0.7994927300347223
 20
-2.579060448540581
 30
0.0
 10
0.7994927300347223
 20
-2.579060448540581
 30
0.0
 10
0.7994927300347223
 20
-2.580633799235025
 30
0.0
 10
0.7994927300347223
 20
-2.580633799235025
 30
0.0
 10
0.7994927300347223
 20
-2.584323035346137
 30
0.0
 10
0.7977430555555555
 20
-2.591837141248914
 30
0.0
 10
0.79583740234375
 20
-2.59636730617947
 30
0.0
 10
0.7953287760416666
 20
-2.597547319200303
 30
0.0
 10
0.7946980794270833
 20
-2.599025726318359
 30
0.0
 10
0.7871771918402777
 20
-2.599025726318359
 30
0.0
 10
0.7856987847222223
 20
-2.599025726318359
 30
0.0
 10
0.7845798068576389
 20
-2.598537445068359
 30
0.0
 10
0.7839287651909723
 20
-2.59771007961697
 30
0.0
 10
0.78179931640625
 20
-2.595010969373914
 30
0.0
 10
0.7815009223090277
 20
-2.593776702880859
 30
0.0
 10
0.7814534505208333
 20
-2.593776702880859
 30
0.0
 10
0.7815280490451389
 20
-2.593424055311414
 30
0.0
 10
0.7819756401909723
 20
-2.592108408610025
 30
0.0
 10
0.7844441731770833
 20
-2.588541242811414
 30
0.0
 10
0.7844441731770833
 20
-2.588541242811414
 30
0.0
 10
0.7854682074652777
 20
-2.586452484130859
 30
0.0
 10
0.7854682074652777
 20
-2.586452484130859
 30
0.0
 10
0.78704833984375
 20
-2.583834754096137
 30
0.0
 10
0.7872653537326389
 20
-2.58184093899197
 30
0.0
 10
0.7872653537326389
 20
-2.58037609524197
 30
0.0
 10
0.7872653537326389
 20
-2.575873057047525
 30
0.0
 10
0.7845594618055555
 20
-2.571871863471137
 30
0.0
 10
0.7807549370659723
 20
-2.570027245415581
 30
0.0
  0
SPLINE
  5
86
330
7E
100
AcDbEntity
  8
Mr&Mrs with Date
100
AcDbSpline
210
0.0
220
0.0
230
1.0
 70
     9
 71
     3
 72
   410
 73
   406
 74
     0
 42
0.0000000001
 43
0.0000000001
 40
0.0
 40
0.0
 40
0.0
 40
0.0
 40
1.0
 40
1.0
 40
1.0
 40
2.0
 40
2.0
 40
2.0
 40
3.0
 40
3.0
 40
3.0
 40
4.0
 40
4.0
 40
4.0
 40
5.0
 40
5.0
 40
5.0
 40
6.0
 40
6.0
 40
6.0
 40
7.0
 40
7.0
 40
7.0
 40
8.0
 40
8.0
 40
8.0
 40
9.0
 40
9.0
 40
9.0
 40
10.0
 40
10.0
 40
10.0
 40
11.0
 40
11.0
 40
11.0
 40
12.0
 40
12.0
 40
12.0
 40
13.0
 40
13.0
 40
13.0
 40
14.0
 40
14.0
 40
14.0
 40
15.0
 40
15.0
 40
15.0
 40
16.0
 40
16.0
 40
16.0
 40
17.0
 40
17.0
 40
17.0
 40
18.0
 40
18.0
 40
18.0
 40
19.0
 40
19.0
 40
19.0
 40
20.0
 40
20.0
 40
20.0
 40
21.0
 40
21.0
 40
21.0
 40
22.0
 40
22.0
 40
22.0
 40
23.0
 40
23.0
 40
23.0
 40
24.0
 40
24.0
 40
24.0
 40
25.0
 40
25.0
 40
25.0
 40
26.0
 40
26.0
 40
26.0
 40
27.0
 40
27.0
 40
27.0
 40
28.0
 40
28.0
 40
28.0
 40
29.0
 40
29.0
 40
29.0
 40
30.0
 40
30.0
 40
30.0
 40
31.0
 40
31.0
 40
31.0
 40
32.0
 40
32.0
 40
32.0
 40
33.0
 40
33.0
 40
33.0
 40
34.0
 40
34.0
 40
34.0
 40
35.0
 40
35.0
 40
35.0
 40
36.0
 40
36.0
 40
36.0
 40
37.0
 40
37.0
 40
37.0
 40
38.0
 40
38.0
 40
38.0
 40
39.0
 40
39.0
 40
39.0
 40
40.0
 40
40.0
 40
40.0
 40
41.0
 40
41.0
 40
41.0
 40
42.0
 40
42.0
 40
42.0
 40
43.0
 40
43.0
 40
43.0
 40
44.0
 40
44.0
 40
44.0
 40
45.0
 40
45.0
 40
45.0
 40
46.0
 40
46.0
 40
46.0
 40
47.0
 40
47.0
 40
47.0
 40
48.0
 40
48.0
 40
48.0
 40
49.0
 40
49.0
 40
49.0
 40
50.0
 40
50.0
 40
50.0
 40
51.0
 40
51.0
 40
51.0
 40
52.0
 40
52.0
 40
52.0
 40
53.0
 40
53.0
 40
53.0
 40
54.0
 40
54.0
 40
54.0
 40
55.0
 40
55.0
 40
55.0
 40
56.0
 40
56.0
 40
56.0
 40
57.0
 40
57.0
 40
57.0
 40
58.0
 40
58.0
 40
58.0
 40
59.0
 40
59.0
 40
59.0
 40
60.0
 40
60.0
 40
60.0
 40
61.0
 40
61.0
 40
61.0
 40
62.0
 40
62.0
 40
62.0
 40
63.0
 40
63.0
 40
63.0
 40
64.0
 40
64.0
 40
64.0
 40
65.0
 40
65.0
 40
65.0
 40
66.0
 40
66.0
 40
66.0
 40
67.0
 40
67.0
 40
67.0
 40
68.0
 40
68.0
 40
68.0
 40
69.0
 40
69.0
 40
69.0
 40
70.0
 40
70.0
 40
70.0
 40
71.0
 40
71.0
 40
71.0
 40
72.0
 40
72.0
 40
72.0
 40
73.0
 40
73.0
 40
73.0
 40
74.0
 40
74.0
 40
74.0
 40
75.0
 40
75.0
 40
75.0
 40
76.0
 40
76.0
 40
76.0
 40
77.0
 40
77.0
 40
77.0
 40
78.0
 40
78.0
 40
78.0
 40
79.0
 40
79.0
 40
79.0
 40
80.0
 40
80.0
 40
80.0
 40
81.0
 40
81.0
 40
81.0
 40
82.0
 40
82.0
 40
82.0
 40
83.0
 40
83.0
 40
83.0
 40
84.0
 40
84.0
 40
84.0
 40
85.0
 40
85.0
 40
85.0
 40
86.0
 40
86.0
 40
86.0
 40
87.0
 40
87.0
 40
87.0
 40
88.0
 40
88.0
 40
88.0
 40
89.0
 40
89.0
 40
89.0
 40
90.0
 40
90.0
 40
90.0
 40
91.0
 40
91.0
 40
91.0
 40
92.0
 40
92.0
 40
92.0
 40
93.0
 40
93.0
 40
93.0
 40
94.0
 40
94.0
 40
94.0
 40
95.0
 40
95.0
 40
95.0
 40
96.0
 40
96.0
 40
96.0
 40
97.0
 40
97.0
 40
97.0
 40
98.0
 40
98.0
 40
98.0
 40
99.0
 40
99.0
 40
99.0
 40
100.0
 40
100.0
 40
100.0
 40
101.0
 40
101.0
 40
101.0
 40
102.0
 40
102.0
 40
102.0
 40
103.0
 40
103.0
 40
103.0
 40
104.0
 40
104.0
 40
104.0
 40
105.0
 40
105.0
 40
105.0
 40
106.0
 40
106.0
 40
106.0
 40
107.0
 40
107.0
 40
107.0
 40
108.0
 40
108.0
 40
108.0
 40
109.0
 40
109.0
 40
109.0
 40
110.0
 40
110.0
 40
110.0
 40
111.0
 40
111.0
 40
111.0
 40
112.0
 40
112.0
 40
112.0
 40
113.0
 40
113.0
 40
113.0
 40
114.0
 40
114.0
 40
114.0
 40
115.0
 40
115.0
 40
115.0
 40
116.0
 40
116.0
 40
116.0
 40
117.0
 40
117.0
 40
117.0
 40
118.0
 40
118.0
 40
118.0
 40
119.0
 40
119.0
 40
119.0
 40
120.0
 40
120.0
 40
120.0
 40
121.0
 40
121.0
 40
121.0
 40
122.0
 40
122.0
 40
122.0
 40
123.0
 40
123.0
 40
123.0
 40
124.0
 40
124.0
 40
124.0
 40
125.0
 40
125.0
 40
125.0
 40
126.0
 40
126.0
 40
126.0
 40
127.0
 40
127.0
 40
127.0
 40
128.0
 40
128.0
 40
128.0
 40
129.0
 40
129.0
 40
129.0
 40
130.0
 40
130.0
 40
130.0
 40
131.0
 40
131.0
 40
131.0
 40
132.0
 40
132.0
 40
132.0
 40
133.0
 40
133.0
 40
133.0
 40
134.0
 40
134.0
 40
134.0
 40
135.0
 40
135.0
 40
135.0
 40
135.0
 10
0.8272772894965276
 20
-2.557725270589192
 30
0.0
 10
0.8272772894965276
 20
-2.557725270589192
 30
0.0
 10
0.8231743706597221
 20
-2.550482432047525
 30
0.0
 10
0.8231743706597221
 20
-2.550482432047525
 30
0.0
 10
0.8223334418402776
 20
-2.549302419026692
 30
0.0
 10
0.8217909071180555
 20
-2.548068152533637
 30
0.0
 10
0.8213297526041666
 20
-2.54692882961697
 30
0.0
 10
0.8190036349826389
 20
-2.541110144721137
 30
0.0
 10
0.817837185329861
 20
-2.539062076144748
 30
0.0
 10
0.8168877495659721
 20
-2.537393781873914
 30
0.0
 10
0.8165622287326389
 20
-2.536810557047525
 30
0.0
 10
0.8162638346354166
 20
-2.536295149061414
 30
0.0
 10
0.815456814236111
 20
-2.534694671630859
 30
0.0
 10
0.8150431315104166
 20
-2.53398937649197
 30
0.0
 10
0.81439208984375
 20
-2.532483842637803
 30
0.0
 10
0.8142293294270832
 20
-2.532131195068359
 30
0.0
 10
0.8123982747395832
 20
-2.52849621242947
 30
0.0
 10
0.806911892361111
 20
-2.522677527533637
 30
0.0
 10
0.8071221245659721
 20
-2.522718217637803
 30
0.0
 10
0.8043348524305555
 20
-2.518052419026692
 30
0.0
 10
0.7996622721354166
 20
-2.515380435519748
 30
0.0
 10
0.7943047417534723
 20
-2.515380435519748
 30
0.0
 10
0.7879774305555555
 20
-2.515380435519748
 30
0.0
 10
0.7829047309027777
 20
-2.519069671630859
 30
0.0
 10
0.78106689453125
 20
-2.525023990207248
 30
0.0
 10
0.78106689453125
 20
-2.525023990207248
 30
0.0
 10
0.78076171875
 20
-2.527072058783637
 30
0.0
 10
0.78076171875
 20
-2.527072058783637
 30
0.0
 10
0.78076171875
 20
-2.527668846978081
 30
0.0
 10
0.7807685004340277
 20
-2.528184254964192
 30
0.0
 10
0.78076171875
 20
-2.52861828274197
 30
0.0
 10
0.78076171875
 20
-2.52861828274197
 30
0.0
 10
0.7704060872395833
 20
-2.548068152533637
 30
0.0
 10
0.7704060872395833
 20
-2.548068152533637
 30
0.0
 10
0.7703789605034723
 20
-2.548108842637803
 30
0.0
 10
0.7700059678819445
 20
-2.548583560519748
 30
0.0
 10
0.76959228515625
 20
-2.549044715033637
 30
0.0
 10
0.7678968641493055
 20
-2.550170474582248
 30
0.0
 10
0.7664591471354166
 20
-2.551676008436414
 30
0.0
 10
0.7658216688368055
 20
-2.552883148193359
 30
0.0
 10
0.7658216688368055
 20
-2.552883148193359
 30
0.0
 10
0.7523328993055555
 20
-2.56865734524197
 30
0.0
 10
0.7523328993055555
 20
-2.56865734524197
 30
0.0
 10
0.752243889702691
 20
-2.568793826633029
 30
0.0
 10
0.7522167629665799
 20
-2.568935394287109
 30
0.0
 10
0.7521336873372395
 20
-2.569072723388671
 30
0.0
 10
0.7476255628797742
 20
-2.574281056722004
 30
0.0
 10
0.7433954874674479
 20
-2.579163021511501
 30
0.0
 10
0.7393866644965278
 20
-2.583522796630859
 30
0.0
 10
0.7370808919270833
 20
-2.585977766248914
 30
0.0
 10
0.7347683376736111
 20
-2.587876637776692
 30
0.0
 10
0.7325914171006945
 20
-2.589680565728081
 30
0.0
 10
0.7305636935763889
 20
-2.591348859998914
 30
0.0
 10
0.7286376953125
 20
-2.592962900797525
 30
0.0
 10
0.7274034288194445
 20
-2.594251420762803
 30
0.0
 10
0.7259724934895833
 20
-2.595417870415581
 30
0.0
 10
0.7245958116319445
 20
-2.596828460693359
 30
0.0
 10
0.7232259114583333
 20
-2.598266177707248
 30
0.0
 10
0.7215576171875
 20
-2.600015852186414
 30
0.0
 10
0.719482421875
 20
-2.602185991075303
 30
0.0
 10
0.7183295355902778
 20
-2.602185991075303
 30
0.0
 10
0.7157389322916666
 20
-2.602185991075303
 30
0.0
 10
0.7155354817708333
 20
-2.601033104790581
 30
0.0
 10
0.7153523763020833
 20
-2.600015852186414
 30
0.0
 10
0.7153523763020833
 20
-2.600015852186414
 30
0.0
 10
0.71484375
 20
-2.597642262776692
 30
0.0
 10
0.71484375
 20
-2.597642262776692
 30
0.0
 10
0.7152845594618055
 20
-2.595485687255859
 30
0.0
 10
0.7160983615451389
 20
-2.593288421630859
 30
0.0
 10
0.71710205078125
 20
-2.591416676839192
 30
0.0
 10
0.71710205078125
 20
-2.591416676839192
 30
0.0
 10
0.7255316840277778
 20
-2.577826182047525
 30
0.0
 10
0.7255316840277778
 20
-2.577826182047525
 30
0.0
 10
0.7304823133680555
 20
-2.569850921630859
 30
0.0
 10
0.7360907660590278
 20
-2.560817718505859
 30
0.0
 10
0.7360907660590278
 20
-2.550034840901692
 30
0.0
 10
0.7360907660590278
 20
-2.537298838297525
 30
0.0
 10
0.7239447699652778
 20
-2.536756303575303
 30
0.0
 10
0.7181396484375
 20
-2.536498599582248
 30
0.0
 10
0.7130126953125
 20
-2.536240895589192
 30
0.0
 10
0.7109171549479166
 20
-2.535996754964192
 30
0.0
 10
0.7083943684895833
 20
-2.535372840033637
 30
0.0
 10
0.7083943684895833
 20
-2.535372840033637
 30
0.0
 10
0.7064954969618055
 20
-2.535739050971137
 30
0.0
 10
0.7064954969618055
 20
-2.535739050971137
 30
0.0
 10
0.7064954969618055
 20
-2.535739050971137
 30
0.0
 10
0.7039727105034723
 20
-2.532185448540581
 30
0.0
 10
0.7039727105034723
 20
-2.532185448540581
 30
0.0
 10
0.7038913302951389
 20
-2.531724294026692
 30
0.0
 10
0.7038981119791666
 20
-2.531127505832248
 30
0.0
 10
0.7038981119791666
 20
-2.530245886908637
 30
0.0
 10
0.7038981119791666
 20
-2.530245886908637
 30
0.0
 10
0.7038981119791666
 20
-2.526285383436414
 30
0.0
 10
0.7038981119791666
 20
-2.526285383436414
 30
0.0
 10
0.7038981119791666
 20
-2.521456824408637
 30
0.0
 10
0.7038981119791666
 20
-2.511419932047525
 30
0.0
 10
0.6893039279513889
 20
-2.511419932047525
 30
0.0
 10
0.6793619791666666
 20
-2.511419932047525
 30
0.0
 10
0.6712782118055555
 20
-2.518567827012803
 30
0.0
 10
0.6712782118055555
 20
-2.527343326144748
 30
0.0
 10
0.6712782118055555
 20
-2.52947277492947
 30
0.0
 10
0.6719224717881945
 20
-2.531873491075303
 30
0.0
 10
0.6734212239583333
 20
-2.535359276665581
 30
0.0
 10
0.6734212239583333
 20
-2.535359276665581
 30
0.0
 10
0.6735636393229166
 20
-2.535684797498914
 30
0.0
 10
0.6735636393229166
 20
-2.535684797498914
 30
0.0
 10
0.6737128363715278
 20
-2.536485036214192
 30
0.0
 10
0.6739162868923611
 20
-2.538099077012803
 30
0.0
 10
0.6739162868923611
 20
-2.539468977186414
 30
0.0
 10
0.6739162868923611
 20
-2.539509667290581
 30
0.0
 10
0.6738688151041666
 20
-2.540608300103081
 30
0.0
 10
0.6726820203993055
 20
-2.544148339165581
 30
0.0
 10
0.6724650065104166
 20
-2.544799380832248
 30
0.0
 10
0.6718478732638889
 20
-2.546223534478081
 30
0.0
 10
0.6716579861111111
 20
-2.546874576144748
 30
0.0
 10
0.6712171766493055
 20
-2.547674814860025
 30
0.0
 10
0.6703355577256945
 20
-2.54863781399197
 30
0.0
 10
0.6688774956597223
 20
-2.550401051839192
 30
0.0
 10
0.6656053331163195
 20
-2.554418351915147
 30
0.0
 10
0.6623289320203992
 20
-2.558190663655598
 30
0.0
 10
0.6586541069878473
 20
-2.562146928575303
 30
0.0
 10
0.657547844780816
 20
-2.563409169514973
 30
0.0
 10
0.6564475165473091
 20
-2.56465106540256
 30
0.0
 10
0.6554065280490451
 20
-2.56591330634223
 30
0.0
 10
0.6554065280490451
 20
-2.56591330634223
 30
0.0
 10
0.6532864040798611
 20
-2.568372514512803
 30
0.0
 10
0.6532864040798611
 20
-2.568372514512803
 30
0.0
 10
0.6531465318467883
 20
-2.568547142876518
 30
0.0
 10
0.653149922688802
 20
-2.568681081136067
 30
0.0
 10
0.6530244615342883
 20
-2.568852318657768
 30
0.0
 10
0.6522462632921008
 20
-2.569826338026258
 30
0.0
 10
0.6514112684461805
 20
-2.570814768473307
 30
0.0
 10
0.6506551106770833
 20
-2.571776919894748
 30
0.0
 10
0.6481865776909723
 20
-2.574530283610025
 30
0.0
 10
0.64599609375
 20
-2.577256520589192
 30
0.0
 10
0.6439344618055555
 20
-2.579847123887803
 30
0.0
 10
0.6383395724826389
 20
-2.586452484130859
 30
0.0
 10
0.6328870985243055
 20
-2.591620127360025
 30
0.0
 10
0.6261121961805555
 20
-2.597628699408637
 30
0.0
 10
0.6249660915798611
 20
-2.598781585693359
 30
0.0
 10
0.6241048177083333
 20
-2.600124359130859
 30
0.0
 10
0.6233452690972223
 20
-2.601317935519748
 30
0.0
 10
0.6230604383680555
 20
-2.601751963297525
 30
0.0
 10
0.6227823893229166
 20
-2.602199554443359
 30
0.0
 10
0.6231011284722223
 20
-2.601955413818359
 30
0.0
 10
0.6229587131076389
 20
-2.602091047498914
 30
0.0
 10
0.6228162977430555
 20
-2.602213117811414
 30
0.0
 10
0.6226671006944445
 20
-2.602321624755859
 30
0.0
 10
0.6226671006944445
 20
-2.602308061387803
 30
0.0
 10
0.6226671006944445
 20
-2.602280934651692
 30
0.0
 10
0.6226671006944445
 20
-2.602267371283637
 30
0.0
 10
0.6226671006944445
 20
-2.602267371283637
 30
0.0
 10
0.6226535373263889
 20
-2.594481998019748
 30
0.0
 10
0.6226535373263889
 20
-2.594481998019748
 30
0.0
 10
0.6232503255208333
 20
-2.584092458089192
 30
0.0
 10
0.6287909613715278
 20
-2.568033430311414
 30
0.0
 10
0.6392550998263889
 20
-2.546508365207248
 30
0.0
 10
0.6472574869791666
 20
-2.532049814860025
 30
0.0
 10
0.6499565972222223
 20
-2.527167002360025
 30
0.0
 10
0.6529744466145833
 20
-2.52031750149197
 30
0.0
 10
0.6538831922743055
 20
-2.518201616075303
 30
0.0
 10
0.6548800998263889
 20
-2.516180674235025
 30
0.0
 10
0.6558566623263889
 20
-2.514200422498914
 30
0.0
 10
0.6558566623263889
 20
-2.514200422498914
 30
0.0
 10
0.6578776041666666
 20
-2.510009341769748
 30
0.0
 10
0.6578776041666666
 20
-2.510009341769748
 30
0.0
 10
0.6598239474826389
 20
-2.506103091769748
 30
0.0
 10
0.6617567274305555
 20
-2.502196841769748
 30
0.0
 10
0.6634046766493055
 20
-2.497517479790581
 30
0.0
 10
0.6648830837673611
 20
-2.49346203274197
 30
0.0
 10
0.6648830837673611
 20
-2.489881303575303
 30
0.0
 10
0.6648830837673611
 20
-2.486707475450303
 30
0.0
 10
0.6648830837673611
 20
-2.486707475450303
 30
0.0
 10
0.6648830837673611
 20
-2.481160057915581
 30
0.0
 10
0.6648830837673611
 20
-2.481160057915581
 30
0.0
 10
0.6648830837673611
 20
-2.472059037950303
 30
0.0
 10
0.6592475043402778
 20
-2.462347666422525
 30
0.0
 10
0.6434258355034723
 20
-2.462347666422525
 30
0.0
 10
0.6256306966145833
 20
-2.462347666422525
 30
0.0
 10
0.6092190212673611
 20
-2.477416568332248
 30
0.0
 10
0.5989176432291666
 20
-2.487331390380859
 30
0.0
 10
0.5992567274305555
 20
-2.484496646457248
 30
0.0
 10
0.5994194878472223
 20
-2.481770409478081
 30
0.0
 10
0.5994059244791666
 20
-2.479111989339192
 30
0.0
 10
0.5994059244791666
 20
-2.479111989339192
 30
0.0
 10
0.5989176432291666
 20
-2.474839528401692
 30
0.0
 10
0.5989176432291666
 20
-2.474839528401692
 30
0.0
 10
0.5989176432291666
 20
-2.460041893853081
 30
0.0
 10
0.5897691514756945
 20
-2.450479719373914
 30
0.0
 10
0.5756157769097223
 20
-2.450479719373914
 30
0.0
 10
0.5512559678819445
 20
-2.450479719373914
 30
0.0
 10
0.5311686197916666
 20
-2.478271060519748
 30
0.0
 10
0.5203586154513889
 20
-2.49321789211697
 30
0.0
 10
0.518798828125
 20
-2.495401594373914
 30
0.0
 10
0.5173204210069445
 20
-2.497476789686414
 30
0.0
 10
0.5159233940972223
 20
-2.499457041422525
 30
0.0
 10
0.5211859809027778
 20
-2.485608842637803
 30
0.0
 10
0.5255669487847223
 20
-2.469848208957248
 30
0.0
 10
0.5255669487847223
 20
-2.461371103922525
 30
0.0
 10
0.5255669487847223
 20
-2.44414562649197
 30
0.0
 10
0.5159098307291666
 20
-2.442816416422525
 30
0.0
 10
0.5022650824652778
 20
-2.442816416422525
 30
0.0
 10
0.4957207573784723
 20
-2.442816416422525
 30
0.0
 10
0.4886745876736111
 20
-2.444104936387803
 30
0.0
 10
0.4800618489583333
 20
-2.446858300103081
 30
0.0
 10
0.4699028862847223
 20
-2.450167761908637
 30
0.0
 10
0.4581434461805556
 20
-2.454385969373914
 30
0.0
 10
0.4471232096354166
 20
-2.462713877360025
 30
0.0
 10
0.4419420030381945
 20
-2.466687944200303
 30
0.0
 10
0.4386393229166666
 20
-2.47063488430447
 30
0.0
 10
0.4362318250868056
 20
-2.473523881700303
 30
0.0
 10
0.4362318250868056
 20
-2.473523881700303
 30
0.0
 10
0.4327189127604166
 20
-2.477185991075303
 30
0.0
 10
0.4327189127604166
 20
-2.477185991075303
 30
0.0
 10
0.4310031467013889
 20
-2.47893566555447
 30
0.0
 10
0.4294637044270833
 20
-2.480495452880859
 30
0.0
 10
0.4267917209201389
 20
-2.483601464165581
 30
0.0
 10
0.4252387152777778
 20
-2.485676659478081
 30
0.0
 10
0.4243435329861111
 20
-2.488145192464192
 30
0.0
 10
0.4243435329861111
 20
-2.490396711561414
 30
0.0
 10
0.4243435329861111
 20
-2.496310340033637
 30
0.0
 10
0.4293348524305556
 20
-2.501301659478081
 30
0.0
 10
0.4352484809027778
 20
-2.501301659478081
 30
0.0
 10
0.4395005967881945
 20
-2.501301659478081
 30
0.0
 10
0.4426812065972223
 20
-2.499497731526692
 30
0.0
 10
0.4443020290798611
 20
-2.496554480658637
 30
0.0
 10
0.4451904296875
 20
-2.495510101318359
 30
0.0
 10
0.4475979275173611
 20
-2.493448469373914
 30
0.0
 10
0.4522840711805556
 20
-2.489284515380859
 30
0.0
 10
0.4522840711805556
 20
-2.489284515380859
 30
0.0
 10
0.4612087673611111
 20
-2.481309254964192
 30
0.0
 10
0.4612087673611111
 20
-2.481309254964192
 30
0.0
 10
0.4622870551215278
 20
-2.480454762776692
 30
0.0
 10
0.4633721245659723
 20
-2.479518890380859
 30
0.0
 10
0.4644029405381945
 20
-2.478610144721137
 30
0.0
 10
0.4655693901909723
 20
-2.47759289211697
 30
0.0
 10
0.4666069878472223
 20
-2.476589202880859
 30
0.0
 10
0.4675564236111111
 20
-2.476046668158637
 30
0.0
 10
0.48052978515625
 20
-2.468329111735025
 30
0.0
 10
0.4890543619791666
 20
-2.465833452012803
 30
0.0
 10
0.4943779839409723
 20
-2.465290917290581
 30
0.0
 10
0.4926011827256945
 20
-2.473822275797525
 30
0.0
 10
0.4844021267361111
 20
-2.495482974582248
 30
0.0
 10
0.4777696397569445
 20
-2.507527245415581
 30
0.0
 10
0.4663153754340278
 20
-2.527506086561414
 30
0.0
 10
0.4622802734375
 20
-2.535549163818359
 30
0.0
 10
0.4596828884548611
 20
-2.541611989339192
 30
0.0
 10
0.4413180881076389
 20
-2.58684582180447
 30
0.0
 10
0.4324137369791666
 20
-2.603759341769748
 30
0.0
 10
0.4283650716145833
 20
-2.609727223714192
 30
0.0
 10
0.4262220594618056
 20
-2.612589094373914
 30
0.0
 10
0.4251369900173611
 20
-2.615762922498914
 30
0.0
 10
0.4251369900173611
 20
-2.619153764512803
 30
0.0
 10
0.4251369900173611
 20
-2.624511294894748
 30
0.0
 10
0.4325425889756945
 20
-2.635863833957248
 30
0.0
 10
0.4407891167534723
 20
-2.635863833957248
 30
0.0
 10
0.4456990559895833
 20
-2.635863833957248
 30
0.0
 10
0.4502902560763889
 20
-2.631577809651692
 30
0.0
 10
0.4525349934895833
 20
-2.628729502360025
 30
0.0
 10
0.4525349934895833
 20
-2.628729502360025
 30
0.0
 10
0.4546712239583333
 20
-2.627305348714192
 30
0.0
 10
0.4546712239583333
 20
-2.627305348714192
 30
0.0
 10
0.4546712239583333
 20
-2.627305348714192
 30
0.0
 10
0.4563530815972223
 20
-2.625718434651692
 30
0.0
 10
0.4563530815972223
 20
-2.625718434651692
 30
0.0
 10
0.4643079969618056
 20
-2.615193261040581
 30
0.0
 10
0.4780341254340278
 20
-2.594875335693359
 30
0.0
 10
0.4939236111111111
 20
-2.571356455485025
 30
0.0
 10
0.4939236111111111
 20
-2.571356455485025
 30
0.0
 10
0.5075887044270833
 20
-2.550970713297525
 30
0.0
 10
0.5075887044270833
 20
-2.550970713297525
 30
0.0
 10
0.5153401692708333
 20
-2.539319780137803
 30
0.0
 10
0.5220879448784723
 20
-2.529147254096137
 30
0.0
 10
0.5266452365451389
 20
-2.522935231526692
 30
0.0
 10
0.5344712999131945
 20
-2.511976030137803
 30
0.0
 10
0.5528021918402778
 20
-2.489284515380859
 30
0.0
 10
0.5670844184027778
 20
-2.480102115207248
 30
0.0
 10
0.5670030381944445
 20
-2.487087249755859
 30
0.0
 10
0.5636867947048611
 20
-2.497341156005859
 30
0.0
 10
0.5569525824652778
 20
-2.511419932047525
 30
0.0
 10
0.55322265625
 20
-2.519191741943359
 30
0.0
 10
0.5493910047743056
 20
-2.526366763644748
 30
0.0
 10
0.5456475151909723
 20
-2.53337902492947
 30
0.0
 10
0.5433281792534723
 20
-2.537732866075303
 30
0.0
 10
0.5410427517361111
 20
-2.542018890380859
 30
0.0
 10
0.5383639865451389
 20
-2.547498491075303
 30
0.0
 10
0.5383639865451389
 20
-2.547498491075303
 30
0.0
 10
0.5349324544270833
 20
-2.552801767985025
 30
0.0
 10
0.5349324544270833
 20
-2.552801767985025
 30
0.0
 10
0.5294257269965278
 20
-2.56304211086697
 30
0.0
 10
0.5220811631944445
 20
-2.576415591769748
 30
0.0
 10
0.5131632486979166
 20
-2.591633690728081
 30
0.0
 10
0.5131632486979166
 20
-2.591633690728081
 30
0.0
 10
0.5123630099826389
 20
-2.593288421630859
 30
0.0
 10
0.5123630099826389
 20
-2.593288421630859
 30
0.0
 10
0.5112440321180556
 20
-2.595702701144748
 30
0.0
 10
0.5103624131944445
 20
-2.597601572672525
 30
0.0
 10
0.5103624131944445
 20
-2.600951724582248
 30
0.0
 10
0.5103624131944445
 20
-2.612887488471137
 30
0.0
 10
0.5177680121527778
 20
-2.617132822672525
 30
0.0
 10
0.5246921115451389
 20
-2.617132822672525
 30
0.0
 10
0.5288967556423611
 20
-2.617132822672525
 30
0.0
 10
0.5366278754340278
 20
-2.615003373887803
 30
0.0
 10
0.5410630967881945
 20
-2.608520083957248
 30
0.0
 10
0.5410630967881945
 20
-2.608520083957248
 30
0.0
 10
0.5687662760416666
 20
-2.558132171630859
 30
0.0
 10
0.5687662760416666
 20
-2.558132171630859
 30
0.0
 10
0.57684326171875
 20
-2.543497297498914
 30
0.0
 10
0.5887179904513889
 20
-2.529282887776692
 30
0.0
 10
0.6004231770833333
 20
-2.516017913818359
 30
0.0
 10
0.6082221137152778
 20
-2.50688976711697
 30
0.0
 10
0.6211073133680555
 20
-2.494777679443359
 30
0.0
 10
0.6319580078125
 20
-2.488552093505859
 30
0.0
 10
0.6288248697916666
 20
-2.497341156005859
 30
0.0
 10
0.6227349175347223
 20
-2.509290483262803
 30
0.0
 10
0.6171603732638889
 20
-2.520005544026692
 30
0.0
 10
0.6171603732638889
 20
-2.520005544026692
 30
0.0
 10
0.6084798177083333
 20
-2.537366655137803
 30
0.0
 10
0.6084798177083333
 20
-2.537366655137803
 30
0.0
 10
0.6013929578993055
 20
-2.551255544026692
 30
0.0
 10
0.59637451171875
 20
-2.563638899061414
 30
0.0
 10
0.5935601128472223
 20
-2.574177636040581
 30
0.0
 10
0.5929429796006945
 20
-2.575805240207248
 30
0.0
 10
0.5929633246527778
 20
-2.577337900797525
 30
0.0
 10
0.5930650499131945
 20
-2.579616546630859
 30
0.0
 10
0.5930650499131945
 20
-2.579616546630859
 30
0.0
 10
0.5923529730902778
 20
-2.583441416422525
 30
0.0
 10
0.5923529730902778
 20
-2.583441416422525
 30
0.0
 10
0.5912543402777778
 20
-2.587876637776692
 30
0.0
 10
0.5905693901909723
 20
-2.591199662950303
 30
0.0
 10
0.5905693901909723
 20
-2.594088660346137
 30
0.0
 10
0.5905693901909723
 20
-2.611151377360025
 30
0.0
 10
0.6039021809895833
 20
-2.625569237603081
 30
0.0
 10
0.6196763780381945
 20
-2.625569237603081
 30
0.0
 10
0.6231214735243055
 20
-2.625569237603081
 30
0.0
 10
0.6288791232638889
 20
-2.625569237603081
 30
0.0
 10
0.6333279079861111
 20
-2.621120452880859
 30
0.0
 10
0.6333279079861111
 20
-2.621120452880859
 30
0.0
 10
0.6360541449652778
 20
-2.618638356526692
 30
0.0
 10
0.6360541449652778
 20
-2.618638356526692
 30
0.0
 10
0.6431477864583333
 20
-2.61260265774197
 30
0.0
 10
0.6471421983506945
 20
-2.608655717637803
 30
0.0
 10
0.6541341145833333
 20
-2.60137218899197
 30
0.0
 10
0.6585667928059895
 20
-2.596441056993272
 30
0.0
 10
0.6646533542209201
 20
-2.589642418755425
 30
0.0
 10
0.6717342800564236
 20
-2.581258561876084
 30
0.0
 10
0.6771138509114583
 20
-2.576749589708116
 30
0.0
 10
0.6811514960394966
 20
-2.572000715467664
 30
0.0
 10
0.6869642469618055
 20
-2.564791785346137
 30
0.0
 10
0.6891343858506945
 20
-2.562214745415581
 30
0.0
 10
0.6909247504340278
 20
-2.559936099582248
 30
0.0
 10
0.6924777560763889
 20
-2.557779524061414
 30
0.0
 10
0.6941392686631945
 20
-2.558376312255859
 30
0.0
 10
0.6960177951388889
 20
-2.558701833089192
 30
0.0
 10
0.6977606879340278
 20
-2.559000227186414
 30
0.0
 10
0.6992255316840278
 20
-2.559230804443359
 30
0.0
 10
0.7004123263888889
 20
-2.559434254964192
 30
0.0
 10
0.7013685438368055
 20
-2.559610578748914
 30
0.0
 10
0.7010701497395833
 20
-2.560899098714192
 30
0.0
 10
0.7006971571180555
 20
-2.561957041422525
 30
0.0
 10
0.7003716362847223
 20
-2.562784406873914
 30
0.0
 10
0.6995578342013889
 20
-2.564601898193359
 30
0.0
 10
0.6966213650173611
 20
-2.569810231526692
 30
0.0
 10
0.6944783528645833
 20
-2.573011186387803
 30
0.0
 10
0.6892903645833333
 20
-2.581393347846137
 30
0.0
 10
0.68499755859375
 20
-2.589192284478081
 30
0.0
 10
0.68499755859375
 20
-2.599893781873914
 30
0.0
 10
0.68499755859375
 20
-2.616224077012803
 30
0.0
 10
0.69635009765625
 20
-2.626369476318359
 30
0.0
 10
0.7146335177951389
 20
-2.626369476318359
 30
0.0
 10
0.7255791558159723
 20
-2.626369476318359
 30
0.0
 10
0.7307264539930555
 20
-2.62200207180447
 30
0.0
 10
0.7378472222222223
 20
-2.615952809651692
 30
0.0
 10
0.7378472222222223
 20
-2.615952809651692
 30
0.0
 10
0.7397528754340278
 20
-2.614338768853081
 30
0.0
 10
0.7397528754340278
 20
-2.614338768853081
 30
0.0
 10
0.7434395684136285
 20
-2.611456553141275
 30
0.0
 10
0.7513258192274305
 20
-2.603354136149088
 30
0.0
 10
0.759065416124132
 20
-2.59482447306315
 30
0.0
 10
0.7593002319335938
 20
-2.600095536973741
 30
0.0
 10
0.7603912353515625
 20
-2.604881710476345
 30
0.0
 10
0.7628512912326389
 20
-2.609035491943359
 30
0.0
 10
0.76727294921875
 20
-2.615030500623914
 30
0.0
 10
0.7717013888888889
 20
-2.617417653401692
 30
0.0
 10
0.7754720052083333
 20
-2.61895031399197
 30
0.0
 10
0.7787950303819445
 20
-2.620455847846137
 30
0.0
 10
0.7825656467013889
 20
-2.622151268853081
 30
0.0
 10
0.7871771918402777
 20
-2.622151268853081
 30
0.0
 10
0.7937418619791666
 20
-2.622151268853081
 30
0.0
 10
0.800381130642361
 20
-2.620388031005859
 30
0.0
 10
0.8065863715277776
 20
-2.616929372151692
 30
0.0
 10
0.8114420572916666
 20
-2.614013248019748
 30
0.0
 10
0.8152601453993055
 20
-2.60942882961697
 30
0.0
 10
0.8184678819444444
 20
-2.605332692464192
 30
0.0
 10
0.8184678819444444
 20
-2.605332692464192
 30
0.0
 10
0.821194118923611
 20
-2.602267371283637
 30
0.0
 10
0.821194118923611
 20
-2.602267371283637
 30
0.0
 10
0.8248630099826389
 20
-2.597452375623914
 30
0.0
 10
0.8297458224826389
 20
-2.589870452880859
 30
0.0
 10
0.829739040798611
 20
-2.579819997151692
 30
0.0
 10
0.829739040798611
 20
-2.579819997151692
 30
0.0
 10
0.8300035264756944
 20
-2.57219738430447
 30
0.0
 10
0.8300035264756944
 20
-2.57219738430447
 30
0.0
 10
0.8300035264756944
 20
-2.568738725450303
 30
0.0
 10
0.8297458224826389
 20
-2.564059363471137
 30
0.0
 10
0.8272772894965276
 20
-2.557725270589192
 30
0.0
  0
ENDBLK
  5
81
330
7E
100
AcDbEntity
  8
0
100
AcDbBlockEnd
  0
BLOCK
  5
8B
330
89
100
AcDbEntity
  8
0
100
AcDbBlockBegin
  2
Block_1
 70
     0
 10
0.0
 20
0.0
 30
0.0
  3
Block_1
  1

  0
INSERT
  5
8E
330
89
100
AcDbEntity
  8
Mr&Mrs with Date
100
AcDbBlockReference
  2
Block_2
 10
0.0
 20
0.0
 30
0.0
  0
ENDBLK
  5
8C
330
89
100
AcDbEntity
  8
0
100
AcDbBlockEnd
  0
BLOCK
  5
8F
330
8D
100
AcDbEntity
  8
0
100
AcDbBlockBegin
  2
Block_2
 70
     0
 10
0.0
 20
0.0
 30
0.0
  3
Block_2
  1

  0
SPLINE
  5
91
330
8D
100
AcDbEntity
  8
Mr&Mrs with Date
100
AcDbSpline
210
0.0
220
0.0
230
1.0
 70
     9
 71
     3
 72
    35
 73
    31
 74
     0
 42
0.0000000001
 43
0.0000000001
 40
0.0
 40
0.0
 40
0.0
 40
0.0
 40
1.0
 40
1.0
 40
1.0
 40
2.0
 40
2.0
 40
2.0
 40
3.0
 40
3.0
 40
3.0
 40
4.0
 40
4.0
 40
4.0
 40
5.0
 40
5.0
 40
5.0
 40
6.0
 40
6.0
 40
6.0
 40
7.0
 40
7.0
 40
7.0
 40
8.0
 40
8.0
 40
8.0
 40
9.0
 40
9.0
 40
9.0
 40
10.0
 40
10.0
 40
10.0
 40
10.0
 10
1.524712456597222
 20
0.0110677083333333
 30
0.0
 10
1.529378255208333
 20
0.0110677083333333
 30
0.0
 10
1.532728407118055
 20
0.0126546223958333
 30
0.0
 10
1.534762912326388
 20
0.0158284505208333
 30
0.0
 10
1.536797417534722
 20
0.0190022786458333
 30
0.0
 10
1.537814670138888
 20
0.0233561197916667
 30
0.0
 10
1.537814670138888
 20
0.0288899739583333
 30
0.0
 10
1.537814670138888
 20
0.0288899739583333
 30
0.0
 10
1.537814670138888
 20
0.0712890625
 30
0.0
 10
1.537814670138888
 20
0.0712890625
 30
0.0
 10
1.537814670138888
 20
0.0768771701388889
 30
0.0
 10
1.536797417534722
 20
0.0812445746527778
 30
0.0
 10
1.534762912326388
 20
0.0843912760416667
 30
0.0
 10
1.532728407118055
 20
0.0875379774305556
 30
0.0
 10
1.529378255208333
 20
0.089111328125
 30
0.0
 10
1.524712456597222
 20
0.089111328125
 30
0.0
 10
1.520100911458333
 20
0.089111328125
 30
0.0
 10
1.516764322916666
 20
0.0875379774305556
 30
0.0
 10
1.514702690972222
 20
0.0843912760416667
 30
0.0
 10
1.512641059027777
 20
0.0812445746527778
 30
0.0
 10
1.511610243055555
 20
0.0768771701388889
 30
0.0
 10
1.511610243055555
 20
0.0712890625
 30
0.0
 10
1.511610243055555
 20
0.0712890625
 30
0.0
 10
1.511610243055555
 20
0.0288899739583333
 30
0.0
 10
1.511610243055555
 20
0.0288899739583333
 30
0.0
 10
1.511610243055555
 20
0.0233561197916667
 30
0.0
 10
1.512641059027777
 20
0.0190022786458333
 30
0.0
 10
1.514702690972222
 20
0.0158284505208333
 30
0.0
 10
1.516764322916666
 20
0.0126546223958333
 30
0.0
 10
1.520100911458333
 20
0.0110677083333333
 30
0.0
 10
1.524712456597222
 20
0.0110677083333333
 30
0.0
  0
SPLINE
  5
92
330
8D
100
AcDbEntity
  8
Mr&Mrs with Date
100
AcDbSpline
210
0.0
220
0.0
230
1.0
 70
     9
 71
     3
 72
    35
 73
    31
 74
     0
 42
0.0000000001
 43
0.0000000001
 40
0.0
 40
0.0
 40
0.0
 40
0.0
 40
1.0
 40
1.0
 40
1.0
 40
2.0
 40
2.0
 40
2.0
 40
3.0
 40
3.0
 40
3.0
 40
4.0
 40
4.0
 40
4.0
 40
5.0
 40
5.0
 40
5.0
 40
6.0
 40
6.0
 40
6.0
 40
7.0
 40
7.0
 40
7.0
 40
8.0
 40
8.0
 40
8.0
 40
9.0
 40
9.0
 40
9.0
 40
10.0
 40
10.0
 40
10.0
 40
10.0
 10
1.524712456597222
 20
-0.0104166666666667
 30
0.0
 10
1.512939453125
 20
-0.0104166666666667
 30
0.0
 10
1.504096137152777
 20
-0.0073920355902778
 30
0.0
 10
1.498182508680555
 20
-0.0013427734375
 30
0.0
 10
1.492268880208333
 20
0.0047064887152778
 30
0.0
 10
1.489312065972222
 20
0.0128851996527778
 30
0.0
 10
1.489312065972222
 20
0.023193359375
 30
0.0
 10
1.489312065972222
 20
0.023193359375
 30
0.0
 10
1.489312065972222
 20
0.0769856770833333
 30
0.0
 10
1.489312065972222
 20
0.0769856770833333
 30
0.0
 10
1.489312065972222
 20
0.0874565972222222
 30
0.0
 10
1.492296006944444
 20
0.0956759982638889
 30
0.0
 10
1.498263888888888
 20
0.1016438802083333
 30
0.0
 10
1.504231770833333
 20
0.1076117621527778
 30
0.0
 10
1.513047960069444
 20
0.110595703125
 30
0.0
 10
1.524712456597222
 20
0.110595703125
 30
0.0
 10
1.536431206597222
 20
0.110595703125
 30
0.0
 10
1.545260959201388
 20
0.1076253255208333
 30
0.0
 10
1.551201714409722
 20
0.1016845703125
 30
0.0
 10
1.557142469618055
 20
0.0957438151041667
 30
0.0
 10
1.560112847222222
 20
0.0875108506944444
 30
0.0
 10
1.560112847222222
 20
0.0769856770833333
 30
0.0
 10
1.560112847222222
 20
0.0769856770833333
 30
0.0
 10
1.560112847222222
 20
0.023193359375
 30
0.0
 10
1.560112847222222
 20
0.023193359375
 30
0.0
 10
1.560112847222222
 20
0.0127224392361111
 30
0.0
 10
1.55712890625
 20
0.0045030381944444
 30
0.0
 10
1.551161024305555
 20
-0.00146484375
 30
0.0
 10
1.54519314236111
 20
-0.0074327256944444
 30
0.0
 10
1.536376953125
 20
-0.0104166666666667
 30
0.0
 10
1.524712456597222
 20
-0.0104166666666667
 30
0.0
  0
SPLINE
  5
93
330
8D
100
AcDbEntity
  8
Mr&Mrs with Date
100
AcDbSpline
210
0.0
220
0.0
230
1.0
 70
     9
 71
     3
 72
    35
 73
    31
 74
     0
 42
0.0000000001
 43
0.0000000001
 40
0.0
 40
0.0
 40
0.0
 40
0.0
 40
1.0
 40
1.0
 40
1.0
 40
2.0
 40
2.0
 40
2.0
 40
3.0
 40
3.0
 40
3.0
 40
4.0
 40
4.0
 40
4.0
 40
5.0
 40
5.0
 40
5.0
 40
6.0
 40
6.0
 40
6.0
 40
7.0
 40
7.0
 40
7.0
 40
8.0
 40
8.0
 40
8.0
 40
9.0
 40
9.0
 40
9.0
 40
10.0
 40
10.0
 40
10.0
 40
10.0
 10
1.613498263888888
 20
0.0602213541666667
 30
0.0
 10
1.617404513888888
 20
0.0602213541666667
 30
0.0
 10
1.620429144965277
 20
0.0614827473958333
 30
0.0
 10
1.622572157118055
 20
0.0640055338541667
 30
0.0
 10
1.624715169270833
 20
0.0665283203125
 30
0.0
 10
1.625786675347222
 20
0.0700954861111111
 30
0.0
 10
1.625786675347222
 20
0.07470703125
 30
0.0
 10
1.625786675347222
 20
0.07470703125
 30
0.0
 10
1.625786675347222
 20
0.0747884114583333
 30
0.0
 10
1.625786675347222
 20
0.0747884114583333
 30
0.0
 10
1.625786675347222
 20
0.0792371961805556
 30
0.0
 10
1.624715169270833
 20
0.0826687282986111
 30
0.0
 10
1.622572157118055
 20
0.0850830078125
 30
0.0
 10
1.620429144965277
 20
0.0874972873263889
 30
0.0
 10
1.617404513888888
 20
0.0887044270833333
 30
0.0
 10
1.613498263888888
 20
0.0887044270833333
 30
0.0
 10
1.609537760416666
 20
0.0887044270833333
 30
0.0
 10
1.606486002604166
 20
0.0874837239583333
 30
0.0
 10
1.604342990451388
 20
0.0850423177083333
 30
0.0
 10
1.60219997829861
 20
0.0826009114583333
 30
0.0
 10
1.601128472222222
 20
0.0791558159722222
 30
0.0
 10
1.601128472222222
 20
0.07470703125
 30
0.0
 10
1.601128472222222
 20
0.07470703125
 30
0.0
 10
1.601128472222222
 20
0.0746256510416667
 30
0.0
 10
1.601128472222222
 20
0.0746256510416667
 30
0.0
 10
1.601128472222222
 20
0.0700141059027778
 30
0.0
 10
1.60219997829861
 20
0.0664605034722222
 30
0.0
 10
1.604342990451388
 20
0.06396484375
 30
0.0
 10
1.606486002604166
 20
0.0614691840277778
 30
0.0
 10
1.609537760416666
 20
0.0602213541666667
 30
0.0
 10
1.613498263888888
 20
0.0602213541666667
 30
0.0
  0
SPLINE
  5
94
330
8D
100
AcDbEntity
  8
Mr&Mrs with Date
100
AcDbSpline
210
0.0
220
0.0
230
1.0
 70
    11
 71
     3
 72
    53
 73
    49
 74
     0
 42
0.0000000001
 43
0.0000000001
 40
0.0
 40
0.0
 40
0.0
 40
0.0
 40
1.0
 40
1.0
 40
1.0
 40
2.0
 40
2.0
 40
2.0
 40
3.0
 40
3.0
 40
3.0
 40
4.0
 40
4.0
 40
4.0
 40
5.0
 40
5.0
 40
5.0
 40
6.0
 40
6.0
 40
6.0
 40
7.0
 40
7.0
 40
7.0
 40
8.0
 40
8.0
 40
8.0
 40
9.0
 40
9.0
 40
9.0
 40
10.0
 40
10.0
 40
10.0
 40
11.0
 40
11.0
 40
11.0
 40
12.0
 40
12.0
 40
12.0
 40
13.0
 40
13.0
 40
13.0
 40
14.0
 40
14.0
 40
14.0
 40
15.0
 40
15.0
 40
15.0
 40
16.0
 40
16.0
 40
16.0
 40
16.0
 10
1.595024956597222
 20
-0.0091959635416667
 30
0.0
 10
1.595024956597222
 20
-0.0091959635416667
 30
0.0
 10
1.620741102430555
 20
0.049560546875
 30
0.0
 10
1.620741102430555
 20
0.049560546875
 30
0.0
 10
1.620741102430555
 20
0.049560546875
 30
0.0
 10
1.624728732638888
 20
0.046630859375
 30
0.0
 10
1.624728732638888
 20
0.046630859375
 30
0.0
 10
1.62331814236111
 20
0.0440809461805556
 30
0.0
 10
1.621229383680555
 20
0.042236328125
 30
0.0
 10
1.618462456597222
 20
0.0410970052083333
 30
0.0
 10
1.615695529513888
 20
0.0399576822916667
 30
0.0
 10
1.612494574652777
 20
0.0393880208333333
 30
0.0
 10
1.608859592013888
 20
0.0393880208333333
 30
0.0
 10
1.599853515625
 20
0.0393880208333333
 30
0.0
 10
1.592597113715277
 20
0.0425482855902778
 30
0.0
 10
1.587090386284722
 20
0.0488688151041667
 30
0.0
 10
1.581583658854166
 20
0.0551893446180556
 30
0.0
 10
1.578830295138888
 20
0.0635850694444445
 30
0.0
 10
1.578830295138888
 20
0.0740559895833333
 30
0.0
 10
1.578830295138888
 20
0.0740559895833333
 30
0.0
 10
1.578830295138888
 20
0.0741373697916667
 30
0.0
 10
1.578830295138888
 20
0.0741373697916667
 30
0.0
 10
1.578830295138888
 20
0.0856391059027778
 30
0.0
 10
1.581854926215277
 20
0.0945502387152778
 30
0.0
 10
1.587904188368055
 20
0.1008707682291666
 30
0.0
 10
1.593953450520833
 20
0.1071912977430556
 30
0.0
 10
1.602484809027777
 20
0.1103515625
 30
0.0
 10
1.613498263888888
 20
0.1103515625
 30
0.0
 10
1.62451171875
 20
0.1103515625
 30
0.0
 10
1.633029513888888
 20
0.1071641710069444
 30
0.0
 10
1.639051649305555
 20
0.1007893880208333
 30
0.0
 10
1.645073784722222
 20
0.0944146050347222
 30
0.0
 10
1.648084852430555
 20
0.0853949652777778
 30
0.0
 10
1.648084852430555
 20
0.07373046875
 30
0.0
 10
1.648084852430555
 20
0.07373046875
 30
0.0
 10
1.648084852430555
 20
0.0736490885416667
 30
0.0
 10
1.648084852430555
 20
0.0736490885416667
 30
0.0
 10
1.648084852430555
 20
0.0688205295138889
 30
0.0
 10
1.647284613715277
 20
0.0636528862847222
 30
0.0
 10
1.645684136284722
 20
0.0581461588541667
 30
0.0
 10
1.644083658854166
 20
0.0526394314236111
 30
0.0
 10
1.64211697048611
 20
0.0470920138888889
 30
0.0
 10
1.639784071180555
 20
0.04150390625
 30
0.0
 10
1.639784071180555
 20
0.04150390625
 30
0.0
 10
1.618625217013888
 20
-0.0091959635416667
 30
0.0
 10
1.618625217013888
 20
-0.0091959635416667
 30
0.0
 10
1.618625217013888
 20
-0.0091959635416667
 30
0.0
 10
1.595024956597222
 20
-0.0091959635416667
 30
0.0
 10
1.595024956597222
 20
-0.0091959635416667
 30
0.0
  0
SPLINE
  5
95
330
8D
100
AcDbEntity
  8
Mr&Mrs with Date
100
AcDbSpline
210
0.0
220
0.0
230
1.0
 70
     9
 71
     3
 72
    17
 73
    13
 74
     0
 42
0.0000000001
 43
0.0000000001
 40
0.0
 40
0.0
 40
0.0
 40
0.0
 40
1.0
 40
1.0
 40
1.0
 40
2.0
 40
2.0
 40
2.0
 40
3.0
 40
3.0
 40
3.0
 40
4.0
 40
4.0
 40
4.0
 40
4.0
 10
1.662217881944444
 20
0.0342814127604167
 30
0.0
 10
1.662055121527777
 20
0.0441080729166667
 30
0.0
 10
1.6700439453125
 20
0.0517713758680556
 30
0.0
 10
1.67971462673611
 20
0.0517713758680556
 30
0.0
 10
1.689371744791666
 20
0.0517713758680556
 30
0.0
 10
1.697197808159722
 20
0.0441080729166667
 30
0.0
 10
1.697197808159722
 20
0.0344441731770833
 30
0.0
 10
1.697197808159722
 20
0.0246175130208333
 30
0.0
 10
1.689534505208333
 20
0.0169542100694445
 30
0.0
 10
1.67971462673611
 20
0.0169542100694445
 30
0.0
 10
1.6700439453125
 20
0.0169542100694445
 30
0.0
 10
1.662217881944444
 20
0.0244547526041667
 30
0.0
 10
1.662217881944444
 20
0.0342814127604167
 30
0.0
  0
SPLINE
  5
96
330
8D
100
AcDbEntity
  8
Mr&Mrs with Date
100
AcDbSpline
210
0.0
220
0.0
230
1.0
 70
    11
 71
     3
 72
    26
 73
    22
 74
     0
 42
0.0000000001
 43
0.0000000001
 40
0.0
 40
0.0
 40
0.0
 40
0.0
 40
1.0
 40
1.0
 40
1.0
 40
2.0
 40
2.0
 40
2.0
 40
3.0
 40
3.0
 40
3.0
 40
4.0
 40
4.0
 40
4.0
 40
5.0
 40
5.0
 40
5.0
 40
6.0
 40
6.0
 40
6.0
 40
7.0
 40
7.0
 40
7.0
 40
7.0
 10
1.745619032118055
 20
0.109130859375
 30
0.0
 10
1.745619032118055
 20
0.109130859375
 30
0.0
 10
1.745619032118055
 20
-0.0091959635416667
 30
0.0
 10
1.745619032118055
 20
-0.0091959635416667
 30
0.0
 10
1.745619032118055
 20
-0.0091959635416667
 30
0.0
 10
1.723320855034722
 20
-0.0091959635416667
 30
0.0
 10
1.723320855034722
 20
-0.0091959635416667
 30
0.0
 10
1.723320855034722
 20
-0.0091959635416667
 30
0.0
 10
1.723320855034722
 20
0.0829264322916667
 30
0.0
 10
1.723320855034722
 20
0.0829264322916667
 30
0.0
 10
1.723320855034722
 20
0.0829264322916667
 30
0.0
 10
1.708916558159722
 20
0.0774739583333333
 30
0.0
 10
1.708916558159722
 20
0.0774739583333333
 30
0.0
 10
1.708916558159722
 20
0.0774739583333333
 30
0.0
 10
1.708916558159722
 20
0.1011555989583333
 30
0.0
 10
1.708916558159722
 20
0.1011555989583333
 30
0.0
 10
1.708916558159722
 20
0.1011555989583333
 30
0.0
 10
1.726576063368055
 20
0.109130859375
 30
0.0
 10
1.726576063368055
 20
0.109130859375
 30
0.0
 10
1.726576063368055
 20
0.109130859375
 30
0.0
 10
1.745619032118055
 20
0.109130859375
 30
0.0
 10
1.745619032118055
 20
0.109130859375
 30
0.0
  0
SPLINE
  5
97
330
8D
100
AcDbEntity
  8
Mr&Mrs with Date
100
AcDbSpline
210
0.0
220
0.0
230
1.0
 70
     9
 71
     3
 72
    35
 73
    31
 74
     0
 42
0.0000000001
 43
0.0000000001
 40
0.0
 40
0.0
 40
0.0
 40
0.0
 40
1.0
 40
1.0
 40
1.0
 40
2.0
 40
2.0
 40
2.0
 40
3.0
 40
3.0
 40
3.0
 40
4.0
 40
4.0
 40
4.0
 40
5.0
 40
5.0
 40
5.0
 40
6.0
 40
6.0
 40
6.0
 40
7.0
 40
7.0
 40
7.0
 40
8.0
 40
8.0
 40
8.0
 40
9.0
 40
9.0
 40
9.0
 40
10.0
 40
10.0
 40
10.0
 40
10.0
 10
1.805514865451388
 20
0.0618489583333333
 30
0.0
 10
1.809366861979166
 20
0.0618489583333333
 30
0.0
 10
1.812459309895833
 20
0.0630696614583333
 30
0.0
 10
1.814792209201388
 20
0.0655110677083333
 30
0.0
 10
1.817125108506944
 20
0.0679524739583333
 30
0.0
 10
1.818291558159722
 20
0.0712076822916667
 30
0.0
 10
1.818291558159722
 20
0.0752766927083333
 30
0.0
 10
1.818291558159722
 20
0.0752766927083333
 30
0.0
 10
1.818291558159722
 20
0.076416015625
 30
0.0
 10
1.818291558159722
 20
0.076416015625
 30
0.0
 10
1.818291558159722
 20
0.0801595052083333
 30
0.0
 10
1.817125108506944
 20
0.0831705729166667
 30
0.0
 10
1.814792209201388
 20
0.08544921875
 30
0.0
 10
1.812459309895833
 20
0.0877278645833333
 30
0.0
 10
1.809366861979166
 20
0.0888671875
 30
0.0
 10
1.805514865451388
 20
0.0888671875
 30
0.0
 10
1.801717122395833
 20
0.0888671875
 30
0.0
 10
1.798638237847222
 20
0.0877278645833333
 30
0.0
 10
1.796278211805555
 20
0.08544921875
 30
0.0
 10
1.793918185763888
 20
0.0831705729166667
 30
0.0
 10
1.792738172743055
 20
0.0801323784722222
 30
0.0
 10
1.792738172743055
 20
0.0763346354166667
 30
0.0
 10
1.792738172743055
 20
0.0763346354166667
 30
0.0
 10
1.792738172743055
 20
0.0751139322916667
 30
0.0
 10
1.792738172743055
 20
0.0751139322916667
 30
0.0
 10
1.792738172743055
 20
0.0711534288194444
 30
0.0
 10
1.793918185763888
 20
0.0679524739583333
 30
0.0
 10
1.796278211805555
 20
0.0655110677083333
 30
0.0
 10
1.798638237847222
 20
0.0630696614583333
 30
0.0
 10
1.801717122395833
 20
0.0618489583333333
 30
0.0
 10
1.805514865451388
 20
0.0618489583333333
 30
0.0
  0
SPLINE
  5
98
330
8D
100
AcDbEntity
  8
Mr&Mrs with Date
100
AcDbSpline
210
0.0
220
0.0
230
1.0
 70
    11
 71
     3
 72
    35
 73
    31
 74
     0
 42
0.0000000001
 43
0.0000000001
 40
0.0
 40
0.0
 40
0.0
 40
0.0
 40
1.0
 40
1.0
 40
1.0
 40
2.0
 40
2.0
 40
2.0
 40
3.0
 40
3.0
 40
3.0
 40
4.0
 40
4.0
 40
4.0
 40
5.0
 40
5.0
 40
5.0
 40
6.0
 40
6.0
 40
6.0
 40
7.0
 40
7.0
 40
7.0
 40
8.0
 40
8.0
 40
8.0
 40
9.0
 40
9.0
 40
9.0
 40
10.0
 40
10.0
 40
10.0
 40
10.0
 10
1.805514865451388
 20
0.0110677083333333
 30
0.0
 10
1.810072157118055
 20
0.0110677083333333
 30
0.0
 10
1.81374782986111
 20
0.0124104817708333
 30
0.0
 10
1.816541883680555
 20
0.0150960286458333
 30
0.0
 10
1.8193359375
 20
0.0177815755208333
 30
0.0
 10
1.820732964409722
 20
0.0213216145833333
 30
0.0
 10
1.820732964409722
 20
0.0257161458333333
 30
0.0
 10
1.820732964409722
 20
0.0257161458333333
 30
0.0
 10
1.820732964409722
 20
0.02685546875
 30
0.0
 10
1.820732964409722
 20
0.02685546875
 30
0.0
 10
1.820732964409722
 20
0.0308702256944445
 30
0.0
 10
1.8193359375
 20
0.0340983072916667
 30
0.0
 10
1.816541883680555
 20
0.0365397135416667
 30
0.0
 10
1.81374782986111
 20
0.0389811197916667
 30
0.0
 10
1.810072157118055
 20
0.0402018229166667
 30
0.0
 10
1.805514865451388
 20
0.0402018229166667
 30
0.0
 10
1.800957573784722
 20
0.0402018229166667
 30
0.0
 10
1.797281901041666
 20
0.0389811197916667
 30
0.0
 10
1.794487847222222
 20
0.0365397135416667
 30
0.0
 10
1.791693793402777
 20
0.0340983072916667
 30
0.0
 10
1.790296766493055
 20
0.0308430989583333
 30
0.0
 10
1.790296766493055
 20
0.0267740885416667
 30
0.0
 10
1.790296766493055
 20
0.0267740885416667
 30
0.0
 10
1.790296766493055
 20
0.0255533854166667
 30
0.0
 10
1.790296766493055
 20
0.0255533854166667
 30
0.0
 10
1.790296766493055
 20
0.0212131076388889
 30
0.0
 10
1.791693793402777
 20
0.0177137586805556
 30
0.0
 10
1.794487847222222
 20
0.0150553385416667
 30
0.0
 10
1.797281901041666
 20
0.0123969184027778
 30
0.0
 10
1.800957573784722
 20
0.0110677083333333
 30
0.0
 10
1.805514865451388
 20
0.0110677083333333
 30
0.0
  0
SPLINE
  5
99
330
8D
100
AcDbEntity
  8
Mr&Mrs with Date
100
AcDbSpline
210
0.0
220
0.0
230
1.0
 70
    11
 71
     3
 72
    71
 73
    67
 74
     0
 42
0.0000000001
 43
0.0000000001
 40
0.0
 40
0.0
 40
0.0
 40
0.0
 40
1.0
 40
1.0
 40
1.0
 40
2.0
 40
2.0
 40
2.0
 40
3.0
 40
3.0
 40
3.0
 40
4.0
 40
4.0
 40
4.0
 40
5.0
 40
5.0
 40
5.0
 40
6.0
 40
6.0
 40
6.0
 40
7.0
 40
7.0
 40
7.0
 40
8.0
 40
8.0
 40
8.0
 40
9.0
 40
9.0
 40
9.0
 40
10.0
 40
10.0
 40
10.0
 40
11.0
 40
11.0
 40
11.0
 40
12.0
 40
12.0
 40
12.0
 40
13.0
 40
13.0
 40
13.0
 40
14.0
 40
14.0
 40
14.0
 40
15.0
 40
15.0
 40
15.0
 40
16.0
 40
16.0
 40
16.0
 40
17.0
 40
17.0
 40
17.0
 40
18.0
 40
18.0
 40
18.0
 40
19.0
 40
19.0
 40
19.0
 40
20.0
 40
20.0
 40
20.0
 40
21.0
 40
21.0
 40
21.0
 40
22.0
 40
22.0
 40
22.0
 40
22.0
 10
1.805514865451388
 20
-0.0104166666666667
 30
0.0
 10
1.7979736328125
 20
-0.0104166666666667
 30
0.0
 10
1.791395399305555
 20
-0.0090603298611111
 30
0.0
 10
1.785780164930555
 20
-0.00634765625
 30
0.0
 10
1.780164930555555
 20
-0.0036349826388889
 30
0.0
 10
1.775797526041666
 20
0.0001898871527778
 30
0.0
 10
1.772677951388888
 20
0.005126953125
 30
0.0
 10
1.76955837673611
 20
0.0100640190972222
 30
0.0
 10
1.767998589409722
 20
0.0158420138888889
 30
0.0
 10
1.767998589409722
 20
0.0224609375
 30
0.0
 10
1.767998589409722
 20
0.0224609375
 30
0.0
 10
1.767998589409722
 20
0.0244140625
 30
0.0
 10
1.767998589409722
 20
0.0244140625
 30
0.0
 10
1.767998589409722
 20
0.0303276909722222
 30
0.0
 10
1.769626193576388
 20
0.035888671875
 30
0.0
 10
1.772881401909722
 20
0.0410970052083333
 30
0.0
 10
1.776136610243055
 20
0.0463053385416667
 30
0.0
 10
1.780476888020833
 20
0.0502387152777778
 30
0.0
 10
1.785902235243055
 20
0.0528971354166667
 30
0.0
 10
1.781290690104166
 20
0.05517578125
 30
0.0
 10
1.777560763888888
 20
0.0584309895833333
 30
0.0
 10
1.774712456597222
 20
0.0626627604166667
 30
0.0
 10
1.771864149305555
 20
0.06689453125
 30
0.0
 10
1.770439995659722
 20
0.0713975694444444
 30
0.0
 10
1.770439995659722
 20
0.076171875
 30
0.0
 10
1.770439995659722
 20
0.076171875
 30
0.0
 10
1.770439995659722
 20
0.0792643229166667
 30
0.0
 10
1.770439995659722
 20
0.0792643229166667
 30
0.0
 10
1.770439995659722
 20
0.0886501736111111
 30
0.0
 10
1.773640950520833
 20
0.0961778428819444
 30
0.0
 10
1.780042860243055
 20
0.1018473307291666
 30
0.0
 10
1.786444769965277
 20
0.1075168185763889
 30
0.0
 10
1.794935438368055
 20
0.1103515625
 30
0.0
 10
1.805514865451388
 20
0.1103515625
 30
0.0
 10
1.816094292534722
 20
0.1103515625
 30
0.0
 10
1.8245849609375
 20
0.1075168185763889
 30
0.0
 10
1.830986870659722
 20
0.1018473307291666
 30
0.0
 10
1.837388780381944
 20
0.0961778428819444
 30
0.0
 10
1.840589735243055
 20
0.0886501736111111
 30
0.0
 10
1.840589735243055
 20
0.0792643229166667
 30
0.0
 10
1.840589735243055
 20
0.0792643229166667
 30
0.0
 10
1.840589735243055
 20
0.076171875
 30
0.0
 10
1.840589735243055
 20
0.076171875
 30
0.0
 10
1.840589735243055
 20
0.0712890625
 30
0.0
 10
1.839152018229166
 20
0.0667453342013889
 30
0.0
 10
1.836276584201388
 20
0.0625406901041667
 30
0.0
 10
1.83340115017361
 20
0.0583360460069445
 30
0.0
 10
1.829603407118055
 20
0.0551215277777778
 30
0.0
 10
1.824883355034722
 20
0.0528971354166667
 30
0.0
 10
1.830362955729166
 20
0.0502387152777778
 30
0.0
 10
1.834757486979166
 20
0.0463053385416667
 30
0.0
 10
1.838066948784722
 20
0.0410970052083333
 30
0.0
 10
1.841376410590277
 20
0.035888671875
 30
0.0
 10
1.843031141493055
 20
0.0303276909722222
 30
0.0
 10
1.843031141493055
 20
0.0244140625
 30
0.0
 10
1.843031141493055
 20
0.0244140625
 30
0.0
 10
1.843031141493055
 20
0.0224609375
 30
0.0
 10
1.843031141493055
 20
0.0224609375
 30
0.0
 10
1.843031141493055
 20
0.0158420138888889
 30
0.0
 10
1.841471354166666
 20
0.0100640190972222
 30
0.0
 10
1.838351779513888
 20
0.005126953125
 30
0.0
 10
1.83523220486111
 20
0.0001898871527778
 30
0.0
 10
1.830864800347222
 20
-0.0036349826388889
 30
0.0
 10
1.825249565972222
 20
-0.00634765625
 30
0.0
 10
1.819634331597222
 20
-0.0090603298611111
 30
0.0
 10
1.813056098090277
 20
-0.0104166666666667
 30
0.0
 10
1.805514865451388
 20
-0.0104166666666667
 30
0.0
  0
SPLINE
  5
9A
330
8D
100
AcDbEntity
  8
Mr&Mrs with Date
100
AcDbSpline
210
0.0
220
0.0
230
1.0
 70
     9
 71
     3
 72
    17
 73
    13
 74
     0
 42
0.0000000001
 43
0.0000000001
 40
0.0
 40
0.0
 40
0.0
 40
0.0
 40
1.0
 40
1.0
 40
1.0
 40
2.0
 40
2.0
 40
2.0
 40
3.0
 40
3.0
 40
3.0
 40
4.0
 40
4.0
 40
4.0
 40
4.0
 10
1.858384874131944
 20
0.0342814127604167
 30
0.0
 10
1.858222113715277
 20
0.0441080729166667
 30
0.0
 10
1.8662109375
 20
0.0517713758680556
 30
0.0
 10
1.87588161892361
 20
0.0517713758680556
 30
0.0
 10
1.885538736979166
 20
0.0517713758680556
 30
0.0
 10
1.893364800347222
 20
0.0441080729166667
 30
0.0
 10
1.893364800347222
 20
0.0344441731770833
 30
0.0
 10
1.893364800347222
 20
0.0246175130208333
 30
0.0
 10
1.885701497395833
 20
0.0169542100694445
 30
0.0
 10
1.87588161892361
 20
0.0169542100694445
 30
0.0
 10
1.8662109375
 20
0.0169542100694445
 30
0.0
 10
1.858384874131944
 20
0.0244547526041667
 30
0.0
 10
1.858384874131944
 20
0.0342814127604167
 30
0.0
  0
SPLINE
  5
9B
330
8D
100
AcDbEntity
  8
Mr&Mrs with Date
100
AcDbSpline
210
0.0
220
0.0
230
1.0
 70
    11
 71
     3
 72
    74
 73
    70
 74
     0
 42
0.0000000001
 43
0.0000000001
 40
0.0
 40
0.0
 40
0.0
 40
0.0
 40
1.0
 40
1.0
 40
1.0
 40
2.0
 40
2.0
 40
2.0
 40
3.0
 40
3.0
 40
3.0
 40
4.0
 40
4.0
 40
4.0
 40
5.0
 40
5.0
 40
5.0
 40
6.0
 40
6.0
 40
6.0
 40
7.0
 40
7.0
 40
7.0
 40
8.0
 40
8.0
 40
8.0
 40
9.0
 40
9.0
 40
9.0
 40
10.0
 40
10.0
 40
10.0
 40
11.0
 40
11.0
 40
11.0
 40
12.0
 40
12.0
 40
12.0
 40
13.0
 40
13.0
 40
13.0
 40
14.0
 40
14.0
 40
14.0
 40
15.0
 40
15.0
 40
15.0
 40
16.0
 40
16.0
 40
16.0
 40
17.0
 40
17.0
 40
17.0
 40
18.0
 40
18.0
 40
18.0
 40
19.0
 40
19.0
 40
19.0
 40
20.0
 40
20.0
 40
20.0
 40
21.0
 40
21.0
 40
21.0
 40
22.0
 40
22.0
 40
22.0
 40
23.0
 40
23.0
 40
23.0
 40
23.0
 10
1.908175998263888
 20
-0.0091959635416667
 30
0.0
 10
1.908175998263888
 20
-0.0091959635416667
 30
0.0
 10
1.908175998263888
 20
0.0109049479166667
 30
0.0
 10
1.908175998263888
 20
0.0109049479166667
 30
0.0
 10
1.908175998263888
 20
0.0109049479166667
 30
0.0
 10
1.948784722222222
 20
0.0642903645833333
 30
0.0
 10
1.948784722222222
 20
0.0642903645833333
 30
0.0
 10
1.950629340277777
 20
0.0666775173611111
 30
0.0
 10
1.95205349392361
 20
0.0691324869791667
 30
0.0
 10
1.953057183159722
 20
0.0716552734375
 30
0.0
 10
1.954060872395833
 20
0.0741780598958333
 30
0.0
 10
1.954562717013888
 20
0.0765245225694444
 30
0.0
 10
1.954562717013888
 20
0.0786946614583333
 30
0.0
 10
1.954562717013888
 20
0.0786946614583333
 30
0.0
 10
1.954562717013888
 20
0.078857421875
 30
0.0
 10
1.954562717013888
 20
0.078857421875
 30
0.0
 10
1.954562717013888
 20
0.0820583767361111
 30
0.0
 10
1.953531901041666
 20
0.0845269097222222
 30
0.0
 10
1.951470269097222
 20
0.0862630208333333
 30
0.0
 10
1.949408637152777
 20
0.0879991319444444
 30
0.0
 10
1.946478949652777
 20
0.0888671875
 30
0.0
 10
1.942681206597222
 20
0.0888671875
 30
0.0
 10
1.939046223958333
 20
0.0888671875
 30
0.0
 10
1.936075846354166
 20
0.0876600477430556
 30
0.0
 10
1.933770073784722
 20
0.0852457682291667
 30
0.0
 10
1.931464301215277
 20
0.0828314887152778
 30
0.0
 10
1.930067274305555
 20
0.0793999565972222
 30
0.0
 10
1.929578993055555
 20
0.074951171875
 30
0.0
 10
1.929578993055555
 20
0.074951171875
 30
0.0
 10
1.929578993055555
 20
0.0748697916666667
 30
0.0
 10
1.929578993055555
 20
0.0748697916666667
 30
0.0
 10
1.929578993055555
 20
0.0748697916666667
 30
0.0
 10
1.906711154513888
 20
0.0748697916666667
 30
0.0
 10
1.906711154513888
 20
0.0748697916666667
 30
0.0
 10
1.906711154513888
 20
0.0748697916666667
 30
0.0
 10
1.906711154513888
 20
0.074951171875
 30
0.0
 10
1.906711154513888
 20
0.074951171875
 30
0.0
 10
1.907470703125
 20
0.086181640625
 30
0.0
 10
1.911064995659722
 20
0.0948893229166667
 30
0.0
 10
1.917494032118055
 20
0.10107421875
 30
0.0
 10
1.923923068576388
 20
0.1072591145833333
 30
0.0
 10
1.932264539930555
 20
0.1103515625
 30
0.0
 10
1.942518446180555
 20
0.1103515625
 30
0.0
 10
1.95364040798611
 20
0.1103515625
 30
0.0
 10
1.962253146701388
 20
0.107666015625
 30
0.0
 10
1.968356662326388
 20
0.102294921875
 30
0.0
 10
1.974460177951388
 20
0.096923828125
 30
0.0
 10
1.977511935763888
 20
0.0893283420138889
 30
0.0
 10
1.977511935763888
 20
0.0795084635416667
 30
0.0
 10
1.977511935763888
 20
0.0795084635416667
 30
0.0
 10
1.977511935763888
 20
0.0794270833333333
 30
0.0
 10
1.977511935763888
 20
0.0794270833333333
 30
0.0
 10
1.977511935763888
 20
0.0740559895833333
 30
0.0
 10
1.976576063368055
 20
0.0687255859375
 30
0.0
 10
1.974704318576388
 20
0.0634358723958333
 30
0.0
 10
1.972832573784722
 20
0.0581461588541667
 30
0.0
 10
1.97021484375
 20
0.0533582899305556
 30
0.0
 10
1.966851128472222
 20
0.049072265625
 30
0.0
 10
1.966851128472222
 20
0.049072265625
 30
0.0
 10
1.937717013888888
 20
0.0122884114583333
 30
0.0
 10
1.937717013888888
 20
0.0122884114583333
 30
0.0
 10
1.937717013888888
 20
0.0122884114583333
 30
0.0
 10
1.978162977430555
 20
0.0122884114583333
 30
0.0
 10
1.978162977430555
 20
0.0122884114583333
 30
0.0
 10
1.978162977430555
 20
0.0122884114583333
 30
0.0
 10
1.978162977430555
 20
-0.0091959635416667
 30
0.0
 10
1.978162977430555
 20
-0.0091959635416667
 30
0.0
 10
1.978162977430555
 20
-0.0091959635416667
 30
0.0
 10
1.908175998263888
 20
-0.0091959635416667
 30
0.0
 10
1.908175998263888
 20
-0.0091959635416667
 30
0.0
  0
SPLINE
  5
9C
330
8D
100
AcDbEntity
  8
Mr&Mrs with Date
100
AcDbSpline
210
0.0
220
0.0
230
1.0
 70
    11
 71
     3
 72
    26
 73
    22
 74
     0
 42
0.0000000001
 43
0.0000000001
 40
0.0
 40
0.0
 40
0.0
 40
0.0
 40
1.0
 40
1.0
 40
1.0
 40
2.0
 40
2.0
 40
2.0
 40
3.0
 40
3.0
 40
3.0
 40
4.0
 40
4.0
 40
4.0
 40
5.0
 40
5.0
 40
5.0
 40
6.0
 40
6.0
 40
6.0
 40
7.0
 40
7.0
 40
7.0
 40
7.0
 10
2.027886284722222
 20
0.109130859375
 30
0.0
 10
2.027886284722222
 20
0.109130859375
 30
0.0
 10
2.027886284722222
 20
-0.0091959635416667
 30
0.0
 10
2.027886284722222
 20
-0.0091959635416667
 30
0.0
 10
2.027886284722222
 20
-0.0091959635416667
 30
0.0
 10
2.005588107638888
 20
-0.0091959635416667
 30
0.0
 10
2.005588107638888
 20
-0.0091959635416667
 30
0.0
 10
2.005588107638888
 20
-0.0091959635416667
 30
0.0
 10
2.005588107638888
 20
0.0829264322916667
 30
0.0
 10
2.005588107638888
 20
0.0829264322916667
 30
0.0
 10
2.005588107638888
 20
0.0829264322916667
 30
0.0
 10
1.991183810763888
 20
0.0774739583333333
 30
0.0
 10
1.991183810763888
 20
0.0774739583333333
 30
0.0
 10
1.991183810763888
 20
0.0774739583333333
 30
0.0
 10
1.991183810763888
 20
0.1011555989583333
 30
0.0
 10
1.991183810763888
 20
0.1011555989583333
 30
0.0
 10
1.991183810763888
 20
0.1011555989583333
 30
0.0
 10
2.008843315972222
 20
0.109130859375
 30
0.0
 10
2.008843315972222
 20
0.109130859375
 30
0.0
 10
2.008843315972222
 20
0.109130859375
 30
0.0
 10
2.027886284722222
 20
0.109130859375
 30
0.0
 10
2.027886284722222
 20
0.109130859375
 30
0.0
  0
ENDBLK
  5
90
330
8D
100
AcDbEntity
  8
0
100
AcDbBlockEnd
  0
BLOCK
  5
9F
330
9D
100
AcDbEntity
  8
0
100
AcDbBlockBegin
  2
Block_3
 70
     0
 10
0.0
 20
0.0
 30
0.0
  3
Block_3
  1

  0
SPLINE
  5
A1
330
9D
100
AcDbEntity
  8
Mr&Mrs with Date
100
AcDbSpline
210
0.0
220
0.0
230
1.0
 70
     9
 71
     3
 72
   122
 73
   118
 74
     0
 42
0.0000000001
 43
0.0000000001
 40
0.0
 40
0.0
 40
0.0
 40
0.0
 40
1.0
 40
1.0
 40
1.0
 40
2.0
 40
2.0
 40
2.0
 40
3.0
 40
3.0
 40
3.0
 40
4.0
 40
4.0
 40
4.0
 40
5.0
 40
5.0
 40
5.0
 40
6.0
 40
6.0
 40
6.0
 40
7.0
 40
7.0
 40
7.0
 40
8.0
 40
8.0
 40
8.0
 40
9.0
 40
9.0
 40
9.0
 40
10.0
 40
10.0
 40
10.0
 40
11.0
 40
11.0
 40
11.0
 40
12.0
 40
12.0
 40
12.0
 40
13.0
 40
13.0
 40
13.0
 40
14.0
 40
14.0
 40
14.0
 40
15.0
 40
15.0
 40
15.0
 40
16.0
 40
16.0
 40
16.0
 40
17.0
 40
17.0
 40
17.0
 40
18.0
 40
18.0
 40
18.0
 40
19.0
 40
19.0
 40
19.0
 40
20.0
 40
20.0
 40
20.0
 40
21.0
 40
21.0
 40
21.0
 40
22.0
 40
22.0
 40
22.0
 40
23.0
 40
23.0
 40
23.0
 40
24.0
 40
24.0
 40
24.0
 40
25.0
 40
25.0
 40
25.0
 40
26.0
 40
26.0
 40
26.0
 40
27.0
 40
27.0
 40
27.0
 40
28.0
 40
28.0
 40
28.0
 40
29.0
 40
29.0
 40
29.0
 40
30.0
 40
30.0
 40
30.0
 40
31.0
 40
31.0
 40
31.0
 40
32.0
 40
32.0
 40
32.0
 40
33.0
 40
33.0
 40
33.0
 40
34.0
 40
34.0
 40
34.0
 40
35.0
 40
35.0
 40
35.0
 40
36.0
 40
36.0
 40
36.0
 40
37.0
 40
37.0
 40
37.0
 40
38.0
 40
38.0
 40
38.0
 40
39.0
 40
39.0
 40
39.0
 40
39.0
 10
0.0459798177083333
 20
-2.810261620415581
 30
0.0
 10
0.0476481119791667
 20
-2.800116221110025
 30
0.0
 10
0.0494520399305556
 20
-2.789170583089192
 30
0.0
 10
0.0516560872395833
 20
-2.77751964992947
 30
0.0
 10
0.0534396701388889
 20
-2.767848968505859
 30
0.0
 10
0.0542331271701389
 20
-2.757703569200303
 30
0.0
 10
0.0542331271701389
 20
-2.744642045762803
 30
0.0
 10
0.0542331271701389
 20
-2.744642045762803
 30
0.0
 10
0.0539211697048611
 20
-2.719332800971137
 30
0.0
 10
0.0539211697048611
 20
-2.719332800971137
 30
0.0
 10
0.0539211697048611
 20
-2.70232433742947
 30
0.0
 10
0.04150390625
 20
-2.662325965033637
 30
0.0
 10
0.0245157877604167
 20
-2.662325965033637
 30
0.0
 10
0.0210028754340278
 20
-2.662325965033637
 30
0.0
 10
0.01544189453125
 20
-2.663953569200303
 30
0.0
 10
0.0046861436631944
 20
-2.66814464992947
 30
0.0
 10
0.0046861436631944
 20
-2.66814464992947
 30
0.0
 10
0.0030314127604167
 20
-2.668809254964192
 30
0.0
 10
0.0030314127604167
 20
-2.668809254964192
 30
0.0
 10
-0.0214708116319445
 20
-2.680622948540581
 30
0.0
 10
-0.0429144965277778
 20
-2.709974077012803
 30
0.0
 10
-0.0529446072048611
 20
-2.745401594373914
 30
0.0
 10
-0.0597601996527778
 20
-2.76970714992947
 30
0.0
 10
-0.0636664496527778
 20
-2.803439246283637
 30
0.0
 10
-0.0636664496527778
 20
-2.837930891248914
 30
0.0
 10
-0.0636664496527778
 20
-2.876206715901692
 30
0.0
 10
-0.0618014865451389
 20
-2.904337141248914
 30
0.0
 10
-0.0523139105902778
 20
-2.93474621242947
 30
0.0
 10
-0.0522732204861111
 20
-2.93486828274197
 30
0.0
 10
-0.0482042100694445
 20
-2.947116004096137
 30
0.0
 10
-0.0404120551215278
 20
-2.947116004096137
 30
0.0
 10
-0.0319349500868056
 20
-2.947116004096137
 30
0.0
 10
-0.0288560655381945
 20
-2.936346689860025
 30
0.0
 10
-0.0288560655381945
 20
-2.929103851318359
 30
0.0
 10
-0.0288560655381945
 20
-2.927774641248914
 30
0.0
 10
-0.0292019314236111
 20
-2.925061967637803
 30
0.0
 10
-0.0297783745659722
 20
-2.922308603922525
 30
0.0
 10
-0.0372178819444445
 20
-2.89836925930447
 30
0.0
 10
-0.03778076171875
 20
-2.880031585693359
 30
0.0
 10
-0.0380859375
 20
-2.852158864339192
 30
0.0
 10
-0.0380859375
 20
-2.852158864339192
 30
0.0
 10
-0.0381334092881945
 20
-2.845580630832248
 30
0.0
 10
-0.0381334092881945
 20
-2.845580630832248
 30
0.0
 10
-0.0375298394097222
 20
-2.840426550971137
 30
0.0
 10
-0.0360243055555556
 20
-2.831189897325303
 30
0.0
 10
-0.0344712999131945
 20
-2.82158703274197
 30
0.0
 10
-0.0344712999131945
 20
-2.82158703274197
 30
0.0
 10
-0.0301649305555556
 20
-2.793660057915581
 30
0.0
 10
-0.0301649305555556
 20
-2.793660057915581
 30
0.0
 10
-0.0242852105034722
 20
-2.755343543158637
 30
0.0
 10
-0.0084364149305556
 20
-2.710530175103081
 30
0.0
 10
0.0134819878472222
 20
-2.696912553575303
 30
0.0
 10
0.0180935329861111
 20
-2.694294823540581
 30
0.0
 10
0.0198906792534722
 20
-2.693670908610025
 30
0.0
 10
0.0205010308159722
 20
-2.693589528401692
 30
0.0
 10
0.0205145941840278
 20
-2.693589528401692
 30
0.0
 10
0.0218234592013889
 20
-2.694308386908637
 30
0.0
 10
0.0234307183159722
 20
-2.698228200276692
 30
0.0
 10
0.0252549913194445
 20
-2.704060448540581
 30
0.0
 10
0.02618408203125
 20
-2.711154090033637
 30
0.0
 10
0.02618408203125
 20
-2.719332800971137
 30
0.0
 10
0.02618408203125
 20
-2.728393130832248
 30
0.0
 10
0.0246446397569445
 20
-2.73589367336697
 30
0.0
 10
0.0233561197916667
 20
-2.741224077012803
 30
0.0
 10
0.0211520724826389
 20
-2.74932140774197
 30
0.0
 10
0.0183308919270833
 20
-2.760104285346137
 30
0.0
 10
0.0176866319444445
 20
-2.763413747151692
 30
0.0
 10
0.0176866319444445
 20
-2.763413747151692
 30
0.0
 10
0.0096842447916667
 20
-2.807155609130859
 30
0.0
 10
0.0096842447916667
 20
-2.807155609130859
 30
0.0
 10
0.0079684787326389
 20
-2.816446516248914
 30
0.0
 10
0.00640869140625
 20
-2.825384775797525
 30
0.0
 10
0.0048895941840278
 20
-2.834065331353081
 30
0.0
 10
0.00128173828125
 20
-2.854708777533637
 30
0.0
 10
-0.0021226671006944
 20
-2.874212900797525
 30
0.0
 10
-0.0068495008680556
 20
-2.89373058742947
 30
0.0
 10
-0.0084567599826389
 20
-2.900349511040581
 30
0.0
 10
-0.0091078016493056
 20
-2.90667004055447
 30
0.0
 10
-0.0098198784722222
 20
-2.914875878228081
 30
0.0
 10
-0.0098198784722222
 20
-2.915499793158637
 30
0.0
 10
-0.0098876953125
 20
-2.916218651665581
 30
0.0
 10
-0.00994873046875
 20
-2.916937510172525
 30
0.0
 10
-0.0100436740451389
 20
-2.918063269721137
 30
0.0
 10
-0.0101250542534722
 20
-2.919189029269748
 30
0.0
 10
-0.0101047092013889
 20
-2.919582366943359
 30
0.0
 10
-0.0103895399305556
 20
-2.923095279269748
 30
0.0
 10
-0.010986328125
 20
-2.927625444200303
 30
0.0
 10
-0.0118747287326389
 20
-2.932711707221137
 30
0.0
 10
-0.0130208333333333
 20
-2.939534081353081
 30
0.0
 10
-0.0144246419270833
 20
-2.943887922498914
 30
0.0
 10
-0.0159979926215278
 20
-2.948770734998914
 30
0.0
 10
-0.0159979926215278
 20
-2.948770734998914
 30
0.0
 10
-0.0177883572048611
 20
-2.954901377360025
 30
0.0
 10
-0.0177883572048611
 20
-2.954901377360025
 30
0.0
 10
-0.0194905598958333
 20
-2.960150400797525
 30
0.0
 10
-0.0201551649305556
 20
-2.964694129096137
 30
0.0
 10
-0.0208604600694445
 20
-2.969549814860025
 30
0.0
 10
-0.0210842556423611
 20
-2.971842024061414
 30
0.0
 10
-0.0214979383680556
 20
-2.973822275797525
 30
0.0
 10
-0.0216132269965278
 20
-2.974975162082248
 30
0.0
 10
-0.0325249565972222
 20
-3.001830630832248
 30
0.0
 10
-0.0348985460069445
 20
-3.002183278401692
 30
0.0
 10
-0.0506388346354167
 20
-3.004502614339192
 30
0.0
 10
-0.0579359266493056
 20
-3.005899641248914
 30
0.0
 10
-0.0639784071180556
 20
-3.018961164686414
 30
0.0
 10
-0.0639784071180556
 20
-3.025037553575303
 30
0.0
 10
-0.0639784071180556
 20
-3.035657670762803
 30
0.0
 10
-0.0572645399305556
 20
-3.042520734998914
 30
0.0
 10
-0.046875
 20
-3.042520734998914
 30
0.0
 10
-0.0043199327256944
 20
-3.042520734998914
 30
0.0
 10
0.0266655815972222
 20
-2.911986880832248
 30
0.0
 10
0.0269775390625
 20
-2.910644107394748
 30
0.0
 10
0.0351833767361111
 20
-2.874918195936414
 30
0.0
 10
0.0393405490451389
 20
-2.850002288818359
 30
0.0
 10
0.0433553059895833
 20
-2.825940873887803
 30
0.0
 10
0.0433553059895833
 20
-2.825940873887803
 30
0.0
 10
0.0459798177083333
 20
-2.810261620415581
 30
0.0
 10
0.0459798177083333
 20
-2.810261620415581
 30
0.0
  0
SPLINE
  5
A2
330
9D
100
AcDbEntity
  8
Mr&Mrs with Date
100
AcDbSpline
210
0.0
220
0.0
230
1.0
 70
     9
 71
     3
 72
    47
 73
    43
 74
     0
 42
0.0000000001
 43
0.0000000001
 40
0.0
 40
0.0
 40
0.0
 40
0.0
 40
1.0
 40
1.0
 40
1.0
 40
2.0
 40
2.0
 40
2.0
 40
3.0
 40
3.0
 40
3.0
 40
4.0
 40
4.0
 40
4.0
 40
5.0
 40
5.0
 40
5.0
 40
6.0
 40
6.0
 40
6.0
 40
7.0
 40
7.0
 40
7.0
 40
8.0
 40
8.0
 40
8.0
 40
9.0
 40
9.0
 40
9.0
 40
10.0
 40
10.0
 40
10.0
 40
11.0
 40
11.0
 40
11.0
 40
12.0
 40
12.0
 40
12.0
 40
13.0
 40
13.0
 40
13.0
 40
14.0
 40
14.0
 40
14.0
 40
14.0
 10
0.2491048177083333
 20
-2.963893890380859
 30
0.0
 10
0.2491048177083333
 20
-2.939208560519748
 30
0.0
 10
0.2603691948784722
 20
-2.913071950276692
 30
0.0
 10
0.2700602213541666
 20
-2.895005544026692
 30
0.0
 10
0.2708197699652778
 20
-2.893269432915581
 30
0.0
 10
0.2714029947916666
 20
-2.89153332180447
 30
0.0
 10
0.2719455295138889
 20
-2.889770083957248
 30
0.0
 10
0.2721421983506944
 20
-2.889566633436414
 30
0.0
 10
0.2723320855034722
 20
-2.889363182915581
 30
0.0
 10
0.27252197265625
 20
-2.889173295762803
 30
0.0
 10
0.2729288736979166
 20
-2.888752831353081
 30
0.0
 10
0.2733493381076389
 20
-2.888250986735025
 30
0.0
 10
0.2737901475694444
 20
-2.887925465901692
 30
0.0
 10
0.2737901475694444
 20
-2.887925465901692
 30
0.0
 10
0.2752617730034722
 20
-2.886569129096137
 30
0.0
 10
0.2752617730034722
 20
-2.886569129096137
 30
0.0
 10
0.2833997938368055
 20
-2.876491546630859
 30
0.0
 10
0.2864718967013889
 20
-2.875989702012803
 30
0.0
 10
0.2867770724826389
 20
-2.875962575276692
 30
0.0
 10
0.2878078884548611
 20
-2.875962575276692
 30
0.0
 10
0.29095458984375
 20
-2.875962575276692
 30
0.0
 10
0.29534912109375
 20
-2.887735578748914
 30
0.0
 10
0.29534912109375
 20
-2.887735578748914
 30
0.0
 10
0.2958645290798611
 20
-2.889661577012803
 30
0.0
 10
0.2958645290798611
 20
-2.889661577012803
 30
0.0
 10
0.2957967122395833
 20
-2.889525943332248
 30
0.0
 10
0.2956949869791666
 20
-2.889512379964192
 30
0.0
 10
0.2956136067708333
 20
-2.889593760172525
 30
0.0
 10
0.2954847547743055
 20
-2.890054914686414
 30
0.0
 10
0.2953626844618055
 20
-2.890529632568359
 30
0.0
 10
0.2952473958333333
 20
-2.891004350450303
 30
0.0
 10
0.2952473958333333
 20
-2.891004350450303
 30
0.0
 10
0.2792426215277777
 20
-2.924627939860025
 30
0.0
 10
0.2792426215277777
 20
-2.924627939860025
 30
0.0
 10
0.2748074001736111
 20
-2.934230804443359
 30
0.0
 10
0.2666897243923611
 20
-2.948146820068359
 30
0.0
 10
0.2609998914930555
 20
-2.956881629096137
 30
0.0
 10
0.2553914388020833
 20
-2.965290917290581
 30
0.0
 10
0.251708984375
 20
-2.969807518853081
 30
0.0
 10
0.2495456271701389
 20
-2.97222179836697
 30
0.0
 10
0.2493014865451389
 20
-2.970309363471137
 30
0.0
 10
0.2491048177083333
 20
-2.967610253228081
 30
0.0
 10
0.2491048177083333
 20
-2.963893890380859
 30
0.0
  0
SPLINE
  5
A3
330
9D
100
AcDbEntity
  8
Mr&Mrs with Date
100
AcDbSpline
210
0.0
220
0.0
230
1.0
 70
     9
 71
     3
 72
    47
 73
    43
 74
     0
 42
0.0000000001
 43
0.0000000001
 40
0.0
 40
0.0
 40
0.0
 40
0.0
 40
1.0
 40
1.0
 40
1.0
 40
2.0
 40
2.0
 40
2.0
 40
3.0
 40
3.0
 40
3.0
 40
4.0
 40
4.0
 40
4.0
 40
5.0
 40
5.0
 40
5.0
 40
6.0
 40
6.0
 40
6.0
 40
7.0
 40
7.0
 40
7.0
 40
8.0
 40
8.0
 40
8.0
 40
9.0
 40
9.0
 40
9.0
 40
10.0
 40
10.0
 40
10.0
 40
11.0
 40
11.0
 40
11.0
 40
12.0
 40
12.0
 40
12.0
 40
13.0
 40
13.0
 40
13.0
 40
14.0
 40
14.0
 40
14.0
 40
14.0
 10
0.5396796332465278
 20
-2.963893890380859
 30
0.0
 10
0.5396796332465278
 20
-2.939208560519748
 30
0.0
 10
0.5509440104166666
 20
-2.913071950276692
 30
0.0
 10
0.5606350368923611
 20
-2.895005544026692
 30
0.0
 10
0.5613945855034723
 20
-2.893269432915581
 30
0.0
 10
0.5619778103298611
 20
-2.89153332180447
 30
0.0
 10
0.5625203450520833
 20
-2.889770083957248
 30
0.0
 10
0.5627170138888889
 20
-2.889566633436414
 30
0.0
 10
0.5629069010416666
 20
-2.889363182915581
 30
0.0
 10
0.5630967881944445
 20
-2.889173295762803
 30
0.0
 10
0.5635036892361111
 20
-2.888752831353081
 30
0.0
 10
0.5639241536458333
 20
-2.888250986735025
 30
0.0
 10
0.5643649631076389
 20
-2.887925465901692
 30
0.0
 10
0.5643649631076389
 20
-2.887925465901692
 30
0.0
 10
0.5658365885416666
 20
-2.886569129096137
 30
0.0
 10
0.5658365885416666
 20
-2.886569129096137
 30
0.0
 10
0.573974609375
 20
-2.876491546630859
 30
0.0
 10
0.5770467122395833
 20
-2.875989702012803
 30
0.0
 10
0.5773518880208333
 20
-2.875962575276692
 30
0.0
 10
0.5783827039930555
 20
-2.875962575276692
 30
0.0
 10
0.5815294053819445
 20
-2.875962575276692
 30
0.0
 10
0.5859239366319445
 20
-2.887735578748914
 30
0.0
 10
0.5859239366319445
 20
-2.887735578748914
 30
0.0
 10
0.5864393446180555
 20
-2.889661577012803
 30
0.0
 10
0.5864393446180555
 20
-2.889661577012803
 30
0.0
 10
0.58636474609375
 20
-2.889525943332248
 30
0.0
 10
0.5862698025173611
 20
-2.889512379964192
 30
0.0
 10
0.5861884223090278
 20
-2.889593760172525
 30
0.0
 10
0.5860595703125
 20
-2.890054914686414
 30
0.0
 10
0.5859375
 20
-2.890529632568359
 30
0.0
 10
0.5858222113715278
 20
-2.891004350450303
 30
0.0
 10
0.5858222113715278
 20
-2.891004350450303
 30
0.0
 10
0.5698174370659723
 20
-2.924627939860025
 30
0.0
 10
0.5698174370659723
 20
-2.924627939860025
 30
0.0
 10
0.5653822157118055
 20
-2.934230804443359
 30
0.0
 10
0.5572645399305555
 20
-2.948146820068359
 30
0.0
 10
0.55157470703125
 20
-2.956881629096137
 30
0.0
 10
0.5459662543402778
 20
-2.965290917290581
 30
0.0
 10
0.5422837999131945
 20
-2.969807518853081
 30
0.0
 10
0.5401204427083333
 20
-2.97222179836697
 30
0.0
 10
0.5398763020833333
 20
-2.970309363471137
 30
0.0
 10
0.5396796332465278
 20
-2.967610253228081
 30
0.0
 10
0.5396796332465278
 20
-2.963893890380859
 30
0.0
  0
SPLINE
  5
A4
330
9D
100
AcDbEntity
  8
Mr&Mrs with Date
100
AcDbSpline
210
0.0
220
0.0
230
1.0
 70
     9
 71
     3
 72
    32
 73
    28
 74
     0
 42
0.0000000001
 43
0.0000000001
 40
0.0
 40
0.0
 40
0.0
 40
0.0
 40
1.0
 40
1.0
 40
1.0
 40
2.0
 40
2.0
 40
2.0
 40
3.0
 40
3.0
 40
3.0
 40
4.0
 40
4.0
 40
4.0
 40
5.0
 40
5.0
 40
5.0
 40
6.0
 40
6.0
 40
6.0
 40
7.0
 40
7.0
 40
7.0
 40
8.0
 40
8.0
 40
8.0
 40
9.0
 40
9.0
 40
9.0
 40
9.0
 10
0.6880086263020833
 20
-3.042954762776692
 30
0.0
 10
0.6880086263020833
 20
-3.042954762776692
 30
0.0
 10
0.685302734375
 20
-3.05278820461697
 30
0.0
 10
0.685302734375
 20
-3.05278820461697
 30
0.0
 10
0.6834920247395833
 20
-3.057955847846137
 30
0.0
 10
0.6804606119791666
 20
-3.065714094373914
 30
0.0
 10
0.6773342556423611
 20
-3.073241763644748
 30
0.0
 10
0.661865234375
 20
-3.11565441555447
 30
0.0
 10
0.6608140733506945
 20
-3.117743174235025
 30
0.0
 10
0.6580607096354166
 20
-3.123548295762803
 30
0.0
 10
0.6569281684027778
 20
-3.125013139512803
 30
0.0
 10
0.6557888454861111
 20
-3.125989702012803
 30
0.0
 10
0.6534356011284723
 20
-3.127454545762803
 30
0.0
 10
0.6517198350694445
 20
-3.121920691596137
 30
0.0
 10
0.6517198350694445
 20
-3.120130327012803
 30
0.0
 10
0.6517198350694445
 20
-3.113050248887803
 30
0.0
 10
0.6517198350694445
 20
-3.089829762776692
 30
0.0
 10
0.6576334635416666
 20
-3.076090070936414
 30
0.0
 10
0.6641710069444445
 20
-3.063028547498914
 30
0.0
 10
0.6664089626736111
 20
-3.058701833089192
 30
0.0
 10
0.6728990342881945
 20
-3.047498491075303
 30
0.0
 10
0.6815253363715278
 20
-3.035901811387803
 30
0.0
 10
0.6853434244791666
 20
-3.030490027533637
 30
0.0
 10
0.689208984375
 20
-3.025783538818359
 30
0.0
 10
0.6939765082465278
 20
-3.021795908610025
 30
0.0
 10
0.69232177734375
 20
-3.02886242336697
 30
0.0
 10
0.6904161241319445
 20
-3.035359276665581
 30
0.0
 10
0.6880086263020833
 20
-3.042954762776692
 30
0.0
  0
SPLINE
  5
A5
330
9D
100
AcDbEntity
  8
Mr&Mrs with Date
100
AcDbSpline
210
0.0
220
0.0
230
1.0
 70
     9
 71
     3
 72
    23
 73
    19
 74
     0
 42
0.0000000001
 43
0.0000000001
 40
0.0
 40
0.0
 40
0.0
 40
0.0
 40
1.0
 40
1.0
 40
1.0
 40
2.0
 40
2.0
 40
2.0
 40
3.0
 40
3.0
 40
3.0
 40
4.0
 40
4.0
 40
4.0
 40
5.0
 40
5.0
 40
5.0
 40
6.0
 40
6.0
 40
6.0
 40
6.0
 10
0.6607259114583333
 20
-2.964978959825303
 30
0.0
 10
0.6601765950520833
 20
-2.962713877360025
 30
0.0
 10
0.6597222222222223
 20
-2.959350162082248
 30
0.0
 10
0.6597222222222223
 20
-2.955457475450303
 30
0.0
 10
0.6597222222222223
 20
-2.920192718505859
 30
0.0
 10
0.686279296875
 20
-2.887328677707248
 30
0.0
 10
0.7109510633680555
 20
-2.871730804443359
 30
0.0
 10
0.7109510633680555
 20
-2.871730804443359
 30
0.0
 10
0.7121446397569445
 20
-2.870767805311414
 30
0.0
 10
0.7121446397569445
 20
-2.870767805311414
 30
0.0
 10
0.7139960394965278
 20
-2.868923187255859
 30
0.0
 10
0.7153388129340278
 20
-2.86772961086697
 30
0.0
 10
0.7162746853298611
 20
-2.866956498887803
 30
0.0
 10
0.7164103190104166
 20
-2.867499033610025
 30
0.0
 10
0.7165595160590278
 20
-2.868163638644748
 30
0.0
 10
0.7167154947916666
 20
-2.868991004096137
 30
0.0
 10
0.7021348741319445
 20
-2.911173078748914
 30
0.0
 10
0.6823933919270833
 20
-2.944972991943359
 30
0.0
 10
0.6607259114583333
 20
-2.964978959825303
 30
0.0
  0
SPLINE
  5
A6
330
9D
100
AcDbEntity
  8
Mr&Mrs with Date
100
AcDbSpline
210
0.0
220
0.0
230
1.0
 70
     9
 71
     3
 72
    41
 73
    37
 74
     0
 42
0.0000000001
 43
0.0000000001
 40
0.0
 40
0.0
 40
0.0
 40
0.0
 40
1.0
 40
1.0
 40
1.0
 40
2.0
 40
2.0
 40
2.0
 40
3.0
 40
3.0
 40
3.0
 40
4.0
 40
4.0
 40
4.0
 40
5.0
 40
5.0
 40
5.0
 40
6.0
 40
6.0
 40
6.0
 40
7.0
 40
7.0
 40
7.0
 40
8.0
 40
8.0
 40
8.0
 40
9.0
 40
9.0
 40
9.0
 40
10.0
 40
10.0
 40
10.0
 40
11.0
 40
11.0
 40
11.0
 40
12.0
 40
12.0
 40
12.0
 40
12.0
 10
0.7930026584201389
 20
-2.974961598714192
 30
0.0
 10
0.7930026584201389
 20
-2.93535656399197
 30
0.0
 10
0.8013373480902776
 20
-2.916598425971137
 30
0.0
 10
0.8133477105034721
 20
-2.893947601318359
 30
0.0
 10
0.8141072591145832
 20
-2.892197926839192
 30
0.0
 10
0.814697265625
 20
-2.890448252360025
 30
0.0
 10
0.8152262369791666
 20
-2.888712141248914
 30
0.0
 10
0.8154229058159721
 20
-2.888508690728081
 30
0.0
 10
0.81561279296875
 20
-2.888305240207248
 30
0.0
 10
0.8158026801215276
 20
-2.88811535305447
 30
0.0
 10
0.8162095811631944
 20
-2.887694888644748
 30
0.0
 10
0.8166300455729166
 20
-2.887193044026692
 30
0.0
 10
0.8170708550347221
 20
-2.886867523193359
 30
0.0
 10
0.8170708550347221
 20
-2.886867523193359
 30
0.0
 10
0.81854248046875
 20
-2.885511186387803
 30
0.0
 10
0.81854248046875
 20
-2.885511186387803
 30
0.0
 10
0.8232286241319444
 20
-2.879706064860025
 30
0.0
 10
0.8297797309027776
 20
-2.876491546630859
 30
0.0
 10
0.83251953125
 20
-2.876491546630859
 30
0.0
 10
0.8358900282118055
 20
-2.876491546630859
 30
0.0
 10
0.8407457139756944
 20
-2.876749250623914
 30
0.0
 10
0.8436279296875
 20
-2.878702375623914
 30
0.0
 10
0.8454522026909721
 20
-2.880140092637803
 30
0.0
 10
0.8469916449652776
 20
-2.882093217637803
 30
0.0
 10
0.8478800455729166
 20
-2.88359875149197
 30
0.0
 10
0.8446587456597221
 20
-2.89275402492947
 30
0.0
 10
0.8355034722222221
 20
-2.91289562649197
 30
0.0
 10
0.8294203016493055
 20
-2.925414615207248
 30
0.0
 10
0.8294203016493055
 20
-2.925414615207248
 30
0.0
 10
0.8095160590277776
 20
-2.962144215901692
 30
0.0
 10
0.8095160590277776
 20
-2.962144215901692
 30
0.0
 10
0.8029106987847221
 20
-2.972004784478081
 30
0.0
 10
0.7971869574652777
 20
-2.979478200276692
 30
0.0
 10
0.7930772569444445
 20
-2.98430675930447
 30
0.0
 10
0.7930026584201389
 20
-2.981160057915581
 30
0.0
 10
0.7930026584201389
 20
-2.977742089165581
 30
0.0
 10
0.7930026584201389
 20
-2.974961598714192
 30
0.0
  0
SPLINE
  5
A7
330
9D
100
AcDbEntity
  8
Mr&Mrs with Date
100
AcDbSpline
210
0.0
220
0.0
230
1.0
 70
     9
 71
     3
 72
   662
 73
   658
 74
     0
 42
0.0000000001
 43
0.0000000001
 40
0.0
 40
0.0
 40
0.0
 40
0.0
 40
1.0
 40
1.0
 40
1.0
 40
2.0
 40
2.0
 40
2.0
 40
3.0
 40
3.0
 40
3.0
 40
4.0
 40
4.0
 40
4.0
 40
5.0
 40
5.0
 40
5.0
 40
6.0
 40
6.0
 40
6.0
 40
7.0
 40
7.0
 40
7.0
 40
8.0
 40
8.0
 40
8.0
 40
9.0
 40
9.0
 40
9.0
 40
10.0
 40
10.0
 40
10.0
 40
11.0
 40
11.0
 40
11.0
 40
12.0
 40
12.0
 40
12.0
 40
13.0
 40
13.0
 40
13.0
 40
14.0
 40
14.0
 40
14.0
 40
15.0
 40
15.0
 40
15.0
 40
16.0
 40
16.0
 40
16.0
 40
17.0
 40
17.0
 40
17.0
 40
18.0
 40
18.0
 40
18.0
 40
19.0
 40
19.0
 40
19.0
 40
20.0
 40
20.0
 40
20.0
 40
21.0
 40
21.0
 40
21.0
 40
22.0
 40
22.0
 40
22.0
 40
23.0
 40
23.0
 40
23.0
 40
24.0
 40
24.0
 40
24.0
 40
25.0
 40
25.0
 40
25.0
 40
26.0
 40
26.0
 40
26.0
 40
27.0
 40
27.0
 40
27.0
 40
28.0
 40
28.0
 40
28.0
 40
29.0
 40
29.0
 40
29.0
 40
30.0
 40
30.0
 40
30.0
 40
31.0
 40
31.0
 40
31.0
 40
32.0
 40
32.0
 40
32.0
 40
33.0
 40
33.0
 40
33.0
 40
34.0
 40
34.0
 40
34.0
 40
35.0
 40
35.0
 40
35.0
 40
36.0
 40
36.0
 40
36.0
 40
37.0
 40
37.0
 40
37.0
 40
38.0
 40
38.0
 40
38.0
 40
39.0
 40
39.0
 40
39.0
 40
40.0
 40
40.0
 40
40.0
 40
41.0
 40
41.0
 40
41.0
 40
42.0
 40
42.0
 40
42.0
 40
43.0
 40
43.0
 40
43.0
 40
44.0
 40
44.0
 40
44.0
 40
45.0
 40
45.0
 40
45.0
 40
46.0
 40
46.0
 40
46.0
 40
47.0
 40
47.0
 40
47.0
 40
48.0
 40
48.0
 40
48.0
 40
49.0
 40
49.0
 40
49.0
 40
50.0
 40
50.0
 40
50.0
 40
51.0
 40
51.0
 40
51.0
 40
52.0
 40
52.0
 40
52.0
 40
53.0
 40
53.0
 40
53.0
 40
54.0
 40
54.0
 40
54.0
 40
55.0
 40
55.0
 40
55.0
 40
56.0
 40
56.0
 40
56.0
 40
57.0
 40
57.0
 40
57.0
 40
58.0
 40
58.0
 40
58.0
 40
59.0
 40
59.0
 40
59.0
 40
60.0
 40
60.0
 40
60.0
 40
61.0
 40
61.0
 40
61.0
 40
62.0
 40
62.0
 40
62.0
 40
63.0
 40
63.0
 40
63.0
 40
64.0
 40
64.0
 40
64.0
 40
65.0
 40
65.0
 40
65.0
 40
66.0
 40
66.0
 40
66.0
 40
67.0
 40
67.0
 40
67.0
 40
68.0
 40
68.0
 40
68.0
 40
69.0
 40
69.0
 40
69.0
 40
70.0
 40
70.0
 40
70.0
 40
71.0
 40
71.0
 40
71.0
 40
72.0
 40
72.0
 40
72.0
 40
73.0
 40
73.0
 40
73.0
 40
74.0
 40
74.0
 40
74.0
 40
75.0
 40
75.0
 40
75.0
 40
76.0
 40
76.0
 40
76.0
 40
77.0
 40
77.0
 40
77.0
 40
78.0
 40
78.0
 40
78.0
 40
79.0
 40
79.0
 40
79.0
 40
80.0
 40
80.0
 40
80.0
 40
81.0
 40
81.0
 40
81.0
 40
82.0
 40
82.0
 40
82.0
 40
83.0
 40
83.0
 40
83.0
 40
84.0
 40
84.0
 40
84.0
 40
85.0
 40
85.0
 40
85.0
 40
86.0
 40
86.0
 40
86.0
 40
87.0
 40
87.0
 40
87.0
 40
88.0
 40
88.0
 40
88.0
 40
89.0
 40
89.0
 40
89.0
 40
90.0
 40
90.0
 40
90.0
 40
91.0
 40
91.0
 40
91.0
 40
92.0
 40
92.0
 40
92.0
 40
93.0
 40
93.0
 40
93.0
 40
94.0
 40
94.0
 40
94.0
 40
95.0
 40
95.0
 40
95.0
 40
96.0
 40
96.0
 40
96.0
 40
97.0
 40
97.0
 40
97.0
 40
98.0
 40
98.0
 40
98.0
 40
99.0
 40
99.0
 40
99.0
 40
100.0
 40
100.0
 40
100.0
 40
101.0
 40
101.0
 40
101.0
 40
102.0
 40
102.0
 40
102.0
 40
103.0
 40
103.0
 40
103.0
 40
104.0
 40
104.0
 40
104.0
 40
105.0
 40
105.0
 40
105.0
 40
106.0
 40
106.0
 40
106.0
 40
107.0
 40
107.0
 40
107.0
 40
108.0
 40
108.0
 40
108.0
 40
109.0
 40
109.0
 40
109.0
 40
110.0
 40
110.0
 40
110.0
 40
111.0
 40
111.0
 40
111.0
 40
112.0
 40
112.0
 40
112.0
 40
113.0
 40
113.0
 40
113.0
 40
114.0
 40
114.0
 40
114.0
 40
115.0
 40
115.0
 40
115.0
 40
116.0
 40
116.0
 40
116.0
 40
117.0
 40
117.0
 40
117.0
 40
118.0
 40
118.0
 40
118.0
 40
119.0
 40
119.0
 40
119.0
 40
120.0
 40
120.0
 40
120.0
 40
121.0
 40
121.0
 40
121.0
 40
122.0
 40
122.0
 40
122.0
 40
123.0
 40
123.0
 40
123.0
 40
124.0
 40
124.0
 40
124.0
 40
125.0
 40
125.0
 40
125.0
 40
126.0
 40
126.0
 40
126.0
 40
127.0
 40
127.0
 40
127.0
 40
128.0
 40
128.0
 40
128.0
 40
129.0
 40
129.0
 40
129.0
 40
130.0
 40
130.0
 40
130.0
 40
131.0
 40
131.0
 40
131.0
 40
132.0
 40
132.0
 40
132.0
 40
133.0
 40
133.0
 40
133.0
 40
134.0
 40
134.0
 40
134.0
 40
135.0
 40
135.0
 40
135.0
 40
136.0
 40
136.0
 40
136.0
 40
137.0
 40
137.0
 40
137.0
 40
138.0
 40
138.0
 40
138.0
 40
139.0
 40
139.0
 40
139.0
 40
140.0
 40
140.0
 40
140.0
 40
141.0
 40
141.0
 40
141.0
 40
142.0
 40
142.0
 40
142.0
 40
143.0
 40
143.0
 40
143.0
 40
144.0
 40
144.0
 40
144.0
 40
145.0
 40
145.0
 40
145.0
 40
146.0
 40
146.0
 40
146.0
 40
147.0
 40
147.0
 40
147.0
 40
148.0
 40
148.0
 40
148.0
 40
149.0
 40
149.0
 40
149.0
 40
150.0
 40
150.0
 40
150.0
 40
151.0
 40
151.0
 40
151.0
 40
152.0
 40
152.0
 40
152.0
 40
153.0
 40
153.0
 40
153.0
 40
154.0
 40
154.0
 40
154.0
 40
155.0
 40
155.0
 40
155.0
 40
156.0
 40
156.0
 40
156.0
 40
157.0
 40
157.0
 40
157.0
 40
158.0
 40
158.0
 40
158.0
 40
159.0
 40
159.0
 40
159.0
 40
160.0
 40
160.0
 40
160.0
 40
161.0
 40
161.0
 40
161.0
 40
162.0
 40
162.0
 40
162.0
 40
163.0
 40
163.0
 40
163.0
 40
164.0
 40
164.0
 40
164.0
 40
165.0
 40
165.0
 40
165.0
 40
166.0
 40
166.0
 40
166.0
 40
167.0
 40
167.0
 40
167.0
 40
168.0
 40
168.0
 40
168.0
 40
169.0
 40
169.0
 40
169.0
 40
170.0
 40
170.0
 40
170.0
 40
171.0
 40
171.0
 40
171.0
 40
172.0
 40
172.0
 40
172.0
 40
173.0
 40
173.0
 40
173.0
 40
174.0
 40
174.0
 40
174.0
 40
175.0
 40
175.0
 40
175.0
 40
176.0
 40
176.0
 40
176.0
 40
177.0
 40
177.0
 40
177.0
 40
178.0
 40
178.0
 40
178.0
 40
179.0
 40
179.0
 40
179.0
 40
180.0
 40
180.0
 40
180.0
 40
181.0
 40
181.0
 40
181.0
 40
182.0
 40
182.0
 40
182.0
 40
183.0
 40
183.0
 40
183.0
 40
184.0
 40
184.0
 40
184.0
 40
185.0
 40
185.0
 40
185.0
 40
186.0
 40
186.0
 40
186.0
 40
187.0
 40
187.0
 40
187.0
 40
188.0
 40
188.0
 40
188.0
 40
189.0
 40
189.0
 40
189.0
 40
190.0
 40
190.0
 40
190.0
 40
191.0
 40
191.0
 40
191.0
 40
192.0
 40
192.0
 40
192.0
 40
193.0
 40
193.0
 40
193.0
 40
194.0
 40
194.0
 40
194.0
 40
195.0
 40
195.0
 40
195.0
 40
196.0
 40
196.0
 40
196.0
 40
197.0
 40
197.0
 40
197.0
 40
198.0
 40
198.0
 40
198.0
 40
199.0
 40
199.0
 40
199.0
 40
200.0
 40
200.0
 40
200.0
 40
201.0
 40
201.0
 40
201.0
 40
202.0
 40
202.0
 40
202.0
 40
203.0
 40
203.0
 40
203.0
 40
204.0
 40
204.0
 40
204.0
 40
205.0
 40
205.0
 40
205.0
 40
206.0
 40
206.0
 40
206.0
 40
207.0
 40
207.0
 40
207.0
 40
208.0
 40
208.0
 40
208.0
 40
209.0
 40
209.0
 40
209.0
 40
210.0
 40
210.0
 40
210.0
 40
211.0
 40
211.0
 40
211.0
 40
212.0
 40
212.0
 40
212.0
 40
213.0
 40
213.0
 40
213.0
 40
214.0
 40
214.0
 40
214.0
 40
215.0
 40
215.0
 40
215.0
 40
216.0
 40
216.0
 40
216.0
 40
217.0
 40
217.0
 40
217.0
 40
218.0
 40
218.0
 40
218.0
 40
219.0
 40
219.0
 40
219.0
 40
219.0
 10
0.8765597873263889
 20
-2.909816741943359
 30
0.0
 10
0.8796522352430555
 20
-2.899128807915581
 30
0.0
 10
0.8825887044270832
 20
-2.889010535346137
 30
0.0
 10
0.8828328450520832
 20
-2.881604936387803
 30
0.0
 10
0.8834703233506944
 20
-2.879095713297525
 30
0.0
 10
0.8834703233506944
 20
-2.877061208089192
 30
0.0
 10
0.8834703233506944
 20
-2.869547102186414
 30
0.0
 10
0.8834703233506944
 20
-2.858981238471137
 30
0.0
 10
0.8768649631076389
 20
-2.855224185519748
 30
0.0
 10
0.8706800672743055
 20
-2.855224185519748
 30
0.0
 10
0.8706800672743055
 20
-2.855224185519748
 30
0.0
 10
0.8649427625868055
 20
-2.855224185519748
 30
0.0
 10
0.8649427625868055
 20
-2.855224185519748
 30
0.0
 10
0.8649427625868055
 20
-2.855224185519748
 30
0.0
 10
0.86322021484375
 20
-2.856336381700303
 30
0.0
 10
0.86322021484375
 20
-2.856336381700303
 30
0.0
 10
0.8620469835069444
 20
-2.857082366943359
 30
0.0
 10
0.8609754774305555
 20
-2.857923295762803
 30
0.0
 10
0.8599989149305555
 20
-2.85881847805447
 30
0.0
 10
0.8490329318576389
 20
-2.847506629096137
 30
0.0
 10
0.8387383355034721
 20
-2.845743391248914
 30
0.0
 10
0.8291354709201389
 20
-2.845743391248914
 30
0.0
 10
0.823269314236111
 20
-2.845743391248914
 30
0.0
 10
0.8095228407118055
 20
-2.845743391248914
 30
0.0
 10
0.800198025173611
 20
-2.855183495415581
 30
0.0
 10
0.800198025173611
 20
-2.855183495415581
 30
0.0
 10
0.7991400824652777
 20
-2.856553395589192
 30
0.0
 10
0.7991400824652777
 20
-2.856553395589192
 30
0.0
 10
0.7987738715277777
 20
-2.857177310519748
 30
0.0
 10
0.7981024848090277
 20
-2.857896169026692
 30
0.0
 10
0.7973293728298611
 20
-2.858709971110025
 30
0.0
 10
0.7964206271701389
 20
-2.859659406873914
 30
0.0
 10
0.7953423394097223
 20
-2.860798729790581
 30
0.0
 10
0.7943522135416666
 20
-2.86223644680447
 30
0.0
 10
0.7894015842013889
 20
-2.86638683742947
 30
0.0
 10
0.7875027126736111
 20
-2.869642045762803
 30
0.0
 10
0.7863566080729166
 20
-2.871622297498914
 30
0.0
 10
0.7775946723090278
 20
-2.885348425971137
 30
0.0
 10
0.7714097764756945
 20
-2.900010426839192
 30
0.0
 10
0.7674424913194445
 20
-2.91643566555447
 30
0.0
 10
0.7674424913194445
 20
-2.91643566555447
 30
0.0
 10
0.7603217230902778
 20
-2.93035168117947
 30
0.0
 10
0.7603217230902778
 20
-2.93035168117947
 30
0.0
 10
0.7577582465277778
 20
-2.934759775797525
 30
0.0
 10
0.7552218967013889
 20
-2.939181433783637
 30
0.0
 10
0.7535603841145833
 20
-2.941419389512803
 30
0.0
 10
0.7535603841145833
 20
-2.941419389512803
 30
0.0
 10
0.7478908962673611
 20
-2.951130761040581
 30
0.0
 10
0.7478908962673611
 20
-2.951130761040581
 30
0.0
 10
0.7452256944444445
 20
-2.955226898193359
 30
0.0
 10
0.7418484157986111
 20
-2.959743499755859
 30
0.0
 10
0.7381795247395833
 20
-2.96379894680447
 30
0.0
 10
0.7398003472222223
 20
-2.953748491075303
 30
0.0
 10
0.7409125434027778
 20
-2.945420583089192
 30
0.0
 10
0.7420654296875
 20
-2.936794281005859
 30
0.0
 10
0.74273681640625
 20
-2.931735144721137
 30
0.0
 10
0.7434353298611111
 20
-2.926472557915581
 30
0.0
 10
0.7442830403645833
 20
-2.920531802707248
 30
0.0
 10
0.7458157009548611
 20
-2.909002939860025
 30
0.0
 10
0.7476467556423611
 20
-2.896945105658637
 30
0.0
 10
0.7498101128472223
 20
-2.883734385172525
 30
0.0
 10
0.75048828125
 20
-2.879122840033637
 30
0.0
 10
0.7511121961805555
 20
-2.87407726711697
 30
0.0
 10
0.7511121961805555
 20
-2.868502722846137
 30
0.0
 10
0.7511121961805555
 20
-2.85747570461697
 30
0.0
 10
0.7488267686631945
 20
-2.850246429443359
 30
0.0
 10
0.7428453233506945
 20
-2.843736012776692
 30
0.0
 10
0.7377726236979166
 20
-2.839355044894748
 30
0.0
 10
0.7340426974826389
 20
-2.838446299235025
 30
0.0
 10
0.7308281792534723
 20
-2.839219411214192
 30
0.0
 10
0.7275187174479166
 20
-2.83464855617947
 30
0.0
 10
0.72332763671875
 20
-2.831515418158637
 30
0.0
 10
0.7161661783854166
 20
-2.831515418158637
 30
0.0
 10
0.71514892578125
 20
-2.831515418158637
 30
0.0
 10
0.7146809895833333
 20
-2.831515418158637
 30
0.0
 10
0.71331787109375
 20
-2.831135643853081
 30
0.0
 10
0.7106730143229166
 20
-2.830579545762803
 30
0.0
 10
0.7076755099826389
 20
-2.829928504096137
 30
0.0
 10
0.7044745551215278
 20
-2.829928504096137
 30
0.0
 10
0.7024943033854166
 20
-2.829928504096137
 30
0.0
 10
0.6988186306423611
 20
-2.829928504096137
 30
0.0
 10
0.6963840060763889
 20
-2.832112206353081
 30
0.0
 10
0.6767239040798611
 20
-2.844888899061414
 30
0.0
 10
0.6610243055555555
 20
-2.862819671630859
 30
0.0
 10
0.6484035915798611
 20
-2.88689464992947
 30
0.0
 10
0.6457316080729166
 20
-2.889553070068359
 30
0.0
 10
0.6439683702256945
 20
-2.89287609524197
 30
0.0
 10
0.6426120334201389
 20
-2.897596147325303
 30
0.0
 10
0.639404296875
 20
-2.905829111735025
 30
0.0
 10
0.6367594401041666
 20
-2.916245778401692
 30
0.0
 10
0.6349283854166666
 20
-2.927774641248914
 30
0.0
 10
0.6343926323784723
 20
-2.928724077012803
 30
0.0
 10
0.6338433159722223
 20
-2.929687076144748
 30
0.0
 10
0.6331651475694445
 20
-2.931029849582248
 30
0.0
 10
0.6265055338541666
 20
-2.946003807915581
 30
0.0
 10
0.6132676866319445
 20
-2.968057844373914
 30
0.0
 10
0.609130859375
 20
-2.971421559651692
 30
0.0
 10
0.6089138454861111
 20
-2.968736012776692
 30
0.0
 10
0.6089138454861111
 20
-2.964463551839192
 30
0.0
 10
0.6089138454861111
 20
-2.962320539686414
 30
0.0
 10
0.6089138454861111
 20
-2.95073742336697
 30
0.0
 10
0.6158921983506945
 20
-2.922335730658637
 30
0.0
 10
0.618896484375
 20
-2.910115136040581
 30
0.0
 10
0.6240098741319445
 20
-2.887979719373914
 30
0.0
 10
0.6249932183159723
 20
-2.883612314860025
 30
0.0
 10
0.6251763237847223
 20
-2.881727006700303
 30
0.0
 10
0.6260511610243055
 20
-2.878512488471137
 30
0.0
 10
0.6270684136284723
 20
-2.87322277492947
 30
0.0
 10
0.6270684136284723
 20
-2.863755544026692
 30
0.0
 10
0.6270684136284723
 20
-2.853189680311414
 30
0.0
 10
0.6204630533854166
 20
-2.849432627360025
 30
0.0
 10
0.6142781575520833
 20
-2.849432627360025
 30
0.0
 10
0.6142781575520833
 20
-2.849432627360025
 30
0.0
 10
0.61181640625
 20
-2.849432627360025
 30
0.0
 10
0.61181640625
 20
-2.849432627360025
 30
0.0
 10
0.6071506076388889
 20
-2.849432627360025
 30
0.0
 10
0.60198974609375
 20
-2.852565765380859
 30
0.0
 10
0.60052490234375
 20
-2.859537336561414
 30
0.0
 10
0.60052490234375
 20
-2.859537336561414
 30
0.0
 10
0.6003282335069445
 20
-2.859971364339192
 30
0.0
 10
0.6003282335069445
 20
-2.859971364339192
 30
0.0
 10
0.5930514865451389
 20
-2.847276051839192
 30
0.0
 10
0.5850490993923611
 20
-2.842054155137803
 30
0.0
 10
0.5739678276909723
 20
-2.842054155137803
 30
0.0
 10
0.5647922092013889
 20
-2.842054155137803
 30
0.0
 10
0.5556369357638889
 20
-2.846407996283637
 30
0.0
 10
0.5468410915798611
 20
-2.855414072672525
 30
0.0
 10
0.5468410915798611
 20
-2.855414072672525
 30
0.0
 10
0.5398084852430556
 20
-2.864989810519748
 30
0.0
 10
0.5398084852430556
 20
-2.864989810519748
 30
0.0
 10
0.53802490234375
 20
-2.867024315728081
 30
0.0
 10
0.5354342990451389
 20
-2.870130327012803
 30
0.0
 10
0.53369140625
 20
-2.873127831353081
 30
0.0
 10
0.5239122178819445
 20
-2.888088226318359
 30
0.0
 10
0.5158759223090278
 20
-2.906575096978081
 30
0.0
 10
0.5110270182291666
 20
-2.925278981526692
 30
0.0
 10
0.5110270182291666
 20
-2.925278981526692
 30
0.0
 10
0.5030924479166666
 20
-2.943915049235025
 30
0.0
 10
0.5030924479166666
 20
-2.943915049235025
 30
0.0
 10
0.49322509765625
 20
-2.963527679443359
 30
0.0
 10
0.4815266927083333
 20
-2.980576833089192
 30
0.0
 10
0.4758775499131945
 20
-2.983587900797525
 30
0.0
 10
0.4758775499131945
 20
-2.983587900797525
 30
0.0
 10
0.4751180013020833
 20
-2.983994801839192
 30
0.0
 10
0.4751180013020833
 20
-2.983994801839192
 30
0.0
 10
0.4749077690972223
 20
-2.982692718505859
 30
0.0
 10
0.4747043185763889
 20
-2.980441199408637
 30
0.0
 10
0.4747043185763889
 20
-2.976548512776692
 30
0.0
 10
0.4747043185763889
 20
-2.974039289686414
 30
0.0
 10
0.4760945638020833
 20
-2.965819888644748
 30
0.0
 10
0.4800754123263889
 20
-2.95061535305447
 30
0.0
 10
0.4805094401041666
 20
-2.94866222805447
 30
0.0
 10
0.4810858832465278
 20
-2.94670910305447
 30
0.0
 10
0.4816216362847223
 20
-2.944864484998914
 30
0.0
 10
0.4822591145833333
 20
-2.94268078274197
 30
0.0
 10
0.4828423394097223
 20
-2.940619150797525
 30
0.0
 10
0.48309326171875
 20
-2.939289940728081
 30
0.0
 10
0.4840426974826389
 20
-2.935641394721137
 30
0.0
 10
0.4844970703125
 20
-2.93230480617947
 30
0.0
 10
0.4852769639756945
 20
-2.92632336086697
 30
0.0
 10
0.4852769639756945
 20
-2.92632336086697
 30
0.0
 10
0.4861178927951389
 20
-2.919446733262803
 30
0.0
 10
0.4861178927951389
 20
-2.919446733262803
 30
0.0
 10
0.4861178927951389
 20
-2.919446733262803
 30
0.0
 10
0.4875962999131945
 20
-2.913926442464192
 30
0.0
 10
0.4875962999131945
 20
-2.913926442464192
 30
0.0
 10
0.4879150390625
 20
-2.910345713297525
 30
0.0
 10
0.4880032009548611
 20
-2.90691418117947
 30
0.0
 10
0.4880845811631945
 20
-2.903550465901692
 30
0.0
 10
0.4881591796875
 20
-2.900471581353081
 30
0.0
 10
0.48822021484375
 20
-2.897474077012803
 30
0.0
 10
0.4884982638888889
 20
-2.894612206353081
 30
0.0
 10
0.4888373480902778
 20
-2.891723208957248
 30
0.0
 10
0.4888576931423611
 20
-2.888250986735025
 30
0.0
 10
0.4888576931423611
 20
-2.885361989339192
 30
0.0
 10
0.4888576931423611
 20
-2.873494042290581
 30
0.0
 10
0.4864162868923611
 20
-2.864243825276692
 30
0.0
 10
0.4738837348090278
 20
-2.857380761040581
 30
0.0
 10
0.4707505967881945
 20
-2.856024424235025
 30
0.0
 10
0.4689263237847223
 20
-2.855753156873914
 30
0.0
 10
0.4671427408854166
 20
-2.855753156873914
 30
0.0
 10
0.4610053168402778
 20
-2.855753156873914
 30
0.0
 10
0.4509006076388889
 20
-2.859320322672525
 30
0.0
 10
0.4271375868055556
 20
-2.887111663818359
 30
0.0
 10
0.4220241970486111
 20
-2.892957475450303
 30
0.0
 10
0.4158799913194445
 20
-2.904011620415581
 30
0.0
 10
0.4093492296006945
 20
-2.915771060519748
 30
0.0
 10
0.4093492296006945
 20
-2.915771060519748
 30
0.0
 10
0.4087999131944445
 20
-2.916774749755859
 30
0.0
 10
0.4087999131944445
 20
-2.916774749755859
 30
0.0
 10
0.4087999131944445
 20
-2.916774749755859
 30
0.0
 10
0.4103529188368056
 20
-2.903428395589192
 30
0.0
 10
0.4103529188368056
 20
-2.903428395589192
 30
0.0
 10
0.4105428059895833
 20
-2.901502397325303
 30
0.0
 10
0.4108751085069445
 20
-2.898721906873914
 30
0.0
 10
0.4112481011284723
 20
-2.895629458957248
 30
0.0
 10
0.4121432834201389
 20
-2.888196733262803
 30
0.0
 10
0.4131537543402778
 20
-2.879760318332248
 30
0.0
 10
0.4131537543402778
 20
-2.875352223714192
 30
0.0
 10
0.4131537543402778
 20
-2.861734602186414
 30
0.0
 10
0.4021742078993056
 20
-2.844156477186414
 30
0.0
 10
0.3905164930555555
 20
-2.844156477186414
 30
0.0
 10
0.3894992404513888
 20
-2.844156477186414
 30
0.0
 10
0.38641357421875
 20
-2.844156477186414
 30
0.0
 10
0.3830973307291666
 20
-2.847004784478081
 30
0.0
 10
0.3769463433159722
 20
-2.852552202012803
 30
0.0
 10
0.3725314670138889
 20
-2.859659406873914
 30
0.0
 10
0.3682115342881944
 20
-2.871106889512803
 30
0.0
 10
0.3682115342881944
 20
-2.871106889512803
 30
0.0
 10
0.3595377604166666
 20
-2.896280500623914
 30
0.0
 10
0.3595377604166666
 20
-2.896280500623914
 30
0.0
 10
0.3573133680555555
 20
-2.901366763644748
 30
0.0
 10
0.3544854058159722
 20
-2.907144758436414
 30
0.0
 10
0.3518744574652777
 20
-2.912475162082248
 30
0.0
 10
0.3518744574652777
 20
-2.912475162082248
 30
0.0
 10
0.3454454210069444
 20
-2.925807952880859
 30
0.0
 10
0.3454454210069444
 20
-2.925807952880859
 30
0.0
 10
0.3445502387152777
 20
-2.927381303575303
 30
0.0
 10
0.3436482747395833
 20
-2.928968217637803
 30
0.0
 10
0.34259033203125
 20
-2.931029849582248
 30
0.0
 10
0.3359239366319444
 20
-2.946017371283637
 30
0.0
 10
0.3226793077256944
 20
-2.96807140774197
 30
0.0
 10
0.3185560438368055
 20
-2.971435123019748
 30
0.0
 10
0.3183390299479166
 20
-2.968736012776692
 30
0.0
 10
0.3183390299479166
 20
-2.964463551839192
 30
0.0
 10
0.3183390299479166
 20
-2.962320539686414
 30
0.0
 10
0.3183390299479166
 20
-2.95073742336697
 30
0.0
 10
0.3253173828125
 20
-2.922335730658637
 30
0.0
 10
0.3283216688368055
 20
-2.910115136040581
 30
0.0
 10
0.33343505859375
 20
-2.887979719373914
 30
0.0
 10
0.3344184027777777
 20
-2.88359875149197
 30
0.0
 10
0.3346015082465277
 20
-2.881727006700303
 30
0.0
 10
0.3354763454861111
 20
-2.878512488471137
 30
0.0
 10
0.3364935980902777
 20
-2.87322277492947
 30
0.0
 10
0.3364935980902777
 20
-2.863755544026692
 30
0.0
 10
0.3364935980902777
 20
-2.853189680311414
 30
0.0
 10
0.3298882378472222
 20
-2.849432627360025
 30
0.0
 10
0.3237033420138889
 20
-2.849432627360025
 30
0.0
 10
0.3237033420138889
 20
-2.849432627360025
 30
0.0
 10
0.3212415907118055
 20
-2.849432627360025
 30
0.0
 10
0.3212415907118055
 20
-2.849432627360025
 30
0.0
 10
0.3165757921006944
 20
-2.849432627360025
 30
0.0
 10
0.3114149305555555
 20
-2.852565765380859
 30
0.0
 10
0.3099500868055555
 20
-2.859537336561414
 30
0.0
 10
0.3099500868055555
 20
-2.859537336561414
 30
0.0
 10
0.30975341796875
 20
-2.859971364339192
 30
0.0
 10
0.30975341796875
 20
-2.859971364339192
 30
0.0
 10
0.3024766710069444
 20
-2.847276051839192
 30
0.0
 10
0.2944742838541666
 20
-2.842054155137803
 30
0.0
 10
0.2833930121527777
 20
-2.842054155137803
 30
0.0
 10
0.2742173936631944
 20
-2.842054155137803
 30
0.0
 10
0.2650621202256944
 20
-2.846407996283637
 30
0.0
 10
0.2562662760416666
 20
-2.855414072672525
 30
0.0
 10
0.2562662760416666
 20
-2.855414072672525
 30
0.0
 10
0.2492336697048611
 20
-2.864989810519748
 30
0.0
 10
0.2492336697048611
 20
-2.864989810519748
 30
0.0
 10
0.2474500868055555
 20
-2.867024315728081
 30
0.0
 10
0.2448594835069444
 20
-2.870130327012803
 30
0.0
 10
0.2431165907118055
 20
-2.873127831353081
 30
0.0
 10
0.2332695855034722
 20
-2.888196733262803
 30
0.0
 10
0.2251858181423611
 20
-2.906873491075303
 30
0.0
 10
0.220703125
 20
-2.924668629964192
 30
0.0
 10
0.2200181749131944
 20
-2.926174163818359
 30
0.0
 10
0.2189805772569444
 20
-2.928479936387803
 30
0.0
 10
0.2181532118055555
 20
-2.929836273193359
 30
0.0
 10
0.2129380967881944
 20
-2.928195105658637
 30
0.0
 10
0.2078993055555555
 20
-2.918375227186414
 30
0.0
 10
0.2060885959201389
 20
-2.90911144680447
 30
0.0
 10
0.2068617078993055
 20
-2.904811859130859
 30
0.0
 10
0.2072075737847222
 20
-2.901014116075303
 30
0.0
 10
0.2072075737847222
 20
-2.896958669026692
 30
0.0
 10
0.2072075737847222
 20
-2.887857649061414
 30
0.0
 10
0.2062649197048611
 20
-2.873399098714192
 30
0.0
 10
0.2035929361979166
 20
-2.862534840901692
 30
0.0
 10
0.2022908528645833
 20
-2.857516394721137
 30
0.0
 10
0.1988254123263889
 20
-2.844156477186414
 30
0.0
 10
0.1888766818576389
 20
-2.844156477186414
 30
0.0
 10
0.1762424045138889
 20
-2.844156477186414
 30
0.0
 10
0.1699286566840278
 20
-2.866834428575303
 30
0.0
 10
0.1699286566840278
 20
-2.872191958957248
 30
0.0
 10
0.1699286566840278
 20
-2.877834320068359
 30
0.0
 10
0.1711493598090278
 20
-2.88225597805447
 30
0.0
 10
0.1722344292534722
 20
-2.88616222805447
 30
0.0
 10
0.1722344292534722
 20
-2.88616222805447
 30
0.0
 10
0.1729804144965278
 20
-2.888902028401692
 30
0.0
 10
0.1729804144965278
 20
-2.888902028401692
 30
0.0
 10
0.17388916015625
 20
-2.892008039686414
 30
0.0
 10
0.1775173611111111
 20
-2.904947492811414
 30
0.0
 10
0.178466796875
 20
-2.909287770589192
 30
0.0
 10
0.178466796875
 20
-2.909287770589192
 30
0.0
 10
0.1782497829861111
 20
-2.911268022325303
 30
0.0
 10
0.1782497829861111
 20
-2.911268022325303
 30
0.0
 10
0.1776597764756944
 20
-2.920369042290581
 30
0.0
 10
0.1774359809027778
 20
-2.923773447672525
 30
0.0
 10
0.1731974283854166
 20
-2.934420691596137
 30
0.0
 10
0.16259765625
 20
-2.960760752360025
 30
0.0
 10
0.15057373046875
 20
-2.984659406873914
 30
0.0
 10
0.1446736653645833
 20
-2.991495344373914
 30
0.0
 10
0.1431952582465278
 20
-2.988280826144748
 30
0.0
 10
0.1407335069444444
 20
-2.979261186387803
 30
0.0
 10
0.1407335069444444
 20
-2.954928504096137
 30
0.0
 10
0.1407335069444444
 20
-2.946193695068359
 30
0.0
 10
0.1410929361979166
 20
-2.937662336561414
 30
0.0
 10
0.141357421875
 20
-2.931192609998914
 30
0.0
 10
0.1415269639756944
 20
-2.927082909478081
 30
0.0
 10
0.14166259765625
 20
-2.923787011040581
 30
0.0
 10
0.14166259765625
 20
-2.921725379096137
 30
0.0
 10
0.14166259765625
 20
-2.921725379096137
 30
0.0
 10
0.14166259765625
 20
-2.906968434651692
 30
0.0
 10
0.14166259765625
 20
-2.906968434651692
 30
0.0
 10
0.14166259765625
 20
-2.902695973714192
 30
0.0
 10
0.1437106662326389
 20
-2.898396386040581
 30
0.0
 10
0.1458875868055556
 20
-2.894191741943359
 30
0.0
 10
0.14910888671875
 20
-2.887572818332248
 30
0.0
 10
0.1524319118923611
 20
-2.880709754096137
 30
0.0
 10
0.1524319118923611
 20
-2.869018130832248
 30
0.0
 10
0.1524319118923611
 20
-2.851467132568359
 30
0.0
 10
0.1432834201388889
 20
-2.845214419894748
 30
0.0
 10
0.1347181532118056
 20
-2.845214419894748
 30
0.0
 10
0.1237657335069444
 20
-2.845214419894748
 30
0.0
 10
0.1187947591145833
 20
-2.858384450276692
 30
0.0
 10
0.1147528754340278
 20
-2.877875010172525
 30
0.0
 10
0.1136881510416666
 20
-2.882120344373914
 30
0.0
 10
0.1111924913194444
 20
-2.897786034478081
 30
0.0
 10
0.1107991536458333
 20
-2.901393890380859
 30
0.0
 10
0.1056586371527778
 20
-2.917439354790581
 30
0.0
 10
0.094970703125
 20
-2.950818803575303
 30
0.0
 10
0.0764227973090278
 20
-2.985730912950303
 30
0.0
 10
0.0745103624131944
 20
-2.989745669894748
 30
0.0
 10
0.0714314778645833
 20
-2.996228959825303
 30
0.0
 10
0.0699055989583333
 20
-2.998141394721137
 30
0.0
 10
0.0690646701388889
 20
-2.997476789686414
 30
0.0
 10
0.0682101779513889
 20
-2.996554480658637
 30
0.0
 10
0.068115234375
 20
-2.996052636040581
 30
0.0
 10
0.068115234375
 20
-2.97710461086697
 30
0.0
 10
0.0738593207465278
 20
-2.944701724582248
 30
0.0
 10
0.0792236328125
 20
-2.926309797498914
 30
0.0
 10
0.0792236328125
 20
-2.926309797498914
 30
0.0
 10
0.0826076931423611
 20
-2.914713117811414
 30
0.0
 10
0.0826076931423611
 20
-2.914713117811414
 30
0.0
 10
0.08685302734375
 20
-2.900186750623914
 30
0.0
 10
0.0933498806423611
 20
-2.86589855617947
 30
0.0
 10
0.0933498806423611
 20
-2.851100921630859
 30
0.0
 10
0.0933498806423611
 20
-2.843356238471137
 30
0.0
 10
0.0875040690104167
 20
-2.832722557915581
 30
0.0
 10
0.0791151258680556
 20
-2.829819997151692
 30
0.0
 10
0.07830810546875
 20
-2.829535166422525
 30
0.0
 10
0.0771755642361111
 20
-2.829223208957248
 30
0.0
 10
0.0758056640625
 20
-2.829101138644748
 30
0.0
 10
0.0758056640625
 20
-2.829101138644748
 30
0.0
 10
0.0758056640625
 20
-2.824259016248914
 30
0.0
 10
0.0758056640625
 20
-2.824259016248914
 30
0.0
 10
0.0758056640625
 20
-2.824259016248914
 30
0.0
 10
0.0737101236979167
 20
-2.829046885172525
 30
0.0
 10
0.0737101236979167
 20
-2.829046885172525
 30
0.0
 10
0.0701090494791667
 20
-2.829223208957248
 30
0.0
 10
0.0655381944444445
 20
-2.830823686387803
 30
0.0
 10
0.0612318250868056
 20
-2.836289723714192
 30
0.0
 10
0.0580512152777778
 20
-2.84038586086697
 30
0.0
 10
0.0550740559895833
 20
-2.842691633436414
 30
0.0
 10
0.0521986219618056
 20
-2.844943152533637
 30
0.0
 10
0.0489569769965278
 20
-2.84746593899197
 30
0.0
 10
0.0456068250868056
 20
-2.850083669026692
 30
0.0
 10
0.0437893337673611
 20
-2.85393566555447
 30
0.0
 10
0.0437893337673611
 20
-2.85393566555447
 30
0.0
 10
0.0422702365451389
 20
-2.856594085693359
 30
0.0
 10
0.0422702365451389
 20
-2.856594085693359
 30
0.0
 10
0.0403781467013889
 20
-2.860622406005859
 30
0.0
 10
0.0403781467013889
 20
-2.86345714992947
 30
0.0
 10
0.0403781467013889
 20
-2.864813486735025
 30
0.0
 10
0.0403713650173611
 20
-2.872680240207248
 30
0.0
 10
0.0460001627604167
 20
-2.881021711561414
 30
0.0
 10
0.05499267578125
 20
-2.87871593899197
 30
0.0
 10
0.05499267578125
 20
-2.87871593899197
 30
0.0
 10
0.0535617404513889
 20
-2.886460622151692
 30
0.0
 10
0.0535617404513889
 20
-2.886460622151692
 30
0.0
 10
0.0519070095486111
 20
-2.895615895589192
 30
0.0
 10
0.0500284830729167
 20
-2.905978308783637
 30
0.0
 10
0.0486314561631945
 20
-2.910399966769748
 30
0.0
 10
0.0486314561631945
 20
-2.910399966769748
 30
0.0
 10
0.0430636935763889
 20
-2.930514441596137
 30
0.0
 10
0.0430636935763889
 20
-2.930514441596137
 30
0.0
 10
0.0378621419270833
 20
-2.950384775797525
 30
0.0
 10
0.0372992621527778
 20
-2.975951724582248
 30
0.0
 10
0.0372992621527778
 20
-2.986029307047525
 30
0.0
 10
0.0372992621527778
 20
-2.999334971110025
 30
0.0
 10
0.0480075412326389
 20
-3.03777355617947
 30
0.0
 10
0.0645548502604167
 20
-3.03777355617947
 30
0.0
 10
0.0665011935763889
 20
-3.03777355617947
 30
0.0
 10
0.0724148220486111
 20
-3.03777355617947
 30
0.0
 10
0.0830756293402778
 20
-3.024901919894748
 30
0.0
 10
0.0913289388020833
 20
-3.017401377360025
 30
0.0
 10
0.0999281141493056
 20
-2.997097015380859
 30
0.0
 10
0.1105821397569444
 20
-2.971068912082248
 30
0.0
 10
0.1129896375868056
 20
-2.999429914686414
 30
0.0
 10
0.1196695963541666
 20
-3.030924055311414
 30
0.0
 10
0.1374850802951389
 20
-3.030924055311414
 30
0.0
 10
0.1589830186631944
 20
-3.030924055311414
 30
0.0
 10
0.1842515733506944
 20
-2.972655826144748
 30
0.0
 10
0.1951972113715278
 20
-2.944525400797525
 30
0.0
 10
0.1996799045138889
 20
-2.950995127360025
 30
0.0
 10
0.2061496310763889
 20
-2.957261403401692
 30
0.0
 10
0.2151692708333333
 20
-2.958848317464192
 30
0.0
 10
0.2149997287326389
 20
-2.961574554443359
 30
0.0
 10
0.21490478515625
 20
-2.964300791422525
 30
0.0
 10
0.21490478515625
 20
-2.967054155137803
 30
0.0
 10
0.21490478515625
 20
-2.971869150797525
 30
0.0
 10
0.2151760525173611
 20
-2.982041676839192
 30
0.0
 10
0.2164171006944444
 20
-2.990613725450303
 30
0.0
 10
0.2175089518229166
 20
-2.994370778401692
 30
0.0
 10
0.2199842664930555
 20
-2.999429914686414
 30
0.0
 10
0.22222900390625
 20
-3.002223968505859
 30
0.0
 10
0.2222832573784722
 20
-3.002305348714192
 30
0.0
 10
0.2227376302083333
 20
-3.002997080485025
 30
0.0
 10
0.2238091362847222
 20
-3.005519866943359
 30
0.0
 10
0.2257961697048611
 20
-3.014295366075303
 30
0.0
 10
0.2314995659722222
 20
-3.01616711086697
 30
0.0
 10
0.2360026041666666
 20
-3.01616711086697
 30
0.0
 10
0.2400851779513889
 20
-3.01616711086697
 30
0.0
 10
0.2445543077256944
 20
-3.014105478922525
 30
0.0
 10
0.2501424153645833
 20
-3.011189354790581
 30
0.0
 10
0.2561781141493055
 20
-3.009900834825303
 30
0.0
 10
0.2614949544270833
 20
-3.002902136908637
 30
0.0
 10
0.2704874674479166
 20
-2.988619910346137
 30
0.0
 10
0.2719862196180555
 20
-2.98662609524197
 30
0.0
 10
0.2734171549479166
 20
-2.984333886040581
 30
0.0
 10
0.2748345269097222
 20
-2.982055240207248
 30
0.0
 10
0.2760281032986111
 20
-2.980115678575303
 30
0.0
 10
0.2772148980034722
 20
-2.978189680311414
 30
0.0
 10
0.2787882486979166
 20
-2.976060231526692
 30
0.0
 10
0.2808770073784722
 20
-2.972777896457248
 30
0.0
 10
0.2829386393229166
 20
-2.969454871283637
 30
0.0
 10
0.2850680881076389
 20
-2.965901268853081
 30
0.0
 10
0.2850680881076389
 20
-2.965941958957248
 30
0.0
 10
0.2850680881076389
 20
-2.965969085693359
 30
0.0
 10
0.2850680881076389
 20
-2.966009775797525
 30
0.0
 10
0.2850680881076389
 20
-2.982557084825303
 30
0.0
 10
0.2852240668402777
 20
-2.985690222846137
 30
0.0
 10
0.2910291883680555
 20
-2.999674055311414
 30
0.0
 10
0.2946506076388889
 20
-3.006916893853081
 30
0.0
 10
0.3058132595486111
 20
-3.009846581353081
 30
0.0
 10
0.3098551432291666
 20
-3.009846581353081
 30
0.0
 10
0.3202582465277777
 20
-3.009846581353081
 30
0.0
 10
0.33270263671875
 20
-2.994872623019748
 30
0.0
 10
0.3363918728298611
 20
-2.990125444200303
 30
0.0
 10
0.3445502387152777
 20
-2.978949228922525
 30
0.0
 10
0.3510335286458333
 20
-2.96880382961697
 30
0.0
 10
0.3582017686631944
 20
-2.95598644680447
 30
0.0
 10
0.3591647677951389
 20
-2.954101138644748
 30
0.0
 10
0.3601616753472222
 20
-2.951985253228081
 30
0.0
 10
0.3612331814236111
 20
-2.949706607394748
 30
0.0
 10
0.3612331814236111
 20
-2.949706607394748
 30
0.0
 10
0.3636135525173611
 20
-2.944674597846137
 30
0.0
 10
0.3636135525173611
 20
-2.944674597846137
 30
0.0
 10
0.3681098090277777
 20
-2.93694347805447
 30
0.0
 10
0.3702935112847222
 20
-2.932684580485025
 30
0.0
 10
0.3718126085069444
 20
-2.929565005832248
 30
0.0
 10
0.3733452690972222
 20
-2.926472557915581
 30
0.0
 10
0.3749186197916666
 20
-2.923285166422525
 30
0.0
 10
0.3765394422743055
 20
-2.919907887776692
 30
0.0
 10
0.3764105902777777
 20
-2.921033647325303
 30
0.0
 10
0.3763020833333333
 20
-2.922105153401692
 30
0.0
 10
0.3762342664930555
 20
-2.923041025797525
 30
0.0
 10
0.37384033203125
 20
-2.94353527492947
 30
0.0
 10
0.3670450846354166
 20
-2.964599185519748
 30
0.0
 10
0.3607720269097222
 20
-2.983031802707248
 30
0.0
 10
0.3602634006076389
 20
-2.984754350450303
 30
0.0
 10
0.3589545355902777
 20
-2.990003373887803
 30
0.0
 10
0.3589545355902777
 20
-2.993407779269748
 30
0.0
 10
0.3589545355902777
 20
-3.005953894721137
 30
0.0
 10
0.3664889865451389
 20
-3.01616711086697
 30
0.0
 10
0.3757459852430555
 20
-3.01616711086697
 30
0.0
 10
0.3857218424479166
 20
-3.01616711086697
 30
0.0
 10
0.3889906141493055
 20
-3.005764007568359
 30
0.0
 10
0.3899807400173611
 20
-3.002603742811414
 30
0.0
 10
0.3940361870659722
 20
-2.991319020589192
 30
0.0
 10
0.3978339301215277
 20
-2.982991112603081
 30
0.0
 10
0.4015367296006945
 20
-2.97722668117947
 30
0.0
 10
0.4074164496527778
 20
-2.968356238471137
 30
0.0
 10
0.4101494683159723
 20
-2.963392045762803
 30
0.0
 10
0.4123399522569445
 20
-2.959417978922525
 30
0.0
 10
0.4123399522569445
 20
-2.959417978922525
 30
0.0
 10
0.4145914713541666
 20
-2.95537609524197
 30
0.0
 10
0.4145914713541666
 20
-2.95537609524197
 30
0.0
 10
0.4178331163194445
 20
-2.948811425103081
 30
0.0
 10
0.4295789930555556
 20
-2.930270300971137
 30
0.0
 10
0.4405381944444445
 20
-2.915147145589192
 30
0.0
 10
0.4479505750868056
 20
-2.904445648193359
 30
0.0
 10
0.4524264865451389
 20
-2.901407453748914
 30
0.0
 10
0.454345703125
 20
-2.900552961561414
 30
0.0
 10
0.4543524848090278
 20
-2.900892045762803
 30
0.0
 10
0.4543524848090278
 20
-2.901285383436414
 30
0.0
 10
0.4543524848090278
 20
-2.901705847846137
 30
0.0
 10
0.4543524848090278
 20
-2.905055999755859
 30
0.0
 10
0.4535725911458333
 20
-2.910413530137803
 30
0.0
 10
0.4520806206597223
 20
-2.917466481526692
 30
0.0
 10
0.4520806206597223
 20
-2.917466481526692
 30
0.0
 10
0.44781494140625
 20
-2.935220930311414
 30
0.0
 10
0.44781494140625
 20
-2.935220930311414
 30
0.0
 10
0.4441731770833333
 20
-2.948824988471137
 30
0.0
 10
0.4408094618055556
 20
-2.96343273586697
 30
0.0
 10
0.4408094618055556
 20
-2.978121863471137
 30
0.0
 10
0.4408094618055556
 20
-3.008313920762803
 30
0.0
 10
0.4546983506944445
 20
-3.024603525797525
 30
0.0
 10
0.4677598741319445
 20
-3.024603525797525
 30
0.0
 10
0.4677598741319445
 20
-3.024603525797525
 30
0.0
 10
0.4706353081597223
 20
-3.024603525797525
 30
0.0
 10
0.4706353081597223
 20
-3.024603525797525
 30
0.0
 10
0.4706353081597223
 20
-3.024603525797525
 30
0.0
 10
0.4750434027777778
 20
-3.02019543117947
 30
0.0
 10
0.4750434027777778
 20
-3.02019543117947
 30
0.0
 10
0.4860975477430556
 20
-3.016845279269748
 30
0.0
 10
0.4969889322916666
 20
-3.00664562649197
 30
0.0
 10
0.5069580078125
 20
-2.990369584825303
 30
0.0
 10
0.5069715711805556
 20
-2.990450965033637
 30
0.0
 10
0.5069783528645833
 20
-2.99053234524197
 30
0.0
 10
0.5069919162326389
 20
-2.990613725450303
 30
0.0
 10
0.5080837673611111
 20
-2.994370778401692
 30
0.0
 10
0.51055908203125
 20
-2.999429914686414
 30
0.0
 10
0.5128038194444445
 20
-3.002223968505859
 30
0.0
 10
0.5128580729166666
 20
-3.002305348714192
 30
0.0
 10
0.5133124457465278
 20
-3.002997080485025
 30
0.0
 10
0.5143839518229166
 20
-3.005519866943359
 30
0.0
 10
0.5163709852430556
 20
-3.014295366075303
 30
0.0
 10
0.5220743815104166
 20
-3.01616711086697
 30
0.0
 10
0.5265774197048611
 20
-3.01616711086697
 30
0.0
 10
0.5306599934895833
 20
-3.01616711086697
 30
0.0
 10
0.5351291232638889
 20
-3.014105478922525
 30
0.0
 10
0.5407172309027778
 20
-3.011202918158637
 30
0.0
 10
0.5467597113715278
 20
-3.009900834825303
 30
0.0
 10
0.5520765516493056
 20
-3.002915700276692
 30
0.0
 10
0.5610622829861111
 20
-2.988619910346137
 30
0.0
 10
0.56256103515625
 20
-2.98662609524197
 30
0.0
 10
0.5639919704861111
 20
-2.984333886040581
 30
0.0
 10
0.5654093424479166
 20
-2.982055240207248
 30
0.0
 10
0.5666029188368055
 20
-2.980115678575303
 30
0.0
 10
0.5677897135416666
 20
-2.978189680311414
 30
0.0
 10
0.5693630642361111
 20
-2.976060231526692
 30
0.0
 10
0.5714518229166666
 20
-2.972777896457248
 30
0.0
 10
0.5735134548611111
 20
-2.969454871283637
 30
0.0
 10
0.5756429036458333
 20
-2.965901268853081
 30
0.0
 10
0.5756429036458333
 20
-2.965941958957248
 30
0.0
 10
0.5756429036458333
 20
-2.965969085693359
 30
0.0
 10
0.5756429036458333
 20
-2.966009775797525
 30
0.0
 10
0.5756429036458333
 20
-2.982557084825303
 30
0.0
 10
0.5757988823784723
 20
-2.985690222846137
 30
0.0
 10
0.58160400390625
 20
-2.999674055311414
 30
0.0
 10
0.5852254231770833
 20
-3.006916893853081
 30
0.0
 10
0.5963880750868055
 20
-3.009846581353081
 30
0.0
 10
0.6004299587673611
 20
-3.009846581353081
 30
0.0
 10
0.6108330620659723
 20
-3.009846581353081
 30
0.0
 10
0.6232774522569445
 20
-2.994872623019748
 30
0.0
 10
0.6269666883680555
 20
-2.990125444200303
 30
0.0
 10
0.6296115451388889
 20
-2.98650402492947
 30
0.0
 10
0.6321275499131945
 20
-2.982909732394748
 30
0.0
 10
0.6345621744791666
 20
-2.979261186387803
 30
0.0
 10
0.6379665798611111
 20
-2.992675357394748
 30
0.0
 10
0.6451416015625
 20
-3.002997080485025
 30
0.0
 10
0.6558566623263889
 20
-3.002997080485025
 30
0.0
 10
0.6605224609375
 20
-3.002997080485025
 30
0.0
 10
0.6636488172743055
 20
-3.000162336561414
 30
0.0
 10
0.6655205620659723
 20
-2.998480478922525
 30
0.0
 10
0.6659206814236111
 20
-2.998114267985025
 30
0.0
 10
0.6663072374131945
 20
-2.997748057047525
 30
0.0
 10
0.6667344835069445
 20
-2.997436099582248
 30
0.0
 10
0.6667344835069445
 20
-2.997436099582248
 30
0.0
 10
0.6730143229166666
 20
-2.992810991075303
 30
0.0
 10
0.6730143229166666
 20
-2.992810991075303
 30
0.0
 10
0.6763034396701389
 20
-2.990559471978081
 30
0.0
 10
0.6824001736111111
 20
-2.986110687255859
 30
0.0
 10
0.6865370008680555
 20
-2.98137707180447
 30
0.0
 10
0.6945326063368055
 20
-2.971231672498914
 30
0.0
 10
0.7011583116319445
 20
-2.959200965033637
 30
0.0
 10
0.7080620659722223
 20
-2.945786794026692
 30
0.0
 10
0.70751953125
 20
-2.948363833957248
 30
0.0
 10
0.7069905598958333
 20
-2.950764550103081
 30
0.0
 10
0.7064615885416666
 20
-2.953165266248914
 30
0.0
 10
0.7056884765625
 20
-2.956678178575303
 30
0.0
 10
0.7049153645833333
 20
-2.960191090901692
 30
0.0
 10
0.7040879991319445
 20
-2.964341481526692
 30
0.0
 10
0.7022298177083333
 20
-2.975490570068359
 30
0.0
 10
0.7010769314236111
 20
-2.981458452012803
 30
0.0
 10
0.7002360026041666
 20
-2.985500335693359
 30
0.0
 10
0.6858791775173611
 20
-2.992892371283637
 30
0.0
 10
0.6749131944444445
 20
-3.003132714165581
 30
0.0
 10
0.6634250217013889
 20
-3.015746646457248
 30
0.0
 10
0.6577894422743055
 20
-3.021009233262803
 30
0.0
 10
0.6472913953993055
 20
-3.030801984998914
 30
0.0
 10
0.6418728298611111
 20
-3.043158213297525
 30
0.0
 10
0.6331515842013889
 20
-3.061712900797525
 30
0.0
 10
0.6249050564236111
 20
-3.079236772325303
 30
0.0
 10
0.6249050564236111
 20
-3.109889984130859
 30
0.0
 10
0.6249050564236111
 20
-3.116102006700303
 30
0.0
 10
0.6262613932291666
 20
-3.120754241943359
 30
0.0
 10
0.6285739474826389
 20
-3.126586490207248
 30
0.0
 10
0.6285739474826389
 20
-3.126586490207248
 30
0.0
 10
0.63232421875
 20
-3.139444563123914
 30
0.0
 10
0.63232421875
 20
-3.139444563123914
 30
0.0
 10
0.6328938802083333
 20
-3.141207800971137
 30
0.0
 10
0.6448432074652778
 20
-3.165323469373914
 30
0.0
 10
0.6555447048611111
 20
-3.165323469373914
 30
0.0
 10
0.6631401909722223
 20
-3.165323469373914
 30
0.0
 10
0.6697184244791666
 20
-3.159097883436414
 30
0.0
 10
0.6778361002604166
 20
-3.149088117811414
 30
0.0
 10
0.6885104709201389
 20
-3.136107974582248
 30
0.0
 10
0.7009752061631945
 20
-3.11187023586697
 30
0.0
 10
0.7062445746527778
 20
-3.093817392985025
 30
0.0
 10
0.7086520724826389
 20
-3.085109710693359
 30
0.0
 10
0.7110731336805555
 20
-3.07842297024197
 30
0.0
 10
0.7144232855902778
 20
-3.069186316596137
 30
0.0
 10
0.7144232855902778
 20
-3.069186316596137
 30
0.0
 10
0.7156304253472223
 20
-3.06584972805447
 30
0.0
 10
0.7156304253472223
 20
-3.06584972805447
 30
0.0
 10
0.7184651692708333
 20
-3.057942284478081
 30
0.0
 10
0.7204522026909723
 20
-3.049532996283637
 30
0.0
 10
0.7220391167534723
 20
-3.04229015774197
 30
0.0
 10
0.7220391167534723
 20
-3.04229015774197
 30
0.0
 10
0.7300075954861111
 20
-3.004773881700303
 30
0.0
 10
0.7300075954861111
 20
-3.004773881700303
 30
0.0
 10
0.7417060004340278
 20
-2.997910817464192
 30
0.0
 10
0.7522854275173611
 20
-2.988104502360025
 30
0.0
 10
0.7620578342013889
 20
-2.97502941555447
 30
0.0
 10
0.7634006076388889
 20
-2.99907726711697
 30
0.0
 10
0.7722574869791666
 20
-3.022487640380859
 30
0.0
 10
0.78759765625
 20
-3.022487640380859
 30
0.0
 10
0.7970038519965277
 20
-3.022487640380859
 30
0.0
 10
0.8068033854166666
 20
-3.013739267985025
 30
0.0
 10
0.8183119032118055
 20
-2.995130327012803
 30
0.0
 10
0.8222384982638889
 20
-2.989203135172525
 30
0.0
 10
0.8257649739583332
 20
-2.983628590901692
 30
0.0
 10
0.8289727105034721
 20
-2.978311750623914
 30
0.0
 10
0.82855224609375
 20
-2.982421451144748
 30
0.0
 10
0.8283487955729166
 20
-2.985798729790581
 30
0.0
 10
0.8283487955729166
 20
-2.988674163818359
 30
0.0
 10
0.8283487955729166
 20
-3.016831715901692
 30
0.0
 10
0.8413289388020832
 20
-3.022352006700303
 30
0.0
 10
0.8482123480902776
 20
-3.023545583089192
 30
0.0
 10
0.858181423611111
 20
-3.023545583089192
 30
0.0
 10
0.8661634657118055
 20
-3.011731889512803
 30
0.0
 10
0.8753255208333332
 20
-2.998168521457248
 30
0.0
 10
0.8753255208333332
 20
-2.998168521457248
 30
0.0
 10
0.87921142578125
 20
-2.99199718899197
 30
0.0
 10
0.87921142578125
 20
-2.99199718899197
 30
0.0
 10
0.8827989366319444
 20
-2.987778981526692
 30
0.0
 10
0.8828531901041666
 20
-2.979817284478081
 30
0.0
 10
0.8828531901041666
 20
-2.979708777533637
 30
0.0
 10
0.8828531901041666
 20
-2.968301984998914
 30
0.0
 10
0.8768988715277776
 20
-2.965914832221137
 30
0.0
 10
0.8719075520833332
 20
-2.965914832221137
 30
0.0
 10
0.8673841688368055
 20
-2.965914832221137
 30
0.0
 10
0.8628946940104166
 20
-2.970933278401692
 30
0.0
 10
0.8623250325520832
 20
-2.971882714165581
 30
0.0
 10
0.8645155164930555
 20
-2.956515418158637
 30
0.0
 10
0.8697645399305555
 20
-2.935532887776692
 30
0.0
 10
0.872802734375
 20
-2.92339367336697
 30
0.0
 10
0.8738538953993055
 20
-2.919148339165581
 30
0.0
 10
0.8752034505208332
 20
-2.914496103922525
 30
0.0
 10
0.8765597873263889
 20
-2.909816741943359
 30
0.0
  0
SPLINE
  5
A8
330
9D
100
AcDbEntity
  8
Mr&Mrs with Date
100
AcDbSpline
210
0.0
220
0.0
230
1.0
 70
     9
 71
     3
 72
    50
 73
    46
 74
     0
 42
0.0000000001
 43
0.0000000001
 40
0.0
 40
0.0
 40
0.0
 40
0.0
 40
1.0
 40
1.0
 40
1.0
 40
2.0
 40
2.0
 40
2.0
 40
3.0
 40
3.0
 40
3.0
 40
4.0
 40
4.0
 40
4.0
 40
5.0
 40
5.0
 40
5.0
 40
6.0
 40
6.0
 40
6.0
 40
7.0
 40
7.0
 40
7.0
 40
8.0
 40
8.0
 40
8.0
 40
9.0
 40
9.0
 40
9.0
 40
10.0
 40
10.0
 40
10.0
 40
11.0
 40
11.0
 40
11.0
 40
12.0
 40
12.0
 40
12.0
 40
13.0
 40
13.0
 40
13.0
 40
14.0
 40
14.0
 40
14.0
 40
15.0
 40
15.0
 40
15.0
 40
15.0
 10
0.9819675021701389
 20
-2.916462792290581
 30
0.0
 10
0.9819675021701389
 20
-2.907049814860025
 30
0.0
 10
0.9774169921875
 20
-2.902668846978081
 30
0.0
 10
0.9676378038194444
 20
-2.902668846978081
 30
0.0
 10
0.9676378038194444
 20
-2.902668846978081
 30
0.0
 10
0.9659627278645832
 20
-2.902668846978081
 30
0.0
 10
0.9659627278645832
 20
-2.902668846978081
 30
0.0
 10
0.9659627278645832
 20
-2.902668846978081
 30
0.0
 10
0.9644639756944444
 20
-2.903428395589192
 30
0.0
 10
0.9644639756944444
 20
-2.903428395589192
 30
0.0
 10
0.9592149522569444
 20
-2.906127505832248
 30
0.0
 10
0.9413791232638889
 20
-2.910671234130859
 30
0.0
 10
0.9320746527777776
 20
-2.911661359998914
 30
0.0
 10
0.9279378255208332
 20
-2.912136077880859
 30
0.0
 10
0.9245944552951389
 20
-2.912149641248914
 30
0.0
 10
0.9212782118055555
 20
-2.912149641248914
 30
0.0
 10
0.9161512586805555
 20
-2.912231021457248
 30
0.0
 10
0.9108344184027776
 20
-2.912122514512803
 30
0.0
 10
0.9044867621527776
 20
-2.913329654269748
 30
0.0
 10
0.8978610568576389
 20
-2.914591047498914
 30
0.0
 10
0.8911471896701389
 20
-2.923135969373914
 30
0.0
 10
0.8911471896701389
 20
-2.937011294894748
 30
0.0
 10
0.8911471896701389
 20
-2.947373708089192
 30
0.0
 10
0.8964640299479166
 20
-2.95427746242947
 30
0.0
 10
0.9061143663194444
 20
-2.956447601318359
 30
0.0
 10
0.9061143663194444
 20
-2.956447601318359
 30
0.0
 10
0.9072469075520832
 20
-2.956691741943359
 30
0.0
 10
0.9072469075520832
 20
-2.956691741943359
 30
0.0
 10
0.9072469075520832
 20
-2.956691741943359
 30
0.0
 10
0.9179619683159721
 20
-2.955511728922525
 30
0.0
 10
0.9179619683159721
 20
-2.955511728922525
 30
0.0
 10
0.919887966579861
 20
-2.955281151665581
 30
0.0
 10
0.9220784505208332
 20
-2.954982757568359
 30
0.0
 10
0.92413330078125
 20
-2.954684363471137
 30
0.0
 10
0.9265814887152776
 20
-2.954345279269748
 30
0.0
 10
0.9287923177083332
 20
-2.954006195068359
 30
0.0
 10
0.9297892252604166
 20
-2.953979068332248
 30
0.0
 10
0.9297892252604166
 20
-2.953979068332248
 30
0.0
 10
0.9324273003472221
 20
-2.953463660346137
 30
0.0
 10
0.9324273003472221
 20
-2.953463660346137
 30
0.0
 10
0.947170681423611
 20
-2.947414398193359
 30
0.0
 10
0.9638604058159721
 20
-2.938218434651692
 30
0.0
 10
0.9741278754340276
 20
-2.931599511040581
 30
0.0
 10
0.9791124131944444
 20
-2.928059471978081
 30
0.0
 10
0.9819675021701389
 20
-2.92253918117947
 30
0.0
 10
0.9819675021701389
 20
-2.916462792290581
 30
0.0
  0
SPLINE
  5
A9
330
9D
100
AcDbEntity
  8
Mr&Mrs with Date
100
AcDbSpline
210
0.0
220
0.0
230
1.0
 70
     9
 71
     3
 72
    29
 73
    25
 74
     0
 42
0.0000000001
 43
0.0000000001
 40
0.0
 40
0.0
 40
0.0
 40
0.0
 40
1.0
 40
1.0
 40
1.0
 40
2.0
 40
2.0
 40
2.0
 40
3.0
 40
3.0
 40
3.0
 40
4.0
 40
4.0
 40
4.0
 40
5.0
 40
5.0
 40
5.0
 40
6.0
 40
6.0
 40
6.0
 40
7.0
 40
7.0
 40
7.0
 40
8.0
 40
8.0
 40
8.0
 40
8.0
 10
0.9982977973090276
 20
-3.00481457180447
 30
0.0
 10
0.9992133246527776
 20
-3.003241221110025
 30
0.0
 10
1.000142415364583
 20
-3.001193152533637
 30
0.0
 10
1.000861273871527
 20
-2.99956554836697
 30
0.0
 10
1.000861273871527
 20
-2.99956554836697
 30
0.0
 10
1.001247829861111
 20
-2.998724619547525
 30
0.0
 10
1.001247829861111
 20
-2.998724619547525
 30
0.0
 10
1.005160861545138
 20
-2.994913313123914
 30
0.0
 10
1.010389539930555
 20
-2.991319020589192
 30
0.0
 10
1.015828450520833
 20
-2.988185882568359
 30
0.0
 10
1.011630588107638
 20
-2.998385535346137
 30
0.0
 10
1.007975260416666
 20
-3.003770192464192
 30
0.0
 10
1.0035400390625
 20
-3.004461924235025
 30
0.0
 10
1.0035400390625
 20
-3.004461924235025
 30
0.0
 10
1.0015869140625
 20
-3.004760318332248
 30
0.0
 10
1.0015869140625
 20
-3.004760318332248
 30
0.0
 10
1.0015869140625
 20
-3.004760318332248
 30
0.0
 10
0.9989488389756944
 20
-3.007025400797525
 30
0.0
 10
0.9989488389756944
 20
-3.007025400797525
 30
0.0
 10
0.9984198676215276
 20
-3.006686316596137
 30
0.0
 10
0.9979248046875
 20
-3.006347232394748
 30
0.0
 10
0.99749755859375
 20
-3.00603527492947
 30
0.0
 10
0.9977010091145832
 20
-3.005696190728081
 30
0.0
 10
0.9979587131076389
 20
-3.005289289686414
 30
0.0
 10
0.9982977973090276
 20
-3.00481457180447
 30
0.0
  0
SPLINE
  5
AA
330
9D
100
AcDbEntity
  8
Mr&Mrs with Date
100
AcDbSpline
210
0.0
220
0.0
230
1.0
 70
     9
 71
     3
 72
    20
 73
    16
 74
     0
 42
0.0000000001
 43
0.0000000001
 40
0.0
 40
0.0
 40
0.0
 40
0.0
 40
1.0
 40
1.0
 40
1.0
 40
2.0
 40
2.0
 40
2.0
 40
3.0
 40
3.0
 40
3.0
 40
4.0
 40
4.0
 40
4.0
 40
5.0
 40
5.0
 40
5.0
 40
5.0
 10
1.114691840277777
 20
-2.730129241943359
 30
0.0
 10
1.114691840277777
 20
-2.730129241943359
 30
0.0
 10
1.114705403645833
 20
-2.730088551839192
 30
0.0
 10
1.114705403645833
 20
-2.730088551839192
 30
0.0
 10
1.122083875868055
 20
-2.70244640774197
 30
0.0
 10
1.12868923611111
 20
-2.694335513644748
 30
0.0
 10
1.13015407986111
 20
-2.693603091769748
 30
0.0
 10
1.131198459201388
 20
-2.693603091769748
 30
0.0
 10
1.133368598090277
 20
-2.693603091769748
 30
0.0
 10
1.133368598090277
 20
-2.698255327012803
 30
0.0
 10
1.133368598090277
 20
-2.722248925103081
 30
0.0
 10
1.122450086805555
 20
-2.740803612603081
 30
0.0
 10
1.108140733506944
 20
-2.758490244547525
 30
0.0
 10
1.1102294921875
 20
-2.747829437255859
 30
0.0
 10
1.112358940972222
 20
-2.738660600450303
 30
0.0
 10
1.114691840277777
 20
-2.730129241943359
 30
0.0
  0
SPLINE
  5
AB
330
9D
100
AcDbEntity
  8
Mr&Mrs with Date
100
AcDbSpline
210
0.0
220
0.0
230
1.0
 70
     9
 71
     3
 72
    47
 73
    43
 74
     0
 42
0.0000000001
 43
0.0000000001
 40
0.0
 40
0.0
 40
0.0
 40
0.0
 40
1.0
 40
1.0
 40
1.0
 40
2.0
 40
2.0
 40
2.0
 40
3.0
 40
3.0
 40
3.0
 40
4.0
 40
4.0
 40
4.0
 40
5.0
 40
5.0
 40
5.0
 40
6.0
 40
6.0
 40
6.0
 40
7.0
 40
7.0
 40
7.0
 40
8.0
 40
8.0
 40
8.0
 40
9.0
 40
9.0
 40
9.0
 40
10.0
 40
10.0
 40
10.0
 40
11.0
 40
11.0
 40
11.0
 40
12.0
 40
12.0
 40
12.0
 40
13.0
 40
13.0
 40
13.0
 40
14.0
 40
14.0
 40
14.0
 40
14.0
 10
1.1959228515625
 20
-2.963893890380859
 30
0.0
 10
1.1959228515625
 20
-2.939194997151692
 30
0.0
 10
1.207194010416666
 20
-2.913071950276692
 30
0.0
 10
1.216891818576388
 20
-2.895005544026692
 30
0.0
 10
1.2176513671875
 20
-2.893269432915581
 30
0.0
 10
1.218234592013888
 20
-2.89153332180447
 30
0.0
 10
1.218763563368055
 20
-2.889770083957248
 30
0.0
 10
1.218967013888888
 20
-2.889566633436414
 30
0.0
 10
1.219156901041666
 20
-2.889363182915581
 30
0.0
 10
1.219346788194444
 20
-2.889159732394748
 30
0.0
 10
1.21975368923611
 20
-2.888739267985025
 30
0.0
 10
1.220174153645833
 20
-2.88823742336697
 30
0.0
 10
1.220621744791666
 20
-2.887911902533637
 30
0.0
 10
1.220621744791666
 20
-2.887911902533637
 30
0.0
 10
1.22207302517361
 20
-2.886569129096137
 30
0.0
 10
1.22207302517361
 20
-2.886569129096137
 30
0.0
 10
1.230238172743055
 20
-2.876477983262803
 30
0.0
 10
1.23330349392361
 20
-2.875989702012803
 30
0.0
 10
1.233601888020833
 20
-2.875962575276692
 30
0.0
 10
1.234632703993055
 20
-2.875962575276692
 30
0.0
 10
1.237779405381944
 20
-2.875962575276692
 30
0.0
 10
1.242173936631944
 20
-2.887776268853081
 30
0.0
 10
1.242173936631944
 20
-2.887776268853081
 30
0.0
 10
1.242689344618055
 20
-2.889648013644748
 30
0.0
 10
1.242689344618055
 20
-2.889648013644748
 30
0.0
 10
1.242607964409722
 20
-2.889525943332248
 30
0.0
 10
1.242526584201388
 20
-2.88945812649197
 30
0.0
 10
1.242445203993055
 20
-2.889553070068359
 30
0.0
 10
1.2423095703125
 20
-2.890027787950303
 30
0.0
 10
1.2421875
 20
-2.890516069200303
 30
0.0
 10
1.2420654296875
 20
-2.891004350450303
 30
0.0
 10
1.2420654296875
 20
-2.891004350450303
 30
0.0
 10
1.226060655381944
 20
-2.924627939860025
 30
0.0
 10
1.226060655381944
 20
-2.924627939860025
 30
0.0
 10
1.221652560763888
 20
-2.934203677707248
 30
0.0
 10
1.21352810329861
 20
-2.948133256700303
 30
0.0
 10
1.207817925347222
 20
-2.956881629096137
 30
0.0
 10
1.202202690972222
 20
-2.965290917290581
 30
0.0
 10
1.198527018229166
 20
-2.969821082221137
 30
0.0
 10
1.196370442708333
 20
-2.97222179836697
 30
0.0
 10
1.196112738715277
 20
-2.970309363471137
 30
0.0
 10
1.1959228515625
 20
-2.967610253228081
 30
0.0
 10
1.1959228515625
 20
-2.963893890380859
 30
0.0
  0
SPLINE
  5
AC
330
9D
100
AcDbEntity
  8
Mr&Mrs with Date
100
AcDbSpline
210
0.0
220
0.0
230
1.0
 70
     9
 71
     3
 72
    14
 73
    10
 74
     0
 42
0.0000000001
 43
0.0000000001
 40
0.0
 40
0.0
 40
0.0
 40
0.0
 40
1.0
 40
1.0
 40
1.0
 40
2.0
 40
2.0
 40
2.0
 40
3.0
 40
3.0
 40
3.0
 40
3.0
 10
1.379855685763888
 20
-2.698255327012803
 30
0.0
 10
1.37844509548611
 20
-2.711520300971137
 30
0.0
 10
1.37331814236111
 20
-2.733587900797525
 30
0.0
 10
1.365763346354166
 20
-2.758435991075303
 30
0.0
 10
1.363335503472222
 20
-2.766506195068359
 30
0.0
 10
1.361016167534722
 20
-2.773993174235025
 30
0.0
 10
1.358208550347222
 20
-2.781900617811414
 30
0.0
 10
1.368326822916666
 20
-2.735066307915581
 30
0.0
 10
1.375528971354166
 20
-2.709946950276692
 30
0.0
 10
1.379855685763888
 20
-2.698255327012803
 30
0.0
  0
SPLINE
  5
AD
330
9D
100
AcDbEntity
  8
Mr&Mrs with Date
100
AcDbSpline
210
0.0
220
0.0
230
1.0
 70
     9
 71
     3
 72
    47
 73
    43
 74
     0
 42
0.0000000001
 43
0.0000000001
 40
0.0
 40
0.0
 40
0.0
 40
0.0
 40
1.0
 40
1.0
 40
1.0
 40
2.0
 40
2.0
 40
2.0
 40
3.0
 40
3.0
 40
3.0
 40
4.0
 40
4.0
 40
4.0
 40
5.0
 40
5.0
 40
5.0
 40
6.0
 40
6.0
 40
6.0
 40
7.0
 40
7.0
 40
7.0
 40
8.0
 40
8.0
 40
8.0
 40
9.0
 40
9.0
 40
9.0
 40
10.0
 40
10.0
 40
10.0
 40
11.0
 40
11.0
 40
11.0
 40
12.0
 40
12.0
 40
12.0
 40
13.0
 40
13.0
 40
13.0
 40
14.0
 40
14.0
 40
14.0
 40
14.0
 10
1.401529947916666
 20
-2.963893890380859
 30
0.0
 10
1.401529947916666
 20
-2.944376203748914
 30
0.0
 10
1.40869140625
 20
-2.920721689860025
 30
0.0
 10
1.422498914930555
 20
-2.895005544026692
 30
0.0
 10
1.423258463541666
 20
-2.893269432915581
 30
0.0
 10
1.423841688368055
 20
-2.89153332180447
 30
0.0
 10
1.424370659722222
 20
-2.889770083957248
 30
0.0
 10
1.424574110243055
 20
-2.889566633436414
 30
0.0
 10
1.424763997395833
 20
-2.889363182915581
 30
0.0
 10
1.42495388454861
 20
-2.889159732394748
 30
0.0
 10
1.425360785590277
 20
-2.888739267985025
 30
0.0
 10
1.42578125
 20
-2.88823742336697
 30
0.0
 10
1.426228841145833
 20
-2.887911902533637
 30
0.0
 10
1.426228841145833
 20
-2.887911902533637
 30
0.0
 10
1.427680121527777
 20
-2.886569129096137
 30
0.0
 10
1.427680121527777
 20
-2.886569129096137
 30
0.0
 10
1.435845269097222
 20
-2.876477983262803
 30
0.0
 10
1.438910590277777
 20
-2.875989702012803
 30
0.0
 10
1.439208984375
 20
-2.875962575276692
 30
0.0
 10
1.440239800347222
 20
-2.875962575276692
 30
0.0
 10
1.44338650173611
 20
-2.875962575276692
 30
0.0
 10
1.44778103298611
 20
-2.887708452012803
 30
0.0
 10
1.44778103298611
 20
-2.887708452012803
 30
0.0
 10
1.448296440972222
 20
-2.889675140380859
 30
0.0
 10
1.448296440972222
 20
-2.889675140380859
 30
0.0
 10
1.448228624131944
 20
-2.889539506700303
 30
0.0
 10
1.44814724392361
 20
-2.88945812649197
 30
0.0
 10
1.448038736979166
 20
-2.889634450276692
 30
0.0
 10
1.447916666666666
 20
-2.89006847805447
 30
0.0
 10
1.447794596354166
 20
-2.890529632568359
 30
0.0
 10
1.447686089409722
 20
-2.890990787082248
 30
0.0
 10
1.447686089409722
 20
-2.890990787082248
 30
0.0
 10
1.43166775173611
 20
-2.924627939860025
 30
0.0
 10
1.43166775173611
 20
-2.924627939860025
 30
0.0
 10
1.427218967013888
 20
-2.934285057915581
 30
0.0
 10
1.419108072916666
 20
-2.948187510172525
 30
0.0
 10
1.413425021701388
 20
-2.956881629096137
 30
0.0
 10
1.407809787326388
 20
-2.965290917290581
 30
0.0
 10
1.404134114583333
 20
-2.969821082221137
 30
0.0
 10
1.4019775390625
 20
-2.97222179836697
 30
0.0
 10
1.401719835069444
 20
-2.970309363471137
 30
0.0
 10
1.401529947916666
 20
-2.967610253228081
 30
0.0
 10
1.401529947916666
 20
-2.963893890380859
 30
0.0
  0
SPLINE
  5
AE
330
9D
100
AcDbEntity
  8
Mr&Mrs with Date
100
AcDbSpline
210
0.0
220
0.0
230
1.0
 70
     9
 71
     3
 72
    32
 73
    28
 74
     0
 42
0.0000000001
 43
0.0000000001
 40
0.0
 40
0.0
 40
0.0
 40
0.0
 40
1.0
 40
1.0
 40
1.0
 40
2.0
 40
2.0
 40
2.0
 40
3.0
 40
3.0
 40
3.0
 40
4.0
 40
4.0
 40
4.0
 40
5.0
 40
5.0
 40
5.0
 40
6.0
 40
6.0
 40
6.0
 40
7.0
 40
7.0
 40
7.0
 40
8.0
 40
8.0
 40
8.0
 40
9.0
 40
9.0
 40
9.0
 40
9.0
 10
1.715467664930555
 20
-3.042954762776692
 30
0.0
 10
1.715467664930555
 20
-3.042954762776692
 30
0.0
 10
1.7127685546875
 20
-3.05278820461697
 30
0.0
 10
1.7127685546875
 20
-3.05278820461697
 30
0.0
 10
1.710951063368055
 20
-3.057955847846137
 30
0.0
 10
1.707926432291666
 20
-3.065714094373914
 30
0.0
 10
1.704793294270833
 20
-3.073241763644748
 30
0.0
 10
1.689276801215277
 20
-3.115749359130859
 30
0.0
 10
1.688245985243055
 20
-3.117824554443359
 30
0.0
 10
1.685533311631944
 20
-3.123548295762803
 30
0.0
 10
1.684393988715277
 20
-3.124999576144748
 30
0.0
 10
1.68325466579861
 20
-3.125976138644748
 30
0.0
 10
1.680894639756944
 20
-3.127454545762803
 30
0.0
 10
1.679185655381944
 20
-3.121920691596137
 30
0.0
 10
1.679185655381944
 20
-3.119954003228081
 30
0.0
 10
1.679185655381944
 20
-3.113050248887803
 30
0.0
 10
1.679185655381944
 20
-3.089843326144748
 30
0.0
 10
1.685099283854166
 20
-3.07610363430447
 30
0.0
 10
1.691623263888888
 20
-3.063028547498914
 30
0.0
 10
1.693888346354166
 20
-3.058688269721137
 30
0.0
 10
1.700398763020833
 20
-3.047471364339192
 30
0.0
 10
1.708984375
 20
-3.035901811387803
 30
0.0
 10
1.712809244791666
 20
-3.030490027533637
 30
0.0
 10
1.7166748046875
 20
-3.025783538818359
 30
0.0
 10
1.721435546875
 20
-3.021795908610025
 30
0.0
 10
1.719780815972222
 20
-3.02886242336697
 30
0.0
 10
1.717868381076388
 20
-3.035359276665581
 30
0.0
 10
1.715467664930555
 20
-3.042954762776692
 30
0.0
  0
SPLINE
  5
AF
330
9D
100
AcDbEntity
  8
Mr&Mrs with Date
100
AcDbSpline
210
0.0
220
0.0
230
1.0
 70
     9
 71
     3
 72
    23
 73
    19
 74
     0
 42
0.0000000001
 43
0.0000000001
 40
0.0
 40
0.0
 40
0.0
 40
0.0
 40
1.0
 40
1.0
 40
1.0
 40
2.0
 40
2.0
 40
2.0
 40
3.0
 40
3.0
 40
3.0
 40
4.0
 40
4.0
 40
4.0
 40
5.0
 40
5.0
 40
5.0
 40
6.0
 40
6.0
 40
6.0
 40
6.0
 10
1.688178168402777
 20
-2.964978959825303
 30
0.0
 10
1.687635633680555
 20
-2.962713877360025
 30
0.0
 10
1.687174479166666
 20
-2.959350162082248
 30
0.0
 10
1.687174479166666
 20
-2.955457475450303
 30
0.0
 10
1.687174479166666
 20
-2.920179155137803
 30
0.0
 10
1.713731553819444
 20
-2.887328677707248
 30
0.0
 10
1.738416883680555
 20
-2.871730804443359
 30
0.0
 10
1.738416883680555
 20
-2.871730804443359
 30
0.0
 10
1.739610460069444
 20
-2.870767805311414
 30
0.0
 10
1.739610460069444
 20
-2.870767805311414
 30
0.0
 10
1.741455078125
 20
-2.868923187255859
 30
0.0
 10
1.7427978515625
 20
-2.86772961086697
 30
0.0
 10
1.743733723958333
 20
-2.866970062255859
 30
0.0
 10
1.743869357638888
 20
-2.867499033610025
 30
0.0
 10
1.744004991319444
 20
-2.868163638644748
 30
0.0
 10
1.74416775173611
 20
-2.868977440728081
 30
0.0
 10
1.729600694444444
 20
-2.911145952012803
 30
0.0
 10
1.70986599392361
 20
-2.944959428575303
 30
0.0
 10
1.688178168402777
 20
-2.964978959825303
 30
0.0
  0
SPLINE
  5
B0
330
9D
100
AcDbEntity
  8
Mr&Mrs with Date
100
AcDbSpline
210
0.0
220
0.0
230
1.0
 70
     9
 71
     3
 72
    47
 73
    43
 74
     0
 42
0.0000000001
 43
0.0000000001
 40
0.0
 40
0.0
 40
0.0
 40
0.0
 40
1.0
 40
1.0
 40
1.0
 40
2.0
 40
2.0
 40
2.0
 40
3.0
 40
3.0
 40
3.0
 40
4.0
 40
4.0
 40
4.0
 40
5.0
 40
5.0
 40
5.0
 40
6.0
 40
6.0
 40
6.0
 40
7.0
 40
7.0
 40
7.0
 40
8.0
 40
8.0
 40
8.0
 40
9.0
 40
9.0
 40
9.0
 40
10.0
 40
10.0
 40
10.0
 40
11.0
 40
11.0
 40
11.0
 40
12.0
 40
12.0
 40
12.0
 40
13.0
 40
13.0
 40
13.0
 40
14.0
 40
14.0
 40
14.0
 40
14.0
 10
1.818915473090277
 20
-2.963893890380859
 30
0.0
 10
1.818915473090277
 20
-2.939194997151692
 30
0.0
 10
1.830186631944444
 20
-2.913071950276692
 30
0.0
 10
1.839884440104166
 20
-2.895005544026692
 30
0.0
 10
1.840643988715277
 20
-2.893269432915581
 30
0.0
 10
1.841227213541666
 20
-2.89153332180447
 30
0.0
 10
1.841756184895833
 20
-2.889770083957248
 30
0.0
 10
1.841959635416666
 20
-2.889566633436414
 30
0.0
 10
1.842149522569444
 20
-2.889363182915581
 30
0.0
 10
1.842339409722222
 20
-2.889159732394748
 30
0.0
 10
1.842746310763888
 20
-2.888739267985025
 30
0.0
 10
1.84316677517361
 20
-2.88823742336697
 30
0.0
 10
1.843614366319444
 20
-2.887911902533637
 30
0.0
 10
1.843614366319444
 20
-2.887911902533637
 30
0.0
 10
1.845065646701388
 20
-2.886569129096137
 30
0.0
 10
1.845065646701388
 20
-2.886569129096137
 30
0.0
 10
1.853230794270833
 20
-2.876477983262803
 30
0.0
 10
1.856296115451388
 20
-2.875989702012803
 30
0.0
 10
1.85659450954861
 20
-2.875962575276692
 30
0.0
 10
1.857625325520833
 20
-2.875962575276692
 30
0.0
 10
1.860772026909722
 20
-2.875962575276692
 30
0.0
 10
1.865166558159722
 20
-2.887776268853081
 30
0.0
 10
1.865166558159722
 20
-2.887776268853081
 30
0.0
 10
1.865681966145833
 20
-2.889648013644748
 30
0.0
 10
1.865681966145833
 20
-2.889648013644748
 30
0.0
 10
1.865587022569444
 20
-2.889525943332248
 30
0.0
 10
1.86550564236111
 20
-2.88945812649197
 30
0.0
 10
1.865437825520833
 20
-2.889553070068359
 30
0.0
 10
1.865302191840277
 20
-2.890027787950303
 30
0.0
 10
1.865180121527777
 20
-2.890516069200303
 30
0.0
 10
1.865058051215277
 20
-2.891004350450303
 30
0.0
 10
1.865058051215277
 20
-2.891004350450303
 30
0.0
 10
1.849053276909722
 20
-2.924627939860025
 30
0.0
 10
1.849053276909722
 20
-2.924627939860025
 30
0.0
 10
1.844645182291666
 20
-2.934203677707248
 30
0.0
 10
1.836520724826388
 20
-2.948133256700303
 30
0.0
 10
1.830810546875
 20
-2.956881629096137
 30
0.0
 10
1.8251953125
 20
-2.965290917290581
 30
0.0
 10
1.821519639756944
 20
-2.969821082221137
 30
0.0
 10
1.81936306423611
 20
-2.97222179836697
 30
0.0
 10
1.819105360243055
 20
-2.970309363471137
 30
0.0
 10
1.818915473090277
 20
-2.967610253228081
 30
0.0
 10
1.818915473090277
 20
-2.963893890380859
 30
0.0
  0
SPLINE
  5
B1
330
9D
100
AcDbEntity
  8
Mr&Mrs with Date
100
AcDbSpline
210
0.0
220
0.0
230
1.0
 70
     9
 71
     3
 72
   944
 73
   940
 74
     0
 42
0.0000000001
 43
0.0000000001
 40
0.0
 40
0.0
 40
0.0
 40
0.0
 40
1.0
 40
1.0
 40
1.0
 40
2.0
 40
2.0
 40
2.0
 40
3.0
 40
3.0
 40
3.0
 40
4.0
 40
4.0
 40
4.0
 40
5.0
 40
5.0
 40
5.0
 40
6.0
 40
6.0
 40
6.0
 40
7.0
 40
7.0
 40
7.0
 40
8.0
 40
8.0
 40
8.0
 40
9.0
 40
9.0
 40
9.0
 40
10.0
 40
10.0
 40
10.0
 40
11.0
 40
11.0
 40
11.0
 40
12.0
 40
12.0
 40
12.0
 40
13.0
 40
13.0
 40
13.0
 40
14.0
 40
14.0
 40
14.0
 40
15.0
 40
15.0
 40
15.0
 40
16.0
 40
16.0
 40
16.0
 40
17.0
 40
17.0
 40
17.0
 40
18.0
 40
18.0
 40
18.0
 40
19.0
 40
19.0
 40
19.0
 40
20.0
 40
20.0
 40
20.0
 40
21.0
 40
21.0
 40
21.0
 40
22.0
 40
22.0
 40
22.0
 40
23.0
 40
23.0
 40
23.0
 40
24.0
 40
24.0
 40
24.0
 40
25.0
 40
25.0
 40
25.0
 40
26.0
 40
26.0
 40
26.0
 40
27.0
 40
27.0
 40
27.0
 40
28.0
 40
28.0
 40
28.0
 40
29.0
 40
29.0
 40
29.0
 40
30.0
 40
30.0
 40
30.0
 40
31.0
 40
31.0
 40
31.0
 40
32.0
 40
32.0
 40
32.0
 40
33.0
 40
33.0
 40
33.0
 40
34.0
 40
34.0
 40
34.0
 40
35.0
 40
35.0
 40
35.0
 40
36.0
 40
36.0
 40
36.0
 40
37.0
 40
37.0
 40
37.0
 40
38.0
 40
38.0
 40
38.0
 40
39.0
 40
39.0
 40
39.0
 40
40.0
 40
40.0
 40
40.0
 40
41.0
 40
41.0
 40
41.0
 40
42.0
 40
42.0
 40
42.0
 40
43.0
 40
43.0
 40
43.0
 40
44.0
 40
44.0
 40
44.0
 40
45.0
 40
45.0
 40
45.0
 40
46.0
 40
46.0
 40
46.0
 40
47.0
 40
47.0
 40
47.0
 40
48.0
 40
48.0
 40
48.0
 40
49.0
 40
49.0
 40
49.0
 40
50.0
 40
50.0
 40
50.0
 40
51.0
 40
51.0
 40
51.0
 40
52.0
 40
52.0
 40
52.0
 40
53.0
 40
53.0
 40
53.0
 40
54.0
 40
54.0
 40
54.0
 40
55.0
 40
55.0
 40
55.0
 40
56.0
 40
56.0
 40
56.0
 40
57.0
 40
57.0
 40
57.0
 40
58.0
 40
58.0
 40
58.0
 40
59.0
 40
59.0
 40
59.0
 40
60.0
 40
60.0
 40
60.0
 40
61.0
 40
61.0
 40
61.0
 40
62.0
 40
62.0
 40
62.0
 40
63.0
 40
63.0
 40
63.0
 40
64.0
 40
64.0
 40
64.0
 40
65.0
 40
65.0
 40
65.0
 40
66.0
 40
66.0
 40
66.0
 40
67.0
 40
67.0
 40
67.0
 40
68.0
 40
68.0
 40
68.0
 40
69.0
 40
69.0
 40
69.0
 40
70.0
 40
70.0
 40
70.0
 40
71.0
 40
71.0
 40
71.0
 40
72.0
 40
72.0
 40
72.0
 40
73.0
 40
73.0
 40
73.0
 40
74.0
 40
74.0
 40
74.0
 40
75.0
 40
75.0
 40
75.0
 40
76.0
 40
76.0
 40
76.0
 40
77.0
 40
77.0
 40
77.0
 40
78.0
 40
78.0
 40
78.0
 40
79.0
 40
79.0
 40
79.0
 40
80.0
 40
80.0
 40
80.0
 40
81.0
 40
81.0
 40
81.0
 40
82.0
 40
82.0
 40
82.0
 40
83.0
 40
83.0
 40
83.0
 40
84.0
 40
84.0
 40
84.0
 40
85.0
 40
85.0
 40
85.0
 40
86.0
 40
86.0
 40
86.0
 40
87.0
 40
87.0
 40
87.0
 40
88.0
 40
88.0
 40
88.0
 40
89.0
 40
89.0
 40
89.0
 40
90.0
 40
90.0
 40
90.0
 40
91.0
 40
91.0
 40
91.0
 40
92.0
 40
92.0
 40
92.0
 40
93.0
 40
93.0
 40
93.0
 40
94.0
 40
94.0
 40
94.0
 40
95.0
 40
95.0
 40
95.0
 40
96.0
 40
96.0
 40
96.0
 40
97.0
 40
97.0
 40
97.0
 40
98.0
 40
98.0
 40
98.0
 40
99.0
 40
99.0
 40
99.0
 40
100.0
 40
100.0
 40
100.0
 40
101.0
 40
101.0
 40
101.0
 40
102.0
 40
102.0
 40
102.0
 40
103.0
 40
103.0
 40
103.0
 40
104.0
 40
104.0
 40
104.0
 40
105.0
 40
105.0
 40
105.0
 40
106.0
 40
106.0
 40
106.0
 40
107.0
 40
107.0
 40
107.0
 40
108.0
 40
108.0
 40
108.0
 40
109.0
 40
109.0
 40
109.0
 40
110.0
 40
110.0
 40
110.0
 40
111.0
 40
111.0
 40
111.0
 40
112.0
 40
112.0
 40
112.0
 40
113.0
 40
113.0
 40
113.0
 40
114.0
 40
114.0
 40
114.0
 40
115.0
 40
115.0
 40
115.0
 40
116.0
 40
116.0
 40
116.0
 40
117.0
 40
117.0
 40
117.0
 40
118.0
 40
118.0
 40
118.0
 40
119.0
 40
119.0
 40
119.0
 40
120.0
 40
120.0
 40
120.0
 40
121.0
 40
121.0
 40
121.0
 40
122.0
 40
122.0
 40
122.0
 40
123.0
 40
123.0
 40
123.0
 40
124.0
 40
124.0
 40
124.0
 40
125.0
 40
125.0
 40
125.0
 40
126.0
 40
126.0
 40
126.0
 40
127.0
 40
127.0
 40
127.0
 40
128.0
 40
128.0
 40
128.0
 40
129.0
 40
129.0
 40
129.0
 40
130.0
 40
130.0
 40
130.0
 40
131.0
 40
131.0
 40
131.0
 40
132.0
 40
132.0
 40
132.0
 40
133.0
 40
133.0
 40
133.0
 40
134.0
 40
134.0
 40
134.0
 40
135.0
 40
135.0
 40
135.0
 40
136.0
 40
136.0
 40
136.0
 40
137.0
 40
137.0
 40
137.0
 40
138.0
 40
138.0
 40
138.0
 40
139.0
 40
139.0
 40
139.0
 40
140.0
 40
140.0
 40
140.0
 40
141.0
 40
141.0
 40
141.0
 40
142.0
 40
142.0
 40
142.0
 40
143.0
 40
143.0
 40
143.0
 40
144.0
 40
144.0
 40
144.0
 40
145.0
 40
145.0
 40
145.0
 40
146.0
 40
146.0
 40
146.0
 40
147.0
 40
147.0
 40
147.0
 40
148.0
 40
148.0
 40
148.0
 40
149.0
 40
149.0
 40
149.0
 40
150.0
 40
150.0
 40
150.0
 40
151.0
 40
151.0
 40
151.0
 40
152.0
 40
152.0
 40
152.0
 40
153.0
 40
153.0
 40
153.0
 40
154.0
 40
154.0
 40
154.0
 40
155.0
 40
155.0
 40
155.0
 40
156.0
 40
156.0
 40
156.0
 40
157.0
 40
157.0
 40
157.0
 40
158.0
 40
158.0
 40
158.0
 40
159.0
 40
159.0
 40
159.0
 40
160.0
 40
160.0
 40
160.0
 40
161.0
 40
161.0
 40
161.0
 40
162.0
 40
162.0
 40
162.0
 40
163.0
 40
163.0
 40
163.0
 40
164.0
 40
164.0
 40
164.0
 40
165.0
 40
165.0
 40
165.0
 40
166.0
 40
166.0
 40
166.0
 40
167.0
 40
167.0
 40
167.0
 40
168.0
 40
168.0
 40
168.0
 40
169.0
 40
169.0
 40
169.0
 40
170.0
 40
170.0
 40
170.0
 40
171.0
 40
171.0
 40
171.0
 40
172.0
 40
172.0
 40
172.0
 40
173.0
 40
173.0
 40
173.0
 40
174.0
 40
174.0
 40
174.0
 40
175.0
 40
175.0
 40
175.0
 40
176.0
 40
176.0
 40
176.0
 40
177.0
 40
177.0
 40
177.0
 40
178.0
 40
178.0
 40
178.0
 40
179.0
 40
179.0
 40
179.0
 40
180.0
 40
180.0
 40
180.0
 40
181.0
 40
181.0
 40
181.0
 40
182.0
 40
182.0
 40
182.0
 40
183.0
 40
183.0
 40
183.0
 40
184.0
 40
184.0
 40
184.0
 40
185.0
 40
185.0
 40
185.0
 40
186.0
 40
186.0
 40
186.0
 40
187.0
 40
187.0
 40
187.0
 40
188.0
 40
188.0
 40
188.0
 40
189.0
 40
189.0
 40
189.0
 40
190.0
 40
190.0
 40
190.0
 40
191.0
 40
191.0
 40
191.0
 40
192.0
 40
192.0
 40
192.0
 40
193.0
 40
193.0
 40
193.0
 40
194.0
 40
194.0
 40
194.0
 40
195.0
 40
195.0
 40
195.0
 40
196.0
 40
196.0
 40
196.0
 40
197.0
 40
197.0
 40
197.0
 40
198.0
 40
198.0
 40
198.0
 40
199.0
 40
199.0
 40
199.0
 40
200.0
 40
200.0
 40
200.0
 40
201.0
 40
201.0
 40
201.0
 40
202.0
 40
202.0
 40
202.0
 40
203.0
 40
203.0
 40
203.0
 40
204.0
 40
204.0
 40
204.0
 40
205.0
 40
205.0
 40
205.0
 40
206.0
 40
206.0
 40
206.0
 40
207.0
 40
207.0
 40
207.0
 40
208.0
 40
208.0
 40
208.0
 40
209.0
 40
209.0
 40
209.0
 40
210.0
 40
210.0
 40
210.0
 40
211.0
 40
211.0
 40
211.0
 40
212.0
 40
212.0
 40
212.0
 40
213.0
 40
213.0
 40
213.0
 40
214.0
 40
214.0
 40
214.0
 40
215.0
 40
215.0
 40
215.0
 40
216.0
 40
216.0
 40
216.0
 40
217.0
 40
217.0
 40
217.0
 40
218.0
 40
218.0
 40
218.0
 40
219.0
 40
219.0
 40
219.0
 40
220.0
 40
220.0
 40
220.0
 40
221.0
 40
221.0
 40
221.0
 40
222.0
 40
222.0
 40
222.0
 40
223.0
 40
223.0
 40
223.0
 40
224.0
 40
224.0
 40
224.0
 40
225.0
 40
225.0
 40
225.0
 40
226.0
 40
226.0
 40
226.0
 40
227.0
 40
227.0
 40
227.0
 40
228.0
 40
228.0
 40
228.0
 40
229.0
 40
229.0
 40
229.0
 40
230.0
 40
230.0
 40
230.0
 40
231.0
 40
231.0
 40
231.0
 40
232.0
 40
232.0
 40
232.0
 40
233.0
 40
233.0
 40
233.0
 40
234.0
 40
234.0
 40
234.0
 40
235.0
 40
235.0
 40
235.0
 40
236.0
 40
236.0
 40
236.0
 40
237.0
 40
237.0
 40
237.0
 40
238.0
 40
238.0
 40
238.0
 40
239.0
 40
239.0
 40
239.0
 40
240.0
 40
240.0
 40
240.0
 40
241.0
 40
241.0
 40
241.0
 40
242.0
 40
242.0
 40
242.0
 40
243.0
 40
243.0
 40
243.0
 40
244.0
 40
244.0
 40
244.0
 40
245.0
 40
245.0
 40
245.0
 40
246.0
 40
246.0
 40
246.0
 40
247.0
 40
247.0
 40
247.0
 40
248.0
 40
248.0
 40
248.0
 40
249.0
 40
249.0
 40
249.0
 40
250.0
 40
250.0
 40
250.0
 40
251.0
 40
251.0
 40
251.0
 40
252.0
 40
252.0
 40
252.0
 40
253.0
 40
253.0
 40
253.0
 40
254.0
 40
254.0
 40
254.0
 40
255.0
 40
255.0
 40
255.0
 40
256.0
 40
256.0
 40
256.0
 40
257.0
 40
257.0
 40
257.0
 40
258.0
 40
258.0
 40
258.0
 40
259.0
 40
259.0
 40
259.0
 40
260.0
 40
260.0
 40
260.0
 40
261.0
 40
261.0
 40
261.0
 40
262.0
 40
262.0
 40
262.0
 40
263.0
 40
263.0
 40
263.0
 40
264.0
 40
264.0
 40
264.0
 40
265.0
 40
265.0
 40
265.0
 40
266.0
 40
266.0
 40
266.0
 40
267.0
 40
267.0
 40
267.0
 40
268.0
 40
268.0
 40
268.0
 40
269.0
 40
269.0
 40
269.0
 40
270.0
 40
270.0
 40
270.0
 40
271.0
 40
271.0
 40
271.0
 40
272.0
 40
272.0
 40
272.0
 40
273.0
 40
273.0
 40
273.0
 40
274.0
 40
274.0
 40
274.0
 40
275.0
 40
275.0
 40
275.0
 40
276.0
 40
276.0
 40
276.0
 40
277.0
 40
277.0
 40
277.0
 40
278.0
 40
278.0
 40
278.0
 40
279.0
 40
279.0
 40
279.0
 40
280.0
 40
280.0
 40
280.0
 40
281.0
 40
281.0
 40
281.0
 40
282.0
 40
282.0
 40
282.0
 40
283.0
 40
283.0
 40
283.0
 40
284.0
 40
284.0
 40
284.0
 40
285.0
 40
285.0
 40
285.0
 40
286.0
 40
286.0
 40
286.0
 40
287.0
 40
287.0
 40
287.0
 40
288.0
 40
288.0
 40
288.0
 40
289.0
 40
289.0
 40
289.0
 40
290.0
 40
290.0
 40
290.0
 40
291.0
 40
291.0
 40
291.0
 40
292.0
 40
292.0
 40
292.0
 40
293.0
 40
293.0
 40
293.0
 40
294.0
 40
294.0
 40
294.0
 40
295.0
 40
295.0
 40
295.0
 40
296.0
 40
296.0
 40
296.0
 40
297.0
 40
297.0
 40
297.0
 40
298.0
 40
298.0
 40
298.0
 40
299.0
 40
299.0
 40
299.0
 40
300.0
 40
300.0
 40
300.0
 40
301.0
 40
301.0
 40
301.0
 40
302.0
 40
302.0
 40
302.0
 40
303.0
 40
303.0
 40
303.0
 40
304.0
 40
304.0
 40
304.0
 40
305.0
 40
305.0
 40
305.0
 40
306.0
 40
306.0
 40
306.0
 40
307.0
 40
307.0
 40
307.0
 40
308.0
 40
308.0
 40
308.0
 40
309.0
 40
309.0
 40
309.0
 40
310.0
 40
310.0
 40
310.0
 40
311.0
 40
311.0
 40
311.0
 40
312.0
 40
312.0
 40
312.0
 40
313.0
 40
313.0
 40
313.0
 40
313.0
 10
2.057576497395833
 20
-2.981729719373914
 30
0.0
 10
2.053087022569444
 20
-2.981729719373914
 30
0.0
 10
2.049601236979166
 20
-2.985459645589192
 30
0.0
 10
2.049641927083333
 20
-2.98552746242947
 30
0.0
 10
2.048421223958333
 20
-2.986571841769748
 30
0.0
 10
2.047458224826388
 20
-2.988009558783637
 30
0.0
 10
2.046956380208333
 20
-2.989013248019748
 30
0.0
 10
2.046956380208333
 20
-2.989013248019748
 30
0.0
 10
2.045884874131944
 20
-2.990369584825303
 30
0.0
 10
2.045884874131944
 20
-2.990369584825303
 30
0.0
 10
2.045274522569444
 20
-2.99114269680447
 30
0.0
 10
2.044094509548611
 20
-2.992634667290581
 30
0.0
 10
2.043117947048611
 20
-2.993692609998914
 30
0.0
 10
2.042900933159722
 20
-2.992444780137803
 30
0.0
 10
2.042670355902777
 20
-2.990152570936414
 30
0.0
 10
2.042670355902777
 20
-2.986029307047525
 30
0.0
 10
2.042670355902777
 20
-2.984320322672525
 30
0.0
 10
2.044270833333333
 20
-2.977362314860025
 30
0.0
 10
2.047892252604166
 20
-2.967054155137803
 30
0.0
 10
2.049777560763888
 20
-2.961126963297525
 30
0.0
 10
2.051350911458333
 20
-2.955199771457248
 30
0.0
 10
2.052666558159722
 20
-2.950086381700303
 30
0.0
 10
2.052666558159722
 20
-2.950086381700303
 30
0.0
 10
2.059149848090277
 20
-2.920436859130859
 30
0.0
 10
2.059149848090277
 20
-2.920436859130859
 30
0.0
 10
2.059611002604166
 20
-2.91814464992947
 30
0.0
 10
2.059909396701388
 20
-2.913370344373914
 30
0.0
 10
2.059909396701388
 20
-2.908718109130859
 30
0.0
 10
2.059990776909722
 20
-2.907239702012803
 30
0.0
 10
2.061347113715277
 20
-2.899386511908637
 30
0.0
 10
2.062554253472222
 20
-2.892957475450303
 30
0.0
 10
2.062554253472222
 20
-2.892957475450303
 30
0.0
 10
2.062744140625
 20
-2.891953786214192
 30
0.0
 10
2.062744140625
 20
-2.891953786214192
 30
0.0
 10
2.062744140625
 20
-2.891953786214192
 30
0.0
 10
2.062635633680555
 20
-2.890936533610025
 30
0.0
 10
2.062635633680555
 20
-2.890936533610025
 30
0.0
 10
2.059393988715277
 20
-2.860676659478081
 30
0.0
 10
2.054172092013888
 20
-2.846272362603081
 30
0.0
 10
2.033270941840277
 20
-2.846272362603081
 30
0.0
 10
2.024373372395833
 20
-2.846272362603081
 30
0.0
 10
2.015123155381944
 20
-2.852674272325303
 30
0.0
 10
2.004937065972222
 20
-2.865912119547525
 30
0.0
 10
2.001871744791666
 20
-2.869994693332248
 30
0.0
 10
1.997572157118055
 20
-2.877902136908637
 30
0.0
 10
1.992933485243055
 20
-2.886379241943359
 30
0.0
 10
1.992933485243055
 20
-2.886379241943359
 30
0.0
 10
1.980428059895833
 20
-2.910549163818359
 30
0.0
 10
1.980428059895833
 20
-2.910549163818359
 30
0.0
 10
1.980428059895833
 20
-2.910549163818359
 30
0.0
 10
1.98232693142361
 20
-2.883937835693359
 30
0.0
 10
1.98232693142361
 20
-2.883937835693359
 30
0.0
 10
1.982652452256944
 20
-2.880574120415581
 30
0.0
 10
1.982666015625
 20
-2.874986012776692
 30
0.0
 10
1.982666015625
 20
-2.872191958957248
 30
0.0
 10
1.982666015625
 20
-2.858615027533637
 30
0.0
 10
1.979383680555555
 20
-2.85344738430447
 30
0.0
 10
1.974690755208333
 20
-2.85002941555447
 30
0.0
 10
1.971503363715277
 20
-2.847316741943359
 30
0.0
 10
1.967461480034722
 20
-2.846218109130859
 30
0.0
 10
1.962972005208333
 20
-2.846272362603081
 30
0.0
 10
1.962972005208333
 20
-2.846272362603081
 30
0.0
 10
1.962972005208333
 20
-2.842081281873914
 30
0.0
 10
1.962972005208333
 20
-2.842081281873914
 30
0.0
 10
1.962972005208333
 20
-2.842081281873914
 30
0.0
 10
1.961317274305555
 20
-2.846326616075303
 30
0.0
 10
1.961317274305555
 20
-2.846326616075303
 30
0.0
 10
1.959648980034722
 20
-2.846421559651692
 30
0.0
 10
1.958021375868055
 20
-2.846719953748914
 30
0.0
 10
1.956597222222222
 20
-2.847547319200303
 30
0.0
 10
1.948920355902777
 20
-2.851412879096137
 30
0.0
 10
1.944064670138888
 20
-2.858465830485025
 30
0.0
 10
1.938734266493055
 20
-2.873480478922525
 30
0.0
 10
1.933634440104166
 20
-2.887369367811414
 30
0.0
 10
1.9263916015625
 20
-2.901855044894748
 30
0.0
 10
1.919772677951388
 20
-2.914808061387803
 30
0.0
 10
1.919772677951388
 20
-2.914808061387803
 30
0.0
 10
1.914496527777777
 20
-2.927191416422525
 30
0.0
 10
1.914496527777777
 20
-2.927191416422525
 30
0.0
 10
1.913859049479166
 20
-2.928330739339192
 30
0.0
 10
1.913221571180555
 20
-2.929442935519748
 30
0.0
 10
1.912407769097222
 20
-2.931029849582248
 30
0.0
 10
1.905748155381944
 20
-2.946017371283637
 30
0.0
 10
1.892510308159722
 20
-2.968057844373914
 30
0.0
 10
1.888373480902777
 20
-2.971421559651692
 30
0.0
 10
1.888156467013888
 20
-2.968736012776692
 30
0.0
 10
1.888156467013888
 20
-2.964463551839192
 30
0.0
 10
1.888156467013888
 20
-2.962320539686414
 30
0.0
 10
1.888156467013888
 20
-2.95073742336697
 30
0.0
 10
1.8951416015625
 20
-2.922335730658637
 30
0.0
 10
1.898139105902777
 20
-2.910115136040581
 30
0.0
 10
1.903266059027777
 20
-2.887939029269748
 30
0.0
 10
1.904242621527777
 20
-2.88359875149197
 30
0.0
 10
1.904432508680555
 20
-2.881727006700303
 30
0.0
 10
1.90530056423611
 20
-2.878512488471137
 30
0.0
 10
1.906317816840277
 20
-2.87322277492947
 30
0.0
 10
1.906317816840277
 20
-2.863755544026692
 30
0.0
 10
1.906317816840277
 20
-2.853189680311414
 30
0.0
 10
1.899712456597222
 20
-2.849432627360025
 30
0.0
 10
1.893527560763888
 20
-2.849432627360025
 30
0.0
 10
1.893527560763888
 20
-2.849432627360025
 30
0.0
 10
1.891059027777777
 20
-2.849432627360025
 30
0.0
 10
1.891059027777777
 20
-2.849432627360025
 30
0.0
 10
1.886393229166666
 20
-2.849432627360025
 30
0.0
 10
1.8812255859375
 20
-2.852565765380859
 30
0.0
 10
1.879774305555555
 20
-2.859537336561414
 30
0.0
 10
1.879774305555555
 20
-2.859537336561414
 30
0.0
 10
1.879570855034722
 20
-2.859971364339192
 30
0.0
 10
1.879570855034722
 20
-2.859971364339192
 30
0.0
 10
1.872300889756944
 20
-2.847276051839192
 30
0.0
 10
1.864298502604166
 20
-2.842054155137803
 30
0.0
 10
1.853217230902777
 20
-2.842054155137803
 30
0.0
 10
1.844048394097222
 20
-2.842054155137803
 30
0.0
 10
1.834893120659722
 20
-2.846407996283637
 30
0.0
 10
1.82607693142361
 20
-2.855414072672525
 30
0.0
 10
1.82607693142361
 20
-2.855414072672525
 30
0.0
 10
1.819051106770833
 20
-2.864989810519748
 30
0.0
 10
1.819051106770833
 20
-2.864989810519748
 30
0.0
 10
1.8172607421875
 20
-2.867037879096137
 30
0.0
 10
1.814670138888888
 20
-2.870130327012803
 30
0.0
 10
1.812934027777777
 20
-2.873127831353081
 30
0.0
 10
1.803046332465277
 20
-2.888264550103081
 30
0.0
 10
1.79494900173611
 20
-2.906927744547525
 30
0.0
 10
1.790120442708333
 20
-2.925767262776692
 30
0.0
 10
1.790120442708333
 20
-2.925767262776692
 30
0.0
 10
1.787787543402777
 20
-2.93035168117947
 30
0.0
 10
1.787787543402777
 20
-2.93035168117947
 30
0.0
 10
1.785224066840277
 20
-2.93474621242947
 30
0.0
 10
1.782687717013888
 20
-2.939167870415581
 30
0.0
 10
1.781019422743055
 20
-2.941419389512803
 30
0.0
 10
1.781019422743055
 20
-2.941419389512803
 30
0.0
 10
1.775349934895833
 20
-2.951130761040581
 30
0.0
 10
1.775349934895833
 20
-2.951130761040581
 30
0.0
 10
1.772691514756944
 20
-2.955226898193359
 30
0.0
 10
1.769300672743055
 20
-2.959743499755859
 30
0.0
 10
1.765638563368055
 20
-2.96379894680447
 30
0.0
 10
1.767279730902777
 20
-2.953639984130859
 30
0.0
 10
1.768391927083333
 20
-2.94524425930447
 30
0.0
 10
1.76955837673611
 20
-2.936536577012803
 30
0.0
 10
1.770222981770833
 20
-2.931545257568359
 30
0.0
 10
1.770914713541666
 20
-2.926377614339192
 30
0.0
 10
1.771742078993055
 20
-2.920545366075303
 30
0.0
 10
1.773274739583333
 20
-2.909002939860025
 30
0.0
 10
1.775105794270833
 20
-2.896945105658637
 30
0.0
 10
1.777275933159722
 20
-2.88372082180447
 30
0.0
 10
1.777899848090277
 20
-2.879353417290581
 30
0.0
 10
1.778578016493055
 20
-2.874226464165581
 30
0.0
 10
1.778578016493055
 20
-2.868502722846137
 30
0.0
 10
1.778578016493055
 20
-2.85747570461697
 30
0.0
 10
1.776285807291666
 20
-2.850246429443359
 30
0.0
 10
1.770304361979166
 20
-2.843722449408637
 30
0.0
 10
1.765218098958333
 20
-2.839355044894748
 30
0.0
 10
1.761474609375
 20
-2.838419172498914
 30
0.0
 10
1.758246527777777
 20
-2.839232974582248
 30
0.0
 10
1.754706488715277
 20
-2.834309471978081
 30
0.0
 10
1.7506103515625
 20
-2.831515418158637
 30
0.0
 10
1.743625217013888
 20
-2.831515418158637
 30
0.0
 10
1.742607964409722
 20
-2.831515418158637
 30
0.0
 10
1.742133246527777
 20
-2.831515418158637
 30
0.0
 10
1.740776909722222
 20
-2.831135643853081
 30
0.0
 10
1.738132052951388
 20
-2.830579545762803
 30
0.0
 10
1.735148111979166
 20
-2.829928504096137
 30
0.0
 10
1.73193359375
 20
-2.829928504096137
 30
0.0
 10
1.729953342013888
 20
-2.829928504096137
 30
0.0
 10
1.726291232638888
 20
-2.829928504096137
 30
0.0
 10
1.723836263020833
 20
-2.832112206353081
 30
0.0
 10
1.704182942708333
 20
-2.84490246242947
 30
0.0
 10
1.6884765625
 20
-2.862833234998914
 30
0.0
 10
1.675862630208333
 20
-2.88689464992947
 30
0.0
 10
1.673190646701388
 20
-2.889539506700303
 30
0.0
 10
1.671440972222222
 20
-2.89287609524197
 30
0.0
 10
1.67007107204861
 20
-2.897609710693359
 30
0.0
 10
1.666788736979166
 20
-2.906032562255859
 30
0.0
 10
1.664103190104166
 20
-2.91667980617947
 30
0.0
 10
1.6624755859375
 20
-2.927232106526692
 30
0.0
 10
1.6624755859375
 20
-2.927232106526692
 30
0.0
 10
1.655531141493055
 20
-2.943915049235025
 30
0.0
 10
1.655531141493055
 20
-2.943915049235025
 30
0.0
 10
1.64565700954861
 20
-2.963527679443359
 30
0.0
 10
1.633965386284722
 20
-2.980590396457248
 30
0.0
 10
1.62832302517361
 20
-2.983587900797525
 30
0.0
 10
1.62832302517361
 20
-2.983587900797525
 30
0.0
 10
1.627536349826388
 20
-2.983994801839192
 30
0.0
 10
1.627536349826388
 20
-2.983994801839192
 30
0.0
 10
1.627332899305555
 20
-2.982706281873914
 30
0.0
 10
1.627129448784722
 20
-2.980454762776692
 30
0.0
 10
1.627129448784722
 20
-2.976548512776692
 30
0.0
 10
1.627129448784722
 20
-2.973822275797525
 30
0.0
 10
1.628770616319444
 20
-2.964829762776692
 30
0.0
 10
1.632514105902777
 20
-2.95061535305447
 30
0.0
 10
1.632948133680555
 20
-2.948648664686414
 30
0.0
 10
1.633531358506944
 20
-2.946681976318359
 30
0.0
 10
1.63406032986111
 20
-2.944837358262803
 30
0.0
 10
1.634697808159722
 20
-2.942653656005859
 30
0.0
 10
1.63528103298611
 20
-2.940632714165581
 30
0.0
 10
1.635538736979166
 20
-2.939276377360025
 30
0.0
 10
1.636474609375
 20
-2.935614267985025
 30
0.0
 10
1.636935763888888
 20
-2.932264116075303
 30
0.0
 10
1.637708875868055
 20
-2.926255544026692
 30
0.0
 10
1.637708875868055
 20
-2.926255544026692
 30
0.0
 10
1.638536241319444
 20
-2.919460296630859
 30
0.0
 10
1.638536241319444
 20
-2.919460296630859
 30
0.0
 10
1.638536241319444
 20
-2.919460296630859
 30
0.0
 10
1.640028211805555
 20
-2.913912879096137
 30
0.0
 10
1.640028211805555
 20
-2.913912879096137
 30
0.0
 10
1.640340169270833
 20
-2.910359276665581
 30
0.0
 10
1.640435112847222
 20
-2.906941307915581
 30
0.0
 10
1.640516493055555
 20
-2.903591156005859
 30
0.0
 10
1.640584309895833
 20
-2.900498708089192
 30
0.0
 10
1.64065212673611
 20
-2.897487640380859
 30
0.0
 10
1.640923394097222
 20
-2.894612206353081
 30
0.0
 10
1.641276041666666
 20
-2.891723208957248
 30
0.0
 10
1.641289605034722
 20
-2.888250986735025
 30
0.0
 10
1.641289605034722
 20
-2.885361989339192
 30
0.0
 10
1.641289605034722
 20
-2.873494042290581
 30
0.0
 10
1.638848198784722
 20
-2.864243825276692
 30
0.0
 10
1.626315646701388
 20
-2.857367197672525
 30
0.0
 10
1.6231689453125
 20
-2.856024424235025
 30
0.0
 10
1.621351453993055
 20
-2.855753156873914
 30
0.0
 10
1.619574652777777
 20
-2.855753156873914
 30
0.0
 10
1.61343044704861
 20
-2.855753156873914
 30
0.0
 10
1.603325737847222
 20
-2.859320322672525
 30
0.0
 10
1.579562717013888
 20
-2.887111663818359
 30
0.0
 10
1.574476453993055
 20
-2.892943912082248
 30
0.0
 10
1.568318684895833
 20
-2.903998057047525
 30
0.0
 10
1.561781141493055
 20
-2.915771060519748
 30
0.0
 10
1.561781141493055
 20
-2.915771060519748
 30
0.0
 10
1.561225043402777
 20
-2.916774749755859
 30
0.0
 10
1.561225043402777
 20
-2.916774749755859
 30
0.0
 10
1.561225043402777
 20
-2.916774749755859
 30
0.0
 10
1.562798394097222
 20
-2.903414832221137
 30
0.0
 10
1.562798394097222
 20
-2.903414832221137
 30
0.0
 10
1.56298828125
 20
-2.901461707221137
 30
0.0
 10
1.563327365451388
 20
-2.898626963297525
 30
0.0
 10
1.563707139756944
 20
-2.895480261908637
 30
0.0
 10
1.564588758680555
 20
-2.888101789686414
 30
0.0
 10
1.565592447916666
 20
-2.879733191596137
 30
0.0
 10
1.565592447916666
 20
-2.875352223714192
 30
0.0
 10
1.565592447916666
 20
-2.861734602186414
 30
0.0
 10
1.554619683159722
 20
-2.844156477186414
 30
0.0
 10
1.542955186631944
 20
-2.844156477186414
 30
0.0
 10
1.541178385416666
 20
-2.844156477186414
 30
0.0
 10
1.538492838541666
 20
-2.844441307915581
 30
0.0
 10
1.535536024305555
 20
-2.847004784478081
 30
0.0
 10
1.529378255208333
 20
-2.852538638644748
 30
0.0
 10
1.524956597222222
 20
-2.859659406873914
 30
0.0
 10
1.52065700954861
 20
-2.871106889512803
 30
0.0
 10
1.52065700954861
 20
-2.871106889512803
 30
0.0
 10
1.511976453993055
 20
-2.896266937255859
 30
0.0
 10
1.511976453993055
 20
-2.896266937255859
 30
0.0
 10
1.509752061631944
 20
-2.901326073540581
 30
0.0
 10
1.506944444444444
 20
-2.907063378228081
 30
0.0
 10
1.504340277777777
 20
-2.912366655137803
 30
0.0
 10
1.504340277777777
 20
-2.912366655137803
 30
0.0
 10
1.498250325520833
 20
-2.925170474582248
 30
0.0
 10
1.498250325520833
 20
-2.925170474582248
 30
0.0
 10
1.497233072916666
 20
-2.926947275797525
 30
0.0
 10
1.496202256944444
 20
-2.928737640380859
 30
0.0
 10
1.49502224392361
 20
-2.931029849582248
 30
0.0
 10
1.488362630208333
 20
-2.946003807915581
 30
0.0
 10
1.47512478298611
 20
-2.968044281005859
 30
0.0
 10
1.470987955729166
 20
-2.971421559651692
 30
0.0
 10
1.470770941840277
 20
-2.968736012776692
 30
0.0
 10
1.470770941840277
 20
-2.964463551839192
 30
0.0
 10
1.470770941840277
 20
-2.962320539686414
 30
0.0
 10
1.470770941840277
 20
-2.95073742336697
 30
0.0
 10
1.477756076388888
 20
-2.922335730658637
 30
0.0
 10
1.480753580729166
 20
-2.910115136040581
 30
0.0
 10
1.485880533854166
 20
-2.887939029269748
 30
0.0
 10
1.486857096354166
 20
-2.88359875149197
 30
0.0
 10
1.487046983506944
 20
-2.881727006700303
 30
0.0
 10
1.4879150390625
 20
-2.878512488471137
 30
0.0
 10
1.488932291666666
 20
-2.87322277492947
 30
0.0
 10
1.488932291666666
 20
-2.863755544026692
 30
0.0
 10
1.488932291666666
 20
-2.853189680311414
 30
0.0
 10
1.48232693142361
 20
-2.849432627360025
 30
0.0
 10
1.476142035590277
 20
-2.849432627360025
 30
0.0
 10
1.476142035590277
 20
-2.849432627360025
 30
0.0
 10
1.473673502604166
 20
-2.849432627360025
 30
0.0
 10
1.473673502604166
 20
-2.849432627360025
 30
0.0
 10
1.469007703993055
 20
-2.849432627360025
 30
0.0
 10
1.463840060763888
 20
-2.852565765380859
 30
0.0
 10
1.462388780381944
 20
-2.859537336561414
 30
0.0
 10
1.462388780381944
 20
-2.859537336561414
 30
0.0
 10
1.46218532986111
 20
-2.859971364339192
 30
0.0
 10
1.46218532986111
 20
-2.859971364339192
 30
0.0
 10
1.454915364583333
 20
-2.847276051839192
 30
0.0
 10
1.446912977430555
 20
-2.842054155137803
 30
0.0
 10
1.435831705729166
 20
-2.842054155137803
 30
0.0
 10
1.42666286892361
 20
-2.842054155137803
 30
0.0
 10
1.41750759548611
 20
-2.846407996283637
 30
0.0
 10
1.40869140625
 20
-2.855414072672525
 30
0.0
 10
1.40869140625
 20
-2.855414072672525
 30
0.0
 10
1.401665581597222
 20
-2.864989810519748
 30
0.0
 10
1.401665581597222
 20
-2.864989810519748
 30
0.0
 10
1.399875217013888
 20
-2.867037879096137
 30
0.0
 10
1.397284613715277
 20
-2.870130327012803
 30
0.0
 10
1.395548502604166
 20
-2.873127831353081
 30
0.0
 10
1.385457356770833
 20
-2.888576507568359
 30
0.0
 10
1.377278645833333
 20
-2.907592349582248
 30
0.0
 10
1.372477213541666
 20
-2.926743825276692
 30
0.0
 10
1.372477213541666
 20
-2.926743825276692
 30
0.0
 10
1.369588216145833
 20
-2.932345496283637
 30
0.0
 10
1.369588216145833
 20
-2.932345496283637
 30
0.0
 10
1.35976833767361
 20
-2.952053070068359
 30
0.0
 10
1.351264105902777
 20
-2.967840830485025
 30
0.0
 10
1.34426540798611
 20
-2.979369693332248
 30
0.0
 10
1.339491102430555
 20
-2.987548404269748
 30
0.0
 10
1.338053385416666
 20
-2.98943371242947
 30
0.0
 10
1.335869683159722
 20
-2.991400400797525
 30
0.0
 10
1.335367838541666
 20
-2.991956498887803
 30
0.0
 10
1.334662543402777
 20
-2.99272961086697
 30
0.0
 10
1.33388943142361
 20
-2.993570539686414
 30
0.0
 10
1.333808051215277
 20
-2.990640852186414
 30
0.0
 10
1.333808051215277
 20
-2.987182193332248
 30
0.0
 10
1.333808051215277
 20
-2.983926984998914
 30
0.0
 10
1.333808051215277
 20
-2.977294498019748
 30
0.0
 10
1.334526909722222
 20
-2.96965832180447
 30
0.0
 10
1.335286458333333
 20
-2.961574554443359
 30
0.0
 10
1.335286458333333
 20
-2.961574554443359
 30
0.0
 10
1.335923936631944
 20
-2.954589419894748
 30
0.0
 10
1.335923936631944
 20
-2.954589419894748
 30
0.0
 10
1.336859809027777
 20
-2.94548839992947
 30
0.0
 10
1.33779568142361
 20
-2.934773339165581
 30
0.0
 10
1.338121202256944
 20
-2.926648881700303
 30
0.0
 10
1.338446723090277
 20
-2.914062076144748
 30
0.0
 10
1.3402099609375
 20
-2.899006737603081
 30
0.0
 10
1.341145833333333
 20
-2.891004350450303
 30
0.0
 10
1.341145833333333
 20
-2.891004350450303
 30
0.0
 10
1.342217339409722
 20
-2.882757822672525
 30
0.0
 10
1.342217339409722
 20
-2.882757822672525
 30
0.0
 10
1.352959526909722
 20
-2.862494150797525
 30
0.0
 10
1.363850911458333
 20
-2.837591807047525
 30
0.0
 10
1.374498155381944
 20
-2.808986663818359
 30
0.0
 10
1.381930881076388
 20
-2.791286468505859
 30
0.0
 10
1.386474609375
 20
-2.779933929443359
 30
0.0
 10
1.388916015625
 20
-2.772948794894748
 30
0.0
 10
1.388916015625
 20
-2.772948794894748
 30
0.0
 10
1.390435112847222
 20
-2.76787609524197
 30
0.0
 10
1.390435112847222
 20
-2.76787609524197
 30
0.0
 10
1.3939208984375
 20
-2.75627941555447
 30
0.0
 10
1.398247612847222
 20
-2.741915808783637
 30
0.0
 10
1.3984375
 20
-2.73015636867947
 30
0.0
 10
1.401746961805555
 20
-2.715209537082248
 30
0.0
 10
1.403361002604166
 20
-2.702704111735025
 30
0.0
 10
1.403361002604166
 20
-2.691934797498914
 30
0.0
 10
1.403361002604166
 20
-2.682006412082248
 30
0.0
 10
1.403361002604166
 20
-2.65178722805447
 30
0.0
 10
1.383802625868055
 20
-2.65178722805447
 30
0.0
 10
1.38003200954861
 20
-2.65178722805447
 30
0.0
 10
1.3780517578125
 20
-2.653726789686414
 30
0.0
 10
1.374565972222222
 20
-2.657253265380859
 30
0.0
 10
1.367662217881944
 20
-2.662122514512803
 30
0.0
 10
1.363606770833333
 20
-2.670667436387803
 30
0.0
 10
1.359686957465277
 20
-2.678927527533637
 30
0.0
 10
1.34145779079861
 20
-2.717298295762803
 30
0.0
 10
1.330078125
 20
-2.752956390380859
 30
0.0
 10
1.322767469618055
 20
-2.794718000623914
 30
0.0
 10
1.321533203125
 20
-2.802733951144748
 30
0.0
 10
1.320109049479166
 20
-2.810437944200303
 30
0.0
 10
1.31863064236111
 20
-2.818331824408637
 30
0.0
 10
1.31863064236111
 20
-2.818331824408637
 30
0.0
 10
1.317586263020833
 20
-2.824001312255859
 30
0.0
 10
1.317586263020833
 20
-2.824001312255859
 30
0.0
 10
1.313883463541666
 20
-2.843858083089192
 30
0.0
 10
1.30959743923611
 20
-2.868055131700303
 30
0.0
 10
1.305704752604166
 20
-2.897324879964192
 30
0.0
 10
1.30224609375
 20
-2.903455522325303
 30
0.0
 10
1.29739040798611
 20
-2.913546668158637
 30
0.0
 10
1.289415147569444
 20
-2.931029849582248
 30
0.0
 10
1.282755533854166
 20
-2.946017371283637
 30
0.0
 10
1.269517686631944
 20
-2.968057844373914
 30
0.0
 10
1.265380859375
 20
-2.971421559651692
 30
0.0
 10
1.26516384548611
 20
-2.968736012776692
 30
0.0
 10
1.26516384548611
 20
-2.964463551839192
 30
0.0
 10
1.26516384548611
 20
-2.962320539686414
 30
0.0
 10
1.26516384548611
 20
-2.95073742336697
 30
0.0
 10
1.272148980034722
 20
-2.922335730658637
 30
0.0
 10
1.275146484375
 20
-2.910115136040581
 30
0.0
 10
1.2802734375
 20
-2.887939029269748
 30
0.0
 10
1.28125
 20
-2.88359875149197
 30
0.0
 10
1.281439887152777
 20
-2.881727006700303
 30
0.0
 10
1.282307942708333
 20
-2.878512488471137
 30
0.0
 10
1.2833251953125
 20
-2.87322277492947
 30
0.0
 10
1.2833251953125
 20
-2.863755544026692
 30
0.0
 10
1.2833251953125
 20
-2.853189680311414
 30
0.0
 10
1.276719835069444
 20
-2.849432627360025
 30
0.0
 10
1.27053493923611
 20
-2.849432627360025
 30
0.0
 10
1.27053493923611
 20
-2.849432627360025
 30
0.0
 10
1.26806640625
 20
-2.849432627360025
 30
0.0
 10
1.26806640625
 20
-2.849432627360025
 30
0.0
 10
1.263400607638888
 20
-2.849432627360025
 30
0.0
 10
1.258232964409722
 20
-2.852565765380859
 30
0.0
 10
1.256781684027777
 20
-2.859537336561414
 30
0.0
 10
1.256781684027777
 20
-2.859537336561414
 30
0.0
 10
1.256578233506944
 20
-2.859971364339192
 30
0.0
 10
1.256578233506944
 20
-2.859971364339192
 30
0.0
 10
1.249308268229166
 20
-2.847276051839192
 30
0.0
 10
1.241305881076388
 20
-2.842054155137803
 30
0.0
 10
1.230224609375
 20
-2.842054155137803
 30
0.0
 10
1.221055772569444
 20
-2.842054155137803
 30
0.0
 10
1.211900499131944
 20
-2.846407996283637
 30
0.0
 10
1.203084309895833
 20
-2.855414072672525
 30
0.0
 10
1.203084309895833
 20
-2.855414072672525
 30
0.0
 10
1.196058485243055
 20
-2.864989810519748
 30
0.0
 10
1.196058485243055
 20
-2.864989810519748
 30
0.0
 10
1.194268120659722
 20
-2.867037879096137
 30
0.0
 10
1.19167751736111
 20
-2.870130327012803
 30
0.0
 10
1.18994140625
 20
-2.873127831353081
 30
0.0
 10
1.180257161458333
 20
-2.887966156005859
 30
0.0
 10
1.172281901041666
 20
-2.906263139512803
 30
0.0
 10
1.167412651909722
 20
-2.924763573540581
 30
0.0
 10
1.148451063368055
 20
-2.954969194200303
 30
0.0
 10
1.134006076388888
 20
-2.961167653401692
 30
0.0
 10
1.118150499131944
 20
-2.961167653401692
 30
0.0
 10
1.111314561631944
 20
-2.961167653401692
 30
0.0
 10
1.104790581597222
 20
-2.959065331353081
 30
0.0
 10
1.096828884548611
 20
-2.955796559651692
 30
0.0
 10
1.096828884548611
 20
-2.955796559651692
 30
0.0
 10
1.091023763020833
 20
-2.953639984130859
 30
0.0
 10
1.091023763020833
 20
-2.953639984130859
 30
0.0
 10
1.0841064453125
 20
-2.951049380832248
 30
0.0
 10
1.078633626302083
 20
-2.949001312255859
 30
0.0
 10
1.07196044921875
 20
-2.948038313123914
 30
0.0
 10
1.07196044921875
 20
-2.948038313123914
 30
0.0
 10
1.069342719184027
 20
-2.94768566555447
 30
0.0
 10
1.069342719184027
 20
-2.94768566555447
 30
0.0
 10
1.068033854166666
 20
-2.947495778401692
 30
0.0
 10
1.066616482204861
 20
-2.947292327880859
 30
0.0
 10
1.065144856770833
 20
-2.947116004096137
 30
0.0
 10
1.066630045572916
 20
-2.942857106526692
 30
0.0
 10
1.068115234375
 20
-2.938693152533637
 30
0.0
 10
1.069580078125
 20
-2.934569888644748
 30
0.0
 10
1.073343912760416
 20
-2.924031151665581
 30
0.0
 10
1.076992458767361
 20
-2.913790808783637
 30
0.0
 10
1.080179850260416
 20
-2.903170691596137
 30
0.0
 10
1.080179850260416
 20
-2.903170691596137
 30
0.0
 10
1.080471462673611
 20
-2.90117687649197
 30
0.0
 10
1.080471462673611
 20
-2.90117687649197
 30
0.0
 10
1.080471462673611
 20
-2.900363074408637
 30
0.0
 10
1.080600314670138
 20
-2.899264441596137
 30
0.0
 10
1.080722384982638
 20
-2.898111555311414
 30
0.0
 10
1.08087158203125
 20
-2.896633148193359
 30
0.0
 10
1.081020779079861
 20
-2.895086924235025
 30
0.0
 10
1.081075032552083
 20
-2.893703460693359
 30
0.0
 10
1.087605794270833
 20
-2.868394215901692
 30
0.0
 10
1.094061957465277
 20
-2.839070214165581
 30
0.0
 10
1.099351671006944
 20
-2.810790591769748
 30
0.0
 10
1.107381184895833
 20
-2.802883148193359
 30
0.0
 10
1.117933485243055
 20
-2.791652679443359
 30
0.0
 10
1.125094943576388
 20
-2.782199011908637
 30
0.0
 10
1.128431532118055
 20
-2.778035057915581
 30
0.0
 10
1.129842122395833
 20
-2.775010426839192
 30
0.0
 10
1.131076388888888
 20
-2.772338443332248
 30
0.0
 10
1.131076388888888
 20
-2.772338443332248
 30
0.0
 10
1.131822374131944
 20
-2.770765092637803
 30
0.0
 10
1.131822374131944
 20
-2.770765092637803
 30
0.0
 10
1.132975260416666
 20
-2.768310123019748
 30
0.0
 10
1.134128146701388
 20
-2.765855153401692
 30
0.0
 10
1.137220594618055
 20
-2.760809580485025
 30
0.0
 10
1.149278428819444
 20
-2.747056325276692
 30
0.0
 10
1.158026801215277
 20
-2.721625010172525
 30
0.0
 10
1.158026801215277
 20
-2.700357649061414
 30
0.0
 10
1.158026801215277
 20
-2.676214853922525
 30
0.0
 10
1.1480712890625
 20
-2.66179699367947
 30
0.0
 10
1.131388346354166
 20
-2.66179699367947
 30
0.0
 10
1.12136501736111
 20
-2.66179699367947
 30
0.0
 10
1.106621636284722
 20
-2.667805565728081
 30
0.0
 10
1.094075520833333
 20
-2.695217132568359
 30
0.0
 10
1.091118706597222
 20
-2.699286142985025
 30
0.0
 10
1.090779622395833
 20
-2.703246646457248
 30
0.0
 10
1.090562608506944
 20
-2.70586437649197
 30
0.0
 10
1.090508355034722
 20
-2.706406911214192
 30
0.0
 10
1.090508355034722
 20
-2.706922319200303
 30
0.0
 10
1.090576171875
 20
-2.707708994547525
 30
0.0
 10
1.090576171875
 20
-2.707708994547525
 30
0.0
 10
1.088189019097222
 20
-2.710964202880859
 30
0.0
 10
1.088189019097222
 20
-2.710964202880859
 30
0.0
 10
1.0870361328125
 20
-2.71282238430447
 30
0.0
 10
1.085734049479166
 20
-2.714924706353081
 30
0.0
 10
1.085150824652777
 20
-2.716986338297525
 30
0.0
 10
1.080084906684027
 20
-2.731105804443359
 30
0.0
 10
1.075615776909722
 20
-2.747775183783637
 30
0.0
 10
1.064161512586805
 20
-2.803452809651692
 30
0.0
 10
1.055494520399305
 20
-2.810193803575303
 30
0.0
 10
1.049099392361111
 20
-2.815388573540581
 30
0.0
 10
1.043965657552083
 20
-2.819566090901692
 30
0.0
 10
1.035007052951388
 20
-2.826849619547525
 30
0.0
 10
1.030063205295138
 20
-2.830850813123914
 30
0.0
 10
1.022555881076388
 20
-2.835286034478081
 30
0.0
 10
1.021192762586805
 20
-2.836452484130859
 30
0.0
 10
1.019877115885416
 20
-2.837795257568359
 30
0.0
 10
1.018276638454861
 20
-2.839436425103081
 30
0.0
 10
1.016337076822916
 20
-2.841430240207248
 30
0.0
 10
1.013902452256944
 20
-2.843953026665581
 30
0.0
 10
1.010111490885416
 20
-2.847262488471137
 30
0.0
 10
1.005927191840277
 20
-2.849310557047525
 30
0.0
 10
1.003811306423611
 20
-2.853433820936414
 30
0.0
 10
1.003811306423611
 20
-2.859537336561414
 30
0.0
 10
1.003811306423611
 20
-2.865952809651692
 30
0.0
 10
1.007256401909722
 20
-2.872802310519748
 30
0.0
 10
1.016913519965277
 20
-2.872802310519748
 30
0.0
 10
1.016913519965277
 20
-2.872802310519748
 30
0.0
 10
1.019158257378472
 20
-2.872802310519748
 30
0.0
 10
1.019158257378472
 20
-2.872802310519748
 30
0.0
 10
1.019158257378472
 20
-2.872802310519748
 30
0.0
 10
1.026462131076388
 20
-2.867471906873914
 30
0.0
 10
1.026462131076388
 20
-2.867471906873914
 30
0.0
 10
1.030626085069444
 20
-2.864406585693359
 30
0.0
 10
1.035020616319444
 20
-2.861164940728081
 30
0.0
 10
1.040059407552083
 20
-2.857774098714192
 30
0.0
 10
1.042344835069444
 20
-2.856119367811414
 30
0.0
 10
1.044833713107638
 20
-2.854383256700303
 30
0.0
 10
1.0474853515625
 20
-2.852525075276692
 30
0.0
 10
1.049567328559027
 20
-2.851060231526692
 30
0.0
 10
1.051737467447916
 20
-2.84954113430447
 30
0.0
 10
1.053982204861111
 20
-2.847940656873914
 30
0.0
 10
1.049235026041666
 20
-2.86687511867947
 30
0.0
 10
1.046746148003472
 20
-2.877223968505859
 30
0.0
 10
1.044603135850694
 20
-2.886989593505859
 30
0.0
 10
1.0413818359375
 20
-2.901271820068359
 30
0.0
 10
1.03759765625
 20
-2.915025075276692
 30
0.0
 10
1.030056423611111
 20
-2.942409515380859
 30
0.0
 10
1.030056423611111
 20
-2.942409515380859
 30
0.0
 10
1.027852376302083
 20
-2.950439029269748
 30
0.0
 10
1.027852376302083
 20
-2.950439029269748
 30
0.0
 10
1.005940755208333
 20
-2.957871754964192
 30
0.0
 10
0.97119140625
 20
-2.983398013644748
 30
0.0
 10
0.97119140625
 20
-3.009751637776692
 30
0.0
 10
0.97119140625
 20
-3.017740461561414
 30
0.0
 10
0.9910481770833332
 20
-3.043578677707248
 30
0.0
 10
1.001220703125
 20
-3.043578677707248
 30
0.0
 10
1.02838134765625
 20
-3.043578677707248
 30
0.0
 10
1.04461669921875
 20
-3.009127722846137
 30
0.0
 10
1.055759006076388
 20
-2.976968977186414
 30
0.0
 10
1.0635986328125
 20
-2.979274749755859
 30
0.0
 10
1.071906195746527
 20
-2.985975053575303
 30
0.0
 10
1.083428276909722
 20
-2.995265960693359
 30
0.0
 10
1.083428276909722
 20
-2.995265960693359
 30
0.0
 10
1.097317165798611
 20
-3.005845387776692
 30
0.0
 10
1.097317165798611
 20
-3.005845387776692
 30
0.0
 10
1.102891710069444
 20
-3.008870018853081
 30
0.0
 10
1.109537760416666
 20
-3.011948903401692
 30
0.0
 10
1.116617838541666
 20
-3.011948903401692
 30
0.0
 10
1.122287326388888
 20
-3.011948903401692
 30
0.0
 10
1.128377278645833
 20
-3.010863833957248
 30
0.0
 10
1.133409288194444
 20
-3.009019215901692
 30
0.0
 10
1.133409288194444
 20
-3.009019215901692
 30
0.0
 10
1.13818359375
 20
-3.007554372151692
 30
0.0
 10
1.13818359375
 20
-3.007554372151692
 30
0.0
 10
1.146769205729166
 20
-3.005560557047525
 30
0.0
 10
1.153171115451388
 20
-2.998385535346137
 30
0.0
 10
1.162448459201388
 20
-2.983628590901692
 30
0.0
 10
1.162651909722222
 20
-2.985975053575303
 30
0.0
 10
1.162923177083333
 20
-2.988348642985025
 30
0.0
 10
1.163248697916666
 20
-2.990613725450303
 30
0.0
 10
1.164320203993055
 20
-2.994330088297525
 30
0.0
 10
1.166788736979166
 20
-2.999389224582248
 30
0.0
 10
1.169053819444444
 20
-3.002237531873914
 30
0.0
 10
1.169108072916666
 20
-3.002318912082248
 30
0.0
 10
1.169637044270833
 20
-3.00310558742947
 30
0.0
 10
1.170477973090277
 20
-3.004773881700303
 30
0.0
 10
1.172336154513888
 20
-3.014186859130859
 30
0.0
 10
1.17822265625
 20
-3.01616711086697
 30
0.0
 10
1.182834201388888
 20
-3.01616711086697
 30
0.0
 10
1.18691677517361
 20
-3.01616711086697
 30
0.0
 10
1.191392686631944
 20
-3.014105478922525
 30
0.0
 10
1.196967230902777
 20
-3.011202918158637
 30
0.0
 10
1.203016493055555
 20
-3.009900834825303
 30
0.0
 10
1.208319769965277
 20
-3.002915700276692
 30
0.0
 10
1.217298719618055
 20
-2.988633473714192
 30
0.0
 10
1.218817816840277
 20
-2.986612531873914
 30
0.0
 10
1.220255533854166
 20
-2.984320322672525
 30
0.0
 10
1.221693250868055
 20
-2.982000986735025
 30
0.0
 10
1.222873263888888
 20
-2.980088551839192
 30
0.0
 10
1.224053276909722
 20
-2.978176116943359
 30
0.0
 10
1.22561306423611
 20
-2.976060231526692
 30
0.0
 10
1.227701822916666
 20
-2.972791459825303
 30
0.0
 10
1.22976345486111
 20
-2.969468434651692
 30
0.0
 10
1.231892903645833
 20
-2.965914832221137
 30
0.0
 10
1.231892903645833
 20
-2.965941958957248
 30
0.0
 10
1.231892903645833
 20
-2.965982649061414
 30
0.0
 10
1.231892903645833
 20
-2.966009775797525
 30
0.0
 10
1.231892903645833
 20
-2.982557084825303
 30
0.0
 10
1.2320556640625
 20
-2.985690222846137
 30
0.0
 10
1.237860785590277
 20
-2.999674055311414
 30
0.0
 10
1.24148220486111
 20
-3.006916893853081
 30
0.0
 10
1.252644856770833
 20
-3.009846581353081
 30
0.0
 10
1.256686740451388
 20
-3.009846581353081
 30
0.0
 10
1.267076280381944
 20
-3.009846581353081
 30
0.0
 10
1.279513888888888
 20
-2.994872623019748
 30
0.0
 10
1.283203125
 20
-2.990125444200303
 30
0.0
 10
1.288981119791666
 20
-2.98223156399197
 30
0.0
 10
1.293918185763888
 20
-2.974825965033637
 30
0.0
 10
1.298882378472222
 20
-2.966593000623914
 30
0.0
 10
1.298719618055555
 20
-2.971258799235025
 30
0.0
 10
1.298692491319444
 20
-2.974839528401692
 30
0.0
 10
1.298692491319444
 20
-2.977077484130859
 30
0.0
 10
1.298692491319444
 20
-3.024630652533637
 30
0.0
 10
1.312513563368055
 20
-3.034613291422525
 30
0.0
 10
1.3240966796875
 20
-3.034613291422525
 30
0.0
 10
1.328653971354166
 20
-3.034613291422525
 30
0.0
 10
1.333197699652777
 20
-3.033094194200303
 30
0.0
 10
1.337632921006944
 20
-3.030096689860025
 30
0.0
 10
1.34328884548611
 20
-3.027506086561414
 30
0.0
 10
1.34716796875
 20
-3.021551767985025
 30
0.0
 10
1.35061306423611
 20
-3.016275617811414
 30
0.0
 10
1.351657443576388
 20
-3.014675140380859
 30
0.0
 10
1.352647569444444
 20
-3.013128916422525
 30
0.0
 10
1.353474934895833
 20
-3.012043846978081
 30
0.0
 10
1.355997721354166
 20
-3.00896496242947
 30
0.0
 10
1.35866970486111
 20
-3.004882388644748
 30
0.0
 10
1.362196180555555
 20
-2.998724619547525
 30
0.0
 10
1.362196180555555
 20
-2.998724619547525
 30
0.0
 10
1.364203559027777
 20
-2.996201833089192
 30
0.0
 10
1.364203559027777
 20
-2.996201833089192
 30
0.0
 10
1.365695529513888
 20
-2.994343651665581
 30
0.0
 10
1.367282443576388
 20
-2.99236339992947
 30
0.0
 10
1.368787977430555
 20
-2.990233951144748
 30
0.0
 10
1.368815104166666
 20
-2.990356021457248
 30
0.0
 10
1.368828667534722
 20
-2.990491655137803
 30
0.0
 10
1.368855794270833
 20
-2.990613725450303
 30
0.0
 10
1.369927300347222
 20
-2.994330088297525
 30
0.0
 10
1.372395833333333
 20
-2.999389224582248
 30
0.0
 10
1.37466091579861
 20
-3.002237531873914
 30
0.0
 10
1.374715169270833
 20
-3.002318912082248
 30
0.0
 10
1.375244140625
 20
-3.00310558742947
 30
0.0
 10
1.376085069444444
 20
-3.004773881700303
 30
0.0
 10
1.377943250868055
 20
-3.014186859130859
 30
0.0
 10
1.383829752604166
 20
-3.01616711086697
 30
0.0
 10
1.388441297743055
 20
-3.01616711086697
 30
0.0
 10
1.392537434895833
 20
-3.01616711086697
 30
0.0
 10
1.397013346354166
 20
-3.01409191555447
 30
0.0
 10
1.402574327256944
 20
-3.011202918158637
 30
0.0
 10
1.408623589409722
 20
-3.009900834825303
 30
0.0
 10
1.4139404296875
 20
-3.002902136908637
 30
0.0
 10
1.422919379340277
 20
-2.988619910346137
 30
0.0
 10
1.424411349826388
 20
-2.98662609524197
 30
0.0
 10
1.425835503472222
 20
-2.984347449408637
 30
0.0
 10
1.427259657118055
 20
-2.982055240207248
 30
0.0
 10
1.428453233506944
 20
-2.980129241943359
 30
0.0
 10
1.429646809895833
 20
-2.978189680311414
 30
0.0
 10
1.431220160590277
 20
-2.976060231526692
 30
0.0
 10
1.433308919270833
 20
-2.972791459825303
 30
0.0
 10
1.435370551215277
 20
-2.969468434651692
 30
0.0
 10
1.4375
 20
-2.965901268853081
 30
0.0
 10
1.4375
 20
-2.965941958957248
 30
0.0
 10
1.4375
 20
-2.965982649061414
 30
0.0
 10
1.4375
 20
-2.966009775797525
 30
0.0
 10
1.4375
 20
-2.982557084825303
 30
0.0
 10
1.437662760416666
 20
-2.985690222846137
 30
0.0
 10
1.443467881944444
 20
-2.99968761867947
 30
0.0
 10
1.447102864583333
 20
-3.006930457221137
 30
0.0
 10
1.458251953125
 20
-3.009846581353081
 30
0.0
 10
1.462293836805555
 20
-3.009846581353081
 30
0.0
 10
1.47268337673611
 20
-3.009846581353081
 30
0.0
 10
1.485120985243055
 20
-2.994872623019748
 30
0.0
 10
1.488810221354166
 20
-2.990125444200303
 30
0.0
 10
1.4969482421875
 20
-2.979003482394748
 30
0.0
 10
1.503431532118055
 20
-2.968858083089192
 30
0.0
 10
1.510633680555555
 20
-2.95598644680447
 30
0.0
 10
1.5115966796875
 20
-2.954087575276692
 30
0.0
 10
1.512613932291666
 20
-2.951944563123914
 30
0.0
 10
1.51369900173611
 20
-2.94963879055447
 30
0.0
 10
1.51369900173611
 20
-2.94963879055447
 30
0.0
 10
1.516045464409722
 20
-2.944674597846137
 30
0.0
 10
1.516045464409722
 20
-2.944674597846137
 30
0.0
 10
1.520562065972222
 20
-2.93694347805447
 30
0.0
 10
1.52273220486111
 20
-2.932684580485025
 30
0.0
 10
1.524251302083333
 20
-2.929565005832248
 30
0.0
 10
1.525743272569444
 20
-2.926553938123914
 30
0.0
 10
1.527316623263888
 20
-2.923366546630859
 30
0.0
 10
1.528971354166666
 20
-2.919907887776692
 30
0.0
 10
1.52883572048611
 20
-2.921033647325303
 30
0.0
 10
1.528727213541666
 20
-2.922105153401692
 30
0.0
 10
1.528659396701388
 20
-2.923041025797525
 30
0.0
 10
1.52627224392361
 20
-2.943562401665581
 30
0.0
 10
1.519476996527777
 20
-2.964612748887803
 30
0.0
 10
1.513197157118055
 20
-2.983045366075303
 30
0.0
 10
1.5126953125
 20
-2.984781477186414
 30
0.0
 10
1.511393229166666
 20
-2.99004406399197
 30
0.0
 10
1.511393229166666
 20
-2.993407779269748
 30
0.0
 10
1.511393229166666
 20
-3.005953894721137
 30
0.0
 10
1.5189208984375
 20
-3.01616711086697
 30
0.0
 10
1.528184678819444
 20
-3.01616711086697
 30
0.0
 10
1.538153754340277
 20
-3.01616711086697
 30
0.0
 10
1.541422526041666
 20
-3.005764007568359
 30
0.0
 10
1.542412651909722
 20
-3.002603742811414
 30
0.0
 10
1.546468098958333
 20
-2.991332583957248
 30
0.0
 10
1.550265842013888
 20
-2.982991112603081
 30
0.0
 10
1.553955078125
 20
-2.97722668117947
 30
0.0
 10
1.559800889756944
 20
-2.96843761867947
 30
0.0
 10
1.562540690104166
 20
-2.963473425971137
 30
0.0
 10
1.56472439236111
 20
-2.959512922498914
 30
0.0
 10
1.56472439236111
 20
-2.959512922498914
 30
0.0
 10
1.567030164930555
 20
-2.955362531873914
 30
0.0
 10
1.567030164930555
 20
-2.955362531873914
 30
0.0
 10
1.570258246527777
 20
-2.948811425103081
 30
0.0
 10
1.582004123263888
 20
-2.930270300971137
 30
0.0
 10
1.592976888020833
 20
-2.915147145589192
 30
0.0
 10
1.600382486979166
 20
-2.904459211561414
 30
0.0
 10
1.6048583984375
 20
-2.90142101711697
 30
0.0
 10
1.606770833333333
 20
-2.900552961561414
 30
0.0
 10
1.606784396701388
 20
-2.900892045762803
 30
0.0
 10
1.606784396701388
 20
-2.901285383436414
 30
0.0
 10
1.606784396701388
 20
-2.901705847846137
 30
0.0
 10
1.606784396701388
 20
-2.904025183783637
 30
0.0
 10
1.606377495659722
 20
-2.908663855658637
 30
0.0
 10
1.604505750868055
 20
-2.917480044894748
 30
0.0
 10
1.604505750868055
 20
-2.917480044894748
 30
0.0
 10
1.60024685329861
 20
-2.935207366943359
 30
0.0
 10
1.60024685329861
 20
-2.935207366943359
 30
0.0
 10
1.596611870659722
 20
-2.948797861735025
 30
0.0
 10
1.593248155381944
 20
-2.963392045762803
 30
0.0
 10
1.593248155381944
 20
-2.978121863471137
 30
0.0
 10
1.593248155381944
 20
-3.008313920762803
 30
0.0
 10
1.607123480902777
 20
-3.024603525797525
 30
0.0
 10
1.620185004340277
 20
-3.024603525797525
 30
0.0
 10
1.620185004340277
 20
-3.024603525797525
 30
0.0
 10
1.623060438368055
 20
-3.024603525797525
 30
0.0
 10
1.623060438368055
 20
-3.024603525797525
 30
0.0
 10
1.623060438368055
 20
-3.024603525797525
 30
0.0
 10
1.62746853298611
 20
-3.02019543117947
 30
0.0
 10
1.62746853298611
 20
-3.02019543117947
 30
0.0
 10
1.639973958333333
 20
-3.016397688123914
 30
0.0
 10
1.652289496527777
 20
-3.003824445936414
 30
0.0
 10
1.663302951388888
 20
-2.983587900797525
 30
0.0
 10
1.666965060763888
 20
-2.99468273586697
 30
0.0
 10
1.673556857638888
 20
-3.002997080485025
 30
0.0
 10
1.683308919270833
 20
-3.002997080485025
 30
0.0
 10
1.68798828125
 20
-3.002997080485025
 30
0.0
 10
1.691121419270833
 20
-3.000148773193359
 30
0.0
 10
1.6929931640625
 20
-2.998453352186414
 30
0.0
 10
1.693400065104166
 20
-2.99810070461697
 30
0.0
 10
1.693779839409722
 20
-2.99773449367947
 30
0.0
 10
1.694186740451388
 20
-2.997436099582248
 30
0.0
 10
1.694186740451388
 20
-2.997436099582248
 30
0.0
 10
1.70046657986111
 20
-2.992810991075303
 30
0.0
 10
1.70046657986111
 20
-2.992810991075303
 30
0.0
 10
1.703748914930555
 20
-2.990573035346137
 30
0.0
 10
1.709825303819444
 20
-2.98613781399197
 30
0.0
 10
1.714002821180555
 20
-2.98137707180447
 30
0.0
 10
1.721978081597222
 20
-2.97124523586697
 30
0.0
 10
1.728610568576388
 20
-2.959214528401692
 30
0.0
 10
1.735514322916666
 20
-2.945786794026692
 30
0.0
 10
1.734971788194444
 20
-2.948377397325303
 30
0.0
 10
1.734442816840277
 20
-2.950805240207248
 30
0.0
 10
1.73391384548611
 20
-2.953205956353081
 30
0.0
 10
1.733140733506944
 20
-2.956705305311414
 30
0.0
 10
1.732367621527777
 20
-2.960204654269748
 30
0.0
 10
1.731540256076388
 20
-2.964341481526692
 30
0.0
 10
1.729682074652777
 20
-2.975504133436414
 30
0.0
 10
1.728529188368055
 20
-2.981458452012803
 30
0.0
 10
1.72768825954861
 20
-2.985513899061414
 30
0.0
 10
1.711669921875
 20
-2.993787553575303
 30
0.0
 10
1.700154622395833
 20
-3.005574120415581
 30
0.0
 10
1.690890842013888
 20
-3.015746646457248
 30
0.0
 10
1.685234917534722
 20
-3.021022796630859
 30
0.0
 10
1.674723307291666
 20
-3.030829111735025
 30
0.0
 10
1.66933865017361
 20
-3.043158213297525
 30
0.0
 10
1.660617404513888
 20
-3.061712900797525
 30
0.0
 10
1.65237087673611
 20
-3.079223208957248
 30
0.0
 10
1.65237087673611
 20
-3.109889984130859
 30
0.0
 10
1.65237087673611
 20
-3.116074879964192
 30
0.0
 10
1.653727213541666
 20
-3.120740678575303
 30
0.0
 10
1.656019422743055
 20
-3.126586490207248
 30
0.0
 10
1.656019422743055
 20
-3.126586490207248
 30
0.0
 10
1.659776475694444
 20
-3.13945812649197
 30
0.0
 10
1.659776475694444
 20
-3.13945812649197
 30
0.0
 10
1.660359700520833
 20
-3.141221364339192
 30
0.0
 10
1.672322591145833
 20
-3.165323469373914
 30
0.0
 10
1.68301052517361
 20
-3.165323469373914
 30
0.0
 10
1.690592447916666
 20
-3.165323469373914
 30
0.0
 10
1.69717068142361
 20
-3.159097883436414
 30
0.0
 10
1.705281575520833
 20
-3.149088117811414
 30
0.0
 10
1.715955946180555
 20
-3.136148664686414
 30
0.0
 10
1.72842068142361
 20
-3.111910925971137
 30
0.0
 10
1.733696831597222
 20
-3.093817392985025
 30
0.0
 10
1.736124674479166
 20
-3.085041893853081
 30
0.0
 10
1.738566080729166
 20
-3.078328026665581
 30
0.0
 10
1.741943359375
 20
-3.069009992811414
 30
0.0
 10
1.741943359375
 20
-3.069009992811414
 30
0.0
 10
1.743082682291666
 20
-3.065863291422525
 30
0.0
 10
1.743082682291666
 20
-3.065863291422525
 30
0.0
 10
1.745903862847222
 20
-3.058010101318359
 30
0.0
 10
1.747897677951388
 20
-3.049560123019748
 30
0.0
 10
1.749498155381944
 20
-3.04229015774197
 30
0.0
 10
1.749498155381944
 20
-3.04229015774197
 30
0.0
 10
1.757459852430555
 20
-3.004773881700303
 30
0.0
 10
1.757459852430555
 20
-3.004773881700303
 30
0.0
 10
1.767469618055555
 20
-2.998900943332248
 30
0.0
 10
1.776665581597222
 20
-2.990884992811414
 30
0.0
 10
1.785210503472222
 20
-2.980536142985025
 30
0.0
 10
1.78542751736111
 20
-2.983859168158637
 30
0.0
 10
1.7857666015625
 20
-2.987344953748914
 30
0.0
 10
1.786241319444444
 20
-2.990613725450303
 30
0.0
 10
1.787312825520833
 20
-2.994330088297525
 30
0.0
 10
1.789781358506944
 20
-2.999389224582248
 30
0.0
 10
1.792046440972222
 20
-3.002237531873914
 30
0.0
 10
1.792100694444444
 20
-3.002318912082248
 30
0.0
 10
1.79262966579861
 20
-3.00310558742947
 30
0.0
 10
1.793470594618055
 20
-3.004773881700303
 30
0.0
 10
1.795328776041666
 20
-3.014186859130859
 30
0.0
 10
1.801215277777777
 20
-3.01616711086697
 30
0.0
 10
1.805826822916666
 20
-3.01616711086697
 30
0.0
 10
1.809909396701388
 20
-3.01616711086697
 30
0.0
 10
1.814385308159722
 20
-3.014105478922525
 30
0.0
 10
1.819959852430555
 20
-3.011202918158637
 30
0.0
 10
1.826009114583333
 20
-3.009900834825303
 30
0.0
 10
1.831312391493055
 20
-3.002915700276692
 30
0.0
 10
1.840291341145833
 20
-2.988633473714192
 30
0.0
 10
1.841810438368055
 20
-2.986612531873914
 30
0.0
 10
1.843248155381944
 20
-2.984320322672525
 30
0.0
 10
1.844685872395833
 20
-2.982000986735025
 30
0.0
 10
1.845865885416666
 20
-2.980088551839192
 30
0.0
 10
1.8470458984375
 20
-2.978176116943359
 30
0.0
 10
1.848605685763888
 20
-2.976060231526692
 30
0.0
 10
1.850694444444444
 20
-2.972791459825303
 30
0.0
 10
1.852756076388888
 20
-2.969468434651692
 30
0.0
 10
1.85488552517361
 20
-2.965914832221137
 30
0.0
 10
1.85488552517361
 20
-2.965941958957248
 30
0.0
 10
1.85488552517361
 20
-2.965982649061414
 30
0.0
 10
1.85488552517361
 20
-2.966009775797525
 30
0.0
 10
1.85488552517361
 20
-2.982557084825303
 30
0.0
 10
1.855048285590277
 20
-2.985690222846137
 30
0.0
 10
1.860853407118055
 20
-2.999674055311414
 30
0.0
 10
1.864474826388888
 20
-3.006916893853081
 30
0.0
 10
1.87563747829861
 20
-3.009846581353081
 30
0.0
 10
1.879679361979166
 20
-3.009846581353081
 30
0.0
 10
1.890068901909722
 20
-3.009846581353081
 30
0.0
 10
1.902506510416666
 20
-2.994872623019748
 30
0.0
 10
1.906195746527777
 20
-2.990125444200303
 30
0.0
 10
1.91433376736111
 20
-2.979003482394748
 30
0.0
 10
1.920817057291666
 20
-2.968858083089192
 30
0.0
 10
1.928019205729166
 20
-2.95598644680447
 30
0.0
 10
1.929036458333333
 20
-2.954006195068359
 30
0.0
 10
1.930094401041666
 20
-2.951754675971137
 30
0.0
 10
1.931233723958333
 20
-2.949353959825303
 30
0.0
 10
1.931233723958333
 20
-2.949353959825303
 30
0.0
 10
1.932685004340277
 20
-2.946030934651692
 30
0.0
 10
1.932685004340277
 20
-2.946030934651692
 30
0.0
 10
1.933878580729166
 20
-2.944362640380859
 30
0.0
 10
1.934678819444444
 20
-2.942897796630859
 30
0.0
 10
1.934828016493055
 20
-2.942287445068359
 30
0.0
 10
1.934828016493055
 20
-2.942287445068359
 30
0.0
 10
1.941216362847222
 20
-2.929754892985025
 30
0.0
 10
1.941216362847222
 20
-2.929754892985025
 30
0.0
 10
1.943318684895833
 20
-2.925848642985025
 30
0.0
 10
1.9451904296875
 20
-2.922200096978081
 30
0.0
 10
1.94704861111111
 20
-2.918361663818359
 30
0.0
 10
1.94704861111111
 20
-2.918361663818359
 30
0.0
 10
1.946668836805555
 20
-2.920396169026692
 30
0.0
 10
1.946668836805555
 20
-2.920396169026692
 30
0.0
 10
1.946099175347222
 20
-2.925333234998914
 30
0.0
 10
1.945081922743055
 20
-2.929904090033637
 30
0.0
 10
1.94411892361111
 20
-2.934339311387803
 30
0.0
 10
1.9429931640625
 20
-2.939452701144748
 30
0.0
 10
1.94192165798611
 20
-2.944416893853081
 30
0.0
 10
1.941487630208333
 20
-2.94902843899197
 30
0.0
 10
1.941487630208333
 20
-2.94902843899197
 30
0.0
 10
1.937188042534722
 20
-2.974880218505859
 30
0.0
 10
1.937188042534722
 20
-2.974880218505859
 30
0.0
 10
1.93630642361111
 20
-2.980685340033637
 30
0.0
 10
1.935275607638888
 20
-2.987372080485025
 30
0.0
 10
1.93325466579861
 20
-2.996581607394748
 30
0.0
 10
1.93325466579861
 20
-2.996581607394748
 30
0.0
 10
1.932807074652777
 20
-2.998182084825303
 30
0.0
 10
1.932807074652777
 20
-2.998182084825303
 30
0.0
 10
1.932386610243055
 20
-2.999497731526692
 30
0.0
 10
1.931857638888888
 20
-3.001138899061414
 30
0.0
 10
1.931857638888888
 20
-3.003946516248914
 30
0.0
 10
1.931857638888888
 20
-3.018934037950303
 30
0.0
 10
1.939670138888888
 20
-3.025647905137803
 30
0.0
 10
1.94741482204861
 20
-3.025647905137803
 30
0.0
 10
1.957383897569444
 20
-3.025647905137803
 30
0.0
 10
1.960652669270833
 20
-3.015258365207248
 30
0.0
 10
1.961602105034722
 20
-3.012193044026692
 30
0.0
 10
1.961602105034722
 20
-3.012193044026692
 30
0.0
 10
1.966322157118055
 20
-2.999755435519748
 30
0.0
 10
1.966322157118055
 20
-2.999755435519748
 30
0.0
 10
1.96826171875
 20
-2.994628482394748
 30
0.0
 10
1.969943576388888
 20
-2.990193261040581
 30
0.0
 10
1.971544053819444
 20
-2.987453460693359
 30
0.0
 10
1.972724066840277
 20
-2.985459645589192
 30
0.0
 10
1.976006401909722
 20
-2.977294498019748
 30
0.0
 10
1.977471245659722
 20
-2.973523881700303
 30
0.0
 10
1.977471245659722
 20
-2.973523881700303
 30
0.0
 10
1.979790581597222
 20
-2.968424055311414
 30
0.0
 10
1.979790581597222
 20
-2.968424055311414
 30
0.0
 10
1.98135036892361
 20
-2.965046776665581
 30
0.0
 10
1.982883029513888
 20
-2.961655934651692
 30
0.0
 10
1.982964409722222
 20
-2.961072709825303
 30
0.0
 10
1.98476833767361
 20
-2.957953135172525
 30
0.0
 10
1.987250434027777
 20
-2.953165266248914
 30
0.0
 10
1.989542643229166
 20
-2.948702918158637
 30
0.0
 10
1.989542643229166
 20
-2.948702918158637
 30
0.0
 10
1.992133246527777
 20
-2.943711598714192
 30
0.0
 10
1.992133246527777
 20
-2.943711598714192
 30
0.0
 10
2.011054144965277
 20
-2.904513465033637
 30
0.0
 10
2.017252604166666
 20
-2.897121429443359
 30
0.0
 10
2.023952907986111
 20
-2.889132605658637
 30
0.0
 10
2.023952907986111
 20
-2.889132605658637
 30
0.0
 10
2.028781467013888
 20
-2.882947709825303
 30
0.0
 10
2.028781467013888
 20
-2.882947709825303
 30
0.0
 10
2.028781467013888
 20
-2.883042653401692
 30
0.0
 10
2.028781467013888
 20
-2.883151160346137
 30
0.0
 10
2.028781467013888
 20
-2.883259667290581
 30
0.0
 10
2.028781467013888
 20
-2.888712141248914
 30
0.0
 10
2.0283203125
 20
-2.894232432047525
 30
0.0
 10
2.027275933159722
 20
-2.901027679443359
 30
0.0
 10
2.027058919270833
 20
-2.903347015380859
 30
0.0
 10
2.025458441840277
 20
-2.910549163818359
 30
0.0
 10
2.023451063368055
 20
-2.917439354790581
 30
0.0
 10
2.022691514756944
 20
-2.920531802707248
 30
0.0
 10
2.021782769097222
 20
-2.923502180311414
 30
0.0
 10
2.02099609375
 20
-2.926065656873914
 30
0.0
 10
2.020114474826388
 20
-2.928913964165581
 30
0.0
 10
2.019395616319444
 20
-2.931341807047525
 30
0.0
 10
2.01904296875
 20
-2.93315929836697
 30
0.0
 10
2.01904296875
 20
-2.93315929836697
 30
0.0
 10
2.016682942708333
 20
-2.946383582221137
 30
0.0
 10
2.016682942708333
 20
-2.946383582221137
 30
0.0
 10
2.0140380859375
 20
-2.956908755832248
 30
0.0
 10
2.011854383680555
 20
-2.96685070461697
 30
0.0
 10
2.011854383680555
 20
-2.981811099582248
 30
0.0
 10
2.011854383680555
 20
-3.00798839992947
 30
0.0
 10
2.019721137152777
 20
-3.022189246283637
 30
0.0
 10
2.035413953993055
 20
-3.024047427707248
 30
0.0
 10
2.035413953993055
 20
-3.024047427707248
 30
0.0
 10
2.041883680555555
 20
-3.024603525797525
 30
0.0
 10
2.041883680555555
 20
-3.024603525797525
 30
0.0
 10
2.048244900173611
 20
-3.024603525797525
 30
0.0
 10
2.061455620659722
 20
-3.010836707221137
 30
0.0
 10
2.065104166666666
 20
-3.00640148586697
 30
0.0
 10
2.066799587673611
 20
-3.003498925103081
 30
0.0
 10
2.068522135416666
 20
-2.998643239339192
 30
0.0
 10
2.068522135416666
 20
-2.994994693332248
 30
0.0
 10
2.068522135416666
 20
-2.983018239339192
 30
0.0
 10
2.060872395833333
 20
-2.981729719373914
 30
0.0
 10
2.057576497395833
 20
-2.981729719373914
 30
0.0
  0
ENDBLK
  5
A0
330
9D
100
AcDbEntity
  8
0
100
AcDbBlockEnd
  0
ENDSEC
  0
SECTION
  2
ENTITIES
  0
SPLINE
  5
7C
330
70
100
AcDbEntity
  8
Mr&Mrs with Date
100
AcDbSpline
210
0.0
220
0.0
230
1.0
 70
     9
 71
     3
 72
    53
 73
    49
 74
     0
 42
0.0000000001
 43
0.0000000001
 40
0.0
 40
0.0
 40
0.0
 40
0.0
 40
1.0
 40
1.0
 40
1.0
 40
2.0
 40
2.0
 40
2.0
 40
3.0
 40
3.0
 40
3.0
 40
4.0
 40
4.0
 40
4.0
 40
5.0
 40
5.0
 40
5.0
 40
6.0
 40
6.0
 40
6.0
 40
7.0
 40
7.0
 40
7.0
 40
8.0
 40
8.0
 40
8.0
 40
9.0
 40
9.0
 40
9.0
 40
10.0
 40
10.0
 40
10.0
 40
11.0
 40
11.0
 40
11.0
 40
12.0
 40
12.0
 40
12.0
 40
13.0
 40
13.0
 40
13.0
 40
14.0
 40
14.0
 40
14.0
 40
15.0
 40
15.0
 40
15.0
 40
16.0
 40
16.0
 40
16.0
 40
16.0
 10
2.0596923828125
 20
-2.61775165134006
 30
0.0
 10
2.0596923828125
 20
-2.61775165134006
 30
0.0
 10
1.899609035915798
 20
-2.61775165134006
 30
0.0
 10
1.899609035915798
 20
-2.61775165134006
 30
0.0
 10
1.899609035915798
 20
-2.61775165134006
 30
0.0
 10
1.200735304090711
 20
-2.61775165134006
 30
0.0
 10
1.200735304090711
 20
-2.61775165134006
 30
0.0
 10
1.200735304090711
 20
-2.61775165134006
 30
0.0
 10
0.9383968777126735
 20
-2.61775165134006
 30
0.0
 10
0.9383968777126735
 20
-2.61775165134006
 30
0.0
 10
0.9122840033637151
 20
-2.61775165134006
 30
0.0
 10
0.8911158243815103
 20
-2.596583472357855
 30
0.0
 10
0.8911158243815103
 20
-2.570470598008897
 30
0.0
 10
0.8911158243815103
 20
-2.570470598008897
 30
0.0
 10
0.8911158243815103
 20
-2.419176313612195
 30
0.0
 10
0.8911158243815103
 20
-2.419176313612195
 30
0.0
 10
0.8909437391493055
 20
-2.393210940890841
 30
0.0
 10
0.8698721991644964
 20
-2.372206370035807
 30
0.0
 10
0.8438661363389757
 20
-2.372206370035807
 30
0.0
 10
0.8438661363389757
 20
-2.372206370035807
 30
0.0
 10
-0.1173460218641493
 20
-2.372206370035807
 30
0.0
 10
-0.1173460218641493
 20
-2.372206370035807
 30
0.0
 10
-0.1434588962131076
 20
-2.372206370035807
 30
0.0
 10
-0.1646270751953125
 20
-2.393374549018012
 30
0.0
 10
-0.1646270751953125
 20
-2.41948742336697
 30
0.0
 10
-0.1646270751953125
 20
-2.41948742336697
 30
0.0
 10
-0.1646270751953125
 20
-2.665032704671223
 30
0.0
 10
-0.1646270751953125
 20
-2.665032704671223
 30
0.0
 10
-0.1646270751953125
 20
-2.665032704671223
 30
0.0
 10
-0.1646270751953125
 20
-2.711208343505859
 30
0.0
 10
-0.1646270751953125
 20
-2.711208343505859
 30
0.0
 10
-0.1646270751953125
 20
-2.711208343505859
 30
0.0
 10
-0.1646270751953125
 20
-3.184814029269748
 30
0.0
 10
-0.1646270751953125
 20
-3.184814029269748
 30
0.0
 10
-0.1646270751953125
 20
-3.210926903618706
 30
0.0
 10
-0.1434588962131076
 20
-3.232095930311414
 30
0.0
 10
-0.1173460218641493
 20
-3.232095930311414
 30
0.0
 10
-0.1173460218641493
 20
-3.232095930311414
 30
0.0
 10
2.0596923828125
 20
-3.232095930311414
 30
0.0
 10
2.0596923828125
 20
-3.232095930311414
 30
0.0
 10
2.085805257161458
 20
-3.232095930311414
 30
0.0
 10
2.106974283854166
 20
-3.210926903618706
 30
0.0
 10
2.106974283854166
 20
-3.184814029269748
 30
0.0
 10
2.106974283854166
 20
-3.184814029269748
 30
0.0
 10
2.106974283854166
 20
-2.665032704671223
 30
0.0
 10
2.106974283854166
 20
-2.665032704671223
 30
0.0
 10
2.106974283854166
 20
-2.638919830322265
 30
0.0
 10
2.085805257161458
 20
-2.61775165134006
 30
0.0
 10
2.0596923828125
 20
-2.61775165134006
 30
0.0
  0
HATCH
  5
7D
330
70
100
AcDbEntity
  8
Mr&Mrs with Date
 62
    18
420
        0
440
 33554687
100
AcDbHatch
 10
0.0
 20
0.0
 30
0.0
210
0.0
220
0.0
230
1.0
  2
SOLID
 70
     1
 71
     1
 91
        1
 92
        1
 93
        1
 72
     4
 94
        3
 73
     0
 74
     0
 95
       53
 96
       49
 40
0.0
 40
0.0
 40
0.0
 40
0.0
 40
1.0
 40
1.0
 40
1.0
 40
2.0
 40
2.0
 40
2.0
 40
3.0
 40
3.0
 40
3.0
 40
4.0
 40
4.0
 40
4.0
 40
5.0
 40
5.0
 40
5.0
 40
6.0
 40
6.0
 40
6.0
 40
7.0
 40
7.0
 40
7.0
 40
8.0
 40
8.0
 40
8.0
 40
9.0
 40
9.0
 40
9.0
 40
10.0
 40
10.0
 40
10.0
 40
11.0
 40
11.0
 40
11.0
 40
12.0
 40
12.0
 40
12.0
 40
13.0
 40
13.0
 40
13.0
 40
14.0
 40
14.0
 40
14.0
 40
15.0
 40
15.0
 40
15.0
 40
16.0
 40
16.0
 40
16.0
 40
16.0
 10
2.0596923828125
 20
-2.61775165134006
 10
2.0596923828125
 20
-2.61775165134006
 10
1.899609035915798
 20
-2.61775165134006
 10
1.899609035915798
 20
-2.61775165134006
 10
1.899609035915798
 20
-2.61775165134006
 10
1.200735304090711
 20
-2.61775165134006
 10
1.200735304090711
 20
-2.61775165134006
 10
1.200735304090711
 20
-2.61775165134006
 10
0.9383968777126735
 20
-2.61775165134006
 10
0.9383968777126735
 20
-2.61775165134006
 10
0.9122840033637151
 20
-2.61775165134006
 10
0.8911158243815103
 20
-2.596583472357855
 10
0.8911158243815103
 20
-2.570470598008897
 10
0.8911158243815103
 20
-2.570470598008897
 10
0.8911158243815103
 20
-2.419176313612195
 10
0.8911158243815103
 20
-2.419176313612195
 10
0.8909437391493055
 20
-2.393210940890841
 10
0.8698721991644964
 20
-2.372206370035807
 10
0.8438661363389757
 20
-2.372206370035807
 10
0.8438661363389757
 20
-2.372206370035807
 10
-0.1173460218641493
 20
-2.372206370035807
 10
-0.1173460218641493
 20
-2.372206370035807
 10
-0.1434588962131076
 20
-2.372206370035807
 10
-0.1646270751953125
 20
-2.393374549018012
 10
-0.1646270751953125
 20
-2.41948742336697
 10
-0.1646270751953125
 20
-2.41948742336697
 10
-0.1646270751953125
 20
-2.665032704671223
 10
-0.1646270751953125
 20
-2.665032704671223
 10
-0.1646270751953125
 20
-2.665032704671223
 10
-0.1646270751953125
 20
-2.711208343505859
 10
-0.1646270751953125
 20
-2.711208343505859
 10
-0.1646270751953125
 20
-2.711208343505859
 10
-0.1646270751953125
 20
-3.184814029269748
 10
-0.1646270751953125
 20
-3.184814029269748
 10
-0.1646270751953125
 20
-3.210926903618706
 10
-0.1434588962131076
 20
-3.232095930311414
 10
-0.1173460218641493
 20
-3.232095930311414
 10
-0.1173460218641493
 20
-3.232095930311414
 10
2.0596923828125
 20
-3.232095930311414
 10
2.0596923828125
 20
-3.232095930311414
 10
2.085805257161458
 20
-3.232095930311414
 10
2.106974283854166
 20
-3.210926903618706
 10
2.106974283854166
 20
-3.184814029269748
 10
2.106974283854166
 20
-3.184814029269748
 10
2.106974283854166
 20
-2.665032704671223
 10
2.106974283854166
 20
-2.665032704671223
 10
2.106974283854166
 20
-2.638919830322265
 10
2.085805257161458
 20
-2.61775165134006
 10
2.0596923828125
 20
-2.61775165134006
 97
        0
 97
        1
330
7C
 75
     2
 76
     1
 98
        1
 10
0.0
 20
0.0
450
        0
451
        0
460
0.0
461
0.0
452
        0
462
0.0
453
        0
470

  0
INSERT
  5
7F
330
70
100
AcDbEntity
  8
Mr&Mrs with Date
100
AcDbBlockReference
  2
Block_0
 10
0.0
 20
0.0
 30
0.0
  0
SPLINE
  5
87
330
70
100
AcDbEntity
  8
Mr&Mrs with Date
100
AcDbSpline
210
0.0
220
0.0
230
1.0
 70
     9
 71
     3
 72
    29
 73
    25
 74
     0
 42
0.0000000001
 43
0.0000000001
 40
0.0
 40
0.0
 40
0.0
 40
0.0
 40
1.0
 40
1.0
 40
1.0
 40
2.0
 40
2.0
 40
2.0
 40
3.0
 40
3.0
 40
3.0
 40
4.0
 40
4.0
 40
4.0
 40
5.0
 40
5.0
 40
5.0
 40
6.0
 40
6.0
 40
6.0
 40
7.0
 40
7.0
 40
7.0
 40
8.0
 40
8.0
 40
8.0
 40
8.0
 10
2.039598108747011
 20
-0.0603451975836909
 30
0.0
 10
2.039598108747011
 20
-0.0603451975836909
 30
0.0
 10
1.487588652482423
 20
-0.0603451975836909
 30
0.0
 10
1.487588652482423
 20
-0.0603451975836909
 30
0.0
 10
1.461475898353329
 20
-0.0603451975836909
 30
0.0
 10
1.440307328605361
 20
-0.0391766278357358
 30
0.0
 10
1.440307328605361
 20
-0.0130638737066167
 30
0.0
 10
1.440307328605361
 20
-0.0130638737066167
 30
0.0
 10
1.440307328605361
 20
0.1051394359860498
 30
0.0
 10
1.440307328605361
 20
0.1051394359860498
 30
0.0
 10
1.440307328605361
 20
0.1312521901151689
 30
0.0
 10
1.461475898353329
 20
0.152420759863124
 30
0.0
 10
1.487588652482423
 20
0.152420759863124
 30
0.0
 10
1.487588652482423
 20
0.152420759863124
 30
0.0
 10
2.039598108747011
 20
0.152420759863124
 30
0.0
 10
2.039598108747011
 20
0.152420759863124
 30
0.0
 10
2.06571086287613
 20
0.152420759863124
 30
0.0
 10
2.086879432624098
 20
0.1312521901151689
 30
0.0
 10
2.086879432624098
 20
0.1051394359860372
 30
0.0
 10
2.086879432624098
 20
0.1051394359860372
 30
0.0
 10
2.086879432624098
 20
-0.0130638737066041
 30
0.0
 10
2.086879432624098
 20
-0.0130638737066041
 30
0.0
 10
2.086879432624098
 20
-0.0391766278357358
 30
0.0
 10
2.06571086287613
 20
-0.0603451975836909
 30
0.0
 10
2.039598108747011
 20
-0.0603451975836909
 30
0.0
  0
HATCH
  5
88
330
70
100
AcDbEntity
  8
Mr&Mrs with Date
 62
    18
420
        0
440
 33554687
100
AcDbHatch
 10
0.0
 20
0.0
 30
0.0
210
0.0
220
0.0
230
1.0
  2
SOLID
 70
     1
 71
     1
 91
        1
 92
        1
 93
        1
 72
     4
 94
        3
 73
     0
 74
     0
 95
       29
 96
       25
 40
0.0
 40
0.0
 40
0.0
 40
0.0
 40
1.0
 40
1.0
 40
1.0
 40
2.0
 40
2.0
 40
2.0
 40
3.0
 40
3.0
 40
3.0
 40
4.0
 40
4.0
 40
4.0
 40
5.0
 40
5.0
 40
5.0
 40
6.0
 40
6.0
 40
6.0
 40
7.0
 40
7.0
 40
7.0
 40
8.0
 40
8.0
 40
8.0
 40
8.0
 10
2.039598108747011
 20
-0.0603451975836909
 10
2.039598108747011
 20
-0.0603451975836909
 10
1.487588652482423
 20
-0.0603451975836909
 10
1.487588652482423
 20
-0.0603451975836909
 10
1.461475898353329
 20
-0.0603451975836909
 10
1.440307328605361
 20
-0.0391766278357358
 10
1.440307328605361
 20
-0.0130638737066167
 10
1.440307328605361
 20
-0.0130638737066167
 10
1.440307328605361
 20
0.1051394359860498
 10
1.440307328605361
 20
0.1051394359860498
 10
1.440307328605361
 20
0.1312521901151689
 10
1.461475898353329
 20
0.152420759863124
 10
1.487588652482423
 20
0.152420759863124
 10
1.487588652482423
 20
0.152420759863124
 10
2.039598108747011
 20
0.152420759863124
 10
2.039598108747011
 20
0.152420759863124
 10
2.06571086287613
 20
0.152420759863124
 10
2.086879432624098
 20
0.1312521901151689
 10
2.086879432624098
 20
0.1051394359860372
 10
2.086879432624098
 20
0.1051394359860372
 10
2.086879432624098
 20
-0.0130638737066041
 10
2.086879432624098
 20
-0.0130638737066041
 10
2.086879432624098
 20
-0.0391766278357358
 10
2.06571086287613
 20
-0.0603451975836909
 10
2.039598108747011
 20
-0.0603451975836909
 97
        0
 97
        1
330
87
 75
     2
 76
     1
 98
        1
 10
0.0
 20
0.0
450
        0
451
        0
460
0.0
461
0.0
452
        0
462
0.0
453
        0
470

  0
INSERT
  5
8A
330
70
100
AcDbEntity
  8
Mr&Mrs with Date
100
AcDbBlockReference
  2
Block_1
 10
0.0
 20
0.0
 30
0.0
  0
INSERT
  5
9E
330
70
100
AcDbEntity
  8
Mr&Mrs with Date
100
AcDbBlockReference
  2
Block_3
 10
0.0
 20
0.0
 30
0.0
  0
ENDSEC
  0
SECTION
  2
OBJECTS
  0
DICTIONARY
  5
C
330
0
100
AcDbDictionary
281
     1
  3
ACAD_COLOR
350
63
  3
ACAD_DETAILVIEWSTYLE
350
6A
  3
ACAD_GROUP
350
D
  3
ACAD_LAYOUT
350
62
  3
ACAD_MATERIAL
350
10
  3
ACAD_MLEADERSTYLE
350
66
  3
ACAD_MLINESTYLE
350
5F
  3
ACAD_PLOTSETTINGS
350
61
  3
ACAD_PLOTSTYLENAME
350
E
  3
ACAD_SCALELIST
350
42
  3
ACAD_SECTIONVIEWSTYLE
350
68
  3
ACAD_TABLESTYLE
350
64
  3
ACAD_VISUALSTYLE
350
29
  3
ACDB_RECOMPOSE_DATA
350
BA
  3
AcDbVariableDictionary
350
B2
  0
DICTIONARY
  5
63
102
{ACAD_REACTORS
330
C
102
}
330
C
100
AcDbDictionary
281
     1
  0
DICTIONARY
  5
6A
102
{ACAD_REACTORS
330
C
102
}
330
C
100
AcDbDictionary
281
     1
  3
Imperial24
350
6B
  0
DICTIONARY
  5
D
102
{ACAD_REACTORS
330
C
102
}
330
C
100
AcDbDictionary
281
     1
  0
DICTIONARY
  5
62
102
{ACAD_REACTORS
330
C
102
}
330
C
100
AcDbDictionary
281
     1
  3
Layout1
350
6F
  3
Layout2
350
77
  3
Model
350
73
  0
DICTIONARY
  5
10
102
{ACAD_REACTORS
330
C
102
}
330
C
100
AcDbDictionary
281
     1
  3
ByBlock
350
19
  3
ByLayer
350
11
  3
Global
350
21
  0
DICTIONARY
  5
66
102
{ACAD_REACTORS
330
C
102
}
330
C
100
AcDbDictionary
281
     1
  3
Standard
350
67
  0
DICTIONARY
  5
5F
102
{ACAD_REACTORS
330
C
102
}
330
C
100
AcDbDictionary
281
     1
  3
Standard
350
60
  0
DICTIONARY
  5
61
102
{ACAD_REACTORS
330
C
102
}
330
C
100
AcDbDictionary
281
     1
  0
ACDBDICTIONARYWDFLT
  5
E
102
{ACAD_REACTORS
330
C
102
}
330
C
100
AcDbDictionary
281
     1
  3
Normal
350
F
100
AcDbDictionaryWithDefault
340
F
  0
DICTIONARY
  5
42
102
{ACAD_REACTORS
330
C
102
}
330
C
100
AcDbDictionary
281
     1
  3
A0
350
43
  3
A1
350
44
  3
A2
350
45
  3
A3
350
46
  3
A4
350
47
  3
A5
350
48
  3
A6
350
49
  3
A7
350
4A
  3
A8
350
4B
  3
A9
350
4C
  3
B0
350
4D
  3
B1
350
4E
  3
B2
350
4F
  3
B3
350
50
  3
B4
350
51
  3
B5
350
52
  3
B6
350
53
  0
DICTIONARY
  5
68
102
{ACAD_REACTORS
330
C
102
}
330
C
100
AcDbDictionary
281
     1
  3
Imperial24
350
69
  0
DICTIONARY
  5
64
102
{ACAD_REACTORS
330
C
102
}
330
C
100
AcDbDictionary
281
     1
  3
Standard
350
65
  0
DICTIONARY
  5
29
102
{ACAD_REACTORS
330
C
102
}
330
C
100
AcDbDictionary
281
     1
  3
2dWireframe
350
2F
  3
Basic
350
2E
  3
Brighten
350
35
  3
ColorChange
350
39
  3
Conceptual
350
32
  3
Dim
350
34
  3
EdgeColorOff
350
41
  3
Facepattern
350
38
  3
Flat
350
2A
  3
FlatWithEdges
350
2B
  3
Gouraud
350
2C
  3
GouraudWithEdges
350
2D
  3
Hidden
350
31
  3
JitterOff
350
3F
  3
Linepattern
350
37
  3
OverhangOff
350
40
  3
Realistic
350
33
  3
Shaded
350
3E
  3
Shaded with edges
350
3D
  3
Shades of Gray
350
3A
  3
Sketchy
350
3B
  3
Thicken
350
36
  3
Wireframe
350
30
  3
X-Ray
350
3C
  0
XRECORD
  5
BA
102
{ACAD_REACTORS
330
C
102
}
330
C
100
AcDbXrecord
280
     1
 90
        1
330
65
  0
DICTIONARY
  5
B2
102
{ACAD_REACTORS
330
C
102
}
330
C
100
AcDbDictionary
281
     1
  3
CANNOSCALE
350
B7
  3
CMLEADERSTYLE
350
B4
  3
CTABLESTYLE
350
B3
  3
CVIEWDETAILSTYLE
350
B5
  3
CVIEWSECTIONSTYLE
350
B6
  0
ACDBDETAILVIEWSTYLE
  5
6B
102
{ACAD_REACTORS
330
6A
102
}
330
6A
100
AcDbModelDocViewStyle
 70
     0
  3
Imperial24
290
     1
300
Imperial24
 90
        0
100
AcDbDetailViewStyle
 70
     0
 71
     0
 90
        3
 71
     1
340
55
 62
   256
 40
0.24
340
0
 62
   256
 40
0.24
300

 40
0.36
280
     3
 71
     2
340
5D
 90
       25
 62
   256
 71
     3
340
55
 62
   256
 40
0.24
 90
        1
 40
0.75
 90
        1
300
%<\AcVar ViewType \f "%tc1">% %<\AcVar ViewDetailId>%\PSCALE %<\AcVar ViewScale \f "%sn">%
 71
     4
340
5D
 90
       25
 62
   256
340
5D
 90
       25
 62
   256
280
     0
  0
LAYOUT
  5
6F
102
{ACAD_REACTORS
330
62
102
}
330
62
100
AcDbPlotSettings
  1

  2

  4

  6

 40
0.0
 41
0.0
 42
0.0
 43
0.0
 44
0.0
 45
0.0
 46
0.0
 47
0.0
 48
0.0
 49
0.0
140
0.0
141
0.0
142
1.0
143
1.0
 70
   688
 72
     0
 73
     0
 74
     5
  7

 75
    16
147
1.0
 76
     0
 77
     2
 78
   300
148
0.0
149
0.0
100
AcDbLayout
  1
Layout1
 70
     1
 71
     1
 10
0.0
 20
0.0
 11
12.0
 21
9.0
 12
0.0
 22
0.0
 32
0.0
 14
0.0
 24
0.0
 34
0.0
 15
0.0
 25
0.0
 35
0.0
146
0.0
 13
0.0
 23
0.0
 33
0.0
 16
1.0
 26
0.0
 36
0.0
 17
0.0
 27
1.0
 37
0.0
 76
     0
330
6C
  0
LAYOUT
  5
77
102
{ACAD_REACTORS
330
62
102
}
330
62
100
AcDbPlotSettings
  1

  2

  4

  6

 40
0.0
 41
0.0
 42
0.0
 43
0.0
 44
0.0
 45
0.0
 46
0.0
 47
0.0
 48
0.0
 49
0.0
140
0.0
141
0.0
142
1.0
143
1.0
 70
   688
 72
     0
 73
     0
 74
     5
  7

 75
    16
147
1.0
 76
     0
 77
     2
 78
   300
148
0.0
149
0.0
100
AcDbLayout
  1
Layout2
 70
     1
 71
     2
 10
0.0
 20
0.0
 11
12.0
 21
9.0
 12
0.0
 22
0.0
 32
0.0
 14
0.0
 24
0.0
 34
0.0
 15
0.0
 25
0.0
 35
0.0
146
0.0
 13
0.0
 23
0.0
 33
0.0
 16
1.0
 26
0.0
 36
0.0
 17
0.0
 27
1.0
 37
0.0
 76
     0
330
74
  0
LAYOUT
  5
73
102
{ACAD_REACTORS
330
62
102
}
330
62
100
AcDbPlotSettings
  1

  2

  4

  6

 40
0.0
 41
0.0
 42
0.0
 43
0.0
 44
0.0
 45
0.0
 46
0.0
 47
0.0
 48
0.0
 49
0.0
140
0.0
141
0.0
142
1.0
143
1.0
 70
  1712
 72
     0
 73
     0
 74
     0
  7

 75
     0
147
1.0
 76
     0
 77
     2
 78
   300
148
0.0
149
0.0
100
AcDbLayout
  1
Model
 70
     1
 71
     0
 10
0.0
 20
0.0
 11
12.0
 21
9.0
 12
0.0
 22
0.0
 32
0.0
 14
0.0
 24
0.0
 34
0.0
 15
0.0
 25
0.0
 35
0.0
146
0.0
 13
0.0
 23
0.0
 33
0.0
 16
1.0
 26
0.0
 36
0.0
 17
0.0
 27
1.0
 37
0.0
 76
     0
330
70
  0
MATERIAL
  5
19
102
{ACAD_XDICTIONARY
360
1A
102
}
102
{ACAD_REACTORS
330
10
102
}
330
10
100
AcDbMaterial
  1
ByBlock
 72
     0
 43
0.0208333333333333
 43
0.0
 43
0.0
 43
0.0
 43
0.0
 43
0.0208333333333333
 43
0.0
 43
0.0
 43
0.0
 43
0.0
 43
1.0
 43
0.0
 43
0.0
 43
0.0
 43
0.0
 43
1.0
 77
     0
 47
0.0208333333333333
 47
0.0
 47
0.0
 47
0.0
 47
0.0
 47
0.0208333333333333
 47
0.0
 47
0.0
 47
0.0
 47
0.0
 47
1.0
 47
0.0
 47
0.0
 47
0.0
 47
0.0
 47
1.0
171
     0
 49
0.0208333333333333
 49
0.0
 49
0.0
 49
0.0
 49
0.0
 49
0.0208333333333333
 49
0.0
 49
0.0
 49
0.0
 49
0.0
 49
1.0
 49
0.0
 49
0.0
 49
0.0
 49
0.0
 49
1.0
175
     0
142
0.0208333333333333
142
0.0
142
0.0
142
0.0
142
0.0
142
0.0208333333333333
142
0.0
142
0.0
142
0.0
142
0.0
142
1.0
142
0.0
142
0.0
142
0.0
142
0.0
142
1.0
179
     0
144
0.0208333333333333
144
0.0
144
0.0
144
0.0
144
0.0
144
0.0208333333333333
144
0.0
144
0.0
144
0.0
144
0.0
144
1.0
144
0.0
144
0.0
144
0.0
144
0.0
144
1.0
147
0.0208333333333333
147
0.0
147
0.0
147
0.0
147
0.0
147
0.0208333333333333
147
0.0
147
0.0
147
0.0
147
0.0
147
1.0
147
0.0
147
0.0
147
0.0
147
0.0
147
1.0
  0
MATERIAL
  5
11
102
{ACAD_XDICTIONARY
360
12
102
}
102
{ACAD_REACTORS
330
10
102
}
330
10
100
AcDbMaterial
  1
ByLayer
 72
     0
 43
0.0208333333333333
 43
0.0
 43
0.0
 43
0.0
 43
0.0
 43
0.0208333333333333
 43
0.0
 43
0.0
 43
0.0
 43
0.0
 43
1.0
 43
0.0
 43
0.0
 43
0.0
 43
0.0
 43
1.0
 77
     0
 47
0.0208333333333333
 47
0.0
 47
0.0
 47
0.0
 47
0.0
 47
0.0208333333333333
 47
0.0
 47
0.0
 47
0.0
 47
0.0
 47
1.0
 47
0.0
 47
0.0
 47
0.0
 47
0.0
 47
1.0
171
     0
 49
0.0208333333333333
 49
0.0
 49
0.0
 49
0.0
 49
0.0
 49
0.0208333333333333
 49
0.0
 49
0.0
 49
0.0
 49
0.0
 49
1.0
 49
0.0
 49
0.0
 49
0.0
 49
0.0
 49
1.0
175
     0
142
0.0208333333333333
142
0.0
142
0.0
142
0.0
142
0.0
142
0.0208333333333333
142
0.0
142
0.0
142
0.0
142
0.0
142
1.0
142
0.0
142
0.0
142
0.0
142
0.0
142
1.0
179
     0
144
0.0208333333333333
144
0.0
144
0.0
144
0.0
144
0.0
144
0.0208333333333333
144
0.0
144
0.0
144
0.0
144
0.0
144
1.0
144
0.0
144
0.0
144
0.0
144
0.0
144
1.0
147
0.0208333333333333
147
0.0
147
0.0
147
0.0
147
0.0
147
0.0208333333333333
147
0.0
147
0.0
147
0.0
147
0.0
147
1.0
147
0.0
147
0.0
147
0.0
147
0.0
147
1.0
  0
MATERIAL
  5
21
102
{ACAD_XDICTIONARY
360
22
102
}
102
{ACAD_REACTORS
330
10
102
}
330
10
100
AcDbMaterial
  1
Global
 72
     0
 43
0.0208333333333333
 43
0.0
 43
0.0
 43
0.0
 43
0.0
 43
0.0208333333333333
 43
0.0
 43
0.0
 43
0.0
 43
0.0
 43
1.0
 43
0.0
 43
0.0
 43
0.0
 43
0.0
 43
1.0
 77
     0
 47
0.0208333333333333
 47
0.0
 47
0.0
 47
0.0
 47
0.0
 47
0.0208333333333333
 47
0.0
 47
0.0
 47
0.0
 47
0.0
 47
1.0
 47
0.0
 47
0.0
 47
0.0
 47
0.0
 47
1.0
171
     0
 49
0.0208333333333333
 49
0.0
 49
0.0
 49
0.0
 49
0.0
 49
0.0208333333333333
 49
0.0
 49
0.0
 49
0.0
 49
0.0
 49
1.0
 49
0.0
 49
0.0
 49
0.0
 49
0.0
 49
1.0
175
     0
142
0.0208333333333333
142
0.0
142
0.0
142
0.0
142
0.0
142
0.0208333333333333
142
0.0
142
0.0
142
0.0
142
0.0
142
1.0
142
0.0
142
0.0
142
0.0
142
0.0
142
1.0
179
     0
144
0.0208333333333333
144
0.0
144
0.0
144
0.0
144
0.0
144
0.0208333333333333
144
0.0
144
0.0
144
0.0
144
0.0
144
1.0
144
0.0
144
0.0
144
0.0
144
0.0
144
1.0
147
0.0208333333333333
147
0.0
147
0.0
147
0.0
147
0.0
147
0.0208333333333333
147
0.0
147
0.0
147
0.0
147
0.0
147
1.0
147
0.0
147
0.0
147
0.0
147
0.0
147
1.0
  0
MLEADERSTYLE
  5
67
102
{ACAD_REACTORS
330
66
102
}
330
66
100
AcDbMLeaderStyle
179
     2
170
     2
171
     1
172
     0
 90
        2
 40
0.0
 41
0.0
173
     1
 91
-1056964608
340
5B
 92
       -2
290
     1
 42
0.09
291
     1
 43
0.36
  3
Standard
 44
0.18
300

342
55
174
     1
178
     6
175
     1
176
     0
 93
-1056964608
 45
0.18
292
     0
297
     0
 46
0.18
 94
-1056964608
 47
1.0
 49
1.0
140
1.0
293
     1
141
0.0
294
     1
177
     0
142
1.0
295
     1
296
     0
143
0.125
271
     0
272
     9
273
     9
298
     1
  0
MLINESTYLE
  5
60
102
{ACAD_REACTORS
330
5F
102
}
330
5F
100
AcDbMlineStyle
  2
STANDARD
 70
     0
  3

 62
   256
 51
90.0
 52
90.0
 71
     2
 49
0.5
 62
   256
  6
BYLAYER
 49
-0.5
 62
   256
  6
BYLAYER
  0
ACDBPLACEHOLDER
  5
F
102
{ACAD_REACTORS
330
E
102
}
330
E
  0
SCALE
  5
43
102
{ACAD_REACTORS
330
42
102
}
330
42
100
AcDbScale
 70
     0
300
1:1
140
1.0
141
1.0
290
     1
  0
SCALE
  5
44
102
{ACAD_REACTORS
330
42
102
}
330
42
100
AcDbScale
 70
     0
300
1/128" = 1'-0"
140
0.0078125
141
12.0
290
     0
  0
SCALE
  5
45
102
{ACAD_REACTORS
330
42
102
}
330
42
100
AcDbScale
 70
     0
300
1/64" = 1'-0"
140
0.015625
141
12.0
290
     0
  0
SCALE
  5
46
102
{ACAD_REACTORS
330
42
102
}
330
42
100
AcDbScale
 70
     0
300
1/32" = 1'-0"
140
0.03125
141
12.0
290
     0
  0
SCALE
  5
47
102
{ACAD_REACTORS
330
42
102
}
330
42
100
AcDbScale
 70
     0
300
1/16" = 1'-0"
140
0.0625
141
12.0
290
     0
  0
SCALE
  5
48
102
{ACAD_REACTORS
330
42
102
}
330
42
100
AcDbScale
 70
     0
300
3/32" = 1'-0"
140
0.09375
141
12.0
290
     0
  0
SCALE
  5
49
102
{ACAD_REACTORS
330
42
102
}
330
42
100
AcDbScale
 70
     0
300
1/8" = 1'-0"
140
0.125
141
12.0
290
     0
  0
SCALE
  5
4A
102
{ACAD_REACTORS
330
42
102
}
330
42
100
AcDbScale
 70
     0
300
3/16" = 1'-0"
140
0.1875
141
12.0
290
     0
  0
SCALE
  5
4B
102
{ACAD_REACTORS
330
42
102
}
330
42
100
AcDbScale
 70
     0
300
1/4" = 1'-0"
140
0.25
141
12.0
290
     0
  0
SCALE
  5
4C
102
{ACAD_REACTORS
330
42
102
}
330
42
100
AcDbScale
 70
     0
300
3/8" = 1'-0"
140
0.375
141
12.0
290
     0
  0
SCALE
  5
4D
102
{ACAD_REACTORS
330
42
102
}
330
42
100
AcDbScale
 70
     0
300
1/2" = 1'-0"
140
0.5
141
12.0
290
     0
  0
SCALE
  5
4E
102
{ACAD_REACTORS
330
42
102
}
330
42
100
AcDbScale
 70
     0
300
3/4" = 1'-0"
140
0.75
141
12.0
290
     0
  0
SCALE
  5
4F
102
{ACAD_REACTORS
330
42
102
}
330
42
100
AcDbScale
 70
     0
300
1" = 1'-0"
140
1.0
141
12.0
290
     0
  0
SCALE
  5
50
102
{ACAD_REACTORS
330
42
102
}
330
42
100
AcDbScale
 70
     0
300
1-1/2" = 1'-0"
140
1.5
141
12.0
290
     0
  0
SCALE
  5
51
102
{ACAD_REACTORS
330
42
102
}
330
42
100
AcDbScale
 70
     0
300
3" = 1'-0"
140
3.0
141
12.0
290
     0
  0
SCALE
  5
52
102
{ACAD_REACTORS
330
42
102
}
330
42
100
AcDbScale
 70
     0
300
6" = 1'-0"
140
6.0
141
12.0
290
     0
  0
SCALE
  5
53
102
{ACAD_REACTORS
330
42
102
}
330
42
100
AcDbScale
 70
     0
300
1'-0" = 1'-0"
140
12.0
141
12.0
290
     0
  0
ACDBSECTIONVIEWSTYLE
  5
69
102
{ACAD_REACTORS
330
68
102
}
330
68
100
AcDbModelDocViewStyle
 70
     0
  3
Imperial24
290
     1
300
Imperial24
 90
        0
100
AcDbSectionViewStyle
 70
     0
 71
     0
 90
       78
 71
     1
340
55
 62
   256
 40
0.24
340
0
340
0
 62
   256
 40
0.24
300
I, O, Q, S, X, Z
 40
0.48
 90
        3
 40
0.18
 90
        1
 71
     2
340
5D
 90
       25
 62
   256
340
5D
 90
       50
 62
   256
 40
0.24
 40
0.0
 40
0.24
 71
     3
340
55
 62
   256
 40
0.24
 90
        1
 40
0.75
 90
        1
300
%<\AcVar ViewType \f "%tc1">% %<\AcVar ViewSectionStartId>%-%<\AcVar ViewSectionEndId>%\PSCALE %<\AcVar ViewScale \f "%sn">%
 71
     4
 62
   256
 62
   257
300
ANSI31
 40
1.0
 90
        0
290
     0
290
     0
 90
        6
 40
0.0
 40
1.570796326794896
 40
0.2617993877991494
 40
1.308996938995747
 40
-0.2617993877991494
 40
1.832595714594046
  0
TABLESTYLE
  5
65
102
{ACAD_XDICTIONARY
360
B8
102
}
102
{ACAD_REACTORS
330
64
102
}
330
64
100
AcDbTableStyle
280
     0
  3
Standard
 70
     0
 71
     0
 40
0.06
 41
0.06
280
     0
281
     0
  7
Standard
140
0.18
170
     2
 62
     0
 63
     7
283
     0
 90
      512
 91
        0
  1

274
    -2
284
     1
 64
     0
275
    -2
285
     1
 65
     0
276
    -2
286
     1
 66
     0
277
    -2
287
     1
 67
     0
278
    -2
288
     1
 68
     0
279
    -2
289
     1
 69
     0
  7
Standard
140
0.25
170
     5
 62
     0
 63
     7
283
     0
 90
      512
 91
        0
  1

274
    -2
284
     1
 64
     0
275
    -2
285
     1
 65
     0
276
    -2
286
     1
 66
     0
277
    -2
287
     1
 67
     0
278
    -2
288
     1
 68
     0
279
    -2
289
     1
 69
     0
  7
Standard
140
0.18
170
     5
 62
     0
 63
     7
283
     0
 90
      512
 91
        0
  1

274
    -2
284
     1
 64
     0
275
    -2
285
     1
 65
     0
276
    -2
286
     1
 66
     0
277
    -2
287
     1
 67
     0
278
    -2
288
     1
 68
     0
279
    -2
289
     1
 69
     0
  0
VISUALSTYLE
  5
2F
102
{ACAD_REACTORS
330
29
102
}
330
29
100
AcDbVisualStyle
  2
2dWireframe
 70
     4
177
     3
291
     0
 70
    58
 90
        0
176
     1
 90
        2
176
     1
 90
        0
176
     1
 90
        0
176
     1
 40
0.6
176
     1
 40
30.0
176
     1
 62
     7
420
 16777215
176
     1
 90
        1
176
     1
 90
        4
176
     1
 62
     7
176
     1
 62
   257
176
     1
 90
        1
176
     1
 90
        1
176
     1
 40
1.0
176
     1
 90
        0
176
     1
 62
   257
176
     1
 40
1.0
176
     1
 90
        1
176
     1
 90
        6
176
     1
 90
        2
176
     1
 62
     7
176
     1
 90
        5
176
     1
 90
        0
176
     1
 90
        0
176
     1
290
     0
176
     1
 90
        1
176
     1
 40
0.0
176
     1
 90
        0
176
     1
290
     1
176
     1
290
     1
176
     1
290
     0
176
     1
290
     0
176
     1
290
     0
176
     1
290
     0
176
     1
290
     0
176
     1
290
     0
176
     1
290
     0
176
     1
 90
       50
176
     1
 40
0.0
176
     1
 40
1.0
176
     1
 90
        0
176
     1
 62
    18
420
        0
176
     1
 90
       50
176
     1
 90
        3
176
     1
 62
     5
420
      255
176
     1
290
     0
176
     1
 90
       50
176
     1
 90
       50
176
     1
 90
       50
176
     1
290
     0
176
     1
 90
       50
176
     1
 62
   256
176
     0
 40
1.0
176
     0
 90
        2
176
     1
  1
strokes_ogs.tif
176
     1
290
     0
176
     1
 40
1.0
176
     1
 40
1.0
176
     1
  0
VISUALSTYLE
  5
2E
102
{ACAD_REACTORS
330
29
102
}
330
29
100
AcDbVisualStyle
  2
Basic
 70
     7
177
     3
291
     1
 70
    58
 90
        1
176
     1
 90
        0
176
     1
 90
        1
176
     1
 90
        0
176
     1
 40
0.6
176
     1
 40
30.0
176
     1
 62
     7
420
 16777215
176
     1
 90
        0
176
     1
 90
        4
176
     1
 62
     7
176
     1
 62
   257
176
     1
 90
        1
176
     1
 90
        1
176
     1
 40
1.0
176
     1
 90
        8
176
     1
 62
     7
176
     1
 40
1.0
176
     1
 90
        1
176
     1
 90
        6
176
     1
 90
        2
176
     1
 62
     7
176
     1
 90
        5
176
     1
 90
        0
176
     1
 90
        0
176
     1
290
     0
176
     1
 90
        1
176
     1
 40
0.0
176
     1
 90
        0
176
     1
290
     0
176
     1
290
     1
176
     1
290
     1
176
     1
290
     0
176
     1
290
     0
176
     1
290
     0
176
     1
290
     0
176
     1
290
     0
176
     1
290
     0
176
     1
 90
       50
176
     1
 40
0.0
176
     1
 40
1.0
176
     1
 90
        0
176
     1
 62
    18
420
        0
176
     1
 90
       50
176
     1
 90
        3
176
     1
 62
     5
420
      255
176
     1
290
     0
176
     1
 90
       50
176
     1
 90
       50
176
     1
 90
       50
176
     1
290
     0
176
     1
 90
       50
176
     1
 62
   256
176
     0
 40
1.0
176
     0
 90
        2
176
     1
  1
strokes_ogs.tif
176
     1
290
     0
176
     1
 40
1.0
176
     1
 40
1.0
176
     1
  0
VISUALSTYLE
  5
35
102
{ACAD_REACTORS
330
29
102
}
330
29
100
AcDbVisualStyle
  2
Brighten
 70
    12
177
     3
291
     1
 70
    58
 90
        2
176
     1
 90
        2
176
     1
 90
        0
176
     1
 90
        0
176
     1
 40
0.6
176
     1
 40
30.0
176
     1
 62
     7
420
 16777215
176
     1
 90
        1
176
     1
 90
        4
176
     1
 62
     7
176
     1
 62
   257
176
     1
 90
        1
176
     1
 90
        1
176
     1
 40
1.0
176
     1
 90
        8
176
     1
 62
     7
176
     1
 40
1.0
176
     1
 90
        1
176
     1
 90
        6
176
     1
 90
        2
176
     1
 62
     7
176
     1
 90
        5
176
     1
 90
        0
176
     1
 90
        0
176
     1
290
     0
176
     1
 90
        1
176
     1
 40
50.0
176
     1
 90
        0
176
     1
290
     0
176
     1
290
     1
176
     1
290
     1
176
     1
290
     0
176
     1
290
     0
176
     1
290
     0
176
     1
290
     0
176
     1
290
     0
176
     1
290
     0
176
     1
 90
       50
176
     1
 40
0.0
176
     1
 40
1.0
176
     1
 90
        0
176
     1
 62
    18
420
        0
176
     1
 90
       50
176
     1
 90
        3
176
     1
 62
     5
420
      255
176
     1
290
     0
176
     1
 90
       50
176
     1
 90
       50
176
     1
 90
       50
176
     1
290
     0
176
     1
 90
       50
176
     1
 62
   256
176
     0
 40
1.0
176
     0
 90
        2
176
     1
  1
strokes_ogs.tif
176
     1
290
     0
176
     1
 40
1.0
176
     1
 40
1.0
176
     1
  0
VISUALSTYLE
  5
39
102
{ACAD_REACTORS
330
29
102
}
330
29
100
AcDbVisualStyle
  2
ColorChange
 70
    16
177
     3
291
     1
 70
    58
 90
        2
176
     1
 90
        2
176
     1
 90
        3
176
     1
 90
        0
176
     1
 40
0.6
176
     1
 40
30.0
176
     1
 62
     8
420
  8421504
176
     1
 90
        1
176
     1
 90
        4
176
     1
 62
     7
176
     1
 62
   257
176
     1
 90
        1
176
     1
 90
        1
176
     1
 40
1.0
176
     1
 90
        8
176
     1
 62
     8
420
  8421504
176
     1
 40
1.0
176
     1
 90
        1
176
     1
 90
        6
176
     1
 90
        2
176
     1
 62
     7
176
     1
 90
        5
176
     1
 90
        0
176
     1
 90
        0
176
     1
290
     0
176
     1
 90
        1
176
     1
 40
0.0
176
     1
 90
        0
176
     1
290
     0
176
     1
290
     1
176
     1
290
     1
176
     1
290
     0
176
     1
290
     0
176
     1
290
     0
176
     1
290
     0
176
     1
290
     0
176
     1
290
     0
176
     1
 90
       50
176
     1
 40
0.0
176
     1
 40
1.0
176
     1
 90
        0
176
     1
 62
    18
420
        0
176
     1
 90
       50
176
     1
 90
        3
176
     1
 62
     5
420
      255
176
     1
290
     0
176
     1
 90
       50
176
     1
 90
       50
176
     1
 90
       50
176
     1
290
     0
176
     1
 90
       50
176
     1
 62
   256
176
     0
 40
1.0
176
     0
 90
        2
176
     1
  1
strokes_ogs.tif
176
     1
290
     0
176
     1
 40
1.0
176
     1
 40
1.0
176
     1
  0
VISUALSTYLE
  5
32
102
{ACAD_REACTORS
330
29
102
}
330
29
100
AcDbVisualStyle
  2
Conceptual
 70
     9
177
     3
291
     0
 70
    58
 90
        3
176
     1
 90
        2
176
     1
 90
        0
176
     1
 90
        0
176
     1
 40
0.6
176
     1
 40
30.0
176
     1
 62
     7
420
 16777215
176
     1
 90
        2
176
     1
 90
        2
176
     1
 62
     7
176
     1
 62
   257
176
     1
 90
        1
176
     1
 90
        1
176
     1
 40
179.0
176
     1
 90
        8
176
     1
 62
     7
176
     1
 40
1.0
176
     1
 90
        1
176
     1
 90
        6
176
     1
 90
        2
176
     1
 62
     7
176
     1
 90
        3
176
     1
 90
        0
176
     1
 90
        0
176
     1
290
     0
176
     1
 90
        1
176
     1
 40
0.0
176
     1
 90
        0
176
     1
290
     0
176
     1
290
     1
176
     1
290
     1
176
     1
290
     0
176
     1
290
     0
176
     1
290
     0
176
     1
290
     0
176
     1
290
     0
176
     1
290
     0
176
     1
 90
       50
176
     1
 40
0.0
176
     1
 40
1.0
176
     1
 90
        0
176
     1
 62
    18
420
        0
176
     1
 90
       50
176
     1
 90
        3
176
     1
 62
     5
420
      255
176
     1
290
     0
176
     1
 90
       50
176
     1
 90
       50
176
     1
 90
       50
176
     1
290
     0
176
     1
 90
       50
176
     1
 62
   256
176
     0
 40
1.0
176
     0
 90
        2
176
     1
  1
strokes_ogs.tif
176
     1
290
     0
176
     1
 40
1.0
176
     1
 40
1.0
176
     1
  0
VISUALSTYLE
  5
34
102
{ACAD_REACTORS
330
29
102
}
330
29
100
AcDbVisualStyle
  2
Dim
 70
    11
177
     3
291
     1
 70
    58
 90
        2
176
     1
 90
        2
176
     1
 90
        0
176
     1
 90
        0
176
     1
 40
0.6
176
     1
 40
30.0
176
     1
 62
     7
420
 16777215
176
     1
 90
        1
176
     1
 90
        4
176
     1
 62
     7
176
     1
 62
   257
176
     1
 90
        1
176
     1
 90
        1
176
     1
 40
1.0
176
     1
 90
        8
176
     1
 62
     7
176
     1
 40
1.0
176
     1
 90
        1
176
     1
 90
        6
176
     1
 90
        2
176
     1
 62
     7
176
     1
 90
        5
176
     1
 90
        0
176
     1
 90
        0
176
     1
290
     0
176
     1
 90
        1
176
     1
 40
-50.0
176
     1
 90
        0
176
     1
290
     0
176
     1
290
     1
176
     1
290
     1
176
     1
290
     0
176
     1
290
     0
176
     1
290
     0
176
     1
290
     0
176
     1
290
     0
176
     1
290
     0
176
     1
 90
       50
176
     1
 40
0.0
176
     1
 40
1.0
176
     1
 90
        0
176
     1
 62
    18
420
        0
176
     1
 90
       50
176
     1
 90
        3
176
     1
 62
     5
420
      255
176
     1
290
     0
176
     1
 90
       50
176
     1
 90
       50
176
     1
 90
       50
176
     1
290
     0
176
     1
 90
       50
176
     1
 62
   256
176
     0
 40
1.0
176
     0
 90
        2
176
     1
  1
strokes_ogs.tif
176
     1
290
     0
176
     1
 40
1.0
176
     1
 40
1.0
176
     1
  0
VISUALSTYLE
  5
41
102
{ACAD_REACTORS
330
29
102
}
330
29
100
AcDbVisualStyle
  2
EdgeColorOff
 70
    22
177
     3
291
     1
 70
    58
 90
        2
176
     0
 90
        2
176
     0
 90
        0
176
     0
 90
        0
176
     0
 40
0.6
176
     0
 40
30.0
176
     0
 62
     7
420
 16777215
176
     0
 90
        1
176
     0
 90
        4
176
     0
 62
     7
176
     0
 62
   257
176
     0
 90
        1
176
     0
 90
        1
176
     0
 40
1.0
176
     0
 90
        8
176
     2
 62
     7
176
     0
 40
1.0
176
     0
 90
        1
176
     0
 90
        6
176
     0
 90
        2
176
     0
 62
     7
176
     0
 90
        5
176
     0
 90
        0
176
     0
 90
        0
176
     0
290
     0
176
     0
 90
        1
176
     0
 40
0.0
176
     0
 90
        0
176
     0
290
     0
176
     0
290
     1
176
     0
290
     1
176
     0
290
     0
176
     0
290
     0
176
     0
290
     0
176
     0
290
     0
176
     0
290
     0
176
     0
290
     0
176
     0
 90
       50
176
     0
 40
0.0
176
     0
 40
1.0
176
     0
 90
        0
176
     0
 62
    18
420
        0
176
     0
 90
       50
176
     0
 90
        3
176
     0
 62
     5
420
      255
176
     0
290
     0
176
     0
 90
       50
176
     0
 90
       50
176
     0
 90
       50
176
     0
290
     0
176
     0
 90
       50
176
     0
 62
   256
176
     0
 40
1.0
176
     0
 90
        2
176
     0
  1
strokes_ogs.tif
176
     0
290
     0
176
     0
 40
1.0
176
     0
 40
1.0
176
     0
  0
VISUALSTYLE
  5
38
102
{ACAD_REACTORS
330
29
102
}
330
29
100
AcDbVisualStyle
  2
Facepattern
 70
    15
177
     3
291
     1
 70
    58
 90
        2
176
     1
 90
        2
176
     1
 90
        0
176
     1
 90
        0
176
     1
 40
0.6
176
     1
 40
30.0
176
     1
 62
     7
420
 16777215
176
     1
 90
        1
176
     1
 90
        4
176
     1
 62
     7
176
     1
 62
   257
176
     1
 90
        1
176
     1
 90
        1
176
     1
 40
1.0
176
     1
 90
        8
176
     1
 62
     7
176
     1
 40
1.0
176
     1
 90
        1
176
     1
 90
        6
176
     1
 90
        2
176
     1
 62
     7
176
     1
 90
        5
176
     1
 90
        0
176
     1
 90
        0
176
     1
290
     0
176
     1
 90
        1
176
     1
 40
0.0
176
     1
 90
        0
176
     1
290
     0
176
     1
290
     1
176
     1
290
     1
176
     1
290
     0
176
     1
290
     0
176
     1
290
     0
176
     1
290
     0
176
     1
290
     0
176
     1
290
     0
176
     1
 90
       50
176
     1
 40
0.0
176
     1
 40
1.0
176
     1
 90
        0
176
     1
 62
    18
420
        0
176
     1
 90
       50
176
     1
 90
        3
176
     1
 62
     5
420
      255
176
     1
290
     0
176
     1
 90
       50
176
     1
 90
       50
176
     1
 90
       50
176
     1
290
     0
176
     1
 90
       50
176
     1
 62
   256
176
     0
 40
1.0
176
     0
 90
        2
176
     1
  1
strokes_ogs.tif
176
     1
290
     0
176
     1
 40
1.0
176
     1
 40
1.0
176
     1
  0
VISUALSTYLE
  5
2A
102
{ACAD_REACTORS
330
29
102
}
330
29
100
AcDbVisualStyle
  2
Flat
 70
     0
177
     3
291
     1
 70
    58
 90
        2
176
     1
 90
        1
176
     1
 90
        1
176
     1
 90
        2
176
     1
 40
0.6
176
     1
 40
30.0
176
     1
 62
     7
420
 16777215
176
     1
 90
        0
176
     1
 90
        0
176
     1
 62
     7
176
     1
 62
   257
176
     1
 90
        1
176
     1
 90
        1
176
     1
 40
1.0
176
     1
 90
        8
176
     1
 62
     7
176
     1
 40
1.0
176
     1
 90
        1
176
     1
 90
        6
176
     1
 90
        2
176
     1
 62
     7
176
     1
 90
        5
176
     1
 90
        0
176
     1
 90
        0
176
     1
290
     0
176
     1
 90
       13
176
     1
 40
0.0
176
     1
 90
        0
176
     1
290
     0
176
     1
290
     1
176
     1
290
     1
176
     1
290
     0
176
     1
290
     0
176
     1
290
     0
176
     1
290
     0
176
     1
290
     0
176
     1
290
     0
176
     1
 90
       50
176
     1
 40
0.0
176
     1
 40
1.0
176
     1
 90
        0
176
     1
 62
    18
420
        0
176
     1
 90
       50
176
     1
 90
        3
176
     1
 62
     5
420
      255
176
     1
290
     0
176
     1
 90
       50
176
     1
 90
       50
176
     1
 90
       50
176
     1
290
     0
176
     1
 90
       50
176
     1
 62
   256
176
     0
 40
1.0
176
     0
 90
        2
176
     1
  1
strokes_ogs.tif
176
     1
290
     0
176
     1
 40
1.0
176
     1
 40
1.0
176
     1
  0
VISUALSTYLE
  5
2B
102
{ACAD_REACTORS
330
29
102
}
330
29
100
AcDbVisualStyle
  2
FlatWithEdges
 70
     1
177
     3
291
     1
 70
    58
 90
        2
176
     1
 90
        1
176
     1
 90
        1
176
     1
 90
        2
176
     1
 40
0.6
176
     1
 40
30.0
176
     1
 62
     7
420
 16777215
176
     1
 90
        1
176
     1
 90
        0
176
     1
 62
     7
176
     1
 62
   257
176
     1
 90
        1
176
     1
 90
        1
176
     1
 40
1.0
176
     1
 90
        0
176
     1
 62
   257
176
     1
 40
1.0
176
     1
 90
        1
176
     1
 90
        6
176
     1
 90
        2
176
     1
 62
     7
176
     1
 90
        5
176
     1
 90
        0
176
     1
 90
        0
176
     1
290
     0
176
     1
 90
       13
176
     1
 40
0.0
176
     1
 90
        0
176
     1
290
     0
176
     1
290
     1
176
     1
290
     1
176
     1
290
     0
176
     1
290
     0
176
     1
290
     0
176
     1
290
     0
176
     1
290
     0
176
     1
290
     0
176
     1
 90
       50
176
     1
 40
0.0
176
     1
 40
1.0
176
     1
 90
        0
176
     1
 62
    18
420
        0
176
     1
 90
       50
176
     1
 90
        3
176
     1
 62
     5
420
      255
176
     1
290
     0
176
     1
 90
       50
176
     1
 90
       50
176
     1
 90
       50
176
     1
290
     0
176
     1
 90
       50
176
     1
 62
   256
176
     0
 40
1.0
176
     0
 90
        2
176
     1
  1
strokes_ogs.tif
176
     1
290
     0
176
     1
 40
1.0
176
     1
 40
1.0
176
     1
  0
VISUALSTYLE
  5
2C
102
{ACAD_REACTORS
330
29
102
}
330
29
100
AcDbVisualStyle
  2
Gouraud
 70
     2
177
     3
291
     1
 70
    58
 90
        2
176
     1
 90
        2
176
     1
 90
        1
176
     1
 90
        2
176
     1
 40
0.6
176
     1
 40
30.0
176
     1
 62
     7
420
 16777215
176
     1
 90
        0
176
     1
 90
        0
176
     1
 62
     7
176
     1
 62
   257
176
     1
 90
        1
176
     1
 90
        1
176
     1
 40
1.0
176
     1
 90
        0
176
     1
 62
     7
176
     1
 40
1.0
176
     1
 90
        1
176
     1
 90
        6
176
     1
 90
        2
176
     1
 62
     7
176
     1
 90
        5
176
     1
 90
        0
176
     1
 90
        0
176
     1
290
     0
176
     1
 90
       13
176
     1
 40
0.0
176
     1
 90
        0
176
     1
290
     0
176
     1
290
     1
176
     1
290
     1
176
     1
290
     0
176
     1
290
     0
176
     1
290
     0
176
     1
290
     0
176
     1
290
     0
176
     1
290
     0
176
     1
 90
       50
176
     1
 40
0.0
176
     1
 40
1.0
176
     1
 90
        0
176
     1
 62
    18
420
        0
176
     1
 90
       50
176
     1
 90
        3
176
     1
 62
     5
420
      255
176
     1
290
     0
176
     1
 90
       50
176
     1
 90
       50
176
     1
 90
       50
176
     1
290
     0
176
     1
 90
       50
176
     1
 62
   256
176
     0
 40
1.0
176
     0
 90
        2
176
     1
  1
strokes_ogs.tif
176
     1
290
     0
176
     1
 40
1.0
176
     1
 40
1.0
176
     1
  0
VISUALSTYLE
  5
2D
102
{ACAD_REACTORS
330
29
102
}
330
29
100
AcDbVisualStyle
  2
GouraudWithEdges
 70
     3
177
     3
291
     1
 70
    58
 90
        2
176
     1
 90
        2
176
     1
 90
        1
176
     1
 90
        2
176
     1
 40
0.6
176
     1
 40
30.0
176
     1
 62
     7
420
 16777215
176
     1
 90
        1
176
     1
 90
        0
176
     1
 62
     7
176
     1
 62
   257
176
     1
 90
        1
176
     1
 90
        1
176
     1
 40
1.0
176
     1
 90
        0
176
     1
 62
   257
176
     1
 40
1.0
176
     1
 90
        1
176
     1
 90
        6
176
     1
 90
        2
176
     1
 62
     7
176
     1
 90
        5
176
     1
 90
        0
176
     1
 90
        0
176
     1
290
     0
176
     1
 90
       13
176
     1
 40
0.0
176
     1
 90
        0
176
     1
290
     0
176
     1
290
     1
176
     1
290
     1
176
     1
290
     0
176
     1
290
     0
176
     1
290
     0
176
     1
290
     0
176
     1
290
     0
176
     1
290
     0
176
     1
 90
       50
176
     1
 40
0.0
176
     1
 40
1.0
176
     1
 90
        0
176
     1
 62
    18
420
        0
176
     1
 90
       50
176
     1
 90
        3
176
     1
 62
     5
420
      255
176
     1
290
     0
176
     1
 90
       50
176
     1
 90
       50
176
     1
 90
       50
176
     1
290
     0
176
     1
 90
       50
176
     1
 62
   256
176
     0
 40
1.0
176
     0
 90
        2
176
     1
  1
strokes_ogs.tif
176
     1
290
     0
176
     1
 40
1.0
176
     1
 40
1.0
176
     1
  0
VISUALSTYLE
  5
31
102
{ACAD_REACTORS
330
29
102
}
330
29
100
AcDbVisualStyle
  2
Hidden
 70
     6
177
     3
291
     0
 70
    58
 90
        1
176
     1
 90
        2
176
     1
 90
        2
176
     1
 90
        0
176
     1
 40
0.6
176
     1
 40
30.0
176
     1
 62
     7
420
 16777215
176
     1
 90
        2
176
     1
 90
        2
176
     1
 62
     7
176
     1
 62
   257
176
     1
 90
        2
176
     1
 90
        1
176
     1
 40
40.0
176
     1
 90
        0
176
     1
 62
   257
176
     1
 40
1.0
176
     1
 90
        1
176
     1
 90
        6
176
     1
 90
        2
176
     1
 62
     7
176
     1
 90
        3
176
     1
 90
        0
176
     1
 90
        0
176
     1
290
     0
176
     1
 90
        1
176
     1
 40
0.0
176
     1
 90
        0
176
     1
290
     0
176
     1
290
     1
176
     1
290
     1
176
     1
290
     0
176
     1
290
     0
176
     1
290
     0
176
     1
290
     0
176
     1
290
     0
176
     1
290
     0
176
     1
 90
       50
176
     1
 40
0.0
176
     1
 40
1.0
176
     1
 90
        0
176
     1
 62
    18
420
        0
176
     1
 90
       50
176
     1
 90
        3
176
     1
 62
     5
420
      255
176
     1
290
     0
176
     1
 90
       50
176
     1
 90
       50
176
     1
 90
       50
176
     1
290
     0
176
     1
 90
       50
176
     1
 62
   256
176
     0
 40
1.0
176
     0
 90
        2
176
     1
  1
strokes_ogs.tif
176
     1
290
     0
176
     1
 40
1.0
176
     1
 40
1.0
176
     1
  0
VISUALSTYLE
  5
3F
102
{ACAD_REACTORS
330
29
102
}
330
29
100
AcDbVisualStyle
  2
JitterOff
 70
    20
177
     3
291
     1
 70
    58
 90
        2
176
     0
 90
        2
176
     0
 90
        0
176
     0
 90
        0
176
     0
 40
0.6
176
     0
 40
30.0
176
     0
 62
     7
420
 16777215
176
     0
 90
        1
176
     0
 90
        4
176
     0
 62
     7
176
     0
 62
   257
176
     0
 90
        1
176
     0
 90
        1
176
     0
 40
1.0
176
     0
 90
       10
176
     2
 62
     7
176
     0
 40
1.0
176
     0
 90
        1
176
     0
 90
        6
176
     0
 90
        2
176
     0
 62
     7
176
     0
 90
        5
176
     0
 90
        0
176
     0
 90
        0
176
     0
290
     0
176
     0
 90
        1
176
     0
 40
0.0
176
     0
 90
        0
176
     0
290
     0
176
     0
290
     1
176
     0
290
     1
176
     0
290
     0
176
     0
290
     0
176
     0
290
     0
176
     0
290
     0
176
     0
290
     0
176
     0
290
     0
176
     0
 90
       50
176
     0
 40
0.0
176
     0
 40
1.0
176
     0
 90
        0
176
     0
 62
    18
420
        0
176
     0
 90
       50
176
     0
 90
        3
176
     0
 62
     5
420
      255
176
     0
290
     0
176
     0
 90
       50
176
     0
 90
       50
176
     0
 90
       50
176
     0
290
     0
176
     0
 90
       50
176
     0
 62
   256
176
     0
 40
1.0
176
     0
 90
        2
176
     0
  1
strokes_ogs.tif
176
     0
290
     0
176
     0
 40
1.0
176
     0
 40
1.0
176
     0
  0
VISUALSTYLE
  5
37
102
{ACAD_REACTORS
330
29
102
}
330
29
100
AcDbVisualStyle
  2
Linepattern
 70
    14
177
     3
291
     1
 70
    58
 90
        2
176
     1
 90
        2
176
     1
 90
        0
176
     1
 90
        0
176
     1
 40
0.6
176
     1
 40
30.0
176
     1
 62
     7
420
 16777215
176
     1
 90
        1
176
     1
 90
        4
176
     1
 62
     7
176
     1
 62
   257
176
     1
 90
        7
176
     1
 90
        7
176
     1
 40
1.0
176
     1
 90
        8
176
     1
 62
     7
176
     1
 40
1.0
176
     1
 90
        1
176
     1
 90
        6
176
     1
 90
        2
176
     1
 62
     7
176
     1
 90
        5
176
     1
 90
        0
176
     1
 90
        0
176
     1
290
     0
176
     1
 90
        1
176
     1
 40
0.0
176
     1
 90
        0
176
     1
290
     0
176
     1
290
     1
176
     1
290
     1
176
     1
290
     0
176
     1
290
     0
176
     1
290
     0
176
     1
290
     0
176
     1
290
     0
176
     1
290
     0
176
     1
 90
       50
176
     1
 40
0.0
176
     1
 40
1.0
176
     1
 90
        0
176
     1
 62
    18
420
        0
176
     1
 90
       50
176
     1
 90
        3
176
     1
 62
     5
420
      255
176
     1
290
     0
176
     1
 90
       50
176
     1
 90
       50
176
     1
 90
       50
176
     1
290
     0
176
     1
 90
       50
176
     1
 62
   256
176
     0
 40
1.0
176
     0
 90
        2
176
     1
  1
strokes_ogs.tif
176
     1
290
     0
176
     1
 40
1.0
176
     1
 40
1.0
176
     1
  0
VISUALSTYLE
  5
40
102
{ACAD_REACTORS
330
29
102
}
330
29
100
AcDbVisualStyle
  2
OverhangOff
 70
    21
177
     3
291
     1
 70
    58
 90
        2
176
     0
 90
        2
176
     0
 90
        0
176
     0
 90
        0
176
     0
 40
0.6
176
     0
 40
30.0
176
     0
 62
     7
420
 16777215
176
     0
 90
        1
176
     0
 90
        4
176
     0
 62
     7
176
     0
 62
   257
176
     0
 90
        1
176
     0
 90
        1
176
     0
 40
1.0
176
     0
 90
        9
176
     2
 62
     7
176
     0
 40
1.0
176
     0
 90
        1
176
     0
 90
        6
176
     0
 90
        2
176
     0
 62
     7
176
     0
 90
        5
176
     0
 90
        0
176
     0
 90
        0
176
     0
290
     0
176
     0
 90
        1
176
     0
 40
0.0
176
     0
 90
        0
176
     0
290
     0
176
     0
290
     1
176
     0
290
     1
176
     0
290
     0
176
     0
290
     0
176
     0
290
     0
176
     0
290
     0
176
     0
290
     0
176
     0
290
     0
176
     0
 90
       50
176
     0
 40
0.0
176
     0
 40
1.0
176
     0
 90
        0
176
     0
 62
    18
420
        0
176
     0
 90
       50
176
     0
 90
        3
176
     0
 62
     5
420
      255
176
     0
290
     0
176
     0
 90
       50
176
     0
 90
       50
176
     0
 90
       50
176
     0
290
     0
176
     0
 90
       50
176
     0
 62
   256
176
     0
 40
1.0
176
     0
 90
        2
176
     0
  1
strokes_ogs.tif
176
     0
290
     0
176
     0
 40
1.0
176
     0
 40
1.0
176
     0
  0
VISUALSTYLE
  5
33
102
{ACAD_REACTORS
330
29
102
}
330
29
100
AcDbVisualStyle
  2
Realistic
 70
     8
177
     3
291
     0
 70
    58
 90
        2
176
     1
 90
        3
176
     1
 90
        0
176
     1
 90
        2
176
     1
 40
0.6
176
     1
 40
30.0
176
     1
 62
     7
420
 16777215
176
     1
 90
        0
176
     1
 90
        0
176
     1
 62
     7
176
     1
 62
   257
176
     1
 90
        1
176
     1
 90
        1
176
     1
 40
1.0
176
     1
 90
        8
176
     1
 62
   257
176
     1
 40
1.0
176
     1
 90
        1
176
     1
 90
        6
176
     1
 90
        2
176
     1
 62
     7
176
     1
 90
        3
176
     1
 90
        0
176
     1
 90
        0
176
     1
290
     0
176
     1
 90
       13
176
     1
 40
0.0
176
     1
 90
        0
176
     1
290
     0
176
     1
290
     1
176
     1
290
     1
176
     1
290
     0
176
     1
290
     0
176
     1
290
     0
176
     1
290
     0
176
     1
290
     0
176
     1
290
     0
176
     1
 90
       50
176
     1
 40
0.0
176
     1
 40
1.0
176
     1
 90
        0
176
     1
 62
    18
420
        0
176
     1
 90
       50
176
     1
 90
        3
176
     1
 62
     5
420
      255
176
     1
290
     0
176
     1
 90
       50
176
     1
 90
       50
176
     1
 90
       50
176
     1
290
     0
176
     1
 90
       50
176
     1
 62
   256
176
     0
 40
1.0
176
     0
 90
        2
176
     1
  1
strokes_ogs.tif
176
     1
290
     0
176
     1
 40
1.0
176
     1
 40
1.0
176
     1
  0
VISUALSTYLE
  5
3E
102
{ACAD_REACTORS
330
29
102
}
330
29
100
AcDbVisualStyle
  2
Shaded
 70
    27
177
     3
291
     0
 70
    58
 90
        2
176
     1
 90
        2
176
     1
 90
        1
176
     1
 90
        2
176
     1
 40
0.6
176
     1
 40
30.0
176
     1
 62
     7
420
 16777215
176
     1
 90
        0
176
     1
 90
        4
176
     1
 62
     7
176
     1
 62
   257
176
     1
 90
        1
176
     1
 90
        1
176
     1
 40
1.0
176
     1
 90
        8
176
     1
 62
   257
176
     1
 40
1.0
176
     1
 90
        1
176
     1
 90
        6
176
     1
 90
        2
176
     1
 62
     8
420
  7895160
176
     1
 90
        3
176
     1
 90
        0
176
     1
 90
        0
176
     1
290
     0
176
     1
 90
        5
176
     1
 40
0.0
176
     1
 90
        0
176
     1
290
     0
176
     1
290
     1
176
     1
290
     1
176
     1
290
     0
176
     1
290
     0
176
     1
290
     0
176
     1
290
     0
176
     1
290
     0
176
     1
290
     0
176
     1
 90
       50
176
     1
 40
0.0
176
     1
 40
1.0
176
     1
 90
        0
176
     1
 62
    18
420
        0
176
     1
 90
       50
176
     1
 90
        3
176
     1
 62
     5
420
      255
176
     1
290
     0
176
     1
 90
       50
176
     1
 90
       50
176
     1
 90
       50
176
     1
290
     0
176
     1
 90
       50
176
     1
 62
   256
176
     0
 40
1.0
176
     0
 90
        2
176
     1
  1
strokes_ogs.tif
176
     1
290
     0
176
     1
 40
1.0
176
     1
 40
1.0
176
     1
  0
VISUALSTYLE
  5
3D
102
{ACAD_REACTORS
330
29
102
}
330
29
100
AcDbVisualStyle
  2
Shaded with edges
 70
    26
177
     3
291
     0
 70
    58
 90
        2
176
     1
 90
        2
176
     1
 90
        1
176
     1
 90
        2
176
     1
 40
0.6
176
     1
 40
30.0
176
     1
 62
     7
420
 16777215
176
     1
 90
        1
176
     1
 90
        2
176
     1
 62
     7
176
     1
 62
   257
176
     1
 90
        2
176
     1
 90
        1
176
     1
 40
1.0
176
     1
 90
        8
176
     1
 62
   257
176
     1
 40
1.0
176
     1
 90
        1
176
     1
 90
        6
176
     1
 90
        2
176
     1
 62
     7
176
     1
 90
        3
176
     1
 90
        0
176
     1
 90
        0
176
     1
290
     0
176
     1
 90
        5
176
     1
 40
0.0
176
     1
 90
        0
176
     1
290
     0
176
     1
290
     1
176
     1
290
     1
176
     1
290
     0
176
     1
290
     0
176
     1
290
     0
176
     1
290
     0
176
     1
290
     0
176
     1
290
     0
176
     1
 90
       50
176
     1
 40
0.0
176
     1
 40
1.0
176
     1
 90
        0
176
     1
 62
    18
420
        0
176
     1
 90
       50
176
     1
 90
        3
176
     1
 62
     5
420
      255
176
     1
290
     0
176
     1
 90
       50
176
     1
 90
       50
176
     1
 90
       50
176
     1
290
     0
176
     1
 90
       50
176
     1
 62
   256
176
     0
 40
1.0
176
     0
 90
        2
176
     1
  1
strokes_ogs.tif
176
     1
290
     0
176
     1
 40
1.0
176
     1
 40
1.0
176
     1
  0
VISUALSTYLE
  5
3A
102
{ACAD_REACTORS
330
29
102
}
330
29
100
AcDbVisualStyle
  2
Shades of Gray
 70
    23
177
     3
291
     0
 70
    58
 90
        2
176
     1
 90
        2
176
     1
 90
        3
176
     1
 90
        0
176
     1
 40
0.6
176
     1
 40
30.0
176
     1
 62
     7
420
 16777215
176
     1
 90
        2
176
     1
 90
        2
176
     1
 62
     7
176
     1
 62
     7
176
     1
 90
        1
176
     1
 90
        1
176
     1
 40
40.0
176
     1
 90
        8
176
     1
 62
     7
176
     1
 40
1.0
176
     1
 90
        1
176
     1
 90
        6
176
     1
 90
        2
176
     1
 62
     7
176
     1
 90
        3
176
     1
 90
        0
176
     1
 90
        0
176
     1
290
     0
176
     1
 90
        1
176
     1
 40
0.0
176
     1
 90
        0
176
     1
290
     0
176
     1
290
     1
176
     1
290
     1
176
     1
290
     0
176
     1
290
     0
176
     1
290
     0
176
     1
290
     0
176
     1
290
     0
176
     1
290
     0
176
     1
 90
       50
176
     1
 40
0.0
176
     1
 40
1.0
176
     1
 90
        0
176
     1
 62
    18
420
        0
176
     1
 90
       50
176
     1
 90
        3
176
     1
 62
     5
420
      255
176
     1
290
     0
176
     1
 90
       50
176
     1
 90
       50
176
     1
 90
       50
176
     1
290
     0
176
     1
 90
       50
176
     1
 62
   256
176
     0
 40
1.0
176
     0
 90
        2
176
     1
  1
strokes_ogs.tif
176
     1
290
     0
176
     1
 40
1.0
176
     1
 40
1.0
176
     1
  0
VISUALSTYLE
  5
3B
102
{ACAD_REACTORS
330
29
102
}
330
29
100
AcDbVisualStyle
  2
Sketchy
 70
    24
177
     3
291
     0
 70
    58
 90
        1
176
     1
 90
        2
176
     1
 90
        2
176
     1
 90
        0
176
     1
 40
0.6
176
     1
 40
30.0
176
     1
 62
     7
420
 16777215
176
     1
 90
        2
176
     1
 90
        2
176
     1
 62
     7
176
     1
 62
     7
176
     1
 90
        1
176
     1
 90
        1
176
     1
 40
40.0
176
     1
 90
       11
176
     1
 62
     7
176
     1
 40
1.0
176
     1
 90
        1
176
     1
 90
        6
176
     1
 90
        2
176
     1
 62
     7
176
     1
 90
        6
176
     1
 90
        0
176
     1
 90
        0
176
     1
290
     0
176
     1
 90
        1
176
     1
 40
0.0
176
     1
 90
        0
176
     1
290
     0
176
     1
290
     1
176
     1
290
     1
176
     1
290
     0
176
     1
290
     0
176
     1
290
     0
176
     1
290
     0
176
     1
290
     0
176
     1
290
     0
176
     1
 90
       50
176
     1
 40
0.0
176
     1
 40
1.0
176
     1
 90
        0
176
     1
 62
    18
420
        0
176
     1
 90
       50
176
     1
 90
        3
176
     1
 62
     5
420
      255
176
     1
290
     0
176
     1
 90
       50
176
     1
 90
       50
176
     1
 90
       50
176
     1
290
     0
176
     1
 90
       50
176
     1
 62
   256
176
     0
 40
1.0
176
     0
 90
        2
176
     1
  1
strokes_ogs.tif
176
     1
290
     0
176
     1
 40
1.0
176
     1
 40
1.0
176
     1
  0
VISUALSTYLE
  5
36
102
{ACAD_REACTORS
330
29
102
}
330
29
100
AcDbVisualStyle
  2
Thicken
 70
    13
177
     3
291
     1
 70
    58
 90
        2
176
     1
 90
        2
176
     1
 90
        0
176
     1
 90
        0
176
     1
 40
0.6
176
     1
 40
30.0
176
     1
 62
     7
420
 16777215
176
     1
 90
        1
176
     1
 90
        4
176
     1
 62
     7
176
     1
 62
   257
176
     1
 90
        1
176
     1
 90
        1
176
     1
 40
1.0
176
     1
 90
       12
176
     1
 62
     7
176
     1
 40
1.0
176
     1
 90
        1
176
     1
 90
        6
176
     1
 90
        2
176
     1
 62
     7
176
     1
 90
        5
176
     1
 90
        0
176
     1
 90
        0
176
     1
290
     0
176
     1
 90
        1
176
     1
 40
0.0
176
     1
 90
        0
176
     1
290
     0
176
     1
290
     1
176
     1
290
     1
176
     1
290
     0
176
     1
290
     0
176
     1
290
     0
176
     1
290
     0
176
     1
290
     0
176
     1
290
     0
176
     1
 90
       50
176
     1
 40
0.0
176
     1
 40
1.0
176
     1
 90
        0
176
     1
 62
    18
420
        0
176
     1
 90
       50
176
     1
 90
        3
176
     1
 62
     5
420
      255
176
     1
290
     0
176
     1
 90
       50
176
     1
 90
       50
176
     1
 90
       50
176
     1
290
     0
176
     1
 90
       50
176
     1
 62
   256
176
     0
 40
1.0
176
     0
 90
        2
176
     1
  1
strokes_ogs.tif
176
     1
290
     0
176
     1
 40
1.0
176
     1
 40
1.0
176
     1
  0
VISUALSTYLE
  5
30
102
{ACAD_REACTORS
330
29
102
}
330
29
100
AcDbVisualStyle
  2
Wireframe
 70
     5
177
     3
291
     0
 70
    58
 90
        0
176
     1
 90
        2
176
     1
 90
        0
176
     1
 90
        0
176
     1
 40
0.6
176
     1
 40
30.0
176
     1
 62
     7
420
 16777215
176
     1
 90
        1
176
     1
 90
        4
176
     1
 62
     7
176
     1
 62
   257
176
     1
 90
        1
176
     1
 90
        1
176
     1
 40
1.0
176
     1
 90
        0
176
     1
 62
   257
176
     1
 40
1.0
176
     1
 90
        1
176
     1
 90
        6
176
     1
 90
        2
176
     1
 62
     7
176
     1
 90
        3
176
     1
 90
        0
176
     1
 90
        0
176
     1
290
     0
176
     1
 90
        1
176
     1
 40
0.0
176
     1
 90
        0
176
     1
290
     0
176
     1
290
     1
176
     1
290
     1
176
     1
290
     0
176
     1
290
     0
176
     1
290
     0
176
     1
290
     0
176
     1
290
     0
176
     1
290
     0
176
     1
 90
       50
176
     1
 40
0.0
176
     1
 40
1.0
176
     1
 90
        0
176
     1
 62
    18
420
        0
176
     1
 90
       50
176
     1
 90
        3
176
     1
 62
     5
420
      255
176
     1
290
     0
176
     1
 90
       50
176
     1
 90
       50
176
     1
 90
       50
176
     1
290
     0
176
     1
 90
       50
176
     1
 62
   256
176
     0
 40
1.0
176
     0
 90
        2
176
     1
  1
strokes_ogs.tif
176
     1
290
     0
176
     1
 40
1.0
176
     1
 40
1.0
176
     1
  0
VISUALSTYLE
  5
3C
102
{ACAD_REACTORS
330
29
102
}
330
29
100
AcDbVisualStyle
  2
X-Ray
 70
    25
177
     3
291
     0
 70
    58
 90
        2
176
     1
 90
        2
176
     1
 90
        1
176
     1
 90
        1
176
     1
 40
0.5
176
     1
 40
30.0
176
     1
 62
     7
420
 16777215
176
     1
 90
        1
176
     1
 90
        0
176
     1
 62
     7
176
     1
 62
   257
176
     1
 90
        1
176
     1
 90
        1
176
     1
 40
1.0
176
     1
 90
        8
176
     1
 62
     7
176
     1
 40
1.0
176
     1
 90
        1
176
     1
 90
        6
176
     1
 90
        2
176
     1
 62
     7
176
     1
 90
        3
176
     1
 90
        0
176
     1
 90
        0
176
     1
290
     0
176
     1
 90
       13
176
     1
 40
0.0
176
     1
 90
        0
176
     1
290
     0
176
     1
290
     1
176
     1
290
     1
176
     1
290
     0
176
     1
290
     0
176
     1
290
     0
176
     1
290
     0
176
     1
290
     0
176
     1
290
     0
176
     1
 90
       50
176
     1
 40
0.0
176
     1
 40
1.0
176
     1
 90
        0
176
     1
 62
    18
420
        0
176
     1
 90
       50
176
     1
 90
        3
176
     1
 62
     5
420
      255
176
     1
290
     0
176
     1
 90
       50
176
     1
 90
       50
176
     1
 90
       50
176
     1
290
     0
176
     1
 90
       50
176
     1
 62
   256
176
     0
 40
1.0
176
     0
 90
        2
176
     1
  1
strokes_ogs.tif
176
     1
290
     0
176
     1
 40
1.0
176
     1
 40
1.0
176
     1
  0
DICTIONARYVAR
  5
B7
102
{ACAD_REACTORS
330
B2
102
}
330
B2
100
DictionaryVariables
280
     0
  1
1:1
  0
DICTIONARYVAR
  5
B4
102
{ACAD_REACTORS
330
B2
102
}
330
B2
100
DictionaryVariables
280
     0
  1
STANDARD
  0
DICTIONARYVAR
  5
B3
102
{ACAD_REACTORS
330
B2
102
}
330
B2
100
DictionaryVariables
280
     0
  1
STANDARD
  0
DICTIONARYVAR
  5
B5
102
{ACAD_REACTORS
330
B2
102
}
330
B2
100
DictionaryVariables
280
     0
  1
Imperial24
  0
DICTIONARYVAR
  5
B6
102
{ACAD_REACTORS
330
B2
102
}
330
B2
100
DictionaryVariables
280
     0
  1
Imperial24
  0
DICTIONARY
  5
1A
330
19
100
AcDbDictionary
280
     1
281
     1
  3
BUMPTILE
360
1C
  3
DIFFUSETILE
360
1B
  3
OPACITYTILE
360
1F
  3
REFLECTIONTILE
360
1E
  3
REFRACTIONTILE
360
20
  3
SPECULARTILE
360
1D
  0
DICTIONARY
  5
12
330
11
100
AcDbDictionary
280
     1
281
     1
  3
BUMPTILE
360
14
  3
DIFFUSETILE
360
13
  3
OPACITYTILE
360
17
  3
REFLECTIONTILE
360
16
  3
REFRACTIONTILE
360
18
  3
SPECULARTILE
360
15
  0
DICTIONARY
  5
22
330
21
100
AcDbDictionary
280
     1
281
     1
  3
BUMPTILE
360
24
  3
DIFFUSETILE
360
23
  3
OPACITYTILE
360
27
  3
REFLECTIONTILE
360
26
  3
REFRACTIONTILE
360
28
  3
SPECULARTILE
360
25
  0
DICTIONARY
  5
B8
330
65
100
AcDbDictionary
280
     1
281
     1
  3
ACAD_ROUNDTRIP_2008_TABLESTYLE_CELLSTYLEMAP
360
B9
  0
XRECORD
  5
1C
102
{ACAD_REACTORS
330
1A
102
}
330
1A
100
AcDbXrecord
280
     1
270
     1
271
     1
  0
XRECORD
  5
1B
102
{ACAD_REACTORS
330
1A
102
}
330
1A
100
AcDbXrecord
280
     1
270
     1
271
     1
  0
XRECORD
  5
1F
102
{ACAD_REACTORS
330
1A
102
}
330
1A
100
AcDbXrecord
280
     1
270
     1
271
     1
  0
XRECORD
  5
1E
102
{ACAD_REACTORS
330
1A
102
}
330
1A
100
AcDbXrecord
280
     1
270
     1
271
     1
  0
XRECORD
  5
20
102
{ACAD_REACTORS
330
1A
102
}
330
1A
100
AcDbXrecord
280
     1
270
     1
271
     1
  0
XRECORD
  5
1D
102
{ACAD_REACTORS
330
1A
102
}
330
1A
100
AcDbXrecord
280
     1
270
     1
271
     1
  0
XRECORD
  5
14
102
{ACAD_REACTORS
330
12
102
}
330
12
100
AcDbXrecord
280
     1
270
     1
271
     1
  0
XRECORD
  5
13
102
{ACAD_REACTORS
330
12
102
}
330
12
100
AcDbXrecord
280
     1
270
     1
271
     1
  0
XRECORD
  5
17
102
{ACAD_REACTORS
330
12
102
}
330
12
100
AcDbXrecord
280
     1
270
     1
271
     1
  0
XRECORD
  5
16
102
{ACAD_REACTORS
330
12
102
}
330
12
100
AcDbXrecord
280
     1
270
     1
271
     1
  0
XRECORD
  5
18
102
{ACAD_REACTORS
330
12
102
}
330
12
100
AcDbXrecord
280
     1
270
     1
271
     1
  0
XRECORD
  5
15
102
{ACAD_REACTORS
330
12
102
}
330
12
100
AcDbXrecord
280
     1
270
     1
271
     1
  0
XRECORD
  5
24
102
{ACAD_REACTORS
330
22
102
}
330
22
100
AcDbXrecord
280
     1
270
     1
271
     1
  0
XRECORD
  5
23
102
{ACAD_REACTORS
330
22
102
}
330
22
100
AcDbXrecord
280
     1
270
     1
271
     1
  0
XRECORD
  5
27
102
{ACAD_REACTORS
330
22
102
}
330
22
100
AcDbXrecord
280
     1
270
     1
271
     1
  0
XRECORD
  5
26
102
{ACAD_REACTORS
330
22
102
}
330
22
100
AcDbXrecord
280
     1
270
     1
271
     1
  0
XRECORD
  5
28
102
{ACAD_REACTORS
330
22
102
}
330
22
100
AcDbXrecord
280
     1
270
     1
271
     1
  0
XRECORD
  5
25
102
{ACAD_REACTORS
330
22
102
}
330
22
100
AcDbXrecord
280
     1
270
     1
271
     1
  0
CELLSTYLEMAP
  5
B9
102
{ACAD_REACTORS
330
B8
102
}
330
B8
100
AcDbCellStyleMap
 90
        3
300
CELLSTYLE
  1
TABLEFORMAT_BEGIN
 90
        5
170
     1
 91
        0
 92
    32768
 62
   257
 93
        1
300
CONTENTFORMAT
  1
CONTENTFORMAT_BEGIN
 90
        0
 91
        0
 92
      512
 93
        0
300

 40
0.0
140
1.0
 94
        5
 62
     0
340
55
144
0.25
309
CONTENTFORMAT_END
171
     0
 94
        0
309
TABLEFORMAT_END
  1
CELLSTYLE_BEGIN
 90
        1
 91
        1
300
_TITLE
309
CELLSTYLE_END
300
CELLSTYLE
  1
TABLEFORMAT_BEGIN
 90
        5
170
     1
 91
        0
 92
        0
 62
   257
 93
        1
300
CONTENTFORMAT
  1
CONTENTFORMAT_BEGIN
 90
        0
 91
        0
 92
      512
 93
        0
300

 40
0.0
140
1.0
 94
        5
 62
     0
340
55
144
0.18
309
CONTENTFORMAT_END
171
     0
 94
        0
309
TABLEFORMAT_END
  1
CELLSTYLE_BEGIN
 90
        2
 91
        1
300
_HEADER
309
CELLSTYLE_END
300
CELLSTYLE
  1
TABLEFORMAT_BEGIN
 90
        5
170
     1
 91
        0
 92
        0
 62
   257
 93
        1
300
CONTENTFORMAT
  1
CONTENTFORMAT_BEGIN
 90
        0
 91
        0
 92
      512
 93
        0
300

 40
0.0
140
1.0
 94
        2
 62
     0
340
55
144
0.18
309
CONTENTFORMAT_END
171
     0
 94
        0
309
TABLEFORMAT_END
  1
CELLSTYLE_BEGIN
 90
        3
 91
        2
300
_DATA
309
CELLSTYLE_END
  0
ENDSEC
  0
EOF
