  0
SECTION
  2
HEADER
  9
$ACADVER
  1
AC1018
  9
$ACADMAINTVER
 70
     0
  9
$DWGCODEPAGE
  3
ANSI_1252
  9
$INSBASE
 10
0.0
 20
0.0
 30
0.0
  9
$EXTMIN
 10
1.000000000000000E+20
 20
1.000000000000000E+20
 30
1.000000000000000E+20
  9
$EXTMAX
 10
-1.000000000000000E+20
 20
-1.000000000000000E+20
 30
-1.000000000000000E+20
  9
$LIMMIN
 10
0.0
 20
0.0
  9
$LIMMAX
 10
12.0
 20
9.0
  9
$ORTHOMODE
 70
     0
  9
$REGENMODE
 70
     1
  9
$FILLMODE
 70
     1
  9
$QTEXTMODE
 70
     0
  9
$MIRRTEXT
 70
     1
  9
$LTSCALE
 40
1.0
  9
$ATTMODE
 70
     1
  9
$TEXTSIZE
 40
0.2
  9
$TRACEWID
 40
0.05
  9
$TEXTSTYLE
  7
Standard
  9
$CLAYER
  8
0
  9
$CELTYPE
  6
ByLayer
  9
$CECOLOR
 62
   256
  9
$CELTSCALE
 40
1.0
  9
$DISPSILH
 70
     0
  9
$DIMSCALE
 40
1.0
  9
$DIMASZ
 40
0.18
  9
$DIMEXO
 40
0.0625
  9
$DIMDLI
 40
0.38
  9
$DIMRND
 40
0.0
  9
$DIMDLE
 40
0.0
  9
$DIMEXE
 40
0.18
  9
$DIMTP
 40
0.0
  9
$DIMTM
 40
0.0
  9
$DIMTXT
 40
0.18
  9
$DIMCEN
 40
0.09
  9
$DIMTSZ
 40
0.0
  9
$DIMTOL
 70
     0
  9
$DIMLIM
 70
     0
  9
$DIMTIH
 70
     1
  9
$DIMTOH
 70
     1
  9
$DIMSE1
 70
     0
  9
$DIMSE2
 70
     0
  9
$DIMTAD
 70
     0
  9
$DIMZIN
 70
     0
  9
$DIMBLK
  1

  9
$DIMASO
 70
     1
  9
$DIMSHO
 70
     1
  9
$DIMPOST
  1

  9
$DIMAPOST
  1

  9
$DIMALT
 70
     0
  9
$DIMALTD
 70
     2
  9
$DIMALTF
 40
25.4
  9
$DIMLFAC
 40
1.0
  9
$DIMTOFL
 70
     0
  9
$DIMTVP
 40
0.0
  9
$DIMTIX
 70
     0
  9
$DIMSOXD
 70
     0
  9
$DIMSAH
 70
     0
  9
$DIMBLK1
  1

  9
$DIMBLK2
  1

  9
$DIMSTYLE
  2
Standard
  9
$DIMCLRD
 70
     0
  9
$DIMCLRE
 70
     0
  9
$DIMCLRT
 70
     0
  9
$DIMTFAC
 40
1.0
  9
$DIMGAP
 40
0.09
  9
$DIMJUST
 70
     0
  9
$DIMSD1
 70
     0
  9
$DIMSD2
 70
     0
  9
$DIMTOLJ
 70
     1
  9
$DIMTZIN
 70
     0
  9
$DIMALTZ
 70
     0
  9
$DIMALTTZ
 70
     0
  9
$DIMUPT
 70
     0
  9
$DIMDEC
 70
     4
  9
$DIMTDEC
 70
     4
  9
$DIMALTU
 70
     2
  9
$DIMALTTD
 70
     2
  9
$DIMTXSTY
  7
Standard
  9
$DIMAUNIT
 70
     0
  9
$DIMADEC
 70
     0
  9
$DIMALTRND
 40
0.0
  9
$DIMAZIN
 70
     0
  9
$DIMDSEP
 70
    46
  9
$DIMATFIT
 70
     3
  9
$DIMFRAC
 70
     0
  9
$DIMLDRBLK
  1

  9
$DIMLUNIT
 70
     2
  9
$DIMLWD
 70
    -2
  9
$DIMLWE
 70
    -2
  9
$DIMTMOVE
 70
     0
  9
$LUNITS
 70
     2
  9
$LUPREC
 70
     4
  9
$SKETCHINC
 40
0.1
  9
$FILLETRAD
 40
0.5
  9
$AUNITS
 70
     0
  9
$AUPREC
 70
     0
  9
$MENU
  1
.
  9
$ELEVATION
 40
0.0
  9
$PELEVATION
 40
0.0
  9
$THICKNESS
 40
0.0
  9
$LIMCHECK
 70
     0
  9
$CHAMFERA
 40
0.5
  9
$CHAMFERB
 40
0.5
  9
$CHAMFERC
 40
1.0
  9
$CHAMFERD
 40
0.0
  9
$SKPOLY
 70
     0
  9
$TDCREATE
 40
2460007.946868449
  9
$TDUCREATE
 40
2460008.280201782
  9
$TDUPDATE
 40
2460007.946868577
  9
$TDUUPDATE
 40
2460008.28020191
  9
$TDINDWG
 40
0.0000000116
  9
$TDUSRTIMER
 40
0.0000000116
  9
$USRTIMER
 70
     1
  9
$ANGBASE
 50
0.0
  9
$ANGDIR
 70
     0
  9
$PDMODE
 70
     0
  9
$PDSIZE
 40
0.0
  9
$PLINEWID
 40
0.0
  9
$SPLFRAME
 70
     0
  9
$SPLINETYPE
 70
     6
  9
$SPLINESEGS
 70
     8
  9
$HANDSEED
  5
92
  9
$SURFTAB1
 70
     6
  9
$SURFTAB2
 70
     6
  9
$SURFTYPE
 70
     6
  9
$SURFU
 70
     6
  9
$SURFV
 70
     6
  9
$UCSBASE
  2

  9
$UCSNAME
  2

  9
$UCSORG
 10
0.0
 20
0.0
 30
0.0
  9
$UCSXDIR
 10
1.0
 20
0.0
 30
0.0
  9
$UCSYDIR
 10
0.0
 20
1.0
 30
0.0
  9
$UCSORTHOREF
  2

  9
$UCSORTHOVIEW
 70
     0
  9
$UCSORGTOP
 10
0.0
 20
0.0
 30
0.0
  9
$UCSORGBOTTOM
 10
0.0
 20
0.0
 30
0.0
  9
$UCSORGLEFT
 10
0.0
 20
0.0
 30
0.0
  9
$UCSORGRIGHT
 10
0.0
 20
0.0
 30
0.0
  9
$UCSORGFRONT
 10
0.0
 20
0.0
 30
0.0
  9
$UCSORGBACK
 10
0.0
 20
0.0
 30
0.0
  9
$PUCSBASE
  2

  9
$PUCSNAME
  2

  9
$PUCSORG
 10
0.0
 20
0.0
 30
0.0
  9
$PUCSXDIR
 10
1.0
 20
0.0
 30
0.0
  9
$PUCSYDIR
 10
0.0
 20
1.0
 30
0.0
  9
$PUCSORTHOREF
  2

  9
$PUCSORTHOVIEW
 70
     0
  9
$PUCSORGTOP
 10
0.0
 20
0.0
 30
0.0
  9
$PUCSORGBOTTOM
 10
0.0
 20
0.0
 30
0.0
  9
$PUCSORGLEFT
 10
0.0
 20
0.0
 30
0.0
  9
$PUCSORGRIGHT
 10
0.0
 20
0.0
 30
0.0
  9
$PUCSORGFRONT
 10
0.0
 20
0.0
 30
0.0
  9
$PUCSORGBACK
 10
0.0
 20
0.0
 30
0.0
  9
$USERI1
 70
     0
  9
$USERI2
 70
     0
  9
$USERI3
 70
     0
  9
$USERI4
 70
     0
  9
$USERI5
 70
     0
  9
$USERR1
 40
0.0
  9
$USERR2
 40
0.0
  9
$USERR3
 40
0.0
  9
$USERR4
 40
0.0
  9
$USERR5
 40
0.0
  9
$WORLDVIEW
 70
     1
  9
$SHADEDGE
 70
     3
  9
$SHADEDIF
 70
    70
  9
$TILEMODE
 70
     1
  9
$MAXACTVP
 70
    64
  9
$PINSBASE
 10
0.0
 20
0.0
 30
0.0
  9
$PLIMCHECK
 70
     0
  9
$PEXTMIN
 10
1.000000000000000E+20
 20
1.000000000000000E+20
 30
1.000000000000000E+20
  9
$PEXTMAX
 10
-1.000000000000000E+20
 20
-1.000000000000000E+20
 30
-1.000000000000000E+20
  9
$PLIMMIN
 10
0.0
 20
0.0
  9
$PLIMMAX
 10
12.0
 20
9.0
  9
$UNITMODE
 70
     0
  9
$VISRETAIN
 70
     1
  9
$PLINEGEN
 70
     0
  9
$PSLTSCALE
 70
     1
  9
$TREEDEPTH
 70
  3020
  9
$CMLSTYLE
  2
Standard
  9
$CMLJUST
 70
     0
  9
$CMLSCALE
 40
1.0
  9
$PROXYGRAPHICS
 70
     1
  9
$MEASUREMENT
 70
     0
  9
$CELWEIGHT
370
    -1
  9
$ENDCAPS
280
     0
  9
$JOINSTYLE
280
     0
  9
$LWDISPLAY
290
     1
  9
$INSUNITS
 70
     1
  9
$HYPERLINKBASE
  1

  9
$STYLESHEET
  1

  9
$XEDIT
290
     1
  9
$CEPSNTYPE
380
     0
  9
$PSTYLEMODE
290
     1
  9
$FINGERPRINTGUID
  2
{E0668AC8-13DD-4F19-A467-544C218F6ED1}
  9
$VERSIONGUID
  2
{FAEB1C32-E019-11D5-929B-00C0DF256EC4}
  9
$EXTNAMES
290
     1
  9
$PSVPSCALE
 40
0.0
  9
$OLESTARTUP
290
     0
  9
$SORTENTS
280
   127
  9
$INDEXCTL
280
     0
  9
$HIDETEXT
280
     1
  9
$XCLIPFRAME
290
     0
  9
$HALOGAP
280
     0
  9
$OBSCOLOR
 70
   257
  9
$OBSLTYPE
280
     0
  9
$INTERSECTIONDISPLAY
280
     0
  9
$INTERSECTIONCOLOR
 70
   257
  9
$DIMASSOC
280
     2
  9
$PROJECTNAME
  1

  0
ENDSEC
  0
SECTION
  2
CLASSES
  0
CLASS
  1
ACDBDICTIONARYWDFLT
  2
AcDbDictionaryWithDefault
  3
ObjectDBX Classes
 90
        0
 91
        4
280
     0
281
     0
  0
CLASS
  1
VISUALSTYLE
  2
AcDbVisualStyle
  3
ObjectDBX Classes
 90
     4095
 91
        4
280
     0
281
     0
  0
CLASS
  1
MATERIAL
  2
AcDbMaterial
  3
ObjectDBX Classes
 90
     1153
 91
        4
280
     0
281
     0
  0
CLASS
  1
SUN
  2
AcDbSun
  3
SCENEOE
 90
     1024
 91
        4
280
     0
281
     0
  0
ENDSEC
  0
SECTION
  2
TABLES
  0
TABLE
  2
VPORT
  5
8
330
0
100
AcDbSymbolTable
 70
     1
  0
VPORT
  5
29
330
8
100
AcDbSymbolTableRecord
100
AcDbViewportTableRecord
  2
*Active
 70
     0
 10
0.0
 20
0.0
 11
1.0
 21
1.0
 12
0.0
 22
0.0
 13
0.0
 23
0.0
 14
0.5
 24
0.5
 15
0.5
 25
0.5
 16
0.0
 26
0.0
 36
1.0
 17
0.9588254593173624
 27
-1.541283902012506
 37
0.0
 40
3.500000000000012
 41
0.7028571428571398
 42
50.0
 43
0.0
 44
0.0
 50
0.0
 51
0.0
 71
     0
 72
   100
 73
     1
 74
     3
 75
     0
 76
     0
 77
     0
 78
     0
281
     0
 65
     1
110
0.0
120
0.0
130
0.0
111
1.0
121
0.0
131
0.0
112
0.0
122
1.0
132
0.0
 79
     0
146
0.0
  0
ENDTAB
  0
TABLE
  2
LTYPE
  5
5
330
0
100
AcDbSymbolTable
 70
     1
  0
LTYPE
  5
14
330
5
100
AcDbSymbolTableRecord
100
AcDbLinetypeTableRecord
  2
ByBlock
 70
     0
  3

 72
    65
 73
     0
 40
0.0
  0
LTYPE
  5
15
330
5
100
AcDbSymbolTableRecord
100
AcDbLinetypeTableRecord
  2
ByLayer
 70
     0
  3

 72
    65
 73
     0
 40
0.0
  0
LTYPE
  5
16
330
5
100
AcDbSymbolTableRecord
100
AcDbLinetypeTableRecord
  2
Continuous
 70
     0
  3
Solid line
 72
    65
 73
     0
 40
0.0
  0
ENDTAB
  0
TABLE
  2
LAYER
  5
2
330
0
100
AcDbSymbolTable
 70
     3
  0
LAYER
  5
10
330
2
100
AcDbSymbolTableRecord
100
AcDbLayerTableRecord
  2
0
 70
     0
 62
     7
  6
Continuous
370
    -3
390
F
  0
LAYER
  5
40
330
2
100
AcDbSymbolTableRecord
100
AcDbLayerTableRecord
  2
White
 70
     4
 62
     7
  6
Continuous
370
    -3
390
F
  0
LAYER
  5
50
330
2
100
AcDbSymbolTableRecord
100
AcDbLayerTableRecord
  2
Text
 70
     0
 62
     7
  6
Continuous
370
    -3
390
F
  0
ENDTAB
  0
TABLE
  2
STYLE
  5
3
330
0
100
AcDbSymbolTable
 70
     1
  0
STYLE
  5
11
330
3
100
AcDbSymbolTableRecord
100
AcDbTextStyleTableRecord
  2
Standard
 70
     0
 40
0.0
 41
1.0
 50
0.0
 71
     0
 42
0.2
  3
txt
  4

  0
ENDTAB
  0
TABLE
  2
VIEW
  5
6
330
0
100
AcDbSymbolTable
 70
     0
  0
ENDTAB
  0
TABLE
  2
UCS
  5
7
330
0
100
AcDbSymbolTable
 70
     0
  0
ENDTAB
  0
TABLE
  2
APPID
  5
9
330
0
100
AcDbSymbolTable
 70
     1
  0
APPID
  5
12
330
9
100
AcDbSymbolTableRecord
100
AcDbRegAppTableRecord
  2
ACAD
 70
     0
  0
ENDTAB
  0
TABLE
  2
DIMSTYLE
  5
A
330
0
100
AcDbSymbolTable
 70
     1
100
AcDbDimStyleTable
  0
DIMSTYLE
105
27
330
A
100
AcDbSymbolTableRecord
100
AcDbDimStyleTableRecord
  2
Standard
 70
     0
178
     0
340
11
  0
ENDTAB
  0
TABLE
  2
BLOCK_RECORD
  5
1
330
0
100
AcDbSymbolTable
 70
     3
  0
BLOCK_RECORD
  5
1F
330
1
100
AcDbSymbolTableRecord
100
AcDbBlockTableRecord
  2
*Model_Space
340
22
  0
BLOCK_RECORD
  5
1B
330
1
100
AcDbSymbolTableRecord
100
AcDbBlockTableRecord
  2
*Paper_Space
340
1E
  0
BLOCK_RECORD
  5
23
330
1
100
AcDbSymbolTableRecord
100
AcDbBlockTableRecord
  2
*Paper_Space0
340
26
  0
BLOCK_RECORD
  5
53
330
1
100
AcDbSymbolTableRecord
100
AcDbBlockTableRecord
  2
block 2
340
0
102
{BLKREFS
331
54
102
}
  0
BLOCK_RECORD
  5
59
330
1
100
AcDbSymbolTableRecord
100
AcDbBlockTableRecord
  2
block 3
340
0
102
{BLKREFS
331
5A
102
}
  0
ENDTAB
  0
ENDSEC
  0
SECTION
  2
BLOCKS
  0
BLOCK
  5
20
330
1F
100
AcDbEntity
  8
0
100
AcDbBlockBegin
  2
*Model_Space
 70
     0
 10
0.0
 20
0.0
 30
0.0
  3
*Model_Space
  1

  0
ENDBLK
  5
21
330
1F
100
AcDbEntity
  8
0
100
AcDbBlockEnd
  0
BLOCK
  5
1C
330
1B
100
AcDbEntity
 67
     1
  8
0
100
AcDbBlockBegin
  2
*Paper_Space
 70
     0
 10
0.0
 20
0.0
 30
0.0
  3
*Paper_Space
  1

  0
ENDBLK
  5
1D
330
1B
100
AcDbEntity
 67
     1
  8
0
100
AcDbBlockEnd
  0
BLOCK
  5
24
330
23
100
AcDbEntity
  8
0
100
AcDbBlockBegin
  2
*Paper_Space0
 70
     0
 10
0.0
 20
0.0
 30
0.0
  3
*Paper_Space0
  1

  0
ENDBLK
  5
25
330
23
100
AcDbEntity
  8
0
100
AcDbBlockEnd
  0
BLOCK
  5
55
330
53
100
AcDbEntity
  8
0
100
AcDbBlockBegin
  2
block 2
 70
     0
 10
0.0
 20
0.0
 30
0.0
  3
block 2
  1

  0
SPLINE
  5
57
330
53
100
AcDbEntity
  8
Text
370
     0
100
AcDbSpline
210
0.0
220
0.0
230
1.0
 70
    11
 71
     3
 72
    74
 73
    70
 74
     0
 42
0.0000000001
 43
0.0000000001
 12
1.0
 22
0.0
 32
0.0
 13
1.0
 23
0.0
 33
0.0
 40
0.0
 40
0.0
 40
0.0
 40
0.0
 40
1.0
 40
1.0
 40
1.0
 40
2.0
 40
2.0
 40
2.0
 40
3.0
 40
3.0
 40
3.0
 40
4.0
 40
4.0
 40
4.0
 40
5.0
 40
5.0
 40
5.0
 40
6.0
 40
6.0
 40
6.0
 40
7.0
 40
7.0
 40
7.0
 40
8.0
 40
8.0
 40
8.0
 40
9.0
 40
9.0
 40
9.0
 40
10.0
 40
10.0
 40
10.0
 40
11.0
 40
11.0
 40
11.0
 40
12.0
 40
12.0
 40
12.0
 40
13.0
 40
13.0
 40
13.0
 40
14.0
 40
14.0
 40
14.0
 40
15.0
 40
15.0
 40
15.0
 40
16.0
 40
16.0
 40
16.0
 40
17.0
 40
17.0
 40
17.0
 40
18.0
 40
18.0
 40
18.0
 40
19.0
 40
19.0
 40
19.0
 40
20.0
 40
20.0
 40
20.0
 40
21.0
 40
21.0
 40
21.0
 40
22.0
 40
22.0
 40
22.0
 40
23.0
 40
23.0
 40
23.0
 40
23.0
 10
1.075250019864219
 20
-3.031323877068568
 30
0.0
 10
1.075250019864219
 20
-3.031323877068568
 30
0.0
 10
1.198296894864219
 20
-3.031323877068568
 30
0.0
 10
1.198296894864219
 20
-3.031323877068568
 30
0.0
 10
1.198296894864219
 20
-3.031323877068568
 30
0.0
 10
1.193169941739219
 20
-3.198310004340278
 30
0.0
 10
1.193169941739219
 20
-3.198310004340278
 30
0.0
 10
1.193169941739219
 20
-3.198310004340278
 30
0.0
 10
0.7202085159579685
 20
-3.198310004340278
 30
0.0
 10
0.7202085159579685
 20
-3.198310004340278
 30
0.0
 10
0.7196320728156075
 20
-3.184081659162327
 30
0.0
 10
0.7193540237704685
 20
-3.176806167467021
 30
0.0
 10
0.7193540237704685
 20
-3.176467397343761
 30
0.0
 10
0.7193540237704685
 20
-3.110745993426513
 30
0.0
 10
0.7313169143954685
 20
-3.051799991975006
 30
0.0
 10
0.7552426956454685
 20
-2.999629392989138
 30
0.0
 10
0.7674836353156075
 20
-2.972866553249661
 30
0.0
 10
0.7844378453850519
 20
-2.94626503261649
 30
0.0
 10
0.8060849808017185
 20
-2.919840963000272
 30
0.0
 10
0.8277253345343575
 20
-2.893416893384078
 30
0.0
 10
0.8540789586663019
 20
-2.866831504661554
 30
0.0
 10
0.8851255081454685
 20
-2.840052533011431
 30
0.0
 10
0.9375275806281075
 20
-2.793995928155355
 30
0.0
 10
0.9712800220343575
 20
-2.760780324162826
 30
0.0
 10
0.9863828323642185
 20
-2.740454116765755
 30
0.0
 10
1.001478861010052
 20
-2.719466501032735
 30
0.0
 10
1.009026875332969
 20
-2.698285302372117
 30
0.0
 10
1.009026875332969
 20
-2.676942784605191
 30
0.0
 10
1.009026875332969
 20
-2.65627780708481
 30
0.0
 10
1.003899922207969
 20
-2.639339300920584
 30
0.0
 10
0.9936460159579685
 20
-2.626127266112487
 30
0.0
 10
0.9833921097079685
 20
-2.612915231304391
 30
0.0
 10
0.9680112503329685
 20
-2.606301147945032
 30
0.0
 10
0.9475034378329685
 20
-2.606301147945032
 30
0.0
 10
0.9036395055413019
 20
-2.606301147945032
 30
0.0
 10
0.8817075393954685
 20
-2.639339300920584
 30
0.0
 10
0.8817075393954685
 20
-2.705399474961091
 30
0.0
 10
0.8817075393954685
 20
-2.705399474961091
 30
0.0
 10
0.7287534378329685
 20
-2.699801701971612
 30
0.0
 10
0.7287534378329685
 20
-2.699801701971612
 30
0.0
 10
0.7318865758538019
 20
-2.618851774417206
 30
0.0
 10
0.7545306188225519
 20
-2.561422172565118
 30
0.0
 10
0.7966855667392185
 20
-2.527545160236665
 30
0.0
 10
0.8391253453850519
 20
-2.494006918031447
 30
0.0
 10
0.8926667407843575
 20
-2.477245862884198
 30
0.0
 10
0.9573300979892185
 20
-2.477245862884198
 30
0.0
 10
1.027968118822552
 20
-2.477245862884198
 30
0.0
 10
1.085219095385052
 20
-2.496539628000796
 30
0.0
 10
1.129083027676719
 20
-2.535159422055231
 30
0.0
 10
1.172946959968385
 20
-2.574134118143597
 30
0.0
 10
1.194878926114219
 20
-2.624949636636302
 30
0.0
 10
1.194878926114219
 20
-2.687605977533344
 30
0.0
 10
1.194878926114219
 20
-2.727935754114848
 30
0.0
 10
1.183770527676719
 20
-2.765200467676145
 30
0.0
 10
1.161553730801719
 20
-2.799400118217262
 30
0.0
 10
1.138767272468385
 20
-2.83363203257967
 30
0.0
 10
1.095337367954496
 20
-2.870219205894399
 30
0.0
 10
1.031243672207969
 20
-2.909161638161499
 30
0.0
 10
0.9793976978156075
 20
-2.940344621414321
 30
0.0
 10
0.9442010997450627
 20
-2.966258176191912
 30
0.0
 10
0.9302600472813208
 20
-2.985520094562642
 30
0.0
 10
0.8788554384968216
 20
-3.056544242908835
 30
0.0
 10
0.8953794143954685
 20
-3.069266130876435
 30
0.0
 10
0.8859800003329685
 20
-3.090269878520101
 30
0.0
 10
0.8859800003329685
 20
-3.090269878520101
 30
0.0
 10
1.073120571079496
 20
-3.090269878520101
 30
0.0
 10
1.073120571079496
 20
-3.090269878520101
 30
0.0
 10
1.073120571079496
 20
-3.090269878520101
 30
0.0
 10
1.075250019864219
 20
-3.031323877068568
 30
0.0
 10
1.075250019864219
 20
-3.031323877068568
 30
0.0
  0
HATCH
  5
58
330
53
100
AcDbEntity
  8
Text
 62
     1
100
AcDbHatch
 10
0.0
 20
0.0
 30
0.0
210
0.0
220
0.0
230
1.0
  2
SOLID
 70
     1
 71
     0
 91
        1
 92
        1
 93
        1
 72
     4
 94
        3
 73
     0
 74
     1
 95
       74
 96
       70
 40
0.0
 40
0.0
 40
0.0
 40
0.0
 40
1.0
 40
1.0
 40
1.0
 40
2.0
 40
2.0
 40
2.0
 40
3.0
 40
3.0
 40
3.0
 40
4.0
 40
4.0
 40
4.0
 40
5.0
 40
5.0
 40
5.0
 40
6.0
 40
6.0
 40
6.0
 40
7.0
 40
7.0
 40
7.0
 40
8.0
 40
8.0
 40
8.0
 40
9.0
 40
9.0
 40
9.0
 40
10.0
 40
10.0
 40
10.0
 40
11.0
 40
11.0
 40
11.0
 40
12.0
 40
12.0
 40
12.0
 40
13.0
 40
13.0
 40
13.0
 40
14.0
 40
14.0
 40
14.0
 40
15.0
 40
15.0
 40
15.0
 40
16.0
 40
16.0
 40
16.0
 40
17.0
 40
17.0
 40
17.0
 40
18.0
 40
18.0
 40
18.0
 40
19.0
 40
19.0
 40
19.0
 40
20.0
 40
20.0
 40
20.0
 40
21.0
 40
21.0
 40
21.0
 40
22.0
 40
22.0
 40
22.0
 40
23.0
 40
23.0
 40
23.0
 40
23.0
 10
1.075250019864219
 20
-3.031323877068568
 10
1.075250019864219
 20
-3.031323877068568
 10
1.198296894864219
 20
-3.031323877068568
 10
1.198296894864219
 20
-3.031323877068568
 10
1.198296894864219
 20
-3.031323877068568
 10
1.193169941739219
 20
-3.198310004340278
 10
1.193169941739219
 20
-3.198310004340278
 10
1.193169941739219
 20
-3.198310004340278
 10
0.7202085159579685
 20
-3.198310004340278
 10
0.7202085159579685
 20
-3.198310004340278
 10
0.7196320728156075
 20
-3.184081659162327
 10
0.7193540237704685
 20
-3.176806167467021
 10
0.7193540237704685
 20
-3.176467397343761
 10
0.7193540237704685
 20
-3.110745993426513
 10
0.7313169143954685
 20
-3.051799991975006
 10
0.7552426956454685
 20
-2.999629392989138
 10
0.7674836353156075
 20
-2.972866553249661
 10
0.7844378453850519
 20
-2.94626503261649
 10
0.8060849808017185
 20
-2.919840963000272
 10
0.8277253345343575
 20
-2.893416893384078
 10
0.8540789586663019
 20
-2.866831504661554
 10
0.8851255081454685
 20
-2.840052533011431
 10
0.9375275806281075
 20
-2.793995928155355
 10
0.9712800220343575
 20
-2.760780324162826
 10
0.9863828323642185
 20
-2.740454116765755
 10
1.001478861010052
 20
-2.719466501032735
 10
1.009026875332969
 20
-2.698285302372117
 10
1.009026875332969
 20
-2.676942784605191
 10
1.009026875332969
 20
-2.65627780708481
 10
1.003899922207969
 20
-2.639339300920584
 10
0.9936460159579685
 20
-2.626127266112487
 10
0.9833921097079685
 20
-2.612915231304391
 10
0.9680112503329685
 20
-2.606301147945032
 10
0.9475034378329685
 20
-2.606301147945032
 10
0.9036395055413019
 20
-2.606301147945032
 10
0.8817075393954685
 20
-2.639339300920584
 10
0.8817075393954685
 20
-2.705399474961091
 10
0.8817075393954685
 20
-2.705399474961091
 10
0.7287534378329685
 20
-2.699801701971612
 10
0.7287534378329685
 20
-2.699801701971612
 10
0.7318865758538019
 20
-2.618851774417206
 10
0.7545306188225519
 20
-2.561422172565118
 10
0.7966855667392185
 20
-2.527545160236665
 10
0.8391253453850519
 20
-2.494006918031447
 10
0.8926667407843575
 20
-2.477245862884198
 10
0.9573300979892185
 20
-2.477245862884198
 10
1.027968118822552
 20
-2.477245862884198
 10
1.085219095385052
 20
-2.496539628000796
 10
1.129083027676719
 20
-2.535159422055231
 10
1.172946959968385
 20
-2.574134118143597
 10
1.194878926114219
 20
-2.624949636636302
 10
1.194878926114219
 20
-2.687605977533344
 10
1.194878926114219
 20
-2.727935754114848
 10
1.183770527676719
 20
-2.765200467676145
 10
1.161553730801719
 20
-2.799400118217262
 10
1.138767272468385
 20
-2.83363203257967
 10
1.095337367954496
 20
-2.870219205894399
 10
1.031243672207969
 20
-2.909161638161499
 10
0.9793976978156075
 20
-2.940344621414321
 10
0.9442010997450627
 20
-2.966258176191912
 10
0.9302600472813208
 20
-2.985520094562642
 10
0.8788554384968216
 20
-3.056544242908835
 10
0.8953794143954685
 20
-3.069266130876435
 10
0.8859800003329685
 20
-3.090269878520101
 10
0.8859800003329685
 20
-3.090269878520101
 10
1.073120571079496
 20
-3.090269878520101
 10
1.073120571079496
 20
-3.090269878520101
 10
1.073120571079496
 20
-3.090269878520101
 10
1.075250019864219
 20
-3.031323877068568
 10
1.075250019864219
 20
-3.031323877068568
 97
        0
 75
     2
 76
     1
 98
        0
  0
ENDBLK
  5
56
330
53
100
AcDbEntity
  8
0
100
AcDbBlockEnd
  0
BLOCK
  5
5B
330
59
100
AcDbEntity
  8
0
100
AcDbBlockBegin
  2
block 3
 70
     0
 10
0.0
 20
0.0
 30
0.0
  3
block 3
  1

  0
SPLINE
  5
5D
330
59
100
AcDbEntity
  8
Text
370
     0
100
AcDbSpline
210
0.0
220
0.0
230
1.0
 70
    11
 71
     3
 72
    56
 73
    52
 74
     0
 42
0.0000000001
 43
0.0000000001
 12
1.0
 22
0.0
 32
0.0
 13
1.0
 23
0.0
 33
0.0
 40
0.0
 40
0.0
 40
0.0
 40
0.0
 40
1.0
 40
1.0
 40
1.0
 40
2.0
 40
2.0
 40
2.0
 40
3.0
 40
3.0
 40
3.0
 40
4.0
 40
4.0
 40
4.0
 40
5.0
 40
5.0
 40
5.0
 40
6.0
 40
6.0
 40
6.0
 40
7.0
 40
7.0
 40
7.0
 40
8.0
 40
8.0
 40
8.0
 40
9.0
 40
9.0
 40
9.0
 40
10.0
 40
10.0
 40
10.0
 40
11.0
 40
11.0
 40
11.0
 40
12.0
 40
12.0
 40
12.0
 40
13.0
 40
13.0
 40
13.0
 40
14.0
 40
14.0
 40
14.0
 40
15.0
 40
15.0
 40
15.0
 40
16.0
 40
16.0
 40
16.0
 40
17.0
 40
17.0
 40
17.0
 40
17.0
 10
0.4777056676506769
 20
-2.866970486111111
 30
0.0
 10
0.4777056676506769
 20
-2.880208333333333
 30
0.0
 10
0.4731076858798436
 20
-2.894205729166667
 30
0.0
 10
0.4639252857062325
 20
-2.908962673611111
 30
0.0
 10
0.4517725079284547
 20
-2.928426106770833
 30
0.0
 10
0.4341197844041491
 20
-2.943508572048611
 30
0.0
 10
0.4109738968173436
 20
-2.954210069444444
 30
0.0
 10
0.3896319371819269
 20
-2.964043511284722
 30
0.0
 10
0.3667030634840103
 20
-2.968967013888889
 30
0.0
 10
0.3421804940395658
 20
-2.968967013888889
 30
0.0
 10
0.3421804940395658
 20
-2.968967013888889
 30
0.0
 10
0.3063732023728992
 20
-2.968967013888889
 30
0.0
 10
0.3063732023728992
 20
-2.968967013888889
 30
0.0
 10
0.3063732023728992
 20
-2.968967013888889
 30
0.0
 10
0.345652716261788
 20
-2.857638888888889
 30
0.0
 10
0.345652716261788
 20
-2.857638888888889
 30
0.0
 10
0.345652716261788
 20
-2.857638888888889
 30
0.0
 10
0.3848237232062325
 20
-2.857638888888889
 30
0.0
 10
0.3848237232062325
 20
-2.857638888888889
 30
0.0
 10
0.3848237232062325
 20
-2.857638888888889
 30
0.0
 10
0.351512091261788
 20
-2.951605902777778
 30
0.0
 10
0.351512091261788
 20
-2.951605902777778
 30
0.0
 10
0.3657604094041492
 20
-2.951605902777778
 30
0.0
 10
0.3798866572340103
 20
-2.947224934895833
 30
0.0
 10
0.3938840530673436
 20
-2.9384765625
 30
0.0
 10
0.4078814489006769
 20
-2.929728190104167
 30
0.0
 10
0.4180946650465103
 20
-2.918904622395833
 30
0.0
 10
0.4245372648728991
 20
-2.906032986111111
 30
0.0
 10
0.4303220413485936
 20
-2.894680447048611
 30
0.0
 10
0.4332178204284547
 20
-2.885199652777778
 30
0.0
 10
0.4332178204284547
 20
-2.877604166666667
 30
0.0
 10
0.4332178204284547
 20
-2.865166558159722
 30
0.0
 10
0.4297455982062325
 20
-2.856228298611111
 30
0.0
 10
0.422801153761788
 20
-2.850802951388889
 30
0.0
 10
0.416575567824288
 20
-2.846028645833333
 30
0.0
 10
0.4070269567131769
 20
-2.843641493055555
 30
0.0
 10
0.3941553204284547
 20
-2.843641493055555
 30
0.0
 10
0.3941553204284547
 20
-2.843641493055555
 30
0.0
 10
0.2892291051506769
 20
-2.843641493055555
 30
0.0
 10
0.2892291051506769
 20
-2.843641493055555
 30
0.0
 10
0.2892291051506769
 20
-2.843641493055555
 30
0.0
 10
0.3059391745951214
 20
-2.816297743055555
 30
0.0
 10
0.3059391745951214
 20
-2.816297743055555
 30
0.0
 10
0.3059391745951214
 20
-2.816297743055555
 30
0.0
 10
0.4109738968173436
 20
-2.816297743055555
 30
0.0
 10
0.4109738968173436
 20
-2.816297743055555
 30
0.0
 10
0.4291284649597047
 20
-2.816297743055555
 30
0.0
 10
0.4442448386576214
 20
-2.820136176215278
 30
0.0
 10
0.4563297995951214
 20
-2.827799479166667
 30
0.0
 10
0.4705781177374825
 20
-2.836846245659722
 30
0.0
 10
0.4777056676506769
 20
-2.849894205729167
 30
0.0
 10
0.4777056676506769
 20
-2.866970486111111
 30
0.0
  0
SPLINE
  5
5E
330
59
100
AcDbEntity
  8
Text
370
     0
100
AcDbSpline
210
0.0
220
0.0
230
1.0
 70
    11
 71
     3
 72
    41
 73
    37
 74
     0
 42
0.0000000001
 43
0.0000000001
 12
1.0
 22
0.0
 32
0.0
 13
1.0
 23
0.0
 33
0.0
 40
0.0
 40
0.0
 40
0.0
 40
0.0
 40
1.0
 40
1.0
 40
1.0
 40
2.0
 40
2.0
 40
2.0
 40
3.0
 40
3.0
 40
3.0
 40
4.0
 40
4.0
 40
4.0
 40
5.0
 40
5.0
 40
5.0
 40
6.0
 40
6.0
 40
6.0
 40
7.0
 40
7.0
 40
7.0
 40
8.0
 40
8.0
 40
8.0
 40
9.0
 40
9.0
 40
9.0
 40
10.0
 40
10.0
 40
10.0
 40
11.0
 40
11.0
 40
11.0
 40
12.0
 40
12.0
 40
12.0
 40
12.0
 10
0.6661822301506769
 20
-2.895182291666667
 30
0.0
 10
0.6632864510708157
 20
-2.906751844618055
 30
0.0
 10
0.6546058955152603
 20
-2.912543402777778
 30
0.0
 10
0.6401405634840103
 20
-2.912543402777778
 30
0.0
 10
0.6401405634840103
 20
-2.912543402777778
 30
0.0
 10
0.5722152162617881
 20
-2.912543402777778
 30
0.0
 10
0.5722152162617881
 20
-2.912543402777778
 30
0.0
 10
0.5746023690395657
 20
-2.914130316840278
 30
0.0
 10
0.5765554940395657
 20
-2.917046440972222
 30
0.0
 10
0.5780745912617881
 20
-2.921278211805555
 30
0.0
 10
0.5795936884840103
 20
-2.925509982638889
 30
0.0
 10
0.5802040400465103
 20
-2.929185655381944
 30
0.0
 10
0.5799192093173435
 20
-2.932291666666667
 30
0.0
 10
0.5789019567131769
 20
-2.944376627604167
 30
0.0
 10
0.5735851164353991
 20
-2.953843858506944
 30
0.0
 10
0.5639686884840103
 20
-2.960720486111111
 30
0.0
 10
0.5547795066263713
 20
-2.967298719618055
 30
0.0
 10
0.5428437427374825
 20
-2.970635308159722
 30
0.0
 10
0.5281613968173435
 20
-2.970703125
 30
0.0
 10
0.5110851164353991
 20
-2.970852322048611
 30
0.0
 10
0.4979557761576214
 20
-2.967488606770833
 30
0.0
 10
0.4887733759840103
 20
-2.960611979166667
 30
0.0
 10
0.480601446730538
 20
-2.954535590277778
 30
0.0
 10
0.476512091261788
 20
-2.946546766493055
 30
0.0
 10
0.476512091261788
 20
-2.936631944444444
 30
0.0
 10
0.476512091261788
 20
-2.934678819444444
 30
0.0
 10
0.476695196730538
 20
-2.932725694444444
 30
0.0
 10
0.4770546259840103
 20
-2.930772569444444
 30
0.0
 10
0.4789399341437325
 20
-2.919854058159722
 30
0.0
 10
0.4843584996819269
 20
-2.911282009548611
 30
0.0
 10
0.4933306676506769
 20
-2.905056423611111
 30
0.0
 10
0.5028792787617881
 20
-2.898478190104167
 30
0.0
 10
0.5156084996819269
 20
-2.895182291666667
 30
0.0
 10
0.5315251120951213
 20
-2.895182291666667
 30
0.0
 10
0.5315251120951213
 20
-2.895182291666667
 30
0.0
 10
0.6661822301506769
 20
-2.895182291666667
 30
0.0
 10
0.6661822301506769
 20
-2.895182291666667
 30
0.0
  0
SPLINE
  5
5F
330
59
100
AcDbEntity
  8
Text
370
     0
100
AcDbSpline
210
0.0
220
0.0
230
1.0
 70
    11
 71
     3
 72
    23
 73
    19
 74
     0
 42
0.0000000001
 43
0.0000000001
 12
1.0
 22
0.0
 32
0.0
 13
1.0
 23
0.0
 33
0.0
 40
0.0
 40
0.0
 40
0.0
 40
0.0
 40
1.0
 40
1.0
 40
1.0
 40
2.0
 40
2.0
 40
2.0
 40
3.0
 40
3.0
 40
3.0
 40
4.0
 40
4.0
 40
4.0
 40
5.0
 40
5.0
 40
5.0
 40
6.0
 40
6.0
 40
6.0
 40
6.0
 10
0.5479096607062325
 20
-2.912543402777778
 30
0.0
 10
0.5479096607062325
 20
-2.912543402777778
 30
0.0
 10
0.5230615704284547
 20
-2.912543402777778
 30
0.0
 10
0.5230615704284547
 20
-2.912543402777778
 30
0.0
 10
0.5230615704284547
 20
-2.912543402777778
 30
0.0
 10
0.5132959454284547
 20
-2.940321180555555
 30
0.0
 10
0.5132959454284547
 20
-2.940321180555555
 30
0.0
 10
0.5127873191263713
 20
-2.9417724609375
 30
0.0
 10
0.5125363968173435
 20
-2.943142361111111
 30
0.0
 10
0.5125363968173435
 20
-2.944444444444444
 30
0.0
 10
0.5125363968173435
 20
-2.950670030381944
 30
0.0
 10
0.5183211732930381
 20
-2.953776041666667
 30
0.0
 10
0.5298975079284547
 20
-2.953776041666667
 30
0.0
 10
0.5312674081020659
 20
-2.953776041666667
 30
0.0
 10
0.5324609844909547
 20
-2.9537353515625
 30
0.0
 10
0.5334782370951213
 20
-2.953667534722222
 30
0.0
 10
0.5334782370951213
 20
-2.953667534722222
 30
0.0
 10
0.5479096607062325
 20
-2.912543402777778
 30
0.0
 10
0.5479096607062325
 20
-2.912543402777778
 30
0.0
  0
SPLINE
  5
60
330
59
100
AcDbEntity
  8
Text
370
     0
100
AcDbSpline
210
0.0
220
0.0
230
1.0
 70
    11
 71
     3
 72
    59
 73
    55
 74
     0
 42
0.0000000001
 43
0.0000000001
 12
1.0
 22
0.0
 32
0.0
 13
1.0
 23
0.0
 33
0.0
 40
0.0
 40
0.0
 40
0.0
 40
0.0
 40
1.0
 40
1.0
 40
1.0
 40
2.0
 40
2.0
 40
2.0
 40
3.0
 40
3.0
 40
3.0
 40
4.0
 40
4.0
 40
4.0
 40
5.0
 40
5.0
 40
5.0
 40
6.0
 40
6.0
 40
6.0
 40
7.0
 40
7.0
 40
7.0
 40
8.0
 40
8.0
 40
8.0
 40
9.0
 40
9.0
 40
9.0
 40
10.0
 40
10.0
 40
10.0
 40
11.0
 40
11.0
 40
11.0
 40
12.0
 40
12.0
 40
12.0
 40
13.0
 40
13.0
 40
13.0
 40
14.0
 40
14.0
 40
14.0
 40
15.0
 40
15.0
 40
15.0
 40
16.0
 40
16.0
 40
16.0
 40
17.0
 40
17.0
 40
17.0
 40
18.0
 40
18.0
 40
18.0
 40
18.0
 10
0.7592811884840103
 20
-2.951605902777778
 30
0.0
 10
0.7573958803242881
 20
-2.957967122395833
 30
0.0
 10
0.7532387080152603
 20
-2.962673611111111
 30
0.0
 10
0.7468028898728991
 20
-2.965711805555555
 30
0.0
 10
0.7422455982062325
 20
-2.967881944444444
 30
0.0
 10
0.7373627857062325
 20
-2.968967013888889
 30
0.0
 10
0.7321544523728991
 20
-2.968967013888889
 30
0.0
 10
0.7321544523728991
 20
-2.968967013888889
 30
0.0
 10
0.6888601815395657
 20
-2.968967013888889
 30
0.0
 10
0.6888601815395657
 20
-2.968967013888889
 30
0.0
 10
0.6789453594909547
 20
-2.968967013888889
 30
0.0
 10
0.6739947301506769
 20
-2.965711805555555
 30
0.0
 10
0.6739947301506769
 20
-2.959201388888889
 30
0.0
 10
0.6739947301506769
 20
-2.95703125
 30
0.0
 10
0.6744965747687325
 20
-2.954494900173611
 30
0.0
 10
0.6755138273728991
 20
-2.951605902777778
 30
0.0
 10
0.6755138273728991
 20
-2.951605902777778
 30
0.0
 10
0.6837603551506769
 20
-2.928276909722222
 30
0.0
 10
0.6837603551506769
 20
-2.928276909722222
 30
0.0
 10
0.6837603551506769
 20
-2.928276909722222
 30
0.0
 10
0.6464339662617881
 20
-2.959852430555555
 30
0.0
 10
0.6464339662617881
 20
-2.959852430555555
 30
0.0
 10
0.6376788121819269
 20
-2.965928819444444
 30
0.0
 10
0.6304834454284547
 20
-2.968967013888889
 30
0.0
 10
0.6248410843173435
 20
-2.968967013888889
 30
0.0
 10
0.6248410843173435
 20
-2.968967013888889
 30
0.0
 10
0.6048758065395657
 20
-2.968967013888889
 30
0.0
 10
0.6048758065395657
 20
-2.968967013888889
 30
0.0
 10
0.6048758065395657
 20
-2.968967013888889
 30
0.0
 10
0.6308089662617881
 20
-2.895182291666667
 30
0.0
 10
0.6308089662617881
 20
-2.895182291666667
 30
0.0
 10
0.6308089662617881
 20
-2.895182291666667
 30
0.0
 10
0.6699799732062325
 20
-2.895182291666667
 30
0.0
 10
0.6699799732062325
 20
-2.895182291666667
 30
0.0
 10
0.6699799732062325
 20
-2.895182291666667
 30
0.0
 10
0.6577186884840103
 20
-2.929904513888889
 30
0.0
 10
0.6577186884840103
 20
-2.929904513888889
 30
0.0
 10
0.6577186884840103
 20
-2.929904513888889
 30
0.0
 10
0.6908133065395657
 20
-2.902777777777778
 30
0.0
 10
0.6908133065395657
 20
-2.902777777777778
 30
0.0
 10
0.6997786928242881
 20
-2.895467122395833
 30
0.0
 10
0.7095104094041491
 20
-2.8919677734375
 30
0.0
 10
0.7200016745951213
 20
-2.892252604166667
 30
0.0
 10
0.7270885344041491
 20
-2.892537434895833
 30
0.0
 10
0.7306353551506769
 20
-2.896308051215278
 30
0.0
 10
0.7306353551506769
 20
-2.903537326388889
 30
0.0
 10
0.7306353551506769
 20
-2.906209309895833
 30
0.0
 10
0.7300521303242881
 20
-2.909220377604167
 30
0.0
 10
0.7288992440395657
 20
-2.912543402777778
 30
0.0
 10
0.7288992440395657
 20
-2.912543402777778
 30
0.0
 10
0.7149018482062325
 20
-2.951605902777778
 30
0.0
 10
0.7149018482062325
 20
-2.951605902777778
 30
0.0
 10
0.7149018482062325
 20
-2.951605902777778
 30
0.0
 10
0.7592811884840103
 20
-2.951605902777778
 30
0.0
 10
0.7592811884840103
 20
-2.951605902777778
 30
0.0
  0
SPLINE
  5
61
330
59
100
AcDbEntity
  8
Text
370
     0
100
AcDbSpline
210
0.0
220
0.0
230
1.0
 70
    11
 71
     3
 72
    59
 73
    55
 74
     0
 42
0.0000000001
 43
0.0000000001
 12
1.0
 22
0.0
 32
0.0
 13
1.0
 23
0.0
 33
0.0
 40
0.0
 40
0.0
 40
0.0
 40
0.0
 40
1.0
 40
1.0
 40
1.0
 40
2.0
 40
2.0
 40
2.0
 40
3.0
 40
3.0
 40
3.0
 40
4.0
 40
4.0
 40
4.0
 40
5.0
 40
5.0
 40
5.0
 40
6.0
 40
6.0
 40
6.0
 40
7.0
 40
7.0
 40
7.0
 40
8.0
 40
8.0
 40
8.0
 40
9.0
 40
9.0
 40
9.0
 40
10.0
 40
10.0
 40
10.0
 40
11.0
 40
11.0
 40
11.0
 40
12.0
 40
12.0
 40
12.0
 40
13.0
 40
13.0
 40
13.0
 40
14.0
 40
14.0
 40
14.0
 40
15.0
 40
15.0
 40
15.0
 40
16.0
 40
16.0
 40
16.0
 40
17.0
 40
17.0
 40
17.0
 40
18.0
 40
18.0
 40
18.0
 40
18.0
 10
0.9066336190395657
 20
-2.951605902777778
 30
0.0
 10
0.9047483108798435
 20
-2.957967122395833
 30
0.0
 10
0.9005911385708157
 20
-2.962673611111111
 30
0.0
 10
0.8941553204284547
 20
-2.965711805555555
 30
0.0
 10
0.889598028761788
 20
-2.967881944444444
 30
0.0
 10
0.884715216261788
 20
-2.968967013888889
 30
0.0
 10
0.8795068829284547
 20
-2.968967013888889
 30
0.0
 10
0.8795068829284547
 20
-2.968967013888889
 30
0.0
 10
0.8362126120951213
 20
-2.968967013888889
 30
0.0
 10
0.8362126120951213
 20
-2.968967013888889
 30
0.0
 10
0.8262977900465103
 20
-2.968967013888889
 30
0.0
 10
0.8213471607062325
 20
-2.965711805555555
 30
0.0
 10
0.8213471607062325
 20
-2.959201388888889
 30
0.0
 10
0.8213471607062325
 20
-2.95703125
 30
0.0
 10
0.821849005324288
 20
-2.954494900173611
 30
0.0
 10
0.8228662579284547
 20
-2.951605902777778
 30
0.0
 10
0.8228662579284547
 20
-2.951605902777778
 30
0.0
 10
0.8311127857062325
 20
-2.928276909722222
 30
0.0
 10
0.8311127857062325
 20
-2.928276909722222
 30
0.0
 10
0.8311127857062325
 20
-2.928276909722222
 30
0.0
 10
0.7937863968173435
 20
-2.959852430555555
 30
0.0
 10
0.7937863968173435
 20
-2.959852430555555
 30
0.0
 10
0.7850312427374825
 20
-2.965928819444444
 30
0.0
 10
0.7778358759840103
 20
-2.968967013888889
 30
0.0
 10
0.7721935148728991
 20
-2.968967013888889
 30
0.0
 10
0.7721935148728991
 20
-2.968967013888889
 30
0.0
 10
0.7522282370951213
 20
-2.968967013888889
 30
0.0
 10
0.7522282370951213
 20
-2.968967013888889
 30
0.0
 10
0.7522282370951213
 20
-2.968967013888889
 30
0.0
 10
0.7781613968173435
 20
-2.895182291666667
 30
0.0
 10
0.7781613968173435
 20
-2.895182291666667
 30
0.0
 10
0.7781613968173435
 20
-2.895182291666667
 30
0.0
 10
0.817332403761788
 20
-2.895182291666667
 30
0.0
 10
0.817332403761788
 20
-2.895182291666667
 30
0.0
 10
0.817332403761788
 20
-2.895182291666667
 30
0.0
 10
0.8050711190395657
 20
-2.929904513888889
 30
0.0
 10
0.8050711190395657
 20
-2.929904513888889
 30
0.0
 10
0.8050711190395657
 20
-2.929904513888889
 30
0.0
 10
0.8381657370951213
 20
-2.902777777777778
 30
0.0
 10
0.8381657370951213
 20
-2.902777777777778
 30
0.0
 10
0.8471311233798435
 20
-2.895467122395833
 30
0.0
 10
0.8568628399597047
 20
-2.8919677734375
 30
0.0
 10
0.8673541051506769
 20
-2.892252604166667
 30
0.0
 10
0.8744409649597047
 20
-2.892537434895833
 30
0.0
 10
0.8779877857062325
 20
-2.896308051215278
 30
0.0
 10
0.8779877857062325
 20
-2.903537326388889
 30
0.0
 10
0.8779877857062325
 20
-2.906209309895833
 30
0.0
 10
0.8774045608798435
 20
-2.909220377604167
 30
0.0
 10
0.8762516745951213
 20
-2.912543402777778
 30
0.0
 10
0.8762516745951213
 20
-2.912543402777778
 30
0.0
 10
0.862254278761788
 20
-2.951605902777778
 30
0.0
 10
0.862254278761788
 20
-2.951605902777778
 30
0.0
 10
0.862254278761788
 20
-2.951605902777778
 30
0.0
 10
0.9066336190395657
 20
-2.951605902777778
 30
0.0
 10
0.9066336190395657
 20
-2.951605902777778
 30
0.0
  0
SPLINE
  5
62
330
59
100
AcDbEntity
  8
Text
370
     0
100
AcDbSpline
210
0.0
220
0.0
230
1.0
 70
    11
 71
     3
 72
    38
 73
    34
 74
     0
 42
0.0000000001
 43
0.0000000001
 12
1.0
 22
0.0
 32
0.0
 13
1.0
 23
0.0
 33
0.0
 40
0.0
 40
0.0
 40
0.0
 40
0.0
 40
1.0
 40
1.0
 40
1.0
 40
2.0
 40
2.0
 40
2.0
 40
3.0
 40
3.0
 40
3.0
 40
4.0
 40
4.0
 40
4.0
 40
5.0
 40
5.0
 40
5.0
 40
6.0
 40
6.0
 40
6.0
 40
7.0
 40
7.0
 40
7.0
 40
8.0
 40
8.0
 40
8.0
 40
9.0
 40
9.0
 40
9.0
 40
10.0
 40
10.0
 40
10.0
 40
11.0
 40
11.0
 40
11.0
 40
11.0
 10
1.045522507928455
 20
-2.951605902777778
 30
0.0
 10
1.042050285706232
 20
-2.963175455729167
 30
0.0
 10
1.033186624681927
 20
-2.968967013888889
 30
0.0
 10
1.018938306539566
 20
-2.968967013888889
 30
0.0
 10
1.018938306539566
 20
-2.968967013888889
 30
0.0
 10
0.9778141745951213
 20
-2.968967013888889
 30
0.0
 10
0.9778141745951213
 20
-2.968967013888889
 30
0.0
 10
0.9660954245951213
 20
-2.968967013888889
 30
0.0
 10
0.9602360495951213
 20
-2.9652099609375
 30
0.0
 10
0.9602360495951213
 20
-2.957682291666667
 30
0.0
 10
0.9523489510708157
 20
-2.966647677951389
 30
0.0
 10
0.9426579245951213
 20
-2.971137152777778
 30
0.0
 10
0.9311561884840103
 20
-2.971137152777778
 30
0.0
 10
0.9226926468173435
 20
-2.971137152777778
 30
0.0
 10
0.9158160192131769
 20
-2.968532986111111
 30
0.0
 10
0.9105398690395657
 20
-2.963324652777778
 30
0.0
 10
0.9052637188659547
 20
-2.958116319444444
 30
0.0
 10
0.9026188620951213
 20
-2.951321072048611
 30
0.0
 10
0.9026188620951213
 20
-2.942925347222222
 30
0.0
 10
0.9026188620951213
 20
-2.927802191840278
 30
0.0
 10
0.9084036385708157
 20
-2.915866427951389
 30
0.0
 10
0.9199799732062325
 20
-2.907118055555555
 30
0.0
 10
0.9304644567131769
 20
-2.899156358506944
 30
0.0
 10
0.9434513816263713
 20
-2.895182291666667
 30
0.0
 10
0.958933966261788
 20
-2.895182291666667
 30
0.0
 10
0.958933966261788
 20
-2.895182291666667
 30
0.0
 10
1.020891431539566
 20
-2.895182291666667
 30
0.0
 10
1.020891431539566
 20
-2.895182291666667
 30
0.0
 10
1.020891431539566
 20
-2.895182291666667
 30
0.0
 10
1.00049212598401
 20
-2.951605902777778
 30
0.0
 10
1.00049212598401
 20
-2.951605902777778
 30
0.0
 10
1.00049212598401
 20
-2.951605902777778
 30
0.0
 10
1.045522507928455
 20
-2.951605902777778
 30
0.0
 10
1.045522507928455
 20
-2.951605902777778
 30
0.0
  0
SPLINE
  5
63
330
59
100
AcDbEntity
  8
Text
370
     0
100
AcDbSpline
210
0.0
220
0.0
230
1.0
 70
    11
 71
     3
 72
    20
 73
    16
 74
     0
 42
0.0000000001
 43
0.0000000001
 12
1.0
 22
0.0
 32
0.0
 13
1.0
 23
0.0
 33
0.0
 40
0.0
 40
0.0
 40
0.0
 40
0.0
 40
1.0
 40
1.0
 40
1.0
 40
2.0
 40
2.0
 40
2.0
 40
3.0
 40
3.0
 40
3.0
 40
4.0
 40
4.0
 40
4.0
 40
5.0
 40
5.0
 40
5.0
 40
5.0
 10
0.975535528761788
 20
-2.912543402777778
 30
0.0
 10
0.975535528761788
 20
-2.912543402777778
 30
0.0
 10
0.9515554940395657
 20
-2.912543402777778
 30
0.0
 10
0.9515554940395657
 20
-2.912543402777778
 30
0.0
 10
0.9515554940395657
 20
-2.912543402777778
 30
0.0
 10
0.9439600079284547
 20
-2.937825520833333
 30
0.0
 10
0.9439600079284547
 20
-2.937825520833333
 30
0.0
 10
0.9435259801506769
 20
-2.939412434895833
 30
0.0
 10
0.943308966261788
 20
-2.940863715277778
 30
0.0
 10
0.943308966261788
 20
-2.942165798611111
 30
0.0
 10
0.943308966261788
 20
-2.948459201388889
 30
0.0
 10
0.9494531719909547
 20
-2.951605902777778
 30
0.0
 10
0.9617551468173435
 20
-2.951605902777778
 30
0.0
 10
0.9617551468173435
 20
-2.951605902777778
 30
0.0
 10
0.975535528761788
 20
-2.912543402777778
 30
0.0
 10
0.975535528761788
 20
-2.912543402777778
 30
0.0
  0
SPLINE
  5
64
330
59
100
AcDbEntity
  8
Text
370
     0
100
AcDbSpline
210
0.0
220
0.0
230
1.0
 70
    11
 71
     3
 72
    53
 73
    49
 74
     0
 42
0.0000000001
 43
0.0000000001
 12
1.0
 22
0.0
 32
0.0
 13
1.0
 23
0.0
 33
0.0
 40
0.0
 40
0.0
 40
0.0
 40
0.0
 40
1.0
 40
1.0
 40
1.0
 40
2.0
 40
2.0
 40
2.0
 40
3.0
 40
3.0
 40
3.0
 40
4.0
 40
4.0
 40
4.0
 40
5.0
 40
5.0
 40
5.0
 40
6.0
 40
6.0
 40
6.0
 40
7.0
 40
7.0
 40
7.0
 40
8.0
 40
8.0
 40
8.0
 40
9.0
 40
9.0
 40
9.0
 40
10.0
 40
10.0
 40
10.0
 40
11.0
 40
11.0
 40
11.0
 40
12.0
 40
12.0
 40
12.0
 40
13.0
 40
13.0
 40
13.0
 40
14.0
 40
14.0
 40
14.0
 40
15.0
 40
15.0
 40
15.0
 40
16.0
 40
16.0
 40
16.0
 40
16.0
 10
1.141768167650677
 20
-2.951605902777778
 30
0.0
 10
1.138363762268732
 20
-2.963175455729167
 30
0.0
 10
1.129316995775677
 20
-2.968967013888889
 30
0.0
 10
1.114641431539566
 20
-2.968967013888889
 30
0.0
 10
1.114641431539566
 20
-2.968967013888889
 30
0.0
 10
1.059302889872899
 20
-2.968967013888889
 30
0.0
 10
1.059302889872899
 20
-2.968967013888889
 30
0.0
 10
1.048594610793038
 20
-2.968967013888889
 30
0.0
 10
1.043243862095121
 20
-2.9652099609375
 30
0.0
 10
1.043243862095121
 20
-2.957682291666667
 30
0.0
 10
1.043243862095121
 20
-2.955796983506944
 30
0.0
 10
1.04364398145276
 20
-2.953776041666667
 30
0.0
 10
1.04443743848401
 20
-2.951605902777778
 30
0.0
 10
1.04443743848401
 20
-2.951605902777778
 30
0.0
 10
1.058217820428455
 20
-2.912543402777778
 30
0.0
 10
1.058217820428455
 20
-2.912543402777778
 30
0.0
 10
1.058217820428455
 20
-2.912543402777778
 30
0.0
 10
1.040422681539566
 20
-2.912543402777778
 30
0.0
 10
1.040422681539566
 20
-2.912543402777778
 30
0.0
 10
1.040422681539566
 20
-2.912543402777778
 30
0.0
 10
1.047258619039566
 20
-2.895182291666667
 30
0.0
 10
1.047258619039566
 20
-2.895182291666667
 30
0.0
 10
1.059913241435399
 20
-2.891927083333333
 30
0.0
 10
1.069319437181927
 20
-2.887763129340278
 30
0.0
 10
1.075470424595121
 20
-2.882703993055555
 30
0.0
 10
1.082414869039566
 20
-2.876993815104167
 30
0.0
 10
1.089827249681927
 20
-2.866644965277778
 30
0.0
 10
1.097714348206232
 20
-2.851671006944444
 30
0.0
 10
1.097714348206232
 20
-2.851671006944444
 30
0.0
 10
1.118873202372899
 20
-2.851671006944444
 30
0.0
 10
1.118873202372899
 20
-2.851671006944444
 30
0.0
 10
1.118873202372899
 20
-2.851671006944444
 30
0.0
 10
1.103573723206232
 20
-2.895182291666667
 30
0.0
 10
1.103573723206232
 20
-2.895182291666667
 30
0.0
 10
1.103573723206232
 20
-2.895182291666667
 30
0.0
 10
1.131568514872899
 20
-2.895182291666667
 30
0.0
 10
1.131568514872899
 20
-2.895182291666667
 30
0.0
 10
1.12707904004651
 20
-2.906751844618055
 30
0.0
 10
1.117964456713177
 20
-2.912543402777778
 30
0.0
 10
1.104224764872899
 20
-2.912543402777778
 30
0.0
 10
1.104224764872899
 20
-2.912543402777778
 30
0.0
 10
1.097063306539566
 20
-2.912543402777778
 30
0.0
 10
1.097063306539566
 20
-2.912543402777778
 30
0.0
 10
1.097063306539566
 20
-2.912543402777778
 30
0.0
 10
1.08349993848401
 20
-2.951605902777778
 30
0.0
 10
1.08349993848401
 20
-2.951605902777778
 30
0.0
 10
1.08349993848401
 20
-2.951605902777778
 30
0.0
 10
1.141768167650677
 20
-2.951605902777778
 30
0.0
 10
1.141768167650677
 20
-2.951605902777778
 30
0.0
  0
SPLINE
  5
65
330
59
100
AcDbEntity
  8
Text
370
     0
100
AcDbSpline
210
0.0
220
0.0
230
1.0
 70
    11
 71
     3
 72
    56
 73
    52
 74
     0
 42
0.0000000001
 43
0.0000000001
 12
1.0
 22
0.0
 32
0.0
 13
1.0
 23
0.0
 33
0.0
 40
0.0
 40
0.0
 40
0.0
 40
0.0
 40
1.0
 40
1.0
 40
1.0
 40
2.0
 40
2.0
 40
2.0
 40
3.0
 40
3.0
 40
3.0
 40
4.0
 40
4.0
 40
4.0
 40
5.0
 40
5.0
 40
5.0
 40
6.0
 40
6.0
 40
6.0
 40
7.0
 40
7.0
 40
7.0
 40
8.0
 40
8.0
 40
8.0
 40
9.0
 40
9.0
 40
9.0
 40
10.0
 40
10.0
 40
10.0
 40
11.0
 40
11.0
 40
11.0
 40
12.0
 40
12.0
 40
12.0
 40
13.0
 40
13.0
 40
13.0
 40
14.0
 40
14.0
 40
14.0
 40
15.0
 40
15.0
 40
15.0
 40
16.0
 40
16.0
 40
16.0
 40
17.0
 40
17.0
 40
17.0
 40
17.0
 10
1.278161396817344
 20
-2.951605902777778
 30
0.0
 10
1.276642299595121
 20
-2.957180447048611
 30
0.0
 10
1.273170077372899
 20
-2.9615478515625
 30
0.0
 10
1.267744730150677
 20
-2.964735243055555
 30
0.0
 10
1.262889044386788
 20
-2.967556423611111
 30
0.0
 10
1.257355190220121
 20
-2.968967013888889
 30
0.0
 10
1.251143167650677
 20
-2.968967013888889
 30
0.0
 10
1.251143167650677
 20
-2.968967013888889
 30
0.0
 10
1.190704799595121
 20
-2.968967013888889
 30
0.0
 10
1.190704799595121
 20
-2.968967013888889
 30
0.0
 10
1.155548549595121
 20
-2.968967013888889
 30
0.0
 10
1.137970424595121
 20
-2.9583740234375
 30
0.0
 10
1.137970424595121
 20
-2.937174479166667
 30
0.0
 10
1.137970424595121
 20
-2.923570421006944
 30
0.0
 10
1.143965433275677
 20
-2.912909613715278
 30
0.0
 10
1.155982577372899
 20
-2.905164930555555
 30
0.0
 10
1.166317863831232
 20
-2.898505316840278
 30
0.0
 10
1.178619838657621
 20
-2.895182291666667
 30
0.0
 10
1.19287493848401
 20
-2.895182291666667
 30
0.0
 10
1.19287493848401
 20
-2.895182291666667
 30
0.0
 10
1.208608445428455
 20
-2.895182291666667
 30
0.0
 10
1.208608445428455
 20
-2.895182291666667
 30
0.0
 10
1.217790845602066
 20
-2.895182291666667
 30
0.0
 10
1.225861049595121
 20
-2.896592881944444
 30
0.0
 10
1.232805494039566
 20
-2.8994140625
 30
0.0
 10
1.242055711053455
 20
-2.903171115451389
 30
0.0
 10
1.246911396817344
 20
-2.908894856770833
 30
0.0
 10
1.247345424595121
 20
-2.916558159722222
 30
0.0
 10
1.247698072164566
 20
-2.924302842881944
 30
0.0
 10
1.243981709317344
 20
-2.930731879340278
 30
0.0
 10
1.236169209317344
 20
-2.935872395833333
 30
0.0
 10
1.236169209317344
 20
-2.935872395833333
 30
0.0
 10
1.200253410706232
 20
-2.935872395833333
 30
0.0
 10
1.200253410706232
 20
-2.935872395833333
 30
0.0
 10
1.200253410706232
 20
-2.935872395833333
 30
0.0
 10
1.211972160706232
 20
-2.912543402777778
 30
0.0
 10
1.211972160706232
 20
-2.912543402777778
 30
0.0
 10
1.211972160706232
 20
-2.912543402777778
 30
0.0
 10
1.189077195428455
 20
-2.912543402777778
 30
0.0
 10
1.189077195428455
 20
-2.912543402777778
 30
0.0
 10
1.189077195428455
 20
-2.912543402777778
 30
0.0
 10
1.18017962598401
 20
-2.938693576388889
 30
0.0
 10
1.18017962598401
 20
-2.938693576388889
 30
0.0
 10
1.179664217997899
 20
-2.940212673611111
 30
0.0
 10
1.179420077372899
 20
-2.941582573784722
 30
0.0
 10
1.179420077372899
 20
-2.942816840277778
 30
0.0
 10
1.179420077372899
 20
-2.948676215277778
 30
0.0
 10
1.184113002720121
 20
-2.951605902777778
 30
0.0
 10
1.193525980150677
 20
-2.951605902777778
 30
0.0
 10
1.193525980150677
 20
-2.951605902777778
 30
0.0
 10
1.278161396817344
 20
-2.951605902777778
 30
0.0
 10
1.278161396817344
 20
-2.951605902777778
 30
0.0
  0
SPLINE
  5
66
330
59
100
AcDbEntity
  8
Text
370
     0
100
AcDbSpline
210
0.0
220
0.0
230
1.0
 70
    11
 71
     3
 72
    32
 73
    28
 74
     0
 42
0.0000000001
 43
0.0000000001
 12
1.0
 22
0.0
 32
0.0
 13
1.0
 23
0.0
 33
0.0
 40
0.0
 40
0.0
 40
0.0
 40
0.0
 40
1.0
 40
1.0
 40
1.0
 40
2.0
 40
2.0
 40
2.0
 40
3.0
 40
3.0
 40
3.0
 40
4.0
 40
4.0
 40
4.0
 40
5.0
 40
5.0
 40
5.0
 40
6.0
 40
6.0
 40
6.0
 40
7.0
 40
7.0
 40
7.0
 40
8.0
 40
8.0
 40
8.0
 40
9.0
 40
9.0
 40
9.0
 40
9.0
 10
1.361494730150677
 20
-2.951605902777778
 30
0.0
 10
1.359677238831232
 20
-2.957967122395833
 30
0.0
 10
1.355526848206232
 20
-2.962673611111111
 30
0.0
 10
1.349016431539566
 20
-2.965711805555555
 30
0.0
 10
1.344459139872899
 20
-2.967881944444444
 30
0.0
 10
1.339576327372899
 20
-2.968967013888889
 30
0.0
 10
1.334367994039566
 20
-2.968967013888889
 30
0.0
 10
1.334367994039566
 20
-2.968967013888889
 30
0.0
 10
1.292592820428455
 20
-2.968967013888889
 30
0.0
 10
1.292592820428455
 20
-2.968967013888889
 30
0.0
 10
1.281877759664566
 20
-2.968967013888889
 30
0.0
 10
1.276533792650677
 20
-2.965318467881944
 30
0.0
 10
1.276533792650677
 20
-2.9580078125
 30
0.0
 10
1.276533792650677
 20
-2.956122504340278
 30
0.0
 10
1.276927130324288
 20
-2.953993055555555
 30
0.0
 10
1.277727369039566
 20
-2.951605902777778
 30
0.0
 10
1.277727369039566
 20
-2.951605902777778
 30
0.0
 10
1.317983445428455
 20
-2.838107638888889
 30
0.0
 10
1.317983445428455
 20
-2.838107638888889
 30
0.0
 10
1.317983445428455
 20
-2.838107638888889
 30
0.0
 10
1.356394903761788
 20
-2.838107638888889
 30
0.0
 10
1.356394903761788
 20
-2.838107638888889
 30
0.0
 10
1.356394903761788
 20
-2.838107638888889
 30
0.0
 10
1.31592181348401
 20
-2.951605902777778
 30
0.0
 10
1.31592181348401
 20
-2.951605902777778
 30
0.0
 10
1.31592181348401
 20
-2.951605902777778
 30
0.0
 10
1.361494730150677
 20
-2.951605902777778
 30
0.0
 10
1.361494730150677
 20
-2.951605902777778
 30
0.0
  0
SPLINE
  5
67
330
59
100
AcDbEntity
  8
Text
370
     0
100
AcDbSpline
210
0.0
220
0.0
230
1.0
 70
    11
 71
     3
 72
    32
 73
    28
 74
     0
 42
0.0000000001
 43
0.0000000001
 12
1.0
 22
0.0
 32
0.0
 13
1.0
 23
0.0
 33
0.0
 40
0.0
 40
0.0
 40
0.0
 40
0.0
 40
1.0
 40
1.0
 40
1.0
 40
2.0
 40
2.0
 40
2.0
 40
3.0
 40
3.0
 40
3.0
 40
4.0
 40
4.0
 40
4.0
 40
5.0
 40
5.0
 40
5.0
 40
6.0
 40
6.0
 40
6.0
 40
7.0
 40
7.0
 40
7.0
 40
8.0
 40
8.0
 40
8.0
 40
9.0
 40
9.0
 40
9.0
 40
9.0
 10
1.444611049595121
 20
-2.951605902777778
 30
0.0
 10
1.442793558275677
 20
-2.957967122395833
 30
0.0
 10
1.438643167650677
 20
-2.962673611111111
 30
0.0
 10
1.43213275098401
 20
-2.965711805555555
 30
0.0
 10
1.427575459317344
 20
-2.967881944444444
 30
0.0
 10
1.422692646817344
 20
-2.968967013888889
 30
0.0
 10
1.41748431348401
 20
-2.968967013888889
 30
0.0
 10
1.41748431348401
 20
-2.968967013888889
 30
0.0
 10
1.375709139872899
 20
-2.968967013888889
 30
0.0
 10
1.375709139872899
 20
-2.968967013888889
 30
0.0
 10
1.36499407910901
 20
-2.968967013888889
 30
0.0
 10
1.359650112095121
 20
-2.965318467881944
 30
0.0
 10
1.359650112095121
 20
-2.9580078125
 30
0.0
 10
1.359650112095121
 20
-2.956122504340278
 30
0.0
 10
1.360043449768732
 20
-2.953993055555555
 30
0.0
 10
1.36084368848401
 20
-2.951605902777778
 30
0.0
 10
1.36084368848401
 20
-2.951605902777778
 30
0.0
 10
1.401099764872899
 20
-2.838107638888889
 30
0.0
 10
1.401099764872899
 20
-2.838107638888889
 30
0.0
 10
1.401099764872899
 20
-2.838107638888889
 30
0.0
 10
1.439511223206232
 20
-2.838107638888889
 30
0.0
 10
1.439511223206232
 20
-2.838107638888889
 30
0.0
 10
1.439511223206232
 20
-2.838107638888889
 30
0.0
 10
1.399038132928455
 20
-2.951605902777778
 30
0.0
 10
1.399038132928455
 20
-2.951605902777778
 30
0.0
 10
1.399038132928455
 20
-2.951605902777778
 30
0.0
 10
1.444611049595121
 20
-2.951605902777778
 30
0.0
 10
1.444611049595121
 20
-2.951605902777778
 30
0.0
  0
SPLINE
  5
68
330
59
100
AcDbEntity
  8
Text
370
     0
100
AcDbSpline
210
0.0
220
0.0
230
1.0
 70
    11
 71
     3
 72
    41
 73
    37
 74
     0
 42
0.0000000001
 43
0.0000000001
 12
1.0
 22
0.0
 32
0.0
 13
1.0
 23
0.0
 33
0.0
 40
0.0
 40
0.0
 40
0.0
 40
0.0
 40
1.0
 40
1.0
 40
1.0
 40
2.0
 40
2.0
 40
2.0
 40
3.0
 40
3.0
 40
3.0
 40
4.0
 40
4.0
 40
4.0
 40
5.0
 40
5.0
 40
5.0
 40
6.0
 40
6.0
 40
6.0
 40
7.0
 40
7.0
 40
7.0
 40
8.0
 40
8.0
 40
8.0
 40
9.0
 40
9.0
 40
9.0
 40
10.0
 40
10.0
 40
10.0
 40
11.0
 40
11.0
 40
11.0
 40
12.0
 40
12.0
 40
12.0
 40
12.0
 10
1.62842181348401
 20
-2.895182291666667
 30
0.0
 10
1.625532816088177
 20
-2.906751844618055
 30
0.0
 10
1.616852260532621
 20
-2.912543402777778
 30
0.0
 10
1.602380146817344
 20
-2.912543402777778
 30
0.0
 10
1.602380146817344
 20
-2.912543402777778
 30
0.0
 10
1.534454799595121
 20
-2.912543402777778
 30
0.0
 10
1.534454799595121
 20
-2.912543402777778
 30
0.0
 10
1.536841952372899
 20
-2.914130316840278
 30
0.0
 10
1.538795077372899
 20
-2.917046440972222
 30
0.0
 10
1.540314174595121
 20
-2.921278211805555
 30
0.0
 10
1.541833271817344
 20
-2.925509982638889
 30
0.0
 10
1.542443623379844
 20
-2.929185655381944
 30
0.0
 10
1.542158792650677
 20
-2.932291666666667
 30
0.0
 10
1.54114154004651
 20
-2.944376627604167
 30
0.0
 10
1.535824699768732
 20
-2.953843858506944
 30
0.0
 10
1.526208271817344
 20
-2.960720486111111
 30
0.0
 10
1.517025871643732
 20
-2.967298719618055
 30
0.0
 10
1.505090107754844
 20
-2.970635308159722
 30
0.0
 10
1.490400980150677
 20
-2.970703125
 30
0.0
 10
1.473324699768732
 20
-2.970852322048611
 30
0.0
 10
1.460195359490955
 20
-2.967488606770833
 30
0.0
 10
1.451012959317344
 20
-2.960611979166667
 30
0.0
 10
1.442834248379844
 20
-2.954535590277778
 30
0.0
 10
1.438751674595121
 20
-2.946546766493055
 30
0.0
 10
1.438751674595121
 20
-2.936631944444444
 30
0.0
 10
1.438751674595121
 20
-2.934678819444444
 30
0.0
 10
1.438927998379844
 20
-2.932725694444444
 30
0.0
 10
1.439294209317344
 20
-2.930772569444444
 30
0.0
 10
1.441179517477066
 20
-2.919854058159722
 30
0.0
 10
1.446604864699288
 20
-2.911282009548611
 30
0.0
 10
1.45557025098401
 20
-2.905056423611111
 30
0.0
 10
1.465118862095121
 20
-2.898478190104167
 30
0.0
 10
1.477854864699288
 20
-2.895182291666667
 30
0.0
 10
1.493764695428455
 20
-2.895182291666667
 30
0.0
 10
1.493764695428455
 20
-2.895182291666667
 30
0.0
 10
1.62842181348401
 20
-2.895182291666667
 30
0.0
 10
1.62842181348401
 20
-2.895182291666667
 30
0.0
  0
SPLINE
  5
69
330
59
100
AcDbEntity
  8
Text
370
     0
100
AcDbSpline
210
0.0
220
0.0
230
1.0
 70
    11
 71
     3
 72
    23
 73
    19
 74
     0
 42
0.0000000001
 43
0.0000000001
 12
1.0
 22
0.0
 32
0.0
 13
1.0
 23
0.0
 33
0.0
 40
0.0
 40
0.0
 40
0.0
 40
0.0
 40
1.0
 40
1.0
 40
1.0
 40
2.0
 40
2.0
 40
2.0
 40
3.0
 40
3.0
 40
3.0
 40
4.0
 40
4.0
 40
4.0
 40
5.0
 40
5.0
 40
5.0
 40
6.0
 40
6.0
 40
6.0
 40
6.0
 10
1.510149244039566
 20
-2.912543402777778
 30
0.0
 10
1.510149244039566
 20
-2.912543402777778
 30
0.0
 10
1.485301153761788
 20
-2.912543402777778
 30
0.0
 10
1.485301153761788
 20
-2.912543402777778
 30
0.0
 10
1.485301153761788
 20
-2.912543402777778
 30
0.0
 10
1.475535528761788
 20
-2.940321180555555
 30
0.0
 10
1.475535528761788
 20
-2.940321180555555
 30
0.0
 10
1.475033684143732
 20
-2.9417724609375
 30
0.0
 10
1.474775980150677
 20
-2.943142361111111
 30
0.0
 10
1.474775980150677
 20
-2.944444444444444
 30
0.0
 10
1.474775980150677
 20
-2.950670030381944
 30
0.0
 10
1.480567538310399
 20
-2.953776041666667
 30
0.0
 10
1.492137091261788
 20
-2.953776041666667
 30
0.0
 10
1.493506991435399
 20
-2.953776041666667
 30
0.0
 10
1.494700567824288
 20
-2.9537353515625
 30
0.0
 10
1.495717820428455
 20
-2.953667534722222
 30
0.0
 10
1.495717820428455
 20
-2.953667534722222
 30
0.0
 10
1.510149244039566
 20
-2.912543402777778
 30
0.0
 10
1.510149244039566
 20
-2.912543402777778
 30
0.0
  0
ENDBLK
  5
5C
330
59
100
AcDbEntity
  8
0
100
AcDbBlockEnd
  0
ENDSEC
  0
SECTION
  2
ENTITIES
  0
POLYLINE
  5
41
330
1F
100
AcDbEntity
  8
White
 62
     7
370
    70
100
AcDb2dPolyline
 66
     1
 10
0.0
 20
0.0
 30
0.0
  0
VERTEX
  5
42
330
41
100
AcDbEntity
  8
White
 62
     7
370
    70
100
AcDbVertex
100
AcDb2dVertex
 10
2.188825459317361
 20
-3.278872554494784
 30
0.0
  0
VERTEX
  5
43
330
41
100
AcDbEntity
  8
White
 62
     7
370
    70
100
AcDbVertex
100
AcDb2dVertex
 10
-0.2711745406826619
 20
-3.278872554494784
 30
0.0
  0
VERTEX
  5
44
330
41
100
AcDbEntity
  8
White
 62
     7
370
    70
100
AcDbVertex
100
AcDb2dVertex
 10
-0.2711745406826619
 20
0.2211274455052161
 30
0.0
  0
VERTEX
  5
45
330
41
100
AcDbEntity
  8
White
 62
     7
370
    70
100
AcDbVertex
100
AcDb2dVertex
 10
2.188825459317361
 20
0.2211274455052161
 30
0.0
  0
VERTEX
  5
46
330
41
100
AcDbEntity
  8
White
 62
     7
370
    70
100
AcDbVertex
100
AcDb2dVertex
 10
2.188825459317361
 20
-3.278872554494784
 30
0.0
  0
SEQEND
  5
47
330
41
100
AcDbEntity
  8
White
 62
     7
370
    70
  0
POLYLINE
  5
48
330
1F
100
AcDbEntity
  8
White
 62
     7
370
    70
100
AcDb2dPolyline
 66
     1
 10
0.0
 20
0.0
 30
0.0
  0
VERTEX
  5
49
330
48
100
AcDbEntity
  8
White
 62
     7
370
    70
100
AcDbVertex
100
AcDb2dVertex
 10
2.038996062992005
 20
-2.57128390201251
 30
0.0
  0
VERTEX
  5
4A
330
48
100
AcDbEntity
  8
White
 62
     7
370
    70
100
AcDbVertex
100
AcDb2dVertex
 10
-0.1213451443572922
 20
-2.57128390201251
 30
0.0
  0
VERTEX
  5
4B
330
48
100
AcDbEntity
  8
White
 62
     7
370
    70
100
AcDbVertex
100
AcDb2dVertex
 10
-0.1213451443572922
 20
-0.1412839020125223
 30
0.0
  0
VERTEX
  5
4C
330
48
100
AcDbEntity
  8
White
 62
     7
370
    70
100
AcDbVertex
100
AcDb2dVertex
 10
2.038996062992005
 20
-0.1412839020125223
 30
0.0
  0
VERTEX
  5
4D
330
48
100
AcDbEntity
  8
White
 62
     7
370
    70
100
AcDbVertex
100
AcDb2dVertex
 10
2.038996062992005
 20
-2.57128390201251
 30
0.0
  0
SEQEND
  5
4F
330
48
100
AcDbEntity
  8
White
 62
     7
370
    70
  0
HATCH
  5
4E
330
1F
100
AcDbEntity
  8
White
 62
   255
100
AcDbHatch
 10
0.0
 20
0.0
 30
0.0
210
0.0
220
0.0
230
1.0
  2
SOLID
 70
     1
 71
     0
 91
        1
 92
        1
 93
        4
 72
     1
 10
2.038996062992005
 20
-2.57128390201251
 11
-0.1213451443572922
 21
-2.57128390201251
 72
     1
 10
-0.1213451443572922
 20
-2.57128390201251
 11
-0.1213451443572922
 21
-0.1412839020125225
 72
     1
 10
-0.1213451443572922
 20
-0.1412839020125223
 11
2.038996062992005
 21
-0.1412839020125223
 72
     1
 10
2.038996062992005
 20
-0.1412839020125223
 11
2.038996062992005
 21
-2.57128390201251
 97
        0
 75
     2
 76
     1
 98
        0
  0
SPLINE
  5
51
330
1F
100
AcDbEntity
  8
Text
370
     0
100
AcDbSpline
210
0.0
220
0.0
230
1.0
 70
    11
 71
     3
 72
    38
 73
    34
 74
     0
 42
0.0000000001
 43
0.0000000001
 12
1.0
 22
0.0
 32
0.0
 13
1.0
 23
0.0
 33
0.0
 40
0.0
 40
0.0
 40
0.0
 40
0.0
 40
1.0
 40
1.0
 40
1.0
 40
2.0
 40
2.0
 40
2.0
 40
3.0
 40
3.0
 40
3.0
 40
4.0
 40
4.0
 40
4.0
 40
5.0
 40
5.0
 40
5.0
 40
6.0
 40
6.0
 40
6.0
 40
7.0
 40
7.0
 40
7.0
 40
8.0
 40
8.0
 40
8.0
 40
9.0
 40
9.0
 40
9.0
 40
10.0
 40
10.0
 40
10.0
 40
11.0
 40
11.0
 40
11.0
 40
11.0
 10
2.026153742733843
 20
-3.172505654546108
 30
0.0
 10
1.717461068333452
 20
-2.670425439715043
 30
0.0
 10
1.108784782238015
 20
-2.560164771875785
 30
0.0
 10
1.108784782238015
 20
-2.560164771875785
 30
0.0
 10
1.108784782238015
 20
-2.560164771875785
 30
0.0
 10
1.215976502247789
 20
-2.700222845287928
 30
0.0
 10
1.215976502247789
 20
-2.700222845287928
 30
0.0
 10
1.215976502247789
 20
-2.700222845287928
 30
0.0
 10
0.7796468530576955
 20
-2.551026863816737
 30
0.0
 10
0.5641947521204934
 20
-2.550007306267844
 30
0.0
 10
0.5641947521204934
 20
-2.550007306267844
 30
0.0
 10
0.6404510377020263
 20
-2.661131597304044
 30
0.0
 10
0.6404510377020263
 20
-2.661131597304044
 30
0.0
 10
0.6404510377020263
 20
-2.661131597304044
 30
0.0
 10
0.0459631697895399
 20
-2.57521673947541
 30
0.0
 10
-0.1053499602280302
 20
-2.570920990779339
 30
0.0
 10
-0.1053499602280302
 20
-2.570920990779339
 30
0.0
 10
0.3130897560840316
 20
-3.190306333568944
 30
0.0
 10
0.3130897560840316
 20
-3.190306333568944
 30
0.0
 10
0.3130897560840316
 20
-3.190306333568944
 30
0.0
 10
0.7376319265626105
 20
-3.096182308641548
 30
0.0
 10
0.9711177507999006
 20
-3.11248799456972
 30
0.0
 10
0.9711177507999006
 20
-3.11248799456972
 30
0.0
 10
0.9048647404298688
 20
-3.032156323871454
 30
0.0
 10
0.9048647404298688
 20
-3.032156323871454
 30
0.0
 10
0.9048647404298688
 20
-3.032156323871454
 30
0.0
 10
1.28082291662516
 20
-3.04216486234759
 30
0.0
 10
1.559358177849693
 20
-3.136944450731259
 30
0.0
 10
1.559358177849693
 20
-3.136944450731259
 30
0.0
 10
1.507898261805723
 20
-3.046838586216634
 30
0.0
 10
1.507898261805723
 20
-3.046838586216634
 30
0.0
 10
1.507898261805723
 20
-3.046838586216634
 30
0.0
 10
1.727055228594761
 20
-3.056216789645507
 30
0.0
 10
2.026153742733843
 20
-3.172505654546108
 30
0.0
  0
HATCH
  5
52
330
1F
100
AcDbEntity
  8
Text
 62
     2
100
AcDbHatch
 10
0.0
 20
0.0
 30
0.0
210
0.0
220
0.0
230
1.0
  2
SOLID
 70
     1
 71
     0
 91
        1
 92
        1
 93
        2
 72
     4
 94
        3
 73
     0
 74
     0
 95
       38
 96
       34
 40
0.0
 40
0.0
 40
0.0
 40
0.0
 40
0.0138888888888889
 40
0.0138888888888889
 40
0.0138888888888889
 40
0.0277777777777778
 40
0.0277777777777778
 40
0.0277777777777778
 40
0.0416666666666667
 40
0.0416666666666667
 40
0.0416666666666667
 40
0.0555555555555556
 40
0.0555555555555556
 40
0.0555555555555556
 40
0.0694444444444444
 40
0.0694444444444444
 40
0.0694444444444444
 40
0.0833333333333333
 40
0.0833333333333333
 40
0.0833333333333333
 40
0.0972222222222222
 40
0.0972222222222222
 40
0.0972222222222222
 40
0.1111111111111111
 40
0.1111111111111111
 40
0.1111111111111111
 40
0.125
 40
0.125
 40
0.125
 40
0.1388888888888889
 40
0.1388888888888889
 40
0.1388888888888889
 40
0.1527777777777778
 40
0.1527777777777778
 40
0.1527777777777778
 40
0.1527777777777778
 10
2.026153742733843
 20
-3.172505654546108
 10
1.717461068333452
 20
-2.670425439715043
 10
1.108784782238015
 20
-2.560164771875785
 10
1.108784782238015
 20
-2.560164771875785
 10
1.108784782238015
 20
-2.560164771875785
 10
1.215976502247789
 20
-2.700222845287928
 10
1.215976502247789
 20
-2.700222845287928
 10
1.215976502247789
 20
-2.700222845287928
 10
0.7796468530576955
 20
-2.551026863816737
 10
0.5641947521204934
 20
-2.550007306267844
 10
0.5641947521204934
 20
-2.550007306267844
 10
0.6404510377020263
 20
-2.661131597304044
 10
0.6404510377020263
 20
-2.661131597304044
 10
0.6404510377020263
 20
-2.661131597304044
 10
0.0459631697895399
 20
-2.57521673947541
 10
-0.1053499602280302
 20
-2.570920990779339
 10
-0.1053499602280302
 20
-2.570920990779339
 10
0.3130897560840316
 20
-3.190306333568944
 10
0.3130897560840316
 20
-3.190306333568944
 10
0.3130897560840316
 20
-3.190306333568944
 10
0.7376319265626105
 20
-3.096182308641548
 10
0.9711177507999006
 20
-3.11248799456972
 10
0.9711177507999006
 20
-3.11248799456972
 10
0.9048647404298688
 20
-3.032156323871454
 10
0.9048647404298688
 20
-3.032156323871454
 10
0.9048647404298688
 20
-3.032156323871454
 10
1.28082291662516
 20
-3.04216486234759
 10
1.559358177849693
 20
-3.136944450731259
 10
1.559358177849693
 20
-3.136944450731259
 10
1.507898261805723
 20
-3.046838586216634
 10
1.507898261805723
 20
-3.046838586216634
 10
1.507898261805723
 20
-3.046838586216634
 10
1.727055228594761
 20
-3.056216789645507
 10
2.026153742733843
 20
-3.172505654546108
 72
     1
 10
2.026153742733843
 20
-3.172505654546108
 11
2.026153742733843
 21
-3.172505654546108
 97
        0
 75
     2
 76
     1
 98
        0
  0
INSERT
  5
54
330
1F
100
AcDbEntity
  8
Text
100
AcDbBlockReference
  2
block 2
 10
0.0
 20
0.0
 30
0.0
  0
INSERT
  5
5A
330
1F
100
AcDbEntity
  8
Text
100
AcDbBlockReference
  2
block 3
 10
0.0
 20
0.0
 30
0.0
  0
ENDSEC
  0
SECTION
  2
OBJECTS
  0
DICTIONARY
  5
C
330
0
100
AcDbDictionary
281
     1
  3
ACAD_GROUP
350
D
  3
ACAD_LAYOUT
350
1A
  3
ACAD_MATERIAL
350
3B
  3
ACAD_MLEADERSTYLE
350
91
  3
ACAD_MLINESTYLE
350
17
  3
ACAD_PLOTSETTINGS
350
19
  3
ACAD_PLOTSTYLENAME
350
E
  3
ACAD_TABLESTYLE
350
90
  3
ACAD_VISUALSTYLE
350
2A
  0
DICTIONARY
  5
D
102
{ACAD_REACTORS
330
C
102
}
330
C
100
AcDbDictionary
281
     1
  0
DICTIONARY
  5
1A
102
{ACAD_REACTORS
330
C
102
}
330
C
100
AcDbDictionary
281
     1
  3
Layout1
350
1E
  3
Layout2
350
26
  3
Model
350
22
  0
DICTIONARY
  5
3B
102
{ACAD_REACTORS
330
C
102
}
330
C
100
AcDbDictionary
281
     1
  3
ByBlock
350
3D
  3
ByLayer
350
3C
  3
Global
350
3E
  0
DICTIONARY
  5
91
102
{ACAD_REACTORS
330
C
102
}
330
C
100
AcDbDictionary
281
     1
  0
DICTIONARY
  5
17
102
{ACAD_REACTORS
330
C
102
}
330
C
100
AcDbDictionary
281
     1
  3
Standard
350
18
  0
DICTIONARY
  5
19
102
{ACAD_REACTORS
330
C
102
}
330
C
100
AcDbDictionary
281
     1
  0
ACDBDICTIONARYWDFLT
  5
E
102
{ACAD_REACTORS
330
C
102
}
330
C
100
AcDbDictionary
281
     1
  3
Normal
350
F
100
AcDbDictionaryWithDefault
340
F
  0
DICTIONARY
  5
90
102
{ACAD_REACTORS
330
C
102
}
330
C
100
AcDbDictionary
281
     1
  0
DICTIONARY
  5
2A
102
{ACAD_REACTORS
330
C
102
}
330
C
100
AcDbDictionary
281
     1
  3
2dWireframe
350
2F
  3
3D Hidden
350
31
  3
3dWireframe
350
30
  3
Basic
350
32
  3
Brighten
350
36
  3
ColorChange
350
3A
  3
Conceptual
350
34
  3
Dim
350
35
  3
Facepattern
350
39
  3
Flat
350
2B
  3
FlatWithEdges
350
2C
  3
Gouraud
350
2D
  3
GouraudWithEdges
350
2E
  3
Linepattern
350
38
  3
Realistic
350
33
  3
Thicken
350
37
  0
LAYOUT
  5
1E
102
{ACAD_REACTORS
330
1A
102
}
330
1A
100
AcDbPlotSettings
  1

  2
none_device
  4

  6

 40
0.0
 41
0.0
 42
0.0
 43
0.0
 44
0.0
 45
0.0
 46
0.0
 47
0.0
 48
0.0
 49
0.0
140
0.0
141
0.0
142
1.0
143
1.0
 70
   688
 72
     0
 73
     0
 74
     5
  7

 75
    16
 76
     0
 77
     2
 78
   300
147
1.0
148
0.0
149
0.0
100
AcDbLayout
  1
Layout1
 70
     1
 71
     1
 10
0.0
 20
0.0
 11
12.0
 21
9.0
 12
0.0
 22
0.0
 32
0.0
 14
1.000000000000000E+20
 24
1.000000000000000E+20
 34
1.000000000000000E+20
 15
-1.000000000000000E+20
 25
-1.000000000000000E+20
 35
-1.000000000000000E+20
146
0.0
 13
0.0
 23
0.0
 33
0.0
 16
1.0
 26
0.0
 36
0.0
 17
0.0
 27
1.0
 37
0.0
 76
     0
330
1B
  0
LAYOUT
  5
26
102
{ACAD_REACTORS
330
1A
102
}
330
1A
100
AcDbPlotSettings
  1

  2
none_device
  4

  6

 40
0.0
 41
0.0
 42
0.0
 43
0.0
 44
0.0
 45
0.0
 46
0.0
 47
0.0
 48
0.0
 49
0.0
140
0.0
141
0.0
142
1.0
143
1.0
 70
   688
 72
     0
 73
     0
 74
     5
  7

 75
    16
 76
     0
 77
     2
 78
   300
147
1.0
148
0.0
149
0.0
100
AcDbLayout
  1
Layout2
 70
     1
 71
     2
 10
0.0
 20
0.0
 11
0.0
 21
0.0
 12
0.0
 22
0.0
 32
0.0
 14
0.0
 24
0.0
 34
0.0
 15
0.0
 25
0.0
 35
0.0
146
0.0
 13
0.0
 23
0.0
 33
0.0
 16
1.0
 26
0.0
 36
0.0
 17
0.0
 27
1.0
 37
0.0
 76
     0
330
23
  0
LAYOUT
  5
22
102
{ACAD_REACTORS
330
1A
102
}
330
1A
100
AcDbPlotSettings
  1

  2
none_device
  4

  6

 40
0.0
 41
0.0
 42
0.0
 43
0.0
 44
0.0
 45
0.0
 46
0.0
 47
0.0
 48
0.0
 49
0.0
140
0.0
141
0.0
142
1.0
143
1.0
 70
  1712
 72
     0
 73
     0
 74
     0
  7

 75
     0
 76
     0
 77
     2
 78
   300
147
1.0
148
0.0
149
0.0
100
AcDbLayout
  1
Model
 70
     1
 71
     0
 10
0.0
 20
0.0
 11
12.0
 21
9.0
 12
0.0
 22
0.0
 32
0.0
 14
1.000000000000000E+20
 24
1.000000000000000E+20
 34
1.000000000000000E+20
 15
-1.000000000000000E+20
 25
-1.000000000000000E+20
 35
-1.000000000000000E+20
146
0.0
 13
0.0
 23
0.0
 33
0.0
 16
1.0
 26
0.0
 36
0.0
 17
0.0
 27
1.0
 37
0.0
 76
     0
330
1F
331
29
  0
MATERIAL
  5
3D
102
{ACAD_REACTORS
330
3B
102
}
102
{ACAD_XDICTIONARY
360
8C
102
}
330
3B
100
AcDbMaterial
  1
ByBlock
  0
MATERIAL
  5
3C
102
{ACAD_REACTORS
330
3B
102
}
102
{ACAD_XDICTIONARY
360
8A
102
}
330
3B
100
AcDbMaterial
  1
ByLayer
  0
MATERIAL
  5
3E
102
{ACAD_REACTORS
330
3B
102
}
102
{ACAD_XDICTIONARY
360
8E
102
}
330
3B
100
AcDbMaterial
  1
Global
  0
MLINESTYLE
  5
18
102
{ACAD_REACTORS
330
17
102
}
330
17
100
AcDbMlineStyle
  2
Standard
 70
     0
  3

 62
   256
 51
90.0
 52
90.0
 71
     2
 49
0.5
 62
   256
  6
BYLAYER
 49
-0.5
 62
   256
  6
BYLAYER
  0
ACDBPLACEHOLDER
  5
F
102
{ACAD_REACTORS
330
E
102
}
330
E
  0
VISUALSTYLE
  5
2F
102
{ACAD_REACTORS
330
2A
102
}
102
{ACAD_XDICTIONARY
360
72
102
}
330
2A
100
AcDbVisualStyle
  2
2dWireframe
 70
     4
 71
     0
 72
     2
 73
     0
 90
        0
 40
-0.6
 41
-30.0
 62
     5
 63
     7
421
 16777215
 74
     1
 91
        4
 64
     7
 65
   257
 75
     1
175
     1
 42
1.0
 92
        0
 66
   257
 43
1.0
 76
     1
 77
     6
 78
     2
 67
     7
 79
     5
170
     0
171
     0
290
     0
174
     0
 93
        1
 44
0.0
173
     0
291
     0
 45
0.0
1001
ACAD
1000
AcDbSavedByObjectVersion
1070
     0
  0
VISUALSTYLE
  5
31
102
{ACAD_REACTORS
330
2A
102
}
102
{ACAD_XDICTIONARY
360
76
102
}
330
2A
100
AcDbVisualStyle
  2
3D Hidden
 70
     6
 71
     1
 72
     2
 73
     2
 90
        0
 40
-0.6
 41
-30.0
 62
     5
 63
     7
421
 16777215
 74
     2
 91
        2
 64
     7
 65
   257
 75
     2
175
     1
 42
40.0
 92
        0
 66
   257
 43
1.0
 76
     1
 77
     6
 78
     2
 67
     7
 79
     3
170
     0
171
     0
290
     0
174
     0
 93
        1
 44
0.0
173
     0
291
     0
 45
0.0
1001
ACAD
1000
AcDbSavedByObjectVersion
1070
     0
  0
VISUALSTYLE
  5
30
102
{ACAD_REACTORS
330
2A
102
}
102
{ACAD_XDICTIONARY
360
74
102
}
330
2A
100
AcDbVisualStyle
  2
3dWireframe
 70
     5
 71
     0
 72
     2
 73
     0
 90
        0
 40
-0.6
 41
-30.0
 62
     5
 63
     7
421
 16777215
 74
     1
 91
        4
 64
     7
 65
   257
 75
     1
175
     1
 42
1.0
 92
        0
 66
   257
 43
1.0
 76
     1
 77
     6
 78
     2
 67
     7
 79
     5
170
     0
171
     0
290
     0
174
     0
 93
        1
 44
0.0
173
     0
291
     0
 45
0.0
1001
ACAD
1000
AcDbSavedByObjectVersion
1070
     0
  0
VISUALSTYLE
  5
32
102
{ACAD_REACTORS
330
2A
102
}
102
{ACAD_XDICTIONARY
360
78
102
}
330
2A
100
AcDbVisualStyle
  2
Basic
 70
     7
 71
     1
 72
     0
 73
     1
 90
        0
 40
-0.6
 41
-30.0
 62
     5
 63
     7
421
 16777215
 74
     0
 91
        4
 64
     7
 65
   257
 75
     1
175
     1
 42
1.0
 92
        8
 66
     7
 43
1.0
 76
     1
 77
     6
 78
     2
 67
     7
 79
     5
170
     0
171
     0
290
     0
174
     0
 93
        1
 44
0.0
173
     0
291
     1
 45
0.0
1001
ACAD
1000
AcDbSavedByObjectVersion
1070
     0
  0
VISUALSTYLE
  5
36
102
{ACAD_REACTORS
330
2A
102
}
102
{ACAD_XDICTIONARY
360
80
102
}
330
2A
100
AcDbVisualStyle
  2
Brighten
 70
    12
 71
     2
 72
     2
 73
     0
 90
        0
 40
-0.6
 41
-30.0
 62
     5
 63
     7
421
 16777215
 74
     1
 91
        4
 64
     7
 65
   257
 75
     1
175
     1
 42
1.0
 92
        8
 66
     7
 43
1.0
 76
     1
 77
     6
 78
     2
 67
     7
 79
     5
170
     0
171
     0
290
     0
174
     0
 93
        1
 44
50.0
173
     0
291
     1
 45
0.0
1001
ACAD
1000
AcDbSavedByObjectVersion
1070
     0
  0
VISUALSTYLE
  5
3A
102
{ACAD_REACTORS
330
2A
102
}
102
{ACAD_XDICTIONARY
360
88
102
}
330
2A
100
AcDbVisualStyle
  2
ColorChange
 70
    16
 71
     2
 72
     2
 73
     3
 90
        0
 40
-0.6
 41
-30.0
 62
     5
 63
     8
421
  8421504
 74
     1
 91
        4
 64
     7
 65
   257
 75
     1
175
     1
 42
1.0
 92
        8
 66
     8
424
  8421504
 43
1.0
 76
     1
 77
     6
 78
     2
 67
     7
 79
     5
170
     0
171
     0
290
     0
174
     0
 93
        1
 44
0.0
173
     0
291
     1
 45
0.0
1001
ACAD
1000
AcDbSavedByObjectVersion
1070
     0
  0
VISUALSTYLE
  5
34
102
{ACAD_REACTORS
330
2A
102
}
102
{ACAD_XDICTIONARY
360
7C
102
}
330
2A
100
AcDbVisualStyle
  2
Conceptual
 70
     9
 71
     3
 72
     2
 73
     0
 90
        0
 40
-0.6
 41
-30.0
 62
     5
 63
     7
421
 16777215
 74
     2
 91
        2
 64
     7
 65
   257
 75
     1
175
     1
 42
40.0
 92
        8
 66
     7
 43
1.0
 76
     1
 77
     6
 78
     2
 67
     7
 79
     3
170
     0
171
     0
290
     0
174
     0
 93
        1
 44
0.0
173
     0
291
     0
 45
0.0
1001
ACAD
1000
AcDbSavedByObjectVersion
1070
     0
  0
VISUALSTYLE
  5
35
102
{ACAD_REACTORS
330
2A
102
}
102
{ACAD_XDICTIONARY
360
7E
102
}
330
2A
100
AcDbVisualStyle
  2
Dim
 70
    11
 71
     2
 72
     2
 73
     0
 90
        0
 40
-0.6
 41
-30.0
 62
     5
 63
     7
421
 16777215
 74
     1
 91
        4
 64
     7
 65
   257
 75
     1
175
     1
 42
1.0
 92
        8
 66
     7
 43
1.0
 76
     1
 77
     6
 78
     2
 67
     7
 79
     5
170
     0
171
     0
290
     0
174
     0
 93
        1
 44
-50.0
173
     0
291
     1
 45
0.0
1001
ACAD
1000
AcDbSavedByObjectVersion
1070
     0
  0
VISUALSTYLE
  5
39
102
{ACAD_REACTORS
330
2A
102
}
102
{ACAD_XDICTIONARY
360
86
102
}
330
2A
100
AcDbVisualStyle
  2
Facepattern
 70
    15
 71
     2
 72
     2
 73
     0
 90
        0
 40
-0.6
 41
-30.0
 62
     5
 63
     7
421
 16777215
 74
     1
 91
        4
 64
     7
 65
   257
 75
     1
175
     1
 42
1.0
 92
        8
 66
     7
 43
1.0
 76
     1
 77
     6
 78
     2
 67
     7
 79
     5
170
     0
171
     0
290
     0
174
     0
 93
        1
 44
0.0
173
     0
291
     1
 45
0.0
1001
ACAD
1000
AcDbSavedByObjectVersion
1070
     0
  0
VISUALSTYLE
  5
2B
102
{ACAD_REACTORS
330
2A
102
}
102
{ACAD_XDICTIONARY
360
6A
102
}
330
2A
100
AcDbVisualStyle
  2
Flat
 70
     0
 71
     2
 72
     1
 73
     1
 90
        2
 40
-0.6
 41
30.0
 62
     5
 63
     7
421
 16777215
 74
     0
 91
        4
 64
     7
 65
   257
 75
     1
175
     1
 42
1.0
 92
        8
 66
     7
 43
1.0
 76
     1
 77
     6
 78
     2
 67
     7
 79
     5
170
     0
171
     0
290
     0
174
     0
 93
       13
 44
0.0
173
     0
291
     1
 45
0.0
1001
ACAD
1000
AcDbSavedByObjectVersion
1070
     0
  0
VISUALSTYLE
  5
2C
102
{ACAD_REACTORS
330
2A
102
}
102
{ACAD_XDICTIONARY
360
6C
102
}
330
2A
100
AcDbVisualStyle
  2
FlatWithEdges
 70
     1
 71
     2
 72
     1
 73
     1
 90
        2
 40
-0.6
 41
30.0
 62
     5
 63
     7
421
 16777215
 74
     1
 91
        4
 64
     7
 65
   257
 75
     1
175
     1
 42
1.0
 92
        0
 66
   257
 43
1.0
 76
     1
 77
     6
 78
     2
 67
     7
 79
     5
170
     0
171
     0
290
     0
174
     0
 93
       13
 44
0.0
173
     0
291
     1
 45
0.0
1001
ACAD
1000
AcDbSavedByObjectVersion
1070
     0
  0
VISUALSTYLE
  5
2D
102
{ACAD_REACTORS
330
2A
102
}
102
{ACAD_XDICTIONARY
360
6E
102
}
330
2A
100
AcDbVisualStyle
  2
Gouraud
 70
     2
 71
     2
 72
     2
 73
     1
 90
        2
 40
-0.6
 41
30.0
 62
     5
 63
     7
421
 16777215
 74
     0
 91
        4
 64
     7
 65
   257
 75
     1
175
     1
 42
1.0
 92
        0
 66
     7
 43
1.0
 76
     1
 77
     6
 78
     2
 67
     7
 79
     5
170
     0
171
     0
290
     0
174
     0
 93
       13
 44
0.0
173
     0
291
     1
 45
0.0
1001
ACAD
1000
AcDbSavedByObjectVersion
1070
     0
  0
VISUALSTYLE
  5
2E
102
{ACAD_REACTORS
330
2A
102
}
102
{ACAD_XDICTIONARY
360
70
102
}
330
2A
100
AcDbVisualStyle
  2
GouraudWithEdges
 70
     3
 71
     2
 72
     2
 73
     1
 90
        2
 40
-0.6
 41
30.0
 62
     5
 63
     7
421
 16777215
 74
     1
 91
        4
 64
     7
 65
   257
 75
     1
175
     1
 42
1.0
 92
        0
 66
   257
 43
1.0
 76
     1
 77
     6
 78
     2
 67
     7
 79
     5
170
     0
171
     0
290
     0
174
     0
 93
       13
 44
0.0
173
     0
291
     1
 45
0.0
1001
ACAD
1000
AcDbSavedByObjectVersion
1070
     0
  0
VISUALSTYLE
  5
38
102
{ACAD_REACTORS
330
2A
102
}
102
{ACAD_XDICTIONARY
360
84
102
}
330
2A
100
AcDbVisualStyle
  2
Linepattern
 70
    14
 71
     2
 72
     2
 73
     0
 90
        0
 40
-0.6
 41
-30.0
 62
     5
 63
     7
421
 16777215
 74
     1
 91
        4
 64
     7
 65
   257
 75
     7
175
     7
 42
1.0
 92
        8
 66
     7
 43
1.0
 76
     1
 77
     6
 78
     2
 67
     7
 79
     5
170
     0
171
     0
290
     0
174
     0
 93
        1
 44
0.0
173
     0
291
     1
 45
0.0
1001
ACAD
1000
AcDbSavedByObjectVersion
1070
     0
  0
VISUALSTYLE
  5
33
102
{ACAD_REACTORS
330
2A
102
}
102
{ACAD_XDICTIONARY
360
7A
102
}
330
2A
100
AcDbVisualStyle
  2
Realistic
 70
     8
 71
     2
 72
     2
 73
     0
 90
        0
 40
-0.6
 41
-30.0
 62
     5
 63
     7
421
 16777215
 74
     1
 91
        0
 64
     7
 65
   257
 75
     1
175
     1
 42
1.0
 92
        8
 66
     8
424
  7895160
 43
1.0
 76
     1
 77
     6
 78
     2
 67
     7
 79
     5
170
     0
171
     0
290
     0
174
     0
 93
       13
 44
0.0
173
     0
291
     0
 45
0.0
1001
ACAD
1000
AcDbSavedByObjectVersion
1070
     0
  0
VISUALSTYLE
  5
37
102
{ACAD_REACTORS
330
2A
102
}
102
{ACAD_XDICTIONARY
360
82
102
}
330
2A
100
AcDbVisualStyle
  2
Thicken
 70
    13
 71
     2
 72
     2
 73
     0
 90
        0
 40
-0.6
 41
-30.0
 62
     5
 63
     7
421
 16777215
 74
     1
 91
        4
 64
     7
 65
   257
 75
     1
175
     1
 42
1.0
 92
       12
 66
     7
 43
1.0
 76
     1
 77
     6
 78
     2
 67
     7
 79
     5
170
     0
171
     0
290
     0
174
     0
 93
        1
 44
0.0
173
     0
291
     1
 45
0.0
1001
ACAD
1000
AcDbSavedByObjectVersion
1070
     0
  0
DICTIONARY
  5
8C
330
3D
100
AcDbDictionary
280
     1
281
     1
  3
ACAD_XREC_ROUNDTRIP
360
8D
  0
DICTIONARY
  5
8A
330
3C
100
AcDbDictionary
280
     1
281
     1
  3
ACAD_XREC_ROUNDTRIP
360
8B
  0
DICTIONARY
  5
8E
330
3E
100
AcDbDictionary
280
     1
281
     1
  3
ACAD_XREC_ROUNDTRIP
360
8F
  0
DICTIONARY
  5
72
330
2F
100
AcDbDictionary
280
     1
281
     1
  3
ACAD_XREC_ROUNDTRIP
360
73
  0
DICTIONARY
  5
76
330
31
100
AcDbDictionary
280
     1
281
     1
  3
ACAD_XREC_ROUNDTRIP
360
77
  0
DICTIONARY
  5
74
330
30
100
AcDbDictionary
280
     1
281
     1
  3
ACAD_XREC_ROUNDTRIP
360
75
  0
DICTIONARY
  5
78
330
32
100
AcDbDictionary
280
     1
281
     1
  3
ACAD_XREC_ROUNDTRIP
360
79
  0
DICTIONARY
  5
80
330
36
100
AcDbDictionary
280
     1
281
     1
  3
ACAD_XREC_ROUNDTRIP
360
81
  0
DICTIONARY
  5
88
330
3A
100
AcDbDictionary
280
     1
281
     1
  3
ACAD_XREC_ROUNDTRIP
360
89
  0
DICTIONARY
  5
7C
330
34
100
AcDbDictionary
280
     1
281
     1
  3
ACAD_XREC_ROUNDTRIP
360
7D
  0
DICTIONARY
  5
7E
330
35
100
AcDbDictionary
280
     1
281
     1
  3
ACAD_XREC_ROUNDTRIP
360
7F
  0
DICTIONARY
  5
86
330
39
100
AcDbDictionary
280
     1
281
     1
  3
ACAD_XREC_ROUNDTRIP
360
87
  0
DICTIONARY
  5
6A
330
2B
100
AcDbDictionary
280
     1
281
     1
  3
ACAD_XREC_ROUNDTRIP
360
6B
  0
DICTIONARY
  5
6C
330
2C
100
AcDbDictionary
280
     1
281
     1
  3
ACAD_XREC_ROUNDTRIP
360
6D
  0
DICTIONARY
  5
6E
330
2D
100
AcDbDictionary
280
     1
281
     1
  3
ACAD_XREC_ROUNDTRIP
360
6F
  0
DICTIONARY
  5
70
330
2E
100
AcDbDictionary
280
     1
281
     1
  3
ACAD_XREC_ROUNDTRIP
360
71
  0
DICTIONARY
  5
84
330
38
100
AcDbDictionary
280
     1
281
     1
  3
ACAD_XREC_ROUNDTRIP
360
85
  0
DICTIONARY
  5
7A
330
33
100
AcDbDictionary
280
     1
281
     1
  3
ACAD_XREC_ROUNDTRIP
360
7B
  0
DICTIONARY
  5
82
330
37
100
AcDbDictionary
280
     1
281
     1
  3
ACAD_XREC_ROUNDTRIP
360
83
  0
XRECORD
  5
8D
102
{ACAD_REACTORS
330
8C
102
}
330
8C
100
AcDbXrecord
280
     1
102
MATERIAL
148
0.0
149
0.0
149
0.0
 93
        0
 94
      127
282
     0
 72
     1
 77
     1
171
     1
175
     1
179
     1
273
     0
  0
XRECORD
  5
8B
102
{ACAD_REACTORS
330
8A
102
}
330
8A
100
AcDbXrecord
280
     1
102
MATERIAL
148
0.0
149
0.0
149
0.0
 93
        0
 94
      127
282
     0
 72
     1
 77
     1
171
     1
175
     1
179
     1
273
     0
  0
XRECORD
  5
8F
102
{ACAD_REACTORS
330
8E
102
}
330
8E
100
AcDbXrecord
280
     1
102
MATERIAL
148
0.0
149
0.0
149
0.0
 93
        0
 94
      127
282
     0
 72
     1
 77
     1
171
     1
175
     1
179
     1
273
     0
  0
XRECORD
  5
73
102
{ACAD_REACTORS
330
72
102
}
330
72
100
AcDbXrecord
280
     1
102
RTVSPropertyOp0
 70
     1
102
RTVSPropertyOp1
 70
     1
102
RTVSPropertyOp2
 70
     1
102
RTVSPropertyOp3
 70
     1
102
RTVSPropertyOp4
 70
     1
102
RTVSPropertyOp5
 70
     1
102
RTVSPropertyOp6
 70
     1
102
RTVSPropertyOp7
 70
     1
102
RTVSPropertyOp8
 70
     1
102
RTVSPropertyOp9
 70
     1
102
RTVSPropertyOp10
 70
     1
102
RTVSPropertyOp11
 70
     1
102
RTVSPropertyOp12
 70
     1
102
RTVSPropertyOp13
 70
     1
102
RTVSPropertyOp14
 70
     1
102
RTVSPropertyOp15
 70
     1
102
RTVSPropertyOp16
 70
     1
102
RTVSPropertyOp17
 70
     1
102
RTVSPropertyOp18
 70
     1
102
RTVSPropertyOp19
 70
     1
102
RTVSPropertyOp20
 70
     1
102
RTVSPropertyOp21
 70
     1
102
RTVSPropertyOp22
 70
     1
102
RTVSPropertyOp23
 70
     1
102
RTVSPropertyOp24
 70
     1
102
RTVSPropertyOp25
 70
     1
102
RTVSPropertyOp26
 70
     1
102
RTVSPropertyOp27
 70
     1
102
RTVSPropertyOp28
 70
     1
102
RTVSPropertyOp29
 70
     1
102
RTVSPropertyOp30
 70
     1
102
RTVSPropertyOp31
 70
     1
102
RTVSPropertyOp32
 70
     1
  0
XRECORD
  5
77
102
{ACAD_REACTORS
330
76
102
}
330
76
100
AcDbXrecord
280
     1
102
RTVSPropertyOp0
 70
     1
102
RTVSPropertyOp1
 70
     1
102
RTVSPropertyOp2
 70
     1
102
RTVSPropertyOp3
 70
     1
102
RTVSPropertyOp4
 70
     1
102
RTVSPropertyOp5
 70
     1
102
RTVSPropertyOp6
 70
     1
102
RTVSPropertyOp7
 70
     1
102
RTVSPropertyOp8
 70
     1
102
RTVSPropertyOp9
 70
     1
102
RTVSPropertyOp10
 70
     1
102
RTVSPropertyOp11
 70
     1
102
RTVSPropertyOp12
 70
     1
102
RTVSPropertyOp13
 70
     1
102
RTVSPropertyOp14
 70
     1
102
RTVSPropertyOp15
 70
     1
102
RTVSPropertyOp16
 70
     1
102
RTVSPropertyOp17
 70
     1
102
RTVSPropertyOp18
 70
     1
102
RTVSPropertyOp19
 70
     1
102
RTVSPropertyOp20
 70
     1
102
RTVSPropertyOp21
 70
     1
102
RTVSPropertyOp22
 70
     1
102
RTVSPropertyOp23
 70
     1
102
RTVSPropertyOp24
 70
     1
102
RTVSPropertyOp25
 70
     1
102
RTVSPropertyOp26
 70
     1
102
RTVSPropertyOp27
 70
     1
102
RTVSPropertyOp28
 70
     1
102
RTVSPropertyOp29
 70
     1
102
RTVSPropertyOp30
 70
     1
102
RTVSPropertyOp31
 70
     1
102
RTVSPropertyOp32
 70
     1
  0
XRECORD
  5
75
102
{ACAD_REACTORS
330
74
102
}
330
74
100
AcDbXrecord
280
     1
102
RTVSPropertyOp0
 70
     1
102
RTVSPropertyOp1
 70
     1
102
RTVSPropertyOp2
 70
     1
102
RTVSPropertyOp3
 70
     1
102
RTVSPropertyOp4
 70
     1
102
RTVSPropertyOp5
 70
     1
102
RTVSPropertyOp6
 70
     1
102
RTVSPropertyOp7
 70
     1
102
RTVSPropertyOp8
 70
     1
102
RTVSPropertyOp9
 70
     1
102
RTVSPropertyOp10
 70
     1
102
RTVSPropertyOp11
 70
     1
102
RTVSPropertyOp12
 70
     1
102
RTVSPropertyOp13
 70
     1
102
RTVSPropertyOp14
 70
     1
102
RTVSPropertyOp15
 70
     1
102
RTVSPropertyOp16
 70
     1
102
RTVSPropertyOp17
 70
     1
102
RTVSPropertyOp18
 70
     1
102
RTVSPropertyOp19
 70
     1
102
RTVSPropertyOp20
 70
     1
102
RTVSPropertyOp21
 70
     1
102
RTVSPropertyOp22
 70
     1
102
RTVSPropertyOp23
 70
     1
102
RTVSPropertyOp24
 70
     1
102
RTVSPropertyOp25
 70
     1
102
RTVSPropertyOp26
 70
     1
102
RTVSPropertyOp27
 70
     1
102
RTVSPropertyOp28
 70
     1
102
RTVSPropertyOp29
 70
     1
102
RTVSPropertyOp30
 70
     1
102
RTVSPropertyOp31
 70
     1
102
RTVSPropertyOp32
 70
     1
  0
XRECORD
  5
79
102
{ACAD_REACTORS
330
78
102
}
330
78
100
AcDbXrecord
280
     1
102
RTVSPropertyOp0
 70
     1
102
RTVSPropertyOp1
 70
     1
102
RTVSPropertyOp2
 70
     1
102
RTVSPropertyOp3
 70
     1
102
RTVSPropertyOp4
 70
     1
102
RTVSPropertyOp5
 70
     1
102
RTVSPropertyOp6
 70
     1
102
RTVSPropertyOp7
 70
     1
102
RTVSPropertyOp8
 70
     1
102
RTVSPropertyOp9
 70
     1
102
RTVSPropertyOp10
 70
     1
102
RTVSPropertyOp11
 70
     1
102
RTVSPropertyOp12
 70
     1
102
RTVSPropertyOp13
 70
     1
102
RTVSPropertyOp14
 70
     1
102
RTVSPropertyOp15
 70
     1
102
RTVSPropertyOp16
 70
     1
102
RTVSPropertyOp17
 70
     1
102
RTVSPropertyOp18
 70
     1
102
RTVSPropertyOp19
 70
     1
102
RTVSPropertyOp20
 70
     1
102
RTVSPropertyOp21
 70
     1
102
RTVSPropertyOp22
 70
     1
102
RTVSPropertyOp23
 70
     1
102
RTVSPropertyOp24
 70
     1
102
RTVSPropertyOp25
 70
     1
102
RTVSPropertyOp26
 70
     1
102
RTVSPropertyOp27
 70
     1
102
RTVSPropertyOp28
 70
     1
102
RTVSPropertyOp29
 70
     1
102
RTVSPropertyOp30
 70
     1
102
RTVSPropertyOp31
 70
     1
102
RTVSPropertyOp32
 70
     1
  0
XRECORD
  5
81
102
{ACAD_REACTORS
330
80
102
}
330
80
100
AcDbXrecord
280
     1
102
RTVSPropertyOp0
 70
     1
102
RTVSPropertyOp1
 70
     1
102
RTVSPropertyOp2
 70
     1
102
RTVSPropertyOp3
 70
     1
102
RTVSPropertyOp4
 70
     1
102
RTVSPropertyOp5
 70
     1
102
RTVSPropertyOp6
 70
     1
102
RTVSPropertyOp7
 70
     1
102
RTVSPropertyOp8
 70
     1
102
RTVSPropertyOp9
 70
     1
102
RTVSPropertyOp10
 70
     1
102
RTVSPropertyOp11
 70
     1
102
RTVSPropertyOp12
 70
     1
102
RTVSPropertyOp13
 70
     1
102
RTVSPropertyOp14
 70
     1
102
RTVSPropertyOp15
 70
     1
102
RTVSPropertyOp16
 70
     1
102
RTVSPropertyOp17
 70
     1
102
RTVSPropertyOp18
 70
     1
102
RTVSPropertyOp19
 70
     1
102
RTVSPropertyOp20
 70
     1
102
RTVSPropertyOp21
 70
     1
102
RTVSPropertyOp22
 70
     1
102
RTVSPropertyOp23
 70
     1
102
RTVSPropertyOp24
 70
     1
102
RTVSPropertyOp25
 70
     1
102
RTVSPropertyOp26
 70
     1
102
RTVSPropertyOp27
 70
     1
102
RTVSPropertyOp28
 70
     1
102
RTVSPropertyOp29
 70
     1
102
RTVSPropertyOp30
 70
     1
102
RTVSPropertyOp31
 70
     1
102
RTVSPropertyOp32
 70
     1
  0
XRECORD
  5
89
102
{ACAD_REACTORS
330
88
102
}
330
88
100
AcDbXrecord
280
     1
102
RTVSPropertyOp0
 70
     1
102
RTVSPropertyOp1
 70
     1
102
RTVSPropertyOp2
 70
     1
102
RTVSPropertyOp3
 70
     1
102
RTVSPropertyOp4
 70
     1
102
RTVSPropertyOp5
 70
     1
102
RTVSPropertyOp6
 70
     1
102
RTVSPropertyOp7
 70
     1
102
RTVSPropertyOp8
 70
     1
102
RTVSPropertyOp9
 70
     1
102
RTVSPropertyOp10
 70
     1
102
RTVSPropertyOp11
 70
     1
102
RTVSPropertyOp12
 70
     1
102
RTVSPropertyOp13
 70
     1
102
RTVSPropertyOp14
 70
     1
102
RTVSPropertyOp15
 70
     1
102
RTVSPropertyOp16
 70
     1
102
RTVSPropertyOp17
 70
     1
102
RTVSPropertyOp18
 70
     1
102
RTVSPropertyOp19
 70
     1
102
RTVSPropertyOp20
 70
     1
102
RTVSPropertyOp21
 70
     1
102
RTVSPropertyOp22
 70
     1
102
RTVSPropertyOp23
 70
     1
102
RTVSPropertyOp24
 70
     1
102
RTVSPropertyOp25
 70
     1
102
RTVSPropertyOp26
 70
     1
102
RTVSPropertyOp27
 70
     1
102
RTVSPropertyOp28
 70
     1
102
RTVSPropertyOp29
 70
     1
102
RTVSPropertyOp30
 70
     1
102
RTVSPropertyOp31
 70
     1
102
RTVSPropertyOp32
 70
     1
  0
XRECORD
  5
7D
102
{ACAD_REACTORS
330
7C
102
}
330
7C
100
AcDbXrecord
280
     1
102
RTVSPropertyOp0
 70
     1
102
RTVSPropertyOp1
 70
     1
102
RTVSPropertyOp2
 70
     1
102
RTVSPropertyOp3
 70
     1
102
RTVSPropertyOp4
 70
     1
102
RTVSPropertyOp5
 70
     1
102
RTVSPropertyOp6
 70
     1
102
RTVSPropertyOp7
 70
     1
102
RTVSPropertyOp8
 70
     1
102
RTVSPropertyOp9
 70
     1
102
RTVSPropertyOp10
 70
     1
102
RTVSPropertyOp11
 70
     1
102
RTVSPropertyOp12
 70
     1
102
RTVSPropertyOp13
 70
     1
102
RTVSPropertyOp14
 70
     1
102
RTVSPropertyOp15
 70
     1
102
RTVSPropertyOp16
 70
     1
102
RTVSPropertyOp17
 70
     1
102
RTVSPropertyOp18
 70
     1
102
RTVSPropertyOp19
 70
     1
102
RTVSPropertyOp20
 70
     1
102
RTVSPropertyOp21
 70
     1
102
RTVSPropertyOp22
 70
     1
102
RTVSPropertyOp23
 70
     1
102
RTVSPropertyOp24
 70
     1
102
RTVSPropertyOp25
 70
     1
102
RTVSPropertyOp26
 70
     1
102
RTVSPropertyOp27
 70
     1
102
RTVSPropertyOp28
 70
     1
102
RTVSPropertyOp29
 70
     1
102
RTVSPropertyOp30
 70
     1
102
RTVSPropertyOp31
 70
     1
102
RTVSPropertyOp32
 70
     1
  0
XRECORD
  5
7F
102
{ACAD_REACTORS
330
7E
102
}
330
7E
100
AcDbXrecord
280
     1
102
RTVSPropertyOp0
 70
     1
102
RTVSPropertyOp1
 70
     1
102
RTVSPropertyOp2
 70
     1
102
RTVSPropertyOp3
 70
     1
102
RTVSPropertyOp4
 70
     1
102
RTVSPropertyOp5
 70
     1
102
RTVSPropertyOp6
 70
     1
102
RTVSPropertyOp7
 70
     1
102
RTVSPropertyOp8
 70
     1
102
RTVSPropertyOp9
 70
     1
102
RTVSPropertyOp10
 70
     1
102
RTVSPropertyOp11
 70
     1
102
RTVSPropertyOp12
 70
     1
102
RTVSPropertyOp13
 70
     1
102
RTVSPropertyOp14
 70
     1
102
RTVSPropertyOp15
 70
     1
102
RTVSPropertyOp16
 70
     1
102
RTVSPropertyOp17
 70
     1
102
RTVSPropertyOp18
 70
     1
102
RTVSPropertyOp19
 70
     1
102
RTVSPropertyOp20
 70
     1
102
RTVSPropertyOp21
 70
     1
102
RTVSPropertyOp22
 70
     1
102
RTVSPropertyOp23
 70
     1
102
RTVSPropertyOp24
 70
     1
102
RTVSPropertyOp25
 70
     1
102
RTVSPropertyOp26
 70
     1
102
RTVSPropertyOp27
 70
     1
102
RTVSPropertyOp28
 70
     1
102
RTVSPropertyOp29
 70
     1
102
RTVSPropertyOp30
 70
     1
102
RTVSPropertyOp31
 70
     1
102
RTVSPropertyOp32
 70
     1
  0
XRECORD
  5
87
102
{ACAD_REACTORS
330
86
102
}
330
86
100
AcDbXrecord
280
     1
102
RTVSPropertyOp0
 70
     1
102
RTVSPropertyOp1
 70
     1
102
RTVSPropertyOp2
 70
     1
102
RTVSPropertyOp3
 70
     1
102
RTVSPropertyOp4
 70
     1
102
RTVSPropertyOp5
 70
     1
102
RTVSPropertyOp6
 70
     1
102
RTVSPropertyOp7
 70
     1
102
RTVSPropertyOp8
 70
     1
102
RTVSPropertyOp9
 70
     1
102
RTVSPropertyOp10
 70
     1
102
RTVSPropertyOp11
 70
     1
102
RTVSPropertyOp12
 70
     1
102
RTVSPropertyOp13
 70
     1
102
RTVSPropertyOp14
 70
     1
102
RTVSPropertyOp15
 70
     1
102
RTVSPropertyOp16
 70
     1
102
RTVSPropertyOp17
 70
     1
102
RTVSPropertyOp18
 70
     1
102
RTVSPropertyOp19
 70
     1
102
RTVSPropertyOp20
 70
     1
102
RTVSPropertyOp21
 70
     1
102
RTVSPropertyOp22
 70
     1
102
RTVSPropertyOp23
 70
     1
102
RTVSPropertyOp24
 70
     1
102
RTVSPropertyOp25
 70
     1
102
RTVSPropertyOp26
 70
     1
102
RTVSPropertyOp27
 70
     1
102
RTVSPropertyOp28
 70
     1
102
RTVSPropertyOp29
 70
     1
102
RTVSPropertyOp30
 70
     1
102
RTVSPropertyOp31
 70
     1
102
RTVSPropertyOp32
 70
     1
  0
XRECORD
  5
6B
102
{ACAD_REACTORS
330
6A
102
}
330
6A
100
AcDbXrecord
280
     1
102
RTVSPropertyOp0
 70
     1
102
RTVSPropertyOp1
 70
     1
102
RTVSPropertyOp2
 70
     1
102
RTVSPropertyOp3
 70
     1
102
RTVSPropertyOp4
 70
     1
102
RTVSPropertyOp5
 70
     1
102
RTVSPropertyOp6
 70
     1
102
RTVSPropertyOp7
 70
     1
102
RTVSPropertyOp8
 70
     1
102
RTVSPropertyOp9
 70
     1
102
RTVSPropertyOp10
 70
     1
102
RTVSPropertyOp11
 70
     1
102
RTVSPropertyOp12
 70
     1
102
RTVSPropertyOp13
 70
     1
102
RTVSPropertyOp14
 70
     1
102
RTVSPropertyOp15
 70
     1
102
RTVSPropertyOp16
 70
     1
102
RTVSPropertyOp17
 70
     1
102
RTVSPropertyOp18
 70
     1
102
RTVSPropertyOp19
 70
     1
102
RTVSPropertyOp20
 70
     1
102
RTVSPropertyOp21
 70
     1
102
RTVSPropertyOp22
 70
     1
102
RTVSPropertyOp23
 70
     1
102
RTVSPropertyOp24
 70
     1
102
RTVSPropertyOp25
 70
     1
102
RTVSPropertyOp26
 70
     1
102
RTVSPropertyOp27
 70
     1
102
RTVSPropertyOp28
 70
     1
102
RTVSPropertyOp29
 70
     1
102
RTVSPropertyOp30
 70
     1
102
RTVSPropertyOp31
 70
     1
102
RTVSPropertyOp32
 70
     1
  0
XRECORD
  5
6D
102
{ACAD_REACTORS
330
6C
102
}
330
6C
100
AcDbXrecord
280
     1
102
RTVSPropertyOp0
 70
     1
102
RTVSPropertyOp1
 70
     1
102
RTVSPropertyOp2
 70
     1
102
RTVSPropertyOp3
 70
     1
102
RTVSPropertyOp4
 70
     1
102
RTVSPropertyOp5
 70
     1
102
RTVSPropertyOp6
 70
     1
102
RTVSPropertyOp7
 70
     1
102
RTVSPropertyOp8
 70
     1
102
RTVSPropertyOp9
 70
     1
102
RTVSPropertyOp10
 70
     1
102
RTVSPropertyOp11
 70
     1
102
RTVSPropertyOp12
 70
     1
102
RTVSPropertyOp13
 70
     1
102
RTVSPropertyOp14
 70
     1
102
RTVSPropertyOp15
 70
     1
102
RTVSPropertyOp16
 70
     1
102
RTVSPropertyOp17
 70
     1
102
RTVSPropertyOp18
 70
     1
102
RTVSPropertyOp19
 70
     1
102
RTVSPropertyOp20
 70
     1
102
RTVSPropertyOp21
 70
     1
102
RTVSPropertyOp22
 70
     1
102
RTVSPropertyOp23
 70
     1
102
RTVSPropertyOp24
 70
     1
102
RTVSPropertyOp25
 70
     1
102
RTVSPropertyOp26
 70
     1
102
RTVSPropertyOp27
 70
     1
102
RTVSPropertyOp28
 70
     1
102
RTVSPropertyOp29
 70
     1
102
RTVSPropertyOp30
 70
     1
102
RTVSPropertyOp31
 70
     1
102
RTVSPropertyOp32
 70
     1
  0
XRECORD
  5
6F
102
{ACAD_REACTORS
330
6E
102
}
330
6E
100
AcDbXrecord
280
     1
102
RTVSPropertyOp0
 70
     1
102
RTVSPropertyOp1
 70
     1
102
RTVSPropertyOp2
 70
     1
102
RTVSPropertyOp3
 70
     1
102
RTVSPropertyOp4
 70
     1
102
RTVSPropertyOp5
 70
     1
102
RTVSPropertyOp6
 70
     1
102
RTVSPropertyOp7
 70
     1
102
RTVSPropertyOp8
 70
     1
102
RTVSPropertyOp9
 70
     1
102
RTVSPropertyOp10
 70
     1
102
RTVSPropertyOp11
 70
     1
102
RTVSPropertyOp12
 70
     1
102
RTVSPropertyOp13
 70
     1
102
RTVSPropertyOp14
 70
     1
102
RTVSPropertyOp15
 70
     1
102
RTVSPropertyOp16
 70
     1
102
RTVSPropertyOp17
 70
     1
102
RTVSPropertyOp18
 70
     1
102
RTVSPropertyOp19
 70
     1
102
RTVSPropertyOp20
 70
     1
102
RTVSPropertyOp21
 70
     1
102
RTVSPropertyOp22
 70
     1
102
RTVSPropertyOp23
 70
     1
102
RTVSPropertyOp24
 70
     1
102
RTVSPropertyOp25
 70
     1
102
RTVSPropertyOp26
 70
     1
102
RTVSPropertyOp27
 70
     1
102
RTVSPropertyOp28
 70
     1
102
RTVSPropertyOp29
 70
     1
102
RTVSPropertyOp30
 70
     1
102
RTVSPropertyOp31
 70
     1
102
RTVSPropertyOp32
 70
     1
  0
XRECORD
  5
71
102
{ACAD_REACTORS
330
70
102
}
330
70
100
AcDbXrecord
280
     1
102
RTVSPropertyOp0
 70
     1
102
RTVSPropertyOp1
 70
     1
102
RTVSPropertyOp2
 70
     1
102
RTVSPropertyOp3
 70
     1
102
RTVSPropertyOp4
 70
     1
102
RTVSPropertyOp5
 70
     1
102
RTVSPropertyOp6
 70
     1
102
RTVSPropertyOp7
 70
     1
102
RTVSPropertyOp8
 70
     1
102
RTVSPropertyOp9
 70
     1
102
RTVSPropertyOp10
 70
     1
102
RTVSPropertyOp11
 70
     1
102
RTVSPropertyOp12
 70
     1
102
RTVSPropertyOp13
 70
     1
102
RTVSPropertyOp14
 70
     1
102
RTVSPropertyOp15
 70
     1
102
RTVSPropertyOp16
 70
     1
102
RTVSPropertyOp17
 70
     1
102
RTVSPropertyOp18
 70
     1
102
RTVSPropertyOp19
 70
     1
102
RTVSPropertyOp20
 70
     1
102
RTVSPropertyOp21
 70
     1
102
RTVSPropertyOp22
 70
     1
102
RTVSPropertyOp23
 70
     1
102
RTVSPropertyOp24
 70
     1
102
RTVSPropertyOp25
 70
     1
102
RTVSPropertyOp26
 70
     1
102
RTVSPropertyOp27
 70
     1
102
RTVSPropertyOp28
 70
     1
102
RTVSPropertyOp29
 70
     1
102
RTVSPropertyOp30
 70
     1
102
RTVSPropertyOp31
 70
     1
102
RTVSPropertyOp32
 70
     1
  0
XRECORD
  5
85
102
{ACAD_REACTORS
330
84
102
}
330
84
100
AcDbXrecord
280
     1
102
RTVSPropertyOp0
 70
     1
102
RTVSPropertyOp1
 70
     1
102
RTVSPropertyOp2
 70
     1
102
RTVSPropertyOp3
 70
     1
102
RTVSPropertyOp4
 70
     1
102
RTVSPropertyOp5
 70
     1
102
RTVSPropertyOp6
 70
     1
102
RTVSPropertyOp7
 70
     1
102
RTVSPropertyOp8
 70
     1
102
RTVSPropertyOp9
 70
     1
102
RTVSPropertyOp10
 70
     1
102
RTVSPropertyOp11
 70
     1
102
RTVSPropertyOp12
 70
     1
102
RTVSPropertyOp13
 70
     1
102
RTVSPropertyOp14
 70
     1
102
RTVSPropertyOp15
 70
     1
102
RTVSPropertyOp16
 70
     1
102
RTVSPropertyOp17
 70
     1
102
RTVSPropertyOp18
 70
     1
102
RTVSPropertyOp19
 70
     1
102
RTVSPropertyOp20
 70
     1
102
RTVSPropertyOp21
 70
     1
102
RTVSPropertyOp22
 70
     1
102
RTVSPropertyOp23
 70
     1
102
RTVSPropertyOp24
 70
     1
102
RTVSPropertyOp25
 70
     1
102
RTVSPropertyOp26
 70
     1
102
RTVSPropertyOp27
 70
     1
102
RTVSPropertyOp28
 70
     1
102
RTVSPropertyOp29
 70
     1
102
RTVSPropertyOp30
 70
     1
102
RTVSPropertyOp31
 70
     1
102
RTVSPropertyOp32
 70
     1
  0
XRECORD
  5
7B
102
{ACAD_REACTORS
330
7A
102
}
330
7A
100
AcDbXrecord
280
     1
102
RTVSPropertyOp0
 70
     1
102
RTVSPropertyOp1
 70
     1
102
RTVSPropertyOp2
 70
     1
102
RTVSPropertyOp3
 70
     1
102
RTVSPropertyOp4
 70
     1
102
RTVSPropertyOp5
 70
     1
102
RTVSPropertyOp6
 70
     1
102
RTVSPropertyOp7
 70
     1
102
RTVSPropertyOp8
 70
     1
102
RTVSPropertyOp9
 70
     1
102
RTVSPropertyOp10
 70
     1
102
RTVSPropertyOp11
 70
     1
102
RTVSPropertyOp12
 70
     1
102
RTVSPropertyOp13
 70
     1
102
RTVSPropertyOp14
 70
     1
102
RTVSPropertyOp15
 70
     1
102
RTVSPropertyOp16
 70
     1
102
RTVSPropertyOp17
 70
     1
102
RTVSPropertyOp18
 70
     1
102
RTVSPropertyOp19
 70
     1
102
RTVSPropertyOp20
 70
     1
102
RTVSPropertyOp21
 70
     1
102
RTVSPropertyOp22
 70
     1
102
RTVSPropertyOp23
 70
     1
102
RTVSPropertyOp24
 70
     1
102
RTVSPropertyOp25
 70
     1
102
RTVSPropertyOp26
 70
     1
102
RTVSPropertyOp27
 70
     1
102
RTVSPropertyOp28
 70
     1
102
RTVSPropertyOp29
 70
     1
102
RTVSPropertyOp30
 70
     1
102
RTVSPropertyOp31
 70
     1
102
RTVSPropertyOp32
 70
     1
  0
XRECORD
  5
83
102
{ACAD_REACTORS
330
82
102
}
330
82
100
AcDbXrecord
280
     1
102
RTVSPropertyOp0
 70
     1
102
RTVSPropertyOp1
 70
     1
102
RTVSPropertyOp2
 70
     1
102
RTVSPropertyOp3
 70
     1
102
RTVSPropertyOp4
 70
     1
102
RTVSPropertyOp5
 70
     1
102
RTVSPropertyOp6
 70
     1
102
RTVSPropertyOp7
 70
     1
102
RTVSPropertyOp8
 70
     1
102
RTVSPropertyOp9
 70
     1
102
RTVSPropertyOp10
 70
     1
102
RTVSPropertyOp11
 70
     1
102
RTVSPropertyOp12
 70
     1
102
RTVSPropertyOp13
 70
     1
102
RTVSPropertyOp14
 70
     1
102
RTVSPropertyOp15
 70
     1
102
RTVSPropertyOp16
 70
     1
102
RTVSPropertyOp17
 70
     1
102
RTVSPropertyOp18
 70
     1
102
RTVSPropertyOp19
 70
     1
102
RTVSPropertyOp20
 70
     1
102
RTVSPropertyOp21
 70
     1
102
RTVSPropertyOp22
 70
     1
102
RTVSPropertyOp23
 70
     1
102
RTVSPropertyOp24
 70
     1
102
RTVSPropertyOp25
 70
     1
102
RTVSPropertyOp26
 70
     1
102
RTVSPropertyOp27
 70
     1
102
RTVSPropertyOp28
 70
     1
102
RTVSPropertyOp29
 70
     1
102
RTVSPropertyOp30
 70
     1
102
RTVSPropertyOp31
 70
     1
102
RTVSPropertyOp32
 70
     1
  0
ENDSEC
  0
EOF
