  0
SECTION
  2
HEADER
  9
$ACADVER
  1
AC1032
  9
$ACADMAINTVER
 90
      228
  9
$DWGCODEPAGE
  3
ANSI_1252
  9
$REQUIREDVERSIONS
160
                 0
  9
$INSBASE
 10
0.0
 20
0.0
 30
0.0
  9
$EXTMIN
 10
1.000000000000000E+20
 20
1.000000000000000E+20
 30
1.000000000000000E+20
  9
$EXTMAX
 10
-1.000000000000000E+20
 20
-1.000000000000000E+20
 30
-1.000000000000000E+20
  9
$LIMMIN
 10
0.0
 20
0.0
  9
$LIMMAX
 10
12.0
 20
9.0
  9
$ORTHOMODE
 70
     0
  9
$REGENMODE
 70
     1
  9
$FILLMODE
 70
     1
  9
$QTEXTMODE
 70
     0
  9
$MIRRTEXT
 70
     0
  9
$LTSCALE
 40
1.0
  9
$ATTMODE
 70
     1
  9
$TEXTSIZE
 40
0.2
  9
$TRACEWID
 40
0.05
  9
$TEXTSTYLE
  7
Standard
  9
$CLAYER
  8
0
  9
$CELTYPE
  6
ByLayer
  9
$CECOLOR
 62
   256
  9
$CELTSCALE
 40
1.0
  9
$DISPSILH
 70
     0
  9
$DIMSCALE
 40
1.0
  9
$DIMASZ
 40
0.18
  9
$DIMEXO
 40
0.0625
  9
$DIMDLI
 40
0.38
  9
$DIMRND
 40
0.0
  9
$DIMDLE
 40
0.0
  9
$DIMEXE
 40
0.18
  9
$DIMTP
 40
0.0
  9
$DIMTM
 40
0.0
  9
$DIMTXT
 40
0.18
  9
$DIMCEN
 40
0.09
  9
$DIMTSZ
 40
0.0
  9
$DIMTOL
 70
     0
  9
$DIMLIM
 70
     0
  9
$DIMTIH
 70
     1
  9
$DIMTOH
 70
     1
  9
$DIMSE1
 70
     0
  9
$DIMSE2
 70
     0
  9
$DIMTAD
 70
     0
  9
$DIMZIN
 70
     0
  9
$DIMBLK
  1

  9
$DIMASO
 70
     1
  9
$DIMSHO
 70
     1
  9
$DIMPOST
  1

  9
$DIMAPOST
  1

  9
$DIMALT
 70
     0
  9
$DIMALTD
 70
     2
  9
$DIMALTF
 40
25.4
  9
$DIMLFAC
 40
1.0
  9
$DIMTOFL
 70
     0
  9
$DIMTVP
 40
0.0
  9
$DIMTIX
 70
     0
  9
$DIMSOXD
 70
     0
  9
$DIMSAH
 70
     0
  9
$DIMBLK1
  1

  9
$DIMBLK2
  1

  9
$DIMSTYLE
  2
Standard
  9
$DIMCLRD
 70
     0
  9
$DIMCLRE
 70
     0
  9
$DIMCLRT
 70
     0
  9
$DIMTFAC
 40
1.0
  9
$DIMGAP
 40
0.09
  9
$DIMJUST
 70
     0
  9
$DIMSD1
 70
     0
  9
$DIMSD2
 70
     0
  9
$DIMTOLJ
 70
     1
  9
$DIMTZIN
 70
     0
  9
$DIMALTZ
 70
     0
  9
$DIMALTTZ
 70
     0
  9
$DIMUPT
 70
     0
  9
$DIMDEC
 70
     4
  9
$DIMTDEC
 70
     4
  9
$DIMALTU
 70
     2
  9
$DIMALTTD
 70
     2
  9
$DIMTXSTY
  7
Standard
  9
$DIMAUNIT
 70
     0
  9
$DIMADEC
 70
     0
  9
$DIMALTRND
 40
0.0
  9
$DIMAZIN
 70
     0
  9
$DIMDSEP
 70
    46
  9
$DIMATFIT
 70
     3
  9
$DIMFRAC
 70
     0
  9
$DIMLDRBLK
  1

  9
$DIMLUNIT
 70
     2
  9
$DIMLWD
 70
    -2
  9
$DIMLWE
 70
    -2
  9
$DIMTMOVE
 70
     0
  9
$DIMFXL
 40
1.0
  9
$DIMFXLON
 70
     0
  9
$DIMJOGANG
 40
0.7853981633974483
  9
$DIMTFILL
 70
     0
  9
$DIMTFILLCLR
 70
     0
  9
$DIMARCSYM
 70
     0
  9
$DIMLTYPE
  6

  9
$DIMLTEX1
  6

  9
$DIMLTEX2
  6

  9
$DIMTXTDIRECTION
 70
     0
  9
$LUNITS
 70
     2
  9
$LUPREC
 70
     4
  9
$SKETCHINC
 40
0.1
  9
$FILLETRAD
 40
0.0
  9
$AUNITS
 70
     0
  9
$AUPREC
 70
     0
  9
$MENU
  1
.
  9
$ELEVATION
 40
0.0
  9
$PELEVATION
 40
0.0
  9
$THICKNESS
 40
0.0
  9
$LIMCHECK
 70
     0
  9
$CHAMFERA
 40
0.0
  9
$CHAMFERB
 40
0.0
  9
$CHAMFERC
 40
0.0
  9
$CHAMFERD
 40
0.0
  9
$SKPOLY
 70
     0
  9
$TDCREATE
 40
2460141.429050926
  9
$TDUCREATE
 40
2460141.720717593
  9
$TDUPDATE
 40
2460141.429050926
  9
$TDUUPDATE
 40
2460141.720717593
  9
$TDINDWG
 40
0.0000000000
  9
$TDUSRTIMER
 40
0.0000000000
  9
$USRTIMER
 70
     1
  9
$ANGBASE
 50
0.0
  9
$ANGDIR
 70
     0
  9
$PDMODE
 70
     0
  9
$PDSIZE
 40
0.0
  9
$PLINEWID
 40
0.0
  9
$SPLFRAME
 70
     0
  9
$SPLINETYPE
 70
     6
  9
$SPLINESEGS
 70
     8
  9
$HANDSEED
  5
A3
  9
$SURFTAB1
 70
     6
  9
$SURFTAB2
 70
     6
  9
$SURFTYPE
 70
     6
  9
$SURFU
 70
     6
  9
$SURFV
 70
     6
  9
$UCSBASE
  2

  9
$UCSNAME
  2

  9
$UCSORG
 10
0.0
 20
0.0
 30
0.0
  9
$UCSXDIR
 10
1.0
 20
0.0
 30
0.0
  9
$UCSYDIR
 10
0.0
 20
1.0
 30
0.0
  9
$UCSORTHOREF
  2

  9
$UCSORTHOVIEW
 70
     0
  9
$UCSORGTOP
 10
0.0
 20
0.0
 30
0.0
  9
$UCSORGBOTTOM
 10
0.0
 20
0.0
 30
0.0
  9
$UCSORGLEFT
 10
0.0
 20
0.0
 30
0.0
  9
$UCSORGRIGHT
 10
0.0
 20
0.0
 30
0.0
  9
$UCSORGFRONT
 10
0.0
 20
0.0
 30
0.0
  9
$UCSORGBACK
 10
0.0
 20
0.0
 30
0.0
  9
$PUCSBASE
  2

  9
$PUCSNAME
  2

  9
$PUCSORG
 10
0.0
 20
0.0
 30
0.0
  9
$PUCSXDIR
 10
1.0
 20
0.0
 30
0.0
  9
$PUCSYDIR
 10
0.0
 20
1.0
 30
0.0
  9
$PUCSORTHOREF
  2

  9
$PUCSORTHOVIEW
 70
     0
  9
$PUCSORGTOP
 10
0.0
 20
0.0
 30
0.0
  9
$PUCSORGBOTTOM
 10
0.0
 20
0.0
 30
0.0
  9
$PUCSORGLEFT
 10
0.0
 20
0.0
 30
0.0
  9
$PUCSORGRIGHT
 10
0.0
 20
0.0
 30
0.0
  9
$PUCSORGFRONT
 10
0.0
 20
0.0
 30
0.0
  9
$PUCSORGBACK
 10
0.0
 20
0.0
 30
0.0
  9
$USERI1
 70
     0
  9
$USERI2
 70
     0
  9
$USERI3
 70
     0
  9
$USERI4
 70
     0
  9
$USERI5
 70
     0
  9
$USERR1
 40
0.0
  9
$USERR2
 40
0.0
  9
$USERR3
 40
0.0
  9
$USERR4
 40
0.0
  9
$USERR5
 40
0.0
  9
$WORLDVIEW
 70
     1
  9
$SHADEDGE
 70
     3
  9
$SHADEDIF
 70
    70
  9
$TILEMODE
 70
     1
  9
$MAXACTVP
 70
    64
  9
$PINSBASE
 10
0.0
 20
0.0
 30
0.0
  9
$PLIMCHECK
 70
     0
  9
$PEXTMIN
 10
1.000000000000000E+20
 20
1.000000000000000E+20
 30
1.000000000000000E+20
  9
$PEXTMAX
 10
-1.000000000000000E+20
 20
-1.000000000000000E+20
 30
-1.000000000000000E+20
  9
$PLIMMIN
 10
0.0
 20
0.0
  9
$PLIMMAX
 10
12.0
 20
9.0
  9
$UNITMODE
 70
     0
  9
$VISRETAIN
 70
     1
  9
$PLINEGEN
 70
     0
  9
$PSLTSCALE
 70
     1
  9
$TREEDEPTH
 70
  3020
  9
$CMLSTYLE
  2
Standard
  9
$CMLJUST
 70
     0
  9
$CMLSCALE
 40
1.0
  9
$PROXYGRAPHICS
 70
     1
  9
$MEASUREMENT
 70
     0
  9
$CELWEIGHT
370
    -1
  9
$ENDCAPS
280
     0
  9
$JOINSTYLE
280
     0
  9
$LWDISPLAY
290
     1
  9
$INSUNITS
 70
     1
  9
$HYPERLINKBASE
  1

  9
$STYLESHEET
  1

  9
$XEDIT
290
     1
  9
$CEPSNTYPE
380
     0
  9
$PSTYLEMODE
290
     1
  9
$FINGERPRINTGUID
  2
{9A3C8638-D77F-A446-A4E5-F246BC5E6D2F}
  9
$VERSIONGUID
  2
{DBC74460-0FE6-A748-A8C3-A6EE6094D187}
  9
$EXTNAMES
290
     1
  9
$PSVPSCALE
 40
0.0
  9
$OLESTARTUP
290
     0
  9
$SORTENTS
280
   127
  9
$INDEXCTL
280
     0
  9
$HIDETEXT
280
     1
  9
$XCLIPFRAME
280
     2
  9
$HALOGAP
280
     0
  9
$OBSCOLOR
 70
   257
  9
$OBSLTYPE
280
     0
  9
$INTERSECTIONDISPLAY
280
     0
  9
$INTERSECTIONCOLOR
 70
   257
  9
$DIMASSOC
280
     2
  9
$PROJECTNAME
  1

  9
$CAMERADISPLAY
290
     0
  9
$LENSLENGTH
 40
50.0
  9
$CAMERAHEIGHT
 40
0.0
  9
$STEPSPERSEC
 40
2.0
  9
$STEPSIZE
 40
6.0
  9
$3DDWFPREC
 40
2.0
  9
$PSOLWIDTH
 40
0.25
  9
$PSOLHEIGHT
 40
4.0
  9
$LOFTANG1
 40
1.570796326794896
  9
$LOFTANG2
 40
1.570796326794896
  9
$LOFTMAG1
 40
0.0
  9
$LOFTMAG2
 40
0.0
  9
$LOFTPARAM
 70
     7
  9
$LOFTNORMALS
280
     1
  9
$LATITUDE
 40
37.795
  9
$LONGITUDE
 40
-122.394
  9
$NORTHDIRECTION
 40
0.0
  9
$TIMEZONE
 70
 -8000
  9
$LIGHTGLYPHDISPLAY
280
     1
  9
$TILEMODELIGHTSYNCH
280
     1
  9
$CMATERIAL
347
11
  9
$SOLIDHIST
280
     0
  9
$SHOWHIST
280
     1
  9
$DWFFRAME
280
     2
  9
$DGNFRAME
280
     0
  9
$REALWORLDSCALE
290
     1
  9
$INTERFERECOLOR
 62
     1
  9
$INTERFEREOBJVS
345
33
  9
$INTERFEREVPVS
346
30
  9
$CSHADOW
280
     0
  9
$SHADOWPLANELOCATION
 40
0.0
  0
ENDSEC
  0
SECTION
  2
CLASSES
  0
CLASS
  1
ACDBDICTIONARYWDFLT
  2
AcDbDictionaryWithDefault
  3
ObjectDBX Classes
 90
        0
 91
        1
280
     0
281
     0
  0
CLASS
  1
MATERIAL
  2
AcDbMaterial
  3
ObjectDBX Classes
 90
     1153
 91
        3
280
     0
281
     0
  0
CLASS
  1
VISUALSTYLE
  2
AcDbVisualStyle
  3
ObjectDBX Classes
 90
     4095
 91
       24
280
     0
281
     0
  0
CLASS
  1
SCALE
  2
AcDbScale
  3
ObjectDBX Classes
 90
     1153
 91
       17
280
     0
281
     0
  0
CLASS
  1
TABLESTYLE
  2
AcDbTableStyle
  3
ObjectDBX Classes
 90
     4095
 91
        1
280
     0
281
     0
  0
CLASS
  1
MLEADERSTYLE
  2
AcDbMLeaderStyle
  3
ACDB_MLEADERSTYLE_CLASS
 90
     4095
 91
        1
280
     0
281
     0
  0
CLASS
  1
ACDBSECTIONVIEWSTYLE
  2
AcDbSectionViewStyle
  3
ObjectDBX Classes
 90
     1025
 91
        1
280
     0
281
     0
  0
CLASS
  1
ACDBDETAILVIEWSTYLE
  2
AcDbDetailViewStyle
  3
ObjectDBX Classes
 90
     1025
 91
        1
280
     0
281
     0
  0
CLASS
  1
DICTIONARYVAR
  2
AcDbDictionaryVar
  3
ObjectDBX Classes
 90
        0
 91
        5
280
     0
281
     0
  0
CLASS
  1
CELLSTYLEMAP
  2
AcDbCellStyleMap
  3
ObjectDBX Classes
 90
     1152
 91
        1
280
     0
281
     0
  0
ENDSEC
  0
SECTION
  2
TABLES
  0
TABLE
  2
VPORT
  5
8
330
0
100
AcDbSymbolTable
 70
     1
  0
VPORT
  5
57
330
8
100
AcDbSymbolTableRecord
100
AcDbViewportTableRecord
  2
*Active
 70
     0
 10
0.0
 20
0.0
 11
1.0
 21
1.0
 12
0.0
 22
0.0
 13
0.0
 23
0.0
 14
1.0
 24
1.0
 15
0.0
 25
0.0
 16
0.0
 26
0.0
 36
1.0
 17
0.9588254593173498
 27
-1.528872554494783
 37
0.0
 40
3.598333333333333
 41
0.7051968503937076
 42
50.0
 43
0.0
 44
0.0
 50
0.0
 51
0.0
 71
     0
 72
   100
 73
     1
 74
     1
 75
     0
 76
     0
 77
     0
 78
     0
281
     0
 65
     1
110
0.0
120
0.0
130
0.0
111
1.0
121
0.0
131
0.0
112
0.0
122
1.0
132
0.0
 79
     0
146
0.0
 60
     3
 61
     5
292
     1
282
     1
141
0.0
142
0.0
 63
   250
421
  3355443
  0
ENDTAB
  0
TABLE
  2
LTYPE
  5
5
330
0
100
AcDbSymbolTable
 70
     1
  0
LTYPE
  5
5B
330
5
100
AcDbSymbolTableRecord
100
AcDbLinetypeTableRecord
  2
ByBlock
 70
     0
  3

 72
    65
 73
     0
 40
0.0
  0
LTYPE
  5
5C
330
5
100
AcDbSymbolTableRecord
100
AcDbLinetypeTableRecord
  2
ByLayer
 70
     0
  3

 72
    65
 73
     0
 40
0.0
  0
LTYPE
  5
5D
330
5
100
AcDbSymbolTableRecord
100
AcDbLinetypeTableRecord
  2
Continuous
 70
     0
  3
Solid line
 72
    65
 73
     0
 40
0.0
  0
ENDTAB
  0
TABLE
  2
LAYER
  5
2
330
0
100
AcDbSymbolTable
 70
     3
  0
LAYER
  5
54
330
2
100
AcDbSymbolTableRecord
100
AcDbLayerTableRecord
  2
0
 70
     0
 62
     7
  6
Continuous
370
    -3
390
F
347
21
348
0
  0
LAYER
  5
78
330
2
100
AcDbSymbolTableRecord
100
AcDbLayerTableRecord
  2
White
 70
     4
 62
     7
  6
Continuous
370
     0
390
F
347
21
348
0
  0
LAYER
  5
7D
330
2
100
AcDbSymbolTableRecord
100
AcDbLayerTableRecord
  2
Text
 70
     0
 62
     7
  6
Continuous
370
     0
390
F
347
21
348
0
  0
ENDTAB
  0
TABLE
  2
STYLE
  5
3
330
0
100
AcDbSymbolTable
 70
     2
  0
STYLE
  5
55
330
3
100
AcDbSymbolTableRecord
100
AcDbTextStyleTableRecord
  2
Standard
 70
     0
 40
0.0
 41
1.0
 50
0.0
 71
     0
 42
0.2
  3
txt
  4

  0
STYLE
  5
5A
330
3
100
AcDbSymbolTableRecord
100
AcDbTextStyleTableRecord
  2
Annotative
 70
     0
 40
0.0
 41
1.0
 50
0.0
 71
     0
 42
0.2
  3
txt
  4

1001
AcadAnnotative
1000
AnnotativeData
1002
{
1070
     1
1070
     1
1002
}
  0
ENDTAB
  0
TABLE
  2
VIEW
  5
6
330
0
100
AcDbSymbolTable
 70
     0
  0
ENDTAB
  0
TABLE
  2
UCS
  5
7
330
0
100
AcDbSymbolTable
 70
     0
  0
ENDTAB
  0
TABLE
  2
APPID
  5
9
330
0
100
AcDbSymbolTable
 70
     2
  0
APPID
  5
56
330
9
100
AcDbSymbolTableRecord
100
AcDbRegAppTableRecord
  2
ACAD
 70
     0
  0
APPID
  5
5E
330
9
100
AcDbSymbolTableRecord
100
AcDbRegAppTableRecord
  2
AcadAnnotative
 70
     0
  0
ENDTAB
  0
TABLE
  2
DIMSTYLE
  5
A
330
0
100
AcDbSymbolTable
 70
     2
100
AcDbDimStyleTable
 71
     0
  0
DIMSTYLE
105
58
330
A
100
AcDbSymbolTableRecord
100
AcDbDimStyleTableRecord
  2
Standard
 70
     0
340
55
  0
DIMSTYLE
105
59
330
A
100
AcDbSymbolTableRecord
100
AcDbDimStyleTableRecord
  2
Annotative
 70
     0
340
55
1001
AcadAnnotative
1000
AnnotativeData
1002
{
1070
     1
1070
     1
1002
}
  0
ENDTAB
  0
TABLE
  2
BLOCK_RECORD
  5
1
330
0
100
AcDbSymbolTable
 70
     2
  0
BLOCK_RECORD
  5
70
330
1
100
AcDbSymbolTableRecord
100
AcDbBlockTableRecord
  2
*Model_Space
340
73
 70
     0
280
     1
281
     0
  0
BLOCK_RECORD
  5
6C
330
1
100
AcDbSymbolTableRecord
100
AcDbBlockTableRecord
  2
*Paper_Space
340
6F
 70
     0
280
     1
281
     0
  0
BLOCK_RECORD
  5
74
330
1
100
AcDbSymbolTableRecord
100
AcDbBlockTableRecord
  2
*Paper_Space0
340
77
 70
     0
280
     1
281
     0
  0
BLOCK_RECORD
  5
80
330
1
100
AcDbSymbolTableRecord
100
AcDbBlockTableRecord
  2
Block_0
340
0
102
{BLKREFS
331
81
102
}
 70
     0
280
     1
281
     0
  0
ENDTAB
  0
ENDSEC
  0
SECTION
  2
BLOCKS
  0
BLOCK
  5
71
330
70
100
AcDbEntity
  8
0
100
AcDbBlockBegin
  2
*Model_Space
 70
     0
 10
0.0
 20
0.0
 30
0.0
  3
*Model_Space
  1

  0
ENDBLK
  5
72
330
70
100
AcDbEntity
  8
0
100
AcDbBlockEnd
  0
BLOCK
  5
6D
330
6C
100
AcDbEntity
 67
     1
  8
0
100
AcDbBlockBegin
  2
*Paper_Space
 70
     0
 10
0.0
 20
0.0
 30
0.0
  3
*Paper_Space
  1

  0
ENDBLK
  5
6E
330
6C
100
AcDbEntity
 67
     1
  8
0
100
AcDbBlockEnd
  0
BLOCK
  5
75
330
74
100
AcDbEntity
 67
     1
  8
0
100
AcDbBlockBegin
  2
*Paper_Space0
 70
     0
 10
0.0
 20
0.0
 30
0.0
  3
*Paper_Space0
  1

  0
ENDBLK
  5
76
330
74
100
AcDbEntity
 67
     1
  8
0
100
AcDbBlockEnd
  0
BLOCK
  5
82
330
80
100
AcDbEntity
  8
0
100
AcDbBlockBegin
  2
Block_0
 70
     0
 10
0.0
 20
0.0
 30
0.0
  3
Block_0
  1

  0
SPLINE
  5
84
330
80
100
AcDbEntity
  8
Text
100
AcDbSpline
210
0.0
220
0.0
230
1.0
 70
     9
 71
     3
 72
   158
 73
   154
 74
     0
 42
0.0000000001
 43
0.0000000001
 40
0.0
 40
0.0
 40
0.0
 40
0.0
 40
1.0
 40
1.0
 40
1.0
 40
2.0
 40
2.0
 40
2.0
 40
3.0
 40
3.0
 40
3.0
 40
4.0
 40
4.0
 40
4.0
 40
5.0
 40
5.0
 40
5.0
 40
6.0
 40
6.0
 40
6.0
 40
7.0
 40
7.0
 40
7.0
 40
8.0
 40
8.0
 40
8.0
 40
9.0
 40
9.0
 40
9.0
 40
10.0
 40
10.0
 40
10.0
 40
11.0
 40
11.0
 40
11.0
 40
12.0
 40
12.0
 40
12.0
 40
13.0
 40
13.0
 40
13.0
 40
14.0
 40
14.0
 40
14.0
 40
15.0
 40
15.0
 40
15.0
 40
16.0
 40
16.0
 40
16.0
 40
17.0
 40
17.0
 40
17.0
 40
18.0
 40
18.0
 40
18.0
 40
19.0
 40
19.0
 40
19.0
 40
20.0
 40
20.0
 40
20.0
 40
21.0
 40
21.0
 40
21.0
 40
22.0
 40
22.0
 40
22.0
 40
23.0
 40
23.0
 40
23.0
 40
24.0
 40
24.0
 40
24.0
 40
25.0
 40
25.0
 40
25.0
 40
26.0
 40
26.0
 40
26.0
 40
27.0
 40
27.0
 40
27.0
 40
28.0
 40
28.0
 40
28.0
 40
29.0
 40
29.0
 40
29.0
 40
30.0
 40
30.0
 40
30.0
 40
31.0
 40
31.0
 40
31.0
 40
32.0
 40
32.0
 40
32.0
 40
33.0
 40
33.0
 40
33.0
 40
34.0
 40
34.0
 40
34.0
 40
35.0
 40
35.0
 40
35.0
 40
36.0
 40
36.0
 40
36.0
 40
37.0
 40
37.0
 40
37.0
 40
38.0
 40
38.0
 40
38.0
 40
39.0
 40
39.0
 40
39.0
 40
40.0
 40
40.0
 40
40.0
 40
41.0
 40
41.0
 40
41.0
 40
42.0
 40
42.0
 40
42.0
 40
43.0
 40
43.0
 40
43.0
 40
44.0
 40
44.0
 40
44.0
 40
45.0
 40
45.0
 40
45.0
 40
46.0
 40
46.0
 40
46.0
 40
47.0
 40
47.0
 40
47.0
 40
48.0
 40
48.0
 40
48.0
 40
49.0
 40
49.0
 40
49.0
 40
50.0
 40
50.0
 40
50.0
 40
51.0
 40
51.0
 40
51.0
 40
51.0
 10
0.6633843315972223
 20
-2.689398871527777
 30
0.0
 10
0.6633843315972223
 20
-2.689398871527777
 30
0.0
 10
0.6633843315972223
 20
-2.711683485243055
 30
0.0
 10
0.6633843315972223
 20
-2.711683485243055
 30
0.0
 10
0.6633843315972223
 20
-2.720865885416666
 30
0.0
 10
0.6615804036458333
 20
-2.726657443576388
 30
0.0
 10
0.6579725477430555
 20
-2.729058159722221
 30
0.0
 10
0.6543714735243055
 20
-2.731458875868055
 30
0.0
 10
0.6411471896701389
 20
-2.737901475694444
 30
0.0
 10
0.6183200412326389
 20
-2.748399522569444
 30
0.0
 10
0.5954861111111111
 20
-2.758884006076388
 30
0.0
 10
0.5735880533854166
 20
-2.771226671006944
 30
0.0
 10
0.5526123046875
 20
-2.785427517361111
 30
0.0
 10
0.5606960720486111
 20
-2.773627387152777
 30
0.0
 10
0.5680677625868055
 20
-2.764892578125
 30
0.0
 10
0.5747341579861111
 20
-2.759209526909721
 30
0.0
 10
0.5814005533854166
 20
-2.753526475694444
 30
0.0
 10
0.5904066297743055
 20
-2.746432834201388
 30
0.0
 10
0.6017727322048611
 20
-2.737901475694444
 30
0.0
 10
0.5919392903645833
 20
-2.733968098958333
 30
0.0
 10
0.5782809787326389
 20
-2.732001410590277
 30
0.0
 10
0.5608113606770833
 20
-2.732001410590277
 30
0.0
 10
0.5337185329861111
 20
-2.732001410590277
 30
0.0
 10
0.5044962565104166
 20
-2.737358940972221
 30
0.0
 10
0.47314453125
 20
-2.748060438368055
 30
0.0
 10
0.4417928059895833
 20
-2.758775499131944
 30
0.0
 10
0.4151407877604166
 20
-2.771552191840277
 30
0.0
 10
0.3931816948784722
 20
-2.786404079861111
 30
0.0
 10
0.3712293836805555
 20
-2.80126953125
 30
0.0
 10
0.3602498372395833
 20
-2.813720703125
 30
0.0
 10
0.3602498372395833
 20
-2.823771158854166
 30
0.0
 10
0.3602498372395833
 20
-2.829006618923611
 30
0.0
 10
0.3635796440972222
 20
-2.833333333333333
 30
0.0
 10
0.3702460394965277
 20
-2.836710611979166
 30
0.0
 10
0.3769056532118055
 20
-2.840101453993055
 30
0.0
 10
0.3876139322916666
 20
-2.842719184027777
 30
0.0
 10
0.4023573133680556
 20
-2.844577365451388
 30
0.0
 10
0.4171074761284723
 20
-2.846435546875
 30
0.0
 10
0.4355061848958333
 20
-2.847683376736111
 30
0.0
 10
0.45758056640625
 20
-2.848347981770833
 30
0.0
 10
0.4796413845486111
 20
-2.8489990234375
 30
0.0
 10
0.5068427191840278
 20
-2.849324544270833
 30
0.0
 10
0.5391777886284723
 20
-2.849324544270833
 30
0.0
 10
0.5627712673611111
 20
-2.849324544270833
 30
0.0
 10
0.5779554578993055
 20
-2.850206163194444
 30
0.0
 10
0.5847303602430555
 20
-2.851955837673611
 30
0.0
 10
0.5914984809027778
 20
-2.853705512152777
 30
0.0
 10
0.5948893229166666
 20
-2.857747395833333
 30
0.0
 10
0.5948893229166666
 20
-2.864081488715277
 30
0.0
 10
0.5948893229166666
 20
-2.872165256076388
 30
0.0
 10
0.5909016927083333
 20
-2.881388346354166
 30
0.0
 10
0.5829264322916666
 20
-2.891764322916666
 30
0.0
 10
0.574951171875
 20
-2.902140299479166
 30
0.0
 10
0.5644124348958333
 20
-2.908311631944444
 30
0.0
 10
0.5513034396701389
 20
-2.9102783203125
 30
0.0
 10
0.5309855143229166
 20
-2.913560655381944
 30
0.0
 10
0.5148179796006945
 20
-2.916341145833333
 30
0.0
 10
0.5028008355034723
 20
-2.918633355034721
 30
0.0
 10
0.49078369140625
 20
-2.920939127604166
 30
0.0
 10
0.4765285915798611
 20
-2.924818250868055
 30
0.0
 10
0.4600355360243056
 20
-2.930270724826388
 30
0.0
 10
0.4435356987847223
 20
-2.935736762152777
 30
0.0
 10
0.4252454969618056
 20
-2.943603515625
 30
0.0
 10
0.4051445855034723
 20
-2.953870985243055
 30
0.0
 10
0.3752102322048611
 20
-2.9696044921875
 30
0.0
 10
0.3518337673611111
 20
-2.985555013020833
 30
0.0
 10
0.3350151909722222
 20
-3.001708984375
 30
0.0
 10
0.3181898328993055
 20
-3.017890082465277
 30
0.0
 10
0.3097805447048611
 20
-3.032185872395833
 30
0.0
 10
0.3097805447048611
 20
-3.044650607638888
 30
0.0
 10
0.3097805447048611
 20
-3.055352105034721
 30
0.0
 10
0.3157891167534722
 20
-3.063707139756944
 30
0.0
 10
0.3278062608506944
 20
-3.069715711805555
 30
0.0
 10
0.3398166232638889
 20
-3.075724283854166
 30
0.0
 10
0.3570760091145833
 20
-3.078721788194444
 30
0.0
 10
0.3795844184027777
 20
-3.078721788194444
 30
0.0
 10
0.4571397569444445
 20
-3.078721788194444
 30
0.0
 10
0.5361192491319445
 20
-3.043877495659721
 30
0.0
 10
0.61651611328125
 20
-2.974188910590277
 30
0.0
 10
0.6169569227430555
 20
-2.99560546875
 30
0.0
 10
0.6146036783854166
 20
-3.014444986979166
 30
0.0
 10
0.6094699435763889
 20
-3.030721028645833
 30
0.0
 10
0.6043362087673611
 20
-3.0469970703125
 30
0.0
 10
0.5939059787326389
 20
-3.062567816840277
 30
0.0
 10
0.5781792534722223
 20
-3.077419704861111
 30
0.0
 10
0.5650702582465278
 20
-3.089870876736111
 30
0.0
 10
0.5458984375
 20
-3.101779513888888
 30
0.0
 10
0.5206637912326389
 20
-3.113132052951388
 30
0.0
 10
0.4954291449652778
 20
-3.124498155381944
 30
0.0
 10
0.4679022894965278
 20
-3.133558485243055
 30
0.0
 10
0.4380832248263889
 20
-3.140340169270833
 30
0.0
 10
0.4082573784722223
 20
-3.147108289930555
 30
0.0
 10
0.3802422417534722
 20
-3.150499131944444
 30
0.0
 10
0.3540242513020833
 20
-3.150499131944444
 30
0.0
 10
0.3236490885416666
 20
-3.150499131944444
 30
0.0
 10
0.29852294921875
 20
-3.143229166666666
 30
0.0
 10
0.2786458333333333
 20
-3.128702799479166
 30
0.0
 10
0.2587687174479166
 20
-3.114176432291666
 30
0.0
 10
0.2488267686631944
 20
-3.094902886284721
 30
0.0
 10
0.2488267686631944
 20
-3.070855034722221
 30
0.0
 10
0.2488267686631944
 20
-3.053385416666666
 30
0.0
 10
0.2536282009548611
 20
-3.0360107421875
 30
0.0
 10
0.26324462890625
 20
-3.018758138020833
 30
0.0
 10
0.2728542751736111
 20
-3.001505533854166
 30
0.0
 10
0.2876044379340277
 20
-2.984944661458333
 30
0.0
 10
0.3074883355034722
 20
-2.969102647569444
 30
0.0
 10
0.3273654513888889
 20
-2.953274197048611
 30
0.0
 10
0.3525458441840277
 20
-2.938910590277777
 30
0.0
 10
0.3830227322048611
 20
-2.926011827256944
 30
0.0
 10
0.4134996202256945
 20
-2.913126627604166
 30
0.0
 10
0.4486151801215278
 20
-2.902967664930555
 30
0.0
 10
0.4883829752604166
 20
-2.895534939236111
 30
0.0
 10
0.4940592447916666
 20
-2.894449869791666
 30
0.0
 10
0.4969075520833333
 20
-2.8927001953125
 30
0.0
 10
0.4969075520833333
 20
-2.890285915798611
 30
0.0
 10
0.4969075520833333
 20
-2.887668185763888
 30
0.0
 10
0.4935709635416666
 20
-2.886094835069444
 30
0.0
 10
0.4869113498263889
 20
-2.885538736979166
 30
0.0
 10
0.4802449544270833
 20
-2.884996202256944
 30
0.0
 10
0.4680107964409723
 20
-2.884616427951388
 30
0.0
 10
0.4502020941840278
 20
-2.8843994140625
 30
0.0
 10
0.4323933919270833
 20
-2.884182400173611
 30
0.0
 10
0.4167209201388889
 20
-2.883409288194444
 30
0.0
 10
0.4031778971354166
 20
-2.882093641493055
 30
0.0
 10
0.3896280924479166
 20
-2.880791558159721
 30
0.0
 10
0.3753255208333333
 20
-2.877956814236111
 30
0.0
 10
0.3602498372395833
 20
-2.873575846354166
 30
0.0
 10
0.3447333441840277
 20
-2.8687744140625
 30
0.0
 10
0.3327704535590277
 20
-2.860365125868055
 30
0.0
 10
0.3243611653645833
 20
-2.848347981770833
 30
0.0
 10
0.3159518771701389
 20
-2.836330837673611
 30
0.0
 10
0.3117472330729166
 20
-2.822998046875
 30
0.0
 10
0.3117472330729166
 20
-2.808363172743055
 30
0.0
 10
0.3117472330729166
 20
-2.789577907986111
 30
0.0
 10
0.3185153537326389
 20
-2.770684136284721
 30
0.0
 10
0.3320651584201389
 20
-2.751668294270833
 30
0.0
 10
0.3456081814236111
 20
-2.732666015625
 30
0.0
 10
0.3647257486979166
 20
-2.715508355034721
 30
0.0
 10
0.3894178602430555
 20
-2.700222439236111
 30
0.0
 10
0.4141031901041666
 20
-2.6849365234375
 30
0.0
 10
0.4439765082465278
 20
-2.672634548611111
 30
0.0
 10
0.4790445963541666
 20
-2.663357204861111
 30
0.0
 10
0.5141059027777778
 20
-2.654066297743055
 30
0.0
 10
0.5525037977430556
 20
-2.649427625868055
 30
0.0
 10
0.5942314995659723
 20
-2.649427625868055
 30
0.0
 10
0.6182657877604166
 20
-2.649427625868055
 30
0.0
 10
0.6350368923611111
 20
-2.650797526041666
 30
0.0
 10
0.6445380316840278
 20
-2.653523763020833
 30
0.0
 10
0.6540391710069445
 20
-2.65625
 30
0.0
 10
0.6595594618055555
 20
-2.659857855902777
 30
0.0
 10
0.6610853407118055
 20
-2.664333767361111
 30
0.0
 10
0.6626112196180555
 20
-2.668809678819444
 30
0.0
 10
0.6633843315972223
 20
-2.677178276909721
 30
0.0
 10
0.6633843315972223
 20
-2.689398871527777
 30
0.0
  0
HATCH
  5
85
330
80
100
AcDbEntity
  8
Text
 62
     6
420
 16711935
440
 33554687
100
AcDbHatch
 10
0.0
 20
0.0
 30
0.0
210
0.0
220
0.0
230
1.0
  2
SOLID
 70
     1
 71
     1
 91
        1
 92
        1
 93
        1
 72
     4
 94
        3
 73
     0
 74
     0
 95
      158
 96
      154
 40
0.0
 40
0.0
 40
0.0
 40
0.0
 40
1.0
 40
1.0
 40
1.0
 40
2.0
 40
2.0
 40
2.0
 40
3.0
 40
3.0
 40
3.0
 40
4.0
 40
4.0
 40
4.0
 40
5.0
 40
5.0
 40
5.0
 40
6.0
 40
6.0
 40
6.0
 40
7.0
 40
7.0
 40
7.0
 40
8.0
 40
8.0
 40
8.0
 40
9.0
 40
9.0
 40
9.0
 40
10.0
 40
10.0
 40
10.0
 40
11.0
 40
11.0
 40
11.0
 40
12.0
 40
12.0
 40
12.0
 40
13.0
 40
13.0
 40
13.0
 40
14.0
 40
14.0
 40
14.0
 40
15.0
 40
15.0
 40
15.0
 40
16.0
 40
16.0
 40
16.0
 40
17.0
 40
17.0
 40
17.0
 40
18.0
 40
18.0
 40
18.0
 40
19.0
 40
19.0
 40
19.0
 40
20.0
 40
20.0
 40
20.0
 40
21.0
 40
21.0
 40
21.0
 40
22.0
 40
22.0
 40
22.0
 40
23.0
 40
23.0
 40
23.0
 40
24.0
 40
24.0
 40
24.0
 40
25.0
 40
25.0
 40
25.0
 40
26.0
 40
26.0
 40
26.0
 40
27.0
 40
27.0
 40
27.0
 40
28.0
 40
28.0
 40
28.0
 40
29.0
 40
29.0
 40
29.0
 40
30.0
 40
30.0
 40
30.0
 40
31.0
 40
31.0
 40
31.0
 40
32.0
 40
32.0
 40
32.0
 40
33.0
 40
33.0
 40
33.0
 40
34.0
 40
34.0
 40
34.0
 40
35.0
 40
35.0
 40
35.0
 40
36.0
 40
36.0
 40
36.0
 40
37.0
 40
37.0
 40
37.0
 40
38.0
 40
38.0
 40
38.0
 40
39.0
 40
39.0
 40
39.0
 40
40.0
 40
40.0
 40
40.0
 40
41.0
 40
41.0
 40
41.0
 40
42.0
 40
42.0
 40
42.0
 40
43.0
 40
43.0
 40
43.0
 40
44.0
 40
44.0
 40
44.0
 40
45.0
 40
45.0
 40
45.0
 40
46.0
 40
46.0
 40
46.0
 40
47.0
 40
47.0
 40
47.0
 40
48.0
 40
48.0
 40
48.0
 40
49.0
 40
49.0
 40
49.0
 40
50.0
 40
50.0
 40
50.0
 40
51.0
 40
51.0
 40
51.0
 40
51.0
 10
0.6633843315972223
 20
-2.689398871527777
 10
0.6633843315972223
 20
-2.689398871527777
 10
0.6633843315972223
 20
-2.711683485243055
 10
0.6633843315972223
 20
-2.711683485243055
 10
0.6633843315972223
 20
-2.720865885416666
 10
0.6615804036458333
 20
-2.726657443576388
 10
0.6579725477430555
 20
-2.729058159722221
 10
0.6543714735243055
 20
-2.731458875868055
 10
0.6411471896701389
 20
-2.737901475694444
 10
0.6183200412326389
 20
-2.748399522569444
 10
0.5954861111111111
 20
-2.758884006076388
 10
0.5735880533854166
 20
-2.771226671006944
 10
0.5526123046875
 20
-2.785427517361111
 10
0.5606960720486111
 20
-2.773627387152777
 10
0.5680677625868055
 20
-2.764892578125
 10
0.5747341579861111
 20
-2.759209526909721
 10
0.5814005533854166
 20
-2.753526475694444
 10
0.5904066297743055
 20
-2.746432834201388
 10
0.6017727322048611
 20
-2.737901475694444
 10
0.5919392903645833
 20
-2.733968098958333
 10
0.5782809787326389
 20
-2.732001410590277
 10
0.5608113606770833
 20
-2.732001410590277
 10
0.5337185329861111
 20
-2.732001410590277
 10
0.5044962565104166
 20
-2.737358940972221
 10
0.47314453125
 20
-2.748060438368055
 10
0.4417928059895833
 20
-2.758775499131944
 10
0.4151407877604166
 20
-2.771552191840277
 10
0.3931816948784722
 20
-2.786404079861111
 10
0.3712293836805555
 20
-2.80126953125
 10
0.3602498372395833
 20
-2.813720703125
 10
0.3602498372395833
 20
-2.823771158854166
 10
0.3602498372395833
 20
-2.829006618923611
 10
0.3635796440972222
 20
-2.833333333333333
 10
0.3702460394965277
 20
-2.836710611979166
 10
0.3769056532118055
 20
-2.840101453993055
 10
0.3876139322916666
 20
-2.842719184027777
 10
0.4023573133680556
 20
-2.844577365451388
 10
0.4171074761284723
 20
-2.846435546875
 10
0.4355061848958333
 20
-2.847683376736111
 10
0.45758056640625
 20
-2.848347981770833
 10
0.4796413845486111
 20
-2.8489990234375
 10
0.5068427191840278
 20
-2.849324544270833
 10
0.5391777886284723
 20
-2.849324544270833
 10
0.5627712673611111
 20
-2.849324544270833
 10
0.5779554578993055
 20
-2.850206163194444
 10
0.5847303602430555
 20
-2.851955837673611
 10
0.5914984809027778
 20
-2.853705512152777
 10
0.5948893229166666
 20
-2.857747395833333
 10
0.5948893229166666
 20
-2.864081488715277
 10
0.5948893229166666
 20
-2.872165256076388
 10
0.5909016927083333
 20
-2.881388346354166
 10
0.5829264322916666
 20
-2.891764322916666
 10
0.574951171875
 20
-2.902140299479166
 10
0.5644124348958333
 20
-2.908311631944444
 10
0.5513034396701389
 20
-2.9102783203125
 10
0.5309855143229166
 20
-2.913560655381944
 10
0.5148179796006945
 20
-2.916341145833333
 10
0.5028008355034723
 20
-2.918633355034721
 10
0.49078369140625
 20
-2.920939127604166
 10
0.4765285915798611
 20
-2.924818250868055
 10
0.4600355360243056
 20
-2.930270724826388
 10
0.4435356987847223
 20
-2.935736762152777
 10
0.4252454969618056
 20
-2.943603515625
 10
0.4051445855034723
 20
-2.953870985243055
 10
0.3752102322048611
 20
-2.9696044921875
 10
0.3518337673611111
 20
-2.985555013020833
 10
0.3350151909722222
 20
-3.001708984375
 10
0.3181898328993055
 20
-3.017890082465277
 10
0.3097805447048611
 20
-3.032185872395833
 10
0.3097805447048611
 20
-3.044650607638888
 10
0.3097805447048611
 20
-3.055352105034721
 10
0.3157891167534722
 20
-3.063707139756944
 10
0.3278062608506944
 20
-3.069715711805555
 10
0.3398166232638889
 20
-3.075724283854166
 10
0.3570760091145833
 20
-3.078721788194444
 10
0.3795844184027777
 20
-3.078721788194444
 10
0.4571397569444445
 20
-3.078721788194444
 10
0.5361192491319445
 20
-3.043877495659721
 10
0.61651611328125
 20
-2.974188910590277
 10
0.6169569227430555
 20
-2.99560546875
 10
0.6146036783854166
 20
-3.014444986979166
 10
0.6094699435763889
 20
-3.030721028645833
 10
0.6043362087673611
 20
-3.0469970703125
 10
0.5939059787326389
 20
-3.062567816840277
 10
0.5781792534722223
 20
-3.077419704861111
 10
0.5650702582465278
 20
-3.089870876736111
 10
0.5458984375
 20
-3.101779513888888
 10
0.5206637912326389
 20
-3.113132052951388
 10
0.4954291449652778
 20
-3.124498155381944
 10
0.4679022894965278
 20
-3.133558485243055
 10
0.4380832248263889
 20
-3.140340169270833
 10
0.4082573784722223
 20
-3.147108289930555
 10
0.3802422417534722
 20
-3.150499131944444
 10
0.3540242513020833
 20
-3.150499131944444
 10
0.3236490885416666
 20
-3.150499131944444
 10
0.29852294921875
 20
-3.143229166666666
 10
0.2786458333333333
 20
-3.128702799479166
 10
0.2587687174479166
 20
-3.114176432291666
 10
0.2488267686631944
 20
-3.094902886284721
 10
0.2488267686631944
 20
-3.070855034722221
 10
0.2488267686631944
 20
-3.053385416666666
 10
0.2536282009548611
 20
-3.0360107421875
 10
0.26324462890625
 20
-3.018758138020833
 10
0.2728542751736111
 20
-3.001505533854166
 10
0.2876044379340277
 20
-2.984944661458333
 10
0.3074883355034722
 20
-2.969102647569444
 10
0.3273654513888889
 20
-2.953274197048611
 10
0.3525458441840277
 20
-2.938910590277777
 10
0.3830227322048611
 20
-2.926011827256944
 10
0.4134996202256945
 20
-2.913126627604166
 10
0.4486151801215278
 20
-2.902967664930555
 10
0.4883829752604166
 20
-2.895534939236111
 10
0.4940592447916666
 20
-2.894449869791666
 10
0.4969075520833333
 20
-2.8927001953125
 10
0.4969075520833333
 20
-2.890285915798611
 10
0.4969075520833333
 20
-2.887668185763888
 10
0.4935709635416666
 20
-2.886094835069444
 10
0.4869113498263889
 20
-2.885538736979166
 10
0.4802449544270833
 20
-2.884996202256944
 10
0.4680107964409723
 20
-2.884616427951388
 10
0.4502020941840278
 20
-2.8843994140625
 10
0.4323933919270833
 20
-2.884182400173611
 10
0.4167209201388889
 20
-2.883409288194444
 10
0.4031778971354166
 20
-2.882093641493055
 10
0.3896280924479166
 20
-2.880791558159721
 10
0.3753255208333333
 20
-2.877956814236111
 10
0.3602498372395833
 20
-2.873575846354166
 10
0.3447333441840277
 20
-2.8687744140625
 10
0.3327704535590277
 20
-2.860365125868055
 10
0.3243611653645833
 20
-2.848347981770833
 10
0.3159518771701389
 20
-2.836330837673611
 10
0.3117472330729166
 20
-2.822998046875
 10
0.3117472330729166
 20
-2.808363172743055
 10
0.3117472330729166
 20
-2.789577907986111
 10
0.3185153537326389
 20
-2.770684136284721
 10
0.3320651584201389
 20
-2.751668294270833
 10
0.3456081814236111
 20
-2.732666015625
 10
0.3647257486979166
 20
-2.715508355034721
 10
0.3894178602430555
 20
-2.700222439236111
 10
0.4141031901041666
 20
-2.6849365234375
 10
0.4439765082465278
 20
-2.672634548611111
 10
0.4790445963541666
 20
-2.663357204861111
 10
0.5141059027777778
 20
-2.654066297743055
 10
0.5525037977430556
 20
-2.649427625868055
 10
0.5942314995659723
 20
-2.649427625868055
 10
0.6182657877604166
 20
-2.649427625868055
 10
0.6350368923611111
 20
-2.650797526041666
 10
0.6445380316840278
 20
-2.653523763020833
 10
0.6540391710069445
 20
-2.65625
 10
0.6595594618055555
 20
-2.659857855902777
 10
0.6610853407118055
 20
-2.664333767361111
 10
0.6626112196180555
 20
-2.668809678819444
 10
0.6633843315972223
 20
-2.677178276909721
 10
0.6633843315972223
 20
-2.689398871527777
 97
        0
 97
        1
330
84
 75
     2
 76
     1
 98
        1
 10
0.0
 20
0.0
450
        0
451
        0
460
0.0
461
0.0
452
        0
462
0.0
453
        0
470

  0
SPLINE
  5
86
330
80
100
AcDbEntity
  8
Text
100
AcDbSpline
210
0.0
220
0.0
230
1.0
 70
     9
 71
     3
 72
    29
 73
    25
 74
     0
 42
0.0000000001
 43
0.0000000001
 40
0.0
 40
0.0
 40
0.0
 40
0.0
 40
1.0
 40
1.0
 40
1.0
 40
2.0
 40
2.0
 40
2.0
 40
3.0
 40
3.0
 40
3.0
 40
4.0
 40
4.0
 40
4.0
 40
5.0
 40
5.0
 40
5.0
 40
6.0
 40
6.0
 40
6.0
 40
7.0
 40
7.0
 40
7.0
 40
8.0
 40
8.0
 40
8.0
 40
8.0
 10
0.7033623589409723
 20
-2.936496310763888
 30
0.0
 10
0.7147216796875
 20
-2.925360785590277
 30
0.0
 10
0.7257012261284723
 20
-2.912692599826388
 30
0.0
 10
0.7362942165798611
 20
-2.898491753472221
 30
0.0
 10
0.7468939887152778
 20
-2.884290907118055
 30
0.0
 10
0.7568901909722223
 20
-2.869099934895833
 30
0.0
 10
0.7662828233506945
 20
-2.852932400173611
 30
0.0
 10
0.7756754557291666
 20
-2.836764865451388
 30
0.0
 10
0.7830471462673611
 20
-2.822238498263888
 30
0.0
 10
0.7884046766493055
 20
-2.809353298611111
 30
0.0
 10
0.7937554253472223
 20
-2.796454535590277
 30
0.0
 10
0.7964341905381945
 20
-2.786729600694444
 30
0.0
 10
0.7964341905381945
 20
-2.780178493923611
 30
0.0
 10
0.7964341905381945
 20
-2.775160047743055
 30
0.0
 10
0.7946845160590277
 20
-2.772650824652777
 30
0.0
 10
0.7911919487847223
 20
-2.772650824652777
 30
0.0
 10
0.7898763020833333
 20
-2.772650824652777
 30
0.0
 10
0.7873670789930555
 20
-2.773844401041666
 30
0.0
 10
0.7836507161458333
 20
-2.7762451171875
 30
0.0
 10
0.77032470703125
 20
-2.787177191840277
 30
0.0
 10
0.7553575303819445
 20
-2.808525933159721
 30
0.0
 10
0.7387559678819445
 20
-2.840318467881944
 30
0.0
 10
0.7221476236979166
 20
-2.872111002604166
 30
0.0
 10
0.7103542751736111
 20
-2.9041748046875
 30
0.0
 10
0.7033623589409723
 20
-2.936496310763888
 30
0.0
  0
SPLINE
  5
87
330
80
100
AcDbEntity
  8
Text
100
AcDbSpline
210
0.0
220
0.0
230
1.0
 70
     9
 71
     3
 72
    62
 73
    58
 74
     0
 42
0.0000000001
 43
0.0000000001
 40
0.0
 40
0.0
 40
0.0
 40
0.0
 40
1.0
 40
1.0
 40
1.0
 40
2.0
 40
2.0
 40
2.0
 40
3.0
 40
3.0
 40
3.0
 40
4.0
 40
4.0
 40
4.0
 40
5.0
 40
5.0
 40
5.0
 40
6.0
 40
6.0
 40
6.0
 40
7.0
 40
7.0
 40
7.0
 40
8.0
 40
8.0
 40
8.0
 40
9.0
 40
9.0
 40
9.0
 40
10.0
 40
10.0
 40
10.0
 40
11.0
 40
11.0
 40
11.0
 40
12.0
 40
12.0
 40
12.0
 40
13.0
 40
13.0
 40
13.0
 40
14.0
 40
14.0
 40
14.0
 40
15.0
 40
15.0
 40
15.0
 40
16.0
 40
16.0
 40
16.0
 40
17.0
 40
17.0
 40
17.0
 40
18.0
 40
18.0
 40
18.0
 40
19.0
 40
19.0
 40
19.0
 40
19.0
 10
0.8013509114583332
 20
-2.9954833984375
 30
0.0
 10
0.8013509114583332
 20
-2.9954833984375
 30
0.0
 10
0.8013509114583332
 20
-3.019734700520833
 30
0.0
 10
0.8013509114583332
 20
-3.019734700520833
 30
0.0
 10
0.7556830512152778
 20
-3.080254448784721
 30
0.0
 10
0.7185465494791666
 20
-3.110514322916666
 30
0.0
 10
0.6899278428819445
 20
-3.110514322916666
 30
0.0
 10
0.6744113498263889
 20
-3.110514322916666
 30
0.0
 10
0.6622314453125
 20
-3.10205078125
 30
0.0
 10
0.6533881293402778
 20
-3.085123697916666
 30
0.0
 10
0.6445380316840278
 20
-3.068183051215277
 30
0.0
 10
0.6401163736979166
 20
-3.045952690972221
 30
0.0
 10
0.6401163736979166
 20
-3.0184326171875
 30
0.0
 10
0.6401163736979166
 20
-2.996148003472221
 30
0.0
 10
0.6453586154513889
 20
-2.969658745659721
 30
0.0
 10
0.6558430989583333
 20
-2.938951280381944
 30
0.0
 10
0.6663275824652778
 20
-2.908270941840277
 30
0.0
 10
0.6803656684027778
 20
-2.877129448784721
 30
0.0
 10
0.6979573567708333
 20
-2.845553927951388
 30
0.0
 10
0.7155354817708333
 20
-2.813991970486111
 30
0.0
 10
0.7337849934895833
 20
-2.786458333333333
 30
0.0
 10
0.752685546875
 20
-2.762980143229166
 30
0.0
 10
0.7715793185763889
 20
-2.739488389756944
 30
0.0
 10
0.7891099717881945
 20
-2.723049587673611
 30
0.0
 10
0.8052775065104166
 20
-2.713650173611111
 30
0.0
 10
0.8118353949652776
 20
-2.709716796875
 30
0.0
 10
0.8169623480902776
 20
-2.707763671875
 30
0.0
 10
0.8206854926215276
 20
-2.707763671875
 30
0.0
 10
0.8252699110243055
 20
-2.707763671875
 30
0.0
 10
0.8283284505208332
 20
-2.709784613715277
 30
0.0
 10
0.829861111111111
 20
-2.713826497395833
 30
0.0
 10
0.831386990017361
 20
-2.717868381076388
 30
0.0
 10
0.8321533203125
 20
-2.724799262152777
 30
0.0
 10
0.8321533203125
 20
-2.734632703993055
 30
0.0
 10
0.8321533203125
 20
-2.765001085069444
 30
0.0
 10
0.8198106553819444
 20
-2.802300347222221
 30
0.0
 10
0.7951185438368055
 20
-2.846544053819444
 30
0.0
 10
0.7704332139756945
 20
-2.890787760416666
 30
0.0
 10
0.73602294921875
 20
-2.935953776041666
 30
0.0
 10
0.69189453125
 20
-2.9820556640625
 30
0.0
 10
0.6897040473090278
 20
-2.993408203125
 30
0.0
 10
0.6886121961805555
 20
-3.002156575520833
 30
0.0
 10
0.6886121961805555
 20
-3.008273654513888
 30
0.0
 10
0.6886121961805555
 20
-3.022257486979166
 30
0.0
 10
0.6916164822048611
 20
-3.033610026041666
 30
0.0
 10
0.6976250542534723
 20
-3.042344835069444
 30
0.0
 10
0.7036336263020833
 20
-3.051093207465277
 30
0.0
 10
0.7119886610243055
 20
-3.055460611979166
 30
0.0
 10
0.7226969401041666
 20
-3.055460611979166
 30
0.0
 10
0.7281561957465278
 20
-3.055460611979166
 30
0.0
 10
0.7340562608506945
 20
-3.053331163194444
 30
0.0
 10
0.7403971354166666
 20
-3.049072265625
 30
0.0
 10
0.7467244466145833
 20
-3.044813368055555
 30
0.0
 10
0.7533908420138889
 20
-3.039510091145833
 30
0.0
 10
0.7603827582465278
 20
-3.033175998263888
 30
0.0
 10
0.7673746744791666
 20
-3.026841905381944
 30
0.0
 10
0.7810329861111111
 20
-3.0142822265625
 30
0.0
 10
0.8013509114583332
 20
-2.9954833984375
 30
0.0
  0
HATCH
  5
88
330
80
100
AcDbEntity
  8
Text
 62
     6
420
 16711935
440
 33554687
100
AcDbHatch
 10
0.0
 20
0.0
 30
0.0
210
0.0
220
0.0
230
1.0
  2
SOLID
 70
     1
 71
     1
 91
        2
 92
        1
 93
        1
 72
     4
 94
        3
 73
     0
 74
     0
 95
       29
 96
       25
 40
0.0
 40
0.0
 40
0.0
 40
0.0
 40
1.0
 40
1.0
 40
1.0
 40
2.0
 40
2.0
 40
2.0
 40
3.0
 40
3.0
 40
3.0
 40
4.0
 40
4.0
 40
4.0
 40
5.0
 40
5.0
 40
5.0
 40
6.0
 40
6.0
 40
6.0
 40
7.0
 40
7.0
 40
7.0
 40
8.0
 40
8.0
 40
8.0
 40
8.0
 10
0.7033623589409723
 20
-2.936496310763888
 10
0.7147216796875
 20
-2.925360785590277
 10
0.7257012261284723
 20
-2.912692599826388
 10
0.7362942165798611
 20
-2.898491753472221
 10
0.7468939887152778
 20
-2.884290907118055
 10
0.7568901909722223
 20
-2.869099934895833
 10
0.7662828233506945
 20
-2.852932400173611
 10
0.7756754557291666
 20
-2.836764865451388
 10
0.7830471462673611
 20
-2.822238498263888
 10
0.7884046766493055
 20
-2.809353298611111
 10
0.7937554253472223
 20
-2.796454535590277
 10
0.7964341905381945
 20
-2.786729600694444
 10
0.7964341905381945
 20
-2.780178493923611
 10
0.7964341905381945
 20
-2.775160047743055
 10
0.7946845160590277
 20
-2.772650824652777
 10
0.7911919487847223
 20
-2.772650824652777
 10
0.7898763020833333
 20
-2.772650824652777
 10
0.7873670789930555
 20
-2.773844401041666
 10
0.7836507161458333
 20
-2.7762451171875
 10
0.77032470703125
 20
-2.787177191840277
 10
0.7553575303819445
 20
-2.808525933159721
 10
0.7387559678819445
 20
-2.840318467881944
 10
0.7221476236979166
 20
-2.872111002604166
 10
0.7103542751736111
 20
-2.9041748046875
 10
0.7033623589409723
 20
-2.936496310763888
 97
        0
 97
        1
330
86
 92
        1
 93
        1
 72
     4
 94
        3
 73
     0
 74
     0
 95
       62
 96
       58
 40
0.0
 40
0.0
 40
0.0
 40
0.0
 40
1.0
 40
1.0
 40
1.0
 40
2.0
 40
2.0
 40
2.0
 40
3.0
 40
3.0
 40
3.0
 40
4.0
 40
4.0
 40
4.0
 40
5.0
 40
5.0
 40
5.0
 40
6.0
 40
6.0
 40
6.0
 40
7.0
 40
7.0
 40
7.0
 40
8.0
 40
8.0
 40
8.0
 40
9.0
 40
9.0
 40
9.0
 40
10.0
 40
10.0
 40
10.0
 40
11.0
 40
11.0
 40
11.0
 40
12.0
 40
12.0
 40
12.0
 40
13.0
 40
13.0
 40
13.0
 40
14.0
 40
14.0
 40
14.0
 40
15.0
 40
15.0
 40
15.0
 40
16.0
 40
16.0
 40
16.0
 40
17.0
 40
17.0
 40
17.0
 40
18.0
 40
18.0
 40
18.0
 40
19.0
 40
19.0
 40
19.0
 40
19.0
 10
0.8013509114583332
 20
-2.9954833984375
 10
0.8013509114583332
 20
-2.9954833984375
 10
0.8013509114583332
 20
-3.019734700520833
 10
0.8013509114583332
 20
-3.019734700520833
 10
0.7556830512152778
 20
-3.080254448784721
 10
0.7185465494791666
 20
-3.110514322916666
 10
0.6899278428819445
 20
-3.110514322916666
 10
0.6744113498263889
 20
-3.110514322916666
 10
0.6622314453125
 20
-3.10205078125
 10
0.6533881293402778
 20
-3.085123697916666
 10
0.6445380316840278
 20
-3.068183051215277
 10
0.6401163736979166
 20
-3.045952690972221
 10
0.6401163736979166
 20
-3.0184326171875
 10
0.6401163736979166
 20
-2.996148003472221
 10
0.6453586154513889
 20
-2.969658745659721
 10
0.6558430989583333
 20
-2.938951280381944
 10
0.6663275824652778
 20
-2.908270941840277
 10
0.6803656684027778
 20
-2.877129448784721
 10
0.6979573567708333
 20
-2.845553927951388
 10
0.7155354817708333
 20
-2.813991970486111
 10
0.7337849934895833
 20
-2.786458333333333
 10
0.752685546875
 20
-2.762980143229166
 10
0.7715793185763889
 20
-2.739488389756944
 10
0.7891099717881945
 20
-2.723049587673611
 10
0.8052775065104166
 20
-2.713650173611111
 10
0.8118353949652776
 20
-2.709716796875
 10
0.8169623480902776
 20
-2.707763671875
 10
0.8206854926215276
 20
-2.707763671875
 10
0.8252699110243055
 20
-2.707763671875
 10
0.8283284505208332
 20
-2.709784613715277
 10
0.829861111111111
 20
-2.713826497395833
 10
0.831386990017361
 20
-2.717868381076388
 10
0.8321533203125
 20
-2.724799262152777
 10
0.8321533203125
 20
-2.734632703993055
 10
0.8321533203125
 20
-2.765001085069444
 10
0.8198106553819444
 20
-2.802300347222221
 10
0.7951185438368055
 20
-2.846544053819444
 10
0.7704332139756945
 20
-2.890787760416666
 10
0.73602294921875
 20
-2.935953776041666
 10
0.69189453125
 20
-2.9820556640625
 10
0.6897040473090278
 20
-2.993408203125
 10
0.6886121961805555
 20
-3.002156575520833
 10
0.6886121961805555
 20
-3.008273654513888
 10
0.6886121961805555
 20
-3.022257486979166
 10
0.6916164822048611
 20
-3.033610026041666
 10
0.6976250542534723
 20
-3.042344835069444
 10
0.7036336263020833
 20
-3.051093207465277
 10
0.7119886610243055
 20
-3.055460611979166
 10
0.7226969401041666
 20
-3.055460611979166
 10
0.7281561957465278
 20
-3.055460611979166
 10
0.7340562608506945
 20
-3.053331163194444
 10
0.7403971354166666
 20
-3.049072265625
 10
0.7467244466145833
 20
-3.044813368055555
 10
0.7533908420138889
 20
-3.039510091145833
 10
0.7603827582465278
 20
-3.033175998263888
 10
0.7673746744791666
 20
-3.026841905381944
 10
0.7810329861111111
 20
-3.0142822265625
 10
0.8013509114583332
 20
-2.9954833984375
 97
        0
 97
        1
330
87
 75
     2
 76
     1
 98
        1
 10
0.0
 20
0.0
450
        0
451
        0
460
0.0
461
0.0
452
        0
462
0.0
453
        0
470

  0
SPLINE
  5
89
330
80
100
AcDbEntity
  8
Text
100
AcDbSpline
210
0.0
220
0.0
230
1.0
 70
     9
 71
     3
 72
    29
 73
    25
 74
     0
 42
0.0000000001
 43
0.0000000001
 40
0.0
 40
0.0
 40
0.0
 40
0.0
 40
1.0
 40
1.0
 40
1.0
 40
2.0
 40
2.0
 40
2.0
 40
3.0
 40
3.0
 40
3.0
 40
4.0
 40
4.0
 40
4.0
 40
5.0
 40
5.0
 40
5.0
 40
6.0
 40
6.0
 40
6.0
 40
7.0
 40
7.0
 40
7.0
 40
8.0
 40
8.0
 40
8.0
 40
8.0
 10
0.932766384548611
 20
-2.852606879340277
 30
0.0
 10
0.9273003472222221
 20
-2.852606879340277
 30
0.0
 10
0.9221123589409721
 20
-2.850531684027777
 30
0.0
 10
0.9171956380208332
 20
-2.846381293402777
 30
0.0
 10
0.9122789171006944
 20
-2.842230902777777
 30
0.0
 10
0.9098239474826389
 20
-2.836981879340277
 30
0.0
 10
0.9098239474826389
 20
-2.830647786458333
 30
0.0
 10
0.9098239474826389
 20
-2.821031358506944
 30
0.0
 10
0.9144151475694444
 20
-2.810329861111111
 30
0.0
 10
0.9235907660590276
 20
-2.798529730902777
 30
0.0
 10
0.932766384548611
 20
-2.786729600694444
 30
0.0
 10
0.9422675238715276
 20
-2.780843098958333
 30
0.0
 10
0.9521009657118055
 20
-2.780843098958333
 30
0.0
 10
0.9586520724826389
 20
-2.780843098958333
 30
0.0
 10
0.964111328125
 20
-2.782864040798611
 30
0.0
 10
0.9684855143229166
 20
-2.786905924479166
 30
0.0
 10
0.9728529188368055
 20
-2.790947808159721
 30
0.0
 10
0.97503662109375
 20
-2.796793619791666
 30
0.0
 10
0.97503662109375
 20
-2.804429796006944
 30
0.0
 10
0.97503662109375
 20
-2.813829210069444
 30
0.0
 10
0.9705607096354166
 20
-2.824205186631944
 30
0.0
 10
0.9616021050347221
 20
-2.8355712890625
 30
0.0
 10
0.9526435004340276
 20
-2.846923828125
 30
0.0
 10
0.9430270724826389
 20
-2.852606879340277
 30
0.0
 10
0.932766384548611
 20
-2.852606879340277
 30
0.0
  0
SPLINE
  5
8A
330
80
100
AcDbEntity
  8
Text
100
AcDbSpline
210
0.0
220
0.0
230
1.0
 70
     9
 71
     3
 72
    59
 73
    55
 74
     0
 42
0.0000000001
 43
0.0000000001
 40
0.0
 40
0.0
 40
0.0
 40
0.0
 40
1.0
 40
1.0
 40
1.0
 40
2.0
 40
2.0
 40
2.0
 40
3.0
 40
3.0
 40
3.0
 40
4.0
 40
4.0
 40
4.0
 40
5.0
 40
5.0
 40
5.0
 40
6.0
 40
6.0
 40
6.0
 40
7.0
 40
7.0
 40
7.0
 40
8.0
 40
8.0
 40
8.0
 40
9.0
 40
9.0
 40
9.0
 40
10.0
 40
10.0
 40
10.0
 40
11.0
 40
11.0
 40
11.0
 40
12.0
 40
12.0
 40
12.0
 40
13.0
 40
13.0
 40
13.0
 40
14.0
 40
14.0
 40
14.0
 40
15.0
 40
15.0
 40
15.0
 40
16.0
 40
16.0
 40
16.0
 40
17.0
 40
17.0
 40
17.0
 40
18.0
 40
18.0
 40
18.0
 40
18.0
 10
0.9550509982638889
 20
-2.999091254340277
 30
0.0
 10
0.9550509982638889
 20
-2.999091254340277
 30
0.0
 10
0.9550509982638889
 20
-3.023017035590277
 30
0.0
 10
0.9550509982638889
 20
-3.023017035590277
 30
0.0
 10
0.9338514539930555
 20
-3.050333658854166
 30
0.0
 10
0.9140828450520832
 20
-3.0709228515625
 30
0.0
 10
0.8957316080729166
 20
-3.084784613715277
 30
0.0
 10
0.87738037109375
 20
-3.098659939236111
 30
0.0
 10
0.86175537109375
 20
-3.105604383680555
 30
0.0
 10
0.8488701714409721
 20
-3.105604383680555
 30
0.0
 10
0.8309529622395832
 20
-3.105604383680555
 30
0.0
 10
0.817626953125
 20
-3.096204969618055
 30
0.0
 10
0.8088921440972221
 20
-3.077419704861111
 30
0.0
 10
0.8001505533854166
 20
-3.058634440104166
 30
0.0
 10
0.7957831488715277
 20
-3.0380859375
 30
0.0
 10
0.7957831488715277
 20
-3.015801323784721
 30
0.0
 10
0.7957831488715277
 20
-3.007283528645833
 30
0.0
 10
0.7966512044270833
 20
-2.9991455078125
 30
0.0
 10
0.79840087890625
 20
-2.991387261284721
 30
0.0
 10
0.8001505533854166
 20
-2.983642578125
 30
0.0
 10
0.8022189670138889
 20
-2.977254231770833
 30
0.0
 10
0.80462646484375
 20
-2.972222222222221
 30
0.0
 10
0.8070271809895832
 20
-2.967203776041666
 30
0.0
 10
0.8115098741319444
 20
-2.959337022569444
 30
0.0
 10
0.8180677625868055
 20
-2.948621961805555
 30
0.0
 10
0.849087185329861
 20
-2.900349934895833
 30
0.0
 10
0.8774888780381944
 20
-2.876207139756944
 30
0.0
 10
0.9032728407118055
 20
-2.876207139756944
 30
0.0
 10
0.916592068142361
 20
-2.876207139756944
 30
0.0
 10
0.9232584635416666
 20
-2.881334092881944
 30
0.0
 10
0.9232584635416666
 20
-2.8916015625
 30
0.0
 10
0.9232584635416666
 20
-2.898600260416666
 30
0.0
 10
0.9189453125
 20
-2.909518771701388
 30
0.0
 10
0.9103122287326389
 20
-2.924370659722221
 30
0.0
 10
0.9016791449652776
 20
-2.939236111111111
 30
0.0
 10
0.89398193359375
 20
-2.9498291015625
 30
0.0
 10
0.8872138129340276
 20
-2.956163194444444
 30
0.0
 10
0.8682047526041666
 20
-2.974514431423611
 30
0.0
 10
0.855801052517361
 20
-2.987291124131944
 30
0.0
 10
0.8500162760416666
 20
-2.9945068359375
 30
0.0
 10
0.8442247178819444
 20
-3.001708984375
 30
0.0
 10
0.8413289388020832
 20
-3.009901258680555
 30
0.0
 10
0.8413289388020832
 20
-3.019083658854166
 30
0.0
 10
0.8413289388020832
 20
-3.026950412326388
 30
0.0
 10
0.8442789713541666
 20
-3.033501519097221
 30
0.0
 10
0.8501790364583332
 20
-3.038750542534721
 30
0.0
 10
0.8560791015625
 20
-3.043986002604166
 30
0.0
 10
0.8637220594618055
 20
-3.046617296006944
 30
0.0
 10
0.8731214735243055
 20
-3.046617296006944
 30
0.0
 10
0.883388943142361
 20
-3.046617296006944
 30
0.0
 10
0.8946940104166666
 20
-3.0428466796875
 30
0.0
 10
0.9070366753472221
 20
-3.035305447048611
 30
0.0
 10
0.9193793402777776
 20
-3.027764214409721
 30
0.0
 10
0.9353841145833332
 20
-3.015692816840277
 30
0.0
 10
0.9550509982638889
 20
-2.999091254340277
 30
0.0
  0
HATCH
  5
8B
330
80
100
AcDbEntity
  8
Text
 62
     6
420
 16711935
440
 33554687
100
AcDbHatch
 10
0.0
 20
0.0
 30
0.0
210
0.0
220
0.0
230
1.0
  2
SOLID
 70
     1
 71
     1
 91
        2
 92
        1
 93
        1
 72
     4
 94
        3
 73
     0
 74
     0
 95
       29
 96
       25
 40
0.0
 40
0.0
 40
0.0
 40
0.0
 40
1.0
 40
1.0
 40
1.0
 40
2.0
 40
2.0
 40
2.0
 40
3.0
 40
3.0
 40
3.0
 40
4.0
 40
4.0
 40
4.0
 40
5.0
 40
5.0
 40
5.0
 40
6.0
 40
6.0
 40
6.0
 40
7.0
 40
7.0
 40
7.0
 40
8.0
 40
8.0
 40
8.0
 40
8.0
 10
0.932766384548611
 20
-2.852606879340277
 10
0.9273003472222221
 20
-2.852606879340277
 10
0.9221123589409721
 20
-2.850531684027777
 10
0.9171956380208332
 20
-2.846381293402777
 10
0.9122789171006944
 20
-2.842230902777777
 10
0.9098239474826389
 20
-2.836981879340277
 10
0.9098239474826389
 20
-2.830647786458333
 10
0.9098239474826389
 20
-2.821031358506944
 10
0.9144151475694444
 20
-2.810329861111111
 10
0.9235907660590276
 20
-2.798529730902777
 10
0.932766384548611
 20
-2.786729600694444
 10
0.9422675238715276
 20
-2.780843098958333
 10
0.9521009657118055
 20
-2.780843098958333
 10
0.9586520724826389
 20
-2.780843098958333
 10
0.964111328125
 20
-2.782864040798611
 10
0.9684855143229166
 20
-2.786905924479166
 10
0.9728529188368055
 20
-2.790947808159721
 10
0.97503662109375
 20
-2.796793619791666
 10
0.97503662109375
 20
-2.804429796006944
 10
0.97503662109375
 20
-2.813829210069444
 10
0.9705607096354166
 20
-2.824205186631944
 10
0.9616021050347221
 20
-2.8355712890625
 10
0.9526435004340276
 20
-2.846923828125
 10
0.9430270724826389
 20
-2.852606879340277
 10
0.932766384548611
 20
-2.852606879340277
 97
        0
 97
        1
330
89
 92
        1
 93
        1
 72
     4
 94
        3
 73
     0
 74
     0
 95
       59
 96
       55
 40
0.0
 40
0.0
 40
0.0
 40
0.0
 40
1.0
 40
1.0
 40
1.0
 40
2.0
 40
2.0
 40
2.0
 40
3.0
 40
3.0
 40
3.0
 40
4.0
 40
4.0
 40
4.0
 40
5.0
 40
5.0
 40
5.0
 40
6.0
 40
6.0
 40
6.0
 40
7.0
 40
7.0
 40
7.0
 40
8.0
 40
8.0
 40
8.0
 40
9.0
 40
9.0
 40
9.0
 40
10.0
 40
10.0
 40
10.0
 40
11.0
 40
11.0
 40
11.0
 40
12.0
 40
12.0
 40
12.0
 40
13.0
 40
13.0
 40
13.0
 40
14.0
 40
14.0
 40
14.0
 40
15.0
 40
15.0
 40
15.0
 40
16.0
 40
16.0
 40
16.0
 40
17.0
 40
17.0
 40
17.0
 40
18.0
 40
18.0
 40
18.0
 40
18.0
 10
0.9550509982638889
 20
-2.999091254340277
 10
0.9550509982638889
 20
-2.999091254340277
 10
0.9550509982638889
 20
-3.023017035590277
 10
0.9550509982638889
 20
-3.023017035590277
 10
0.9338514539930555
 20
-3.050333658854166
 10
0.9140828450520832
 20
-3.0709228515625
 10
0.8957316080729166
 20
-3.084784613715277
 10
0.87738037109375
 20
-3.098659939236111
 10
0.86175537109375
 20
-3.105604383680555
 10
0.8488701714409721
 20
-3.105604383680555
 10
0.8309529622395832
 20
-3.105604383680555
 10
0.817626953125
 20
-3.096204969618055
 10
0.8088921440972221
 20
-3.077419704861111
 10
0.8001505533854166
 20
-3.058634440104166
 10
0.7957831488715277
 20
-3.0380859375
 10
0.7957831488715277
 20
-3.015801323784721
 10
0.7957831488715277
 20
-3.007283528645833
 10
0.7966512044270833
 20
-2.9991455078125
 10
0.79840087890625
 20
-2.991387261284721
 10
0.8001505533854166
 20
-2.983642578125
 10
0.8022189670138889
 20
-2.977254231770833
 10
0.80462646484375
 20
-2.972222222222221
 10
0.8070271809895832
 20
-2.967203776041666
 10
0.8115098741319444
 20
-2.959337022569444
 10
0.8180677625868055
 20
-2.948621961805555
 10
0.849087185329861
 20
-2.900349934895833
 10
0.8774888780381944
 20
-2.876207139756944
 10
0.9032728407118055
 20
-2.876207139756944
 10
0.916592068142361
 20
-2.876207139756944
 10
0.9232584635416666
 20
-2.881334092881944
 10
0.9232584635416666
 20
-2.8916015625
 10
0.9232584635416666
 20
-2.898600260416666
 10
0.9189453125
 20
-2.909518771701388
 10
0.9103122287326389
 20
-2.924370659722221
 10
0.9016791449652776
 20
-2.939236111111111
 10
0.89398193359375
 20
-2.9498291015625
 10
0.8872138129340276
 20
-2.956163194444444
 10
0.8682047526041666
 20
-2.974514431423611
 10
0.855801052517361
 20
-2.987291124131944
 10
0.8500162760416666
 20
-2.9945068359375
 10
0.8442247178819444
 20
-3.001708984375
 10
0.8413289388020832
 20
-3.009901258680555
 10
0.8413289388020832
 20
-3.019083658854166
 10
0.8413289388020832
 20
-3.026950412326388
 10
0.8442789713541666
 20
-3.033501519097221
 10
0.8501790364583332
 20
-3.038750542534721
 10
0.8560791015625
 20
-3.043986002604166
 10
0.8637220594618055
 20
-3.046617296006944
 10
0.8731214735243055
 20
-3.046617296006944
 10
0.883388943142361
 20
-3.046617296006944
 10
0.8946940104166666
 20
-3.0428466796875
 10
0.9070366753472221
 20
-3.035305447048611
 10
0.9193793402777776
 20
-3.027764214409721
 10
0.9353841145833332
 20
-3.015692816840277
 10
0.9550509982638889
 20
-2.999091254340277
 97
        0
 97
        1
330
8A
 75
     2
 76
     1
 98
        1
 10
0.0
 20
0.0
450
        0
451
        0
460
0.0
461
0.0
452
        0
462
0.0
453
        0
470

  0
SPLINE
  5
8C
330
80
100
AcDbEntity
  8
Text
100
AcDbSpline
210
0.0
220
0.0
230
1.0
 70
     9
 71
     3
 72
    29
 73
    25
 74
     0
 42
0.0000000001
 43
0.0000000001
 40
0.0
 40
0.0
 40
0.0
 40
0.0
 40
1.0
 40
1.0
 40
1.0
 40
2.0
 40
2.0
 40
2.0
 40
3.0
 40
3.0
 40
3.0
 40
4.0
 40
4.0
 40
4.0
 40
5.0
 40
5.0
 40
5.0
 40
6.0
 40
6.0
 40
6.0
 40
7.0
 40
7.0
 40
7.0
 40
8.0
 40
8.0
 40
8.0
 40
8.0
 10
1.073018391927083
 20
-2.9581298828125
 30
0.0
 10
1.073018391927083
 20
-2.9581298828125
 30
0.0
 10
1.067125108506944
 20
-2.9102783203125
 30
0.0
 10
1.067125108506944
 20
-2.9102783203125
 30
0.0
 10
1.053575303819444
 20
-2.925577799479166
 30
0.0
 10
1.024624294704861
 20
-2.954969618055555
 30
0.0
 10
0.9802788628472221
 20
-2.998440212673611
 30
0.0
 10
0.9933878580729166
 20
-3.001274956597221
 30
0.0
 10
1.002339680989583
 20
-3.005099826388888
 30
0.0
 10
1.007147894965277
 20
-3.009901258680555
 30
0.0
 10
1.011956108940972
 20
-3.014716254340277
 30
0.0
 10
1.018731011284722
 20
-3.023993598090277
 30
0.0
 10
1.0274658203125
 20
-3.037760416666666
 30
0.0
 10
1.042324490017361
 20
-3.031643337673611
 30
0.0
 10
1.053738064236111
 20
-3.023288302951388
 30
0.0
 10
1.061713324652777
 20
-3.0126953125
 30
0.0
 10
1.069688585069444
 20
-3.002102322048611
 30
0.0
 10
1.073676215277777
 20
-2.987616644965277
 30
0.0
 10
1.073676215277777
 20
-2.969265407986111
 30
0.0
 10
1.073676215277777
 20
-2.967095269097221
 30
0.0
 10
1.073621961805555
 20
-2.965128580729166
 30
0.0
 10
1.073513454861111
 20
-2.96337890625
 30
0.0
 10
1.073398166232638
 20
-2.961629231770833
 30
0.0
 10
1.073235405815972
 20
-2.959879557291666
 30
0.0
 10
1.073018391927083
 20
-2.9581298828125
 30
0.0
  0
SPLINE
  5
8D
330
80
100
AcDbEntity
  8
Text
100
AcDbSpline
210
0.0
220
0.0
230
1.0
 70
     9
 71
     3
 72
    71
 73
    67
 74
     0
 42
0.0000000001
 43
0.0000000001
 40
0.0
 40
0.0
 40
0.0
 40
0.0
 40
1.0
 40
1.0
 40
1.0
 40
2.0
 40
2.0
 40
2.0
 40
3.0
 40
3.0
 40
3.0
 40
4.0
 40
4.0
 40
4.0
 40
5.0
 40
5.0
 40
5.0
 40
6.0
 40
6.0
 40
6.0
 40
7.0
 40
7.0
 40
7.0
 40
8.0
 40
8.0
 40
8.0
 40
9.0
 40
9.0
 40
9.0
 40
10.0
 40
10.0
 40
10.0
 40
11.0
 40
11.0
 40
11.0
 40
12.0
 40
12.0
 40
12.0
 40
13.0
 40
13.0
 40
13.0
 40
14.0
 40
14.0
 40
14.0
 40
15.0
 40
15.0
 40
15.0
 40
16.0
 40
16.0
 40
16.0
 40
17.0
 40
17.0
 40
17.0
 40
18.0
 40
18.0
 40
18.0
 40
19.0
 40
19.0
 40
19.0
 40
20.0
 40
20.0
 40
20.0
 40
21.0
 40
21.0
 40
21.0
 40
22.0
 40
22.0
 40
22.0
 40
22.0
 10
0.9507853190104166
 20
-3.008273654513888
 30
0.0
 10
0.9507853190104166
 20
-3.008273654513888
 30
0.0
 10
0.9507853190104166
 20
-3.000406901041666
 30
0.0
 10
0.9507853190104166
 20
-3.000406901041666
 30
0.0
 10
1.007147894965277
 20
-2.940985785590277
 30
0.0
 10
1.045925564236111
 20
-2.899359809027777
 30
0.0
 10
1.067125108506944
 20
-2.875542534722221
 30
0.0
 10
1.071926540798611
 20
-2.848673502604166
 30
0.0
 10
1.083509657118055
 20
-2.835232204861111
 30
0.0
 10
1.101860894097222
 20
-2.835232204861111
 30
0.0
 10
1.106458875868055
 20
-2.835232204861111
 30
0.0
 10
1.111368815104166
 20
-2.8365478515625
 30
0.0
 10
1.116617838541666
 20
-2.839165581597221
 30
0.0
 10
1.116617838541666
 20
-2.839165581597221
 30
0.0
 10
1.118584526909722
 20
-2.845391167534721
 30
0.0
 10
1.118584526909722
 20
-2.845391167534721
 30
0.0
 10
1.11770290798611
 20
-2.8480224609375
 30
0.0
 10
1.117268880208333
 20
-2.851738823784721
 30
0.0
 10
1.117268880208333
 20
-2.856540256076388
 30
0.0
 10
1.117268880208333
 20
-2.860690646701388
 30
0.0
 10
1.118855794270833
 20
-2.868394639756944
 30
0.0
 10
1.122016059027777
 20
-2.879638671875
 30
0.0
 10
1.125189887152777
 20
-2.890896267361111
 30
0.0
 10
1.127644856770833
 20
-2.900349934895833
 30
0.0
 10
1.12939453125
 20
-2.907986111111111
 30
0.0
 10
1.131144205729166
 20
-2.915635850694444
 30
0.0
 10
1.132012261284722
 20
-2.924262152777777
 30
0.0
 10
1.132012261284722
 20
-2.933878580729166
 30
0.0
 10
1.132012261284722
 20
-2.948296440972221
 30
0.0
 10
1.128743489583333
 20
-2.962117513020833
 30
0.0
 10
1.122178819444444
 20
-2.975328233506944
 30
0.0
 10
1.11562771267361
 20
-2.988552517361111
 30
0.0
 10
1.106133355034722
 20
-3.001220703125
 30
0.0
 10
1.093668619791666
 20
-3.013346354166666
 30
0.0
 10
1.081210666232638
 20
-3.025472005208333
 30
0.0
 10
1.065158420138888
 20
-3.037868923611111
 30
0.0
 10
1.045491536458333
 20
-3.050537109375
 30
0.0
 10
1.053358289930555
 20
-3.051852756076388
 30
0.0
 10
1.059583875868055
 20
-3.052503797743055
 30
0.0
 10
1.064175075954861
 20
-3.052503797743055
 30
0.0
 10
1.073126898871527
 20
-3.052503797743055
 30
0.0
 10
1.082797580295138
 20
-3.050265842013888
 30
0.0
 10
1.093180338541666
 20
-3.045789930555555
 30
0.0
 10
1.103556315104166
 20
-3.041314019097221
 30
0.0
 10
1.114149305555555
 20
-3.035305447048611
 30
0.0
 10
1.124972873263888
 20
-3.027764214409721
 30
0.0
 10
1.135782877604166
 20
-3.020236545138888
 30
0.0
 10
1.148396809895833
 20
-3.010457356770833
 30
0.0
 10
1.162814670138888
 20
-2.998440212673611
 30
0.0
 10
1.162814670138888
 20
-2.998440212673611
 30
0.0
 10
1.162814670138888
 20
-3.020399305555555
 30
0.0
 10
1.162814670138888
 20
-3.020399305555555
 30
0.0
 10
1.134847005208333
 20
-3.047702365451388
 30
0.0
 10
1.109836154513888
 20
-3.068400065104166
 30
0.0
 10
1.0877685546875
 20
-3.082492404513888
 30
0.0
 10
1.065700954861111
 20
-3.096584743923611
 30
0.0
 10
1.04669189453125
 20
-3.1036376953125
 30
0.0
 10
1.030748155381944
 20
-3.1036376953125
 30
0.0
 10
1.010206434461805
 20
-3.1036376953125
 30
0.0
 10
0.9911973741319444
 20
-3.094902886284721
 30
0.0
 10
0.973720974392361
 20
-3.077419704861111
 30
0.0
 10
0.9634535047743055
 20
-3.066935221354166
 30
0.0
 10
0.9570651584201389
 20
-3.056884765625
 30
0.0
 10
0.954555935329861
 20
-3.047268337673611
 30
0.0
 10
0.9520399305555555
 20
-3.037651909722221
 30
0.0
 10
0.9507853190104166
 20
-3.024658203125
 30
0.0
 10
0.9507853190104166
 20
-3.008273654513888
 30
0.0
  0
HATCH
  5
8E
330
80
100
AcDbEntity
  8
Text
 62
     6
420
 16711935
440
 33554687
100
AcDbHatch
 10
0.0
 20
0.0
 30
0.0
210
0.0
220
0.0
230
1.0
  2
SOLID
 70
     1
 71
     1
 91
        2
 92
        1
 93
        1
 72
     4
 94
        3
 73
     0
 74
     0
 95
       29
 96
       25
 40
0.0
 40
0.0
 40
0.0
 40
0.0
 40
1.0
 40
1.0
 40
1.0
 40
2.0
 40
2.0
 40
2.0
 40
3.0
 40
3.0
 40
3.0
 40
4.0
 40
4.0
 40
4.0
 40
5.0
 40
5.0
 40
5.0
 40
6.0
 40
6.0
 40
6.0
 40
7.0
 40
7.0
 40
7.0
 40
8.0
 40
8.0
 40
8.0
 40
8.0
 10
1.073018391927083
 20
-2.9581298828125
 10
1.073018391927083
 20
-2.9581298828125
 10
1.067125108506944
 20
-2.9102783203125
 10
1.067125108506944
 20
-2.9102783203125
 10
1.053575303819444
 20
-2.925577799479166
 10
1.024624294704861
 20
-2.954969618055555
 10
0.9802788628472221
 20
-2.998440212673611
 10
0.9933878580729166
 20
-3.001274956597221
 10
1.002339680989583
 20
-3.005099826388888
 10
1.007147894965277
 20
-3.009901258680555
 10
1.011956108940972
 20
-3.014716254340277
 10
1.018731011284722
 20
-3.023993598090277
 10
1.0274658203125
 20
-3.037760416666666
 10
1.042324490017361
 20
-3.031643337673611
 10
1.053738064236111
 20
-3.023288302951388
 10
1.061713324652777
 20
-3.0126953125
 10
1.069688585069444
 20
-3.002102322048611
 10
1.073676215277777
 20
-2.987616644965277
 10
1.073676215277777
 20
-2.969265407986111
 10
1.073676215277777
 20
-2.967095269097221
 10
1.073621961805555
 20
-2.965128580729166
 10
1.073513454861111
 20
-2.96337890625
 10
1.073398166232638
 20
-2.961629231770833
 10
1.073235405815972
 20
-2.959879557291666
 10
1.073018391927083
 20
-2.9581298828125
 97
        0
 97
        1
330
8C
 92
        1
 93
        1
 72
     4
 94
        3
 73
     0
 74
     0
 95
       71
 96
       67
 40
0.0
 40
0.0
 40
0.0
 40
0.0
 40
1.0
 40
1.0
 40
1.0
 40
2.0
 40
2.0
 40
2.0
 40
3.0
 40
3.0
 40
3.0
 40
4.0
 40
4.0
 40
4.0
 40
5.0
 40
5.0
 40
5.0
 40
6.0
 40
6.0
 40
6.0
 40
7.0
 40
7.0
 40
7.0
 40
8.0
 40
8.0
 40
8.0
 40
9.0
 40
9.0
 40
9.0
 40
10.0
 40
10.0
 40
10.0
 40
11.0
 40
11.0
 40
11.0
 40
12.0
 40
12.0
 40
12.0
 40
13.0
 40
13.0
 40
13.0
 40
14.0
 40
14.0
 40
14.0
 40
15.0
 40
15.0
 40
15.0
 40
16.0
 40
16.0
 40
16.0
 40
17.0
 40
17.0
 40
17.0
 40
18.0
 40
18.0
 40
18.0
 40
19.0
 40
19.0
 40
19.0
 40
20.0
 40
20.0
 40
20.0
 40
21.0
 40
21.0
 40
21.0
 40
22.0
 40
22.0
 40
22.0
 40
22.0
 10
0.9507853190104166
 20
-3.008273654513888
 10
0.9507853190104166
 20
-3.008273654513888
 10
0.9507853190104166
 20
-3.000406901041666
 10
0.9507853190104166
 20
-3.000406901041666
 10
1.007147894965277
 20
-2.940985785590277
 10
1.045925564236111
 20
-2.899359809027777
 10
1.067125108506944
 20
-2.875542534722221
 10
1.071926540798611
 20
-2.848673502604166
 10
1.083509657118055
 20
-2.835232204861111
 10
1.101860894097222
 20
-2.835232204861111
 10
1.106458875868055
 20
-2.835232204861111
 10
1.111368815104166
 20
-2.8365478515625
 10
1.116617838541666
 20
-2.839165581597221
 10
1.116617838541666
 20
-2.839165581597221
 10
1.118584526909722
 20
-2.845391167534721
 10
1.118584526909722
 20
-2.845391167534721
 10
1.11770290798611
 20
-2.8480224609375
 10
1.117268880208333
 20
-2.851738823784721
 10
1.117268880208333
 20
-2.856540256076388
 10
1.117268880208333
 20
-2.860690646701388
 10
1.118855794270833
 20
-2.868394639756944
 10
1.122016059027777
 20
-2.879638671875
 10
1.125189887152777
 20
-2.890896267361111
 10
1.127644856770833
 20
-2.900349934895833
 10
1.12939453125
 20
-2.907986111111111
 10
1.131144205729166
 20
-2.915635850694444
 10
1.132012261284722
 20
-2.924262152777777
 10
1.132012261284722
 20
-2.933878580729166
 10
1.132012261284722
 20
-2.948296440972221
 10
1.128743489583333
 20
-2.962117513020833
 10
1.122178819444444
 20
-2.975328233506944
 10
1.11562771267361
 20
-2.988552517361111
 10
1.106133355034722
 20
-3.001220703125
 10
1.093668619791666
 20
-3.013346354166666
 10
1.081210666232638
 20
-3.025472005208333
 10
1.065158420138888
 20
-3.037868923611111
 10
1.045491536458333
 20
-3.050537109375
 10
1.053358289930555
 20
-3.051852756076388
 10
1.059583875868055
 20
-3.052503797743055
 10
1.064175075954861
 20
-3.052503797743055
 10
1.073126898871527
 20
-3.052503797743055
 10
1.082797580295138
 20
-3.050265842013888
 10
1.093180338541666
 20
-3.045789930555555
 10
1.103556315104166
 20
-3.041314019097221
 10
1.114149305555555
 20
-3.035305447048611
 10
1.124972873263888
 20
-3.027764214409721
 10
1.135782877604166
 20
-3.020236545138888
 10
1.148396809895833
 20
-3.010457356770833
 10
1.162814670138888
 20
-2.998440212673611
 10
1.162814670138888
 20
-2.998440212673611
 10
1.162814670138888
 20
-3.020399305555555
 10
1.162814670138888
 20
-3.020399305555555
 10
1.134847005208333
 20
-3.047702365451388
 10
1.109836154513888
 20
-3.068400065104166
 10
1.0877685546875
 20
-3.082492404513888
 10
1.065700954861111
 20
-3.096584743923611
 10
1.04669189453125
 20
-3.1036376953125
 10
1.030748155381944
 20
-3.1036376953125
 10
1.010206434461805
 20
-3.1036376953125
 10
0.9911973741319444
 20
-3.094902886284721
 10
0.973720974392361
 20
-3.077419704861111
 10
0.9634535047743055
 20
-3.066935221354166
 10
0.9570651584201389
 20
-3.056884765625
 10
0.954555935329861
 20
-3.047268337673611
 10
0.9520399305555555
 20
-3.037651909722221
 10
0.9507853190104166
 20
-3.024658203125
 10
0.9507853190104166
 20
-3.008273654513888
 97
        0
 97
        1
330
8D
 75
     2
 76
     1
 98
        1
 10
0.0
 20
0.0
450
        0
451
        0
460
0.0
461
0.0
452
        0
462
0.0
453
        0
470

  0
SPLINE
  5
8F
330
80
100
AcDbEntity
  8
Text
100
AcDbSpline
210
0.0
220
0.0
230
1.0
 70
     9
 71
     3
 72
   122
 73
   118
 74
     0
 42
0.0000000001
 43
0.0000000001
 40
0.0
 40
0.0
 40
0.0
 40
0.0
 40
1.0
 40
1.0
 40
1.0
 40
2.0
 40
2.0
 40
2.0
 40
3.0
 40
3.0
 40
3.0
 40
4.0
 40
4.0
 40
4.0
 40
5.0
 40
5.0
 40
5.0
 40
6.0
 40
6.0
 40
6.0
 40
7.0
 40
7.0
 40
7.0
 40
8.0
 40
8.0
 40
8.0
 40
9.0
 40
9.0
 40
9.0
 40
10.0
 40
10.0
 40
10.0
 40
11.0
 40
11.0
 40
11.0
 40
12.0
 40
12.0
 40
12.0
 40
13.0
 40
13.0
 40
13.0
 40
14.0
 40
14.0
 40
14.0
 40
15.0
 40
15.0
 40
15.0
 40
16.0
 40
16.0
 40
16.0
 40
17.0
 40
17.0
 40
17.0
 40
18.0
 40
18.0
 40
18.0
 40
19.0
 40
19.0
 40
19.0
 40
20.0
 40
20.0
 40
20.0
 40
21.0
 40
21.0
 40
21.0
 40
22.0
 40
22.0
 40
22.0
 40
23.0
 40
23.0
 40
23.0
 40
24.0
 40
24.0
 40
24.0
 40
25.0
 40
25.0
 40
25.0
 40
26.0
 40
26.0
 40
26.0
 40
27.0
 40
27.0
 40
27.0
 40
28.0
 40
28.0
 40
28.0
 40
29.0
 40
29.0
 40
29.0
 40
30.0
 40
30.0
 40
30.0
 40
31.0
 40
31.0
 40
31.0
 40
32.0
 40
32.0
 40
32.0
 40
33.0
 40
33.0
 40
33.0
 40
34.0
 40
34.0
 40
34.0
 40
35.0
 40
35.0
 40
35.0
 40
36.0
 40
36.0
 40
36.0
 40
37.0
 40
37.0
 40
37.0
 40
38.0
 40
38.0
 40
38.0
 40
39.0
 40
39.0
 40
39.0
 40
39.0
 10
1.406629774305555
 20
-2.999091254340277
 30
0.0
 10
1.406629774305555
 20
-2.999091254340277
 30
0.0
 10
1.406629774305555
 20
-3.019734700520833
 30
0.0
 10
1.406629774305555
 20
-3.019734700520833
 30
0.0
 10
1.387627495659722
 20
-3.0391845703125
 30
0.0
 10
1.371188693576388
 20
-3.055080837673611
 30
0.0
 10
1.357313368055555
 20
-3.067423502604166
 30
0.0
 10
1.343438042534722
 20
-3.079766167534721
 30
0.0
 10
1.331312391493055
 20
-3.089111328125
 30
0.0
 10
1.320936414930555
 20
-3.095445421006944
 30
0.0
 10
1.310560438368055
 20
-3.101779513888888
 30
0.0
 10
1.301771375868055
 20
-3.104939778645833
 30
0.0
 10
1.2945556640625
 20
-3.104939778645833
 30
0.0
 10
1.277520073784722
 20
-3.104939778645833
 30
0.0
 10
1.269002278645833
 20
-3.094902886284721
 30
0.0
 10
1.269002278645833
 20
-3.074788411458333
 30
0.0
 10
1.269002278645833
 20
-3.058634440104166
 30
0.0
 10
1.2742919921875
 20
-3.039889865451388
 30
0.0
 10
1.284884982638888
 20
-3.018595377604166
 30
0.0
 10
1.295477973090277
 20
-2.997287326388888
 30
0.0
 10
1.310723198784722
 20
-2.972222222222221
 30
0.0
 10
1.330607096354166
 20
-2.943386501736111
 30
0.0
 10
1.320773654513888
 20
-2.948838975694444
 30
0.0
 10
1.311482747395833
 20
-2.955132378472221
 30
0.0
 10
1.302747938368055
 20
-2.962226019965277
 30
0.0
 10
1.294013129340277
 20
-2.969333224826388
 30
0.0
 10
1.2862548828125
 20
-2.976752387152777
 30
0.0
 10
1.279486762152777
 20
-2.984510633680555
 30
0.0
 10
1.272705078125
 20
-2.992268880208333
 30
0.0
 10
1.267035590277777
 20
-2.998874240451388
 30
0.0
 10
1.262437608506944
 20
-3.004340277777777
 30
0.0
 10
1.248236762152777
 20
-3.020290798611111
 30
0.0
 10
1.234592013888888
 20
-3.03662109375
 30
0.0
 10
1.221476236979166
 20
-3.053331163194444
 30
0.0
 10
1.2083740234375
 20
-3.070041232638888
 30
0.0
 10
1.199517144097222
 20
-3.080919053819444
 30
0.0
 10
1.194932725694444
 20
-3.0859375
 30
0.0
 10
1.190348307291666
 20
-3.090969509548611
 30
0.0
 10
1.185967339409722
 20
-3.093478732638888
 30
0.0
 10
1.181830512152777
 20
-3.093478732638888
 30
0.0
 10
1.164781358506944
 20
-3.093478732638888
 30
0.0
 10
1.156263563368055
 20
-3.072496202256944
 30
0.0
 10
1.156263563368055
 20
-3.030558268229166
 30
0.0
 10
1.156263563368055
 20
-3.016791449652777
 30
0.0
 10
1.158338758680555
 20
-3.001600477430555
 30
0.0
 10
1.162489149305555
 20
-2.984998914930555
 30
0.0
 10
1.166639539930555
 20
-2.968397352430555
 30
0.0
 10
1.177775065104166
 20
-2.946438259548611
 30
0.0
 10
1.1959228515625
 20
-2.919135199652777
 30
0.0
 10
1.234144422743055
 20
-2.861897786458333
 30
0.0
 10
1.26687282986111
 20
-2.815077039930555
 30
0.0
 10
1.2940673828125
 20
-2.778700086805555
 30
0.0
 10
1.321261935763888
 20
-2.742336697048611
 30
0.0
 10
1.343817816840277
 20
-2.714803059895833
 30
0.0
 10
1.361735026041666
 20
-2.696126302083333
 30
0.0
 10
1.379652235243055
 20
-2.677449544270833
 30
0.0
 10
1.391669379340277
 20
-2.668321397569444
 30
0.0
 10
1.397786458333333
 20
-2.668755425347221
 30
0.0
 10
1.405436197916666
 20
-2.669420030381944
 30
0.0
 10
1.411607530381944
 20
-2.670952690972221
 30
0.0
 10
1.416300455729166
 20
-2.673353407118055
 30
0.0
 10
1.420993381076388
 20
-2.675754123263888
 30
0.0
 10
1.423353407118055
 20
-2.678480360243055
 30
0.0
 10
1.423353407118055
 20
-2.681545681423611
 30
0.0
 10
1.423353407118055
 20
-2.686998155381944
 30
0.0
 10
1.41958279079861
 20
-2.696017795138888
 30
0.0
 10
1.412041558159722
 20
-2.708577473958333
 30
0.0
 10
1.404500325520833
 20
-2.721137152777777
 30
0.0
 10
1.391560872395833
 20
-2.740749782986111
 30
0.0
 10
1.373209635416666
 20
-2.767401801215277
 30
0.0
 10
1.353325737847222
 20
-2.795586480034721
 30
0.0
 10
1.3392333984375
 20
-2.815416124131944
 30
0.0
 10
1.3309326171875
 20
-2.826877170138888
 30
0.0
 10
1.3226318359375
 20
-2.838351779513888
 30
0.0
 10
1.310234917534722
 20
-2.854627821180555
 30
0.0
 10
1.293741861979166
 20
-2.875705295138888
 30
0.0
 10
1.277235243055555
 20
-2.896796332465277
 30
0.0
 10
1.262166341145833
 20
-2.915581597222221
 30
0.0
 10
1.248508029513888
 20
-2.932074652777777
 30
0.0
 10
1.23486328125
 20
-2.948567708333333
 30
0.0
 10
1.219292534722222
 20
-2.9664306640625
 30
0.0
 10
1.20180935329861
 20
-2.985649956597221
 30
0.0
 10
1.20180935329861
 20
-2.985649956597221
 30
0.0
 10
1.20180935329861
 20
-3.024983723958333
 30
0.0
 10
1.20180935329861
 20
-3.024983723958333
 30
0.0
 10
1.231092664930555
 20
-2.992431640625
 30
0.0
 10
1.256429036458333
 20
-2.965779622395833
 30
0.0
 10
1.277845594618055
 20
-2.945014105902777
 30
0.0
 10
1.299248589409722
 20
-2.924262152777777
 30
0.0
 10
1.3173828125
 20
-2.908596462673611
 30
0.0
 10
1.332248263888888
 20
-2.897989908854166
 30
0.0
 10
1.347100151909722
 20
-2.887396918402777
 30
0.0
 10
1.358018663194444
 20
-2.882093641493055
 30
0.0
 10
1.36501736111111
 20
-2.882093641493055
 30
0.0
 10
1.371568467881944
 20
-2.882093641493055
 30
0.0
 10
1.377685546875
 20
-2.885986328125
 30
0.0
 10
1.383368598090277
 20
-2.893731011284721
 30
0.0
 10
1.389051649305555
 20
-2.9014892578125
 30
0.0
 10
1.391886393229166
 20
-2.907877604166666
 30
0.0
 10
1.391886393229166
 20
-2.912909613715277
 30
0.0
 10
1.391886393229166
 20
-2.915093315972221
 30
0.0
 10
1.390787760416666
 20
-2.917819552951388
 30
0.0
 10
1.388617621527777
 20
-2.921101888020833
 30
0.0
 10
1.372884114583333
 20
-2.939887152777777
 30
0.0
 10
1.360365125868055
 20
-2.955457899305555
 30
0.0
 10
1.351087782118055
 20
-2.967800564236111
 30
0.0
 10
1.341796875
 20
-2.980143229166666
 30
0.0
 10
1.334648980034722
 20
-2.991170247395833
 30
0.0
 10
1.32961697048611
 20
-3.000895182291666
 30
0.0
 10
1.324598524305555
 20
-3.0106201171875
 30
0.0
 10
1.322089301215277
 20
-3.018975151909721
 30
0.0
 10
1.322089301215277
 20
-3.025960286458333
 30
0.0
 10
1.322089301215277
 20
-3.036241319444444
 30
0.0
 10
1.326999240451388
 20
-3.041368272569444
 30
0.0
 10
1.336832682291666
 20
-3.041368272569444
 30
0.0
 10
1.34731716579861
 20
-3.041368272569444
 30
0.0
 10
1.370591905381944
 20
-3.027275933159721
 30
0.0
 10
1.406629774305555
 20
-2.999091254340277
 30
0.0
  0
HATCH
  5
90
330
80
100
AcDbEntity
  8
Text
 62
     6
420
 16711935
440
 33554687
100
AcDbHatch
 10
0.0
 20
0.0
 30
0.0
210
0.0
220
0.0
230
1.0
  2
SOLID
 70
     1
 71
     1
 91
        1
 92
        1
 93
        1
 72
     4
 94
        3
 73
     0
 74
     0
 95
      122
 96
      118
 40
0.0
 40
0.0
 40
0.0
 40
0.0
 40
1.0
 40
1.0
 40
1.0
 40
2.0
 40
2.0
 40
2.0
 40
3.0
 40
3.0
 40
3.0
 40
4.0
 40
4.0
 40
4.0
 40
5.0
 40
5.0
 40
5.0
 40
6.0
 40
6.0
 40
6.0
 40
7.0
 40
7.0
 40
7.0
 40
8.0
 40
8.0
 40
8.0
 40
9.0
 40
9.0
 40
9.0
 40
10.0
 40
10.0
 40
10.0
 40
11.0
 40
11.0
 40
11.0
 40
12.0
 40
12.0
 40
12.0
 40
13.0
 40
13.0
 40
13.0
 40
14.0
 40
14.0
 40
14.0
 40
15.0
 40
15.0
 40
15.0
 40
16.0
 40
16.0
 40
16.0
 40
17.0
 40
17.0
 40
17.0
 40
18.0
 40
18.0
 40
18.0
 40
19.0
 40
19.0
 40
19.0
 40
20.0
 40
20.0
 40
20.0
 40
21.0
 40
21.0
 40
21.0
 40
22.0
 40
22.0
 40
22.0
 40
23.0
 40
23.0
 40
23.0
 40
24.0
 40
24.0
 40
24.0
 40
25.0
 40
25.0
 40
25.0
 40
26.0
 40
26.0
 40
26.0
 40
27.0
 40
27.0
 40
27.0
 40
28.0
 40
28.0
 40
28.0
 40
29.0
 40
29.0
 40
29.0
 40
30.0
 40
30.0
 40
30.0
 40
31.0
 40
31.0
 40
31.0
 40
32.0
 40
32.0
 40
32.0
 40
33.0
 40
33.0
 40
33.0
 40
34.0
 40
34.0
 40
34.0
 40
35.0
 40
35.0
 40
35.0
 40
36.0
 40
36.0
 40
36.0
 40
37.0
 40
37.0
 40
37.0
 40
38.0
 40
38.0
 40
38.0
 40
39.0
 40
39.0
 40
39.0
 40
39.0
 10
1.406629774305555
 20
-2.999091254340277
 10
1.406629774305555
 20
-2.999091254340277
 10
1.406629774305555
 20
-3.019734700520833
 10
1.406629774305555
 20
-3.019734700520833
 10
1.387627495659722
 20
-3.0391845703125
 10
1.371188693576388
 20
-3.055080837673611
 10
1.357313368055555
 20
-3.067423502604166
 10
1.343438042534722
 20
-3.079766167534721
 10
1.331312391493055
 20
-3.089111328125
 10
1.320936414930555
 20
-3.095445421006944
 10
1.310560438368055
 20
-3.101779513888888
 10
1.301771375868055
 20
-3.104939778645833
 10
1.2945556640625
 20
-3.104939778645833
 10
1.277520073784722
 20
-3.104939778645833
 10
1.269002278645833
 20
-3.094902886284721
 10
1.269002278645833
 20
-3.074788411458333
 10
1.269002278645833
 20
-3.058634440104166
 10
1.2742919921875
 20
-3.039889865451388
 10
1.284884982638888
 20
-3.018595377604166
 10
1.295477973090277
 20
-2.997287326388888
 10
1.310723198784722
 20
-2.972222222222221
 10
1.330607096354166
 20
-2.943386501736111
 10
1.320773654513888
 20
-2.948838975694444
 10
1.311482747395833
 20
-2.955132378472221
 10
1.302747938368055
 20
-2.962226019965277
 10
1.294013129340277
 20
-2.969333224826388
 10
1.2862548828125
 20
-2.976752387152777
 10
1.279486762152777
 20
-2.984510633680555
 10
1.272705078125
 20
-2.992268880208333
 10
1.267035590277777
 20
-2.998874240451388
 10
1.262437608506944
 20
-3.004340277777777
 10
1.248236762152777
 20
-3.020290798611111
 10
1.234592013888888
 20
-3.03662109375
 10
1.221476236979166
 20
-3.053331163194444
 10
1.2083740234375
 20
-3.070041232638888
 10
1.199517144097222
 20
-3.080919053819444
 10
1.194932725694444
 20
-3.0859375
 10
1.190348307291666
 20
-3.090969509548611
 10
1.185967339409722
 20
-3.093478732638888
 10
1.181830512152777
 20
-3.093478732638888
 10
1.164781358506944
 20
-3.093478732638888
 10
1.156263563368055
 20
-3.072496202256944
 10
1.156263563368055
 20
-3.030558268229166
 10
1.156263563368055
 20
-3.016791449652777
 10
1.158338758680555
 20
-3.001600477430555
 10
1.162489149305555
 20
-2.984998914930555
 10
1.166639539930555
 20
-2.968397352430555
 10
1.177775065104166
 20
-2.946438259548611
 10
1.1959228515625
 20
-2.919135199652777
 10
1.234144422743055
 20
-2.861897786458333
 10
1.26687282986111
 20
-2.815077039930555
 10
1.2940673828125
 20
-2.778700086805555
 10
1.321261935763888
 20
-2.742336697048611
 10
1.343817816840277
 20
-2.714803059895833
 10
1.361735026041666
 20
-2.696126302083333
 10
1.379652235243055
 20
-2.677449544270833
 10
1.391669379340277
 20
-2.668321397569444
 10
1.397786458333333
 20
-2.668755425347221
 10
1.405436197916666
 20
-2.669420030381944
 10
1.411607530381944
 20
-2.670952690972221
 10
1.416300455729166
 20
-2.673353407118055
 10
1.420993381076388
 20
-2.675754123263888
 10
1.423353407118055
 20
-2.678480360243055
 10
1.423353407118055
 20
-2.681545681423611
 10
1.423353407118055
 20
-2.686998155381944
 10
1.41958279079861
 20
-2.696017795138888
 10
1.412041558159722
 20
-2.708577473958333
 10
1.404500325520833
 20
-2.721137152777777
 10
1.391560872395833
 20
-2.740749782986111
 10
1.373209635416666
 20
-2.767401801215277
 10
1.353325737847222
 20
-2.795586480034721
 10
1.3392333984375
 20
-2.815416124131944
 10
1.3309326171875
 20
-2.826877170138888
 10
1.3226318359375
 20
-2.838351779513888
 10
1.310234917534722
 20
-2.854627821180555
 10
1.293741861979166
 20
-2.875705295138888
 10
1.277235243055555
 20
-2.896796332465277
 10
1.262166341145833
 20
-2.915581597222221
 10
1.248508029513888
 20
-2.932074652777777
 10
1.23486328125
 20
-2.948567708333333
 10
1.219292534722222
 20
-2.9664306640625
 10
1.20180935329861
 20
-2.985649956597221
 10
1.20180935329861
 20
-2.985649956597221
 10
1.20180935329861
 20
-3.024983723958333
 10
1.20180935329861
 20
-3.024983723958333
 10
1.231092664930555
 20
-2.992431640625
 10
1.256429036458333
 20
-2.965779622395833
 10
1.277845594618055
 20
-2.945014105902777
 10
1.299248589409722
 20
-2.924262152777777
 10
1.3173828125
 20
-2.908596462673611
 10
1.332248263888888
 20
-2.897989908854166
 10
1.347100151909722
 20
-2.887396918402777
 10
1.358018663194444
 20
-2.882093641493055
 10
1.36501736111111
 20
-2.882093641493055
 10
1.371568467881944
 20
-2.882093641493055
 10
1.377685546875
 20
-2.885986328125
 10
1.383368598090277
 20
-2.893731011284721
 10
1.389051649305555
 20
-2.9014892578125
 10
1.391886393229166
 20
-2.907877604166666
 10
1.391886393229166
 20
-2.912909613715277
 10
1.391886393229166
 20
-2.915093315972221
 10
1.390787760416666
 20
-2.917819552951388
 10
1.388617621527777
 20
-2.921101888020833
 10
1.372884114583333
 20
-2.939887152777777
 10
1.360365125868055
 20
-2.955457899305555
 10
1.351087782118055
 20
-2.967800564236111
 10
1.341796875
 20
-2.980143229166666
 10
1.334648980034722
 20
-2.991170247395833
 10
1.32961697048611
 20
-3.000895182291666
 10
1.324598524305555
 20
-3.0106201171875
 10
1.322089301215277
 20
-3.018975151909721
 10
1.322089301215277
 20
-3.025960286458333
 10
1.322089301215277
 20
-3.036241319444444
 10
1.326999240451388
 20
-3.041368272569444
 10
1.336832682291666
 20
-3.041368272569444
 10
1.34731716579861
 20
-3.041368272569444
 10
1.370591905381944
 20
-3.027275933159721
 10
1.406629774305555
 20
-2.999091254340277
 97
        0
 97
        1
330
8F
 75
     2
 76
     1
 98
        1
 10
0.0
 20
0.0
450
        0
451
        0
460
0.0
461
0.0
452
        0
462
0.0
453
        0
470

  0
SPLINE
  5
91
330
80
100
AcDbEntity
  8
Text
100
AcDbSpline
210
0.0
220
0.0
230
1.0
 70
     9
 71
     3
 72
    26
 73
    22
 74
     0
 42
0.0000000001
 43
0.0000000001
 40
0.0
 40
0.0
 40
0.0
 40
0.0
 40
1.0
 40
1.0
 40
1.0
 40
2.0
 40
2.0
 40
2.0
 40
3.0
 40
3.0
 40
3.0
 40
4.0
 40
4.0
 40
4.0
 40
5.0
 40
5.0
 40
5.0
 40
6.0
 40
6.0
 40
6.0
 40
7.0
 40
7.0
 40
7.0
 40
7.0
 10
1.60195583767361
 20
-2.904378255208333
 30
0.0
 10
1.545152452256944
 20
-2.930392795138888
 30
0.0
 10
1.504679361979166
 20
-2.952446831597221
 30
0.0
 10
1.480536566840277
 20
-2.9705810546875
 30
0.0
 10
1.456393771701388
 20
-2.988715277777777
 30
0.0
 10
1.444322374131944
 20
-3.007392035590277
 30
0.0
 10
1.444322374131944
 20
-3.026624891493055
 30
0.0
 10
1.444322374131944
 20
-3.033610026041666
 30
0.0
 10
1.445529513888888
 20
-3.039347330729166
 30
0.0
 10
1.447930230034722
 20
-3.0438232421875
 30
0.0
 10
1.450330946180555
 20
-3.048312717013888
 30
0.0
 10
1.45361328125
 20
-3.050537109375
 30
0.0
 10
1.457763671875
 20
-3.050537109375
 30
0.0
 10
1.460164388020833
 20
-3.050537109375
 30
0.0
 10
1.464423285590277
 20
-3.049018012152777
 30
0.0
 10
1.470540364583333
 20
-3.045952690972221
 30
0.0
 10
1.493476019965277
 20
-3.032416449652777
 30
0.0
 10
1.514458550347222
 20
-3.0147705078125
 30
0.0
 10
1.533460828993055
 20
-2.993028428819444
 30
0.0
 10
1.552463107638888
 20
-2.971299913194444
 30
0.0
 10
1.575290256076388
 20
-2.941745334201388
 30
0.0
 10
1.60195583767361
 20
-2.904378255208333
 30
0.0
  0
SPLINE
  5
92
330
80
100
AcDbEntity
  8
Text
100
AcDbSpline
210
0.0
220
0.0
230
1.0
 70
     9
 71
     3
 72
    89
 73
    85
 74
     0
 42
0.0000000001
 43
0.0000000001
 40
0.0
 40
0.0
 40
0.0
 40
0.0
 40
1.0
 40
1.0
 40
1.0
 40
2.0
 40
2.0
 40
2.0
 40
3.0
 40
3.0
 40
3.0
 40
4.0
 40
4.0
 40
4.0
 40
5.0
 40
5.0
 40
5.0
 40
6.0
 40
6.0
 40
6.0
 40
7.0
 40
7.0
 40
7.0
 40
8.0
 40
8.0
 40
8.0
 40
9.0
 40
9.0
 40
9.0
 40
10.0
 40
10.0
 40
10.0
 40
11.0
 40
11.0
 40
11.0
 40
12.0
 40
12.0
 40
12.0
 40
13.0
 40
13.0
 40
13.0
 40
14.0
 40
14.0
 40
14.0
 40
15.0
 40
15.0
 40
15.0
 40
16.0
 40
16.0
 40
16.0
 40
17.0
 40
17.0
 40
17.0
 40
18.0
 40
18.0
 40
18.0
 40
19.0
 40
19.0
 40
19.0
 40
20.0
 40
20.0
 40
20.0
 40
21.0
 40
21.0
 40
21.0
 40
22.0
 40
22.0
 40
22.0
 40
23.0
 40
23.0
 40
23.0
 40
24.0
 40
24.0
 40
24.0
 40
25.0
 40
25.0
 40
25.0
 40
26.0
 40
26.0
 40
26.0
 40
27.0
 40
27.0
 40
27.0
 40
28.0
 40
28.0
 40
28.0
 40
28.0
 10
1.44497341579861
 20
-2.9404296875
 30
0.0
 10
1.478190104166666
 20
-2.9102783203125
 30
0.0
 10
1.51040310329861
 20
-2.887885199652777
 30
0.0
 10
1.54165310329861
 20
-2.873250325520833
 30
0.0
 10
1.572889539930555
 20
-2.858615451388888
 30
0.0
 10
1.597032335069444
 20
-2.851291232638888
 30
0.0
 10
1.614081488715277
 20
-2.851291232638888
 30
0.0
 10
1.618665907118055
 20
-2.851291232638888
 30
0.0
 10
1.6229248046875
 20
-2.853203667534721
 30
0.0
 10
1.62685818142361
 20
-2.857028537326388
 30
0.0
 10
1.630791558159722
 20
-2.860853407118055
 30
0.0
 10
1.6339111328125
 20
-2.865275065104166
 30
0.0
 10
1.636203342013888
 20
-2.870307074652777
 30
0.0
 10
1.638495551215277
 20
-2.875325520833333
 30
0.0
 10
1.639634874131944
 20
-2.879041883680555
 30
0.0
 10
1.639634874131944
 20
-2.881442599826388
 30
0.0
 10
1.639634874131944
 20
-2.8853759765625
 30
0.0
 10
1.638115776909722
 20
-2.888278537326388
 30
0.0
 10
1.635050455729166
 20
-2.890123155381944
 30
0.0
 10
1.63198513454861
 20
-2.891981336805555
 30
0.0
 10
1.626641167534722
 20
-2.894219292534721
 30
0.0
 10
1.618991427951388
 20
-2.8968505859375
 30
0.0
 10
1.620524088541666
 20
-2.900349934895833
 30
0.0
 10
1.622490776909722
 20
-2.904825846354166
 30
0.0
 10
1.624891493055555
 20
-2.9102783203125
 30
0.0
 10
1.627292209201388
 20
-2.915744357638888
 30
0.0
 10
1.629150390625
 20
-2.920166015625
 30
0.0
 10
1.630466037326388
 20
-2.923556857638888
 30
0.0
 10
1.631781684027777
 20
-2.926947699652777
 30
0.0
 10
1.632432725694444
 20
-2.929945203993055
 30
0.0
 10
1.632432725694444
 20
-2.932562934027777
 30
0.0
 10
1.632432725694444
 20
-2.937811957465277
 30
0.0
 10
1.627129448784722
 20
-2.947591145833333
 30
0.0
 10
1.616536458333333
 20
-2.961900499131944
 30
0.0
 10
1.605943467881944
 20
-2.976209852430555
 30
0.0
 10
1.5985107421875
 20
-2.986748589409721
 30
0.0
 10
1.594251844618055
 20
-2.993516710069444
 30
0.0
 10
1.58999294704861
 20
-3.000298394097221
 30
0.0
 10
1.587863498263888
 20
-3.008599175347221
 30
0.0
 10
1.587863498263888
 20
-3.0184326171875
 30
0.0
 10
1.587863498263888
 20
-3.034600151909721
 30
0.0
 10
1.595282660590277
 20
-3.042683919270833
 30
0.0
 10
1.610148111979166
 20
-3.042683919270833
 30
0.0
 10
1.625434027777777
 20
-3.042683919270833
 30
0.0
 10
1.649359809027777
 20
-3.028374565972221
 30
0.0
 10
1.68191189236111
 20
-2.999742296006944
 30
0.0
 10
1.68191189236111
 20
-2.999742296006944
 30
0.0
 10
1.68191189236111
 20
-3.019734700520833
 30
0.0
 10
1.68191189236111
 20
-3.019734700520833
 30
0.0
 10
1.626641167534722
 20
-3.081136067708333
 30
0.0
 10
1.587090386284722
 20
-3.111829969618055
 30
0.0
 10
1.563286675347222
 20
-3.111829969618055
 30
0.0
 10
1.554768880208333
 20
-3.111829969618055
 30
0.0
 10
1.5487060546875
 20
-3.109035915798611
 30
0.0
 10
1.545098198784722
 20
-3.103474934895833
 30
0.0
 10
1.541490342881944
 20
-3.097900390625
 30
0.0
 10
1.539686414930555
 20
-3.089653862847221
 30
0.0
 10
1.539686414930555
 20
-3.078721788194444
 30
0.0
 10
1.539686414930555
 20
-3.061469184027777
 30
0.0
 10
1.545912000868055
 20
-3.036458333333333
 30
0.0
 10
1.558363172743055
 20
-3.003675672743055
 30
0.0
 10
1.526462131076388
 20
-3.039076063368055
 30
0.0
 10
1.502766927083333
 20
-3.064249674479166
 30
0.0
 10
1.487250434027777
 20
-3.0792236328125
 30
0.0
 10
1.471733940972222
 20
-3.094184027777777
 30
0.0
 10
1.458957248263888
 20
-3.101671006944444
 30
0.0
 10
1.448906792534722
 20
-3.101671006944444
 30
0.0
 10
1.444105360243055
 20
-3.101671006944444
 30
0.0
 10
1.438096788194444
 20
-3.097520616319444
 30
0.0
 10
1.430894639756944
 20
-3.089219835069444
 30
0.0
 10
1.423678927951388
 20
-3.080919053819444
 30
0.0
 10
1.417290581597222
 20
-3.070149739583333
 30
0.0
 10
1.411716037326388
 20
-3.056939019097221
 30
0.0
 10
1.406141493055555
 20
-3.043714735243055
 30
0.0
 10
1.403361002604166
 20
-3.030015733506944
 30
0.0
 10
1.403361002604166
 20
-3.015801323784721
 30
0.0
 10
1.403361002604166
 20
-3.005533854166666
 30
0.0
 10
1.404337565104166
 20
-2.996961805555555
 30
0.0
 10
1.406304253472222
 20
-2.990085177951388
 30
0.0
 10
1.408270941840277
 20
-2.983194986979166
 30
0.0
 10
1.412095811631944
 20
-2.976155598958333
 30
0.0
 10
1.417778862847222
 20
-2.968939887152777
 30
0.0
 10
1.4234619140625
 20
-2.961737738715277
 30
0.0
 10
1.43252224392361
 20
-2.952229817708333
 30
0.0
 10
1.44497341579861
 20
-2.9404296875
 30
0.0
  0
HATCH
  5
93
330
80
100
AcDbEntity
  8
Text
 62
     6
420
 16711935
440
 33554687
100
AcDbHatch
 10
0.0
 20
0.0
 30
0.0
210
0.0
220
0.0
230
1.0
  2
SOLID
 70
     1
 71
     1
 91
        2
 92
        1
 93
        1
 72
     4
 94
        3
 73
     0
 74
     0
 95
       26
 96
       22
 40
0.0
 40
0.0
 40
0.0
 40
0.0
 40
1.0
 40
1.0
 40
1.0
 40
2.0
 40
2.0
 40
2.0
 40
3.0
 40
3.0
 40
3.0
 40
4.0
 40
4.0
 40
4.0
 40
5.0
 40
5.0
 40
5.0
 40
6.0
 40
6.0
 40
6.0
 40
7.0
 40
7.0
 40
7.0
 40
7.0
 10
1.60195583767361
 20
-2.904378255208333
 10
1.545152452256944
 20
-2.930392795138888
 10
1.504679361979166
 20
-2.952446831597221
 10
1.480536566840277
 20
-2.9705810546875
 10
1.456393771701388
 20
-2.988715277777777
 10
1.444322374131944
 20
-3.007392035590277
 10
1.444322374131944
 20
-3.026624891493055
 10
1.444322374131944
 20
-3.033610026041666
 10
1.445529513888888
 20
-3.039347330729166
 10
1.447930230034722
 20
-3.0438232421875
 10
1.450330946180555
 20
-3.048312717013888
 10
1.45361328125
 20
-3.050537109375
 10
1.457763671875
 20
-3.050537109375
 10
1.460164388020833
 20
-3.050537109375
 10
1.464423285590277
 20
-3.049018012152777
 10
1.470540364583333
 20
-3.045952690972221
 10
1.493476019965277
 20
-3.032416449652777
 10
1.514458550347222
 20
-3.0147705078125
 10
1.533460828993055
 20
-2.993028428819444
 10
1.552463107638888
 20
-2.971299913194444
 10
1.575290256076388
 20
-2.941745334201388
 10
1.60195583767361
 20
-2.904378255208333
 97
        0
 97
        1
330
91
 92
        1
 93
        1
 72
     4
 94
        3
 73
     0
 74
     0
 95
       89
 96
       85
 40
0.0
 40
0.0
 40
0.0
 40
0.0
 40
1.0
 40
1.0
 40
1.0
 40
2.0
 40
2.0
 40
2.0
 40
3.0
 40
3.0
 40
3.0
 40
4.0
 40
4.0
 40
4.0
 40
5.0
 40
5.0
 40
5.0
 40
6.0
 40
6.0
 40
6.0
 40
7.0
 40
7.0
 40
7.0
 40
8.0
 40
8.0
 40
8.0
 40
9.0
 40
9.0
 40
9.0
 40
10.0
 40
10.0
 40
10.0
 40
11.0
 40
11.0
 40
11.0
 40
12.0
 40
12.0
 40
12.0
 40
13.0
 40
13.0
 40
13.0
 40
14.0
 40
14.0
 40
14.0
 40
15.0
 40
15.0
 40
15.0
 40
16.0
 40
16.0
 40
16.0
 40
17.0
 40
17.0
 40
17.0
 40
18.0
 40
18.0
 40
18.0
 40
19.0
 40
19.0
 40
19.0
 40
20.0
 40
20.0
 40
20.0
 40
21.0
 40
21.0
 40
21.0
 40
22.0
 40
22.0
 40
22.0
 40
23.0
 40
23.0
 40
23.0
 40
24.0
 40
24.0
 40
24.0
 40
25.0
 40
25.0
 40
25.0
 40
26.0
 40
26.0
 40
26.0
 40
27.0
 40
27.0
 40
27.0
 40
28.0
 40
28.0
 40
28.0
 40
28.0
 10
1.44497341579861
 20
-2.9404296875
 10
1.478190104166666
 20
-2.9102783203125
 10
1.51040310329861
 20
-2.887885199652777
 10
1.54165310329861
 20
-2.873250325520833
 10
1.572889539930555
 20
-2.858615451388888
 10
1.597032335069444
 20
-2.851291232638888
 10
1.614081488715277
 20
-2.851291232638888
 10
1.618665907118055
 20
-2.851291232638888
 10
1.6229248046875
 20
-2.853203667534721
 10
1.62685818142361
 20
-2.857028537326388
 10
1.630791558159722
 20
-2.860853407118055
 10
1.6339111328125
 20
-2.865275065104166
 10
1.636203342013888
 20
-2.870307074652777
 10
1.638495551215277
 20
-2.875325520833333
 10
1.639634874131944
 20
-2.879041883680555
 10
1.639634874131944
 20
-2.881442599826388
 10
1.639634874131944
 20
-2.8853759765625
 10
1.638115776909722
 20
-2.888278537326388
 10
1.635050455729166
 20
-2.890123155381944
 10
1.63198513454861
 20
-2.891981336805555
 10
1.626641167534722
 20
-2.894219292534721
 10
1.618991427951388
 20
-2.8968505859375
 10
1.620524088541666
 20
-2.900349934895833
 10
1.622490776909722
 20
-2.904825846354166
 10
1.624891493055555
 20
-2.9102783203125
 10
1.627292209201388
 20
-2.915744357638888
 10
1.629150390625
 20
-2.920166015625
 10
1.630466037326388
 20
-2.923556857638888
 10
1.631781684027777
 20
-2.926947699652777
 10
1.632432725694444
 20
-2.929945203993055
 10
1.632432725694444
 20
-2.932562934027777
 10
1.632432725694444
 20
-2.937811957465277
 10
1.627129448784722
 20
-2.947591145833333
 10
1.616536458333333
 20
-2.961900499131944
 10
1.605943467881944
 20
-2.976209852430555
 10
1.5985107421875
 20
-2.986748589409721
 10
1.594251844618055
 20
-2.993516710069444
 10
1.58999294704861
 20
-3.000298394097221
 10
1.587863498263888
 20
-3.008599175347221
 10
1.587863498263888
 20
-3.0184326171875
 10
1.587863498263888
 20
-3.034600151909721
 10
1.595282660590277
 20
-3.042683919270833
 10
1.610148111979166
 20
-3.042683919270833
 10
1.625434027777777
 20
-3.042683919270833
 10
1.649359809027777
 20
-3.028374565972221
 10
1.68191189236111
 20
-2.999742296006944
 10
1.68191189236111
 20
-2.999742296006944
 10
1.68191189236111
 20
-3.019734700520833
 10
1.68191189236111
 20
-3.019734700520833
 10
1.626641167534722
 20
-3.081136067708333
 10
1.587090386284722
 20
-3.111829969618055
 10
1.563286675347222
 20
-3.111829969618055
 10
1.554768880208333
 20
-3.111829969618055
 10
1.5487060546875
 20
-3.109035915798611
 10
1.545098198784722
 20
-3.103474934895833
 10
1.541490342881944
 20
-3.097900390625
 10
1.539686414930555
 20
-3.089653862847221
 10
1.539686414930555
 20
-3.078721788194444
 10
1.539686414930555
 20
-3.061469184027777
 10
1.545912000868055
 20
-3.036458333333333
 10
1.558363172743055
 20
-3.003675672743055
 10
1.526462131076388
 20
-3.039076063368055
 10
1.502766927083333
 20
-3.064249674479166
 10
1.487250434027777
 20
-3.0792236328125
 10
1.471733940972222
 20
-3.094184027777777
 10
1.458957248263888
 20
-3.101671006944444
 10
1.448906792534722
 20
-3.101671006944444
 10
1.444105360243055
 20
-3.101671006944444
 10
1.438096788194444
 20
-3.097520616319444
 10
1.430894639756944
 20
-3.089219835069444
 10
1.423678927951388
 20
-3.080919053819444
 10
1.417290581597222
 20
-3.070149739583333
 10
1.411716037326388
 20
-3.056939019097221
 10
1.406141493055555
 20
-3.043714735243055
 10
1.403361002604166
 20
-3.030015733506944
 10
1.403361002604166
 20
-3.015801323784721
 10
1.403361002604166
 20
-3.005533854166666
 10
1.404337565104166
 20
-2.996961805555555
 10
1.406304253472222
 20
-2.990085177951388
 10
1.408270941840277
 20
-2.983194986979166
 10
1.412095811631944
 20
-2.976155598958333
 10
1.417778862847222
 20
-2.968939887152777
 10
1.4234619140625
 20
-2.961737738715277
 10
1.43252224392361
 20
-2.952229817708333
 10
1.44497341579861
 20
-2.9404296875
 97
        0
 97
        1
330
92
 75
     2
 76
     1
 98
        1
 10
0.0
 20
0.0
450
        0
451
        0
460
0.0
461
0.0
452
        0
462
0.0
453
        0
470

  0
ENDBLK
  5
83
330
80
100
AcDbEntity
  8
0
100
AcDbBlockEnd
  0
ENDSEC
  0
SECTION
  2
ENTITIES
  0
LWPOLYLINE
  5
79
330
70
100
AcDbEntity
  8
White
 62
    18
420
        0
370
    70
100
AcDbPolyline
 90
        4
 70
     1
 43
0.0
 10
2.188825459317361
 20
-3.278872554494783
 10
-0.271174540682662
 20
-3.278872554494783
 10
-0.271174540682662
 20
0.2211274455052161
 10
2.188825459317361
 20
0.2211274455052161
  0
HATCH
  5
7A
330
70
100
AcDbEntity
  8
White
 62
     7
420
 16053492
440
 33554687
100
AcDbHatch
 10
0.0
 20
0.0
 30
0.0
210
0.0
220
0.0
230
1.0
  2
SOLID
 70
     1
 71
     1
 91
        1
 92
        1
 93
        4
 72
     1
 10
2.188825459317361
 20
-3.278872554494783
 11
-0.271174540682662
 21
-3.278872554494783
 72
     1
 10
-0.271174540682662
 20
-3.278872554494783
 11
-0.271174540682662
 21
0.2211274455052159
 72
     1
 10
-0.271174540682662
 20
0.2211274455052161
 11
2.188825459317361
 21
0.2211274455052161
 72
     1
 10
2.188825459317361
 20
0.2211274455052161
 11
2.188825459317361
 21
-3.278872554494783
 97
        1
330
79
 75
     2
 76
     1
 98
        1
 10
0.0
 20
0.0
450
        0
451
        0
460
0.0
461
0.0
452
        0
462
0.0
453
        0
470

  0
LWPOLYLINE
  5
7B
330
70
100
AcDbEntity
  8
White
 62
    18
420
        0
370
    70
100
AcDbPolyline
 90
        4
 70
     1
 43
0.0
 10
2.038996062992004
 20
-2.57128390201251
 10
-0.1213451443572922
 20
-2.57128390201251
 10
-0.1213451443572922
 20
-0.1412839020125223
 10
2.038996062992004
 20
-0.1412839020125223
  0
HATCH
  5
7C
330
70
100
AcDbEntity
  8
White
 62
   254
420
 14540253
440
 33554687
100
AcDbHatch
 10
0.0
 20
0.0
 30
0.0
210
0.0
220
0.0
230
1.0
  2
SOLID
 70
     1
 71
     1
 91
        1
 92
        1
 93
        4
 72
     1
 10
2.038996062992004
 20
-2.57128390201251
 11
-0.1213451443572922
 21
-2.57128390201251
 72
     1
 10
-0.1213451443572922
 20
-2.57128390201251
 11
-0.1213451443572922
 21
-0.1412839020125225
 72
     1
 10
-0.1213451443572922
 20
-0.1412839020125223
 11
2.038996062992004
 21
-0.1412839020125223
 72
     1
 10
2.038996062992004
 20
-0.1412839020125223
 11
2.038996062992004
 21
-2.57128390201251
 97
        1
330
7B
 75
     2
 76
     1
 98
        1
 10
0.0
 20
0.0
450
        0
451
        0
460
0.0
461
0.0
452
        0
462
0.0
453
        0
470

  0
SPLINE
  5
7E
330
70
100
AcDbEntity
  8
Text
100
AcDbSpline
210
0.0
220
0.0
230
1.0
 70
     9
 71
     3
 72
   296
 73
   292
 74
     0
 42
0.0000000001
 43
0.0000000001
 40
0.0
 40
0.0
 40
0.0
 40
0.0
 40
1.0
 40
1.0
 40
1.0
 40
2.0
 40
2.0
 40
2.0
 40
3.0
 40
3.0
 40
3.0
 40
4.0
 40
4.0
 40
4.0
 40
5.0
 40
5.0
 40
5.0
 40
6.0
 40
6.0
 40
6.0
 40
7.0
 40
7.0
 40
7.0
 40
8.0
 40
8.0
 40
8.0
 40
9.0
 40
9.0
 40
9.0
 40
10.0
 40
10.0
 40
10.0
 40
11.0
 40
11.0
 40
11.0
 40
12.0
 40
12.0
 40
12.0
 40
13.0
 40
13.0
 40
13.0
 40
14.0
 40
14.0
 40
14.0
 40
15.0
 40
15.0
 40
15.0
 40
16.0
 40
16.0
 40
16.0
 40
17.0
 40
17.0
 40
17.0
 40
18.0
 40
18.0
 40
18.0
 40
19.0
 40
19.0
 40
19.0
 40
20.0
 40
20.0
 40
20.0
 40
21.0
 40
21.0
 40
21.0
 40
22.0
 40
22.0
 40
22.0
 40
23.0
 40
23.0
 40
23.0
 40
24.0
 40
24.0
 40
24.0
 40
25.0
 40
25.0
 40
25.0
 40
26.0
 40
26.0
 40
26.0
 40
27.0
 40
27.0
 40
27.0
 40
28.0
 40
28.0
 40
28.0
 40
29.0
 40
29.0
 40
29.0
 40
30.0
 40
30.0
 40
30.0
 40
31.0
 40
31.0
 40
31.0
 40
32.0
 40
32.0
 40
32.0
 40
33.0
 40
33.0
 40
33.0
 40
34.0
 40
34.0
 40
34.0
 40
35.0
 40
35.0
 40
35.0
 40
36.0
 40
36.0
 40
36.0
 40
37.0
 40
37.0
 40
37.0
 40
38.0
 40
38.0
 40
38.0
 40
39.0
 40
39.0
 40
39.0
 40
40.0
 40
40.0
 40
40.0
 40
41.0
 40
41.0
 40
41.0
 40
42.0
 40
42.0
 40
42.0
 40
43.0
 40
43.0
 40
43.0
 40
44.0
 40
44.0
 40
44.0
 40
45.0
 40
45.0
 40
45.0
 40
46.0
 40
46.0
 40
46.0
 40
47.0
 40
47.0
 40
47.0
 40
48.0
 40
48.0
 40
48.0
 40
49.0
 40
49.0
 40
49.0
 40
50.0
 40
50.0
 40
50.0
 40
51.0
 40
51.0
 40
51.0
 40
52.0
 40
52.0
 40
52.0
 40
53.0
 40
53.0
 40
53.0
 40
54.0
 40
54.0
 40
54.0
 40
55.0
 40
55.0
 40
55.0
 40
56.0
 40
56.0
 40
56.0
 40
57.0
 40
57.0
 40
57.0
 40
58.0
 40
58.0
 40
58.0
 40
59.0
 40
59.0
 40
59.0
 40
60.0
 40
60.0
 40
60.0
 40
61.0
 40
61.0
 40
61.0
 40
62.0
 40
62.0
 40
62.0
 40
63.0
 40
63.0
 40
63.0
 40
64.0
 40
64.0
 40
64.0
 40
65.0
 40
65.0
 40
65.0
 40
66.0
 40
66.0
 40
66.0
 40
67.0
 40
67.0
 40
67.0
 40
68.0
 40
68.0
 40
68.0
 40
69.0
 40
69.0
 40
69.0
 40
70.0
 40
70.0
 40
70.0
 40
71.0
 40
71.0
 40
71.0
 40
72.0
 40
72.0
 40
72.0
 40
73.0
 40
73.0
 40
73.0
 40
74.0
 40
74.0
 40
74.0
 40
75.0
 40
75.0
 40
75.0
 40
76.0
 40
76.0
 40
76.0
 40
77.0
 40
77.0
 40
77.0
 40
78.0
 40
78.0
 40
78.0
 40
79.0
 40
79.0
 40
79.0
 40
80.0
 40
80.0
 40
80.0
 40
81.0
 40
81.0
 40
81.0
 40
82.0
 40
82.0
 40
82.0
 40
83.0
 40
83.0
 40
83.0
 40
84.0
 40
84.0
 40
84.0
 40
85.0
 40
85.0
 40
85.0
 40
86.0
 40
86.0
 40
86.0
 40
87.0
 40
87.0
 40
87.0
 40
88.0
 40
88.0
 40
88.0
 40
89.0
 40
89.0
 40
89.0
 40
90.0
 40
90.0
 40
90.0
 40
91.0
 40
91.0
 40
91.0
 40
92.0
 40
92.0
 40
92.0
 40
93.0
 40
93.0
 40
93.0
 40
94.0
 40
94.0
 40
94.0
 40
95.0
 40
95.0
 40
95.0
 40
96.0
 40
96.0
 40
96.0
 40
97.0
 40
97.0
 40
97.0
 40
97.0
 10
1.030601996361838
 20
-3.214602680863284
 30
0.0
 10
1.000857140570234
 20
-3.214325966218034
 30
0.0
 10
0.9790348380855295
 20
-3.213129419645813
 30
0.0
 10
0.9572226290235144
 20
-3.211511717439331
 30
0.0
 10
0.9286788905324605
 20
-3.209394785879516
 30
0.0
 10
0.9004427018570721
 20
-3.204903104351261
 30
0.0
 10
0.8728241016022668
 20
-3.19777673438034
 30
0.0
 10
0.8547930085118826
 20
-3.193124112222347
 30
0.0
 10
0.8368146869694202
 20
-3.18756603771246
 30
0.0
 10
0.8199782126746161
 20
-3.178975624200499
 30
0.0
 10
0.8071385263674276
 20
-3.1724246215899
 30
0.0
 10
0.7943245575482049
 20
-3.165805131643714
 30
0.0
 10
0.7844231633734024
 20
-3.155231442879564
 30
0.0
 10
0.7780959008720553
 20
-3.148474425201634
 30
0.0
 10
0.7733927346062552
 20
-3.140280832658264
 30
0.0
 10
0.7733926654732386
 20
-3.13037579413948
 30
0.0
 10
0.7733926424288661
 20
-3.126286095478614
 30
0.0
 10
0.7750540474574893
 20
-3.122962477902547
 30
0.0
 10
0.7776705483695676
 20
-3.11980874210235
 30
0.0
 10
0.7844612095854649
 20
-3.111623629821274
 30
0.0
 10
0.7934018620124636
 20
-3.106729320188277
 30
0.0
 10
0.8028525088176239
 20
-3.102455267999605
 30
0.0
 10
0.8054628108011709
 20
-3.101274668007514
 30
0.0
 10
0.807727032825773
 20
-3.099313699532255
 30
0.0
 10
0.8103548024221002
 20
-3.098189235189389
 30
0.0
 10
0.8251118472872398
 20
-3.09187503468527
 30
0.0
 10
0.840203035141106
 20
-3.086499377991155
 30
0.0
 10
0.8557484270161996
 20
-3.082432815698034
 30
0.0
 10
0.8590275449970855
 20
-3.081574926556413
 30
0.0
 10
0.8622404335331895
 20
-3.080461707778719
 30
0.0
 10
0.8654762742359404
 20
-3.079441956239684
 30
0.0
 10
0.8666287218818776
 20
-3.0790787797899
 30
0.0
 10
0.8682366179435929
 20
-3.079220639829524
 30
0.0
 10
0.8685635710969815
 20
-3.077715485451764
 30
0.0
 10
0.8688779881271733
 20
-3.0762679415514
 30
0.0
 10
0.8675493895153369
 20
-3.075464160170187
 30
0.0
 10
0.8665747981167946
 20
-3.074764538532159
 30
0.0
 10
0.8613695416828603
 20
-3.071027231639694
 30
0.0
 10
0.85626789261975
 20
-3.067105479042664
 30
0.0
 10
0.8508093788447391
 20
-3.063773289027544
 30
0.0
 10
0.8460723373932017
 20
-3.060881427413606
 30
0.0
 10
0.8415401140715504
 20
-3.057752302809376
 30
0.0
 10
0.8370540255267162
 20
-3.054506758952331
 30
0.0
 10
0.8210570566856302
 20
-3.042933228830154
 30
0.0
 10
0.8049274906888967
 20
-3.031535479796755
 30
0.0
 10
0.7896302863992383
 20
-3.019033360954987
 30
0.0
 10
0.7855609087278532
 20
-3.015707531136588
 30
0.0
 10
0.781254865643051
 20
-3.012585227612867
 30
0.0
 10
0.7781068699798146
 20
-3.008246098628887
 30
0.0
 10
0.7776699261722923
 20
-3.007643907830318
 30
0.0
 10
0.7771163779838794
 20
-3.007086330585454
 30
0.0
 10
0.776513952741728
 20
-3.006650150138663
 30
0.0
 10
0.7621333372366178
 20
-2.996238415948735
 30
0.0
 10
0.749339601351494
 20
-2.983932587525714
 30
0.0
 10
0.7357922232385034
 20
-2.972527648704701
 30
0.0
 10
0.7248262034130068
 20
-2.963295915357876
 30
0.0
 10
0.7145300826689688
 20
-2.953319992907659
 30
0.0
 10
0.7040997286208545
 20
-2.943497959564789
 30
0.0
 10
0.7030269452723385
 20
-2.942487748320773
 30
0.0
 10
0.7022308323184411
 20
-2.941121919121643
 30
0.0
 10
0.7015120331388466
 20
-2.939808538501185
 30
0.0
 10
0.6987331617785913
 20
-2.93473088928479
 30
0.0
 10
0.6933296548527829
 20
-2.932510996279713
 30
0.0
 10
0.689430782283024
 20
-2.928625423062486
 30
0.0
 10
0.679714526368318
 20
-2.918942530544755
 30
0.0
 10
0.6707883457893837
 20
-2.908618640810775
 30
0.0
 10
0.6620543319954777
 20
-2.898048178233415
 30
0.0
 10
0.6461304367693527
 20
-2.878776044790027
 30
0.0
 10
0.6342448323945165
 20
-2.857116394896365
 30
0.0
 10
0.623304230480446
 20
-2.83484902359833
 30
0.0
 10
0.6190827947048598
 20
-2.826257181346489
 30
0.0
 10
0.6159977677117342
 20
-2.817199062934453
 30
0.0
 10
0.6128782548577317
 20
-2.808150484817512
 30
0.0
 10
0.6083253607594845
 20
-2.794944273764687
 30
0.0
 10
0.6034043447872238
 20
-2.781811573681074
 30
0.0
 10
0.6017927385861287
 20
-2.767863385767213
 30
0.0
 10
0.5997977551552241
 20
-2.750597156971505
 30
0.0
 10
0.5992173257394723
 20
-2.73335000876591
 30
0.0
 10
0.6044388399581445
 20
-2.716361047675996
 30
0.0
 10
0.6101734710635912
 20
-2.697702581038305
 30
0.0
 10
0.6195878230269046
 20
-2.681090023763822
 30
0.0
 10
0.6321580287747616
 20
-2.666333491718887
 30
0.0
 10
0.6354822214926167
 20
-2.662431096242269
 30
0.0
 10
0.6394652059181377
 20
-2.658833898030959
 30
0.0
 10
0.6442309145336873
 20
-2.656226770440702
 30
0.0
 10
0.6506271257124656
 20
-2.652727740482911
 30
0.0
 10
0.6560974151473147
 20
-2.647847349541305
 30
0.0
 10
0.6617163406012879
 20
-2.64319772312812
 30
0.0
 10
0.666341501762468
 20
-2.639370405625691
 30
0.0
 10
0.6713164760663201
 20
-2.635935945491028
 30
0.0
 10
0.6763278834781027
 20
-2.632616383692594
 30
0.0
 10
0.6793711425976249
 20
-2.630600570042765
 30
0.0
 10
0.6822490355043051
 20
-2.628337492223787
 30
0.0
 10
0.6853380606911135
 20
-2.626429940183192
 30
0.0
 10
0.6909331813376917
 20
-2.622974832453438
 30
0.0
 10
0.6927063053462411
 20
-2.617919628279044
 30
0.0
 10
0.692603412350056
 20
-2.611701107255839
 30
0.0
 10
0.6924140800193629
 20
-2.600254089742116
 30
0.0
 10
0.6921308650309786
 20
-2.588752342274801
 30
0.0
 10
0.6948713445140635
 20
-2.57753592798018
 30
0.0
 10
0.6972509034806333
 20
-2.567796600238731
 30
0.0
 10
0.700515849189944
 20
-2.558358137454661
 30
0.0
 10
0.7044548189183439
 20
-2.549067572288221
 30
0.0
 10
0.7083247017032793
 20
-2.53993995259624
 30
0.0
 10
0.7140108475088406
 20
-2.531975142780866
 30
0.0
 10
0.7186375065523913
 20
-2.523358481935373
 30
0.0
 10
0.7203386169857772
 20
-2.520190366560023
 30
0.0
 10
0.7226976203974624
 20
-2.517594645844281
 30
0.0
 10
0.7250195915482638
 20
-2.514992864506363
 30
0.0
 10
0.7305223274195467
 20
-2.508826976415321
 30
0.0
 10
0.7357398204001381
 20
-2.502239771380699
 30
0.0
 10
0.7417609157464792
 20
-2.496745575368246
 30
0.0
 10
0.7486305729737524
 20
-2.490477071494777
 30
0.0
 10
0.75595512555257
 20
-2.484380315976699
 30
0.0
 10
0.7644526352434898
 20
-2.480052547778844
 30
0.0
 10
0.7744168713445308
 20
-2.474977709953766
 30
0.0
 10
0.7844686298642248
 20
-2.470202308346213
 30
0.0
 10
0.7951853790201918
 20
-2.466848641145134
 30
0.0
 10
0.8056168391967982
 20
-2.463584247139856
 30
0.0
 10
0.815909918087401
 20
-2.460333725737579
 30
0.0
 10
0.8270491852914952
 20
-2.45981009258604
 30
0.0
 10
0.8344286294978296
 20
-2.459463208379272
 30
0.0
 10
0.8418816312503924
 20
-2.45900280848779
 30
0.0
 10
0.8492379389353017
 20
-2.458843596172326
 30
0.0
 10
0.8584523120809231
 20
-2.458644148699401
 30
0.0
 10
0.8678688302125515
 20
-2.458933560693897
 30
0.0
 10
0.8768972355017265
 20
-2.461612493983188
 30
0.0
 10
0.8796535234048153
 20
-2.462430378409332
 30
0.0
 10
0.8814368791021378
 20
-2.461833649084003
 30
0.0
 10
0.883406110478543
 20
-2.459534599282935
 30
0.0
 10
0.8877895134262921
 20
-2.454416991439377
 30
0.0
 10
0.8898670071310636
 20
-2.447953971549925
 30
0.0
 10
0.8940657327056113
 20
-2.442696278069433
 30
0.0
 10
0.8990447858583491
 20
-2.436461487847408
 30
0.0
 10
0.904171691522505
 20
-2.430461656196535
 30
0.0
 10
0.9107838973380541
 20
-2.425992719284775
 30
0.0
 10
0.9148863897318429
 20
-2.42321997309399
 30
0.0
 10
0.9184882667954955
 20
-2.419973922264742
 30
0.0
 10
0.9219041760026508
 20
-2.416463231946333
 30
0.0
 10
0.9235033152136667
 20
-2.414819720245936
 30
0.0
 10
0.9252662536221375
 20
-2.413425293205818
 30
0.0
 10
0.9273621828021481
 20
-2.412492418266714
 30
0.0
 10
0.9313221689723276
 20
-2.410729837231555
 30
0.0
 10
0.9345777356336132
 20
-2.408094388330583
 30
0.0
 10
0.9376478414139658
 20
-2.405032633418664
 30
0.0
 10
0.9411955642690877
 20
-2.401494589645608
 30
0.0
 10
0.9461930068083953
 20
-2.400308804710549
 30
0.0
 10
0.9505878397507988
 20
-2.398206102938653
 30
0.0
 10
0.9652536290135078
 20
-2.391189354184234
 30
0.0
 10
0.9808029384270815
 20
-2.386835914757663
 30
0.0
 10
0.9969639829977898
 20
-2.385742732904039
 30
0.0
 10
1.006256614735826
 20
-2.385114156506789
 30
0.0
 10
1.015632666999307
 20
-2.383610626744484
 30
0.0
 10
1.025097993051657
 20
-2.385718513459323
 30
0.0
 10
1.031180409397494
 20
-2.387073027960695
 30
0.0
 10
1.037624621944915
 20
-2.38559240412423
 30
0.0
 10
1.043880101314597
 20
-2.386807017342157
 30
0.0
 10
1.053557389243501
 20
-2.388686006108046
 30
0.0
 10
1.063100098203145
 20
-2.391206510584424
 30
0.0
 10
1.071852616605307
 20
-2.39562850647917
 30
0.0
 10
1.083176745537406
 20
-2.401349756905321
 30
0.0
 10
1.09492779398733
 20
-2.406261038584943
 30
0.0
 10
1.104882121020384
 20
-2.414665393298971
 30
0.0
 10
1.111348041339927
 20
-2.420124516052763
 30
0.0
 10
1.118329878434047
 20
-2.425114459078308
 30
0.0
 10
1.124690301746492
 20
-2.430703850643693
 30
0.0
 10
1.131101791325363
 20
-2.436338063160544
 30
0.0
 10
1.13553391001642
 20
-2.443836550727306
 30
0.0
 10
1.139764068076247
 20
-2.451246295114641
 30
0.0
 10
1.141839718233465
 20
-2.454882138434236
 30
0.0
 10
1.1447628010988
 20
-2.457832808823543
 30
0.0
 10
1.146943625642304
 20
-2.461352947260239
 30
0.0
 10
1.14767016772147
 20
-2.462525573962238
 30
0.0
 10
1.149041951434103
 20
-2.462801597281743
 30
0.0
 10
1.150331098128895
 20
-2.462331334476503
 30
0.0
 10
1.158875664370397
 20
-2.459214584602831
 30
0.0
 10
1.167899045992574
 20
-2.459386862974547
 30
0.0
 10
1.176746184471388
 20
-2.458757410898063
 30
0.0
 10
1.19471975887902
 20
-2.457478573519867
 30
0.0
 10
1.212410487007723
 20
-2.459205459103208
 30
0.0
 10
1.229522848189541
 20
-2.46532512054715
 30
0.0
 10
1.236858784674293
 20
-2.467948540380398
 30
0.0
 10
1.244504805852607
 20
-2.469816802075405
 30
0.0
 10
1.251419768260247
 20
-2.473467393677209
 30
0.0
 10
1.263345492838096
 20
-2.479763274049547
 30
0.0
 10
1.275812206436815
 20
-2.485245694480429
 30
0.0
 10
1.285115300307047
 20
-2.495621825395295
 30
0.0
 10
1.289141700276811
 20
-2.500112539067534
 30
0.0
 10
1.293620045922024
 20
-2.504197997597252
 30
0.0
 10
1.297892836018339
 20
-2.50846774052219
 30
0.0
 10
1.301173521014637
 20
-2.511746099307199
 30
0.0
 10
1.30422569829534
 20
-2.515088290501175
 30
0.0
 10
1.306626365881028
 20
-2.519212509360158
 30
0.0
 10
1.309551246205197
 20
-2.524237525644341
 30
0.0
 10
1.313521602330183
 20
-2.528603478066618
 30
0.0
 10
1.316689554395401
 20
-2.533589941419298
 30
0.0
 10
1.323081225838399
 20
-2.543650735624901
 30
0.0
 10
1.325941397644429
 20
-2.554945016240809
 30
0.0
 10
1.329918482717908
 20
-2.565885845055567
 30
0.0
 10
1.334932102386776
 20
-2.579678392503587
 30
0.0
 10
1.336359745589308
 20
-2.593912005766873
 30
0.0
 10
1.336025233891076
 20
-2.608456162547781
 30
0.0
 10
1.335947620540334
 20
-2.6118278503062
 30
0.0
 10
1.336411825806862
 20
-2.615230186838642
 30
0.0
 10
1.336844137701215
 20
-2.618590444678349
 30
0.0
 10
1.337305577646475
 20
-2.62217630514773
 30
0.0
 10
1.339987754939102
 20
-2.624372140017435
 30
0.0
 10
1.342724409061045
 20
-2.626077456238034
 30
0.0
 10
1.351488080925769
 20
-2.631538791234182
 30
0.0
 10
1.359408237620906
 20
-2.638041585397255
 30
0.0
 10
1.367477537310706
 20
-2.644450359261175
 30
0.0
 10
1.37699365309734
 20
-2.65200816257551
 30
0.0
 10
1.387626682151322
 20
-2.658145291516221
 30
0.0
 10
1.396657760584427
 20
-2.66641032105162
 30
0.0
 10
1.402025064845727
 20
-2.6713224208
 30
0.0
 10
1.406398696991598
 20
-2.676831503359835
 30
0.0
 10
1.408511771163577
 20
-2.683974142529601
 30
0.0
 10
1.409210383497793
 20
-2.686335526867272
 30
0.0
 10
1.410521791028966
 20
-2.688535694044882
 30
0.0
 10
1.411697144752856
 20
-2.690732496770604
 30
0.0
 10
1.417727665235917
 20
-2.702004055814237
 30
0.0
 10
1.42245323060413
 20
-2.713892185231618
 30
0.0
 10
1.425738524469226
 20
-2.726142661507916
 30
0.0
 10
1.427956219963157
 20
-2.734412299881518
 30
0.0
 10
1.428044894599073
 20
-2.743284082965298
 30
0.0
 10
1.428784525865669
 20
-2.751912335038873
 30
0.0
 10
1.43021235342303
 20
-2.768566049238441
 30
0.0
 10
1.427687430734143
 20
-2.784955999628108
 30
0.0
 10
1.425145270875974
 20
-2.801336225369191
 30
0.0
 10
1.424820345624892
 20
-2.803429790119328
 30
0.0
 10
1.424866987377249
 20
-2.805581656672655
 30
0.0
 10
1.424752963962873
 20
-2.807707160671498
 30
0.0
 10
1.42451993955587
 20
-2.812050668051799
 30
0.0
 10
1.423311678508626
 20
-2.816079668313629
 30
0.0
 10
1.421110759297132
 20
-2.819852324995054
 30
0.0
 10
1.418749359273685
 20
-2.82390035975863
 30
0.0
 10
1.417403753935963
 20
-2.828291660790985
 30
0.0
 10
1.416332007582898
 20
-2.832882201898529
 30
0.0
 10
1.413137047546469
 20
-2.84656759385848
 30
0.0
 10
1.406974344705961
 20
-2.859122576074342
 30
0.0
 10
1.400386704161165
 20
-2.871401120175227
 30
0.0
 10
1.39180231729319
 20
-2.88740097850008
 30
0.0
 10
1.38139355579541
 20
-2.902235768617553
 30
0.0
 10
1.369438703166704
 20
-2.915898853800652
 30
0.0
 10
1.361664186726001
 20
-2.924784279045499
 30
0.0
 10
1.353617747025459
 20
-2.933432441300055
 30
0.0
 10
1.345429169810864
 20
-2.941963907771524
 30
0.0
 10
1.331207952033562
 20
-2.956780631243266
 30
0.0
 10
1.315841706889134
 20
-2.970274756418146
 30
0.0
 10
1.30009928587242
 20
-2.983375701606594
 30
0.0
 10
1.275060684288695
 20
-3.004212904324326
 30
0.0
 10
1.249239312426299
 20
-3.023960854222978
 30
0.0
 10
1.221903742805049
 20
-3.041791343078936
 30
0.0
 10
1.20748397495946
 20
-3.051196967890872
 30
0.0
 10
1.193422131865594
 20
-3.061164778785849
 30
0.0
 10
1.178654855311682
 20
-3.070054029366398
 30
0.0
 10
1.176586026280246
 20
-3.07129933744674
 30
0.0
 10
1.174794328530373
 20
-3.072881551599114
 30
0.0
 10
1.173245472078128
 20
-3.07471835797345
 30
0.0
 10
1.17185105881971
 20
-3.07637173258758
 30
0.0
 10
1.172159115610965
 20
-3.077739451410378
 30
0.0
 10
1.17420609860417
 20
-3.078526825327621
 30
0.0
 10
1.176317928381599
 20
-3.079339179147912
 30
0.0
 10
1.178431279085695
 20
-3.080190892446403
 30
0.0
 10
1.180610905323293
 20
-3.08077584619011
 30
0.0
 10
1.190818996673038
 20
-3.083516169204181
 30
0.0
 10
1.201152080544892
 20
-3.085942261630154
 30
0.0
 10
1.210983304692086
 20
-3.089815068365548
 30
0.0
 10
1.22698253187885
 20
-3.096117285890386
 30
0.0
 10
1.243275712718362
 20
-3.101924882900094
 30
0.0
 10
1.257256531898544
 20
-3.112394596274573
 30
0.0
 10
1.260593537271688
 20
-3.114893692697503
 30
0.0
 10
1.263576304988115
 20
-3.117824268552289
 30
0.0
 10
1.266110906301441
 20
-3.121104747402846
 30
0.0
 10
1.268991818017133
 20
-3.124833574033042
 30
0.0
 10
1.270028260435133
 20
-3.129051859279545
 30
0.0
 10
1.269096715871253
 20
-3.133884318303923
 30
0.0
 10
1.266208245610717
 20
-3.148868941751136
 30
0.0
 10
1.256528146271799
 20
-3.158818778177166
 30
0.0
 10
1.24449669424348
 20
-3.166746164226398
 30
0.0
 10
1.227598092397127
 20
-3.17788047206856
 30
0.0
 10
1.209249724777893
 20
-3.185745454448629
 30
0.0
 10
1.18985491349536
 20
-3.191838246365882
 30
0.0
 10
1.173580490751949
 20
-3.196950738399007
 30
0.0
 10
1.157093553067675
 20
-3.200594301522591
 30
0.0
 10
1.140463648272897
 20
-3.203971658152012
 30
0.0
 10
1.118993048567113
 20
-3.208332079968461
 30
0.0
 10
1.0973217326246
 20
-3.211021890115944
 30
0.0
 10
1.075454908467185
 20
-3.212242955707349
 30
0.0
 10
1.057891154674153
 20
-3.213223439945017
 30
0.0
 10
1.040357588971851
 20
-3.214914514855561
 30
0.0
 10
1.030601996361838
 20
-3.214602680863284
 30
0.0
  0
HATCH
  5
7F
330
70
100
AcDbEntity
  8
Text
 62
   183
420
  8341469
440
 33554687
100
AcDbHatch
 10
0.0
 20
0.0
 30
0.0
210
0.0
220
0.0
230
1.0
  2
SOLID
 70
     1
 71
     1
 91
        1
 92
        1
 93
        1
 72
     4
 94
        3
 73
     0
 74
     0
 95
      296
 96
      292
 40
0.0
 40
0.0
 40
0.0
 40
0.0
 40
1.0
 40
1.0
 40
1.0
 40
2.0
 40
2.0
 40
2.0
 40
3.0
 40
3.0
 40
3.0
 40
4.0
 40
4.0
 40
4.0
 40
5.0
 40
5.0
 40
5.0
 40
6.0
 40
6.0
 40
6.0
 40
7.0
 40
7.0
 40
7.0
 40
8.0
 40
8.0
 40
8.0
 40
9.0
 40
9.0
 40
9.0
 40
10.0
 40
10.0
 40
10.0
 40
11.0
 40
11.0
 40
11.0
 40
12.0
 40
12.0
 40
12.0
 40
13.0
 40
13.0
 40
13.0
 40
14.0
 40
14.0
 40
14.0
 40
15.0
 40
15.0
 40
15.0
 40
16.0
 40
16.0
 40
16.0
 40
17.0
 40
17.0
 40
17.0
 40
18.0
 40
18.0
 40
18.0
 40
19.0
 40
19.0
 40
19.0
 40
20.0
 40
20.0
 40
20.0
 40
21.0
 40
21.0
 40
21.0
 40
22.0
 40
22.0
 40
22.0
 40
23.0
 40
23.0
 40
23.0
 40
24.0
 40
24.0
 40
24.0
 40
25.0
 40
25.0
 40
25.0
 40
26.0
 40
26.0
 40
26.0
 40
27.0
 40
27.0
 40
27.0
 40
28.0
 40
28.0
 40
28.0
 40
29.0
 40
29.0
 40
29.0
 40
30.0
 40
30.0
 40
30.0
 40
31.0
 40
31.0
 40
31.0
 40
32.0
 40
32.0
 40
32.0
 40
33.0
 40
33.0
 40
33.0
 40
34.0
 40
34.0
 40
34.0
 40
35.0
 40
35.0
 40
35.0
 40
36.0
 40
36.0
 40
36.0
 40
37.0
 40
37.0
 40
37.0
 40
38.0
 40
38.0
 40
38.0
 40
39.0
 40
39.0
 40
39.0
 40
40.0
 40
40.0
 40
40.0
 40
41.0
 40
41.0
 40
41.0
 40
42.0
 40
42.0
 40
42.0
 40
43.0
 40
43.0
 40
43.0
 40
44.0
 40
44.0
 40
44.0
 40
45.0
 40
45.0
 40
45.0
 40
46.0
 40
46.0
 40
46.0
 40
47.0
 40
47.0
 40
47.0
 40
48.0
 40
48.0
 40
48.0
 40
49.0
 40
49.0
 40
49.0
 40
50.0
 40
50.0
 40
50.0
 40
51.0
 40
51.0
 40
51.0
 40
52.0
 40
52.0
 40
52.0
 40
53.0
 40
53.0
 40
53.0
 40
54.0
 40
54.0
 40
54.0
 40
55.0
 40
55.0
 40
55.0
 40
56.0
 40
56.0
 40
56.0
 40
57.0
 40
57.0
 40
57.0
 40
58.0
 40
58.0
 40
58.0
 40
59.0
 40
59.0
 40
59.0
 40
60.0
 40
60.0
 40
60.0
 40
61.0
 40
61.0
 40
61.0
 40
62.0
 40
62.0
 40
62.0
 40
63.0
 40
63.0
 40
63.0
 40
64.0
 40
64.0
 40
64.0
 40
65.0
 40
65.0
 40
65.0
 40
66.0
 40
66.0
 40
66.0
 40
67.0
 40
67.0
 40
67.0
 40
68.0
 40
68.0
 40
68.0
 40
69.0
 40
69.0
 40
69.0
 40
70.0
 40
70.0
 40
70.0
 40
71.0
 40
71.0
 40
71.0
 40
72.0
 40
72.0
 40
72.0
 40
73.0
 40
73.0
 40
73.0
 40
74.0
 40
74.0
 40
74.0
 40
75.0
 40
75.0
 40
75.0
 40
76.0
 40
76.0
 40
76.0
 40
77.0
 40
77.0
 40
77.0
 40
78.0
 40
78.0
 40
78.0
 40
79.0
 40
79.0
 40
79.0
 40
80.0
 40
80.0
 40
80.0
 40
81.0
 40
81.0
 40
81.0
 40
82.0
 40
82.0
 40
82.0
 40
83.0
 40
83.0
 40
83.0
 40
84.0
 40
84.0
 40
84.0
 40
85.0
 40
85.0
 40
85.0
 40
86.0
 40
86.0
 40
86.0
 40
87.0
 40
87.0
 40
87.0
 40
88.0
 40
88.0
 40
88.0
 40
89.0
 40
89.0
 40
89.0
 40
90.0
 40
90.0
 40
90.0
 40
91.0
 40
91.0
 40
91.0
 40
92.0
 40
92.0
 40
92.0
 40
93.0
 40
93.0
 40
93.0
 40
94.0
 40
94.0
 40
94.0
 40
95.0
 40
95.0
 40
95.0
 40
96.0
 40
96.0
 40
96.0
 40
97.0
 40
97.0
 40
97.0
 40
97.0
 10
1.030601996361838
 20
-3.214602680863284
 10
1.000857140570234
 20
-3.214325966218034
 10
0.9790348380855295
 20
-3.213129419645813
 10
0.9572226290235144
 20
-3.211511717439331
 10
0.9286788905324605
 20
-3.209394785879516
 10
0.9004427018570721
 20
-3.204903104351261
 10
0.8728241016022668
 20
-3.19777673438034
 10
0.8547930085118826
 20
-3.193124112222347
 10
0.8368146869694202
 20
-3.18756603771246
 10
0.8199782126746161
 20
-3.178975624200499
 10
0.8071385263674276
 20
-3.1724246215899
 10
0.7943245575482049
 20
-3.165805131643714
 10
0.7844231633734024
 20
-3.155231442879564
 10
0.7780959008720553
 20
-3.148474425201634
 10
0.7733927346062552
 20
-3.140280832658264
 10
0.7733926654732386
 20
-3.13037579413948
 10
0.7733926424288661
 20
-3.126286095478614
 10
0.7750540474574893
 20
-3.122962477902547
 10
0.7776705483695676
 20
-3.11980874210235
 10
0.7844612095854649
 20
-3.111623629821274
 10
0.7934018620124636
 20
-3.106729320188277
 10
0.8028525088176239
 20
-3.102455267999605
 10
0.8054628108011709
 20
-3.101274668007514
 10
0.807727032825773
 20
-3.099313699532255
 10
0.8103548024221002
 20
-3.098189235189389
 10
0.8251118472872398
 20
-3.09187503468527
 10
0.840203035141106
 20
-3.086499377991155
 10
0.8557484270161996
 20
-3.082432815698034
 10
0.8590275449970855
 20
-3.081574926556413
 10
0.8622404335331895
 20
-3.080461707778719
 10
0.8654762742359404
 20
-3.079441956239684
 10
0.8666287218818776
 20
-3.0790787797899
 10
0.8682366179435929
 20
-3.079220639829524
 10
0.8685635710969815
 20
-3.077715485451764
 10
0.8688779881271733
 20
-3.0762679415514
 10
0.8675493895153369
 20
-3.075464160170187
 10
0.8665747981167946
 20
-3.074764538532159
 10
0.8613695416828603
 20
-3.071027231639694
 10
0.85626789261975
 20
-3.067105479042664
 10
0.8508093788447391
 20
-3.063773289027544
 10
0.8460723373932017
 20
-3.060881427413606
 10
0.8415401140715504
 20
-3.057752302809376
 10
0.8370540255267162
 20
-3.054506758952331
 10
0.8210570566856302
 20
-3.042933228830154
 10
0.8049274906888967
 20
-3.031535479796755
 10
0.7896302863992383
 20
-3.019033360954987
 10
0.7855609087278532
 20
-3.015707531136588
 10
0.781254865643051
 20
-3.012585227612867
 10
0.7781068699798146
 20
-3.008246098628887
 10
0.7776699261722923
 20
-3.007643907830318
 10
0.7771163779838794
 20
-3.007086330585454
 10
0.776513952741728
 20
-3.006650150138663
 10
0.7621333372366178
 20
-2.996238415948735
 10
0.749339601351494
 20
-2.983932587525714
 10
0.7357922232385034
 20
-2.972527648704701
 10
0.7248262034130068
 20
-2.963295915357876
 10
0.7145300826689688
 20
-2.953319992907659
 10
0.7040997286208545
 20
-2.943497959564789
 10
0.7030269452723385
 20
-2.942487748320773
 10
0.7022308323184411
 20
-2.941121919121643
 10
0.7015120331388466
 20
-2.939808538501185
 10
0.6987331617785913
 20
-2.93473088928479
 10
0.6933296548527829
 20
-2.932510996279713
 10
0.689430782283024
 20
-2.928625423062486
 10
0.679714526368318
 20
-2.918942530544755
 10
0.6707883457893837
 20
-2.908618640810775
 10
0.6620543319954777
 20
-2.898048178233415
 10
0.6461304367693527
 20
-2.878776044790027
 10
0.6342448323945165
 20
-2.857116394896365
 10
0.623304230480446
 20
-2.83484902359833
 10
0.6190827947048598
 20
-2.826257181346489
 10
0.6159977677117342
 20
-2.817199062934453
 10
0.6128782548577317
 20
-2.808150484817512
 10
0.6083253607594845
 20
-2.794944273764687
 10
0.6034043447872238
 20
-2.781811573681074
 10
0.6017927385861287
 20
-2.767863385767213
 10
0.5997977551552241
 20
-2.750597156971505
 10
0.5992173257394723
 20
-2.73335000876591
 10
0.6044388399581445
 20
-2.716361047675996
 10
0.6101734710635912
 20
-2.697702581038305
 10
0.6195878230269046
 20
-2.681090023763822
 10
0.6321580287747616
 20
-2.666333491718887
 10
0.6354822214926167
 20
-2.662431096242269
 10
0.6394652059181377
 20
-2.658833898030959
 10
0.6442309145336873
 20
-2.656226770440702
 10
0.6506271257124656
 20
-2.652727740482911
 10
0.6560974151473147
 20
-2.647847349541305
 10
0.6617163406012879
 20
-2.64319772312812
 10
0.666341501762468
 20
-2.639370405625691
 10
0.6713164760663201
 20
-2.635935945491028
 10
0.6763278834781027
 20
-2.632616383692594
 10
0.6793711425976249
 20
-2.630600570042765
 10
0.6822490355043051
 20
-2.628337492223787
 10
0.6853380606911135
 20
-2.626429940183192
 10
0.6909331813376917
 20
-2.622974832453438
 10
0.6927063053462411
 20
-2.617919628279044
 10
0.692603412350056
 20
-2.611701107255839
 10
0.6924140800193629
 20
-2.600254089742116
 10
0.6921308650309786
 20
-2.588752342274801
 10
0.6948713445140635
 20
-2.57753592798018
 10
0.6972509034806333
 20
-2.567796600238731
 10
0.700515849189944
 20
-2.558358137454661
 10
0.7044548189183439
 20
-2.549067572288221
 10
0.7083247017032793
 20
-2.53993995259624
 10
0.7140108475088406
 20
-2.531975142780866
 10
0.7186375065523913
 20
-2.523358481935373
 10
0.7203386169857772
 20
-2.520190366560023
 10
0.7226976203974624
 20
-2.517594645844281
 10
0.7250195915482638
 20
-2.514992864506363
 10
0.7305223274195467
 20
-2.508826976415321
 10
0.7357398204001381
 20
-2.502239771380699
 10
0.7417609157464792
 20
-2.496745575368246
 10
0.7486305729737524
 20
-2.490477071494777
 10
0.75595512555257
 20
-2.484380315976699
 10
0.7644526352434898
 20
-2.480052547778844
 10
0.7744168713445308
 20
-2.474977709953766
 10
0.7844686298642248
 20
-2.470202308346213
 10
0.7951853790201918
 20
-2.466848641145134
 10
0.8056168391967982
 20
-2.463584247139856
 10
0.815909918087401
 20
-2.460333725737579
 10
0.8270491852914952
 20
-2.45981009258604
 10
0.8344286294978296
 20
-2.459463208379272
 10
0.8418816312503924
 20
-2.45900280848779
 10
0.8492379389353017
 20
-2.458843596172326
 10
0.8584523120809231
 20
-2.458644148699401
 10
0.8678688302125515
 20
-2.458933560693897
 10
0.8768972355017265
 20
-2.461612493983188
 10
0.8796535234048153
 20
-2.462430378409332
 10
0.8814368791021378
 20
-2.461833649084003
 10
0.883406110478543
 20
-2.459534599282935
 10
0.8877895134262921
 20
-2.454416991439377
 10
0.8898670071310636
 20
-2.447953971549925
 10
0.8940657327056113
 20
-2.442696278069433
 10
0.8990447858583491
 20
-2.436461487847408
 10
0.904171691522505
 20
-2.430461656196535
 10
0.9107838973380541
 20
-2.425992719284775
 10
0.9148863897318429
 20
-2.42321997309399
 10
0.9184882667954955
 20
-2.419973922264742
 10
0.9219041760026508
 20
-2.416463231946333
 10
0.9235033152136667
 20
-2.414819720245936
 10
0.9252662536221375
 20
-2.413425293205818
 10
0.9273621828021481
 20
-2.412492418266714
 10
0.9313221689723276
 20
-2.410729837231555
 10
0.9345777356336132
 20
-2.408094388330583
 10
0.9376478414139658
 20
-2.405032633418664
 10
0.9411955642690877
 20
-2.401494589645608
 10
0.9461930068083953
 20
-2.400308804710549
 10
0.9505878397507988
 20
-2.398206102938653
 10
0.9652536290135078
 20
-2.391189354184234
 10
0.9808029384270815
 20
-2.386835914757663
 10
0.9969639829977898
 20
-2.385742732904039
 10
1.006256614735826
 20
-2.385114156506789
 10
1.015632666999307
 20
-2.383610626744484
 10
1.025097993051657
 20
-2.385718513459323
 10
1.031180409397494
 20
-2.387073027960695
 10
1.037624621944915
 20
-2.38559240412423
 10
1.043880101314597
 20
-2.386807017342157
 10
1.053557389243501
 20
-2.388686006108046
 10
1.063100098203145
 20
-2.391206510584424
 10
1.071852616605307
 20
-2.39562850647917
 10
1.083176745537406
 20
-2.401349756905321
 10
1.09492779398733
 20
-2.406261038584943
 10
1.104882121020384
 20
-2.414665393298971
 10
1.111348041339927
 20
-2.420124516052763
 10
1.118329878434047
 20
-2.425114459078308
 10
1.124690301746492
 20
-2.430703850643693
 10
1.131101791325363
 20
-2.436338063160544
 10
1.13553391001642
 20
-2.443836550727306
 10
1.139764068076247
 20
-2.451246295114641
 10
1.141839718233465
 20
-2.454882138434236
 10
1.1447628010988
 20
-2.457832808823543
 10
1.146943625642304
 20
-2.461352947260239
 10
1.14767016772147
 20
-2.462525573962238
 10
1.149041951434103
 20
-2.462801597281743
 10
1.150331098128895
 20
-2.462331334476503
 10
1.158875664370397
 20
-2.459214584602831
 10
1.167899045992574
 20
-2.459386862974547
 10
1.176746184471388
 20
-2.458757410898063
 10
1.19471975887902
 20
-2.457478573519867
 10
1.212410487007723
 20
-2.459205459103208
 10
1.229522848189541
 20
-2.46532512054715
 10
1.236858784674293
 20
-2.467948540380398
 10
1.244504805852607
 20
-2.469816802075405
 10
1.251419768260247
 20
-2.473467393677209
 10
1.263345492838096
 20
-2.479763274049547
 10
1.275812206436815
 20
-2.485245694480429
 10
1.285115300307047
 20
-2.495621825395295
 10
1.289141700276811
 20
-2.500112539067534
 10
1.293620045922024
 20
-2.504197997597252
 10
1.297892836018339
 20
-2.50846774052219
 10
1.301173521014637
 20
-2.511746099307199
 10
1.30422569829534
 20
-2.515088290501175
 10
1.306626365881028
 20
-2.519212509360158
 10
1.309551246205197
 20
-2.524237525644341
 10
1.313521602330183
 20
-2.528603478066618
 10
1.316689554395401
 20
-2.533589941419298
 10
1.323081225838399
 20
-2.543650735624901
 10
1.325941397644429
 20
-2.554945016240809
 10
1.329918482717908
 20
-2.565885845055567
 10
1.334932102386776
 20
-2.579678392503587
 10
1.336359745589308
 20
-2.593912005766873
 10
1.336025233891076
 20
-2.608456162547781
 10
1.335947620540334
 20
-2.6118278503062
 10
1.336411825806862
 20
-2.615230186838642
 10
1.336844137701215
 20
-2.618590444678349
 10
1.337305577646475
 20
-2.62217630514773
 10
1.339987754939102
 20
-2.624372140017435
 10
1.342724409061045
 20
-2.626077456238034
 10
1.351488080925769
 20
-2.631538791234182
 10
1.359408237620906
 20
-2.638041585397255
 10
1.367477537310706
 20
-2.644450359261175
 10
1.37699365309734
 20
-2.65200816257551
 10
1.387626682151322
 20
-2.658145291516221
 10
1.396657760584427
 20
-2.66641032105162
 10
1.402025064845727
 20
-2.6713224208
 10
1.406398696991598
 20
-2.676831503359835
 10
1.408511771163577
 20
-2.683974142529601
 10
1.409210383497793
 20
-2.686335526867272
 10
1.410521791028966
 20
-2.688535694044882
 10
1.411697144752856
 20
-2.690732496770604
 10
1.417727665235917
 20
-2.702004055814237
 10
1.42245323060413
 20
-2.713892185231618
 10
1.425738524469226
 20
-2.726142661507916
 10
1.427956219963157
 20
-2.734412299881518
 10
1.428044894599073
 20
-2.743284082965298
 10
1.428784525865669
 20
-2.751912335038873
 10
1.43021235342303
 20
-2.768566049238441
 10
1.427687430734143
 20
-2.784955999628108
 10
1.425145270875974
 20
-2.801336225369191
 10
1.424820345624892
 20
-2.803429790119328
 10
1.424866987377249
 20
-2.805581656672655
 10
1.424752963962873
 20
-2.807707160671498
 10
1.42451993955587
 20
-2.812050668051799
 10
1.423311678508626
 20
-2.816079668313629
 10
1.421110759297132
 20
-2.819852324995054
 10
1.418749359273685
 20
-2.82390035975863
 10
1.417403753935963
 20
-2.828291660790985
 10
1.416332007582898
 20
-2.832882201898529
 10
1.413137047546469
 20
-2.84656759385848
 10
1.406974344705961
 20
-2.859122576074342
 10
1.400386704161165
 20
-2.871401120175227
 10
1.39180231729319
 20
-2.88740097850008
 10
1.38139355579541
 20
-2.902235768617553
 10
1.369438703166704
 20
-2.915898853800652
 10
1.361664186726001
 20
-2.924784279045499
 10
1.353617747025459
 20
-2.933432441300055
 10
1.345429169810864
 20
-2.941963907771524
 10
1.331207952033562
 20
-2.956780631243266
 10
1.315841706889134
 20
-2.970274756418146
 10
1.30009928587242
 20
-2.983375701606594
 10
1.275060684288695
 20
-3.004212904324326
 10
1.249239312426299
 20
-3.023960854222978
 10
1.221903742805049
 20
-3.041791343078936
 10
1.20748397495946
 20
-3.051196967890872
 10
1.193422131865594
 20
-3.061164778785849
 10
1.178654855311682
 20
-3.070054029366398
 10
1.176586026280246
 20
-3.07129933744674
 10
1.174794328530373
 20
-3.072881551599114
 10
1.173245472078128
 20
-3.07471835797345
 10
1.17185105881971
 20
-3.07637173258758
 10
1.172159115610965
 20
-3.077739451410378
 10
1.17420609860417
 20
-3.078526825327621
 10
1.176317928381599
 20
-3.079339179147912
 10
1.178431279085695
 20
-3.080190892446403
 10
1.180610905323293
 20
-3.08077584619011
 10
1.190818996673038
 20
-3.083516169204181
 10
1.201152080544892
 20
-3.085942261630154
 10
1.210983304692086
 20
-3.089815068365548
 10
1.22698253187885
 20
-3.096117285890386
 10
1.243275712718362
 20
-3.101924882900094
 10
1.257256531898544
 20
-3.112394596274573
 10
1.260593537271688
 20
-3.114893692697503
 10
1.263576304988115
 20
-3.117824268552289
 10
1.266110906301441
 20
-3.121104747402846
 10
1.268991818017133
 20
-3.124833574033042
 10
1.270028260435133
 20
-3.129051859279545
 10
1.269096715871253
 20
-3.133884318303923
 10
1.266208245610717
 20
-3.148868941751136
 10
1.256528146271799
 20
-3.158818778177166
 10
1.24449669424348
 20
-3.166746164226398
 10
1.227598092397127
 20
-3.17788047206856
 10
1.209249724777893
 20
-3.185745454448629
 10
1.18985491349536
 20
-3.191838246365882
 10
1.173580490751949
 20
-3.196950738399007
 10
1.157093553067675
 20
-3.200594301522591
 10
1.140463648272897
 20
-3.203971658152012
 10
1.118993048567113
 20
-3.208332079968461
 10
1.0973217326246
 20
-3.211021890115944
 10
1.075454908467185
 20
-3.212242955707349
 10
1.057891154674153
 20
-3.213223439945017
 10
1.040357588971851
 20
-3.214914514855561
 10
1.030601996361838
 20
-3.214602680863284
 97
        0
 97
        1
330
7E
 75
     2
 76
     1
 98
        1
 10
0.0
 20
0.0
450
        0
451
        0
460
0.0
461
0.0
452
        0
462
0.0
453
        0
470

  0
INSERT
  5
81
330
70
100
AcDbEntity
  8
Text
100
AcDbBlockReference
  2
Block_0
 10
0.0
 20
0.0
 30
0.0
  0
SPLINE
  5
94
330
70
100
AcDbEntity
  8
Text
100
AcDbSpline
210
0.0
220
0.0
230
1.0
 70
     9
 71
     3
 72
    41
 73
    37
 74
     0
 42
0.0000000001
 43
0.0000000001
 40
0.0
 40
0.0
 40
0.0
 40
0.0
 40
1.0
 40
1.0
 40
1.0
 40
2.0
 40
2.0
 40
2.0
 40
3.0
 40
3.0
 40
3.0
 40
4.0
 40
4.0
 40
4.0
 40
5.0
 40
5.0
 40
5.0
 40
6.0
 40
6.0
 40
6.0
 40
7.0
 40
7.0
 40
7.0
 40
8.0
 40
8.0
 40
8.0
 40
9.0
 40
9.0
 40
9.0
 40
10.0
 40
10.0
 40
10.0
 40
11.0
 40
11.0
 40
11.0
 40
12.0
 40
12.0
 40
12.0
 40
12.0
 10
0.6109890407986111
 20
-2.920383354904363
 30
0.0
 10
0.6109890407986111
 20
-2.920383354904363
 30
0.0
 10
0.5791829427083333
 20
-2.947957682161308
 30
0.0
 10
0.5791829427083333
 20
-2.947957682161308
 30
0.0
 10
0.5056627061631945
 20
-3.011678385286308
 30
0.0
 10
0.4336073133680556
 20
-3.043999891362697
 30
0.0
 10
0.3650037977430555
 20
-3.043999891362697
 30
0.0
 10
0.3480021158854166
 20
-3.043999891362697
 30
0.0
 10
0.3381415473090277
 20
-3.042046766362697
 30
0.0
 10
0.3326619466145833
 20
-3.040229275043252
 30
0.0
 10
0.3347507052951389
 20
-3.037136827126586
 30
0.0
 10
0.3383449978298611
 20
-3.032660915668252
 30
0.0
 10
0.3444892035590277
 20
-3.02674728719603
 30
0.0
 10
0.35888671875
 20
-3.012912651779363
 30
0.0
 10
0.3798285590277777
 20
-2.998738932161308
 30
0.0
 10
0.4063517252604166
 20
-2.984795789800197
 30
0.0
 10
0.4247911241319445
 20
-2.975369249001586
 30
0.0
 10
0.4416232638888889
 20
-2.968112847091863
 30
0.0
 10
0.4563462999131945
 20
-2.963243597959919
 30
0.0
 10
0.4713406032986111
 20
-2.958279405251586
 30
0.0
 10
0.4842664930555556
 20
-2.954752929557141
 30
0.0
 10
0.4947170681423611
 20
-2.952745551084919
 30
0.0
 10
0.5064968532986111
 20
-2.950494031987697
 30
0.0
 10
0.5223388671875
 20
-2.94776779500853
 30
0.0
 10
0.5418633355034723
 20
-2.944621093619641
 30
0.0
 10
0.5637885199652778
 20
-2.941325195182141
 30
0.0
 10
0.5824652777777778
 20
-2.930365993793252
 30
0.0
 10
0.5958726671006945
 20
-2.912923502473808
 30
0.0
 10
0.5994533962673611
 20
-2.908271267230752
 30
0.0
 10
0.6025254991319445
 20
-2.903673285459919
 30
0.0
 10
0.6050889756944445
 20
-2.899115993793252
 30
0.0
 10
0.6079508463541666
 20
-2.903402018098808
 30
0.0
 10
0.6109754774305555
 20
-2.907674479036308
 30
0.0
 10
0.6141560872395833
 20
-2.911892686501586
 30
0.0
 10
0.6130438910590278
 20
-2.914795247265475
 30
0.0
 10
0.6119859483506945
 20
-2.91761642782103
 30
0.0
 10
0.6109890407986111
 20
-2.920383354904363
 30
0.0
  0
SPLINE
  5
95
330
70
100
AcDbEntity
  8
Text
100
AcDbSpline
210
0.0
220
0.0
230
1.0
 70
     9
 71
     3
 72
    20
 73
    16
 74
     0
 42
0.0000000001
 43
0.0000000001
 40
0.0
 40
0.0
 40
0.0
 40
0.0
 40
1.0
 40
1.0
 40
1.0
 40
2.0
 40
2.0
 40
2.0
 40
3.0
 40
3.0
 40
3.0
 40
4.0
 40
4.0
 40
4.0
 40
5.0
 40
5.0
 40
5.0
 40
5.0
 10
0.7154337565104166
 20
-3.013523003341863
 30
0.0
 10
0.7134874131944445
 20
-3.015123480772419
 30
0.0
 10
0.7115817599826389
 20
-3.016588324522419
 30
0.0
 10
0.7097303602430555
 20
-3.017944661327975
 30
0.0
 10
0.7091742621527778
 20
-3.015666015494641
 30
0.0
 10
0.7087537977430555
 20
-3.012546440841863
 30
0.0
 10
0.7087537977430555
 20
-3.008273979904363
 30
0.0
 10
0.7087537977430555
 20
-3.008111219487697
 30
0.0
 10
0.7087537977430555
 20
-3.007907768966863
 30
0.0
 10
0.7087605794270833
 20
-3.007663628341863
 30
0.0
 10
0.7095811631944445
 20
-3.008382486848808
 30
0.0
 10
0.7104085286458333
 20
-3.009101345355752
 30
0.0
 10
0.7112291124131945
 20
-3.009833767230752
 30
0.0
 10
0.7126193576388889
 20
-3.011054470355752
 30
0.0
 10
0.7140231662326389
 20
-3.012288736848808
 30
0.0
 10
0.7154337565104166
 20
-3.013523003341863
 30
0.0
  0
SPLINE
  5
96
330
70
100
AcDbEntity
  8
Text
100
AcDbSpline
210
0.0
220
0.0
230
1.0
 70
     9
 71
     3
 72
    20
 73
    16
 74
     0
 42
0.0000000001
 43
0.0000000001
 40
0.0
 40
0.0
 40
0.0
 40
0.0
 40
1.0
 40
1.0
 40
1.0
 40
2.0
 40
2.0
 40
2.0
 40
3.0
 40
3.0
 40
3.0
 40
4.0
 40
4.0
 40
4.0
 40
5.0
 40
5.0
 40
5.0
 40
5.0
 10
0.4038425021701389
 20
-2.811388129209919
 30
0.0
 10
0.4220987955729166
 20
-2.799872829730752
 30
0.0
 10
0.4442477756076389
 20
-2.789646050216863
 30
0.0
 10
0.4697808159722223
 20
-2.780924804557141
 30
0.0
 10
0.4821845160590278
 20
-2.776679470355752
 30
0.0
 10
0.4942152235243056
 20
-2.773383571918252
 30
0.0
 10
0.50579833984375
 20
-2.771037109244641
 30
0.0
 10
0.50579833984375
 20
-2.771037109244641
 30
0.0
 10
0.4761623806423611
 20
-2.814304253341863
 30
0.0
 10
0.4761623806423611
 20
-2.814304253341863
 30
0.0
 10
0.4644029405381945
 20
-2.814141492925197
 30
0.0
 10
0.45367431640625
 20
-2.813924479036308
 30
0.0
 10
0.4440375434027778
 20
-2.813639648307141
 30
0.0
 10
0.4287041558159723
 20
-2.813178493793252
 30
0.0
 10
0.4152425130208333
 20
-2.812418945182141
 30
0.0
 10
0.4038425021701389
 20
-2.811388129209919
 30
0.0
  0
SPLINE
  5
97
330
70
100
AcDbEntity
  8
Text
100
AcDbSpline
210
0.0
220
0.0
230
1.0
 70
     9
 71
     3
 72
    20
 73
    16
 74
     0
 42
0.0000000001
 43
0.0000000001
 40
0.0
 40
0.0
 40
0.0
 40
0.0
 40
1.0
 40
1.0
 40
1.0
 40
2.0
 40
2.0
 40
2.0
 40
3.0
 40
3.0
 40
3.0
 40
4.0
 40
4.0
 40
4.0
 40
5.0
 40
5.0
 40
5.0
 40
5.0
 10
0.5557996961805555
 20
-2.81532150594603
 30
0.0
 10
0.5557996961805555
 20
-2.81532150594603
 30
0.0
 10
0.5574951171875
 20
-2.814182183029363
 30
0.0
 10
0.5574951171875
 20
-2.814182183029363
 30
0.0
 10
0.5591295030381945
 20
-2.813083550216863
 30
0.0
 10
0.560791015625
 20
-2.811971354036308
 30
0.0
 10
0.5624864366319445
 20
-2.810872721223808
 30
0.0
 10
0.5630357530381945
 20
-2.812473198654363
 30
0.0
 10
0.5635782877604166
 20
-2.814032985980752
 30
0.0
 10
0.5641208224826389
 20
-2.815579209939086
 30
0.0
 10
0.5641208224826389
 20
-2.815579209939086
 30
0.0
 10
0.5642496744791666
 20
-2.815958984244641
 30
0.0
 10
0.5642496744791666
 20
-2.815958984244641
 30
0.0
 10
0.5617947048611111
 20
-2.815728406987697
 30
0.0
 10
0.5590006510416666
 20
-2.815511393098808
 30
0.0
 10
0.5557996961805555
 20
-2.81532150594603
 30
0.0
  0
SPLINE
  5
98
330
70
100
AcDbEntity
  8
Text
100
AcDbSpline
210
0.0
220
0.0
230
1.0
 70
     9
 71
     3
 72
   383
 73
   379
 74
     0
 42
0.0000000001
 43
0.0000000001
 40
0.0
 40
0.0
 40
0.0
 40
0.0
 40
1.0
 40
1.0
 40
1.0
 40
2.0
 40
2.0
 40
2.0
 40
3.0
 40
3.0
 40
3.0
 40
4.0
 40
4.0
 40
4.0
 40
5.0
 40
5.0
 40
5.0
 40
6.0
 40
6.0
 40
6.0
 40
7.0
 40
7.0
 40
7.0
 40
8.0
 40
8.0
 40
8.0
 40
9.0
 40
9.0
 40
9.0
 40
10.0
 40
10.0
 40
10.0
 40
11.0
 40
11.0
 40
11.0
 40
12.0
 40
12.0
 40
12.0
 40
13.0
 40
13.0
 40
13.0
 40
14.0
 40
14.0
 40
14.0
 40
15.0
 40
15.0
 40
15.0
 40
16.0
 40
16.0
 40
16.0
 40
17.0
 40
17.0
 40
17.0
 40
18.0
 40
18.0
 40
18.0
 40
19.0
 40
19.0
 40
19.0
 40
20.0
 40
20.0
 40
20.0
 40
21.0
 40
21.0
 40
21.0
 40
22.0
 40
22.0
 40
22.0
 40
23.0
 40
23.0
 40
23.0
 40
24.0
 40
24.0
 40
24.0
 40
25.0
 40
25.0
 40
25.0
 40
26.0
 40
26.0
 40
26.0
 40
27.0
 40
27.0
 40
27.0
 40
28.0
 40
28.0
 40
28.0
 40
29.0
 40
29.0
 40
29.0
 40
30.0
 40
30.0
 40
30.0
 40
31.0
 40
31.0
 40
31.0
 40
32.0
 40
32.0
 40
32.0
 40
33.0
 40
33.0
 40
33.0
 40
34.0
 40
34.0
 40
34.0
 40
35.0
 40
35.0
 40
35.0
 40
36.0
 40
36.0
 40
36.0
 40
37.0
 40
37.0
 40
37.0
 40
38.0
 40
38.0
 40
38.0
 40
39.0
 40
39.0
 40
39.0
 40
40.0
 40
40.0
 40
40.0
 40
41.0
 40
41.0
 40
41.0
 40
42.0
 40
42.0
 40
42.0
 40
43.0
 40
43.0
 40
43.0
 40
44.0
 40
44.0
 40
44.0
 40
45.0
 40
45.0
 40
45.0
 40
46.0
 40
46.0
 40
46.0
 40
47.0
 40
47.0
 40
47.0
 40
48.0
 40
48.0
 40
48.0
 40
49.0
 40
49.0
 40
49.0
 40
50.0
 40
50.0
 40
50.0
 40
51.0
 40
51.0
 40
51.0
 40
52.0
 40
52.0
 40
52.0
 40
53.0
 40
53.0
 40
53.0
 40
54.0
 40
54.0
 40
54.0
 40
55.0
 40
55.0
 40
55.0
 40
56.0
 40
56.0
 40
56.0
 40
57.0
 40
57.0
 40
57.0
 40
58.0
 40
58.0
 40
58.0
 40
59.0
 40
59.0
 40
59.0
 40
60.0
 40
60.0
 40
60.0
 40
61.0
 40
61.0
 40
61.0
 40
62.0
 40
62.0
 40
62.0
 40
63.0
 40
63.0
 40
63.0
 40
64.0
 40
64.0
 40
64.0
 40
65.0
 40
65.0
 40
65.0
 40
66.0
 40
66.0
 40
66.0
 40
67.0
 40
67.0
 40
67.0
 40
68.0
 40
68.0
 40
68.0
 40
69.0
 40
69.0
 40
69.0
 40
70.0
 40
70.0
 40
70.0
 40
71.0
 40
71.0
 40
71.0
 40
72.0
 40
72.0
 40
72.0
 40
73.0
 40
73.0
 40
73.0
 40
74.0
 40
74.0
 40
74.0
 40
75.0
 40
75.0
 40
75.0
 40
76.0
 40
76.0
 40
76.0
 40
77.0
 40
77.0
 40
77.0
 40
78.0
 40
78.0
 40
78.0
 40
79.0
 40
79.0
 40
79.0
 40
80.0
 40
80.0
 40
80.0
 40
81.0
 40
81.0
 40
81.0
 40
82.0
 40
82.0
 40
82.0
 40
83.0
 40
83.0
 40
83.0
 40
84.0
 40
84.0
 40
84.0
 40
85.0
 40
85.0
 40
85.0
 40
86.0
 40
86.0
 40
86.0
 40
87.0
 40
87.0
 40
87.0
 40
88.0
 40
88.0
 40
88.0
 40
89.0
 40
89.0
 40
89.0
 40
90.0
 40
90.0
 40
90.0
 40
91.0
 40
91.0
 40
91.0
 40
92.0
 40
92.0
 40
92.0
 40
93.0
 40
93.0
 40
93.0
 40
94.0
 40
94.0
 40
94.0
 40
95.0
 40
95.0
 40
95.0
 40
96.0
 40
96.0
 40
96.0
 40
97.0
 40
97.0
 40
97.0
 40
98.0
 40
98.0
 40
98.0
 40
99.0
 40
99.0
 40
99.0
 40
100.0
 40
100.0
 40
100.0
 40
101.0
 40
101.0
 40
101.0
 40
102.0
 40
102.0
 40
102.0
 40
103.0
 40
103.0
 40
103.0
 40
104.0
 40
104.0
 40
104.0
 40
105.0
 40
105.0
 40
105.0
 40
106.0
 40
106.0
 40
106.0
 40
107.0
 40
107.0
 40
107.0
 40
108.0
 40
108.0
 40
108.0
 40
109.0
 40
109.0
 40
109.0
 40
110.0
 40
110.0
 40
110.0
 40
111.0
 40
111.0
 40
111.0
 40
112.0
 40
112.0
 40
112.0
 40
113.0
 40
113.0
 40
113.0
 40
114.0
 40
114.0
 40
114.0
 40
115.0
 40
115.0
 40
115.0
 40
116.0
 40
116.0
 40
116.0
 40
117.0
 40
117.0
 40
117.0
 40
118.0
 40
118.0
 40
118.0
 40
119.0
 40
119.0
 40
119.0
 40
120.0
 40
120.0
 40
120.0
 40
121.0
 40
121.0
 40
121.0
 40
122.0
 40
122.0
 40
122.0
 40
123.0
 40
123.0
 40
123.0
 40
124.0
 40
124.0
 40
124.0
 40
125.0
 40
125.0
 40
125.0
 40
126.0
 40
126.0
 40
126.0
 40
126.0
 10
1.644395616319444
 20
-2.973673827994641
 30
0.0
 10
1.636555989583333
 20
-2.980564018966863
 30
0.0
 10
1.629814995659722
 20
-2.986084309765475
 30
0.0
 10
1.624037000868055
 20
-2.99049240438353
 30
0.0
 10
1.625786675347222
 20
-2.988078124869641
 30
0.0
 10
1.627726236979166
 20
-2.985446831466863
 30
0.0
 10
1.629869249131944
 20
-2.98255783407103
 30
0.0
 10
1.646213107638888
 20
-2.960476670876586
 30
0.0
 10
1.652574327256944
 20
-2.946465711675197
 30
0.0
 10
1.652574327256944
 20
-2.932563259418252
 30
0.0
 10
1.652574327256944
 20
-2.925822265494641
 30
0.0
 10
1.651204427083333
 20
-2.918782877473808
 30
0.0
 10
1.648491753472222
 20
-2.911607855772419
 30
0.0
 10
1.65576171875
 20
-2.90357834188353
 30
0.0
 10
1.659776475694444
 20
-2.89308029500853
 30
0.0
 10
1.659776475694444
 20
-2.881442925216863
 30
0.0
 10
1.659776475694444
 20
-2.876587239452975
 30
0.0
 10
1.658976236979166
 20
-2.871663736848808
 30
0.0
 10
1.65725368923611
 20
-2.86622482625853
 30
0.0
 10
1.65725368923611
 20
-2.86622482625853
 30
0.0
 10
1.691229926215277
 20
-2.818630967751586
 30
0.0
 10
1.691229926215277
 20
-2.818630967751586
 30
0.0
 10
1.691229926215277
 20
-2.818630967751586
 30
0.0
 10
1.64382595486111
 20
-2.840332356640475
 30
0.0
 10
1.64382595486111
 20
-2.840332356640475
 30
0.0
 10
1.641574435763888
 20
-2.837443359244641
 30
0.0
 10
1.639133029513888
 20
-2.834703558897419
 30
0.0
 10
1.636488172743055
 20
-2.832140082334919
 30
0.0
 10
1.626017252604166
 20
-2.821953992925197
 30
0.0
 10
1.613226996527777
 20
-2.816569335807141
 30
0.0
 10
1.599500868055555
 20
-2.816569335807141
 30
0.0
 10
1.577094184027777
 20
-2.816569335807141
 30
0.0
 10
1.548583984375
 20
-2.824829426952975
 30
0.0
 10
1.512342664930555
 20
-2.84181076375853
 30
0.0
 10
1.479844835069444
 20
-2.857028862716863
 30
0.0
 10
1.446261935763888
 20
-2.879923827994641
 30
0.0
 10
1.411960177951388
 20
-2.910332899175197
 30
0.0
 10
1.411756727430555
 20
-2.906589409591863
 30
0.0
 10
1.411119249131944
 20
-2.902805229904363
 30
0.0
 10
1.4100341796875
 20
-2.898966796744641
 30
0.0
 10
1.412299262152777
 20
-2.895236870529363
 30
0.0
 10
1.414401584201388
 20
-2.891534071050197
 30
0.0
 10
1.416395399305555
 20
-2.887817708202975
 30
0.0
 10
1.423936631944444
 20
-2.873779622265475
 30
0.0
 10
1.431464301215277
 20
-2.858371636154363
 30
0.0
 10
1.435560438368055
 20
-2.840793511154363
 30
0.0
 10
1.436143663194444
 20
-2.838257161327975
 30
0.0
 10
1.436496310763888
 20
-2.837402669140475
 30
0.0
 10
1.436482747395833
 20
-2.837402669140475
 30
0.0
 10
1.436482747395833
 20
-2.837402669140475
 30
0.0
 10
1.436482747395833
 20
-2.83741623250853
 30
0.0
 10
1.436469184027777
 20
-2.83741623250853
 30
0.0
 10
1.441501193576388
 20
-2.828844183897419
 30
0.0
 10
1.444322374131944
 20
-2.81947189657103
 30
0.0
 10
1.44485134548611
 20
-2.809475694314086
 30
0.0
 10
1.44485134548611
 20
-2.809475694314086
 30
0.0
 10
1.444878472222222
 20
-2.80665451375853
 30
0.0
 10
1.444878472222222
 20
-2.80665451375853
 30
0.0
 10
1.445176866319444
 20
-2.804674262022419
 30
0.0
 10
1.445488823784722
 20
-2.802666883550197
 30
0.0
 10
1.44580078125
 20
-2.800632378341863
 30
0.0
 10
1.44580078125
 20
-2.800632378341863
 30
0.0
 10
1.446248372395833
 20
-2.799913519834919
 30
0.0
 10
1.446248372395833
 20
-2.799913519834919
 30
0.0
 10
1.446248372395833
 20
-2.799913519834919
 30
0.0
 10
1.445855034722222
 20
-2.800252604036308
 30
0.0
 10
1.445855034722222
 20
-2.800252604036308
 30
0.0
 10
1.448215060763888
 20
-2.784614040668252
 30
0.0
 10
1.450358072916666
 20
-2.767280056293252
 30
0.0
 10
1.448798285590277
 20
-2.748969509418252
 30
0.0
 10
1.448798285590277
 20
-2.748969509418252
 30
0.0
 10
1.448404947916666
 20
-2.743530598827975
 30
0.0
 10
1.448404947916666
 20
-2.743530598827975
 30
0.0
 10
1.4478759765625
 20
-2.735677408723808
 30
0.0
 10
1.447279188368055
 20
-2.726793402647419
 30
0.0
 10
1.444688585069444
 20
-2.717122721223808
 30
0.0
 10
1.443332248263888
 20
-2.712063584939086
 30
0.0
 10
1.441650390625
 20
-2.706882378341863
 30
0.0
 10
1.439629448784722
 20
-2.701470594487697
 30
0.0
 10
1.442274305555555
 20
-2.694214192577975
 30
0.0
 10
1.443495008680555
 20
-2.687771592751586
 30
0.0
 10
1.443495008680555
 20
-2.681546006814086
 30
0.0
 10
1.443495008680555
 20
-2.673787760286308
 30
0.0
 10
1.440958658854166
 20
-2.65443283407103
 30
0.0
 10
1.41748046875
 20
-2.642415689973808
 30
0.0
 10
1.412407769097222
 20
-2.639831868359225
 30
0.0
 10
1.406778971354166
 20
-2.637844834939086
 30
0.0
 10
1.400472005208333
 20
-2.636420681293252
 30
0.0
 10
1.395033094618055
 20
-2.631944769834919
 30
0.0
 10
1.389607747395833
 20
-2.628133463411308
 30
0.0
 10
1.384677463107638
 20
-2.624681586241169
 30
0.0
 10
1.3812255859375
 20
-2.622260525043252
 30
0.0
 10
1.377760145399305
 20
-2.619859808897419
 30
0.0
 10
1.374484592013888
 20
-2.61726242391478
 30
0.0
 10
1.374484592013888
 20
-2.61726242391478
 30
0.0
 10
1.371846516927083
 20
-2.615160101866169
 30
0.0
 10
1.371846516927083
 20
-2.615160101866169
 30
0.0
 10
1.366841634114583
 20
-2.611179253341863
 30
0.0
 10
1.361735026041666
 20
-2.607103461241169
 30
0.0
 10
1.356201171875
 20
-2.603129394400891
 30
0.0
 10
1.356065538194444
 20
-2.58497482625853
 30
0.0
 10
1.35335964626736
 20
-2.56886154500853
 30
0.0
 10
1.347974989149305
 20
-2.554043565407836
 30
0.0
 10
1.347120496961805
 20
-2.551703884418252
 30
0.0
 10
1.346333821614583
 20
-2.549343858376586
 30
0.0
 10
1.345540364583333
 20
-2.546990614018947
 30
0.0
 10
1.342264811197916
 20
-2.53724533407103
 30
0.0
 10
1.338548448350694
 20
-2.52619797078978
 30
0.0
 10
1.3314208984375
 20
-2.514994628775891
 30
0.0
 10
1.329501681857638
 20
-2.511969997699502
 30
0.0
 10
1.327392578125
 20
-2.509094563671725
 30
0.0
 10
1.325263129340277
 20
-2.506253038064086
 30
0.0
 10
1.324144151475694
 20
-2.504761067577975
 30
0.0
 10
1.322970920138888
 20
-2.503323350564086
 30
0.0
 10
1.32204861111111
 20
-2.501743218185613
 30
0.0
 10
1.317599826388888
 20
-2.494100260286308
 30
0.0
 10
1.312391493055555
 20
-2.488457899175197
 30
0.0
 10
1.307861328125
 20
-2.483920952560613
 30
0.0
 10
1.307861328125
 20
-2.483920952560613
 30
0.0
 10
1.303385416666666
 20
-2.479526421310613
 30
0.0
 10
1.303385416666666
 20
-2.479526421310613
 30
0.0
 10
1.300998263888888
 20
-2.477207085373113
 30
0.0
 10
1.298590766059027
 20
-2.474908094487697
 30
0.0
 10
1.29638671875
 20
-2.472453124869641
 30
0.0
 10
1.28414577907986
 20
-2.458794813237697
 30
0.0
 10
1.269578721788194
 20
-2.451294270702975
 30
0.0
 10
1.25787353515625
 20
-2.44526535360228
 30
0.0
 10
1.25787353515625
 20
-2.44526535360228
 30
0.0
 10
1.253038194444444
 20
-2.442756130512002
 30
0.0
 10
1.253038194444444
 20
-2.442756130512002
 30
0.0
 10
1.245517306857638
 20
-2.438788845355752
 30
0.0
 10
1.238138834635416
 20
-2.436408474262002
 30
0.0
 10
1.232218424479166
 20
-2.434496039366169
 30
0.0
 10
1.2303466796875
 20
-2.433892469487697
 30
0.0
 10
1.228474934895833
 20
-2.433288899609225
 30
0.0
 10
1.226630316840277
 20
-2.43263107625853
 30
0.0
 10
1.206088595920138
 20
-2.425286512456447
 30
0.0
 10
1.183600531684027
 20
-2.422424641796725
 30
0.0
 10
1.15969509548611
 20
-2.424126844487697
 30
0.0
 10
1.15969509548611
 20
-2.424126844487697
 30
0.0
 10
1.155069986979166
 20
-2.424398111848808
 30
0.0
 10
1.155069986979166
 20
-2.424398111848808
 30
0.0
 10
1.15338134765625
 20
-2.424486273741169
 30
0.0
 10
1.151618109809027
 20
-2.424581217317558
 30
0.0
 10
1.1497802734375
 20
-2.424703287630058
 30
0.0
 10
1.145663791232638
 20
-2.418253906119641
 30
0.0
 10
1.140272352430555
 20
-2.410990722525891
 30
0.0
 10
1.13302273220486
 20
-2.40461593953978
 30
0.0
 10
1.129021538628472
 20
-2.401103027213391
 30
0.0
 10
1.124810112847222
 20
-2.39778000203978
 30
0.0
 10
1.120598687065972
 20
-2.394477321918252
 30
0.0
 10
1.117933485243055
 20
-2.392388563237697
 30
0.0
 10
1.115268283420138
 20
-2.390306586241169
 30
0.0
 10
1.112691243489583
 20
-2.388129665668252
 30
0.0
 10
1.101338704427083
 20
-2.37855392782103
 30
0.0
 10
1.089470757378472
 20
-2.37275558797728
 30
0.0
 10
1.078999837239583
 20
-2.367635416536308
 30
0.0
 10
1.078999837239583
 20
-2.367635416536308
 30
0.0
 10
1.072923448350694
 20
-2.36463791219603
 30
0.0
 10
1.072923448350694
 20
-2.36463791219603
 30
0.0
 10
1.059482150607638
 20
-2.357849446484225
 30
0.0
 10
1.046095106336805
 20
-2.354702745095336
 30
0.0
 10
1.035915798611111
 20
-2.352722493359225
 30
0.0
 10
1.029324001736111
 20
-2.351433973393947
 30
0.0
 10
1.023674858940972
 20
-2.351542480338391
 30
0.0
 10
1.019524468315972
 20
-2.351596733810613
 30
0.0
 10
1.018717447916666
 20
-2.351610297178669
 30
0.0
 10
1.017930772569444
 20
-2.351671332334919
 30
0.0
 10
1.017110188802083
 20
-2.351623860546725
 30
0.0
 10
1.004665798611111
 20
-2.34901291219603
 30
0.0
 10
0.9936862521701389
 20
-2.349969129643947
 30
0.0
 10
0.98480224609375
 20
-2.35072189657103
 30
0.0
 10
0.98480224609375
 20
-2.35072189657103
 30
0.0
 10
0.98004150390625
 20
-2.351108452560613
 30
0.0
 10
0.98004150390625
 20
-2.351108452560613
 30
0.0
 10
0.9599338107638889
 20
-2.352464789366169
 30
0.0
 10
0.9400770399305555
 20
-2.357774847959919
 30
0.0
 10
0.9210205078125
 20
-2.366882649609225
 30
0.0
 10
0.9210205078125
 20
-2.366882649609225
 30
0.0
 10
0.9191758897569444
 20
-2.367648979904363
 30
0.0
 10
0.9191758897569444
 20
-2.367648979904363
 30
0.0
 10
0.914272732204861
 20
-2.369629231640475
 30
0.0
 10
0.90606689453125
 20
-2.37293869344603
 30
0.0
 10
0.8985663519965276
 20
-2.380432454296725
 30
0.0
 10
0.898220486111111
 20
-2.380785101866169
 30
0.0
 10
0.8979356553819444
 20
-2.381097059331447
 30
0.0
 10
0.8985799153645832
 20
-2.38081222860228
 30
0.0
 10
0.8927001953125
 20
-2.383443522005058
 30
0.0
 10
0.8872816297743055
 20
-2.38728195516478
 30
0.0
 10
0.8824327256944444
 20
-2.392252929557141
 30
0.0
 10
0.8802218967013889
 20
-2.394524793706447
 30
0.0
 10
0.87841796875
 20
-2.396111707768947
 30
0.0
 10
0.8767564561631944
 20
-2.39723068563353
 30
0.0
 10
0.8664279513888889
 20
-2.404209038498113
 30
0.0
 10
0.8589206271701389
 20
-2.412801432161308
 30
0.0
 10
0.8523491753472221
 20
-2.42103439657103
 30
0.0
 10
0.8514404296875
 20
-2.422173719487697
 30
0.0
 10
0.8505995008680555
 20
-2.423306260720336
 30
0.0
 10
0.8498263888888889
 20
-2.424418456900891
 30
0.0
 10
0.8441840277777776
 20
-2.424031900911308
 30
0.0
 10
0.838833279079861
 20
-2.424031900911308
 30
0.0
 10
0.8339165581597221
 20
-2.424133626171725
 30
0.0
 10
0.828213161892361
 20
-2.424255696484225
 30
0.0
 10
0.82244873046875
 20
-2.424547308897419
 30
0.0
 10
0.8167046440972221
 20
-2.424838921310613
 30
0.0
 10
0.8167046440972221
 20
-2.424838921310613
 30
0.0
 10
0.8108384874131944
 20
-2.425130533723808
 30
0.0
 10
0.8108384874131944
 20
-2.425130533723808
 30
0.0
 10
0.7953626844618055
 20
-2.42585617391478
 30
0.0
 10
0.7822062174479166
 20
-2.429965874435613
 30
0.0
 10
0.7702162000868055
 20
-2.433716145702975
 30
0.0
 10
0.7568155924479166
 20
-2.437914008116169
 30
0.0
 10
0.7449476453993055
 20
-2.443597059331447
 30
0.0
 10
0.7341172960069445
 20
-2.44911056844603
 30
0.0
 10
0.7216457790798611
 20
-2.455465006380058
 30
0.0
 10
0.7117784288194445
 20
-2.463792914366169
 30
0.0
 10
0.7037828233506945
 20
-2.471096788064086
 30
0.0
 10
0.6978556315104166
 20
-2.476501790234225
 30
0.0
 10
0.6929185655381945
 20
-2.482218749869641
 30
0.0
 10
0.6885647243923611
 20
-2.48725754110228
 30
0.0
 10
0.6885647243923611
 20
-2.48725754110228
 30
0.0
 10
0.6842447916666666
 20
-2.492194607074502
 30
0.0
 10
0.6842447916666666
 20
-2.492194607074502
 30
0.0
 10
0.6813761393229166
 20
-2.495409125303669
 30
0.0
 10
0.6770426432291666
 20
-2.500271592751586
 30
0.0
 10
0.6734619140625
 20
-2.506937988150891
 30
0.0
 10
0.6720309787326389
 20
-2.509609971657836
 30
0.0
 10
0.6704644097222223
 20
-2.512200574956447
 30
0.0
 10
0.6689046223958333
 20
-2.514804741623113
 30
0.0
 10
0.6653374565972223
 20
-2.52076584188353
 30
0.0
 10
0.6612955729166666
 20
-2.527520399175197
 30
0.0
 10
0.6579047309027778
 20
-2.535516004643947
 30
0.0
 10
0.6529880099826389
 20
-2.547119466015475
 30
0.0
 10
0.6492716471354166
 20
-2.558173610980752
 30
0.0
 10
0.6465521918402778
 20
-2.569302354470336
 30
0.0
 10
0.6436496310763889
 20
-2.581183864887002
 30
0.0
 10
0.6431613498263889
 20
-2.592434678689086
 30
0.0
 10
0.6431952582465278
 20
-2.603237901345336
 30
0.0
 10
0.6431952582465278
 20
-2.603237901345336
 30
0.0
 10
0.6425849066840278
 20
-2.603665147439086
 30
0.0
 10
0.6425849066840278
 20
-2.603665147439086
 30
0.0
 10
0.6373019748263889
 20
-2.607164496397419
 30
0.0
 10
0.6310763888888889
 20
-2.611416612282836
 30
0.0
 10
0.62493896484375
 20
-2.616502875303669
 30
0.0
 10
0.6247083875868055
 20
-2.616692762456447
 30
0.0
 10
0.6244845920138889
 20
-2.616875867925197
 30
0.0
 10
0.6242607964409723
 20
-2.617058973393947
 30
0.0
 10
0.6127522786458333
 20
-2.615465277647419
 30
0.0
 10
0.5981513129340278
 20
-2.614705729036308
 30
0.0
 10
0.5796440972222223
 20
-2.614705729036308
 30
0.0
 10
0.53509521484375
 20
-2.614705729036308
 30
0.0
 10
0.4933539496527778
 20
-2.619785210373113
 30
0.0
 10
0.4555867513020833
 20
-2.629788194314086
 30
0.0
 10
0.4174058702256945
 20
-2.639886121831447
 30
0.0
 10
0.38409423828125
 20
-2.653646158723808
 30
0.0
 10
0.3565673828125
 20
-2.670695312369641
 30
0.0
 10
0.32806396484375
 20
-2.688341254209919
 30
0.0
 10
0.3054063585069444
 20
-2.708794813237697
 30
0.0
 10
0.2891981336805555
 20
-2.731513454730752
 30
0.0
 10
0.2714436848958333
 20
-2.756442925216863
 30
0.0
 10
0.2624376085069444
 20
-2.782294704730752
 30
0.0
 10
0.2624376085069444
 20
-2.80836349813353
 30
0.0
 10
0.2624376085069444
 20
-2.830200520702975
 30
0.0
 10
0.2687920464409722
 20
-2.850342122265475
 30
0.0
 10
0.2813245985243055
 20
-2.868259331466863
 30
0.0
 10
0.2932264539930555
 20
-2.885254231640475
 30
0.0
 10
0.30963134765625
 20
-2.89759689657103
 30
0.0
 10
0.3306070963541666
 20
-2.905124565841863
 30
0.0
 10
0.3077731662326389
 20
-2.916382161327975
 30
0.0
 10
0.2878892686631944
 20
-2.928711262890475
 30
0.0
 10
0.2712673611111111
 20
-2.941949110112697
 30
0.0
 10
0.2479383680555555
 20
-2.960530924348808
 30
0.0
 10
0.2301228841145833
 20
-2.980686089279363
 30
0.0
 10
0.2183295355902778
 20
-3.001858506814086
 30
0.0
 10
0.2058444552951389
 20
-3.024251627473808
 30
0.0
 10
0.1995171440972222
 20
-3.047458550216863
 30
0.0
 10
0.1995171440972222
 20
-3.070855360112697
 30
0.0
 10
0.1995171440972222
 20
-3.105984483376586
 30
0.0
 10
0.2147555881076389
 20
-3.135674696050197
 30
0.0
 10
0.2435709635416666
 20
-3.156738606640475
 30
0.0
 10
0.2694295247395833
 20
-3.175632378341863
 30
0.0
 10
0.3016832139756944
 20
-3.185221679557141
 30
0.0
 10
0.3394368489583333
 20
-3.185221679557141
 30
0.0
 10
0.3680962456597222
 20
-3.185221679557141
 30
0.0
 10
0.3989596896701388
 20
-3.181518880077975
 30
0.0
 10
0.4312065972222223
 20
-3.174194661327975
 30
0.0
 10
0.4631890190972223
 20
-3.166924696050197
 30
0.0
 10
0.4931776258680556
 20
-3.157023437369641
 30
0.0
 10
0.5203179253472223
 20
-3.144802842751586
 30
0.0
 10
0.5493910047743056
 20
-3.13172775594603
 30
0.0
 10
0.5713704427083333
 20
-3.117920247265475
 30
0.0
 10
0.5874430338541666
 20
-3.102661458202975
 30
0.0
 10
0.5926852756076389
 20
-3.097710828862697
 30
0.0
 10
0.5974867078993055
 20
-3.092638129209919
 30
0.0
 10
0.6018473307291666
 20
-3.087443359244641
 30
0.0
 10
0.6036783854166666
 20
-3.092231228168252
 30
0.0
 10
0.6057400173611111
 20
-3.09681564657103
 30
0.0
 10
0.6080322265625
 20
-3.101196614452975
 30
0.0
 10
0.6280517578125
 20
-3.139513129209919
 30
0.0
 10
0.6587999131944445
 20
-3.145236870529363
 30
0.0
 10
0.6753472222222223
 20
-3.145236870529363
 30
0.0
 10
0.6910264756944445
 20
-3.145236870529363
 30
0.0
 10
0.7071397569444445
 20
-3.140381184765475
 30
0.0
 10
0.7240871853298611
 20
-3.130412109244641
 30
0.0
 10
0.7240939670138889
 20
-3.142632703862697
 30
0.0
 10
0.7276407877604166
 20
-3.160970377473808
 30
0.0
 10
0.7444864908854166
 20
-3.178955403515475
 30
0.0
 10
0.7586805555555555
 20
-3.194132812369641
 30
0.0
 10
0.7758314344618055
 20
-3.202881184765475
 30
0.0
 10
0.7896185980902777
 20
-3.209920572786308
 30
0.0
 10
0.8108045789930555
 20
-3.22071701375853
 30
0.0
 10
0.8327840169270832
 20
-3.227078233376586
 30
0.0
 10
0.849575466579861
 20
-3.231404947786308
 30
0.0
 10
0.8785129123263889
 20
-3.238864800216863
 30
0.0
 10
0.9089558919270832
 20
-3.243828992925197
 30
0.0
 10
0.9400770399305555
 20
-3.246148328862697
 30
0.0
 10
0.9599473741319444
 20
-3.247613172612697
 30
0.0
 10
0.9828626844618055
 20
-3.249023762890475
 30
0.0
 10
1.014906141493055
 20
-3.249308593619641
 30
0.0
 10
1.016086154513888
 20
-3.249335720355752
 30
0.0
 10
1.017306857638888
 20
-3.249362847091863
 30
0.0
 10
1.018581814236111
 20
-3.249362847091863
 30
0.0
 10
1.026340060763888
 20
-3.249362847091863
 30
0.0
 10
1.035807291666666
 20
-3.248711805425197
 30
0.0
 10
1.046529134114583
 20
-3.247965820182141
 30
0.0
 10
1.051791720920138
 20
-3.247599609244641
 30
0.0
 10
1.057305230034722
 20
-3.247219834939086
 30
0.0
 10
1.06280517578125
 20
-3.246907877473808
 30
0.0
 10
1.086697048611111
 20
-3.245578667404363
 30
0.0
 10
1.110243055555555
 20
-3.242581163064086
 30
0.0
 10
1.132792154947916
 20
-3.238010308029363
 30
0.0
 10
1.149509006076388
 20
-3.234605902647419
 30
0.0
 10
1.167487250434027
 20
-3.230686089279363
 30
0.0
 10
1.185675726996527
 20
-3.224962347959919
 30
0.0
 10
1.2100830078125
 20
-3.21729904500853
 30
0.0
 10
1.23080105251736
 20
-3.207750433897419
 30
0.0
 10
1.249009874131944
 20
-3.195746853168252
 30
0.0
 10
1.271321614583333
 20
-3.181057725564086
 30
0.0
 10
1.284274631076388
 20
-3.162964192577975
 30
0.0
 10
1.288594563802083
 20
-3.140489691709919
 30
0.0
 10
1.288689507378472
 20
-3.140001410459919
 30
0.0
 10
1.288777669270833
 20
-3.139513129209919
 30
0.0
 10
1.288859049479166
 20
-3.139024847959919
 30
0.0
 10
1.300048828125
 20
-3.137424370529363
 30
0.0
 10
1.311774359809027
 20
-3.132812825390475
 30
0.0
 10
1.324449327256944
 20
-3.125081705598808
 30
0.0
 10
1.336690266927083
 20
-3.117608289800197
 30
0.0
 10
1.3502197265625
 20
-3.107232313237697
 30
0.0
 10
1.365804036458333
 20
-3.093370551084919
 30
0.0
 10
1.368123372395833
 20
-3.091308919140475
 30
0.0
 10
1.370517306857638
 20
-3.089138780251586
 30
0.0
 10
1.372992621527777
 20
-3.086873697786308
 30
0.0
 10
1.378160264756944
 20
-3.096422308897419
 30
0.0
 10
1.38387722439236
 20
-3.104831597091863
 30
0.0
 10
1.390089246961805
 20
-3.111979492057141
 30
0.0
 10
1.395331488715277
 20
-3.118015190841863
 30
0.0
 10
1.411268446180555
 20
-3.136393554557141
 30
0.0
 10
1.434326171875
 20
-3.136393554557141
 30
0.0
 10
1.45339626736111
 20
-3.136393554557141
 30
0.0
 10
1.472466362847222
 20
-3.126939887022419
 30
0.0
 10
1.494154188368055
 20
-3.10670334188353
 30
0.0
 10
1.495917426215277
 20
-3.11244064657103
 30
0.0
 10
1.498331705729166
 20
-3.117648979904363
 30
0.0
 10
1.501383463541666
 20
-3.122369031987697
 30
0.0
 10
1.507242838541666
 20
-3.131402235112697
 30
0.0
 10
1.521185980902777
 20
-3.146552517230752
 30
0.0
 10
1.5487060546875
 20
-3.146552517230752
 30
0.0
 10
1.584581163194444
 20
-3.146552517230752
 30
0.0
 10
1.627780490451388
 20
-3.115573784591863
 30
0.0
 10
1.69314236111111
 20
-3.042969075390475
 30
0.0
 10
1.69314236111111
 20
-3.042969075390475
 30
0.0
 10
1.70205349392361
 20
-3.033054253341863
 30
0.0
 10
1.70205349392361
 20
-3.033054253341863
 30
0.0
 10
1.70205349392361
 20
-3.033054253341863
 30
0.0
 10
1.70205349392361
 20
-2.922960394834919
 30
0.0
 10
1.70205349392361
 20
-2.922960394834919
 30
0.0
 10
1.70205349392361
 20
-2.922960394834919
 30
0.0
 10
1.644395616319444
 20
-2.973673827994641
 30
0.0
 10
1.644395616319444
 20
-2.973673827994641
 30
0.0
  0
HATCH
  5
99
330
70
100
AcDbEntity
  8
Text
 62
    18
420
        0
440
 33554687
100
AcDbHatch
 10
0.0
 20
0.0
 30
0.0
210
0.0
220
0.0
230
1.0
  2
SOLID
 70
     1
 71
     1
 91
        5
 92
        1
 93
        1
 72
     4
 94
        3
 73
     0
 74
     0
 95
       41
 96
       37
 40
0.0
 40
0.0
 40
0.0
 40
0.0
 40
1.0
 40
1.0
 40
1.0
 40
2.0
 40
2.0
 40
2.0
 40
3.0
 40
3.0
 40
3.0
 40
4.0
 40
4.0
 40
4.0
 40
5.0
 40
5.0
 40
5.0
 40
6.0
 40
6.0
 40
6.0
 40
7.0
 40
7.0
 40
7.0
 40
8.0
 40
8.0
 40
8.0
 40
9.0
 40
9.0
 40
9.0
 40
10.0
 40
10.0
 40
10.0
 40
11.0
 40
11.0
 40
11.0
 40
12.0
 40
12.0
 40
12.0
 40
12.0
 10
0.6109890407986111
 20
-2.920383354904363
 10
0.6109890407986111
 20
-2.920383354904363
 10
0.5791829427083333
 20
-2.947957682161308
 10
0.5791829427083333
 20
-2.947957682161308
 10
0.5056627061631945
 20
-3.011678385286308
 10
0.4336073133680556
 20
-3.043999891362697
 10
0.3650037977430555
 20
-3.043999891362697
 10
0.3480021158854166
 20
-3.043999891362697
 10
0.3381415473090277
 20
-3.042046766362697
 10
0.3326619466145833
 20
-3.040229275043252
 10
0.3347507052951389
 20
-3.037136827126586
 10
0.3383449978298611
 20
-3.032660915668252
 10
0.3444892035590277
 20
-3.02674728719603
 10
0.35888671875
 20
-3.012912651779363
 10
0.3798285590277777
 20
-2.998738932161308
 10
0.4063517252604166
 20
-2.984795789800197
 10
0.4247911241319445
 20
-2.975369249001586
 10
0.4416232638888889
 20
-2.968112847091863
 10
0.4563462999131945
 20
-2.963243597959919
 10
0.4713406032986111
 20
-2.958279405251586
 10
0.4842664930555556
 20
-2.954752929557141
 10
0.4947170681423611
 20
-2.952745551084919
 10
0.5064968532986111
 20
-2.950494031987697
 10
0.5223388671875
 20
-2.94776779500853
 10
0.5418633355034723
 20
-2.944621093619641
 10
0.5637885199652778
 20
-2.941325195182141
 10
0.5824652777777778
 20
-2.930365993793252
 10
0.5958726671006945
 20
-2.912923502473808
 10
0.5994533962673611
 20
-2.908271267230752
 10
0.6025254991319445
 20
-2.903673285459919
 10
0.6050889756944445
 20
-2.899115993793252
 10
0.6079508463541666
 20
-2.903402018098808
 10
0.6109754774305555
 20
-2.907674479036308
 10
0.6141560872395833
 20
-2.911892686501586
 10
0.6130438910590278
 20
-2.914795247265475
 10
0.6119859483506945
 20
-2.91761642782103
 10
0.6109890407986111
 20
-2.920383354904363
 97
        0
 97
        1
330
94
 92
        1
 93
        1
 72
     4
 94
        3
 73
     0
 74
     0
 95
       20
 96
       16
 40
0.0
 40
0.0
 40
0.0
 40
0.0
 40
1.0
 40
1.0
 40
1.0
 40
2.0
 40
2.0
 40
2.0
 40
3.0
 40
3.0
 40
3.0
 40
4.0
 40
4.0
 40
4.0
 40
5.0
 40
5.0
 40
5.0
 40
5.0
 10
0.7154337565104166
 20
-3.013523003341863
 10
0.7134874131944445
 20
-3.015123480772419
 10
0.7115817599826389
 20
-3.016588324522419
 10
0.7097303602430555
 20
-3.017944661327975
 10
0.7091742621527778
 20
-3.015666015494641
 10
0.7087537977430555
 20
-3.012546440841863
 10
0.7087537977430555
 20
-3.008273979904363
 10
0.7087537977430555
 20
-3.008111219487697
 10
0.7087537977430555
 20
-3.007907768966863
 10
0.7087605794270833
 20
-3.007663628341863
 10
0.7095811631944445
 20
-3.008382486848808
 10
0.7104085286458333
 20
-3.009101345355752
 10
0.7112291124131945
 20
-3.009833767230752
 10
0.7126193576388889
 20
-3.011054470355752
 10
0.7140231662326389
 20
-3.012288736848808
 10
0.7154337565104166
 20
-3.013523003341863
 97
        0
 97
        1
330
95
 92
        1
 93
        1
 72
     4
 94
        3
 73
     0
 74
     0
 95
       20
 96
       16
 40
0.0
 40
0.0
 40
0.0
 40
0.0
 40
1.0
 40
1.0
 40
1.0
 40
2.0
 40
2.0
 40
2.0
 40
3.0
 40
3.0
 40
3.0
 40
4.0
 40
4.0
 40
4.0
 40
5.0
 40
5.0
 40
5.0
 40
5.0
 10
0.4038425021701389
 20
-2.811388129209919
 10
0.4220987955729166
 20
-2.799872829730752
 10
0.4442477756076389
 20
-2.789646050216863
 10
0.4697808159722223
 20
-2.780924804557141
 10
0.4821845160590278
 20
-2.776679470355752
 10
0.4942152235243056
 20
-2.773383571918252
 10
0.50579833984375
 20
-2.771037109244641
 10
0.50579833984375
 20
-2.771037109244641
 10
0.4761623806423611
 20
-2.814304253341863
 10
0.4761623806423611
 20
-2.814304253341863
 10
0.4644029405381945
 20
-2.814141492925197
 10
0.45367431640625
 20
-2.813924479036308
 10
0.4440375434027778
 20
-2.813639648307141
 10
0.4287041558159723
 20
-2.813178493793252
 10
0.4152425130208333
 20
-2.812418945182141
 10
0.4038425021701389
 20
-2.811388129209919
 97
        0
 97
        1
330
96
 92
        1
 93
        1
 72
     4
 94
        3
 73
     0
 74
     0
 95
       20
 96
       16
 40
0.0
 40
0.0
 40
0.0
 40
0.0
 40
1.0
 40
1.0
 40
1.0
 40
2.0
 40
2.0
 40
2.0
 40
3.0
 40
3.0
 40
3.0
 40
4.0
 40
4.0
 40
4.0
 40
5.0
 40
5.0
 40
5.0
 40
5.0
 10
0.5557996961805555
 20
-2.81532150594603
 10
0.5557996961805555
 20
-2.81532150594603
 10
0.5574951171875
 20
-2.814182183029363
 10
0.5574951171875
 20
-2.814182183029363
 10
0.5591295030381945
 20
-2.813083550216863
 10
0.560791015625
 20
-2.811971354036308
 10
0.5624864366319445
 20
-2.810872721223808
 10
0.5630357530381945
 20
-2.812473198654363
 10
0.5635782877604166
 20
-2.814032985980752
 10
0.5641208224826389
 20
-2.815579209939086
 10
0.5641208224826389
 20
-2.815579209939086
 10
0.5642496744791666
 20
-2.815958984244641
 10
0.5642496744791666
 20
-2.815958984244641
 10
0.5617947048611111
 20
-2.815728406987697
 10
0.5590006510416666
 20
-2.815511393098808
 10
0.5557996961805555
 20
-2.81532150594603
 97
        0
 97
        1
330
97
 92
        1
 93
        1
 72
     4
 94
        3
 73
     0
 74
     0
 95
      383
 96
      379
 40
0.0
 40
0.0
 40
0.0
 40
0.0
 40
1.0
 40
1.0
 40
1.0
 40
2.0
 40
2.0
 40
2.0
 40
3.0
 40
3.0
 40
3.0
 40
4.0
 40
4.0
 40
4.0
 40
5.0
 40
5.0
 40
5.0
 40
6.0
 40
6.0
 40
6.0
 40
7.0
 40
7.0
 40
7.0
 40
8.0
 40
8.0
 40
8.0
 40
9.0
 40
9.0
 40
9.0
 40
10.0
 40
10.0
 40
10.0
 40
11.0
 40
11.0
 40
11.0
 40
12.0
 40
12.0
 40
12.0
 40
13.0
 40
13.0
 40
13.0
 40
14.0
 40
14.0
 40
14.0
 40
15.0
 40
15.0
 40
15.0
 40
16.0
 40
16.0
 40
16.0
 40
17.0
 40
17.0
 40
17.0
 40
18.0
 40
18.0
 40
18.0
 40
19.0
 40
19.0
 40
19.0
 40
20.0
 40
20.0
 40
20.0
 40
21.0
 40
21.0
 40
21.0
 40
22.0
 40
22.0
 40
22.0
 40
23.0
 40
23.0
 40
23.0
 40
24.0
 40
24.0
 40
24.0
 40
25.0
 40
25.0
 40
25.0
 40
26.0
 40
26.0
 40
26.0
 40
27.0
 40
27.0
 40
27.0
 40
28.0
 40
28.0
 40
28.0
 40
29.0
 40
29.0
 40
29.0
 40
30.0
 40
30.0
 40
30.0
 40
31.0
 40
31.0
 40
31.0
 40
32.0
 40
32.0
 40
32.0
 40
33.0
 40
33.0
 40
33.0
 40
34.0
 40
34.0
 40
34.0
 40
35.0
 40
35.0
 40
35.0
 40
36.0
 40
36.0
 40
36.0
 40
37.0
 40
37.0
 40
37.0
 40
38.0
 40
38.0
 40
38.0
 40
39.0
 40
39.0
 40
39.0
 40
40.0
 40
40.0
 40
40.0
 40
41.0
 40
41.0
 40
41.0
 40
42.0
 40
42.0
 40
42.0
 40
43.0
 40
43.0
 40
43.0
 40
44.0
 40
44.0
 40
44.0
 40
45.0
 40
45.0
 40
45.0
 40
46.0
 40
46.0
 40
46.0
 40
47.0
 40
47.0
 40
47.0
 40
48.0
 40
48.0
 40
48.0
 40
49.0
 40
49.0
 40
49.0
 40
50.0
 40
50.0
 40
50.0
 40
51.0
 40
51.0
 40
51.0
 40
52.0
 40
52.0
 40
52.0
 40
53.0
 40
53.0
 40
53.0
 40
54.0
 40
54.0
 40
54.0
 40
55.0
 40
55.0
 40
55.0
 40
56.0
 40
56.0
 40
56.0
 40
57.0
 40
57.0
 40
57.0
 40
58.0
 40
58.0
 40
58.0
 40
59.0
 40
59.0
 40
59.0
 40
60.0
 40
60.0
 40
60.0
 40
61.0
 40
61.0
 40
61.0
 40
62.0
 40
62.0
 40
62.0
 40
63.0
 40
63.0
 40
63.0
 40
64.0
 40
64.0
 40
64.0
 40
65.0
 40
65.0
 40
65.0
 40
66.0
 40
66.0
 40
66.0
 40
67.0
 40
67.0
 40
67.0
 40
68.0
 40
68.0
 40
68.0
 40
69.0
 40
69.0
 40
69.0
 40
70.0
 40
70.0
 40
70.0
 40
71.0
 40
71.0
 40
71.0
 40
72.0
 40
72.0
 40
72.0
 40
73.0
 40
73.0
 40
73.0
 40
74.0
 40
74.0
 40
74.0
 40
75.0
 40
75.0
 40
75.0
 40
76.0
 40
76.0
 40
76.0
 40
77.0
 40
77.0
 40
77.0
 40
78.0
 40
78.0
 40
78.0
 40
79.0
 40
79.0
 40
79.0
 40
80.0
 40
80.0
 40
80.0
 40
81.0
 40
81.0
 40
81.0
 40
82.0
 40
82.0
 40
82.0
 40
83.0
 40
83.0
 40
83.0
 40
84.0
 40
84.0
 40
84.0
 40
85.0
 40
85.0
 40
85.0
 40
86.0
 40
86.0
 40
86.0
 40
87.0
 40
87.0
 40
87.0
 40
88.0
 40
88.0
 40
88.0
 40
89.0
 40
89.0
 40
89.0
 40
90.0
 40
90.0
 40
90.0
 40
91.0
 40
91.0
 40
91.0
 40
92.0
 40
92.0
 40
92.0
 40
93.0
 40
93.0
 40
93.0
 40
94.0
 40
94.0
 40
94.0
 40
95.0
 40
95.0
 40
95.0
 40
96.0
 40
96.0
 40
96.0
 40
97.0
 40
97.0
 40
97.0
 40
98.0
 40
98.0
 40
98.0
 40
99.0
 40
99.0
 40
99.0
 40
100.0
 40
100.0
 40
100.0
 40
101.0
 40
101.0
 40
101.0
 40
102.0
 40
102.0
 40
102.0
 40
103.0
 40
103.0
 40
103.0
 40
104.0
 40
104.0
 40
104.0
 40
105.0
 40
105.0
 40
105.0
 40
106.0
 40
106.0
 40
106.0
 40
107.0
 40
107.0
 40
107.0
 40
108.0
 40
108.0
 40
108.0
 40
109.0
 40
109.0
 40
109.0
 40
110.0
 40
110.0
 40
110.0
 40
111.0
 40
111.0
 40
111.0
 40
112.0
 40
112.0
 40
112.0
 40
113.0
 40
113.0
 40
113.0
 40
114.0
 40
114.0
 40
114.0
 40
115.0
 40
115.0
 40
115.0
 40
116.0
 40
116.0
 40
116.0
 40
117.0
 40
117.0
 40
117.0
 40
118.0
 40
118.0
 40
118.0
 40
119.0
 40
119.0
 40
119.0
 40
120.0
 40
120.0
 40
120.0
 40
121.0
 40
121.0
 40
121.0
 40
122.0
 40
122.0
 40
122.0
 40
123.0
 40
123.0
 40
123.0
 40
124.0
 40
124.0
 40
124.0
 40
125.0
 40
125.0
 40
125.0
 40
126.0
 40
126.0
 40
126.0
 40
126.0
 10
1.644395616319444
 20
-2.973673827994641
 10
1.636555989583333
 20
-2.980564018966863
 10
1.629814995659722
 20
-2.986084309765475
 10
1.624037000868055
 20
-2.99049240438353
 10
1.625786675347222
 20
-2.988078124869641
 10
1.627726236979166
 20
-2.985446831466863
 10
1.629869249131944
 20
-2.98255783407103
 10
1.646213107638888
 20
-2.960476670876586
 10
1.652574327256944
 20
-2.946465711675197
 10
1.652574327256944
 20
-2.932563259418252
 10
1.652574327256944
 20
-2.925822265494641
 10
1.651204427083333
 20
-2.918782877473808
 10
1.648491753472222
 20
-2.911607855772419
 10
1.65576171875
 20
-2.90357834188353
 10
1.659776475694444
 20
-2.89308029500853
 10
1.659776475694444
 20
-2.881442925216863
 10
1.659776475694444
 20
-2.876587239452975
 10
1.658976236979166
 20
-2.871663736848808
 10
1.65725368923611
 20
-2.86622482625853
 10
1.65725368923611
 20
-2.86622482625853
 10
1.691229926215277
 20
-2.818630967751586
 10
1.691229926215277
 20
-2.818630967751586
 10
1.691229926215277
 20
-2.818630967751586
 10
1.64382595486111
 20
-2.840332356640475
 10
1.64382595486111
 20
-2.840332356640475
 10
1.641574435763888
 20
-2.837443359244641
 10
1.639133029513888
 20
-2.834703558897419
 10
1.636488172743055
 20
-2.832140082334919
 10
1.626017252604166
 20
-2.821953992925197
 10
1.613226996527777
 20
-2.816569335807141
 10
1.599500868055555
 20
-2.816569335807141
 10
1.577094184027777
 20
-2.816569335807141
 10
1.548583984375
 20
-2.824829426952975
 10
1.512342664930555
 20
-2.84181076375853
 10
1.479844835069444
 20
-2.857028862716863
 10
1.446261935763888
 20
-2.879923827994641
 10
1.411960177951388
 20
-2.910332899175197
 10
1.411756727430555
 20
-2.906589409591863
 10
1.411119249131944
 20
-2.902805229904363
 10
1.4100341796875
 20
-2.898966796744641
 10
1.412299262152777
 20
-2.895236870529363
 10
1.414401584201388
 20
-2.891534071050197
 10
1.416395399305555
 20
-2.887817708202975
 10
1.423936631944444
 20
-2.873779622265475
 10
1.431464301215277
 20
-2.858371636154363
 10
1.435560438368055
 20
-2.840793511154363
 10
1.436143663194444
 20
-2.838257161327975
 10
1.436496310763888
 20
-2.837402669140475
 10
1.436482747395833
 20
-2.837402669140475
 10
1.436482747395833
 20
-2.837402669140475
 10
1.436482747395833
 20
-2.83741623250853
 10
1.436469184027777
 20
-2.83741623250853
 10
1.441501193576388
 20
-2.828844183897419
 10
1.444322374131944
 20
-2.81947189657103
 10
1.44485134548611
 20
-2.809475694314086
 10
1.44485134548611
 20
-2.809475694314086
 10
1.444878472222222
 20
-2.80665451375853
 10
1.444878472222222
 20
-2.80665451375853
 10
1.445176866319444
 20
-2.804674262022419
 10
1.445488823784722
 20
-2.802666883550197
 10
1.44580078125
 20
-2.800632378341863
 10
1.44580078125
 20
-2.800632378341863
 10
1.446248372395833
 20
-2.799913519834919
 10
1.446248372395833
 20
-2.799913519834919
 10
1.446248372395833
 20
-2.799913519834919
 10
1.445855034722222
 20
-2.800252604036308
 10
1.445855034722222
 20
-2.800252604036308
 10
1.448215060763888
 20
-2.784614040668252
 10
1.450358072916666
 20
-2.767280056293252
 10
1.448798285590277
 20
-2.748969509418252
 10
1.448798285590277
 20
-2.748969509418252
 10
1.448404947916666
 20
-2.743530598827975
 10
1.448404947916666
 20
-2.743530598827975
 10
1.4478759765625
 20
-2.735677408723808
 10
1.447279188368055
 20
-2.726793402647419
 10
1.444688585069444
 20
-2.717122721223808
 10
1.443332248263888
 20
-2.712063584939086
 10
1.441650390625
 20
-2.706882378341863
 10
1.439629448784722
 20
-2.701470594487697
 10
1.442274305555555
 20
-2.694214192577975
 10
1.443495008680555
 20
-2.687771592751586
 10
1.443495008680555
 20
-2.681546006814086
 10
1.443495008680555
 20
-2.673787760286308
 10
1.440958658854166
 20
-2.65443283407103
 10
1.41748046875
 20
-2.642415689973808
 10
1.412407769097222
 20
-2.639831868359225
 10
1.406778971354166
 20
-2.637844834939086
 10
1.400472005208333
 20
-2.636420681293252
 10
1.395033094618055
 20
-2.631944769834919
 10
1.389607747395833
 20
-2.628133463411308
 10
1.384677463107638
 20
-2.624681586241169
 10
1.3812255859375
 20
-2.622260525043252
 10
1.377760145399305
 20
-2.619859808897419
 10
1.374484592013888
 20
-2.61726242391478
 10
1.374484592013888
 20
-2.61726242391478
 10
1.371846516927083
 20
-2.615160101866169
 10
1.371846516927083
 20
-2.615160101866169
 10
1.366841634114583
 20
-2.611179253341863
 10
1.361735026041666
 20
-2.607103461241169
 10
1.356201171875
 20
-2.603129394400891
 10
1.356065538194444
 20
-2.58497482625853
 10
1.35335964626736
 20
-2.56886154500853
 10
1.347974989149305
 20
-2.554043565407836
 10
1.347120496961805
 20
-2.551703884418252
 10
1.346333821614583
 20
-2.549343858376586
 10
1.345540364583333
 20
-2.546990614018947
 10
1.342264811197916
 20
-2.53724533407103
 10
1.338548448350694
 20
-2.52619797078978
 10
1.3314208984375
 20
-2.514994628775891
 10
1.329501681857638
 20
-2.511969997699502
 10
1.327392578125
 20
-2.509094563671725
 10
1.325263129340277
 20
-2.506253038064086
 10
1.324144151475694
 20
-2.504761067577975
 10
1.322970920138888
 20
-2.503323350564086
 10
1.32204861111111
 20
-2.501743218185613
 10
1.317599826388888
 20
-2.494100260286308
 10
1.312391493055555
 20
-2.488457899175197
 10
1.307861328125
 20
-2.483920952560613
 10
1.307861328125
 20
-2.483920952560613
 10
1.303385416666666
 20
-2.479526421310613
 10
1.303385416666666
 20
-2.479526421310613
 10
1.300998263888888
 20
-2.477207085373113
 10
1.298590766059027
 20
-2.474908094487697
 10
1.29638671875
 20
-2.472453124869641
 10
1.28414577907986
 20
-2.458794813237697
 10
1.269578721788194
 20
-2.451294270702975
 10
1.25787353515625
 20
-2.44526535360228
 10
1.25787353515625
 20
-2.44526535360228
 10
1.253038194444444
 20
-2.442756130512002
 10
1.253038194444444
 20
-2.442756130512002
 10
1.245517306857638
 20
-2.438788845355752
 10
1.238138834635416
 20
-2.436408474262002
 10
1.232218424479166
 20
-2.434496039366169
 10
1.2303466796875
 20
-2.433892469487697
 10
1.228474934895833
 20
-2.433288899609225
 10
1.226630316840277
 20
-2.43263107625853
 10
1.206088595920138
 20
-2.425286512456447
 10
1.183600531684027
 20
-2.422424641796725
 10
1.15969509548611
 20
-2.424126844487697
 10
1.15969509548611
 20
-2.424126844487697
 10
1.155069986979166
 20
-2.424398111848808
 10
1.155069986979166
 20
-2.424398111848808
 10
1.15338134765625
 20
-2.424486273741169
 10
1.151618109809027
 20
-2.424581217317558
 10
1.1497802734375
 20
-2.424703287630058
 10
1.145663791232638
 20
-2.418253906119641
 10
1.140272352430555
 20
-2.410990722525891
 10
1.13302273220486
 20
-2.40461593953978
 10
1.129021538628472
 20
-2.401103027213391
 10
1.124810112847222
 20
-2.39778000203978
 10
1.120598687065972
 20
-2.394477321918252
 10
1.117933485243055
 20
-2.392388563237697
 10
1.115268283420138
 20
-2.390306586241169
 10
1.112691243489583
 20
-2.388129665668252
 10
1.101338704427083
 20
-2.37855392782103
 10
1.089470757378472
 20
-2.37275558797728
 10
1.078999837239583
 20
-2.367635416536308
 10
1.078999837239583
 20
-2.367635416536308
 10
1.072923448350694
 20
-2.36463791219603
 10
1.072923448350694
 20
-2.36463791219603
 10
1.059482150607638
 20
-2.357849446484225
 10
1.046095106336805
 20
-2.354702745095336
 10
1.035915798611111
 20
-2.352722493359225
 10
1.029324001736111
 20
-2.351433973393947
 10
1.023674858940972
 20
-2.351542480338391
 10
1.019524468315972
 20
-2.351596733810613
 10
1.018717447916666
 20
-2.351610297178669
 10
1.017930772569444
 20
-2.351671332334919
 10
1.017110188802083
 20
-2.351623860546725
 10
1.004665798611111
 20
-2.34901291219603
 10
0.9936862521701389
 20
-2.349969129643947
 10
0.98480224609375
 20
-2.35072189657103
 10
0.98480224609375
 20
-2.35072189657103
 10
0.98004150390625
 20
-2.351108452560613
 10
0.98004150390625
 20
-2.351108452560613
 10
0.9599338107638889
 20
-2.352464789366169
 10
0.9400770399305555
 20
-2.357774847959919
 10
0.9210205078125
 20
-2.366882649609225
 10
0.9210205078125
 20
-2.366882649609225
 10
0.9191758897569444
 20
-2.367648979904363
 10
0.9191758897569444
 20
-2.367648979904363
 10
0.914272732204861
 20
-2.369629231640475
 10
0.90606689453125
 20
-2.37293869344603
 10
0.8985663519965276
 20
-2.380432454296725
 10
0.898220486111111
 20
-2.380785101866169
 10
0.8979356553819444
 20
-2.381097059331447
 10
0.8985799153645832
 20
-2.38081222860228
 10
0.8927001953125
 20
-2.383443522005058
 10
0.8872816297743055
 20
-2.38728195516478
 10
0.8824327256944444
 20
-2.392252929557141
 10
0.8802218967013889
 20
-2.394524793706447
 10
0.87841796875
 20
-2.396111707768947
 10
0.8767564561631944
 20
-2.39723068563353
 10
0.8664279513888889
 20
-2.404209038498113
 10
0.8589206271701389
 20
-2.412801432161308
 10
0.8523491753472221
 20
-2.42103439657103
 10
0.8514404296875
 20
-2.422173719487697
 10
0.8505995008680555
 20
-2.423306260720336
 10
0.8498263888888889
 20
-2.424418456900891
 10
0.8441840277777776
 20
-2.424031900911308
 10
0.838833279079861
 20
-2.424031900911308
 10
0.8339165581597221
 20
-2.424133626171725
 10
0.828213161892361
 20
-2.424255696484225
 10
0.82244873046875
 20
-2.424547308897419
 10
0.8167046440972221
 20
-2.424838921310613
 10
0.8167046440972221
 20
-2.424838921310613
 10
0.8108384874131944
 20
-2.425130533723808
 10
0.8108384874131944
 20
-2.425130533723808
 10
0.7953626844618055
 20
-2.42585617391478
 10
0.7822062174479166
 20
-2.429965874435613
 10
0.7702162000868055
 20
-2.433716145702975
 10
0.7568155924479166
 20
-2.437914008116169
 10
0.7449476453993055
 20
-2.443597059331447
 10
0.7341172960069445
 20
-2.44911056844603
 10
0.7216457790798611
 20
-2.455465006380058
 10
0.7117784288194445
 20
-2.463792914366169
 10
0.7037828233506945
 20
-2.471096788064086
 10
0.6978556315104166
 20
-2.476501790234225
 10
0.6929185655381945
 20
-2.482218749869641
 10
0.6885647243923611
 20
-2.48725754110228
 10
0.6885647243923611
 20
-2.48725754110228
 10
0.6842447916666666
 20
-2.492194607074502
 10
0.6842447916666666
 20
-2.492194607074502
 10
0.6813761393229166
 20
-2.495409125303669
 10
0.6770426432291666
 20
-2.500271592751586
 10
0.6734619140625
 20
-2.506937988150891
 10
0.6720309787326389
 20
-2.509609971657836
 10
0.6704644097222223
 20
-2.512200574956447
 10
0.6689046223958333
 20
-2.514804741623113
 10
0.6653374565972223
 20
-2.52076584188353
 10
0.6612955729166666
 20
-2.527520399175197
 10
0.6579047309027778
 20
-2.535516004643947
 10
0.6529880099826389
 20
-2.547119466015475
 10
0.6492716471354166
 20
-2.558173610980752
 10
0.6465521918402778
 20
-2.569302354470336
 10
0.6436496310763889
 20
-2.581183864887002
 10
0.6431613498263889
 20
-2.592434678689086
 10
0.6431952582465278
 20
-2.603237901345336
 10
0.6431952582465278
 20
-2.603237901345336
 10
0.6425849066840278
 20
-2.603665147439086
 10
0.6425849066840278
 20
-2.603665147439086
 10
0.6373019748263889
 20
-2.607164496397419
 10
0.6310763888888889
 20
-2.611416612282836
 10
0.62493896484375
 20
-2.616502875303669
 10
0.6247083875868055
 20
-2.616692762456447
 10
0.6244845920138889
 20
-2.616875867925197
 10
0.6242607964409723
 20
-2.617058973393947
 10
0.6127522786458333
 20
-2.615465277647419
 10
0.5981513129340278
 20
-2.614705729036308
 10
0.5796440972222223
 20
-2.614705729036308
 10
0.53509521484375
 20
-2.614705729036308
 10
0.4933539496527778
 20
-2.619785210373113
 10
0.4555867513020833
 20
-2.629788194314086
 10
0.4174058702256945
 20
-2.639886121831447
 10
0.38409423828125
 20
-2.653646158723808
 10
0.3565673828125
 20
-2.670695312369641
 10
0.32806396484375
 20
-2.688341254209919
 10
0.3054063585069444
 20
-2.708794813237697
 10
0.2891981336805555
 20
-2.731513454730752
 10
0.2714436848958333
 20
-2.756442925216863
 10
0.2624376085069444
 20
-2.782294704730752
 10
0.2624376085069444
 20
-2.80836349813353
 10
0.2624376085069444
 20
-2.830200520702975
 10
0.2687920464409722
 20
-2.850342122265475
 10
0.2813245985243055
 20
-2.868259331466863
 10
0.2932264539930555
 20
-2.885254231640475
 10
0.30963134765625
 20
-2.89759689657103
 10
0.3306070963541666
 20
-2.905124565841863
 10
0.3077731662326389
 20
-2.916382161327975
 10
0.2878892686631944
 20
-2.928711262890475
 10
0.2712673611111111
 20
-2.941949110112697
 10
0.2479383680555555
 20
-2.960530924348808
 10
0.2301228841145833
 20
-2.980686089279363
 10
0.2183295355902778
 20
-3.001858506814086
 10
0.2058444552951389
 20
-3.024251627473808
 10
0.1995171440972222
 20
-3.047458550216863
 10
0.1995171440972222
 20
-3.070855360112697
 10
0.1995171440972222
 20
-3.105984483376586
 10
0.2147555881076389
 20
-3.135674696050197
 10
0.2435709635416666
 20
-3.156738606640475
 10
0.2694295247395833
 20
-3.175632378341863
 10
0.3016832139756944
 20
-3.185221679557141
 10
0.3394368489583333
 20
-3.185221679557141
 10
0.3680962456597222
 20
-3.185221679557141
 10
0.3989596896701388
 20
-3.181518880077975
 10
0.4312065972222223
 20
-3.174194661327975
 10
0.4631890190972223
 20
-3.166924696050197
 10
0.4931776258680556
 20
-3.157023437369641
 10
0.5203179253472223
 20
-3.144802842751586
 10
0.5493910047743056
 20
-3.13172775594603
 10
0.5713704427083333
 20
-3.117920247265475
 10
0.5874430338541666
 20
-3.102661458202975
 10
0.5926852756076389
 20
-3.097710828862697
 10
0.5974867078993055
 20
-3.092638129209919
 10
0.6018473307291666
 20
-3.087443359244641
 10
0.6036783854166666
 20
-3.092231228168252
 10
0.6057400173611111
 20
-3.09681564657103
 10
0.6080322265625
 20
-3.101196614452975
 10
0.6280517578125
 20
-3.139513129209919
 10
0.6587999131944445
 20
-3.145236870529363
 10
0.6753472222222223
 20
-3.145236870529363
 10
0.6910264756944445
 20
-3.145236870529363
 10
0.7071397569444445
 20
-3.140381184765475
 10
0.7240871853298611
 20
-3.130412109244641
 10
0.7240939670138889
 20
-3.142632703862697
 10
0.7276407877604166
 20
-3.160970377473808
 10
0.7444864908854166
 20
-3.178955403515475
 10
0.7586805555555555
 20
-3.194132812369641
 10
0.7758314344618055
 20
-3.202881184765475
 10
0.7896185980902777
 20
-3.209920572786308
 10
0.8108045789930555
 20
-3.22071701375853
 10
0.8327840169270832
 20
-3.227078233376586
 10
0.849575466579861
 20
-3.231404947786308
 10
0.8785129123263889
 20
-3.238864800216863
 10
0.9089558919270832
 20
-3.243828992925197
 10
0.9400770399305555
 20
-3.246148328862697
 10
0.9599473741319444
 20
-3.247613172612697
 10
0.9828626844618055
 20
-3.249023762890475
 10
1.014906141493055
 20
-3.249308593619641
 10
1.016086154513888
 20
-3.249335720355752
 10
1.017306857638888
 20
-3.249362847091863
 10
1.018581814236111
 20
-3.249362847091863
 10
1.026340060763888
 20
-3.249362847091863
 10
1.035807291666666
 20
-3.248711805425197
 10
1.046529134114583
 20
-3.247965820182141
 10
1.051791720920138
 20
-3.247599609244641
 10
1.057305230034722
 20
-3.247219834939086
 10
1.06280517578125
 20
-3.246907877473808
 10
1.086697048611111
 20
-3.245578667404363
 10
1.110243055555555
 20
-3.242581163064086
 10
1.132792154947916
 20
-3.238010308029363
 10
1.149509006076388
 20
-3.234605902647419
 10
1.167487250434027
 20
-3.230686089279363
 10
1.185675726996527
 20
-3.224962347959919
 10
1.2100830078125
 20
-3.21729904500853
 10
1.23080105251736
 20
-3.207750433897419
 10
1.249009874131944
 20
-3.195746853168252
 10
1.271321614583333
 20
-3.181057725564086
 10
1.284274631076388
 20
-3.162964192577975
 10
1.288594563802083
 20
-3.140489691709919
 10
1.288689507378472
 20
-3.140001410459919
 10
1.288777669270833
 20
-3.139513129209919
 10
1.288859049479166
 20
-3.139024847959919
 10
1.300048828125
 20
-3.137424370529363
 10
1.311774359809027
 20
-3.132812825390475
 10
1.324449327256944
 20
-3.125081705598808
 10
1.336690266927083
 20
-3.117608289800197
 10
1.3502197265625
 20
-3.107232313237697
 10
1.365804036458333
 20
-3.093370551084919
 10
1.368123372395833
 20
-3.091308919140475
 10
1.370517306857638
 20
-3.089138780251586
 10
1.372992621527777
 20
-3.086873697786308
 10
1.378160264756944
 20
-3.096422308897419
 10
1.38387722439236
 20
-3.104831597091863
 10
1.390089246961805
 20
-3.111979492057141
 10
1.395331488715277
 20
-3.118015190841863
 10
1.411268446180555
 20
-3.136393554557141
 10
1.434326171875
 20
-3.136393554557141
 10
1.45339626736111
 20
-3.136393554557141
 10
1.472466362847222
 20
-3.126939887022419
 10
1.494154188368055
 20
-3.10670334188353
 10
1.495917426215277
 20
-3.11244064657103
 10
1.498331705729166
 20
-3.117648979904363
 10
1.501383463541666
 20
-3.122369031987697
 10
1.507242838541666
 20
-3.131402235112697
 10
1.521185980902777
 20
-3.146552517230752
 10
1.5487060546875
 20
-3.146552517230752
 10
1.584581163194444
 20
-3.146552517230752
 10
1.627780490451388
 20
-3.115573784591863
 10
1.69314236111111
 20
-3.042969075390475
 10
1.69314236111111
 20
-3.042969075390475
 10
1.70205349392361
 20
-3.033054253341863
 10
1.70205349392361
 20
-3.033054253341863
 10
1.70205349392361
 20
-3.033054253341863
 10
1.70205349392361
 20
-2.922960394834919
 10
1.70205349392361
 20
-2.922960394834919
 10
1.70205349392361
 20
-2.922960394834919
 10
1.644395616319444
 20
-2.973673827994641
 10
1.644395616319444
 20
-2.973673827994641
 97
        0
 97
        1
330
98
 75
     2
 76
     1
 98
        1
 10
0.0
 20
0.0
450
        0
451
        0
460
0.0
461
0.0
452
        0
462
0.0
453
        0
470

  0
ENDSEC
  0
SECTION
  2
OBJECTS
  0
DICTIONARY
  5
C
330
0
100
AcDbDictionary
281
     1
  3
ACAD_COLOR
350
63
  3
ACAD_DETAILVIEWSTYLE
350
6A
  3
ACAD_GROUP
350
D
  3
ACAD_LAYOUT
350
62
  3
ACAD_MATERIAL
350
10
  3
ACAD_MLEADERSTYLE
350
66
  3
ACAD_MLINESTYLE
350
5F
  3
ACAD_PLOTSETTINGS
350
61
  3
ACAD_PLOTSTYLENAME
350
E
  3
ACAD_SCALELIST
350
42
  3
ACAD_SECTIONVIEWSTYLE
350
68
  3
ACAD_TABLESTYLE
350
64
  3
ACAD_VISUALSTYLE
350
29
  3
ACDB_RECOMPOSE_DATA
350
A2
  3
AcDbVariableDictionary
350
9A
  0
DICTIONARY
  5
63
102
{ACAD_REACTORS
330
C
102
}
330
C
100
AcDbDictionary
281
     1
  0
DICTIONARY
  5
6A
102
{ACAD_REACTORS
330
C
102
}
330
C
100
AcDbDictionary
281
     1
  3
Imperial24
350
6B
  0
DICTIONARY
  5
D
102
{ACAD_REACTORS
330
C
102
}
330
C
100
AcDbDictionary
281
     1
  0
DICTIONARY
  5
62
102
{ACAD_REACTORS
330
C
102
}
330
C
100
AcDbDictionary
281
     1
  3
Layout1
350
6F
  3
Layout2
350
77
  3
Model
350
73
  0
DICTIONARY
  5
10
102
{ACAD_REACTORS
330
C
102
}
330
C
100
AcDbDictionary
281
     1
  3
ByBlock
350
19
  3
ByLayer
350
11
  3
Global
350
21
  0
DICTIONARY
  5
66
102
{ACAD_REACTORS
330
C
102
}
330
C
100
AcDbDictionary
281
     1
  3
Standard
350
67
  0
DICTIONARY
  5
5F
102
{ACAD_REACTORS
330
C
102
}
330
C
100
AcDbDictionary
281
     1
  3
Standard
350
60
  0
DICTIONARY
  5
61
102
{ACAD_REACTORS
330
C
102
}
330
C
100
AcDbDictionary
281
     1
  0
ACDBDICTIONARYWDFLT
  5
E
102
{ACAD_REACTORS
330
C
102
}
330
C
100
AcDbDictionary
281
     1
  3
Normal
350
F
100
AcDbDictionaryWithDefault
340
F
  0
DICTIONARY
  5
42
102
{ACAD_REACTORS
330
C
102
}
330
C
100
AcDbDictionary
281
     1
  3
A0
350
43
  3
A1
350
44
  3
A2
350
45
  3
A3
350
46
  3
A4
350
47
  3
A5
350
48
  3
A6
350
49
  3
A7
350
4A
  3
A8
350
4B
  3
A9
350
4C
  3
B0
350
4D
  3
B1
350
4E
  3
B2
350
4F
  3
B3
350
50
  3
B4
350
51
  3
B5
350
52
  3
B6
350
53
  0
DICTIONARY
  5
68
102
{ACAD_REACTORS
330
C
102
}
330
C
100
AcDbDictionary
281
     1
  3
Imperial24
350
69
  0
DICTIONARY
  5
64
102
{ACAD_REACTORS
330
C
102
}
330
C
100
AcDbDictionary
281
     1
  3
Standard
350
65
  0
DICTIONARY
  5
29
102
{ACAD_REACTORS
330
C
102
}
330
C
100
AcDbDictionary
281
     1
  3
2dWireframe
350
2F
  3
Basic
350
2E
  3
Brighten
350
35
  3
ColorChange
350
39
  3
Conceptual
350
32
  3
Dim
350
34
  3
EdgeColorOff
350
41
  3
Facepattern
350
38
  3
Flat
350
2A
  3
FlatWithEdges
350
2B
  3
Gouraud
350
2C
  3
GouraudWithEdges
350
2D
  3
Hidden
350
31
  3
JitterOff
350
3F
  3
Linepattern
350
37
  3
OverhangOff
350
40
  3
Realistic
350
33
  3
Shaded
350
3E
  3
Shaded with edges
350
3D
  3
Shades of Gray
350
3A
  3
Sketchy
350
3B
  3
Thicken
350
36
  3
Wireframe
350
30
  3
X-Ray
350
3C
  0
XRECORD
  5
A2
102
{ACAD_REACTORS
330
C
102
}
330
C
100
AcDbXrecord
280
     1
 90
        1
330
65
  0
DICTIONARY
  5
9A
102
{ACAD_REACTORS
330
C
102
}
330
C
100
AcDbDictionary
281
     1
  3
CANNOSCALE
350
9F
  3
CMLEADERSTYLE
350
9C
  3
CTABLESTYLE
350
9B
  3
CVIEWDETAILSTYLE
350
9D
  3
CVIEWSECTIONSTYLE
350
9E
  0
ACDBDETAILVIEWSTYLE
  5
6B
102
{ACAD_REACTORS
330
6A
102
}
330
6A
100
AcDbModelDocViewStyle
 70
     0
  3
Imperial24
290
     1
300
Imperial24
 90
        0
100
AcDbDetailViewStyle
 70
     0
 71
     0
 90
        3
 71
     1
340
55
 62
   256
 40
0.24
340
0
 62
   256
 40
0.24
300

 40
0.36
280
     3
 71
     2
340
5D
 90
       25
 62
   256
 71
     3
340
55
 62
   256
 40
0.24
 90
        1
 40
0.75
 90
        1
300
%<\AcVar ViewType \f "%tc1">% %<\AcVar ViewDetailId>%\PSCALE %<\AcVar ViewScale \f "%sn">%
 71
     4
340
5D
 90
       25
 62
   256
340
5D
 90
       25
 62
   256
280
     0
  0
LAYOUT
  5
6F
102
{ACAD_REACTORS
330
62
102
}
330
62
100
AcDbPlotSettings
  1

  2

  4

  6

 40
0.0
 41
0.0
 42
0.0
 43
0.0
 44
0.0
 45
0.0
 46
0.0
 47
0.0
 48
0.0
 49
0.0
140
0.0
141
0.0
142
1.0
143
1.0
 70
   688
 72
     0
 73
     0
 74
     5
  7

 75
    16
147
1.0
 76
     0
 77
     2
 78
   300
148
0.0
149
0.0
100
AcDbLayout
  1
Layout1
 70
     1
 71
     1
 10
0.0
 20
0.0
 11
12.0
 21
9.0
 12
0.0
 22
0.0
 32
0.0
 14
0.0
 24
0.0
 34
0.0
 15
0.0
 25
0.0
 35
0.0
146
0.0
 13
0.0
 23
0.0
 33
0.0
 16
1.0
 26
0.0
 36
0.0
 17
0.0
 27
1.0
 37
0.0
 76
     0
330
6C
  0
LAYOUT
  5
77
102
{ACAD_REACTORS
330
62
102
}
330
62
100
AcDbPlotSettings
  1

  2

  4

  6

 40
0.0
 41
0.0
 42
0.0
 43
0.0
 44
0.0
 45
0.0
 46
0.0
 47
0.0
 48
0.0
 49
0.0
140
0.0
141
0.0
142
1.0
143
1.0
 70
   688
 72
     0
 73
     0
 74
     5
  7

 75
    16
147
1.0
 76
     0
 77
     2
 78
   300
148
0.0
149
0.0
100
AcDbLayout
  1
Layout2
 70
     1
 71
     2
 10
0.0
 20
0.0
 11
12.0
 21
9.0
 12
0.0
 22
0.0
 32
0.0
 14
0.0
 24
0.0
 34
0.0
 15
0.0
 25
0.0
 35
0.0
146
0.0
 13
0.0
 23
0.0
 33
0.0
 16
1.0
 26
0.0
 36
0.0
 17
0.0
 27
1.0
 37
0.0
 76
     0
330
74
  0
LAYOUT
  5
73
102
{ACAD_REACTORS
330
62
102
}
330
62
100
AcDbPlotSettings
  1

  2

  4

  6

 40
0.0
 41
0.0
 42
0.0
 43
0.0
 44
0.0
 45
0.0
 46
0.0
 47
0.0
 48
0.0
 49
0.0
140
0.0
141
0.0
142
1.0
143
1.0
 70
  1712
 72
     0
 73
     0
 74
     0
  7

 75
     0
147
1.0
 76
     0
 77
     2
 78
   300
148
0.0
149
0.0
100
AcDbLayout
  1
Model
 70
     1
 71
     0
 10
0.0
 20
0.0
 11
12.0
 21
9.0
 12
0.0
 22
0.0
 32
0.0
 14
0.0
 24
0.0
 34
0.0
 15
0.0
 25
0.0
 35
0.0
146
0.0
 13
0.0
 23
0.0
 33
0.0
 16
1.0
 26
0.0
 36
0.0
 17
0.0
 27
1.0
 37
0.0
 76
     0
330
70
  0
MATERIAL
  5
19
102
{ACAD_XDICTIONARY
360
1A
102
}
102
{ACAD_REACTORS
330
10
102
}
330
10
100
AcDbMaterial
  1
ByBlock
 72
     0
 43
0.0208333333333333
 43
0.0
 43
0.0
 43
0.0
 43
0.0
 43
0.0208333333333333
 43
0.0
 43
0.0
 43
0.0
 43
0.0
 43
1.0
 43
0.0
 43
0.0
 43
0.0
 43
0.0
 43
1.0
 77
     0
 47
0.0208333333333333
 47
0.0
 47
0.0
 47
0.0
 47
0.0
 47
0.0208333333333333
 47
0.0
 47
0.0
 47
0.0
 47
0.0
 47
1.0
 47
0.0
 47
0.0
 47
0.0
 47
0.0
 47
1.0
171
     0
 49
0.0208333333333333
 49
0.0
 49
0.0
 49
0.0
 49
0.0
 49
0.0208333333333333
 49
0.0
 49
0.0
 49
0.0
 49
0.0
 49
1.0
 49
0.0
 49
0.0
 49
0.0
 49
0.0
 49
1.0
175
     0
142
0.0208333333333333
142
0.0
142
0.0
142
0.0
142
0.0
142
0.0208333333333333
142
0.0
142
0.0
142
0.0
142
0.0
142
1.0
142
0.0
142
0.0
142
0.0
142
0.0
142
1.0
179
     0
144
0.0208333333333333
144
0.0
144
0.0
144
0.0
144
0.0
144
0.0208333333333333
144
0.0
144
0.0
144
0.0
144
0.0
144
1.0
144
0.0
144
0.0
144
0.0
144
0.0
144
1.0
147
0.0208333333333333
147
0.0
147
0.0
147
0.0
147
0.0
147
0.0208333333333333
147
0.0
147
0.0
147
0.0
147
0.0
147
1.0
147
0.0
147
0.0
147
0.0
147
0.0
147
1.0
  0
MATERIAL
  5
11
102
{ACAD_XDICTIONARY
360
12
102
}
102
{ACAD_REACTORS
330
10
102
}
330
10
100
AcDbMaterial
  1
ByLayer
 72
     0
 43
0.0208333333333333
 43
0.0
 43
0.0
 43
0.0
 43
0.0
 43
0.0208333333333333
 43
0.0
 43
0.0
 43
0.0
 43
0.0
 43
1.0
 43
0.0
 43
0.0
 43
0.0
 43
0.0
 43
1.0
 77
     0
 47
0.0208333333333333
 47
0.0
 47
0.0
 47
0.0
 47
0.0
 47
0.0208333333333333
 47
0.0
 47
0.0
 47
0.0
 47
0.0
 47
1.0
 47
0.0
 47
0.0
 47
0.0
 47
0.0
 47
1.0
171
     0
 49
0.0208333333333333
 49
0.0
 49
0.0
 49
0.0
 49
0.0
 49
0.0208333333333333
 49
0.0
 49
0.0
 49
0.0
 49
0.0
 49
1.0
 49
0.0
 49
0.0
 49
0.0
 49
0.0
 49
1.0
175
     0
142
0.0208333333333333
142
0.0
142
0.0
142
0.0
142
0.0
142
0.0208333333333333
142
0.0
142
0.0
142
0.0
142
0.0
142
1.0
142
0.0
142
0.0
142
0.0
142
0.0
142
1.0
179
     0
144
0.0208333333333333
144
0.0
144
0.0
144
0.0
144
0.0
144
0.0208333333333333
144
0.0
144
0.0
144
0.0
144
0.0
144
1.0
144
0.0
144
0.0
144
0.0
144
0.0
144
1.0
147
0.0208333333333333
147
0.0
147
0.0
147
0.0
147
0.0
147
0.0208333333333333
147
0.0
147
0.0
147
0.0
147
0.0
147
1.0
147
0.0
147
0.0
147
0.0
147
0.0
147
1.0
  0
MATERIAL
  5
21
102
{ACAD_XDICTIONARY
360
22
102
}
102
{ACAD_REACTORS
330
10
102
}
330
10
100
AcDbMaterial
  1
Global
 72
     0
 43
0.0208333333333333
 43
0.0
 43
0.0
 43
0.0
 43
0.0
 43
0.0208333333333333
 43
0.0
 43
0.0
 43
0.0
 43
0.0
 43
1.0
 43
0.0
 43
0.0
 43
0.0
 43
0.0
 43
1.0
 77
     0
 47
0.0208333333333333
 47
0.0
 47
0.0
 47
0.0
 47
0.0
 47
0.0208333333333333
 47
0.0
 47
0.0
 47
0.0
 47
0.0
 47
1.0
 47
0.0
 47
0.0
 47
0.0
 47
0.0
 47
1.0
171
     0
 49
0.0208333333333333
 49
0.0
 49
0.0
 49
0.0
 49
0.0
 49
0.0208333333333333
 49
0.0
 49
0.0
 49
0.0
 49
0.0
 49
1.0
 49
0.0
 49
0.0
 49
0.0
 49
0.0
 49
1.0
175
     0
142
0.0208333333333333
142
0.0
142
0.0
142
0.0
142
0.0
142
0.0208333333333333
142
0.0
142
0.0
142
0.0
142
0.0
142
1.0
142
0.0
142
0.0
142
0.0
142
0.0
142
1.0
179
     0
144
0.0208333333333333
144
0.0
144
0.0
144
0.0
144
0.0
144
0.0208333333333333
144
0.0
144
0.0
144
0.0
144
0.0
144
1.0
144
0.0
144
0.0
144
0.0
144
0.0
144
1.0
147
0.0208333333333333
147
0.0
147
0.0
147
0.0
147
0.0
147
0.0208333333333333
147
0.0
147
0.0
147
0.0
147
0.0
147
1.0
147
0.0
147
0.0
147
0.0
147
0.0
147
1.0
  0
MLEADERSTYLE
  5
67
102
{ACAD_REACTORS
330
66
102
}
330
66
100
AcDbMLeaderStyle
179
     2
170
     2
171
     1
172
     0
 90
        2
 40
0.0
 41
0.0
173
     1
 91
-1056964608
340
5B
 92
       -2
290
     1
 42
0.09
291
     1
 43
0.36
  3
Standard
 44
0.18
300

342
55
174
     1
178
     6
175
     1
176
     0
 93
-1056964608
 45
0.18
292
     0
297
     0
 46
0.18
 94
-1056964608
 47
1.0
 49
1.0
140
1.0
293
     1
141
0.0
294
     1
177
     0
142
1.0
295
     1
296
     0
143
0.125
271
     0
272
     9
273
     9
298
     1
  0
MLINESTYLE
  5
60
102
{ACAD_REACTORS
330
5F
102
}
330
5F
100
AcDbMlineStyle
  2
STANDARD
 70
     0
  3

 62
   256
 51
90.0
 52
90.0
 71
     2
 49
0.5
 62
   256
  6
BYLAYER
 49
-0.5
 62
   256
  6
BYLAYER
  0
ACDBPLACEHOLDER
  5
F
102
{ACAD_REACTORS
330
E
102
}
330
E
  0
SCALE
  5
43
102
{ACAD_REACTORS
330
42
102
}
330
42
100
AcDbScale
 70
     0
300
1:1
140
1.0
141
1.0
290
     1
  0
SCALE
  5
44
102
{ACAD_REACTORS
330
42
102
}
330
42
100
AcDbScale
 70
     0
300
1/128" = 1'-0"
140
0.0078125
141
12.0
290
     0
  0
SCALE
  5
45
102
{ACAD_REACTORS
330
42
102
}
330
42
100
AcDbScale
 70
     0
300
1/64" = 1'-0"
140
0.015625
141
12.0
290
     0
  0
SCALE
  5
46
102
{ACAD_REACTORS
330
42
102
}
330
42
100
AcDbScale
 70
     0
300
1/32" = 1'-0"
140
0.03125
141
12.0
290
     0
  0
SCALE
  5
47
102
{ACAD_REACTORS
330
42
102
}
330
42
100
AcDbScale
 70
     0
300
1/16" = 1'-0"
140
0.0625
141
12.0
290
     0
  0
SCALE
  5
48
102
{ACAD_REACTORS
330
42
102
}
330
42
100
AcDbScale
 70
     0
300
3/32" = 1'-0"
140
0.09375
141
12.0
290
     0
  0
SCALE
  5
49
102
{ACAD_REACTORS
330
42
102
}
330
42
100
AcDbScale
 70
     0
300
1/8" = 1'-0"
140
0.125
141
12.0
290
     0
  0
SCALE
  5
4A
102
{ACAD_REACTORS
330
42
102
}
330
42
100
AcDbScale
 70
     0
300
3/16" = 1'-0"
140
0.1875
141
12.0
290
     0
  0
SCALE
  5
4B
102
{ACAD_REACTORS
330
42
102
}
330
42
100
AcDbScale
 70
     0
300
1/4" = 1'-0"
140
0.25
141
12.0
290
     0
  0
SCALE
  5
4C
102
{ACAD_REACTORS
330
42
102
}
330
42
100
AcDbScale
 70
     0
300
3/8" = 1'-0"
140
0.375
141
12.0
290
     0
  0
SCALE
  5
4D
102
{ACAD_REACTORS
330
42
102
}
330
42
100
AcDbScale
 70
     0
300
1/2" = 1'-0"
140
0.5
141
12.0
290
     0
  0
SCALE
  5
4E
102
{ACAD_REACTORS
330
42
102
}
330
42
100
AcDbScale
 70
     0
300
3/4" = 1'-0"
140
0.75
141
12.0
290
     0
  0
SCALE
  5
4F
102
{ACAD_REACTORS
330
42
102
}
330
42
100
AcDbScale
 70
     0
300
1" = 1'-0"
140
1.0
141
12.0
290
     0
  0
SCALE
  5
50
102
{ACAD_REACTORS
330
42
102
}
330
42
100
AcDbScale
 70
     0
300
1-1/2" = 1'-0"
140
1.5
141
12.0
290
     0
  0
SCALE
  5
51
102
{ACAD_REACTORS
330
42
102
}
330
42
100
AcDbScale
 70
     0
300
3" = 1'-0"
140
3.0
141
12.0
290
     0
  0
SCALE
  5
52
102
{ACAD_REACTORS
330
42
102
}
330
42
100
AcDbScale
 70
     0
300
6" = 1'-0"
140
6.0
141
12.0
290
     0
  0
SCALE
  5
53
102
{ACAD_REACTORS
330
42
102
}
330
42
100
AcDbScale
 70
     0
300
1'-0" = 1'-0"
140
12.0
141
12.0
290
     0
  0
ACDBSECTIONVIEWSTYLE
  5
69
102
{ACAD_REACTORS
330
68
102
}
330
68
100
AcDbModelDocViewStyle
 70
     0
  3
Imperial24
290
     1
300
Imperial24
 90
        0
100
AcDbSectionViewStyle
 70
     0
 71
     0
 90
       78
 71
     1
340
55
 62
   256
 40
0.24
340
0
340
0
 62
   256
 40
0.24
300
I, O, Q, S, X, Z
 40
0.48
 90
        3
 40
0.18
 90
        1
 71
     2
340
5D
 90
       25
 62
   256
340
5D
 90
       50
 62
   256
 40
0.24
 40
0.0
 40
0.24
 71
     3
340
55
 62
   256
 40
0.24
 90
        1
 40
0.75
 90
        1
300
%<\AcVar ViewType \f "%tc1">% %<\AcVar ViewSectionStartId>%-%<\AcVar ViewSectionEndId>%\PSCALE %<\AcVar ViewScale \f "%sn">%
 71
     4
 62
   256
 62
   257
300
ANSI31
 40
1.0
 90
        0
290
     0
290
     0
 90
        6
 40
0.0
 40
1.570796326794896
 40
0.2617993877991494
 40
1.308996938995747
 40
-0.2617993877991494
 40
1.832595714594046
  0
TABLESTYLE
  5
65
102
{ACAD_XDICTIONARY
360
A0
102
}
102
{ACAD_REACTORS
330
64
102
}
330
64
100
AcDbTableStyle
280
     0
  3
Standard
 70
     0
 71
     0
 40
0.06
 41
0.06
280
     0
281
     0
  7
Standard
140
0.18
170
     2
 62
     0
 63
     7
283
     0
 90
      512
 91
        0
  1

274
    -2
284
     1
 64
     0
275
    -2
285
     1
 65
     0
276
    -2
286
     1
 66
     0
277
    -2
287
     1
 67
     0
278
    -2
288
     1
 68
     0
279
    -2
289
     1
 69
     0
  7
Standard
140
0.25
170
     5
 62
     0
 63
     7
283
     0
 90
      512
 91
        0
  1

274
    -2
284
     1
 64
     0
275
    -2
285
     1
 65
     0
276
    -2
286
     1
 66
     0
277
    -2
287
     1
 67
     0
278
    -2
288
     1
 68
     0
279
    -2
289
     1
 69
     0
  7
Standard
140
0.18
170
     5
 62
     0
 63
     7
283
     0
 90
      512
 91
        0
  1

274
    -2
284
     1
 64
     0
275
    -2
285
     1
 65
     0
276
    -2
286
     1
 66
     0
277
    -2
287
     1
 67
     0
278
    -2
288
     1
 68
     0
279
    -2
289
     1
 69
     0
  0
VISUALSTYLE
  5
2F
102
{ACAD_REACTORS
330
29
102
}
330
29
100
AcDbVisualStyle
  2
2dWireframe
 70
     4
177
     3
291
     0
 70
    58
 90
        0
176
     1
 90
        2
176
     1
 90
        0
176
     1
 90
        0
176
     1
 40
0.6
176
     1
 40
30.0
176
     1
 62
     7
420
 16777215
176
     1
 90
        1
176
     1
 90
        4
176
     1
 62
     7
176
     1
 62
   257
176
     1
 90
        1
176
     1
 90
        1
176
     1
 40
1.0
176
     1
 90
        0
176
     1
 62
   257
176
     1
 40
1.0
176
     1
 90
        1
176
     1
 90
        6
176
     1
 90
        2
176
     1
 62
     7
176
     1
 90
        5
176
     1
 90
        0
176
     1
 90
        0
176
     1
290
     0
176
     1
 90
        1
176
     1
 40
0.0
176
     1
 90
        0
176
     1
290
     1
176
     1
290
     1
176
     1
290
     0
176
     1
290
     0
176
     1
290
     0
176
     1
290
     0
176
     1
290
     0
176
     1
290
     0
176
     1
290
     0
176
     1
 90
       50
176
     1
 40
0.0
176
     1
 40
1.0
176
     1
 90
        0
176
     1
 62
    18
420
        0
176
     1
 90
       50
176
     1
 90
        3
176
     1
 62
     5
420
      255
176
     1
290
     0
176
     1
 90
       50
176
     1
 90
       50
176
     1
 90
       50
176
     1
290
     0
176
     1
 90
       50
176
     1
 62
   256
176
     0
 40
1.0
176
     0
 90
        2
176
     1
  1
strokes_ogs.tif
176
     1
290
     0
176
     1
 40
1.0
176
     1
 40
1.0
176
     1
  0
VISUALSTYLE
  5
2E
102
{ACAD_REACTORS
330
29
102
}
330
29
100
AcDbVisualStyle
  2
Basic
 70
     7
177
     3
291
     1
 70
    58
 90
        1
176
     1
 90
        0
176
     1
 90
        1
176
     1
 90
        0
176
     1
 40
0.6
176
     1
 40
30.0
176
     1
 62
     7
420
 16777215
176
     1
 90
        0
176
     1
 90
        4
176
     1
 62
     7
176
     1
 62
   257
176
     1
 90
        1
176
     1
 90
        1
176
     1
 40
1.0
176
     1
 90
        8
176
     1
 62
     7
176
     1
 40
1.0
176
     1
 90
        1
176
     1
 90
        6
176
     1
 90
        2
176
     1
 62
     7
176
     1
 90
        5
176
     1
 90
        0
176
     1
 90
        0
176
     1
290
     0
176
     1
 90
        1
176
     1
 40
0.0
176
     1
 90
        0
176
     1
290
     0
176
     1
290
     1
176
     1
290
     1
176
     1
290
     0
176
     1
290
     0
176
     1
290
     0
176
     1
290
     0
176
     1
290
     0
176
     1
290
     0
176
     1
 90
       50
176
     1
 40
0.0
176
     1
 40
1.0
176
     1
 90
        0
176
     1
 62
    18
420
        0
176
     1
 90
       50
176
     1
 90
        3
176
     1
 62
     5
420
      255
176
     1
290
     0
176
     1
 90
       50
176
     1
 90
       50
176
     1
 90
       50
176
     1
290
     0
176
     1
 90
       50
176
     1
 62
   256
176
     0
 40
1.0
176
     0
 90
        2
176
     1
  1
strokes_ogs.tif
176
     1
290
     0
176
     1
 40
1.0
176
     1
 40
1.0
176
     1
  0
VISUALSTYLE
  5
35
102
{ACAD_REACTORS
330
29
102
}
330
29
100
AcDbVisualStyle
  2
Brighten
 70
    12
177
     3
291
     1
 70
    58
 90
        2
176
     1
 90
        2
176
     1
 90
        0
176
     1
 90
        0
176
     1
 40
0.6
176
     1
 40
30.0
176
     1
 62
     7
420
 16777215
176
     1
 90
        1
176
     1
 90
        4
176
     1
 62
     7
176
     1
 62
   257
176
     1
 90
        1
176
     1
 90
        1
176
     1
 40
1.0
176
     1
 90
        8
176
     1
 62
     7
176
     1
 40
1.0
176
     1
 90
        1
176
     1
 90
        6
176
     1
 90
        2
176
     1
 62
     7
176
     1
 90
        5
176
     1
 90
        0
176
     1
 90
        0
176
     1
290
     0
176
     1
 90
        1
176
     1
 40
50.0
176
     1
 90
        0
176
     1
290
     0
176
     1
290
     1
176
     1
290
     1
176
     1
290
     0
176
     1
290
     0
176
     1
290
     0
176
     1
290
     0
176
     1
290
     0
176
     1
290
     0
176
     1
 90
       50
176
     1
 40
0.0
176
     1
 40
1.0
176
     1
 90
        0
176
     1
 62
    18
420
        0
176
     1
 90
       50
176
     1
 90
        3
176
     1
 62
     5
420
      255
176
     1
290
     0
176
     1
 90
       50
176
     1
 90
       50
176
     1
 90
       50
176
     1
290
     0
176
     1
 90
       50
176
     1
 62
   256
176
     0
 40
1.0
176
     0
 90
        2
176
     1
  1
strokes_ogs.tif
176
     1
290
     0
176
     1
 40
1.0
176
     1
 40
1.0
176
     1
  0
VISUALSTYLE
  5
39
102
{ACAD_REACTORS
330
29
102
}
330
29
100
AcDbVisualStyle
  2
ColorChange
 70
    16
177
     3
291
     1
 70
    58
 90
        2
176
     1
 90
        2
176
     1
 90
        3
176
     1
 90
        0
176
     1
 40
0.6
176
     1
 40
30.0
176
     1
 62
     8
420
  8421504
176
     1
 90
        1
176
     1
 90
        4
176
     1
 62
     7
176
     1
 62
   257
176
     1
 90
        1
176
     1
 90
        1
176
     1
 40
1.0
176
     1
 90
        8
176
     1
 62
     8
420
  8421504
176
     1
 40
1.0
176
     1
 90
        1
176
     1
 90
        6
176
     1
 90
        2
176
     1
 62
     7
176
     1
 90
        5
176
     1
 90
        0
176
     1
 90
        0
176
     1
290
     0
176
     1
 90
        1
176
     1
 40
0.0
176
     1
 90
        0
176
     1
290
     0
176
     1
290
     1
176
     1
290
     1
176
     1
290
     0
176
     1
290
     0
176
     1
290
     0
176
     1
290
     0
176
     1
290
     0
176
     1
290
     0
176
     1
 90
       50
176
     1
 40
0.0
176
     1
 40
1.0
176
     1
 90
        0
176
     1
 62
    18
420
        0
176
     1
 90
       50
176
     1
 90
        3
176
     1
 62
     5
420
      255
176
     1
290
     0
176
     1
 90
       50
176
     1
 90
       50
176
     1
 90
       50
176
     1
290
     0
176
     1
 90
       50
176
     1
 62
   256
176
     0
 40
1.0
176
     0
 90
        2
176
     1
  1
strokes_ogs.tif
176
     1
290
     0
176
     1
 40
1.0
176
     1
 40
1.0
176
     1
  0
VISUALSTYLE
  5
32
102
{ACAD_REACTORS
330
29
102
}
330
29
100
AcDbVisualStyle
  2
Conceptual
 70
     9
177
     3
291
     0
 70
    58
 90
        3
176
     1
 90
        2
176
     1
 90
        0
176
     1
 90
        0
176
     1
 40
0.6
176
     1
 40
30.0
176
     1
 62
     7
420
 16777215
176
     1
 90
        2
176
     1
 90
        2
176
     1
 62
     7
176
     1
 62
   257
176
     1
 90
        1
176
     1
 90
        1
176
     1
 40
179.0
176
     1
 90
        8
176
     1
 62
     7
176
     1
 40
1.0
176
     1
 90
        1
176
     1
 90
        6
176
     1
 90
        2
176
     1
 62
     7
176
     1
 90
        3
176
     1
 90
        0
176
     1
 90
        0
176
     1
290
     0
176
     1
 90
        1
176
     1
 40
0.0
176
     1
 90
        0
176
     1
290
     0
176
     1
290
     1
176
     1
290
     1
176
     1
290
     0
176
     1
290
     0
176
     1
290
     0
176
     1
290
     0
176
     1
290
     0
176
     1
290
     0
176
     1
 90
       50
176
     1
 40
0.0
176
     1
 40
1.0
176
     1
 90
        0
176
     1
 62
    18
420
        0
176
     1
 90
       50
176
     1
 90
        3
176
     1
 62
     5
420
      255
176
     1
290
     0
176
     1
 90
       50
176
     1
 90
       50
176
     1
 90
       50
176
     1
290
     0
176
     1
 90
       50
176
     1
 62
   256
176
     0
 40
1.0
176
     0
 90
        2
176
     1
  1
strokes_ogs.tif
176
     1
290
     0
176
     1
 40
1.0
176
     1
 40
1.0
176
     1
  0
VISUALSTYLE
  5
34
102
{ACAD_REACTORS
330
29
102
}
330
29
100
AcDbVisualStyle
  2
Dim
 70
    11
177
     3
291
     1
 70
    58
 90
        2
176
     1
 90
        2
176
     1
 90
        0
176
     1
 90
        0
176
     1
 40
0.6
176
     1
 40
30.0
176
     1
 62
     7
420
 16777215
176
     1
 90
        1
176
     1
 90
        4
176
     1
 62
     7
176
     1
 62
   257
176
     1
 90
        1
176
     1
 90
        1
176
     1
 40
1.0
176
     1
 90
        8
176
     1
 62
     7
176
     1
 40
1.0
176
     1
 90
        1
176
     1
 90
        6
176
     1
 90
        2
176
     1
 62
     7
176
     1
 90
        5
176
     1
 90
        0
176
     1
 90
        0
176
     1
290
     0
176
     1
 90
        1
176
     1
 40
-50.0
176
     1
 90
        0
176
     1
290
     0
176
     1
290
     1
176
     1
290
     1
176
     1
290
     0
176
     1
290
     0
176
     1
290
     0
176
     1
290
     0
176
     1
290
     0
176
     1
290
     0
176
     1
 90
       50
176
     1
 40
0.0
176
     1
 40
1.0
176
     1
 90
        0
176
     1
 62
    18
420
        0
176
     1
 90
       50
176
     1
 90
        3
176
     1
 62
     5
420
      255
176
     1
290
     0
176
     1
 90
       50
176
     1
 90
       50
176
     1
 90
       50
176
     1
290
     0
176
     1
 90
       50
176
     1
 62
   256
176
     0
 40
1.0
176
     0
 90
        2
176
     1
  1
strokes_ogs.tif
176
     1
290
     0
176
     1
 40
1.0
176
     1
 40
1.0
176
     1
  0
VISUALSTYLE
  5
41
102
{ACAD_REACTORS
330
29
102
}
330
29
100
AcDbVisualStyle
  2
EdgeColorOff
 70
    22
177
     3
291
     1
 70
    58
 90
        2
176
     0
 90
        2
176
     0
 90
        0
176
     0
 90
        0
176
     0
 40
0.6
176
     0
 40
30.0
176
     0
 62
     7
420
 16777215
176
     0
 90
        1
176
     0
 90
        4
176
     0
 62
     7
176
     0
 62
   257
176
     0
 90
        1
176
     0
 90
        1
176
     0
 40
1.0
176
     0
 90
        8
176
     2
 62
     7
176
     0
 40
1.0
176
     0
 90
        1
176
     0
 90
        6
176
     0
 90
        2
176
     0
 62
     7
176
     0
 90
        5
176
     0
 90
        0
176
     0
 90
        0
176
     0
290
     0
176
     0
 90
        1
176
     0
 40
0.0
176
     0
 90
        0
176
     0
290
     0
176
     0
290
     1
176
     0
290
     1
176
     0
290
     0
176
     0
290
     0
176
     0
290
     0
176
     0
290
     0
176
     0
290
     0
176
     0
290
     0
176
     0
 90
       50
176
     0
 40
0.0
176
     0
 40
1.0
176
     0
 90
        0
176
     0
 62
    18
420
        0
176
     0
 90
       50
176
     0
 90
        3
176
     0
 62
     5
420
      255
176
     0
290
     0
176
     0
 90
       50
176
     0
 90
       50
176
     0
 90
       50
176
     0
290
     0
176
     0
 90
       50
176
     0
 62
   256
176
     0
 40
1.0
176
     0
 90
        2
176
     0
  1
strokes_ogs.tif
176
     0
290
     0
176
     0
 40
1.0
176
     0
 40
1.0
176
     0
  0
VISUALSTYLE
  5
38
102
{ACAD_REACTORS
330
29
102
}
330
29
100
AcDbVisualStyle
  2
Facepattern
 70
    15
177
     3
291
     1
 70
    58
 90
        2
176
     1
 90
        2
176
     1
 90
        0
176
     1
 90
        0
176
     1
 40
0.6
176
     1
 40
30.0
176
     1
 62
     7
420
 16777215
176
     1
 90
        1
176
     1
 90
        4
176
     1
 62
     7
176
     1
 62
   257
176
     1
 90
        1
176
     1
 90
        1
176
     1
 40
1.0
176
     1
 90
        8
176
     1
 62
     7
176
     1
 40
1.0
176
     1
 90
        1
176
     1
 90
        6
176
     1
 90
        2
176
     1
 62
     7
176
     1
 90
        5
176
     1
 90
        0
176
     1
 90
        0
176
     1
290
     0
176
     1
 90
        1
176
     1
 40
0.0
176
     1
 90
        0
176
     1
290
     0
176
     1
290
     1
176
     1
290
     1
176
     1
290
     0
176
     1
290
     0
176
     1
290
     0
176
     1
290
     0
176
     1
290
     0
176
     1
290
     0
176
     1
 90
       50
176
     1
 40
0.0
176
     1
 40
1.0
176
     1
 90
        0
176
     1
 62
    18
420
        0
176
     1
 90
       50
176
     1
 90
        3
176
     1
 62
     5
420
      255
176
     1
290
     0
176
     1
 90
       50
176
     1
 90
       50
176
     1
 90
       50
176
     1
290
     0
176
     1
 90
       50
176
     1
 62
   256
176
     0
 40
1.0
176
     0
 90
        2
176
     1
  1
strokes_ogs.tif
176
     1
290
     0
176
     1
 40
1.0
176
     1
 40
1.0
176
     1
  0
VISUALSTYLE
  5
2A
102
{ACAD_REACTORS
330
29
102
}
330
29
100
AcDbVisualStyle
  2
Flat
 70
     0
177
     3
291
     1
 70
    58
 90
        2
176
     1
 90
        1
176
     1
 90
        1
176
     1
 90
        2
176
     1
 40
0.6
176
     1
 40
30.0
176
     1
 62
     7
420
 16777215
176
     1
 90
        0
176
     1
 90
        0
176
     1
 62
     7
176
     1
 62
   257
176
     1
 90
        1
176
     1
 90
        1
176
     1
 40
1.0
176
     1
 90
        8
176
     1
 62
     7
176
     1
 40
1.0
176
     1
 90
        1
176
     1
 90
        6
176
     1
 90
        2
176
     1
 62
     7
176
     1
 90
        5
176
     1
 90
        0
176
     1
 90
        0
176
     1
290
     0
176
     1
 90
       13
176
     1
 40
0.0
176
     1
 90
        0
176
     1
290
     0
176
     1
290
     1
176
     1
290
     1
176
     1
290
     0
176
     1
290
     0
176
     1
290
     0
176
     1
290
     0
176
     1
290
     0
176
     1
290
     0
176
     1
 90
       50
176
     1
 40
0.0
176
     1
 40
1.0
176
     1
 90
        0
176
     1
 62
    18
420
        0
176
     1
 90
       50
176
     1
 90
        3
176
     1
 62
     5
420
      255
176
     1
290
     0
176
     1
 90
       50
176
     1
 90
       50
176
     1
 90
       50
176
     1
290
     0
176
     1
 90
       50
176
     1
 62
   256
176
     0
 40
1.0
176
     0
 90
        2
176
     1
  1
strokes_ogs.tif
176
     1
290
     0
176
     1
 40
1.0
176
     1
 40
1.0
176
     1
  0
VISUALSTYLE
  5
2B
102
{ACAD_REACTORS
330
29
102
}
330
29
100
AcDbVisualStyle
  2
FlatWithEdges
 70
     1
177
     3
291
     1
 70
    58
 90
        2
176
     1
 90
        1
176
     1
 90
        1
176
     1
 90
        2
176
     1
 40
0.6
176
     1
 40
30.0
176
     1
 62
     7
420
 16777215
176
     1
 90
        1
176
     1
 90
        0
176
     1
 62
     7
176
     1
 62
   257
176
     1
 90
        1
176
     1
 90
        1
176
     1
 40
1.0
176
     1
 90
        0
176
     1
 62
   257
176
     1
 40
1.0
176
     1
 90
        1
176
     1
 90
        6
176
     1
 90
        2
176
     1
 62
     7
176
     1
 90
        5
176
     1
 90
        0
176
     1
 90
        0
176
     1
290
     0
176
     1
 90
       13
176
     1
 40
0.0
176
     1
 90
        0
176
     1
290
     0
176
     1
290
     1
176
     1
290
     1
176
     1
290
     0
176
     1
290
     0
176
     1
290
     0
176
     1
290
     0
176
     1
290
     0
176
     1
290
     0
176
     1
 90
       50
176
     1
 40
0.0
176
     1
 40
1.0
176
     1
 90
        0
176
     1
 62
    18
420
        0
176
     1
 90
       50
176
     1
 90
        3
176
     1
 62
     5
420
      255
176
     1
290
     0
176
     1
 90
       50
176
     1
 90
       50
176
     1
 90
       50
176
     1
290
     0
176
     1
 90
       50
176
     1
 62
   256
176
     0
 40
1.0
176
     0
 90
        2
176
     1
  1
strokes_ogs.tif
176
     1
290
     0
176
     1
 40
1.0
176
     1
 40
1.0
176
     1
  0
VISUALSTYLE
  5
2C
102
{ACAD_REACTORS
330
29
102
}
330
29
100
AcDbVisualStyle
  2
Gouraud
 70
     2
177
     3
291
     1
 70
    58
 90
        2
176
     1
 90
        2
176
     1
 90
        1
176
     1
 90
        2
176
     1
 40
0.6
176
     1
 40
30.0
176
     1
 62
     7
420
 16777215
176
     1
 90
        0
176
     1
 90
        0
176
     1
 62
     7
176
     1
 62
   257
176
     1
 90
        1
176
     1
 90
        1
176
     1
 40
1.0
176
     1
 90
        0
176
     1
 62
     7
176
     1
 40
1.0
176
     1
 90
        1
176
     1
 90
        6
176
     1
 90
        2
176
     1
 62
     7
176
     1
 90
        5
176
     1
 90
        0
176
     1
 90
        0
176
     1
290
     0
176
     1
 90
       13
176
     1
 40
0.0
176
     1
 90
        0
176
     1
290
     0
176
     1
290
     1
176
     1
290
     1
176
     1
290
     0
176
     1
290
     0
176
     1
290
     0
176
     1
290
     0
176
     1
290
     0
176
     1
290
     0
176
     1
 90
       50
176
     1
 40
0.0
176
     1
 40
1.0
176
     1
 90
        0
176
     1
 62
    18
420
        0
176
     1
 90
       50
176
     1
 90
        3
176
     1
 62
     5
420
      255
176
     1
290
     0
176
     1
 90
       50
176
     1
 90
       50
176
     1
 90
       50
176
     1
290
     0
176
     1
 90
       50
176
     1
 62
   256
176
     0
 40
1.0
176
     0
 90
        2
176
     1
  1
strokes_ogs.tif
176
     1
290
     0
176
     1
 40
1.0
176
     1
 40
1.0
176
     1
  0
VISUALSTYLE
  5
2D
102
{ACAD_REACTORS
330
29
102
}
330
29
100
AcDbVisualStyle
  2
GouraudWithEdges
 70
     3
177
     3
291
     1
 70
    58
 90
        2
176
     1
 90
        2
176
     1
 90
        1
176
     1
 90
        2
176
     1
 40
0.6
176
     1
 40
30.0
176
     1
 62
     7
420
 16777215
176
     1
 90
        1
176
     1
 90
        0
176
     1
 62
     7
176
     1
 62
   257
176
     1
 90
        1
176
     1
 90
        1
176
     1
 40
1.0
176
     1
 90
        0
176
     1
 62
   257
176
     1
 40
1.0
176
     1
 90
        1
176
     1
 90
        6
176
     1
 90
        2
176
     1
 62
     7
176
     1
 90
        5
176
     1
 90
        0
176
     1
 90
        0
176
     1
290
     0
176
     1
 90
       13
176
     1
 40
0.0
176
     1
 90
        0
176
     1
290
     0
176
     1
290
     1
176
     1
290
     1
176
     1
290
     0
176
     1
290
     0
176
     1
290
     0
176
     1
290
     0
176
     1
290
     0
176
     1
290
     0
176
     1
 90
       50
176
     1
 40
0.0
176
     1
 40
1.0
176
     1
 90
        0
176
     1
 62
    18
420
        0
176
     1
 90
       50
176
     1
 90
        3
176
     1
 62
     5
420
      255
176
     1
290
     0
176
     1
 90
       50
176
     1
 90
       50
176
     1
 90
       50
176
     1
290
     0
176
     1
 90
       50
176
     1
 62
   256
176
     0
 40
1.0
176
     0
 90
        2
176
     1
  1
strokes_ogs.tif
176
     1
290
     0
176
     1
 40
1.0
176
     1
 40
1.0
176
     1
  0
VISUALSTYLE
  5
31
102
{ACAD_REACTORS
330
29
102
}
330
29
100
AcDbVisualStyle
  2
Hidden
 70
     6
177
     3
291
     0
 70
    58
 90
        1
176
     1
 90
        2
176
     1
 90
        2
176
     1
 90
        0
176
     1
 40
0.6
176
     1
 40
30.0
176
     1
 62
     7
420
 16777215
176
     1
 90
        2
176
     1
 90
        2
176
     1
 62
     7
176
     1
 62
   257
176
     1
 90
        2
176
     1
 90
        1
176
     1
 40
40.0
176
     1
 90
        0
176
     1
 62
   257
176
     1
 40
1.0
176
     1
 90
        1
176
     1
 90
        6
176
     1
 90
        2
176
     1
 62
     7
176
     1
 90
        3
176
     1
 90
        0
176
     1
 90
        0
176
     1
290
     0
176
     1
 90
        1
176
     1
 40
0.0
176
     1
 90
        0
176
     1
290
     0
176
     1
290
     1
176
     1
290
     1
176
     1
290
     0
176
     1
290
     0
176
     1
290
     0
176
     1
290
     0
176
     1
290
     0
176
     1
290
     0
176
     1
 90
       50
176
     1
 40
0.0
176
     1
 40
1.0
176
     1
 90
        0
176
     1
 62
    18
420
        0
176
     1
 90
       50
176
     1
 90
        3
176
     1
 62
     5
420
      255
176
     1
290
     0
176
     1
 90
       50
176
     1
 90
       50
176
     1
 90
       50
176
     1
290
     0
176
     1
 90
       50
176
     1
 62
   256
176
     0
 40
1.0
176
     0
 90
        2
176
     1
  1
strokes_ogs.tif
176
     1
290
     0
176
     1
 40
1.0
176
     1
 40
1.0
176
     1
  0
VISUALSTYLE
  5
3F
102
{ACAD_REACTORS
330
29
102
}
330
29
100
AcDbVisualStyle
  2
JitterOff
 70
    20
177
     3
291
     1
 70
    58
 90
        2
176
     0
 90
        2
176
     0
 90
        0
176
     0
 90
        0
176
     0
 40
0.6
176
     0
 40
30.0
176
     0
 62
     7
420
 16777215
176
     0
 90
        1
176
     0
 90
        4
176
     0
 62
     7
176
     0
 62
   257
176
     0
 90
        1
176
     0
 90
        1
176
     0
 40
1.0
176
     0
 90
       10
176
     2
 62
     7
176
     0
 40
1.0
176
     0
 90
        1
176
     0
 90
        6
176
     0
 90
        2
176
     0
 62
     7
176
     0
 90
        5
176
     0
 90
        0
176
     0
 90
        0
176
     0
290
     0
176
     0
 90
        1
176
     0
 40
0.0
176
     0
 90
        0
176
     0
290
     0
176
     0
290
     1
176
     0
290
     1
176
     0
290
     0
176
     0
290
     0
176
     0
290
     0
176
     0
290
     0
176
     0
290
     0
176
     0
290
     0
176
     0
 90
       50
176
     0
 40
0.0
176
     0
 40
1.0
176
     0
 90
        0
176
     0
 62
    18
420
        0
176
     0
 90
       50
176
     0
 90
        3
176
     0
 62
     5
420
      255
176
     0
290
     0
176
     0
 90
       50
176
     0
 90
       50
176
     0
 90
       50
176
     0
290
     0
176
     0
 90
       50
176
     0
 62
   256
176
     0
 40
1.0
176
     0
 90
        2
176
     0
  1
strokes_ogs.tif
176
     0
290
     0
176
     0
 40
1.0
176
     0
 40
1.0
176
     0
  0
VISUALSTYLE
  5
37
102
{ACAD_REACTORS
330
29
102
}
330
29
100
AcDbVisualStyle
  2
Linepattern
 70
    14
177
     3
291
     1
 70
    58
 90
        2
176
     1
 90
        2
176
     1
 90
        0
176
     1
 90
        0
176
     1
 40
0.6
176
     1
 40
30.0
176
     1
 62
     7
420
 16777215
176
     1
 90
        1
176
     1
 90
        4
176
     1
 62
     7
176
     1
 62
   257
176
     1
 90
        7
176
     1
 90
        7
176
     1
 40
1.0
176
     1
 90
        8
176
     1
 62
     7
176
     1
 40
1.0
176
     1
 90
        1
176
     1
 90
        6
176
     1
 90
        2
176
     1
 62
     7
176
     1
 90
        5
176
     1
 90
        0
176
     1
 90
        0
176
     1
290
     0
176
     1
 90
        1
176
     1
 40
0.0
176
     1
 90
        0
176
     1
290
     0
176
     1
290
     1
176
     1
290
     1
176
     1
290
     0
176
     1
290
     0
176
     1
290
     0
176
     1
290
     0
176
     1
290
     0
176
     1
290
     0
176
     1
 90
       50
176
     1
 40
0.0
176
     1
 40
1.0
176
     1
 90
        0
176
     1
 62
    18
420
        0
176
     1
 90
       50
176
     1
 90
        3
176
     1
 62
     5
420
      255
176
     1
290
     0
176
     1
 90
       50
176
     1
 90
       50
176
     1
 90
       50
176
     1
290
     0
176
     1
 90
       50
176
     1
 62
   256
176
     0
 40
1.0
176
     0
 90
        2
176
     1
  1
strokes_ogs.tif
176
     1
290
     0
176
     1
 40
1.0
176
     1
 40
1.0
176
     1
  0
VISUALSTYLE
  5
40
102
{ACAD_REACTORS
330
29
102
}
330
29
100
AcDbVisualStyle
  2
OverhangOff
 70
    21
177
     3
291
     1
 70
    58
 90
        2
176
     0
 90
        2
176
     0
 90
        0
176
     0
 90
        0
176
     0
 40
0.6
176
     0
 40
30.0
176
     0
 62
     7
420
 16777215
176
     0
 90
        1
176
     0
 90
        4
176
     0
 62
     7
176
     0
 62
   257
176
     0
 90
        1
176
     0
 90
        1
176
     0
 40
1.0
176
     0
 90
        9
176
     2
 62
     7
176
     0
 40
1.0
176
     0
 90
        1
176
     0
 90
        6
176
     0
 90
        2
176
     0
 62
     7
176
     0
 90
        5
176
     0
 90
        0
176
     0
 90
        0
176
     0
290
     0
176
     0
 90
        1
176
     0
 40
0.0
176
     0
 90
        0
176
     0
290
     0
176
     0
290
     1
176
     0
290
     1
176
     0
290
     0
176
     0
290
     0
176
     0
290
     0
176
     0
290
     0
176
     0
290
     0
176
     0
290
     0
176
     0
 90
       50
176
     0
 40
0.0
176
     0
 40
1.0
176
     0
 90
        0
176
     0
 62
    18
420
        0
176
     0
 90
       50
176
     0
 90
        3
176
     0
 62
     5
420
      255
176
     0
290
     0
176
     0
 90
       50
176
     0
 90
       50
176
     0
 90
       50
176
     0
290
     0
176
     0
 90
       50
176
     0
 62
   256
176
     0
 40
1.0
176
     0
 90
        2
176
     0
  1
strokes_ogs.tif
176
     0
290
     0
176
     0
 40
1.0
176
     0
 40
1.0
176
     0
  0
VISUALSTYLE
  5
33
102
{ACAD_REACTORS
330
29
102
}
330
29
100
AcDbVisualStyle
  2
Realistic
 70
     8
177
     3
291
     0
 70
    58
 90
        2
176
     1
 90
        3
176
     1
 90
        0
176
     1
 90
        2
176
     1
 40
0.6
176
     1
 40
30.0
176
     1
 62
     7
420
 16777215
176
     1
 90
        0
176
     1
 90
        0
176
     1
 62
     7
176
     1
 62
   257
176
     1
 90
        1
176
     1
 90
        1
176
     1
 40
1.0
176
     1
 90
        8
176
     1
 62
   257
176
     1
 40
1.0
176
     1
 90
        1
176
     1
 90
        6
176
     1
 90
        2
176
     1
 62
     7
176
     1
 90
        3
176
     1
 90
        0
176
     1
 90
        0
176
     1
290
     0
176
     1
 90
       13
176
     1
 40
0.0
176
     1
 90
        0
176
     1
290
     0
176
     1
290
     1
176
     1
290
     1
176
     1
290
     0
176
     1
290
     0
176
     1
290
     0
176
     1
290
     0
176
     1
290
     0
176
     1
290
     0
176
     1
 90
       50
176
     1
 40
0.0
176
     1
 40
1.0
176
     1
 90
        0
176
     1
 62
    18
420
        0
176
     1
 90
       50
176
     1
 90
        3
176
     1
 62
     5
420
      255
176
     1
290
     0
176
     1
 90
       50
176
     1
 90
       50
176
     1
 90
       50
176
     1
290
     0
176
     1
 90
       50
176
     1
 62
   256
176
     0
 40
1.0
176
     0
 90
        2
176
     1
  1
strokes_ogs.tif
176
     1
290
     0
176
     1
 40
1.0
176
     1
 40
1.0
176
     1
  0
VISUALSTYLE
  5
3E
102
{ACAD_REACTORS
330
29
102
}
330
29
100
AcDbVisualStyle
  2
Shaded
 70
    27
177
     3
291
     0
 70
    58
 90
        2
176
     1
 90
        2
176
     1
 90
        1
176
     1
 90
        2
176
     1
 40
0.6
176
     1
 40
30.0
176
     1
 62
     7
420
 16777215
176
     1
 90
        0
176
     1
 90
        4
176
     1
 62
     7
176
     1
 62
   257
176
     1
 90
        1
176
     1
 90
        1
176
     1
 40
1.0
176
     1
 90
        8
176
     1
 62
   257
176
     1
 40
1.0
176
     1
 90
        1
176
     1
 90
        6
176
     1
 90
        2
176
     1
 62
     8
420
  7895160
176
     1
 90
        3
176
     1
 90
        0
176
     1
 90
        0
176
     1
290
     0
176
     1
 90
        5
176
     1
 40
0.0
176
     1
 90
        0
176
     1
290
     0
176
     1
290
     1
176
     1
290
     1
176
     1
290
     0
176
     1
290
     0
176
     1
290
     0
176
     1
290
     0
176
     1
290
     0
176
     1
290
     0
176
     1
 90
       50
176
     1
 40
0.0
176
     1
 40
1.0
176
     1
 90
        0
176
     1
 62
    18
420
        0
176
     1
 90
       50
176
     1
 90
        3
176
     1
 62
     5
420
      255
176
     1
290
     0
176
     1
 90
       50
176
     1
 90
       50
176
     1
 90
       50
176
     1
290
     0
176
     1
 90
       50
176
     1
 62
   256
176
     0
 40
1.0
176
     0
 90
        2
176
     1
  1
strokes_ogs.tif
176
     1
290
     0
176
     1
 40
1.0
176
     1
 40
1.0
176
     1
  0
VISUALSTYLE
  5
3D
102
{ACAD_REACTORS
330
29
102
}
330
29
100
AcDbVisualStyle
  2
Shaded with edges
 70
    26
177
     3
291
     0
 70
    58
 90
        2
176
     1
 90
        2
176
     1
 90
        1
176
     1
 90
        2
176
     1
 40
0.6
176
     1
 40
30.0
176
     1
 62
     7
420
 16777215
176
     1
 90
        1
176
     1
 90
        2
176
     1
 62
     7
176
     1
 62
   257
176
     1
 90
        2
176
     1
 90
        1
176
     1
 40
1.0
176
     1
 90
        8
176
     1
 62
   257
176
     1
 40
1.0
176
     1
 90
        1
176
     1
 90
        6
176
     1
 90
        2
176
     1
 62
     7
176
     1
 90
        3
176
     1
 90
        0
176
     1
 90
        0
176
     1
290
     0
176
     1
 90
        5
176
     1
 40
0.0
176
     1
 90
        0
176
     1
290
     0
176
     1
290
     1
176
     1
290
     1
176
     1
290
     0
176
     1
290
     0
176
     1
290
     0
176
     1
290
     0
176
     1
290
     0
176
     1
290
     0
176
     1
 90
       50
176
     1
 40
0.0
176
     1
 40
1.0
176
     1
 90
        0
176
     1
 62
    18
420
        0
176
     1
 90
       50
176
     1
 90
        3
176
     1
 62
     5
420
      255
176
     1
290
     0
176
     1
 90
       50
176
     1
 90
       50
176
     1
 90
       50
176
     1
290
     0
176
     1
 90
       50
176
     1
 62
   256
176
     0
 40
1.0
176
     0
 90
        2
176
     1
  1
strokes_ogs.tif
176
     1
290
     0
176
     1
 40
1.0
176
     1
 40
1.0
176
     1
  0
VISUALSTYLE
  5
3A
102
{ACAD_REACTORS
330
29
102
}
330
29
100
AcDbVisualStyle
  2
Shades of Gray
 70
    23
177
     3
291
     0
 70
    58
 90
        2
176
     1
 90
        2
176
     1
 90
        3
176
     1
 90
        0
176
     1
 40
0.6
176
     1
 40
30.0
176
     1
 62
     7
420
 16777215
176
     1
 90
        2
176
     1
 90
        2
176
     1
 62
     7
176
     1
 62
     7
176
     1
 90
        1
176
     1
 90
        1
176
     1
 40
40.0
176
     1
 90
        8
176
     1
 62
     7
176
     1
 40
1.0
176
     1
 90
        1
176
     1
 90
        6
176
     1
 90
        2
176
     1
 62
     7
176
     1
 90
        3
176
     1
 90
        0
176
     1
 90
        0
176
     1
290
     0
176
     1
 90
        1
176
     1
 40
0.0
176
     1
 90
        0
176
     1
290
     0
176
     1
290
     1
176
     1
290
     1
176
     1
290
     0
176
     1
290
     0
176
     1
290
     0
176
     1
290
     0
176
     1
290
     0
176
     1
290
     0
176
     1
 90
       50
176
     1
 40
0.0
176
     1
 40
1.0
176
     1
 90
        0
176
     1
 62
    18
420
        0
176
     1
 90
       50
176
     1
 90
        3
176
     1
 62
     5
420
      255
176
     1
290
     0
176
     1
 90
       50
176
     1
 90
       50
176
     1
 90
       50
176
     1
290
     0
176
     1
 90
       50
176
     1
 62
   256
176
     0
 40
1.0
176
     0
 90
        2
176
     1
  1
strokes_ogs.tif
176
     1
290
     0
176
     1
 40
1.0
176
     1
 40
1.0
176
     1
  0
VISUALSTYLE
  5
3B
102
{ACAD_REACTORS
330
29
102
}
330
29
100
AcDbVisualStyle
  2
Sketchy
 70
    24
177
     3
291
     0
 70
    58
 90
        1
176
     1
 90
        2
176
     1
 90
        2
176
     1
 90
        0
176
     1
 40
0.6
176
     1
 40
30.0
176
     1
 62
     7
420
 16777215
176
     1
 90
        2
176
     1
 90
        2
176
     1
 62
     7
176
     1
 62
     7
176
     1
 90
        1
176
     1
 90
        1
176
     1
 40
40.0
176
     1
 90
       11
176
     1
 62
     7
176
     1
 40
1.0
176
     1
 90
        1
176
     1
 90
        6
176
     1
 90
        2
176
     1
 62
     7
176
     1
 90
        6
176
     1
 90
        0
176
     1
 90
        0
176
     1
290
     0
176
     1
 90
        1
176
     1
 40
0.0
176
     1
 90
        0
176
     1
290
     0
176
     1
290
     1
176
     1
290
     1
176
     1
290
     0
176
     1
290
     0
176
     1
290
     0
176
     1
290
     0
176
     1
290
     0
176
     1
290
     0
176
     1
 90
       50
176
     1
 40
0.0
176
     1
 40
1.0
176
     1
 90
        0
176
     1
 62
    18
420
        0
176
     1
 90
       50
176
     1
 90
        3
176
     1
 62
     5
420
      255
176
     1
290
     0
176
     1
 90
       50
176
     1
 90
       50
176
     1
 90
       50
176
     1
290
     0
176
     1
 90
       50
176
     1
 62
   256
176
     0
 40
1.0
176
     0
 90
        2
176
     1
  1
strokes_ogs.tif
176
     1
290
     0
176
     1
 40
1.0
176
     1
 40
1.0
176
     1
  0
VISUALSTYLE
  5
36
102
{ACAD_REACTORS
330
29
102
}
330
29
100
AcDbVisualStyle
  2
Thicken
 70
    13
177
     3
291
     1
 70
    58
 90
        2
176
     1
 90
        2
176
     1
 90
        0
176
     1
 90
        0
176
     1
 40
0.6
176
     1
 40
30.0
176
     1
 62
     7
420
 16777215
176
     1
 90
        1
176
     1
 90
        4
176
     1
 62
     7
176
     1
 62
   257
176
     1
 90
        1
176
     1
 90
        1
176
     1
 40
1.0
176
     1
 90
       12
176
     1
 62
     7
176
     1
 40
1.0
176
     1
 90
        1
176
     1
 90
        6
176
     1
 90
        2
176
     1
 62
     7
176
     1
 90
        5
176
     1
 90
        0
176
     1
 90
        0
176
     1
290
     0
176
     1
 90
        1
176
     1
 40
0.0
176
     1
 90
        0
176
     1
290
     0
176
     1
290
     1
176
     1
290
     1
176
     1
290
     0
176
     1
290
     0
176
     1
290
     0
176
     1
290
     0
176
     1
290
     0
176
     1
290
     0
176
     1
 90
       50
176
     1
 40
0.0
176
     1
 40
1.0
176
     1
 90
        0
176
     1
 62
    18
420
        0
176
     1
 90
       50
176
     1
 90
        3
176
     1
 62
     5
420
      255
176
     1
290
     0
176
     1
 90
       50
176
     1
 90
       50
176
     1
 90
       50
176
     1
290
     0
176
     1
 90
       50
176
     1
 62
   256
176
     0
 40
1.0
176
     0
 90
        2
176
     1
  1
strokes_ogs.tif
176
     1
290
     0
176
     1
 40
1.0
176
     1
 40
1.0
176
     1
  0
VISUALSTYLE
  5
30
102
{ACAD_REACTORS
330
29
102
}
330
29
100
AcDbVisualStyle
  2
Wireframe
 70
     5
177
     3
291
     0
 70
    58
 90
        0
176
     1
 90
        2
176
     1
 90
        0
176
     1
 90
        0
176
     1
 40
0.6
176
     1
 40
30.0
176
     1
 62
     7
420
 16777215
176
     1
 90
        1
176
     1
 90
        4
176
     1
 62
     7
176
     1
 62
   257
176
     1
 90
        1
176
     1
 90
        1
176
     1
 40
1.0
176
     1
 90
        0
176
     1
 62
   257
176
     1
 40
1.0
176
     1
 90
        1
176
     1
 90
        6
176
     1
 90
        2
176
     1
 62
     7
176
     1
 90
        3
176
     1
 90
        0
176
     1
 90
        0
176
     1
290
     0
176
     1
 90
        1
176
     1
 40
0.0
176
     1
 90
        0
176
     1
290
     0
176
     1
290
     1
176
     1
290
     1
176
     1
290
     0
176
     1
290
     0
176
     1
290
     0
176
     1
290
     0
176
     1
290
     0
176
     1
290
     0
176
     1
 90
       50
176
     1
 40
0.0
176
     1
 40
1.0
176
     1
 90
        0
176
     1
 62
    18
420
        0
176
     1
 90
       50
176
     1
 90
        3
176
     1
 62
     5
420
      255
176
     1
290
     0
176
     1
 90
       50
176
     1
 90
       50
176
     1
 90
       50
176
     1
290
     0
176
     1
 90
       50
176
     1
 62
   256
176
     0
 40
1.0
176
     0
 90
        2
176
     1
  1
strokes_ogs.tif
176
     1
290
     0
176
     1
 40
1.0
176
     1
 40
1.0
176
     1
  0
VISUALSTYLE
  5
3C
102
{ACAD_REACTORS
330
29
102
}
330
29
100
AcDbVisualStyle
  2
X-Ray
 70
    25
177
     3
291
     0
 70
    58
 90
        2
176
     1
 90
        2
176
     1
 90
        1
176
     1
 90
        1
176
     1
 40
0.5
176
     1
 40
30.0
176
     1
 62
     7
420
 16777215
176
     1
 90
        1
176
     1
 90
        0
176
     1
 62
     7
176
     1
 62
   257
176
     1
 90
        1
176
     1
 90
        1
176
     1
 40
1.0
176
     1
 90
        8
176
     1
 62
     7
176
     1
 40
1.0
176
     1
 90
        1
176
     1
 90
        6
176
     1
 90
        2
176
     1
 62
     7
176
     1
 90
        3
176
     1
 90
        0
176
     1
 90
        0
176
     1
290
     0
176
     1
 90
       13
176
     1
 40
0.0
176
     1
 90
        0
176
     1
290
     0
176
     1
290
     1
176
     1
290
     1
176
     1
290
     0
176
     1
290
     0
176
     1
290
     0
176
     1
290
     0
176
     1
290
     0
176
     1
290
     0
176
     1
 90
       50
176
     1
 40
0.0
176
     1
 40
1.0
176
     1
 90
        0
176
     1
 62
    18
420
        0
176
     1
 90
       50
176
     1
 90
        3
176
     1
 62
     5
420
      255
176
     1
290
     0
176
     1
 90
       50
176
     1
 90
       50
176
     1
 90
       50
176
     1
290
     0
176
     1
 90
       50
176
     1
 62
   256
176
     0
 40
1.0
176
     0
 90
        2
176
     1
  1
strokes_ogs.tif
176
     1
290
     0
176
     1
 40
1.0
176
     1
 40
1.0
176
     1
  0
DICTIONARYVAR
  5
9F
102
{ACAD_REACTORS
330
9A
102
}
330
9A
100
DictionaryVariables
280
     0
  1
1:1
  0
DICTIONARYVAR
  5
9C
102
{ACAD_REACTORS
330
9A
102
}
330
9A
100
DictionaryVariables
280
     0
  1
STANDARD
  0
DICTIONARYVAR
  5
9B
102
{ACAD_REACTORS
330
9A
102
}
330
9A
100
DictionaryVariables
280
     0
  1
STANDARD
  0
DICTIONARYVAR
  5
9D
102
{ACAD_REACTORS
330
9A
102
}
330
9A
100
DictionaryVariables
280
     0
  1
Imperial24
  0
DICTIONARYVAR
  5
9E
102
{ACAD_REACTORS
330
9A
102
}
330
9A
100
DictionaryVariables
280
     0
  1
Imperial24
  0
DICTIONARY
  5
1A
330
19
100
AcDbDictionary
280
     1
281
     1
  3
BUMPTILE
360
1C
  3
DIFFUSETILE
360
1B
  3
OPACITYTILE
360
1F
  3
REFLECTIONTILE
360
1E
  3
REFRACTIONTILE
360
20
  3
SPECULARTILE
360
1D
  0
DICTIONARY
  5
12
330
11
100
AcDbDictionary
280
     1
281
     1
  3
BUMPTILE
360
14
  3
DIFFUSETILE
360
13
  3
OPACITYTILE
360
17
  3
REFLECTIONTILE
360
16
  3
REFRACTIONTILE
360
18
  3
SPECULARTILE
360
15
  0
DICTIONARY
  5
22
330
21
100
AcDbDictionary
280
     1
281
     1
  3
BUMPTILE
360
24
  3
DIFFUSETILE
360
23
  3
OPACITYTILE
360
27
  3
REFLECTIONTILE
360
26
  3
REFRACTIONTILE
360
28
  3
SPECULARTILE
360
25
  0
DICTIONARY
  5
A0
330
65
100
AcDbDictionary
280
     1
281
     1
  3
ACAD_ROUNDTRIP_2008_TABLESTYLE_CELLSTYLEMAP
360
A1
  0
XRECORD
  5
1C
102
{ACAD_REACTORS
330
1A
102
}
330
1A
100
AcDbXrecord
280
     1
270
     1
271
     1
  0
XRECORD
  5
1B
102
{ACAD_REACTORS
330
1A
102
}
330
1A
100
AcDbXrecord
280
     1
270
     1
271
     1
  0
XRECORD
  5
1F
102
{ACAD_REACTORS
330
1A
102
}
330
1A
100
AcDbXrecord
280
     1
270
     1
271
     1
  0
XRECORD
  5
1E
102
{ACAD_REACTORS
330
1A
102
}
330
1A
100
AcDbXrecord
280
     1
270
     1
271
     1
  0
XRECORD
  5
20
102
{ACAD_REACTORS
330
1A
102
}
330
1A
100
AcDbXrecord
280
     1
270
     1
271
     1
  0
XRECORD
  5
1D
102
{ACAD_REACTORS
330
1A
102
}
330
1A
100
AcDbXrecord
280
     1
270
     1
271
     1
  0
XRECORD
  5
14
102
{ACAD_REACTORS
330
12
102
}
330
12
100
AcDbXrecord
280
     1
270
     1
271
     1
  0
XRECORD
  5
13
102
{ACAD_REACTORS
330
12
102
}
330
12
100
AcDbXrecord
280
     1
270
     1
271
     1
  0
XRECORD
  5
17
102
{ACAD_REACTORS
330
12
102
}
330
12
100
AcDbXrecord
280
     1
270
     1
271
     1
  0
XRECORD
  5
16
102
{ACAD_REACTORS
330
12
102
}
330
12
100
AcDbXrecord
280
     1
270
     1
271
     1
  0
XRECORD
  5
18
102
{ACAD_REACTORS
330
12
102
}
330
12
100
AcDbXrecord
280
     1
270
     1
271
     1
  0
XRECORD
  5
15
102
{ACAD_REACTORS
330
12
102
}
330
12
100
AcDbXrecord
280
     1
270
     1
271
     1
  0
XRECORD
  5
24
102
{ACAD_REACTORS
330
22
102
}
330
22
100
AcDbXrecord
280
     1
270
     1
271
     1
  0
XRECORD
  5
23
102
{ACAD_REACTORS
330
22
102
}
330
22
100
AcDbXrecord
280
     1
270
     1
271
     1
  0
XRECORD
  5
27
102
{ACAD_REACTORS
330
22
102
}
330
22
100
AcDbXrecord
280
     1
270
     1
271
     1
  0
XRECORD
  5
26
102
{ACAD_REACTORS
330
22
102
}
330
22
100
AcDbXrecord
280
     1
270
     1
271
     1
  0
XRECORD
  5
28
102
{ACAD_REACTORS
330
22
102
}
330
22
100
AcDbXrecord
280
     1
270
     1
271
     1
  0
XRECORD
  5
25
102
{ACAD_REACTORS
330
22
102
}
330
22
100
AcDbXrecord
280
     1
270
     1
271
     1
  0
CELLSTYLEMAP
  5
A1
102
{ACAD_REACTORS
330
A0
102
}
330
A0
100
AcDbCellStyleMap
 90
        3
300
CELLSTYLE
  1
TABLEFORMAT_BEGIN
 90
        5
170
     1
 91
        0
 92
    32768
 62
   257
 93
        1
300
CONTENTFORMAT
  1
CONTENTFORMAT_BEGIN
 90
        0
 91
        0
 92
      512
 93
        0
300

 40
0.0
140
1.0
 94
        5
 62
     0
340
55
144
0.25
309
CONTENTFORMAT_END
171
     0
 94
        0
309
TABLEFORMAT_END
  1
CELLSTYLE_BEGIN
 90
        1
 91
        1
300
_TITLE
309
CELLSTYLE_END
300
CELLSTYLE
  1
TABLEFORMAT_BEGIN
 90
        5
170
     1
 91
        0
 92
        0
 62
   257
 93
        1
300
CONTENTFORMAT
  1
CONTENTFORMAT_BEGIN
 90
        0
 91
        0
 92
      512
 93
        0
300

 40
0.0
140
1.0
 94
        5
 62
     0
340
55
144
0.18
309
CONTENTFORMAT_END
171
     0
 94
        0
309
TABLEFORMAT_END
  1
CELLSTYLE_BEGIN
 90
        2
 91
        1
300
_HEADER
309
CELLSTYLE_END
300
CELLSTYLE
  1
TABLEFORMAT_BEGIN
 90
        5
170
     1
 91
        0
 92
        0
 62
   257
 93
        1
300
CONTENTFORMAT
  1
CONTENTFORMAT_BEGIN
 90
        0
 91
        0
 92
      512
 93
        0
300

 40
0.0
140
1.0
 94
        2
 62
     0
340
55
144
0.18
309
CONTENTFORMAT_END
171
     0
 94
        0
309
TABLEFORMAT_END
  1
CELLSTYLE_BEGIN
 90
        3
 91
        2
300
_DATA
309
CELLSTYLE_END
  0
ENDSEC
  0
EOF
