  0
SECTION
  2
HEADER
  9
$ACADVER
  1
AC1032
  9
$ACADMAINTVER
 90
      228
  9
$DWGCODEPAGE
  3
ANSI_1252
  9
$REQUIREDVERSIONS
160
                 0
  9
$INSBASE
 10
0.0
 20
0.0
 30
0.0
  9
$EXTMIN
 10
1.000000000000000E+20
 20
1.000000000000000E+20
 30
1.000000000000000E+20
  9
$EXTMAX
 10
-1.000000000000000E+20
 20
-1.000000000000000E+20
 30
-1.000000000000000E+20
  9
$LIMMIN
 10
0.0
 20
0.0
  9
$LIMMAX
 10
12.0
 20
9.0
  9
$ORTHOMODE
 70
     0
  9
$REGENMODE
 70
     1
  9
$FILLMODE
 70
     1
  9
$QTEXTMODE
 70
     0
  9
$MIRRTEXT
 70
     0
  9
$LTSCALE
 40
1.0
  9
$ATTMODE
 70
     1
  9
$TEXTSIZE
 40
0.2
  9
$TRACEWID
 40
0.05
  9
$TEXTSTYLE
  7
Standard
  9
$CLAYER
  8
0
  9
$CELTYPE
  6
ByLayer
  9
$CECOLOR
 62
   256
  9
$CELTSCALE
 40
1.0
  9
$DISPSILH
 70
     0
  9
$DIMSCALE
 40
1.0
  9
$DIMASZ
 40
0.18
  9
$DIMEXO
 40
0.0625
  9
$DIMDLI
 40
0.38
  9
$DIMRND
 40
0.0
  9
$DIMDLE
 40
0.0
  9
$DIMEXE
 40
0.18
  9
$DIMTP
 40
0.0
  9
$DIMTM
 40
0.0
  9
$DIMTXT
 40
0.18
  9
$DIMCEN
 40
0.09
  9
$DIMTSZ
 40
0.0
  9
$DIMTOL
 70
     0
  9
$DIMLIM
 70
     0
  9
$DIMTIH
 70
     1
  9
$DIMTOH
 70
     1
  9
$DIMSE1
 70
     0
  9
$DIMSE2
 70
     0
  9
$DIMTAD
 70
     0
  9
$DIMZIN
 70
     0
  9
$DIMBLK
  1

  9
$DIMASO
 70
     1
  9
$DIMSHO
 70
     1
  9
$DIMPOST
  1

  9
$DIMAPOST
  1

  9
$DIMALT
 70
     0
  9
$DIMALTD
 70
     2
  9
$DIMALTF
 40
25.4
  9
$DIMLFAC
 40
1.0
  9
$DIMTOFL
 70
     0
  9
$DIMTVP
 40
0.0
  9
$DIMTIX
 70
     0
  9
$DIMSOXD
 70
     0
  9
$DIMSAH
 70
     0
  9
$DIMBLK1
  1

  9
$DIMBLK2
  1

  9
$DIMSTYLE
  2
Standard
  9
$DIMCLRD
 70
     0
  9
$DIMCLRE
 70
     0
  9
$DIMCLRT
 70
     0
  9
$DIMTFAC
 40
1.0
  9
$DIMGAP
 40
0.09
  9
$DIMJUST
 70
     0
  9
$DIMSD1
 70
     0
  9
$DIMSD2
 70
     0
  9
$DIMTOLJ
 70
     1
  9
$DIMTZIN
 70
     0
  9
$DIMALTZ
 70
     0
  9
$DIMALTTZ
 70
     0
  9
$DIMUPT
 70
     0
  9
$DIMDEC
 70
     4
  9
$DIMTDEC
 70
     4
  9
$DIMALTU
 70
     2
  9
$DIMALTTD
 70
     2
  9
$DIMTXSTY
  7
Standard
  9
$DIMAUNIT
 70
     0
  9
$DIMADEC
 70
     0
  9
$DIMALTRND
 40
0.0
  9
$DIMAZIN
 70
     0
  9
$DIMDSEP
 70
    46
  9
$DIMATFIT
 70
     3
  9
$DIMFRAC
 70
     0
  9
$DIMLDRBLK
  1

  9
$DIMLUNIT
 70
     2
  9
$DIMLWD
 70
    -2
  9
$DIMLWE
 70
    -2
  9
$DIMTMOVE
 70
     0
  9
$DIMFXL
 40
1.0
  9
$DIMFXLON
 70
     0
  9
$DIMJOGANG
 40
0.7853981633974483
  9
$DIMTFILL
 70
     0
  9
$DIMTFILLCLR
 70
     0
  9
$DIMARCSYM
 70
     0
  9
$DIMLTYPE
  6

  9
$DIMLTEX1
  6

  9
$DIMLTEX2
  6

  9
$DIMTXTDIRECTION
 70
     0
  9
$LUNITS
 70
     2
  9
$LUPREC
 70
     4
  9
$SKETCHINC
 40
0.1
  9
$FILLETRAD
 40
0.0
  9
$AUNITS
 70
     0
  9
$AUPREC
 70
     0
  9
$MENU
  1
.
  9
$ELEVATION
 40
0.0
  9
$PELEVATION
 40
0.0
  9
$THICKNESS
 40
0.0
  9
$LIMCHECK
 70
     0
  9
$CHAMFERA
 40
0.0
  9
$CHAMFERB
 40
0.0
  9
$CHAMFERC
 40
0.0
  9
$CHAMFERD
 40
0.0
  9
$SKPOLY
 70
     0
  9
$TDCREATE
 40
2460340.040451389
  9
$TDUCREATE
 40
2460340.373784723
  9
$TDUPDATE
 40
2460340.040451389
  9
$TDUUPDATE
 40
2460340.373784723
  9
$TDINDWG
 40
0.0000000000
  9
$TDUSRTIMER
 40
0.0000000000
  9
$USRTIMER
 70
     1
  9
$ANGBASE
 50
0.0
  9
$ANGDIR
 70
     0
  9
$PDMODE
 70
     0
  9
$PDSIZE
 40
0.0
  9
$PLINEWID
 40
0.0
  9
$SPLFRAME
 70
     0
  9
$SPLINETYPE
 70
     6
  9
$SPLINESEGS
 70
     8
  9
$HANDSEED
  5
126
  9
$SURFTAB1
 70
     6
  9
$SURFTAB2
 70
     6
  9
$SURFTYPE
 70
     6
  9
$SURFU
 70
     6
  9
$SURFV
 70
     6
  9
$UCSBASE
  2

  9
$UCSNAME
  2

  9
$UCSORG
 10
0.0
 20
0.0
 30
0.0
  9
$UCSXDIR
 10
1.0
 20
0.0
 30
0.0
  9
$UCSYDIR
 10
0.0
 20
1.0
 30
0.0
  9
$UCSORTHOREF
  2

  9
$UCSORTHOVIEW
 70
     0
  9
$UCSORGTOP
 10
0.0
 20
0.0
 30
0.0
  9
$UCSORGBOTTOM
 10
0.0
 20
0.0
 30
0.0
  9
$UCSORGLEFT
 10
0.0
 20
0.0
 30
0.0
  9
$UCSORGRIGHT
 10
0.0
 20
0.0
 30
0.0
  9
$UCSORGFRONT
 10
0.0
 20
0.0
 30
0.0
  9
$UCSORGBACK
 10
0.0
 20
0.0
 30
0.0
  9
$PUCSBASE
  2

  9
$PUCSNAME
  2

  9
$PUCSORG
 10
0.0
 20
0.0
 30
0.0
  9
$PUCSXDIR
 10
1.0
 20
0.0
 30
0.0
  9
$PUCSYDIR
 10
0.0
 20
1.0
 30
0.0
  9
$PUCSORTHOREF
  2

  9
$PUCSORTHOVIEW
 70
     0
  9
$PUCSORGTOP
 10
0.0
 20
0.0
 30
0.0
  9
$PUCSORGBOTTOM
 10
0.0
 20
0.0
 30
0.0
  9
$PUCSORGLEFT
 10
0.0
 20
0.0
 30
0.0
  9
$PUCSORGRIGHT
 10
0.0
 20
0.0
 30
0.0
  9
$PUCSORGFRONT
 10
0.0
 20
0.0
 30
0.0
  9
$PUCSORGBACK
 10
0.0
 20
0.0
 30
0.0
  9
$USERI1
 70
     0
  9
$USERI2
 70
     0
  9
$USERI3
 70
     0
  9
$USERI4
 70
     0
  9
$USERI5
 70
     0
  9
$USERR1
 40
0.0
  9
$USERR2
 40
0.0
  9
$USERR3
 40
0.0
  9
$USERR4
 40
0.0
  9
$USERR5
 40
0.0
  9
$WORLDVIEW
 70
     1
  9
$SHADEDGE
 70
     3
  9
$SHADEDIF
 70
    70
  9
$TILEMODE
 70
     1
  9
$MAXACTVP
 70
    64
  9
$PINSBASE
 10
0.0
 20
0.0
 30
0.0
  9
$PLIMCHECK
 70
     0
  9
$PEXTMIN
 10
1.000000000000000E+20
 20
1.000000000000000E+20
 30
1.000000000000000E+20
  9
$PEXTMAX
 10
-1.000000000000000E+20
 20
-1.000000000000000E+20
 30
-1.000000000000000E+20
  9
$PLIMMIN
 10
0.0
 20
0.0
  9
$PLIMMAX
 10
12.0
 20
9.0
  9
$UNITMODE
 70
     0
  9
$VISRETAIN
 70
     1
  9
$PLINEGEN
 70
     0
  9
$PSLTSCALE
 70
     1
  9
$TREEDEPTH
 70
  3020
  9
$CMLSTYLE
  2
Standard
  9
$CMLJUST
 70
     0
  9
$CMLSCALE
 40
1.0
  9
$PROXYGRAPHICS
 70
     1
  9
$MEASUREMENT
 70
     0
  9
$CELWEIGHT
370
    -1
  9
$ENDCAPS
280
     0
  9
$JOINSTYLE
280
     0
  9
$LWDISPLAY
290
     1
  9
$INSUNITS
 70
     1
  9
$HYPERLINKBASE
  1

  9
$STYLESHEET
  1

  9
$XEDIT
290
     1
  9
$CEPSNTYPE
380
     0
  9
$PSTYLEMODE
290
     1
  9
$FINGERPRINTGUID
  2
{3AC0E2CB-D05B-C24B-8116-DD19BF3958BA}
  9
$VERSIONGUID
  2
{C9BDED7B-0542-4349-BC4F-7E6C8828BC1D}
  9
$EXTNAMES
290
     1
  9
$PSVPSCALE
 40
0.0
  9
$OLESTARTUP
290
     0
  9
$SORTENTS
280
   127
  9
$INDEXCTL
280
     0
  9
$HIDETEXT
280
     1
  9
$XCLIPFRAME
280
     2
  9
$HALOGAP
280
     0
  9
$OBSCOLOR
 70
   257
  9
$OBSLTYPE
280
     0
  9
$INTERSECTIONDISPLAY
280
     0
  9
$INTERSECTIONCOLOR
 70
   257
  9
$DIMASSOC
280
     2
  9
$PROJECTNAME
  1

  9
$CAMERADISPLAY
290
     0
  9
$LENSLENGTH
 40
50.0
  9
$CAMERAHEIGHT
 40
0.0
  9
$STEPSPERSEC
 40
2.0
  9
$STEPSIZE
 40
6.0
  9
$3DDWFPREC
 40
2.0
  9
$PSOLWIDTH
 40
0.25
  9
$PSOLHEIGHT
 40
4.0
  9
$LOFTANG1
 40
1.570796326794896
  9
$LOFTANG2
 40
1.570796326794896
  9
$LOFTMAG1
 40
0.0
  9
$LOFTMAG2
 40
0.0
  9
$LOFTPARAM
 70
     7
  9
$LOFTNORMALS
280
     1
  9
$LATITUDE
 40
37.795
  9
$LONGITUDE
 40
-122.394
  9
$NORTHDIRECTION
 40
0.0
  9
$TIMEZONE
 70
 -8000
  9
$LIGHTGLYPHDISPLAY
280
     1
  9
$TILEMODELIGHTSYNCH
280
     1
  9
$CMATERIAL
347
11
  9
$SOLIDHIST
280
     0
  9
$SHOWHIST
280
     1
  9
$DWFFRAME
280
     2
  9
$DGNFRAME
280
     0
  9
$REALWORLDSCALE
290
     1
  9
$INTERFERECOLOR
 62
     1
  9
$INTERFEREOBJVS
345
33
  9
$INTERFEREVPVS
346
30
  9
$CSHADOW
280
     0
  9
$SHADOWPLANELOCATION
 40
0.0
  0
ENDSEC
  0
SECTION
  2
CLASSES
  0
CLASS
  1
ACDBDICTIONARYWDFLT
  2
AcDbDictionaryWithDefault
  3
ObjectDBX Classes
 90
        0
 91
        1
280
     0
281
     0
  0
CLASS
  1
MATERIAL
  2
AcDbMaterial
  3
ObjectDBX Classes
 90
     1153
 91
        3
280
     0
281
     0
  0
CLASS
  1
VISUALSTYLE
  2
AcDbVisualStyle
  3
ObjectDBX Classes
 90
     4095
 91
       24
280
     0
281
     0
  0
CLASS
  1
SCALE
  2
AcDbScale
  3
ObjectDBX Classes
 90
     1153
 91
       17
280
     0
281
     0
  0
CLASS
  1
TABLESTYLE
  2
AcDbTableStyle
  3
ObjectDBX Classes
 90
     4095
 91
        1
280
     0
281
     0
  0
CLASS
  1
MLEADERSTYLE
  2
AcDbMLeaderStyle
  3
ACDB_MLEADERSTYLE_CLASS
 90
     4095
 91
        1
280
     0
281
     0
  0
CLASS
  1
ACDBSECTIONVIEWSTYLE
  2
AcDbSectionViewStyle
  3
ObjectDBX Classes
 90
     1025
 91
        1
280
     0
281
     0
  0
CLASS
  1
ACDBDETAILVIEWSTYLE
  2
AcDbDetailViewStyle
  3
ObjectDBX Classes
 90
     1025
 91
        1
280
     0
281
     0
  0
CLASS
  1
DICTIONARYVAR
  2
AcDbDictionaryVar
  3
ObjectDBX Classes
 90
        0
 91
        5
280
     0
281
     0
  0
CLASS
  1
CELLSTYLEMAP
  2
AcDbCellStyleMap
  3
ObjectDBX Classes
 90
     1152
 91
        1
280
     0
281
     0
  0
ENDSEC
  0
SECTION
  2
TABLES
  0
TABLE
  2
VPORT
  5
8
330
0
100
AcDbSymbolTable
 70
     1
  0
VPORT
  5
57
330
8
100
AcDbSymbolTableRecord
100
AcDbViewportTableRecord
  2
*Active
 70
     0
 10
0.0
 20
0.0
 11
1.0
 21
1.0
 12
0.0
 22
0.0
 13
0.0
 23
0.0
 14
1.0
 24
1.0
 15
0.0
 25
0.0
 16
0.0
 26
0.0
 36
1.0
 17
4.25
 27
-5.5
 37
0.0
 40
11.22
 41
0.7727272727272727
 42
50.0
 43
0.0
 44
0.0
 50
0.0
 51
0.0
 71
     0
 72
   100
 73
     1
 74
     1
 75
     0
 76
     0
 77
     0
 78
     0
281
     0
 65
     1
110
0.0
120
0.0
130
0.0
111
1.0
121
0.0
131
0.0
112
0.0
122
1.0
132
0.0
 79
     0
146
0.0
 60
     3
 61
     5
292
     1
282
     1
141
0.0
142
0.0
 63
   250
421
  3355443
  0
ENDTAB
  0
TABLE
  2
LTYPE
  5
5
330
0
100
AcDbSymbolTable
 70
     1
  0
LTYPE
  5
5B
330
5
100
AcDbSymbolTableRecord
100
AcDbLinetypeTableRecord
  2
ByBlock
 70
     0
  3

 72
    65
 73
     0
 40
0.0
  0
LTYPE
  5
5C
330
5
100
AcDbSymbolTableRecord
100
AcDbLinetypeTableRecord
  2
ByLayer
 70
     0
  3

 72
    65
 73
     0
 40
0.0
  0
LTYPE
  5
5D
330
5
100
AcDbSymbolTableRecord
100
AcDbLinetypeTableRecord
  2
Continuous
 70
     0
  3
Solid line
 72
    65
 73
     0
 40
0.0
  0
ENDTAB
  0
TABLE
  2
LAYER
  5
2
330
0
100
AcDbSymbolTable
 70
     2
  0
LAYER
  5
54
330
2
100
AcDbSymbolTableRecord
100
AcDbLayerTableRecord
  2
0
 70
     0
 62
     7
  6
Continuous
370
    -3
390
F
347
21
348
0
  0
LAYER
  5
78
330
2
100
AcDbSymbolTableRecord
100
AcDbLayerTableRecord
  2
Layer 1
 70
     0
 62
     7
  6
Continuous
370
     0
390
F
347
21
348
0
  0
ENDTAB
  0
TABLE
  2
STYLE
  5
3
330
0
100
AcDbSymbolTable
 70
     2
  0
STYLE
  5
55
330
3
100
AcDbSymbolTableRecord
100
AcDbTextStyleTableRecord
  2
Standard
 70
     0
 40
0.0
 41
1.0
 50
0.0
 71
     0
 42
0.2
  3
txt
  4

  0
STYLE
  5
5A
330
3
100
AcDbSymbolTableRecord
100
AcDbTextStyleTableRecord
  2
Annotative
 70
     0
 40
0.0
 41
1.0
 50
0.0
 71
     0
 42
0.2
  3
txt
  4

1001
AcadAnnotative
1000
AnnotativeData
1002
{
1070
     1
1070
     1
1002
}
  0
ENDTAB
  0
TABLE
  2
VIEW
  5
6
330
0
100
AcDbSymbolTable
 70
     0
  0
ENDTAB
  0
TABLE
  2
UCS
  5
7
330
0
100
AcDbSymbolTable
 70
     0
  0
ENDTAB
  0
TABLE
  2
APPID
  5
9
330
0
100
AcDbSymbolTable
 70
     2
  0
APPID
  5
56
330
9
100
AcDbSymbolTableRecord
100
AcDbRegAppTableRecord
  2
ACAD
 70
     0
  0
APPID
  5
5E
330
9
100
AcDbSymbolTableRecord
100
AcDbRegAppTableRecord
  2
AcadAnnotative
 70
     0
  0
ENDTAB
  0
TABLE
  2
DIMSTYLE
  5
A
330
0
100
AcDbSymbolTable
 70
     2
100
AcDbDimStyleTable
 71
     0
  0
DIMSTYLE
105
58
330
A
100
AcDbSymbolTableRecord
100
AcDbDimStyleTableRecord
  2
Standard
 70
     0
340
55
  0
DIMSTYLE
105
59
330
A
100
AcDbSymbolTableRecord
100
AcDbDimStyleTableRecord
  2
Annotative
 70
     0
340
55
1001
AcadAnnotative
1000
AnnotativeData
1002
{
1070
     1
1070
     1
1002
}
  0
ENDTAB
  0
TABLE
  2
BLOCK_RECORD
  5
1
330
0
100
AcDbSymbolTable
 70
     3
  0
BLOCK_RECORD
  5
70
330
1
100
AcDbSymbolTableRecord
100
AcDbBlockTableRecord
  2
*Model_Space
340
73
 70
     0
280
     1
281
     0
  0
BLOCK_RECORD
  5
6C
330
1
100
AcDbSymbolTableRecord
100
AcDbBlockTableRecord
  2
*Paper_Space
340
6F
 70
     0
280
     1
281
     0
  0
BLOCK_RECORD
  5
74
330
1
100
AcDbSymbolTableRecord
100
AcDbBlockTableRecord
  2
*Paper_Space0
340
77
 70
     0
280
     1
281
     0
  0
BLOCK_RECORD
  5
79
330
1
100
AcDbSymbolTableRecord
100
AcDbBlockTableRecord
  2
Block_0
340
0
102
{BLKREFS
331
7A
102
}
 70
     0
280
     1
281
     0
  0
BLOCK_RECORD
  5
7F
330
1
100
AcDbSymbolTableRecord
100
AcDbBlockTableRecord
  2
Block_1
340
0
102
{BLKREFS
331
80
102
}
 70
     0
280
     1
281
     0
  0
ENDTAB
  0
ENDSEC
  0
SECTION
  2
BLOCKS
  0
BLOCK
  5
71
330
70
100
AcDbEntity
  8
0
100
AcDbBlockBegin
  2
*Model_Space
 70
     0
 10
0.0
 20
0.0
 30
0.0
  3
*Model_Space
  1

  0
ENDBLK
  5
72
330
70
100
AcDbEntity
  8
0
100
AcDbBlockEnd
  0
BLOCK
  5
6D
330
6C
100
AcDbEntity
 67
     1
  8
0
100
AcDbBlockBegin
  2
*Paper_Space
 70
     0
 10
0.0
 20
0.0
 30
0.0
  3
*Paper_Space
  1

  0
ENDBLK
  5
6E
330
6C
100
AcDbEntity
 67
     1
  8
0
100
AcDbBlockEnd
  0
BLOCK
  5
75
330
74
100
AcDbEntity
 67
     1
  8
0
100
AcDbBlockBegin
  2
*Paper_Space0
 70
     0
 10
0.0
 20
0.0
 30
0.0
  3
*Paper_Space0
  1

  0
ENDBLK
  5
76
330
74
100
AcDbEntity
 67
     1
  8
0
100
AcDbBlockEnd
  0
BLOCK
  5
7B
330
79
100
AcDbEntity
  8
0
100
AcDbBlockBegin
  2
Block_0
 70
     0
 10
0.0
 20
0.0
 30
0.0
  3
Block_0
  1

  0
LWPOLYLINE
  5
7D
330
79
100
AcDbEntity
  8
Layer 1
 62
   250
420
  2301728
370
    35
100
AcDbPolyline
 90
        4
 70
     1
 43
0.0
 10
6.369999999999991
 20
-6.828888888888892
 10
2.809999999999995
 20
-6.828888888888892
 10
2.809999999999995
 20
-2.238888888888898
 10
6.369999999999991
 20
-2.238888888888898
  0
LWPOLYLINE
  5
7E
330
79
100
AcDbEntity
  8
Layer 1
 62
   250
420
  2301728
370
    35
100
AcDbPolyline
 90
        4
 70
     1
 43
0.0
 10
5.789166666666662
 20
-6.228888888888882
 10
3.429166666666661
 20
-6.228888888888882
 10
3.429166666666661
 20
-2.838888888888883
 10
5.789166666666662
 20
-2.838888888888883
  0
ENDBLK
  5
7C
330
79
100
AcDbEntity
  8
0
100
AcDbBlockEnd
  0
BLOCK
  5
81
330
7F
100
AcDbEntity
  8
0
100
AcDbBlockBegin
  2
Block_1
 70
     0
 10
0.0
 20
0.0
 30
0.0
  3
Block_1
  1

  0
SPLINE
  5
83
330
7F
100
AcDbEntity
  8
Layer 1
100
AcDbSpline
210
0.0
220
0.0
230
1.0
 70
     9
 71
     3
 72
    11
 73
     7
 74
     0
 42
0.0000000001
 43
0.0000000001
 40
0.0
 40
0.0
 40
0.0
 40
0.0
 40
1.0
 40
1.0
 40
1.0
 40
2.0
 40
2.0
 40
2.0
 40
2.0
 10
5.953083889046638
 20
-3.018649631076388
 30
0.0
 10
5.88321096367008
 20
-2.971537889000374
 30
0.0
 10
5.938391321475743
 20
-2.981435410951196
 30
0.0
 10
5.983185090998782
 20
-2.971441840682599
 30
0.0
 10
5.997486323728278
 20
-2.98577873724936
 30
0.0
 10
5.974129672295299
 20
-3.023965445367644
 30
0.0
 10
5.953083889046638
 20
-3.018649631076388
 30
0.0
  0
SPLINE
  5
84
330
7F
100
AcDbEntity
  8
Layer 1
100
AcDbSpline
210
0.0
220
0.0
230
1.0
 70
     9
 71
     3
 72
    14
 73
    10
 74
     0
 42
0.0000000001
 43
0.0000000001
 40
0.0
 40
0.0
 40
0.0
 40
0.0
 40
1.0
 40
1.0
 40
1.0
 40
2.0
 40
2.0
 40
2.0
 40
3.0
 40
3.0
 40
3.0
 40
3.0
 10
6.008083346511916
 20
-2.949591742621527
 30
0.0
 10
5.998203794603695
 20
-2.965727655736322
 30
0.0
 10
5.956774232279283
 20
-2.952550127140107
 30
0.0
 10
5.939034581244691
 20
-2.95662442552878
 30
0.0
 10
5.922832407572412
 20
-2.964633245709869
 30
0.0
 10
5.853423875237441
 20
-2.970505933386852
 30
0.0
 10
5.884324968657438
 20
-2.942862247523281
 30
0.0
 10
5.899046705420586
 20
-2.935342405691358
 30
0.0
 10
6.010222645163366
 20
-2.925104183554644
 30
0.0
 10
6.008083346511916
 20
-2.949591742621527
 30
0.0
  0
SPLINE
  5
85
330
7F
100
AcDbEntity
  8
Layer 1
100
AcDbSpline
210
0.0
220
0.0
230
1.0
 70
     9
 71
     3
 72
    35
 73
    31
 74
     0
 42
0.0000000001
 43
0.0000000001
 40
0.0
 40
0.0
 40
0.0
 40
0.0
 40
1.0
 40
1.0
 40
1.0
 40
2.0
 40
2.0
 40
2.0
 40
3.0
 40
3.0
 40
3.0
 40
4.0
 40
4.0
 40
4.0
 40
5.0
 40
5.0
 40
5.0
 40
6.0
 40
6.0
 40
6.0
 40
7.0
 40
7.0
 40
7.0
 40
8.0
 40
8.0
 40
8.0
 40
9.0
 40
9.0
 40
9.0
 40
10.0
 40
10.0
 40
10.0
 40
10.0
 10
6.04932954876886
 20
-2.8948974609375
 30
0.0
 10
6.083058021539096
 20
-2.903888541891294
 30
0.0
 10
6.035588842800355
 20
-2.915434661829433
 30
0.0
 10
6.049334336409174
 20
-2.935842457103793
 30
0.0
 10
6.049326099176848
 20
-2.968952173882624
 30
0.0
 10
6.049332035222227
 20
-3.006012378293462
 30
0.0
 10
6.049329541217022
 20
-3.039116763298112
 30
0.0
 10
6.069768120770074
 20
-3.076579930839961
 30
0.0
 10
5.9465822987098
 20
-3.098440762834305
 30
0.0
 10
5.964373753209883
 20
-3.0641797735338
 30
0.0
 10
6.014030375474349
 20
-3.050578896057901
 30
0.0
 10
6.027453690420492
 20
-3.070249187401208
 30
0.0
 10
6.021831048237041
 20
-3.004892279837677
 30
0.0
 10
6.021840805463953
 20
-2.984601470341873
 30
0.0
 10
6.021833571627868
 20
-2.956218277349496
 30
0.0
 10
6.021836610923501
 20
-2.935845219010616
 30
0.0
 10
6.031735570618795
 20
-2.911848656242682
 30
0.0
 10
6.013226625751055
 20
-2.910752260637713
 30
0.0
 10
5.994327308530576
 20
-2.915376547211129
 30
0.0
 10
5.976781395515646
 20
-2.912108357402631
 30
0.0
 10
5.839238400485454
 20
-2.927945186629206
 30
0.0
 10
5.891050372744555
 20
-2.894895884847263
 30
0.0
 10
5.932817212014646
 20
-2.892834964305342
 30
0.0
 10
5.982104457547848
 20
-2.89805036212523
 30
0.0
 10
6.021836873008295
 20
-2.894904148561244
 30
0.0
 10
6.035612906866163
 20
-2.883331777696298
 30
0.0
 10
6.020312763473939
 20
-2.874960716365965
 30
0.0
 10
6.021836729438391
 20
-2.860371669563492
 30
0.0
 10
6.049151731660938
 20
-2.836710865834018
 30
0.0
 10
6.051821766175761
 20
-2.877018848134916
 30
0.0
 10
6.04932954876886
 20
-2.8948974609375
 30
0.0
  0
SPLINE
  5
86
330
7F
100
AcDbEntity
  8
Layer 1
100
AcDbSpline
210
0.0
220
0.0
230
1.0
 70
     9
 71
     3
 72
    32
 73
    28
 74
     0
 42
0.0000000001
 43
0.0000000001
 40
0.0
 40
0.0
 40
0.0
 40
0.0
 40
1.0
 40
1.0
 40
1.0
 40
2.0
 40
2.0
 40
2.0
 40
3.0
 40
3.0
 40
3.0
 40
4.0
 40
4.0
 40
4.0
 40
5.0
 40
5.0
 40
5.0
 40
6.0
 40
6.0
 40
6.0
 40
7.0
 40
7.0
 40
7.0
 40
8.0
 40
8.0
 40
8.0
 40
9.0
 40
9.0
 40
9.0
 40
9.0
 10
5.89808443158136
 20
-3.032396104600694
 30
0.0
 10
5.88670826023455
 20
-3.026962000843607
 30
0.0
 10
5.854167026184086
 20
-3.013623710848592
 30
0.0
 10
5.854231836268758
 20
-3.033158639583853
 30
0.0
 10
5.856207552420906
 20
-3.056805055304835
 30
0.0
 10
5.85446361174652
 20
-3.068246882371403
 30
0.0
 10
5.884339034074476
 20
-3.05988830751701
 30
0.0
 10
5.898430677427263
 20
-3.056070920676145
 30
0.0
 10
5.936735520904094
 20
-3.063653068627659
 30
0.0
 10
5.911526244097987
 20
-3.08037626718644
 30
0.0
 10
5.899709623905033
 20
-3.080285215124351
 30
0.0
 10
5.875219588444426
 20
-3.080430656498997
 30
0.0
 10
5.863552070502464
 20
-3.080369552416426
 30
0.0
 10
5.821592905296584
 20
-3.087938209139287
 30
0.0
 10
5.82904333315936
 20
-3.06409779340058
 30
0.0
 10
5.829335711934819
 20
-3.03239070615992
 30
0.0
 10
5.832262362519637
 20
-3.013714876591292
 30
0.0
 10
5.823068454578939
 20
-2.981854887959823
 30
0.0
 10
5.833598232493335
 20
-2.967005815185289
 30
0.0
 10
5.850264962052506
 20
-2.953668585962898
 30
0.0
 10
5.853750392949475
 20
-2.978232234631731
 30
0.0
 10
5.856840927361063
 20
-2.991149289961147
 30
0.0
 10
5.85760664482071
 20
-2.997778604807662
 30
0.0
 10
5.843105870067321
 20
-2.998184546655074
 30
0.0
 10
5.849798536429134
 20
-3.004896395764047
 30
0.0
 10
5.866632587675035
 20
-3.006176693555314
 30
0.0
 10
5.943694441832323
 20
-3.002944788959173
 30
0.0
 10
5.89808443158136
 20
-3.032396104600694
 30
0.0
  0
SPLINE
  5
87
330
7F
100
AcDbEntity
  8
Layer 1
100
AcDbSpline
210
0.0
220
0.0
230
1.0
 70
     9
 71
     3
 72
    17
 73
    13
 74
     0
 42
0.0000000001
 43
0.0000000001
 40
0.0
 40
0.0
 40
0.0
 40
0.0
 40
1.0
 40
1.0
 40
1.0
 40
2.0
 40
2.0
 40
2.0
 40
3.0
 40
3.0
 40
3.0
 40
4.0
 40
4.0
 40
4.0
 40
4.0
 10
5.911525729324416
 20
-2.860371907552083
 30
0.0
 10
5.906157334625453
 20
-2.892557770357307
 30
0.0
 10
5.859679341199706
 20
-2.858191388832879
 30
0.0
 10
5.847058684549716
 20
-2.878395188446953
 30
0.0
 10
5.848279929983012
 20
-2.897504091522958
 30
0.0
 10
5.859539417808314
 20
-2.916175868687635
 30
0.0
 10
5.856837903843748
 20
-2.935844995380357
 30
0.0
 10
5.820804757464252
 20
-2.985842114772544
 30
0.0
 10
5.829383244618106
 20
-2.880780504956987
 30
0.0
 10
5.829337718478781
 20
-2.86037855240502
 30
0.0
 10
5.849142674024076
 20
-2.849099392445976
 30
0.0
 10
5.891702428969993
 20
-2.849127511676872
 30
0.0
 10
5.911525729324416
 20
-2.860371907552083
 30
0.0
  0
HATCH
  5
88
330
7F
100
AcDbEntity
  8
Layer 1
 62
   250
420
  2301728
440
 33554687
100
AcDbHatch
 10
0.0
 20
0.0
 30
0.0
210
0.0
220
0.0
230
1.0
  2
SOLID
 70
     1
 71
     1
 91
        5
 92
        1
 93
        1
 72
     4
 94
        3
 73
     0
 74
     0
 95
       11
 96
        7
 40
0.0
 40
0.0
 40
0.0
 40
0.0
 40
1.0
 40
1.0
 40
1.0
 40
2.0
 40
2.0
 40
2.0
 40
2.0
 10
5.953083889046638
 20
-3.018649631076388
 10
5.88321096367008
 20
-2.971537889000374
 10
5.938391321475743
 20
-2.981435410951196
 10
5.983185090998782
 20
-2.971441840682599
 10
5.997486323728278
 20
-2.98577873724936
 10
5.974129672295299
 20
-3.023965445367644
 10
5.953083889046638
 20
-3.018649631076388
 97
        0
 97
        1
330
83
 92
        1
 93
        1
 72
     4
 94
        3
 73
     0
 74
     0
 95
       14
 96
       10
 40
0.0
 40
0.0
 40
0.0
 40
0.0
 40
1.0
 40
1.0
 40
1.0
 40
2.0
 40
2.0
 40
2.0
 40
3.0
 40
3.0
 40
3.0
 40
3.0
 10
6.008083346511916
 20
-2.949591742621527
 10
5.998203794603695
 20
-2.965727655736322
 10
5.956774232279283
 20
-2.952550127140107
 10
5.939034581244691
 20
-2.95662442552878
 10
5.922832407572412
 20
-2.964633245709869
 10
5.853423875237441
 20
-2.970505933386852
 10
5.884324968657438
 20
-2.942862247523281
 10
5.899046705420586
 20
-2.935342405691358
 10
6.010222645163366
 20
-2.925104183554644
 10
6.008083346511916
 20
-2.949591742621527
 97
        0
 97
        1
330
84
 92
        1
 93
        1
 72
     4
 94
        3
 73
     0
 74
     0
 95
       35
 96
       31
 40
0.0
 40
0.0
 40
0.0
 40
0.0
 40
1.0
 40
1.0
 40
1.0
 40
2.0
 40
2.0
 40
2.0
 40
3.0
 40
3.0
 40
3.0
 40
4.0
 40
4.0
 40
4.0
 40
5.0
 40
5.0
 40
5.0
 40
6.0
 40
6.0
 40
6.0
 40
7.0
 40
7.0
 40
7.0
 40
8.0
 40
8.0
 40
8.0
 40
9.0
 40
9.0
 40
9.0
 40
10.0
 40
10.0
 40
10.0
 40
10.0
 10
6.04932954876886
 20
-2.8948974609375
 10
6.083058021539096
 20
-2.903888541891294
 10
6.035588842800355
 20
-2.915434661829433
 10
6.049334336409174
 20
-2.935842457103793
 10
6.049326099176848
 20
-2.968952173882624
 10
6.049332035222227
 20
-3.006012378293462
 10
6.049329541217022
 20
-3.039116763298112
 10
6.069768120770074
 20
-3.076579930839961
 10
5.9465822987098
 20
-3.098440762834305
 10
5.964373753209883
 20
-3.0641797735338
 10
6.014030375474349
 20
-3.050578896057901
 10
6.027453690420492
 20
-3.070249187401208
 10
6.021831048237041
 20
-3.004892279837677
 10
6.021840805463953
 20
-2.984601470341873
 10
6.021833571627868
 20
-2.956218277349496
 10
6.021836610923501
 20
-2.935845219010616
 10
6.031735570618795
 20
-2.911848656242682
 10
6.013226625751055
 20
-2.910752260637713
 10
5.994327308530576
 20
-2.915376547211129
 10
5.976781395515646
 20
-2.912108357402631
 10
5.839238400485454
 20
-2.927945186629206
 10
5.891050372744555
 20
-2.894895884847263
 10
5.932817212014646
 20
-2.892834964305342
 10
5.982104457547848
 20
-2.89805036212523
 10
6.021836873008295
 20
-2.894904148561244
 10
6.035612906866163
 20
-2.883331777696298
 10
6.020312763473939
 20
-2.874960716365965
 10
6.021836729438391
 20
-2.860371669563492
 10
6.049151731660938
 20
-2.836710865834018
 10
6.051821766175761
 20
-2.877018848134916
 10
6.04932954876886
 20
-2.8948974609375
 97
        0
 97
        1
330
85
 92
        1
 93
        1
 72
     4
 94
        3
 73
     0
 74
     0
 95
       32
 96
       28
 40
0.0
 40
0.0
 40
0.0
 40
0.0
 40
1.0
 40
1.0
 40
1.0
 40
2.0
 40
2.0
 40
2.0
 40
3.0
 40
3.0
 40
3.0
 40
4.0
 40
4.0
 40
4.0
 40
5.0
 40
5.0
 40
5.0
 40
6.0
 40
6.0
 40
6.0
 40
7.0
 40
7.0
 40
7.0
 40
8.0
 40
8.0
 40
8.0
 40
9.0
 40
9.0
 40
9.0
 40
9.0
 10
5.89808443158136
 20
-3.032396104600694
 10
5.88670826023455
 20
-3.026962000843607
 10
5.854167026184086
 20
-3.013623710848592
 10
5.854231836268758
 20
-3.033158639583853
 10
5.856207552420906
 20
-3.056805055304835
 10
5.85446361174652
 20
-3.068246882371403
 10
5.884339034074476
 20
-3.05988830751701
 10
5.898430677427263
 20
-3.056070920676145
 10
5.936735520904094
 20
-3.063653068627659
 10
5.911526244097987
 20
-3.08037626718644
 10
5.899709623905033
 20
-3.080285215124351
 10
5.875219588444426
 20
-3.080430656498997
 10
5.863552070502464
 20
-3.080369552416426
 10
5.821592905296584
 20
-3.087938209139287
 10
5.82904333315936
 20
-3.06409779340058
 10
5.829335711934819
 20
-3.03239070615992
 10
5.832262362519637
 20
-3.013714876591292
 10
5.823068454578939
 20
-2.981854887959823
 10
5.833598232493335
 20
-2.967005815185289
 10
5.850264962052506
 20
-2.953668585962898
 10
5.853750392949475
 20
-2.978232234631731
 10
5.856840927361063
 20
-2.991149289961147
 10
5.85760664482071
 20
-2.997778604807662
 10
5.843105870067321
 20
-2.998184546655074
 10
5.849798536429134
 20
-3.004896395764047
 10
5.866632587675035
 20
-3.006176693555314
 10
5.943694441832323
 20
-3.002944788959173
 10
5.89808443158136
 20
-3.032396104600694
 97
        0
 97
        1
330
86
 92
        1
 93
        1
 72
     4
 94
        3
 73
     0
 74
     0
 95
       17
 96
       13
 40
0.0
 40
0.0
 40
0.0
 40
0.0
 40
1.0
 40
1.0
 40
1.0
 40
2.0
 40
2.0
 40
2.0
 40
3.0
 40
3.0
 40
3.0
 40
4.0
 40
4.0
 40
4.0
 40
4.0
 10
5.911525729324416
 20
-2.860371907552083
 10
5.906157334625453
 20
-2.892557770357307
 10
5.859679341199706
 20
-2.858191388832879
 10
5.847058684549716
 20
-2.878395188446953
 10
5.848279929983012
 20
-2.897504091522958
 10
5.859539417808314
 20
-2.916175868687635
 10
5.856837903843748
 20
-2.935844995380357
 10
5.820804757464252
 20
-2.985842114772544
 10
5.829383244618106
 20
-2.880780504956987
 10
5.829337718478781
 20
-2.86037855240502
 10
5.849142674024076
 20
-2.849099392445976
 10
5.891702428969993
 20
-2.849127511676872
 10
5.911525729324416
 20
-2.860371907552083
 97
        0
 97
        1
330
87
 75
     2
 76
     1
 98
        1
 10
0.0
 20
0.0
450
        0
451
        0
460
0.0
461
0.0
452
        0
462
0.0
453
        0
470

  0
SPLINE
  5
89
330
7F
100
AcDbEntity
  8
Layer 1
100
AcDbSpline
210
0.0
220
0.0
230
1.0
 70
     9
 71
     3
 72
    11
 73
     7
 74
     0
 42
0.0000000001
 43
0.0000000001
 40
0.0
 40
0.0
 40
0.0
 40
0.0
 40
1.0
 40
1.0
 40
1.0
 40
2.0
 40
2.0
 40
2.0
 40
2.0
 10
5.985825859532749
 20
-3.337592230902777
 30
0.0
 10
6.003418462430545
 20
-3.337944774223387
 30
0.0
 10
6.003416269106385
 20
-3.364747482461918
 30
0.0
 10
5.985824245962248
 20
-3.365091921719315
 30
0.0
 10
5.968236629981801
 20
-3.364743855955882
 30
0.0
 10
5.96823207661512
 20
-3.337941146629974
 30
0.0
 10
5.985825859532749
 20
-3.337592230902777
 30
0.0
  0
SPLINE
  5
8A
330
7F
100
AcDbEntity
  8
Layer 1
100
AcDbSpline
210
0.0
220
0.0
230
1.0
 70
     9
 71
     3
 72
    17
 73
    13
 74
     0
 42
0.0000000001
 43
0.0000000001
 40
0.0
 40
0.0
 40
0.0
 40
0.0
 40
1.0
 40
1.0
 40
1.0
 40
2.0
 40
2.0
 40
2.0
 40
3.0
 40
3.0
 40
3.0
 40
4.0
 40
4.0
 40
4.0
 40
4.0
 10
5.985825859532749
 20
-3.324144151475694
 30
0.0
 10
5.962809038529181
 20
-3.323817942084992
 30
0.0
 10
5.974858446613628
 20
-3.290257584819086
 30
0.0
 10
5.972070420536637
 20
-3.275871930193021
 30
0.0
 10
5.975171722348098
 20
-3.260050726268231
 30
0.0
 10
5.962335589541958
 20
-3.224031164861028
 30
0.0
 10
5.985823224475981
 20
-3.220871722612729
 30
0.0
 10
6.009316434074914
 20
-3.224018345510204
 30
0.0
 10
5.996479683335766
 20
-3.260059995434453
 30
0.0
 10
5.999582048811614
 20
-3.275871313390161
 30
0.0
 10
5.996820344943342
 20
-3.290328698664716
 30
0.0
 10
6.008800688048646
 20
-3.323650080879461
 30
0.0
 10
5.985825859532749
 20
-3.324144151475694
 30
0.0
  0
SPLINE
  5
8B
330
7F
100
AcDbEntity
  8
Layer 1
100
AcDbSpline
210
0.0
220
0.0
230
1.0
 70
     9
 71
     3
 72
    26
 73
    22
 74
     0
 42
0.0000000001
 43
0.0000000001
 40
0.0
 40
0.0
 40
0.0
 40
0.0
 40
1.0
 40
1.0
 40
1.0
 40
2.0
 40
2.0
 40
2.0
 40
3.0
 40
3.0
 40
3.0
 40
4.0
 40
4.0
 40
4.0
 40
5.0
 40
5.0
 40
5.0
 40
6.0
 40
6.0
 40
6.0
 40
7.0
 40
7.0
 40
7.0
 40
7.0
 10
6.033799492345249
 20
-3.18634033203125
 30
0.0
 10
6.062900952775887
 20
-3.197347205203893
 30
0.0
 10
6.04121269977688
 20
-3.256527210979065
 30
0.0
 10
6.047562121829135
 20
-3.282589406063935
 30
0.0
 10
6.047527468784159
 20
-3.302847562506333
 30
0.0
 10
6.047570967845381
 20
-3.331148380806603
 30
0.0
 10
6.047552692218484
 20
-3.351338599884052
 30
0.0
 10
6.046520183904349
 20
-3.375092631945701
 30
0.0
 10
6.008629610304599
 20
-3.362612927138343
 30
0.0
 10
6.023409750983116
 20
-3.343551101681883
 30
0.0
 10
6.020091429347758
 20
-3.303079976115605
 30
0.0
 10
6.037540610216561
 20
-3.248836786335863
 30
0.0
 10
6.020057528593345
 20
-3.207117771063305
 30
0.0
 10
6.012119618583457
 20
-3.199138746134495
 30
0.0
 10
5.982049859629088
 20
-3.217790644245294
 30
0.0
 10
5.97879924658231
 20
-3.200093097735513
 30
0.0
 10
5.971607703525806
 20
-3.18576015983908
 30
0.0
 10
5.970411200483365
 20
-3.128471606725219
 30
0.0
 10
5.991781498667831
 20
-3.142635977554391
 30
0.0
 10
5.991765254256708
 20
-3.182006604754506
 30
0.0
 10
5.990726372359858
 20
-3.193097225887047
 30
0.0
 10
6.033799492345249
 20
-3.18634033203125
 30
0.0
  0
SPLINE
  5
8C
330
7F
100
AcDbEntity
  8
Layer 1
100
AcDbSpline
210
0.0
220
0.0
230
1.0
 70
     9
 71
     3
 72
    11
 73
     7
 74
     0
 42
0.0000000001
 43
0.0000000001
 40
0.0
 40
0.0
 40
0.0
 40
0.0
 40
1.0
 40
1.0
 40
1.0
 40
2.0
 40
2.0
 40
2.0
 40
2.0
 10
5.889580199810526
 20
-3.33056640625
 30
0.0
 10
5.874949532004493
 20
-3.332029352953289
 30
0.0
 10
5.860942099872241
 20
-3.318556416098557
 30
0.0
 10
5.873996081735135
 20
-3.30764332224367
 30
0.0
 10
5.896343049214692
 20
-3.290317346284559
 30
0.0
 10
5.929726509933945
 20
-3.326527876568572
 30
0.0
 10
5.889580199810526
 20
-3.33056640625
 30
0.0
  0
SPLINE
  5
8D
330
7F
100
AcDbEntity
  8
Layer 1
100
AcDbSpline
210
0.0
220
0.0
230
1.0
 70
     9
 71
     3
 72
    11
 73
     7
 74
     0
 42
0.0000000001
 43
0.0000000001
 40
0.0
 40
0.0
 40
0.0
 40
0.0
 40
1.0
 40
1.0
 40
1.0
 40
2.0
 40
2.0
 40
2.0
 40
2.0
 10
5.868801119949416
 20
-3.2825927734375
 30
0.0
 10
5.790918063474363
 20
-3.32575657761356
 30
0.0
 10
5.908257834242375
 20
-3.377542843908473
 30
0.0
 10
5.936482703448695
 20
-3.321392499478848
 30
0.0
 10
5.937533993567967
 20
-3.287168627698052
 30
0.0
 10
5.897230217275136
 20
-3.278158453329423
 30
0.0
 10
5.868801119949416
 20
-3.2825927734375
 30
0.0
  0
SPLINE
  5
8E
330
7F
100
AcDbEntity
  8
Layer 1
100
AcDbSpline
210
0.0
220
0.0
230
1.0
 70
     9
 71
     3
 72
    11
 73
     7
 74
     0
 42
0.0000000001
 43
0.0000000001
 40
0.0
 40
0.0
 40
0.0
 40
0.0
 40
1.0
 40
1.0
 40
1.0
 40
2.0
 40
2.0
 40
2.0
 40
2.0
 10
5.861775295296638
 20
-3.365091959635416
 30
0.0
 10
5.722037866851147
 20
-3.291751554570673
 30
0.0
 10
5.965124412734692
 20
-3.193241976802924
 30
0.0
 10
5.957414858045113
 20
-3.327364577439652
 30
0.0
 10
5.942451134020402
 20
-3.365181528880561
 30
0.0
 10
5.897394011109554
 20
-3.367381381477748
 30
0.0
 10
5.861775295296638
 20
-3.365091959635416
 30
0.0
  0
SPLINE
  5
8F
330
7F
100
AcDbEntity
  8
Layer 1
100
AcDbSpline
210
0.0
220
0.0
230
1.0
 70
     9
 71
     3
 72
    23
 73
    19
 74
     0
 42
0.0000000001
 43
0.0000000001
 40
0.0
 40
0.0
 40
0.0
 40
0.0
 40
1.0
 40
1.0
 40
1.0
 40
2.0
 40
2.0
 40
2.0
 40
3.0
 40
3.0
 40
3.0
 40
4.0
 40
4.0
 40
4.0
 40
5.0
 40
5.0
 40
5.0
 40
6.0
 40
6.0
 40
6.0
 40
6.0
 10
5.90333345501886
 20
-3.213840060763888
 30
0.0
 10
5.933934484452771
 20
-3.21954226586019
 30
0.0
 10
5.932298434018573
 20
-3.195267801454873
 30
0.0
 10
5.930822120142289
 20
-3.172894978292826
 30
0.0
 10
5.913921054573468
 20
-3.15464842728799
 30
0.0
 10
5.78833353516317
 20
-3.182176702620924
 30
0.0
 10
5.834568839091742
 20
-3.145392469428859
 30
0.0
 10
5.898841330077579
 20
-3.149088012936014
 30
0.0
 10
5.970471115369642
 20
-3.12049726344954
 30
0.0
 10
5.950376378769937
 20
-3.216597061511707
 30
0.0
 10
5.934250773372847
 20
-3.235026608500712
 30
0.0
 10
5.906491016195382
 20
-3.236282896629012
 30
0.0
 10
5.882553656768524
 20
-3.234615763799587
 30
0.0
 10
5.866792134382699
 20
-3.231555214062533
 30
0.0
 10
5.830976006871726
 20
-3.244287748931924
 30
0.0
 10
5.827852388483657
 20
-3.220875242884618
 30
0.0
 10
5.84099116858796
 20
-3.204186555338398
 30
0.0
 10
5.88229925854489
 20
-3.218255445854891
 30
0.0
 10
5.90333345501886
 20
-3.213840060763888
 30
0.0
  0
HATCH
  5
90
330
7F
100
AcDbEntity
  8
Layer 1
 62
   250
420
  2301728
440
 33554687
100
AcDbHatch
 10
0.0
 20
0.0
 30
0.0
210
0.0
220
0.0
230
1.0
  2
SOLID
 70
     1
 71
     1
 91
        7
 92
        1
 93
        1
 72
     4
 94
        3
 73
     0
 74
     0
 95
       11
 96
        7
 40
0.0
 40
0.0
 40
0.0
 40
0.0
 40
1.0
 40
1.0
 40
1.0
 40
2.0
 40
2.0
 40
2.0
 40
2.0
 10
5.985825859532749
 20
-3.337592230902777
 10
6.003418462430545
 20
-3.337944774223387
 10
6.003416269106385
 20
-3.364747482461918
 10
5.985824245962248
 20
-3.365091921719315
 10
5.968236629981801
 20
-3.364743855955882
 10
5.96823207661512
 20
-3.337941146629974
 10
5.985825859532749
 20
-3.337592230902777
 97
        0
 97
        1
330
89
 92
        1
 93
        1
 72
     4
 94
        3
 73
     0
 74
     0
 95
       17
 96
       13
 40
0.0
 40
0.0
 40
0.0
 40
0.0
 40
1.0
 40
1.0
 40
1.0
 40
2.0
 40
2.0
 40
2.0
 40
3.0
 40
3.0
 40
3.0
 40
4.0
 40
4.0
 40
4.0
 40
4.0
 10
5.985825859532749
 20
-3.324144151475694
 10
5.962809038529181
 20
-3.323817942084992
 10
5.974858446613628
 20
-3.290257584819086
 10
5.972070420536637
 20
-3.275871930193021
 10
5.975171722348098
 20
-3.260050726268231
 10
5.962335589541958
 20
-3.224031164861028
 10
5.985823224475981
 20
-3.220871722612729
 10
6.009316434074914
 20
-3.224018345510204
 10
5.996479683335766
 20
-3.260059995434453
 10
5.999582048811614
 20
-3.275871313390161
 10
5.996820344943342
 20
-3.290328698664716
 10
6.008800688048646
 20
-3.323650080879461
 10
5.985825859532749
 20
-3.324144151475694
 97
        0
 97
        1
330
8A
 92
        1
 93
        1
 72
     4
 94
        3
 73
     0
 74
     0
 95
       26
 96
       22
 40
0.0
 40
0.0
 40
0.0
 40
0.0
 40
1.0
 40
1.0
 40
1.0
 40
2.0
 40
2.0
 40
2.0
 40
3.0
 40
3.0
 40
3.0
 40
4.0
 40
4.0
 40
4.0
 40
5.0
 40
5.0
 40
5.0
 40
6.0
 40
6.0
 40
6.0
 40
7.0
 40
7.0
 40
7.0
 40
7.0
 10
6.033799492345249
 20
-3.18634033203125
 10
6.062900952775887
 20
-3.197347205203893
 10
6.04121269977688
 20
-3.256527210979065
 10
6.047562121829135
 20
-3.282589406063935
 10
6.047527468784159
 20
-3.302847562506333
 10
6.047570967845381
 20
-3.331148380806603
 10
6.047552692218484
 20
-3.351338599884052
 10
6.046520183904349
 20
-3.375092631945701
 10
6.008629610304599
 20
-3.362612927138343
 10
6.023409750983116
 20
-3.343551101681883
 10
6.020091429347758
 20
-3.303079976115605
 10
6.037540610216561
 20
-3.248836786335863
 10
6.020057528593345
 20
-3.207117771063305
 10
6.012119618583457
 20
-3.199138746134495
 10
5.982049859629088
 20
-3.217790644245294
 10
5.97879924658231
 20
-3.200093097735513
 10
5.971607703525806
 20
-3.18576015983908
 10
5.970411200483365
 20
-3.128471606725219
 10
5.991781498667831
 20
-3.142635977554391
 10
5.991765254256708
 20
-3.182006604754506
 10
5.990726372359858
 20
-3.193097225887047
 10
6.033799492345249
 20
-3.18634033203125
 97
        0
 97
        1
330
8B
 92
        1
 93
        1
 72
     4
 94
        3
 73
     0
 74
     0
 95
       11
 96
        7
 40
0.0
 40
0.0
 40
0.0
 40
0.0
 40
1.0
 40
1.0
 40
1.0
 40
2.0
 40
2.0
 40
2.0
 40
2.0
 10
5.889580199810526
 20
-3.33056640625
 10
5.874949532004493
 20
-3.332029352953289
 10
5.860942099872241
 20
-3.318556416098557
 10
5.873996081735135
 20
-3.30764332224367
 10
5.896343049214692
 20
-3.290317346284559
 10
5.929726509933945
 20
-3.326527876568572
 10
5.889580199810526
 20
-3.33056640625
 97
        0
 97
        1
330
8C
 92
        1
 93
        1
 72
     4
 94
        3
 73
     0
 74
     0
 95
       11
 96
        7
 40
0.0
 40
0.0
 40
0.0
 40
0.0
 40
1.0
 40
1.0
 40
1.0
 40
2.0
 40
2.0
 40
2.0
 40
2.0
 10
5.868801119949416
 20
-3.2825927734375
 10
5.790918063474363
 20
-3.32575657761356
 10
5.908257834242375
 20
-3.377542843908473
 10
5.936482703448695
 20
-3.321392499478848
 10
5.937533993567967
 20
-3.287168627698052
 10
5.897230217275136
 20
-3.278158453329423
 10
5.868801119949416
 20
-3.2825927734375
 97
        0
 97
        1
330
8D
 92
        1
 93
        1
 72
     4
 94
        3
 73
     0
 74
     0
 95
       11
 96
        7
 40
0.0
 40
0.0
 40
0.0
 40
0.0
 40
1.0
 40
1.0
 40
1.0
 40
2.0
 40
2.0
 40
2.0
 40
2.0
 10
5.861775295296638
 20
-3.365091959635416
 10
5.722037866851147
 20
-3.291751554570673
 10
5.965124412734692
 20
-3.193241976802924
 10
5.957414858045113
 20
-3.327364577439652
 10
5.942451134020402
 20
-3.365181528880561
 10
5.897394011109554
 20
-3.367381381477748
 10
5.861775295296638
 20
-3.365091959635416
 97
        0
 97
        1
330
8E
 92
        1
 93
        1
 72
     4
 94
        3
 73
     0
 74
     0
 95
       23
 96
       19
 40
0.0
 40
0.0
 40
0.0
 40
0.0
 40
1.0
 40
1.0
 40
1.0
 40
2.0
 40
2.0
 40
2.0
 40
3.0
 40
3.0
 40
3.0
 40
4.0
 40
4.0
 40
4.0
 40
5.0
 40
5.0
 40
5.0
 40
6.0
 40
6.0
 40
6.0
 40
6.0
 10
5.90333345501886
 20
-3.213840060763888
 10
5.933934484452771
 20
-3.21954226586019
 10
5.932298434018573
 20
-3.195267801454873
 10
5.930822120142289
 20
-3.172894978292826
 10
5.913921054573468
 20
-3.15464842728799
 10
5.78833353516317
 20
-3.182176702620924
 10
5.834568839091742
 20
-3.145392469428859
 10
5.898841330077579
 20
-3.149088012936014
 10
5.970471115369642
 20
-3.12049726344954
 10
5.950376378769937
 20
-3.216597061511707
 10
5.934250773372847
 20
-3.235026608500712
 10
5.906491016195382
 20
-3.236282896629012
 10
5.882553656768524
 20
-3.234615763799587
 10
5.866792134382699
 20
-3.231555214062533
 10
5.830976006871726
 20
-3.244287748931924
 10
5.827852388483657
 20
-3.220875242884618
 10
5.84099116858796
 20
-3.204186555338398
 10
5.88229925854489
 20
-3.218255445854891
 10
5.90333345501886
 20
-3.213840060763888
 97
        0
 97
        1
330
8F
 75
     2
 76
     1
 98
        1
 10
0.0
 20
0.0
450
        0
451
        0
460
0.0
461
0.0
452
        0
462
0.0
453
        0
470

  0
SPLINE
  5
91
330
7F
100
AcDbEntity
  8
Layer 1
100
AcDbSpline
210
0.0
220
0.0
230
1.0
 70
     9
 71
     3
 72
    29
 73
    25
 74
     0
 42
0.0000000001
 43
0.0000000001
 40
0.0
 40
0.0
 40
0.0
 40
0.0
 40
1.0
 40
1.0
 40
1.0
 40
2.0
 40
2.0
 40
2.0
 40
3.0
 40
3.0
 40
3.0
 40
4.0
 40
4.0
 40
4.0
 40
5.0
 40
5.0
 40
5.0
 40
6.0
 40
6.0
 40
6.0
 40
7.0
 40
7.0
 40
7.0
 40
8.0
 40
8.0
 40
8.0
 40
8.0
 10
6.027682413352193
 20
-3.429816351996527
 30
0.0
 10
6.054932658648289
 20
-3.422854522844507
 30
0.0
 10
6.035171271432873
 20
-3.529136222558816
 30
0.0
 10
6.040833082524689
 20
-3.549897775513361
 30
0.0
 10
6.033889943990339
 20
-3.574463949890476
 30
0.0
 10
6.060334390012763
 20
-3.662861175598284
 30
0.0
 10
6.018371439650914
 20
-3.649048235530674
 30
0.0
 10
6.008279387433756
 20
-3.631565629281049
 30
0.0
 10
6.032556925311003
 20
-3.598929395845566
 30
0.0
 10
6.015302903650813
 20
-3.577550505535555
 30
0.0
 10
6.016737406731888
 20
-3.54561632904482
 30
0.0
 10
6.020390894768221
 20
-3.5525500381451
 30
0.0
 10
5.991773858257273
 20
-3.545845707843568
 30
0.0
 10
5.973984067340703
 20
-3.519321244273442
 30
0.0
 10
6.028687500222304
 20
-3.540722131236255
 30
0.0
 10
6.020961970693861
 20
-3.510102252524676
 30
0.0
 10
6.021733819980505
 20
-3.489185254268995
 30
0.0
 10
6.015633971742949
 20
-3.467854921817092
 30
0.0
 10
6.014247781547838
 20
-3.449699494078496
 30
0.0
 10
6.013929921114089
 20
-3.442481880555937
 30
0.0
 10
6.014738121050009
 20
-3.443258624696682
 30
0.0
 10
6.007527341414212
 20
-3.442952354717249
 30
0.0
 10
5.972984212931097
 20
-3.437444205601751
 30
0.0
 10
6.013839311970387
 20
-3.424824133570609
 30
0.0
 10
6.027682413352193
 20
-3.429816351996527
 30
0.0
  0
SPLINE
  5
92
330
7F
100
AcDbEntity
  8
Layer 1
100
AcDbSpline
210
0.0
220
0.0
230
1.0
 70
     9
 71
     3
 72
    11
 73
     7
 74
     0
 42
0.0000000001
 43
0.0000000001
 40
0.0
 40
0.0
 40
0.0
 40
0.0
 40
1.0
 40
1.0
 40
1.0
 40
2.0
 40
2.0
 40
2.0
 40
2.0
 10
5.967488185921638
 20
-3.429816351996527
 30
0.0
 10
5.994873523746895
 20
-3.427078089626434
 30
0.0
 10
5.99293992901764
 20
-3.465380185399023
 30
0.0
 10
5.96748667106893
 20
-3.46312114307097
 30
0.0
 10
5.951038198975488
 20
-3.462719003589578
 30
0.0
 10
5.948423171019763
 20
-3.430046935942186
 30
0.0
 10
5.967488185921638
 20
-3.429816351996527
 30
0.0
  0
SPLINE
  5
93
330
7F
100
AcDbEntity
  8
Layer 1
100
AcDbSpline
210
0.0
220
0.0
230
1.0
 70
     9
 71
     3
 72
    35
 73
    31
 74
     0
 42
0.0000000001
 43
0.0000000001
 40
0.0
 40
0.0
 40
0.0
 40
0.0
 40
1.0
 40
1.0
 40
1.0
 40
2.0
 40
2.0
 40
2.0
 40
3.0
 40
3.0
 40
3.0
 40
4.0
 40
4.0
 40
4.0
 40
5.0
 40
5.0
 40
5.0
 40
6.0
 40
6.0
 40
6.0
 40
7.0
 40
7.0
 40
7.0
 40
8.0
 40
8.0
 40
8.0
 40
9.0
 40
9.0
 40
9.0
 40
10.0
 40
10.0
 40
10.0
 40
10.0
 10
5.967488185921638
 20
-3.469536675347221
 30
0.0
 10
5.995032166347148
 20
-3.474839636073763
 30
0.0
 10
5.974754058965976
 20
-3.564378664646697
 30
0.0
 10
5.980639556939169
 20
-3.589617271211131
 30
0.0
 10
5.982234757881011
 20
-3.624014760715365
 30
0.0
 10
5.985610156299571
 20
-3.651499212177605
 30
0.0
 10
5.940912259768108
 20
-3.643086693295938
 30
0.0
 10
5.922101322539825
 20
-3.64676649731507
 30
0.0
 10
5.850877150933633
 20
-3.642187036081584
 30
0.0
 10
5.894161325476564
 20
-3.616499377204427
 30
0.0
 10
5.916376847855265
 20
-3.612894563597832
 30
0.0
 10
5.942124251029857
 20
-3.620651250377591
 30
0.0
 10
5.960772926345598
 20
-3.623240324627911
 30
0.0
 10
5.967569688785588
 20
-3.611835152844011
 30
0.0
 10
5.953471608960196
 20
-3.607666579349395
 30
0.0
 10
5.954046500048636
 20
-3.596645804413141
 30
0.0
 10
5.952259811529907
 20
-3.586429456225838
 30
0.0
 10
5.966819784223692
 20
-3.57853715929395
 30
0.0
 10
5.960776400374546
 20
-3.569756429176701
 30
0.0
 10
5.940498686935749
 20
-3.547139967002938
 30
0.0
 10
5.892497724375996
 20
-3.585860468278812
 30
0.0
 10
5.864828065896138
 20
-3.56562502184997
 30
0.0
 10
5.84874150971023
 20
-3.543615572820031
 30
0.0
 10
5.90006402300777
 20
-3.543544346682564
 30
0.0
 10
5.914329293458169
 20
-3.543169237982472
 30
0.0
 10
5.929140508418691
 20
-3.543706359082509
 30
0.0
 10
5.958769896521541
 20
-3.565711838678225
 30
0.0
 10
5.963529395705537
 20
-3.541952554824711
 30
0.0
 10
5.963601445923838
 20
-3.522384725862782
 30
0.0
 10
5.951677975514964
 20
-3.482128733312947
 30
0.0
 10
5.967488185921638
 20
-3.469536675347221
 30
0.0
  0
SPLINE
  5
94
330
7F
100
AcDbEntity
  8
Layer 1
100
AcDbSpline
210
0.0
220
0.0
230
1.0
 70
     9
 71
     3
 72
    11
 73
     7
 74
     0
 42
0.0000000001
 43
0.0000000001
 40
0.0
 40
0.0
 40
0.0
 40
0.0
 40
1.0
 40
1.0
 40
1.0
 40
2.0
 40
2.0
 40
2.0
 40
2.0
 10
5.873995889914693
 20
-3.49642605251736
 30
0.0
 10
5.855380543907358
 20
-3.496219862794797
 30
0.0
 10
5.857695634965466
 20
-3.463345329197901
 30
0.0
 10
5.8739961782735
 20
-3.463121263921721
 30
0.0
 10
5.899464425055636
 20
-3.46081332117746
 30
0.0
 10
5.901572563980809
 20
-3.499415404987012
 30
0.0
 10
5.873995889914693
 20
-3.49642605251736
 30
0.0
  0
SPLINE
  5
95
330
7F
100
AcDbEntity
  8
Layer 1
100
AcDbSpline
210
0.0
220
0.0
230
1.0
 70
     9
 71
     3
 72
    32
 73
    28
 74
     0
 42
0.0000000001
 43
0.0000000001
 40
0.0
 40
0.0
 40
0.0
 40
0.0
 40
1.0
 40
1.0
 40
1.0
 40
2.0
 40
2.0
 40
2.0
 40
3.0
 40
3.0
 40
3.0
 40
4.0
 40
4.0
 40
4.0
 40
5.0
 40
5.0
 40
5.0
 40
6.0
 40
6.0
 40
6.0
 40
7.0
 40
7.0
 40
7.0
 40
8.0
 40
8.0
 40
8.0
 40
9.0
 40
9.0
 40
9.0
 40
9.0
 10
5.881021714567471
 20
-3.44967312282986
 30
0.0
 10
5.813642599879458
 20
-3.437752291523047
 30
0.0
 10
5.861965819178067
 20
-3.507204432685195
 30
0.0
 10
5.844048438495392
 20
-3.542374775391976
 30
0.0
 10
5.83310033347253
 20
-3.55401356479212
 30
0.0
 10
5.852067092016467
 20
-3.565662700595086
 30
0.0
 10
5.846340520708937
 20
-3.577548470699273
 30
0.0
 10
5.833797387803415
 20
-3.596096254218398
 30
0.0
 10
5.852084681792474
 20
-3.615347137573217
 30
0.0
 10
5.847409187841245
 20
-3.63637362736247
 30
0.0
 10
5.837203522707517
 20
-3.667859419203207
 30
0.0
 10
5.813333389117562
 20
-3.637317870878379
 30
0.0
 10
5.820835398079376
 20
-3.616508134064979
 30
0.0
 10
5.820834113474701
 20
-3.582387634722635
 30
0.0
 10
5.820822710909371
 20
-3.54396459240594
 30
0.0
 10
5.820827501643129
 20
-3.50986731574201
 30
0.0
 10
5.819846931892748
 20
-3.475153975656982
 30
0.0
 10
5.813832453288341
 20
-3.427961906050061
 30
0.0
 10
5.860858556170821
 20
-3.429820446774442
 30
0.0
 10
5.889402197513087
 20
-3.42769460923604
 30
0.0
 10
5.911119371707703
 20
-3.418622720652781
 30
0.0
 10
5.934187908465471
 20
-3.442963164934578
 30
0.0
 10
5.937072364608966
 20
-3.459571896740132
 30
0.0
 10
5.943916718391593
 20
-3.557861558717212
 30
0.0
 10
5.914324877594834
 20
-3.509872421214342
 30
0.0
 10
5.913700192694047
 20
-3.482483108314454
 30
0.0
 10
5.92378114474761
 20
-3.439363573797878
 30
0.0
 10
5.881021714567471
 20
-3.44967312282986
 30
0.0
  0
HATCH
  5
96
330
7F
100
AcDbEntity
  8
Layer 1
 62
   250
420
  2301728
440
 33554687
100
AcDbHatch
 10
0.0
 20
0.0
 30
0.0
210
0.0
220
0.0
230
1.0
  2
SOLID
 70
     1
 71
     1
 91
        5
 92
        1
 93
        1
 72
     4
 94
        3
 73
     0
 74
     0
 95
       29
 96
       25
 40
0.0
 40
0.0
 40
0.0
 40
0.0
 40
1.0
 40
1.0
 40
1.0
 40
2.0
 40
2.0
 40
2.0
 40
3.0
 40
3.0
 40
3.0
 40
4.0
 40
4.0
 40
4.0
 40
5.0
 40
5.0
 40
5.0
 40
6.0
 40
6.0
 40
6.0
 40
7.0
 40
7.0
 40
7.0
 40
8.0
 40
8.0
 40
8.0
 40
8.0
 10
6.027682413352193
 20
-3.429816351996527
 10
6.054932658648289
 20
-3.422854522844507
 10
6.035171271432873
 20
-3.529136222558816
 10
6.040833082524689
 20
-3.549897775513361
 10
6.033889943990339
 20
-3.574463949890476
 10
6.060334390012763
 20
-3.662861175598284
 10
6.018371439650914
 20
-3.649048235530674
 10
6.008279387433756
 20
-3.631565629281049
 10
6.032556925311003
 20
-3.598929395845566
 10
6.015302903650813
 20
-3.577550505535555
 10
6.016737406731888
 20
-3.54561632904482
 10
6.020390894768221
 20
-3.5525500381451
 10
5.991773858257273
 20
-3.545845707843568
 10
5.973984067340703
 20
-3.519321244273442
 10
6.028687500222304
 20
-3.540722131236255
 10
6.020961970693861
 20
-3.510102252524676
 10
6.021733819980505
 20
-3.489185254268995
 10
6.015633971742949
 20
-3.467854921817092
 10
6.014247781547838
 20
-3.449699494078496
 10
6.013929921114089
 20
-3.442481880555937
 10
6.014738121050009
 20
-3.443258624696682
 10
6.007527341414212
 20
-3.442952354717249
 10
5.972984212931097
 20
-3.437444205601751
 10
6.013839311970387
 20
-3.424824133570609
 10
6.027682413352193
 20
-3.429816351996527
 97
        0
 97
        1
330
91
 92
        1
 93
        1
 72
     4
 94
        3
 73
     0
 74
     0
 95
       11
 96
        7
 40
0.0
 40
0.0
 40
0.0
 40
0.0
 40
1.0
 40
1.0
 40
1.0
 40
2.0
 40
2.0
 40
2.0
 40
2.0
 10
5.967488185921638
 20
-3.429816351996527
 10
5.994873523746895
 20
-3.427078089626434
 10
5.99293992901764
 20
-3.465380185399023
 10
5.96748667106893
 20
-3.46312114307097
 10
5.951038198975488
 20
-3.462719003589578
 10
5.948423171019763
 20
-3.430046935942186
 10
5.967488185921638
 20
-3.429816351996527
 97
        0
 97
        1
330
92
 92
        1
 93
        1
 72
     4
 94
        3
 73
     0
 74
     0
 95
       35
 96
       31
 40
0.0
 40
0.0
 40
0.0
 40
0.0
 40
1.0
 40
1.0
 40
1.0
 40
2.0
 40
2.0
 40
2.0
 40
3.0
 40
3.0
 40
3.0
 40
4.0
 40
4.0
 40
4.0
 40
5.0
 40
5.0
 40
5.0
 40
6.0
 40
6.0
 40
6.0
 40
7.0
 40
7.0
 40
7.0
 40
8.0
 40
8.0
 40
8.0
 40
9.0
 40
9.0
 40
9.0
 40
10.0
 40
10.0
 40
10.0
 40
10.0
 10
5.967488185921638
 20
-3.469536675347221
 10
5.995032166347148
 20
-3.474839636073763
 10
5.974754058965976
 20
-3.564378664646697
 10
5.980639556939169
 20
-3.589617271211131
 10
5.982234757881011
 20
-3.624014760715365
 10
5.985610156299571
 20
-3.651499212177605
 10
5.940912259768108
 20
-3.643086693295938
 10
5.922101322539825
 20
-3.64676649731507
 10
5.850877150933633
 20
-3.642187036081584
 10
5.894161325476564
 20
-3.616499377204427
 10
5.916376847855265
 20
-3.612894563597832
 10
5.942124251029857
 20
-3.620651250377591
 10
5.960772926345598
 20
-3.623240324627911
 10
5.967569688785588
 20
-3.611835152844011
 10
5.953471608960196
 20
-3.607666579349395
 10
5.954046500048636
 20
-3.596645804413141
 10
5.952259811529907
 20
-3.586429456225838
 10
5.966819784223692
 20
-3.57853715929395
 10
5.960776400374546
 20
-3.569756429176701
 10
5.940498686935749
 20
-3.547139967002938
 10
5.892497724375996
 20
-3.585860468278812
 10
5.864828065896138
 20
-3.56562502184997
 10
5.84874150971023
 20
-3.543615572820031
 10
5.90006402300777
 20
-3.543544346682564
 10
5.914329293458169
 20
-3.543169237982472
 10
5.929140508418691
 20
-3.543706359082509
 10
5.958769896521541
 20
-3.565711838678225
 10
5.963529395705537
 20
-3.541952554824711
 10
5.963601445923838
 20
-3.522384725862782
 10
5.951677975514964
 20
-3.482128733312947
 10
5.967488185921638
 20
-3.469536675347221
 97
        0
 97
        1
330
93
 92
        1
 93
        1
 72
     4
 94
        3
 73
     0
 74
     0
 95
       11
 96
        7
 40
0.0
 40
0.0
 40
0.0
 40
0.0
 40
1.0
 40
1.0
 40
1.0
 40
2.0
 40
2.0
 40
2.0
 40
2.0
 10
5.873995889914693
 20
-3.49642605251736
 10
5.855380543907358
 20
-3.496219862794797
 10
5.857695634965466
 20
-3.463345329197901
 10
5.8739961782735
 20
-3.463121263921721
 10
5.899464425055636
 20
-3.46081332117746
 10
5.901572563980809
 20
-3.499415404987012
 10
5.873995889914693
 20
-3.49642605251736
 97
        0
 97
        1
330
94
 92
        1
 93
        1
 72
     4
 94
        3
 73
     0
 74
     0
 95
       32
 96
       28
 40
0.0
 40
0.0
 40
0.0
 40
0.0
 40
1.0
 40
1.0
 40
1.0
 40
2.0
 40
2.0
 40
2.0
 40
3.0
 40
3.0
 40
3.0
 40
4.0
 40
4.0
 40
4.0
 40
5.0
 40
5.0
 40
5.0
 40
6.0
 40
6.0
 40
6.0
 40
7.0
 40
7.0
 40
7.0
 40
8.0
 40
8.0
 40
8.0
 40
9.0
 40
9.0
 40
9.0
 40
9.0
 10
5.881021714567471
 20
-3.44967312282986
 10
5.813642599879458
 20
-3.437752291523047
 10
5.861965819178067
 20
-3.507204432685195
 10
5.844048438495392
 20
-3.542374775391976
 10
5.83310033347253
 20
-3.55401356479212
 10
5.852067092016467
 20
-3.565662700595086
 10
5.846340520708937
 20
-3.577548470699273
 10
5.833797387803415
 20
-3.596096254218398
 10
5.852084681792474
 20
-3.615347137573217
 10
5.847409187841245
 20
-3.63637362736247
 10
5.837203522707517
 20
-3.667859419203207
 10
5.813333389117562
 20
-3.637317870878379
 10
5.820835398079376
 20
-3.616508134064979
 10
5.820834113474701
 20
-3.582387634722635
 10
5.820822710909371
 20
-3.54396459240594
 10
5.820827501643129
 20
-3.50986731574201
 10
5.819846931892748
 20
-3.475153975656982
 10
5.813832453288341
 20
-3.427961906050061
 10
5.860858556170821
 20
-3.429820446774442
 10
5.889402197513087
 20
-3.42769460923604
 10
5.911119371707703
 20
-3.418622720652781
 10
5.934187908465471
 20
-3.442963164934578
 10
5.937072364608966
 20
-3.459571896740132
 10
5.943916718391593
 20
-3.557861558717212
 10
5.914324877594834
 20
-3.509872421214342
 10
5.913700192694047
 20
-3.482483108314454
 10
5.92378114474761
 20
-3.439363573797878
 10
5.881021714567471
 20
-3.44967312282986
 97
        0
 97
        1
330
95
 75
     2
 76
     1
 98
        1
 10
0.0
 20
0.0
450
        0
451
        0
460
0.0
461
0.0
452
        0
462
0.0
453
        0
470

  0
SPLINE
  5
97
330
7F
100
AcDbEntity
  8
Layer 1
100
AcDbSpline
210
0.0
220
0.0
230
1.0
 70
     9
 71
     3
 72
    14
 73
    10
 74
     0
 42
0.0000000001
 43
0.0000000001
 40
0.0
 40
0.0
 40
0.0
 40
0.0
 40
1.0
 40
1.0
 40
1.0
 40
2.0
 40
2.0
 40
2.0
 40
3.0
 40
3.0
 40
3.0
 40
3.0
 10
5.985825859532749
 20
-3.879536946614583
 30
0.0
 10
5.962848700070884
 20
-3.922148990241945
 30
0.0
 10
5.952795128247644
 20
-3.858495788198474
 30
0.0
 10
5.958030975177456
 20
-3.838285952028892
 30
0.0
 10
5.961955647488012
 20
-3.819237969899328
 30
0.0
 10
5.943748112529141
 20
-3.747900986120169
 30
0.0
 10
5.981551840180372
 20
-3.767085128396994
 30
0.0
 10
5.983689137290361
 20
-3.799719549744672
 30
0.0
 10
5.986208110387502
 20
-3.841120505446648
 30
0.0
 10
5.985825859532749
 20
-3.879536946614583
 30
0.0
  0
SPLINE
  5
98
330
7F
100
AcDbEntity
  8
Layer 1
100
AcDbSpline
210
0.0
220
0.0
230
1.0
 70
     9
 71
     3
 72
    32
 73
    28
 74
     0
 42
0.0000000001
 43
0.0000000001
 40
0.0
 40
0.0
 40
0.0
 40
0.0
 40
1.0
 40
1.0
 40
1.0
 40
2.0
 40
2.0
 40
2.0
 40
3.0
 40
3.0
 40
3.0
 40
4.0
 40
4.0
 40
4.0
 40
5.0
 40
5.0
 40
5.0
 40
6.0
 40
6.0
 40
6.0
 40
7.0
 40
7.0
 40
7.0
 40
8.0
 40
8.0
 40
8.0
 40
9.0
 40
9.0
 40
9.0
 40
9.0
 10
6.040825316998026
 20
-3.707811143663194
 30
0.0
 10
6.057145174421874
 20
-3.720628749347686
 30
0.0
 10
6.043108745470337
 20
-3.762808822247809
 30
0.0
 10
6.047560610363512
 20
-3.783282055314556
 30
0.0
 10
6.049129701713101
 20
-3.811038041091908
 30
0.0
 10
6.053225994311863
 20
-3.83376506977504
 30
0.0
 10
6.04861244764672
 20
-3.860283299515647
 30
0.0
 10
6.072584250278572
 20
-3.941430368747774
 30
0.0
 10
6.039168524101872
 20
-3.929366403765281
 30
0.0
 10
5.973753140212465
 20
-3.926897751312026
 30
0.0
 10
5.936140579746379
 20
-3.885849919401935
 30
0.0
 10
6.060930484751325
 20
-3.931859528503751
 30
0.0
 10
6.026768162843709
 20
-3.886566622837878
 30
0.0
 10
6.026771248231953
 20
-3.858732529483101
 30
0.0
 10
6.02677541162259
 20
-3.825147951921912
 30
0.0
 10
6.026773662395877
 20
-3.797342903134146
 30
0.0
 10
6.019872920486805
 20
-3.725680662600527
 30
0.0
 10
6.057432184891417
 20
-3.72856189628102
 30
0.0
 10
5.97543689255801
 20
-3.726156561644529
 30
0.0
 10
5.953091136032955
 20
-3.720363052953946
 30
0.0
 10
5.974556477379741
 20
-3.76292173731824
 30
0.0
 10
5.945485315366921
 20
-3.746159729839341
 30
0.0
 10
5.944327837253013
 20
-3.73786175661179
 30
0.0
 10
5.941141433484365
 20
-3.712317739612494
 30
0.0
 10
5.951292767954378
 20
-3.707812895412075
 30
0.0
 10
5.97929875466712
 20
-3.707849412224062
 30
0.0
 10
6.012878937315841
 20
-3.707783560216082
 30
0.0
 10
6.040825316998026
 20
-3.707811143663194
 30
0.0
  0
SPLINE
  5
99
330
7F
100
AcDbEntity
  8
Layer 1
100
AcDbSpline
210
0.0
220
0.0
230
1.0
 70
     9
 71
     3
 72
    11
 73
     7
 74
     0
 42
0.0000000001
 43
0.0000000001
 40
0.0
 40
0.0
 40
0.0
 40
0.0
 40
1.0
 40
1.0
 40
1.0
 40
2.0
 40
2.0
 40
2.0
 40
2.0
 10
5.86207368939386
 20
-3.728590223524305
 30
0.0
 10
5.862442869611489
 20
-3.710678802415777
 30
0.0
 10
5.889211867898792
 20
-3.71067601856656
 30
0.0
 10
5.889580159498134
 20
-3.728591997865212
 30
0.0
 10
5.889254423925901
 20
-3.745848806310454
 30
0.0
 10
5.862393061109387
 20
-3.74584834203895
 30
0.0
 10
5.86207368939386
 20
-3.728590223524305
 30
0.0
  0
SPLINE
  5
9A
330
7F
100
AcDbEntity
  8
Layer 1
100
AcDbSpline
210
0.0
220
0.0
230
1.0
 70
     9
 71
     3
 72
    47
 73
    43
 74
     0
 42
0.0000000001
 43
0.0000000001
 40
0.0
 40
0.0
 40
0.0
 40
0.0
 40
1.0
 40
1.0
 40
1.0
 40
2.0
 40
2.0
 40
2.0
 40
3.0
 40
3.0
 40
3.0
 40
4.0
 40
4.0
 40
4.0
 40
5.0
 40
5.0
 40
5.0
 40
6.0
 40
6.0
 40
6.0
 40
7.0
 40
7.0
 40
7.0
 40
8.0
 40
8.0
 40
8.0
 40
9.0
 40
9.0
 40
9.0
 40
10.0
 40
10.0
 40
10.0
 40
11.0
 40
11.0
 40
11.0
 40
12.0
 40
12.0
 40
12.0
 40
13.0
 40
13.0
 40
13.0
 40
14.0
 40
14.0
 40
14.0
 40
14.0
 10
5.834580742345249
 20
-3.790317111545138
 30
0.0
 10
5.855590293300236
 20
-3.791088061272047
 30
0.0
 10
5.841939668671102
 20
-3.807810696276495
 30
0.0
 10
5.848328591293819
 20
-3.817513598045719
 30
0.0
 10
5.870223123632134
 20
-3.820020978259953
 30
0.0
 10
5.888568243786544
 20
-3.82577853196882
 30
0.0
 10
5.91280045755785
 20
-3.825901997550115
 30
0.0
 10
5.939136026471159
 20
-3.852985869404518
 30
0.0
 10
5.873136694673348
 20
-3.859523740189956
 30
0.0
 10
5.896294066998026
 20
-3.83858913845486
 30
0.0
 10
5.880532654228241
 20
-3.84034062171602
 30
0.0
 10
5.865158382356538
 20
-3.852215811147352
 30
0.0
 10
5.852457966057802
 20
-3.836604584356753
 30
0.0
 10
5.839412445326615
 20
-3.840381948795071
 30
0.0
 10
5.836721674840569
 20
-3.858544482424096
 30
0.0
 10
5.848335363358399
 20
-3.865782099638244
 30
0.0
 10
5.857234598643117
 20
-3.871733667290729
 30
0.0
 10
5.877492730664521
 20
-3.862608473274728
 30
0.0
 10
5.889579745021945
 20
-3.865789229586349
 30
0.0
 10
5.900539428477814
 20
-3.876301725552189
 30
0.0
 10
5.89666813357452
 20
-3.888723457171737
 30
0.0
 10
5.881479826112328
 20
-3.887631404420314
 30
0.0
 10
5.871010105930887
 20
-3.896204532512077
 30
0.0
 10
5.862240325505303
 20
-3.891866635696108
 30
0.0
 10
5.852457576991355
 20
-3.887472558937083
 30
0.0
 10
5.828020642999439
 20
-3.908686243794313
 30
0.0
 10
5.851390120429287
 20
-3.921958105667196
 30
0.0
 10
5.875830165369052
 20
-3.913752314189057
 30
0.0
 10
5.891635059926935
 20
-3.910524237317758
 30
0.0
 10
5.909607048122148
 20
-3.920527069794919
 30
0.0
 10
5.923800494098334
 20
-3.913761587906921
 30
0.0
 10
5.927467096598219
 20
-3.888689980925391
 30
0.0
 10
5.961981851525782
 20
-3.902017349320594
 30
0.0
 10
5.944573413546145
 20
-3.927815369708948
 30
0.0
 10
5.941213022425572
 20
-3.93833609222597
 30
0.0
 10
5.818983337441699
 20
-3.939702974417413
 30
0.0
 10
5.820826652558783
 20
-3.927825347186474
 30
0.0
 10
5.816760238676528
 20
-3.910995526066484
 30
0.0
 10
5.828175435546679
 20
-3.893076242404693
 30
0.0
 10
5.8264901535033
 20
-3.87846593207026
 30
0.0
 10
5.819322429111934
 20
-3.865272567241024
 30
0.0
 10
5.811280660783672
 20
-3.787508745131099
 30
0.0
 10
5.834580742345249
 20
-3.790317111545138
 30
0.0
  0
SPLINE
  5
9B
330
7F
100
AcDbEntity
  8
Layer 1
100
AcDbSpline
210
0.0
220
0.0
230
1.0
 70
     9
 71
     3
 72
    17
 73
    13
 74
     0
 42
0.0000000001
 43
0.0000000001
 40
0.0
 40
0.0
 40
0.0
 40
0.0
 40
1.0
 40
1.0
 40
1.0
 40
2.0
 40
2.0
 40
2.0
 40
3.0
 40
3.0
 40
3.0
 40
4.0
 40
4.0
 40
4.0
 40
4.0
 10
5.875677747553582
 20
-3.776563856336805
 30
0.0
 10
5.842350287619688
 20
-3.786934862218976
 30
0.0
 10
5.794309186522392
 20
-3.700117274763909
 30
0.0
 10
5.840683457585403
 20
-3.712075582712675
 30
0.0
 10
5.841028828245043
 20
-3.730436490660117
 30
0.0
 10
5.856300494329793
 20
-3.753428707354777
 30
0.0
 10
5.875825188898361
 20
-3.756092169912322
 30
0.0
 10
5.894814868985299
 20
-3.752961746812363
 30
0.0
 10
5.911166993423976
 20
-3.730431828294159
 30
0.0
 10
5.911107085119056
 20
-3.712092744242251
 30
0.0
 10
5.958505982751653
 20
-3.704719817569879
 30
0.0
 10
5.909928652318285
 20
-3.781988543484304
 30
0.0
 10
5.875677747553582
 20
-3.776563856336805
 30
0.0
  0
HATCH
  5
9C
330
7F
100
AcDbEntity
  8
Layer 1
 62
   250
420
  2301728
440
 33554687
100
AcDbHatch
 10
0.0
 20
0.0
 30
0.0
210
0.0
220
0.0
230
1.0
  2
SOLID
 70
     1
 71
     1
 91
        5
 92
        1
 93
        1
 72
     4
 94
        3
 73
     0
 74
     0
 95
       14
 96
       10
 40
0.0
 40
0.0
 40
0.0
 40
0.0
 40
1.0
 40
1.0
 40
1.0
 40
2.0
 40
2.0
 40
2.0
 40
3.0
 40
3.0
 40
3.0
 40
3.0
 10
5.985825859532749
 20
-3.879536946614583
 10
5.962848700070884
 20
-3.922148990241945
 10
5.952795128247644
 20
-3.858495788198474
 10
5.958030975177456
 20
-3.838285952028892
 10
5.961955647488012
 20
-3.819237969899328
 10
5.943748112529141
 20
-3.747900986120169
 10
5.981551840180372
 20
-3.767085128396994
 10
5.983689137290361
 20
-3.799719549744672
 10
5.986208110387502
 20
-3.841120505446648
 10
5.985825859532749
 20
-3.879536946614583
 97
        0
 97
        1
330
97
 92
        1
 93
        1
 72
     4
 94
        3
 73
     0
 74
     0
 95
       32
 96
       28
 40
0.0
 40
0.0
 40
0.0
 40
0.0
 40
1.0
 40
1.0
 40
1.0
 40
2.0
 40
2.0
 40
2.0
 40
3.0
 40
3.0
 40
3.0
 40
4.0
 40
4.0
 40
4.0
 40
5.0
 40
5.0
 40
5.0
 40
6.0
 40
6.0
 40
6.0
 40
7.0
 40
7.0
 40
7.0
 40
8.0
 40
8.0
 40
8.0
 40
9.0
 40
9.0
 40
9.0
 40
9.0
 10
6.040825316998026
 20
-3.707811143663194
 10
6.057145174421874
 20
-3.720628749347686
 10
6.043108745470337
 20
-3.762808822247809
 10
6.047560610363512
 20
-3.783282055314556
 10
6.049129701713101
 20
-3.811038041091908
 10
6.053225994311863
 20
-3.83376506977504
 10
6.04861244764672
 20
-3.860283299515647
 10
6.072584250278572
 20
-3.941430368747774
 10
6.039168524101872
 20
-3.929366403765281
 10
5.973753140212465
 20
-3.926897751312026
 10
5.936140579746379
 20
-3.885849919401935
 10
6.060930484751325
 20
-3.931859528503751
 10
6.026768162843709
 20
-3.886566622837878
 10
6.026771248231953
 20
-3.858732529483101
 10
6.02677541162259
 20
-3.825147951921912
 10
6.026773662395877
 20
-3.797342903134146
 10
6.019872920486805
 20
-3.725680662600527
 10
6.057432184891417
 20
-3.72856189628102
 10
5.97543689255801
 20
-3.726156561644529
 10
5.953091136032955
 20
-3.720363052953946
 10
5.974556477379741
 20
-3.76292173731824
 10
5.945485315366921
 20
-3.746159729839341
 10
5.944327837253013
 20
-3.73786175661179
 10
5.941141433484365
 20
-3.712317739612494
 10
5.951292767954378
 20
-3.707812895412075
 10
5.97929875466712
 20
-3.707849412224062
 10
6.012878937315841
 20
-3.707783560216082
 10
6.040825316998026
 20
-3.707811143663194
 97
        0
 97
        1
330
98
 92
        1
 93
        1
 72
     4
 94
        3
 73
     0
 74
     0
 95
       11
 96
        7
 40
0.0
 40
0.0
 40
0.0
 40
0.0
 40
1.0
 40
1.0
 40
1.0
 40
2.0
 40
2.0
 40
2.0
 40
2.0
 10
5.86207368939386
 20
-3.728590223524305
 10
5.862442869611489
 20
-3.710678802415777
 10
5.889211867898792
 20
-3.71067601856656
 10
5.889580159498134
 20
-3.728591997865212
 10
5.889254423925901
 20
-3.745848806310454
 10
5.862393061109387
 20
-3.74584834203895
 10
5.86207368939386
 20
-3.728590223524305
 97
        0
 97
        1
330
99
 92
        1
 93
        1
 72
     4
 94
        3
 73
     0
 74
     0
 95
       47
 96
       43
 40
0.0
 40
0.0
 40
0.0
 40
0.0
 40
1.0
 40
1.0
 40
1.0
 40
2.0
 40
2.0
 40
2.0
 40
3.0
 40
3.0
 40
3.0
 40
4.0
 40
4.0
 40
4.0
 40
5.0
 40
5.0
 40
5.0
 40
6.0
 40
6.0
 40
6.0
 40
7.0
 40
7.0
 40
7.0
 40
8.0
 40
8.0
 40
8.0
 40
9.0
 40
9.0
 40
9.0
 40
10.0
 40
10.0
 40
10.0
 40
11.0
 40
11.0
 40
11.0
 40
12.0
 40
12.0
 40
12.0
 40
13.0
 40
13.0
 40
13.0
 40
14.0
 40
14.0
 40
14.0
 40
14.0
 10
5.834580742345249
 20
-3.790317111545138
 10
5.855590293300236
 20
-3.791088061272047
 10
5.841939668671102
 20
-3.807810696276495
 10
5.848328591293819
 20
-3.817513598045719
 10
5.870223123632134
 20
-3.820020978259953
 10
5.888568243786544
 20
-3.82577853196882
 10
5.91280045755785
 20
-3.825901997550115
 10
5.939136026471159
 20
-3.852985869404518
 10
5.873136694673348
 20
-3.859523740189956
 10
5.896294066998026
 20
-3.83858913845486
 10
5.880532654228241
 20
-3.84034062171602
 10
5.865158382356538
 20
-3.852215811147352
 10
5.852457966057802
 20
-3.836604584356753
 10
5.839412445326615
 20
-3.840381948795071
 10
5.836721674840569
 20
-3.858544482424096
 10
5.848335363358399
 20
-3.865782099638244
 10
5.857234598643117
 20
-3.871733667290729
 10
5.877492730664521
 20
-3.862608473274728
 10
5.889579745021945
 20
-3.865789229586349
 10
5.900539428477814
 20
-3.876301725552189
 10
5.89666813357452
 20
-3.888723457171737
 10
5.881479826112328
 20
-3.887631404420314
 10
5.871010105930887
 20
-3.896204532512077
 10
5.862240325505303
 20
-3.891866635696108
 10
5.852457576991355
 20
-3.887472558937083
 10
5.828020642999439
 20
-3.908686243794313
 10
5.851390120429287
 20
-3.921958105667196
 10
5.875830165369052
 20
-3.913752314189057
 10
5.891635059926935
 20
-3.910524237317758
 10
5.909607048122148
 20
-3.920527069794919
 10
5.923800494098334
 20
-3.913761587906921
 10
5.927467096598219
 20
-3.888689980925391
 10
5.961981851525782
 20
-3.902017349320594
 10
5.944573413546145
 20
-3.927815369708948
 10
5.941213022425572
 20
-3.93833609222597
 10
5.818983337441699
 20
-3.939702974417413
 10
5.820826652558783
 20
-3.927825347186474
 10
5.816760238676528
 20
-3.910995526066484
 10
5.828175435546679
 20
-3.893076242404693
 10
5.8264901535033
 20
-3.87846593207026
 10
5.819322429111934
 20
-3.865272567241024
 10
5.811280660783672
 20
-3.787508745131099
 10
5.834580742345249
 20
-3.790317111545138
 97
        0
 97
        1
330
9A
 92
        1
 93
        1
 72
     4
 94
        3
 73
     0
 74
     0
 95
       17
 96
       13
 40
0.0
 40
0.0
 40
0.0
 40
0.0
 40
1.0
 40
1.0
 40
1.0
 40
2.0
 40
2.0
 40
2.0
 40
3.0
 40
3.0
 40
3.0
 40
4.0
 40
4.0
 40
4.0
 40
4.0
 10
5.875677747553582
 20
-3.776563856336805
 10
5.842350287619688
 20
-3.786934862218976
 10
5.794309186522392
 20
-3.700117274763909
 10
5.840683457585403
 20
-3.712075582712675
 10
5.841028828245043
 20
-3.730436490660117
 10
5.856300494329793
 20
-3.753428707354777
 10
5.875825188898361
 20
-3.756092169912322
 10
5.894814868985299
 20
-3.752961746812363
 10
5.911166993423976
 20
-3.730431828294159
 10
5.911107085119056
 20
-3.712092744242251
 10
5.958505982751653
 20
-3.704719817569879
 10
5.909928652318285
 20
-3.781988543484304
 10
5.875677747553582
 20
-3.776563856336805
 97
        0
 97
        1
330
9B
 75
     2
 76
     1
 98
        1
 10
0.0
 20
0.0
450
        0
451
        0
460
0.0
461
0.0
452
        0
462
0.0
453
        0
470

  0
SPLINE
  5
9D
330
7F
100
AcDbEntity
  8
Layer 1
100
AcDbSpline
210
0.0
220
0.0
230
1.0
 70
     9
 71
     3
 72
    14
 73
    10
 74
     0
 42
0.0000000001
 43
0.0000000001
 40
0.0
 40
0.0
 40
0.0
 40
0.0
 40
1.0
 40
1.0
 40
1.0
 40
2.0
 40
2.0
 40
2.0
 40
3.0
 40
3.0
 40
3.0
 40
3.0
 10
5.927462686789693
 20
-4.012702094184027
 30
0.0
 10
5.957579481418936
 20
-3.987082560420528
 30
0.0
 10
5.944949055544308
 20
-4.044707251393321
 30
0.0
 10
5.947333496812031
 20
-4.05945395278771
 30
0.0
 10
5.941312987924598
 20
-4.077800547003763
 30
0.0
 10
5.96021339812834
 20
-4.09985528262905
 30
0.0
 10
5.950080244132727
 20
-4.115214121775655
 30
0.0
 10
5.909337342487055
 20
-4.137282207974155
 30
0.0
 10
5.933629314065582
 20
-4.033249529654577
 30
0.0
 10
5.927462686789693
 20
-4.012702094184027
 30
0.0
  0
SPLINE
  5
9E
330
7F
100
AcDbEntity
  8
Layer 1
100
AcDbSpline
210
0.0
220
0.0
230
1.0
 70
     9
 71
     3
 72
    38
 73
    34
 74
     0
 42
0.0000000001
 43
0.0000000001
 40
0.0
 40
0.0
 40
0.0
 40
0.0
 40
1.0
 40
1.0
 40
1.0
 40
2.0
 40
2.0
 40
2.0
 40
3.0
 40
3.0
 40
3.0
 40
4.0
 40
4.0
 40
4.0
 40
5.0
 40
5.0
 40
5.0
 40
6.0
 40
6.0
 40
6.0
 40
7.0
 40
7.0
 40
7.0
 40
8.0
 40
8.0
 40
8.0
 40
9.0
 40
9.0
 40
9.0
 40
10.0
 40
10.0
 40
10.0
 40
11.0
 40
11.0
 40
11.0
 40
11.0
 10
6.027384019254971
 20
-3.999260796440971
 30
0.0
 10
6.055676367182109
 20
-4.006353218936295
 30
0.0
 10
6.034735293970647
 20
-4.086858219893075
 30
0.0
 10
6.040834171623727
 20
-4.112613653013479
 30
0.0
 10
6.035197897126004
 20
-4.135736026812233
 30
0.0
 10
6.05498212592066
 20
-4.217343014088706
 30
0.0
 10
6.027391741996098
 20
-4.219260925128891
 30
0.0
 10
5.999791283277065
 20
-4.216557320506896
 30
0.0
 10
6.029408131240466
 20
-4.19348182710251
 30
0.0
 10
6.017605968822938
 20
-4.180331427212207
 30
0.0
 10
6.003901733845244
 20
-4.16963964689512
 30
0.0
 10
6.035246600677459
 20
-4.148295539811518
 30
0.0
 10
6.015925332422587
 20
-4.144393809304713
 30
0.0
 10
5.993923488028409
 20
-4.157216901784636
 30
0.0
 10
5.955442414224029
 20
-4.155814594381391
 30
0.0
 10
5.931585309472589
 20
-4.148317423910611
 30
0.0
 10
5.914615193883087
 20
-4.122968122804207
 30
0.0
 10
5.967983322616671
 20
-4.13620344798744
 30
0.0
 10
5.980625359948362
 20
-4.125752369035492
 30
0.0
 10
6.018038493865181
 20
-4.126934797416134
 30
0.0
 10
6.026395278968771
 20
-4.13703365591799
 30
0.0
 10
6.02096233531832
 20
-4.09244931386388
 30
0.0
 10
6.027565423241816
 20
-4.026694917923539
 30
0.0
 10
6.019249531789126
 20
-4.065699796153593
 30
0.0
 10
5.987649675412007
 20
-4.04571297971534
 30
0.0
 10
5.990568551738432
 20
-4.032472827556666
 30
0.0
 10
6.035315893839171
 20
-4.043609683597057
 30
0.0
 10
6.020968033727689
 20
-4.019113487001757
 30
0.0
 10
6.00558907500926
 20
-4.010565651934497
 30
0.0
 10
5.972054799495
 20
-4.03257957902546
 30
0.0
 10
5.967487217782641
 20
-4.005980446454044
 30
0.0
 10
5.975175061442895
 20
-3.990770233072137
 30
0.0
 10
6.012124045568017
 20
-4.003016308624978
 30
0.0
 10
6.027384019254971
 20
-3.999260796440971
 30
0.0
  0
SPLINE
  5
9F
330
7F
100
AcDbEntity
  8
Layer 1
100
AcDbSpline
210
0.0
220
0.0
230
1.0
 70
     9
 71
     3
 72
    11
 73
     7
 74
     0
 42
0.0000000001
 43
0.0000000001
 40
0.0
 40
0.0
 40
0.0
 40
0.0
 40
1.0
 40
1.0
 40
1.0
 40
2.0
 40
2.0
 40
2.0
 40
2.0
 10
5.880709757102193
 20
-4.179233127170138
 30
0.0
 10
5.863713732820643
 20
-4.179082834066472
 30
0.0
 10
5.863980654997046
 20
-4.152924473452141
 30
0.0
 10
5.880711122833038
 20
-4.152648899735544
 30
0.0
 10
5.897788879051378
 20
-4.152935397436863
 30
0.0
 10
5.898060848444957
 20
-4.179082611317527
 30
0.0
 10
5.880709757102193
 20
-4.179233127170138
 30
0.0
  0
SPLINE
  5
A0
330
7F
100
AcDbEntity
  8
Layer 1
100
AcDbSpline
210
0.0
220
0.0
230
1.0
 70
     9
 71
     3
 72
    11
 73
     7
 74
     0
 42
0.0000000001
 43
0.0000000001
 40
0.0
 40
0.0
 40
0.0
 40
0.0
 40
1.0
 40
1.0
 40
1.0
 40
2.0
 40
2.0
 40
2.0
 40
2.0
 10
5.894164618213304
 20
-4.106051974826388
 30
0.0
 10
5.893954727532698
 20
-4.123032530904828
 30
0.0
 10
5.867626118374699
 20
-4.123234984740709
 30
0.0
 10
5.867580512752965
 20
-4.10605049774065
 30
0.0
 10
5.867622428687986
 20
-4.088869168908786
 30
0.0
 10
5.893964855448252
 20
-4.089069322383263
 30
0.0
 10
5.894164618213304
 20
-4.106051974826388
 30
0.0
  0
SPLINE
  5
A1
330
7F
100
AcDbEntity
  8
Layer 1
100
AcDbSpline
210
0.0
220
0.0
230
1.0
 70
     9
 71
     3
 72
    38
 73
    34
 74
     0
 42
0.0000000001
 43
0.0000000001
 40
0.0
 40
0.0
 40
0.0
 40
0.0
 40
1.0
 40
1.0
 40
1.0
 40
2.0
 40
2.0
 40
2.0
 40
3.0
 40
3.0
 40
3.0
 40
4.0
 40
4.0
 40
4.0
 40
5.0
 40
5.0
 40
5.0
 40
6.0
 40
6.0
 40
6.0
 40
7.0
 40
7.0
 40
7.0
 40
8.0
 40
8.0
 40
8.0
 40
9.0
 40
9.0
 40
9.0
 40
10.0
 40
10.0
 40
10.0
 40
11.0
 40
11.0
 40
11.0
 40
11.0
 10
5.834065334359138
 20
-3.999260796440971
 30
0.0
 10
5.844952456066468
 20
-4.004810118431199
 30
0.0
 10
5.841914437907588
 20
-4.027283390727701
 30
0.0
 10
5.847420124434493
 20
-4.039282172916045
 30
0.0
 10
5.84595206549069
 20
-4.045831687745754
 30
0.0
 10
5.830690955331495
 20
-4.059823855384441
 30
0.0
 10
5.845880495852472
 20
-4.060982588234082
 30
0.0
 10
5.859875429887879
 20
-4.040888277121236
 30
0.0
 10
5.887695144661493
 20
-4.027489533907012
 30
0.0
 10
5.891271339989367
 20
-4.003391357481455
 30
0.0
 10
5.958193686438966
 20
-3.978598103970512
 30
0.0
 10
5.868427316292758
 20
-4.067573554574575
 30
0.0
 10
5.85030836817206
 20
-4.079427433154781
 30
0.0
 10
5.8378701541075
 20
-4.112035079228752
 30
0.0
 10
5.850975089527612
 20
-4.146354837941455
 30
0.0
 10
5.840686513187973
 20
-4.179354496729311
 30
0.0
 10
5.830686201405594
 20
-4.210695783928334
 30
0.0
 10
5.869953567423736
 20
-4.197608470292341
 30
0.0
 10
5.887749438720194
 20
-4.199393760679779
 30
0.0
 10
5.898628916879007
 20
-4.198564366705378
 30
0.0
 10
5.920055004588852
 20
-4.201012659755469
 30
0.0
 10
5.930216175348757
 20
-4.198467802582588
 30
0.0
 10
5.928211231465259
 20
-4.193411417560493
 30
0.0
 10
5.925783583832071
 20
-4.188337504595375
 30
0.0
 10
5.931588126307056
 20
-4.183423906402039
 30
0.0
 10
5.97002449960309
 20
-4.165487788373019
 30
0.0
 10
5.953760899869368
 20
-4.234354249875271
 30
0.0
 10
5.91410296295511
 20
-4.219250225535486
 30
0.0
 10
5.886409104576665
 20
-4.212370321661473
 30
0.0
 10
5.811545210741339
 20
-4.239861995787842
 30
0.0
 10
5.820827044910073
 20
-4.192680654792663
 30
0.0
 10
5.826742086630929
 20
-4.163729162382297
 30
0.0
 10
5.806276617089375
 20
-3.995973020892999
 30
0.0
 10
5.834065334359138
 20
-3.999260796440971
 30
0.0
  0
HATCH
  5
A2
330
7F
100
AcDbEntity
  8
Layer 1
 62
   250
420
  2301728
440
 33554687
100
AcDbHatch
 10
0.0
 20
0.0
 30
0.0
210
0.0
220
0.0
230
1.0
  2
SOLID
 70
     1
 71
     1
 91
        5
 92
        1
 93
        1
 72
     4
 94
        3
 73
     0
 74
     0
 95
       14
 96
       10
 40
0.0
 40
0.0
 40
0.0
 40
0.0
 40
1.0
 40
1.0
 40
1.0
 40
2.0
 40
2.0
 40
2.0
 40
3.0
 40
3.0
 40
3.0
 40
3.0
 10
5.927462686789693
 20
-4.012702094184027
 10
5.957579481418936
 20
-3.987082560420528
 10
5.944949055544308
 20
-4.044707251393321
 10
5.947333496812031
 20
-4.05945395278771
 10
5.941312987924598
 20
-4.077800547003763
 10
5.96021339812834
 20
-4.09985528262905
 10
5.950080244132727
 20
-4.115214121775655
 10
5.909337342487055
 20
-4.137282207974155
 10
5.933629314065582
 20
-4.033249529654577
 10
5.927462686789693
 20
-4.012702094184027
 97
        0
 97
        1
330
9D
 92
        1
 93
        1
 72
     4
 94
        3
 73
     0
 74
     0
 95
       38
 96
       34
 40
0.0
 40
0.0
 40
0.0
 40
0.0
 40
1.0
 40
1.0
 40
1.0
 40
2.0
 40
2.0
 40
2.0
 40
3.0
 40
3.0
 40
3.0
 40
4.0
 40
4.0
 40
4.0
 40
5.0
 40
5.0
 40
5.0
 40
6.0
 40
6.0
 40
6.0
 40
7.0
 40
7.0
 40
7.0
 40
8.0
 40
8.0
 40
8.0
 40
9.0
 40
9.0
 40
9.0
 40
10.0
 40
10.0
 40
10.0
 40
11.0
 40
11.0
 40
11.0
 40
11.0
 10
6.027384019254971
 20
-3.999260796440971
 10
6.055676367182109
 20
-4.006353218936295
 10
6.034735293970647
 20
-4.086858219893075
 10
6.040834171623727
 20
-4.112613653013479
 10
6.035197897126004
 20
-4.135736026812233
 10
6.05498212592066
 20
-4.217343014088706
 10
6.027391741996098
 20
-4.219260925128891
 10
5.999791283277065
 20
-4.216557320506896
 10
6.029408131240466
 20
-4.19348182710251
 10
6.017605968822938
 20
-4.180331427212207
 10
6.003901733845244
 20
-4.16963964689512
 10
6.035246600677459
 20
-4.148295539811518
 10
6.015925332422587
 20
-4.144393809304713
 10
5.993923488028409
 20
-4.157216901784636
 10
5.955442414224029
 20
-4.155814594381391
 10
5.931585309472589
 20
-4.148317423910611
 10
5.914615193883087
 20
-4.122968122804207
 10
5.967983322616671
 20
-4.13620344798744
 10
5.980625359948362
 20
-4.125752369035492
 10
6.018038493865181
 20
-4.126934797416134
 10
6.026395278968771
 20
-4.13703365591799
 10
6.02096233531832
 20
-4.09244931386388
 10
6.027565423241816
 20
-4.026694917923539
 10
6.019249531789126
 20
-4.065699796153593
 10
5.987649675412007
 20
-4.04571297971534
 10
5.990568551738432
 20
-4.032472827556666
 10
6.035315893839171
 20
-4.043609683597057
 10
6.020968033727689
 20
-4.019113487001757
 10
6.00558907500926
 20
-4.010565651934497
 10
5.972054799495
 20
-4.03257957902546
 10
5.967487217782641
 20
-4.005980446454044
 10
5.975175061442895
 20
-3.990770233072137
 10
6.012124045568017
 20
-4.003016308624978
 10
6.027384019254971
 20
-3.999260796440971
 97
        0
 97
        1
330
9E
 92
        1
 93
        1
 72
     4
 94
        3
 73
     0
 74
     0
 95
       11
 96
        7
 40
0.0
 40
0.0
 40
0.0
 40
0.0
 40
1.0
 40
1.0
 40
1.0
 40
2.0
 40
2.0
 40
2.0
 40
2.0
 10
5.880709757102193
 20
-4.179233127170138
 10
5.863713732820643
 20
-4.179082834066472
 10
5.863980654997046
 20
-4.152924473452141
 10
5.880711122833038
 20
-4.152648899735544
 10
5.897788879051378
 20
-4.152935397436863
 10
5.898060848444957
 20
-4.179082611317527
 10
5.880709757102193
 20
-4.179233127170138
 97
        0
 97
        1
330
9F
 92
        1
 93
        1
 72
     4
 94
        3
 73
     0
 74
     0
 95
       11
 96
        7
 40
0.0
 40
0.0
 40
0.0
 40
0.0
 40
1.0
 40
1.0
 40
1.0
 40
2.0
 40
2.0
 40
2.0
 40
2.0
 10
5.894164618213304
 20
-4.106051974826388
 10
5.893954727532698
 20
-4.123032530904828
 10
5.867626118374699
 20
-4.123234984740709
 10
5.867580512752965
 20
-4.10605049774065
 10
5.867622428687986
 20
-4.088869168908786
 10
5.893964855448252
 20
-4.089069322383263
 10
5.894164618213304
 20
-4.106051974826388
 97
        0
 97
        1
330
A0
 92
        1
 93
        1
 72
     4
 94
        3
 73
     0
 74
     0
 95
       38
 96
       34
 40
0.0
 40
0.0
 40
0.0
 40
0.0
 40
1.0
 40
1.0
 40
1.0
 40
2.0
 40
2.0
 40
2.0
 40
3.0
 40
3.0
 40
3.0
 40
4.0
 40
4.0
 40
4.0
 40
5.0
 40
5.0
 40
5.0
 40
6.0
 40
6.0
 40
6.0
 40
7.0
 40
7.0
 40
7.0
 40
8.0
 40
8.0
 40
8.0
 40
9.0
 40
9.0
 40
9.0
 40
10.0
 40
10.0
 40
10.0
 40
11.0
 40
11.0
 40
11.0
 40
11.0
 10
5.834065334359138
 20
-3.999260796440971
 10
5.844952456066468
 20
-4.004810118431199
 10
5.841914437907588
 20
-4.027283390727701
 10
5.847420124434493
 20
-4.039282172916045
 10
5.84595206549069
 20
-4.045831687745754
 10
5.830690955331495
 20
-4.059823855384441
 10
5.845880495852472
 20
-4.060982588234082
 10
5.859875429887879
 20
-4.040888277121236
 10
5.887695144661493
 20
-4.027489533907012
 10
5.891271339989367
 20
-4.003391357481455
 10
5.958193686438966
 20
-3.978598103970512
 10
5.868427316292758
 20
-4.067573554574575
 10
5.85030836817206
 20
-4.079427433154781
 10
5.8378701541075
 20
-4.112035079228752
 10
5.850975089527612
 20
-4.146354837941455
 10
5.840686513187973
 20
-4.179354496729311
 10
5.830686201405594
 20
-4.210695783928334
 10
5.869953567423736
 20
-4.197608470292341
 10
5.887749438720194
 20
-4.199393760679779
 10
5.898628916879007
 20
-4.198564366705378
 10
5.920055004588852
 20
-4.201012659755469
 10
5.930216175348757
 20
-4.198467802582588
 10
5.928211231465259
 20
-4.193411417560493
 10
5.925783583832071
 20
-4.188337504595375
 10
5.931588126307056
 20
-4.183423906402039
 10
5.97002449960309
 20
-4.165487788373019
 10
5.953760899869368
 20
-4.234354249875271
 10
5.91410296295511
 20
-4.219250225535486
 10
5.886409104576665
 20
-4.212370321661473
 10
5.811545210741339
 20
-4.239861995787842
 10
5.820827044910073
 20
-4.192680654792663
 10
5.826742086630929
 20
-4.163729162382297
 10
5.806276617089375
 20
-3.995973020892999
 10
5.834065334359138
 20
-3.999260796440971
 97
        0
 97
        1
330
A1
 75
     2
 76
     1
 98
        1
 10
0.0
 20
0.0
450
        0
451
        0
460
0.0
461
0.0
452
        0
462
0.0
453
        0
470

  0
SPLINE
  5
A3
330
7F
100
AcDbEntity
  8
Layer 1
100
AcDbSpline
210
0.0
220
0.0
230
1.0
 70
     9
 71
     3
 72
    11
 73
     7
 74
     0
 42
0.0000000001
 43
0.0000000001
 40
0.0
 40
0.0
 40
0.0
 40
0.0
 40
1.0
 40
1.0
 40
1.0
 40
2.0
 40
2.0
 40
2.0
 40
2.0
 10
5.994072387310526
 20
-4.3238525390625
 30
0.0
 10
5.993931164488786
 20
-4.340971494901282
 30
0.0
 10
5.967609712327581
 20
-4.340878862660739
 30
0.0
 10
5.967488233960769
 20
-4.323851123332271
 30
0.0
 10
5.96761793363905
 20
-4.306836665431268
 30
0.0
 10
5.993929118782085
 20
-4.306741886072371
 30
0.0
 10
5.994072387310526
 20
-4.3238525390625
 30
0.0
  0
SPLINE
  5
A4
330
7F
100
AcDbEntity
  8
Layer 1
100
AcDbSpline
210
0.0
220
0.0
230
1.0
 70
     9
 71
     3
 72
    26
 73
    22
 74
     0
 42
0.0000000001
 43
0.0000000001
 40
0.0
 40
0.0
 40
0.0
 40
0.0
 40
1.0
 40
1.0
 40
1.0
 40
2.0
 40
2.0
 40
2.0
 40
3.0
 40
3.0
 40
3.0
 40
4.0
 40
4.0
 40
4.0
 40
5.0
 40
5.0
 40
5.0
 40
6.0
 40
6.0
 40
6.0
 40
7.0
 40
7.0
 40
7.0
 40
7.0
 10
6.027289075678582
 20
-4.283983018663194
 30
0.0
 10
6.053162350927626
 20
-4.288311063933494
 30
0.0
 10
6.035755631612295
 20
-4.331649069972235
 30
0.0
 10
6.040532906583039
 20
-4.350591044960639
 30
0.0
 10
6.049979611211382
 20
-4.38861079222603
 30
0.0
 10
6.011252332405218
 20
-4.374972133467053
 30
0.0
 10
5.987354604320519
 20
-4.377176731891583
 30
0.0
 10
5.943661722691002
 20
-4.384987978223863
 30
0.0
 10
5.945751075317148
 20
-4.351381707977641
 30
0.0
 10
5.987362044634513
 20
-4.357312185350894
 30
0.0
 10
6.026145626037102
 20
-4.361054861733476
 30
0.0
 10
6.023092372855544
 20
-4.361313546564903
 30
0.0
 10
6.020651025914578
 20
-4.323813040550387
 30
0.0
 10
6.031075810357934
 20
-4.293840780409039
 30
0.0
 10
6.006763156355873
 20
-4.304448036003413
 30
0.0
 10
5.987355166172847
 20
-4.303842887362886
 30
0.0
 10
5.971291702950893
 20
-4.309495005503953
 30
0.0
 10
5.935815934384991
 20
-4.292616838865329
 30
0.0
 10
5.967488767430595
 20
-4.283977180945852
 30
0.0
 10
5.985235776360872
 20
-4.283992118453889
 30
0.0
 10
6.009544577475
 20
-4.283976459605822
 30
0.0
 10
6.027289075678582
 20
-4.283983018663194
 30
0.0
  0
SPLINE
  5
A5
330
7F
100
AcDbEntity
  8
Layer 1
100
AcDbSpline
210
0.0
220
0.0
230
1.0
 70
     9
 71
     3
 72
    23
 73
    19
 74
     0
 42
0.0000000001
 43
0.0000000001
 40
0.0
 40
0.0
 40
0.0
 40
0.0
 40
1.0
 40
1.0
 40
1.0
 40
2.0
 40
2.0
 40
2.0
 40
3.0
 40
3.0
 40
3.0
 40
4.0
 40
4.0
 40
4.0
 40
5.0
 40
5.0
 40
5.0
 40
6.0
 40
6.0
 40
6.0
 40
6.0
 10
6.027289075678582
 20
-4.404371473524305
 30
0.0
 10
6.049932197655278
 20
-4.407331313423747
 30
0.0
 10
6.037521309375506
 20
-4.442162362229459
 30
0.0
 10
6.040529804157434
 20
-4.457376314604402
 30
0.0
 10
6.049622010506305
 20
-4.495610183668177
 30
0.0
 10
6.018286974234797
 20
-4.529513083961597
 30
0.0
 10
6.020649860150594
 20
-4.470671988294484
 30
0.0
 10
6.020976440575926
 20
-4.414606564148849
 30
0.0
 10
6.0355479146024
 20
-4.424192989065216
 30
0.0
 10
5.980940845732598
 20
-4.430658838246421
 30
0.0
 10
5.967958864413579
 20
-4.428278969820452
 30
0.0
 10
5.954890043023598
 20
-4.421523107644386
 30
0.0
 10
5.940916715540979
 20
-4.424232837298859
 30
0.0
 10
5.92591231224133
 20
-4.431071873655215
 30
0.0
 10
5.896558266347179
 20
-4.432497667384319
 30
0.0
 10
5.911428452271037
 20
-4.408440128275502
 30
0.0
 10
5.947494193441924
 20
-4.39103179957005
 30
0.0
 10
5.991881056589666
 20
-4.424111924127562
 30
0.0
 10
6.027289075678582
 20
-4.404371473524305
 30
0.0
  0
SPLINE
  5
A6
330
7F
100
AcDbEntity
  8
Layer 1
100
AcDbSpline
210
0.0
220
0.0
230
1.0
 70
     9
 71
     3
 72
    14
 73
    10
 74
     0
 42
0.0000000001
 43
0.0000000001
 40
0.0
 40
0.0
 40
0.0
 40
0.0
 40
1.0
 40
1.0
 40
1.0
 40
2.0
 40
2.0
 40
2.0
 40
3.0
 40
3.0
 40
3.0
 40
3.0
 10
5.927462686789693
 20
-4.324008517795138
 30
0.0
 10
5.938565996290334
 20
-4.323028953428521
 30
0.0
 10
5.940837540660822
 20
-4.40247130621684
 30
0.0
 10
5.920754480250454
 20
-4.390614943154824
 30
0.0
 10
5.906250580107855
 20
-4.381825922171464
 30
0.0
 10
5.899141523307788
 20
-4.37369608602301
 30
0.0
 10
5.887437806154088
 20
-4.363727875797015
 30
0.0
 10
5.888969524728205
 20
-4.34497052207506
 30
0.0
 10
5.907717887721092
 20
-4.321301367998734
 30
0.0
 10
5.927462686789693
 20
-4.324008517795138
 30
0.0
  0
SPLINE
  5
A7
330
7F
100
AcDbEntity
  8
Layer 1
100
AcDbSpline
210
0.0
220
0.0
230
1.0
 70
     9
 71
     3
 72
    53
 73
    49
 74
     0
 42
0.0000000001
 43
0.0000000001
 40
0.0
 40
0.0
 40
0.0
 40
0.0
 40
1.0
 40
1.0
 40
1.0
 40
2.0
 40
2.0
 40
2.0
 40
3.0
 40
3.0
 40
3.0
 40
4.0
 40
4.0
 40
4.0
 40
5.0
 40
5.0
 40
5.0
 40
6.0
 40
6.0
 40
6.0
 40
7.0
 40
7.0
 40
7.0
 40
8.0
 40
8.0
 40
8.0
 40
9.0
 40
9.0
 40
9.0
 40
10.0
 40
10.0
 40
10.0
 40
11.0
 40
11.0
 40
11.0
 40
12.0
 40
12.0
 40
12.0
 40
13.0
 40
13.0
 40
13.0
 40
14.0
 40
14.0
 40
14.0
 40
15.0
 40
15.0
 40
15.0
 40
16.0
 40
16.0
 40
16.0
 40
16.0
 10
5.987358520123026
 20
-4.457227918836805
 30
0.0
 10
5.998875205358268
 20
-4.453971810296997
 30
0.0
 10
5.99757410307542
 20
-4.504510849762342
 30
0.0
 10
5.987365397414729
 20
-4.503981363901175
 30
0.0
 10
5.993421314877878
 20
-4.49151950619268
 30
0.0
 10
5.965259449154422
 20
-4.499580758540004
 30
0.0
 10
5.961015636576121
 20
-4.497562716962887
 30
0.0
 10
5.942567667419148
 20
-4.503303742375186
 30
0.0
 10
5.932077751133065
 20
-4.504395193216585
 30
0.0
 10
5.913872581005054
 20
-4.49725072965868
 30
0.0
 10
5.889433497100854
 20
-4.502010532429986
 30
0.0
 10
5.89211315077576
 20
-4.471346287870371
 30
0.0
 10
5.880493609621124
 20
-4.457370088959868
 30
0.0
 10
5.868260205495062
 20
-4.440803649634568
 30
0.0
 10
5.85312709591959
 20
-4.42492691169174
 30
0.0
 10
5.847425915160278
 20
-4.405572255261808
 30
0.0
 10
5.822878019337546
 20
-4.397027666158123
 30
0.0
 10
5.848212788771989
 20
-4.455062748740361
 30
0.0
 10
5.840675192618264
 20
-4.470775897262076
 30
0.0
 10
5.846972324140349
 20
-4.51224402998591
 30
0.0
 10
5.814093860244307
 20
-4.512873311853303
 30
0.0
 10
5.820828898986493
 20
-4.470672025831504
 30
0.0
 10
5.820828997245572
 20
-4.411383231679918
 30
0.0
 10
5.820826398653151
 20
-4.349995893200394
 30
0.0
 10
5.820827490442852
 20
-4.290703661285546
 30
0.0
 10
5.858572457653129
 20
-4.264086719223465
 30
0.0
 10
5.826809968542597
 20
-4.339357766453923
 30
0.0
 10
5.844651748935297
 20
-4.345546158229341
 30
0.0
 10
5.859418786937011
 20
-4.32544670584232
 30
0.0
 10
5.865974448272027
 20
-4.299951576928277
 30
0.0
 10
5.887140540663621
 20
-4.283984662989825
 30
0.0
 10
5.899428454564031
 20
-4.285564137604296
 30
0.0
 10
5.922677838726106
 20
-4.264635365254548
 30
0.0
 10
5.92043701639323
 20
-4.290502657075244
 30
0.0
 10
5.921753037150311
 20
-4.302820313437033
 30
0.0
 10
5.90526095898359
 20
-4.29283142336126
 30
0.0
 10
5.900269978970097
 20
-4.303842421598852
 30
0.0
 10
5.883051774603144
 20
-4.319402106521869
 30
0.0
 10
5.871372714656772
 20
-4.346508795080366
 30
0.0
 10
5.849088312517222
 20
-4.361024895011799
 30
0.0
 10
5.824907853938106
 20
-4.385131726239301
 30
0.0
 10
5.902474708455226
 20
-4.437303631077535
 30
0.0
 10
5.910196967983361
 20
-4.469118218218012
 30
0.0
 10
5.910456233211561
 20
-4.480869574820391
 30
0.0
 10
5.960710120634226
 20
-4.485298342252563
 30
0.0
 10
5.970077447151147
 20
-4.481224251502958
 30
0.0
 10
5.984033424230422
 20
-4.476028184940016
 30
0.0
 10
5.964282217972847
 20
-4.453819558750915
 30
0.0
 10
5.987358520123026
 20
-4.457227918836805
 30
0.0
  0
HATCH
  5
A8
330
7F
100
AcDbEntity
  8
Layer 1
 62
   250
420
  2301728
440
 33554687
100
AcDbHatch
 10
0.0
 20
0.0
 30
0.0
210
0.0
220
0.0
230
1.0
  2
SOLID
 70
     1
 71
     1
 91
        5
 92
        1
 93
        1
 72
     4
 94
        3
 73
     0
 74
     0
 95
       11
 96
        7
 40
0.0
 40
0.0
 40
0.0
 40
0.0
 40
1.0
 40
1.0
 40
1.0
 40
2.0
 40
2.0
 40
2.0
 40
2.0
 10
5.994072387310526
 20
-4.3238525390625
 10
5.993931164488786
 20
-4.340971494901282
 10
5.967609712327581
 20
-4.340878862660739
 10
5.967488233960769
 20
-4.323851123332271
 10
5.96761793363905
 20
-4.306836665431268
 10
5.993929118782085
 20
-4.306741886072371
 10
5.994072387310526
 20
-4.3238525390625
 97
        0
 97
        1
330
A3
 92
        1
 93
        1
 72
     4
 94
        3
 73
     0
 74
     0
 95
       26
 96
       22
 40
0.0
 40
0.0
 40
0.0
 40
0.0
 40
1.0
 40
1.0
 40
1.0
 40
2.0
 40
2.0
 40
2.0
 40
3.0
 40
3.0
 40
3.0
 40
4.0
 40
4.0
 40
4.0
 40
5.0
 40
5.0
 40
5.0
 40
6.0
 40
6.0
 40
6.0
 40
7.0
 40
7.0
 40
7.0
 40
7.0
 10
6.027289075678582
 20
-4.283983018663194
 10
6.053162350927626
 20
-4.288311063933494
 10
6.035755631612295
 20
-4.331649069972235
 10
6.040532906583039
 20
-4.350591044960639
 10
6.049979611211382
 20
-4.38861079222603
 10
6.011252332405218
 20
-4.374972133467053
 10
5.987354604320519
 20
-4.377176731891583
 10
5.943661722691002
 20
-4.384987978223863
 10
5.945751075317148
 20
-4.351381707977641
 10
5.987362044634513
 20
-4.357312185350894
 10
6.026145626037102
 20
-4.361054861733476
 10
6.023092372855544
 20
-4.361313546564903
 10
6.020651025914578
 20
-4.323813040550387
 10
6.031075810357934
 20
-4.293840780409039
 10
6.006763156355873
 20
-4.304448036003413
 10
5.987355166172847
 20
-4.303842887362886
 10
5.971291702950893
 20
-4.309495005503953
 10
5.935815934384991
 20
-4.292616838865329
 10
5.967488767430595
 20
-4.283977180945852
 10
5.985235776360872
 20
-4.283992118453889
 10
6.009544577475
 20
-4.283976459605822
 10
6.027289075678582
 20
-4.283983018663194
 97
        0
 97
        1
330
A4
 92
        1
 93
        1
 72
     4
 94
        3
 73
     0
 74
     0
 95
       23
 96
       19
 40
0.0
 40
0.0
 40
0.0
 40
0.0
 40
1.0
 40
1.0
 40
1.0
 40
2.0
 40
2.0
 40
2.0
 40
3.0
 40
3.0
 40
3.0
 40
4.0
 40
4.0
 40
4.0
 40
5.0
 40
5.0
 40
5.0
 40
6.0
 40
6.0
 40
6.0
 40
6.0
 10
6.027289075678582
 20
-4.404371473524305
 10
6.049932197655278
 20
-4.407331313423747
 10
6.037521309375506
 20
-4.442162362229459
 10
6.040529804157434
 20
-4.457376314604402
 10
6.049622010506305
 20
-4.495610183668177
 10
6.018286974234797
 20
-4.529513083961597
 10
6.020649860150594
 20
-4.470671988294484
 10
6.020976440575926
 20
-4.414606564148849
 10
6.0355479146024
 20
-4.424192989065216
 10
5.980940845732598
 20
-4.430658838246421
 10
5.967958864413579
 20
-4.428278969820452
 10
5.954890043023598
 20
-4.421523107644386
 10
5.940916715540979
 20
-4.424232837298859
 10
5.92591231224133
 20
-4.431071873655215
 10
5.896558266347179
 20
-4.432497667384319
 10
5.911428452271037
 20
-4.408440128275502
 10
5.947494193441924
 20
-4.39103179957005
 10
5.991881056589666
 20
-4.424111924127562
 10
6.027289075678582
 20
-4.404371473524305
 97
        0
 97
        1
330
A5
 92
        1
 93
        1
 72
     4
 94
        3
 73
     0
 74
     0
 95
       14
 96
       10
 40
0.0
 40
0.0
 40
0.0
 40
0.0
 40
1.0
 40
1.0
 40
1.0
 40
2.0
 40
2.0
 40
2.0
 40
3.0
 40
3.0
 40
3.0
 40
3.0
 10
5.927462686789693
 20
-4.324008517795138
 10
5.938565996290334
 20
-4.323028953428521
 10
5.940837540660822
 20
-4.40247130621684
 10
5.920754480250454
 20
-4.390614943154824
 10
5.906250580107855
 20
-4.381825922171464
 10
5.899141523307788
 20
-4.37369608602301
 10
5.887437806154088
 20
-4.363727875797015
 10
5.888969524728205
 20
-4.34497052207506
 10
5.907717887721092
 20
-4.321301367998734
 10
5.927462686789693
 20
-4.324008517795138
 97
        0
 97
        1
330
A6
 92
        1
 93
        1
 72
     4
 94
        3
 73
     0
 74
     0
 95
       53
 96
       49
 40
0.0
 40
0.0
 40
0.0
 40
0.0
 40
1.0
 40
1.0
 40
1.0
 40
2.0
 40
2.0
 40
2.0
 40
3.0
 40
3.0
 40
3.0
 40
4.0
 40
4.0
 40
4.0
 40
5.0
 40
5.0
 40
5.0
 40
6.0
 40
6.0
 40
6.0
 40
7.0
 40
7.0
 40
7.0
 40
8.0
 40
8.0
 40
8.0
 40
9.0
 40
9.0
 40
9.0
 40
10.0
 40
10.0
 40
10.0
 40
11.0
 40
11.0
 40
11.0
 40
12.0
 40
12.0
 40
12.0
 40
13.0
 40
13.0
 40
13.0
 40
14.0
 40
14.0
 40
14.0
 40
15.0
 40
15.0
 40
15.0
 40
16.0
 40
16.0
 40
16.0
 40
16.0
 10
5.987358520123026
 20
-4.457227918836805
 10
5.998875205358268
 20
-4.453971810296997
 10
5.99757410307542
 20
-4.504510849762342
 10
5.987365397414729
 20
-4.503981363901175
 10
5.993421314877878
 20
-4.49151950619268
 10
5.965259449154422
 20
-4.499580758540004
 10
5.961015636576121
 20
-4.497562716962887
 10
5.942567667419148
 20
-4.503303742375186
 10
5.932077751133065
 20
-4.504395193216585
 10
5.913872581005054
 20
-4.49725072965868
 10
5.889433497100854
 20
-4.502010532429986
 10
5.89211315077576
 20
-4.471346287870371
 10
5.880493609621124
 20
-4.457370088959868
 10
5.868260205495062
 20
-4.440803649634568
 10
5.85312709591959
 20
-4.42492691169174
 10
5.847425915160278
 20
-4.405572255261808
 10
5.822878019337546
 20
-4.397027666158123
 10
5.848212788771989
 20
-4.455062748740361
 10
5.840675192618264
 20
-4.470775897262076
 10
5.846972324140349
 20
-4.51224402998591
 10
5.814093860244307
 20
-4.512873311853303
 10
5.820828898986493
 20
-4.470672025831504
 10
5.820828997245572
 20
-4.411383231679918
 10
5.820826398653151
 20
-4.349995893200394
 10
5.820827490442852
 20
-4.290703661285546
 10
5.858572457653129
 20
-4.264086719223465
 10
5.826809968542597
 20
-4.339357766453923
 10
5.844651748935297
 20
-4.345546158229341
 10
5.859418786937011
 20
-4.32544670584232
 10
5.865974448272027
 20
-4.299951576928277
 10
5.887140540663621
 20
-4.283984662989825
 10
5.899428454564031
 20
-4.285564137604296
 10
5.922677838726106
 20
-4.264635365254548
 10
5.92043701639323
 20
-4.290502657075244
 10
5.921753037150311
 20
-4.302820313437033
 10
5.90526095898359
 20
-4.29283142336126
 10
5.900269978970097
 20
-4.303842421598852
 10
5.883051774603144
 20
-4.319402106521869
 10
5.871372714656772
 20
-4.346508795080366
 10
5.849088312517222
 20
-4.361024895011799
 10
5.824907853938106
 20
-4.385131726239301
 10
5.902474708455226
 20
-4.437303631077535
 10
5.910196967983361
 20
-4.469118218218012
 10
5.910456233211561
 20
-4.480869574820391
 10
5.960710120634226
 20
-4.485298342252563
 10
5.970077447151147
 20
-4.481224251502958
 10
5.984033424230422
 20
-4.476028184940016
 10
5.964282217972847
 20
-4.453819558750915
 10
5.987358520123026
 20
-4.457227918836805
 97
        0
 97
        1
330
A7
 75
     2
 76
     1
 98
        1
 10
0.0
 20
0.0
450
        0
451
        0
460
0.0
461
0.0
452
        0
462
0.0
453
        0
470

  0
SPLINE
  5
A9
330
7F
100
AcDbEntity
  8
Layer 1
100
AcDbSpline
210
0.0
220
0.0
230
1.0
 70
     9
 71
     3
 72
    11
 73
     7
 74
     0
 42
0.0000000001
 43
0.0000000001
 40
0.0
 40
0.0
 40
0.0
 40
0.0
 40
1.0
 40
1.0
 40
1.0
 40
2.0
 40
2.0
 40
2.0
 40
2.0
 10
6.000799817866082
 20
-4.668619791666666
 30
0.0
 10
6.000351613712457
 20
-4.685166682466602
 30
0.0
 10
5.96769247410657
 20
-4.687596294424931
 30
0.0
 10
5.967488253095072
 20
-4.668619157849875
 30
0.0
 10
5.964757661565069
 20
-4.641603560785735
 30
0.0
 10
6.003082600736964
 20
-4.643477839209796
 30
0.0
 10
6.000799817866082
 20
-4.668619791666666
 30
0.0
  0
SPLINE
  5
AA
330
7F
100
AcDbEntity
  8
Layer 1
100
AcDbSpline
210
0.0
220
0.0
230
1.0
 70
     9
 71
     3
 72
    14
 73
    10
 74
     0
 42
0.0000000001
 43
0.0000000001
 40
0.0
 40
0.0
 40
0.0
 40
0.0
 40
1.0
 40
1.0
 40
1.0
 40
2.0
 40
2.0
 40
2.0
 40
3.0
 40
3.0
 40
3.0
 40
3.0
 10
5.894164618213304
 20
-4.702128092447916
 30
0.0
 10
5.908768683389628
 20
-4.685957088477758
 30
0.0
 10
5.95195019106101
 20
-4.699970911958062
 30
0.0
 10
5.974213151715123
 20
-4.695501137003323
 30
0.0
 10
6.018265222668863
 20
-4.687632672134415
 30
0.0
 10
6.01615838940865
 20
-4.721297916061934
 30
0.0
 10
5.974212047072746
 20
-4.715373939759792
 30
0.0
 10
5.951994579601179
 20
-4.70988769184334
 30
0.0
 10
5.902958986087039
 20
-4.729139999772339
 30
0.0
 10
5.894164618213304
 20
-4.702128092447916
 30
0.0
  0
SPLINE
  5
AB
330
7F
100
AcDbEntity
  8
Layer 1
100
AcDbSpline
210
0.0
220
0.0
230
1.0
 70
     9
 71
     3
 72
    11
 73
     7
 74
     0
 42
0.0000000001
 43
0.0000000001
 40
0.0
 40
0.0
 40
0.0
 40
0.0
 40
1.0
 40
1.0
 40
1.0
 40
2.0
 40
2.0
 40
2.0
 40
2.0
 10
5.887437187657749
 20
-4.60873074001736
 30
0.0
 10
5.916550514307673
 20
-4.61419963329115
 30
0.0
 10
5.890996435941208
 20
-4.648057687098622
 30
0.0
 10
5.872611079848486
 20
-4.631188062902942
 30
0.0
 10
5.860071680277592
 20
-4.620858992676491
 30
0.0
 10
5.873396644483565
 20
-4.607359049052092
 30
0.0
 10
5.887437187657749
 20
-4.60873074001736
 30
0.0
  0
SPLINE
  5
AC
330
7F
100
AcDbEntity
  8
Layer 1
100
AcDbSpline
210
0.0
220
0.0
230
1.0
 70
     9
 71
     3
 72
    11
 73
     7
 74
     0
 42
0.0000000001
 43
0.0000000001
 40
0.0
 40
0.0
 40
0.0
 40
0.0
 40
1.0
 40
1.0
 40
1.0
 40
2.0
 40
2.0
 40
2.0
 40
2.0
 10
5.887437187657749
 20
-4.65548366970486
 30
0.0
 10
5.927899157422491
 20
-4.658776828039941
 30
0.0
 10
5.935264387146162
 20
-4.597402543051051
 30
0.0
 10
5.897527055049244
 20
-4.589328424398583
 30
0.0
 10
5.844279125887295
 20
-4.573285756350401
 30
0.0
 10
5.83200191154007
 20
-4.654841128309095
 30
0.0
 10
5.887437187657749
 20
-4.65548366970486
 30
0.0
  0
SPLINE
  5
AD
330
7F
100
AcDbEntity
  8
Layer 1
100
AcDbSpline
210
0.0
220
0.0
230
1.0
 70
     9
 71
     3
 72
    56
 73
    52
 74
     0
 42
0.0000000001
 43
0.0000000001
 40
0.0
 40
0.0
 40
0.0
 40
0.0
 40
1.0
 40
1.0
 40
1.0
 40
2.0
 40
2.0
 40
2.0
 40
3.0
 40
3.0
 40
3.0
 40
4.0
 40
4.0
 40
4.0
 40
5.0
 40
5.0
 40
5.0
 40
6.0
 40
6.0
 40
6.0
 40
7.0
 40
7.0
 40
7.0
 40
8.0
 40
8.0
 40
8.0
 40
9.0
 40
9.0
 40
9.0
 40
10.0
 40
10.0
 40
10.0
 40
11.0
 40
11.0
 40
11.0
 40
12.0
 40
12.0
 40
12.0
 40
13.0
 40
13.0
 40
13.0
 40
14.0
 40
14.0
 40
14.0
 40
15.0
 40
15.0
 40
15.0
 40
16.0
 40
16.0
 40
16.0
 40
17.0
 40
17.0
 40
17.0
 40
17.0
 10
6.034111449810526
 20
-4.615451388888888
 30
0.0
 10
6.048378140679106
 20
-4.619616393356156
 30
0.0
 10
6.037688533694184
 20
-4.65038184580846
 30
0.0
 10
6.040830011127101
 20
-4.661897458887866
 30
0.0
 10
6.040819206298086
 20
-4.686975995058092
 30
0.0
 10
6.040829721559955
 20
-4.716876781518913
 30
0.0
 10
6.040825303620597
 20
-4.741950167970533
 30
0.0
 10
6.049220644033008
 20
-4.779974063580437
 30
0.0
 10
6.003255510552839
 20
-4.813799756042158
 30
0.0
 10
6.01988977364595
 20
-4.75677040225379
 30
0.0
 10
6.009873158797391
 20
-4.738030184278701
 30
0.0
 10
5.966551942600264
 20
-4.74913696240896
 30
0.0
 10
5.948392251858194
 20
-4.754317379228887
 30
0.0
 10
5.937665933621246
 20
-4.761607997134508
 30
0.0
 10
5.925906922590507
 20
-4.741382219965922
 30
0.0
 10
5.920749369115001
 20
-4.755395242023811
 30
0.0
 10
5.90538964400634
 20
-4.759908574709962
 30
0.0
 10
5.917289808855912
 20
-4.773596665959896
 30
0.0
 10
5.913260927183046
 20
-4.784580509190542
 30
0.0
 10
5.909334710069085
 20
-4.795071713842376
 30
0.0
 10
5.892866998565649
 20
-4.784031422035152
 30
0.0
 10
5.894165748320144
 20
-4.775261961086294
 30
0.0
 10
5.891947416808508
 20
-4.748582581241217
 30
0.0
 10
5.89229873379784
 20
-4.720764145195478
 30
0.0
 10
5.92746795035388
 20
-4.728820142913327
 30
0.0
 10
5.94218141486595
 20
-4.730550041857996
 30
0.0
 10
5.968622825121529
 20
-4.724815564621798
 30
0.0
 10
5.981852086031367
 20
-4.732018792539848
 30
0.0
 10
6.009325919423241
 20
-4.745220435158822
 30
0.0
 10
6.033385525227408
 20
-4.720381261955808
 30
0.0
 10
6.014234961324366
 20
-4.695509481925859
 30
0.0
 10
6.025257368869056
 20
-4.673942460635354
 30
0.0
 10
6.012749104214005
 20
-4.657806543636234
 30
0.0
 10
6.014241115609138
 20
-4.63531494140625
 30
0.0
 10
5.994631488759623
 20
-4.650423287690892
 30
0.0
 10
5.962949853498735
 20
-4.638071942388174
 30
0.0
 10
5.947333020991082
 20
-4.621866861979166
 30
0.0
 10
5.940685813878846
 20
-4.685455831265003
 30
0.0
 10
5.854764812177159
 20
-4.693165980458072
 30
0.0
 10
5.827549210483135
 20
-4.642031968807714
 30
0.0
 10
5.814384943166158
 20
-4.568621578359461
 30
0.0
 10
5.910141813755722
 20
-4.536616390545392
 30
0.0
 10
5.940605590435526
 20
-4.602010091145833
 30
0.0
 10
5.935336073832937
 20
-4.544245105698172
 30
0.0
 10
5.986859224511463
 20
-4.56681127693509
 30
0.0
 10
5.960464218794842
 20
-4.60873031797458
 30
0.0
 10
5.974928762992476
 20
-4.62824552113966
 30
0.0
 10
6.005454582737633
 20
-4.613331875359108
 30
0.0
 10
6.027653450853322
 20
-4.615451132101093
 30
0.0
 10
6.027197623152915
 20
-4.608493151741678
 30
0.0
 10
6.034569006512255
 20
-4.608493333650433
 30
0.0
 10
6.034111449810526
 20
-4.615451388888888
 30
0.0
  0
SPLINE
  5
AE
330
7F
100
AcDbEntity
  8
Layer 1
100
AcDbSpline
210
0.0
220
0.0
230
1.0
 70
     9
 71
     3
 72
    17
 73
    13
 74
     0
 42
0.0000000001
 43
0.0000000001
 40
0.0
 40
0.0
 40
0.0
 40
0.0
 40
1.0
 40
1.0
 40
1.0
 40
2.0
 40
2.0
 40
2.0
 40
3.0
 40
3.0
 40
3.0
 40
4.0
 40
4.0
 40
4.0
 40
4.0
 10
5.867580416824416
 20
-4.682061089409722
 30
0.0
 10
5.894752520192241
 20
-4.687370088974893
 30
0.0
 10
5.875067478774831
 20
-4.74664404164375
 30
0.0
 10
5.880717626988522
 20
-4.768836946886342
 30
0.0
 10
5.881835932211363
 20
-4.789956120213256
 30
0.0
 10
5.802414022657103
 20
-4.789720112904951
 30
0.0
 10
5.823730872910244
 20
-4.763194573896687
 30
0.0
 10
5.881363112404894
 20
-4.773478365073009
 30
0.0
 10
5.858297218413881
 20
-4.74141357619712
 30
0.0
 10
5.860859033451737
 20
-4.701919735916476
 30
0.0
 10
5.79493808374405
 20
-4.702825146363314
 30
0.0
 10
5.815398574148098
 20
-4.675280648298653
 30
0.0
 10
5.867580416824416
 20
-4.682061089409722
 30
0.0
  0
HATCH
  5
AF
330
7F
100
AcDbEntity
  8
Layer 1
 62
   250
420
  2301728
440
 33554687
100
AcDbHatch
 10
0.0
 20
0.0
 30
0.0
210
0.0
220
0.0
230
1.0
  2
SOLID
 70
     1
 71
     1
 91
        6
 92
        1
 93
        1
 72
     4
 94
        3
 73
     0
 74
     0
 95
       11
 96
        7
 40
0.0
 40
0.0
 40
0.0
 40
0.0
 40
1.0
 40
1.0
 40
1.0
 40
2.0
 40
2.0
 40
2.0
 40
2.0
 10
6.000799817866082
 20
-4.668619791666666
 10
6.000351613712457
 20
-4.685166682466602
 10
5.96769247410657
 20
-4.687596294424931
 10
5.967488253095072
 20
-4.668619157849875
 10
5.964757661565069
 20
-4.641603560785735
 10
6.003082600736964
 20
-4.643477839209796
 10
6.000799817866082
 20
-4.668619791666666
 97
        0
 97
        1
330
A9
 92
        1
 93
        1
 72
     4
 94
        3
 73
     0
 74
     0
 95
       14
 96
       10
 40
0.0
 40
0.0
 40
0.0
 40
0.0
 40
1.0
 40
1.0
 40
1.0
 40
2.0
 40
2.0
 40
2.0
 40
3.0
 40
3.0
 40
3.0
 40
3.0
 10
5.894164618213304
 20
-4.702128092447916
 10
5.908768683389628
 20
-4.685957088477758
 10
5.95195019106101
 20
-4.699970911958062
 10
5.974213151715123
 20
-4.695501137003323
 10
6.018265222668863
 20
-4.687632672134415
 10
6.01615838940865
 20
-4.721297916061934
 10
5.974212047072746
 20
-4.715373939759792
 10
5.951994579601179
 20
-4.70988769184334
 10
5.902958986087039
 20
-4.729139999772339
 10
5.894164618213304
 20
-4.702128092447916
 97
        0
 97
        1
330
AA
 92
        1
 93
        1
 72
     4
 94
        3
 73
     0
 74
     0
 95
       11
 96
        7
 40
0.0
 40
0.0
 40
0.0
 40
0.0
 40
1.0
 40
1.0
 40
1.0
 40
2.0
 40
2.0
 40
2.0
 40
2.0
 10
5.887437187657749
 20
-4.60873074001736
 10
5.916550514307673
 20
-4.61419963329115
 10
5.890996435941208
 20
-4.648057687098622
 10
5.872611079848486
 20
-4.631188062902942
 10
5.860071680277592
 20
-4.620858992676491
 10
5.873396644483565
 20
-4.607359049052092
 10
5.887437187657749
 20
-4.60873074001736
 97
        0
 97
        1
330
AB
 92
        1
 93
        1
 72
     4
 94
        3
 73
     0
 74
     0
 95
       11
 96
        7
 40
0.0
 40
0.0
 40
0.0
 40
0.0
 40
1.0
 40
1.0
 40
1.0
 40
2.0
 40
2.0
 40
2.0
 40
2.0
 10
5.887437187657749
 20
-4.65548366970486
 10
5.927899157422491
 20
-4.658776828039941
 10
5.935264387146162
 20
-4.597402543051051
 10
5.897527055049244
 20
-4.589328424398583
 10
5.844279125887295
 20
-4.573285756350401
 10
5.83200191154007
 20
-4.654841128309095
 10
5.887437187657749
 20
-4.65548366970486
 97
        0
 97
        1
330
AC
 92
        1
 93
        1
 72
     4
 94
        3
 73
     0
 74
     0
 95
       56
 96
       52
 40
0.0
 40
0.0
 40
0.0
 40
0.0
 40
1.0
 40
1.0
 40
1.0
 40
2.0
 40
2.0
 40
2.0
 40
3.0
 40
3.0
 40
3.0
 40
4.0
 40
4.0
 40
4.0
 40
5.0
 40
5.0
 40
5.0
 40
6.0
 40
6.0
 40
6.0
 40
7.0
 40
7.0
 40
7.0
 40
8.0
 40
8.0
 40
8.0
 40
9.0
 40
9.0
 40
9.0
 40
10.0
 40
10.0
 40
10.0
 40
11.0
 40
11.0
 40
11.0
 40
12.0
 40
12.0
 40
12.0
 40
13.0
 40
13.0
 40
13.0
 40
14.0
 40
14.0
 40
14.0
 40
15.0
 40
15.0
 40
15.0
 40
16.0
 40
16.0
 40
16.0
 40
17.0
 40
17.0
 40
17.0
 40
17.0
 10
6.034111449810526
 20
-4.615451388888888
 10
6.048378140679106
 20
-4.619616393356156
 10
6.037688533694184
 20
-4.65038184580846
 10
6.040830011127101
 20
-4.661897458887866
 10
6.040819206298086
 20
-4.686975995058092
 10
6.040829721559955
 20
-4.716876781518913
 10
6.040825303620597
 20
-4.741950167970533
 10
6.049220644033008
 20
-4.779974063580437
 10
6.003255510552839
 20
-4.813799756042158
 10
6.01988977364595
 20
-4.75677040225379
 10
6.009873158797391
 20
-4.738030184278701
 10
5.966551942600264
 20
-4.74913696240896
 10
5.948392251858194
 20
-4.754317379228887
 10
5.937665933621246
 20
-4.761607997134508
 10
5.925906922590507
 20
-4.741382219965922
 10
5.920749369115001
 20
-4.755395242023811
 10
5.90538964400634
 20
-4.759908574709962
 10
5.917289808855912
 20
-4.773596665959896
 10
5.913260927183046
 20
-4.784580509190542
 10
5.909334710069085
 20
-4.795071713842376
 10
5.892866998565649
 20
-4.784031422035152
 10
5.894165748320144
 20
-4.775261961086294
 10
5.891947416808508
 20
-4.748582581241217
 10
5.89229873379784
 20
-4.720764145195478
 10
5.92746795035388
 20
-4.728820142913327
 10
5.94218141486595
 20
-4.730550041857996
 10
5.968622825121529
 20
-4.724815564621798
 10
5.981852086031367
 20
-4.732018792539848
 10
6.009325919423241
 20
-4.745220435158822
 10
6.033385525227408
 20
-4.720381261955808
 10
6.014234961324366
 20
-4.695509481925859
 10
6.025257368869056
 20
-4.673942460635354
 10
6.012749104214005
 20
-4.657806543636234
 10
6.014241115609138
 20
-4.63531494140625
 10
5.994631488759623
 20
-4.650423287690892
 10
5.962949853498735
 20
-4.638071942388174
 10
5.947333020991082
 20
-4.621866861979166
 10
5.940685813878846
 20
-4.685455831265003
 10
5.854764812177159
 20
-4.693165980458072
 10
5.827549210483135
 20
-4.642031968807714
 10
5.814384943166158
 20
-4.568621578359461
 10
5.910141813755722
 20
-4.536616390545392
 10
5.940605590435526
 20
-4.602010091145833
 10
5.935336073832937
 20
-4.544245105698172
 10
5.986859224511463
 20
-4.56681127693509
 10
5.960464218794842
 20
-4.60873031797458
 10
5.974928762992476
 20
-4.62824552113966
 10
6.005454582737633
 20
-4.613331875359108
 10
6.027653450853322
 20
-4.615451132101093
 10
6.027197623152915
 20
-4.608493151741678
 10
6.034569006512255
 20
-4.608493333650433
 10
6.034111449810526
 20
-4.615451388888888
 97
        0
 97
        1
330
AD
 92
        1
 93
        1
 72
     4
 94
        3
 73
     0
 74
     0
 95
       17
 96
       13
 40
0.0
 40
0.0
 40
0.0
 40
0.0
 40
1.0
 40
1.0
 40
1.0
 40
2.0
 40
2.0
 40
2.0
 40
3.0
 40
3.0
 40
3.0
 40
4.0
 40
4.0
 40
4.0
 40
4.0
 10
5.867580416824416
 20
-4.682061089409722
 10
5.894752520192241
 20
-4.687370088974893
 10
5.875067478774831
 20
-4.74664404164375
 10
5.880717626988522
 20
-4.768836946886342
 10
5.881835932211363
 20
-4.789956120213256
 10
5.802414022657103
 20
-4.789720112904951
 10
5.823730872910244
 20
-4.763194573896687
 10
5.881363112404894
 20
-4.773478365073009
 10
5.858297218413881
 20
-4.74141357619712
 10
5.860859033451737
 20
-4.701919735916476
 10
5.79493808374405
 20
-4.702825146363314
 10
5.815398574148098
 20
-4.675280648298653
 10
5.867580416824416
 20
-4.682061089409722
 97
        0
 97
        1
330
AE
 75
     2
 76
     1
 98
        1
 10
0.0
 20
0.0
450
        0
451
        0
460
0.0
461
0.0
452
        0
462
0.0
453
        0
470

  0
SPLINE
  5
B0
330
7F
100
AcDbEntity
  8
Layer 1
100
AcDbSpline
210
0.0
220
0.0
230
1.0
 70
     9
 71
     3
 72
    11
 73
     7
 74
     0
 42
0.0000000001
 43
0.0000000001
 40
0.0
 40
0.0
 40
0.0
 40
0.0
 40
1.0
 40
1.0
 40
1.0
 40
2.0
 40
2.0
 40
2.0
 40
2.0
 10
6.040825316998026
 20
-4.846700032552083
 30
0.0
 10
6.060497212606429
 20
-4.846913063365566
 30
0.0
 10
6.061761436174012
 20
-4.896310611772251
 30
0.0
 10
6.040828580585714
 20
-4.894672818696069
 30
0.0
 10
6.01983631107752
 20
-4.896461419218111
 30
0.0
 10
6.0211979321868
 20
-4.846875708017907
 30
0.0
 10
6.040825316998026
 20
-4.846700032552083
 30
0.0
  0
SPLINE
  5
B1
330
7F
100
AcDbEntity
  8
Layer 1
100
AcDbSpline
210
0.0
220
0.0
230
1.0
 70
     9
 71
     3
 72
    38
 73
    34
 74
     0
 42
0.0000000001
 43
0.0000000001
 40
0.0
 40
0.0
 40
0.0
 40
0.0
 40
1.0
 40
1.0
 40
1.0
 40
2.0
 40
2.0
 40
2.0
 40
3.0
 40
3.0
 40
3.0
 40
4.0
 40
4.0
 40
4.0
 40
5.0
 40
5.0
 40
5.0
 40
6.0
 40
6.0
 40
6.0
 40
7.0
 40
7.0
 40
7.0
 40
8.0
 40
8.0
 40
8.0
 40
9.0
 40
9.0
 40
9.0
 40
10.0
 40
10.0
 40
10.0
 40
11.0
 40
11.0
 40
11.0
 40
11.0
 10
6.027072061789693
 20
-4.970452202690972
 30
0.0
 10
6.064205565044099
 20
-4.978637291582129
 30
0.0
 10
6.053213528080783
 20
-5.024681303910015
 30
0.0
 10
6.054577439484874
 20
-5.052646769075029
 30
0.0
 10
6.057407721593309
 20
-5.07621359615137
 30
0.0
 10
6.010018927476872
 20
-5.080700153469984
 30
0.0
 10
5.999578146922683
 20
-5.066404882848587
 30
0.0
 10
6.04206010501467
 20
-5.044739612392175
 30
0.0
 10
6.033773526902854
 20
-5.059243649768164
 30
0.0
 10
6.033795851145113
 20
-5.004668524668052
 30
0.0
 10
5.947885309442956
 20
-4.964746348555864
 30
0.0
 10
5.993829562477356
 20
-5.000285979815619
 30
0.0
 10
5.980179821655913
 20
-5.030798304844753
 30
0.0
 10
5.978204034302684
 20
-5.035539888437193
 30
0.0
 10
5.979444080676633
 20
-5.054178079503572
 30
0.0
 10
5.979111563907306
 20
-5.05967263085496
 30
0.0
 10
5.965705869279544
 20
-5.079225691556922
 30
0.0
 10
5.944389865594959
 20
-5.059496661926838
 30
0.0
 10
5.951613781812384
 20
-5.038899466227424
 30
0.0
 10
5.957556986637124
 20
-5.021689944581541
 30
0.0
 10
5.95751156363321
 20
-5.015157679842761
 30
0.0
 10
5.951595814197667
 20
-4.997952025736455
 30
0.0
 10
5.957897684060703
 20
-4.986769593484407
 30
0.0
 10
5.959579592945449
 20
-4.970148561489382
 30
0.0
 10
5.958329446007256
 20
-4.956704459305783
 30
0.0
 10
5.961559465558618
 20
-4.938855538630465
 30
0.0
 10
5.945517737249802
 20
-4.806626940917618
 30
0.0
 10
5.979113486711361
 20
-4.860446386906901
 30
0.0
 10
5.979110834438364
 20
-4.883934740538178
 30
0.0
 10
5.97911282696681
 20
-4.912409433074331
 30
0.0
 10
5.97911198981031
 20
-4.935926664979066
 30
0.0
 10
5.971358358848545
 20
-4.979072939494685
 30
0.0
 10
5.989424558369515
 20
-4.983241399355973
 30
0.0
 10
6.027072061789693
 20
-4.970452202690972
 30
0.0
  0
SPLINE
  5
B2
330
7F
100
AcDbEntity
  8
Layer 1
100
AcDbSpline
210
0.0
220
0.0
230
1.0
 70
     9
 71
     3
 72
    11
 73
     7
 74
     0
 42
0.0000000001
 43
0.0000000001
 40
0.0
 40
0.0
 40
0.0
 40
0.0
 40
1.0
 40
1.0
 40
1.0
 40
2.0
 40
2.0
 40
2.0
 40
2.0
 10
5.896294066998026
 20
-4.963426378038193
 30
0.0
 10
5.897774301200645
 20
-4.940761341255424
 30
0.0
 10
5.934207990560126
 20
-4.949311591876064
 30
0.0
 10
5.922117675057001
 20
-4.96953865721908
 30
0.0
 10
5.915430250441456
 20
-4.970077393181415
 30
0.0
 10
5.896935874320661
 20
-4.974286450633055
 30
0.0
 10
5.896294066998026
 20
-4.963426378038193
 30
0.0
  0
SPLINE
  5
B3
330
7F
100
AcDbEntity
  8
Layer 1
100
AcDbSpline
210
0.0
220
0.0
230
1.0
 70
     9
 71
     3
 72
    44
 73
    40
 74
     0
 42
0.0000000001
 43
0.0000000001
 40
0.0
 40
0.0
 40
0.0
 40
0.0
 40
1.0
 40
1.0
 40
1.0
 40
2.0
 40
2.0
 40
2.0
 40
3.0
 40
3.0
 40
3.0
 40
4.0
 40
4.0
 40
4.0
 40
5.0
 40
5.0
 40
5.0
 40
6.0
 40
6.0
 40
6.0
 40
7.0
 40
7.0
 40
7.0
 40
8.0
 40
8.0
 40
8.0
 40
9.0
 40
9.0
 40
9.0
 40
10.0
 40
10.0
 40
10.0
 40
11.0
 40
11.0
 40
11.0
 40
12.0
 40
12.0
 40
12.0
 40
13.0
 40
13.0
 40
13.0
 40
13.0
 10
5.937553832623026
 20
-4.908426920572916
 30
0.0
 10
5.944497171521485
 20
-4.928977201377543
 30
0.0
 10
5.892831788619635
 20
-4.92669829051139
 30
0.0
 10
5.88957753847588
 20
-4.915154516806915
 30
0.0
 10
5.899872023535155
 20
-4.904014178830493
 30
0.0
 10
5.937800954579061
 20
-4.902111791442115
 30
0.0
 10
5.917068380916437
 20
-4.874192189522773
 30
0.0
 10
5.909619678945242
 20
-4.860651470394637
 30
0.0
 10
5.889509617957982
 20
-4.880341319223689
 30
0.0
 10
5.875827325753966
 20
-4.874191803605096
 30
0.0
 10
5.839848019541856
 20
-4.866425511878635
 30
0.0
 10
5.850070646134832
 20
-4.917794453604086
 30
0.0
 10
5.84833229902996
 20
-4.942647493726578
 30
0.0
 10
5.854315298776378
 20
-4.970048810721601
 30
0.0
 10
5.827173678821913
 20
-5.028510544781005
 30
0.0
 10
5.875825216215262
 20
-5.011701865354148
 30
0.0
 10
5.880728364246477
 20
-5.011343404326301
 30
0.0
 10
5.905686495649155
 20
-5.011965895601709
 30
0.0
 10
5.910047490771805
 20
-5.011704395188656
 30
0.0
 10
5.905803487808548
 20
-5.027173951577424
 30
0.0
 10
5.921992137262097
 20
-5.069424698117169
 30
0.0
 10
5.89629851722528
 20
-5.066400562451286
 30
0.0
 10
5.884640800147255
 20
-5.088604310758101
 30
0.0
 10
5.89540328665771
 20
-5.033518857820657
 30
0.0
 10
5.889586134111671
 20
-5.025151115964313
 30
0.0
 10
5.87169454034266
 20
-5.012820335237657
 30
0.0
 10
5.846014742976826
 20
-5.041393509582487
 30
0.0
 10
5.831827836432517
 20
-5.02622203349065
 30
0.0
 10
5.821453377161433
 20
-5.012646040230618
 30
0.0
 10
5.830969360450126
 20
-4.976297082346958
 30
0.0
 10
5.827847380591239
 20
-4.956707083062926
 30
0.0
 10
5.811274271252639
 20
-4.932523791866868
 30
0.0
 10
5.82884526748032
 20
-4.906779295376749
 30
0.0
 10
5.827858022659382
 20
-4.880926705865438
 30
0.0
 10
5.823557621419467
 20
-4.845562325733478
 30
0.0
 10
5.865971270340448
 20
-4.855845214587247
 30
0.0
 10
5.886827999818478
 20
-4.852359202396794
 30
0.0
 10
5.922484434442417
 20
-4.830704759652803
 30
0.0
 10
5.960015030764603
 20
-4.875015093207012
 30
0.0
 10
5.937553832623026
 20
-4.908426920572916
 30
0.0
  0
HATCH
  5
B4
330
7F
100
AcDbEntity
  8
Layer 1
 62
   250
420
  2301728
440
 33554687
100
AcDbHatch
 10
0.0
 20
0.0
 30
0.0
210
0.0
220
0.0
230
1.0
  2
SOLID
 70
     1
 71
     1
 91
        4
 92
        1
 93
        1
 72
     4
 94
        3
 73
     0
 74
     0
 95
       11
 96
        7
 40
0.0
 40
0.0
 40
0.0
 40
0.0
 40
1.0
 40
1.0
 40
1.0
 40
2.0
 40
2.0
 40
2.0
 40
2.0
 10
6.040825316998026
 20
-4.846700032552083
 10
6.060497212606429
 20
-4.846913063365566
 10
6.061761436174012
 20
-4.896310611772251
 10
6.040828580585714
 20
-4.894672818696069
 10
6.01983631107752
 20
-4.896461419218111
 10
6.0211979321868
 20
-4.846875708017907
 10
6.040825316998026
 20
-4.846700032552083
 97
        0
 97
        1
330
B0
 92
        1
 93
        1
 72
     4
 94
        3
 73
     0
 74
     0
 95
       38
 96
       34
 40
0.0
 40
0.0
 40
0.0
 40
0.0
 40
1.0
 40
1.0
 40
1.0
 40
2.0
 40
2.0
 40
2.0
 40
3.0
 40
3.0
 40
3.0
 40
4.0
 40
4.0
 40
4.0
 40
5.0
 40
5.0
 40
5.0
 40
6.0
 40
6.0
 40
6.0
 40
7.0
 40
7.0
 40
7.0
 40
8.0
 40
8.0
 40
8.0
 40
9.0
 40
9.0
 40
9.0
 40
10.0
 40
10.0
 40
10.0
 40
11.0
 40
11.0
 40
11.0
 40
11.0
 10
6.027072061789693
 20
-4.970452202690972
 10
6.064205565044099
 20
-4.978637291582129
 10
6.053213528080783
 20
-5.024681303910015
 10
6.054577439484874
 20
-5.052646769075029
 10
6.057407721593309
 20
-5.07621359615137
 10
6.010018927476872
 20
-5.080700153469984
 10
5.999578146922683
 20
-5.066404882848587
 10
6.04206010501467
 20
-5.044739612392175
 10
6.033773526902854
 20
-5.059243649768164
 10
6.033795851145113
 20
-5.004668524668052
 10
5.947885309442956
 20
-4.964746348555864
 10
5.993829562477356
 20
-5.000285979815619
 10
5.980179821655913
 20
-5.030798304844753
 10
5.978204034302684
 20
-5.035539888437193
 10
5.979444080676633
 20
-5.054178079503572
 10
5.979111563907306
 20
-5.05967263085496
 10
5.965705869279544
 20
-5.079225691556922
 10
5.944389865594959
 20
-5.059496661926838
 10
5.951613781812384
 20
-5.038899466227424
 10
5.957556986637124
 20
-5.021689944581541
 10
5.95751156363321
 20
-5.015157679842761
 10
5.951595814197667
 20
-4.997952025736455
 10
5.957897684060703
 20
-4.986769593484407
 10
5.959579592945449
 20
-4.970148561489382
 10
5.958329446007256
 20
-4.956704459305783
 10
5.961559465558618
 20
-4.938855538630465
 10
5.945517737249802
 20
-4.806626940917618
 10
5.979113486711361
 20
-4.860446386906901
 10
5.979110834438364
 20
-4.883934740538178
 10
5.97911282696681
 20
-4.912409433074331
 10
5.97911198981031
 20
-4.935926664979066
 10
5.971358358848545
 20
-4.979072939494685
 10
5.989424558369515
 20
-4.983241399355973
 10
6.027072061789693
 20
-4.970452202690972
 97
        0
 97
        1
330
B1
 92
        1
 93
        1
 72
     4
 94
        3
 73
     0
 74
     0
 95
       11
 96
        7
 40
0.0
 40
0.0
 40
0.0
 40
0.0
 40
1.0
 40
1.0
 40
1.0
 40
2.0
 40
2.0
 40
2.0
 40
2.0
 10
5.896294066998026
 20
-4.963426378038193
 10
5.897774301200645
 20
-4.940761341255424
 10
5.934207990560126
 20
-4.949311591876064
 10
5.922117675057001
 20
-4.96953865721908
 10
5.915430250441456
 20
-4.970077393181415
 10
5.896935874320661
 20
-4.974286450633055
 10
5.896294066998026
 20
-4.963426378038193
 97
        0
 97
        1
330
B2
 92
        1
 93
        1
 72
     4
 94
        3
 73
     0
 74
     0
 95
       44
 96
       40
 40
0.0
 40
0.0
 40
0.0
 40
0.0
 40
1.0
 40
1.0
 40
1.0
 40
2.0
 40
2.0
 40
2.0
 40
3.0
 40
3.0
 40
3.0
 40
4.0
 40
4.0
 40
4.0
 40
5.0
 40
5.0
 40
5.0
 40
6.0
 40
6.0
 40
6.0
 40
7.0
 40
7.0
 40
7.0
 40
8.0
 40
8.0
 40
8.0
 40
9.0
 40
9.0
 40
9.0
 40
10.0
 40
10.0
 40
10.0
 40
11.0
 40
11.0
 40
11.0
 40
12.0
 40
12.0
 40
12.0
 40
13.0
 40
13.0
 40
13.0
 40
13.0
 10
5.937553832623026
 20
-4.908426920572916
 10
5.944497171521485
 20
-4.928977201377543
 10
5.892831788619635
 20
-4.92669829051139
 10
5.88957753847588
 20
-4.915154516806915
 10
5.899872023535155
 20
-4.904014178830493
 10
5.937800954579061
 20
-4.902111791442115
 10
5.917068380916437
 20
-4.874192189522773
 10
5.909619678945242
 20
-4.860651470394637
 10
5.889509617957982
 20
-4.880341319223689
 10
5.875827325753966
 20
-4.874191803605096
 10
5.839848019541856
 20
-4.866425511878635
 10
5.850070646134832
 20
-4.917794453604086
 10
5.84833229902996
 20
-4.942647493726578
 10
5.854315298776378
 20
-4.970048810721601
 10
5.827173678821913
 20
-5.028510544781005
 10
5.875825216215262
 20
-5.011701865354148
 10
5.880728364246477
 20
-5.011343404326301
 10
5.905686495649155
 20
-5.011965895601709
 10
5.910047490771805
 20
-5.011704395188656
 10
5.905803487808548
 20
-5.027173951577424
 10
5.921992137262097
 20
-5.069424698117169
 10
5.89629851722528
 20
-5.066400562451286
 10
5.884640800147255
 20
-5.088604310758101
 10
5.89540328665771
 20
-5.033518857820657
 10
5.889586134111671
 20
-5.025151115964313
 10
5.87169454034266
 20
-5.012820335237657
 10
5.846014742976826
 20
-5.041393509582487
 10
5.831827836432517
 20
-5.02622203349065
 10
5.821453377161433
 20
-5.012646040230618
 10
5.830969360450126
 20
-4.976297082346958
 10
5.827847380591239
 20
-4.956707083062926
 10
5.811274271252639
 20
-4.932523791866868
 10
5.82884526748032
 20
-4.906779295376749
 10
5.827858022659382
 20
-4.880926705865438
 10
5.823557621419467
 20
-4.845562325733478
 10
5.865971270340448
 20
-4.855845214587247
 10
5.886827999818478
 20
-4.852359202396794
 10
5.922484434442417
 20
-4.830704759652803
 10
5.960015030764603
 20
-4.875015093207012
 10
5.937553832623026
 20
-4.908426920572916
 97
        0
 97
        1
330
B3
 75
     2
 76
     1
 98
        1
 10
0.0
 20
0.0
450
        0
451
        0
460
0.0
461
0.0
452
        0
462
0.0
453
        0
470

  0
SPLINE
  5
B5
330
7F
100
AcDbEntity
  8
Layer 1
100
AcDbSpline
210
0.0
220
0.0
230
1.0
 70
     9
 71
     3
 72
    29
 73
    25
 74
     0
 42
0.0000000001
 43
0.0000000001
 40
0.0
 40
0.0
 40
0.0
 40
0.0
 40
1.0
 40
1.0
 40
1.0
 40
2.0
 40
2.0
 40
2.0
 40
3.0
 40
3.0
 40
3.0
 40
4.0
 40
4.0
 40
4.0
 40
5.0
 40
5.0
 40
5.0
 40
6.0
 40
6.0
 40
6.0
 40
7.0
 40
7.0
 40
7.0
 40
8.0
 40
8.0
 40
8.0
 40
8.0
 10
6.033799492345249
 20
-5.158921983506943
 30
0.0
 10
5.983647778059952
 20
-5.13453004381069
 30
0.0
 10
6.013555587741493
 20
-5.207224585484216
 30
0.0
 10
6.00628680313649
 20
-5.234701724488306
 30
0.0
 10
6.029793519089126
 20
-5.246553434557868
 30
0.0
 10
6.07299654045255
 20
-5.295607061786603
 30
0.0
 10
6.020045297861391
 20
-5.280233844243525
 30
0.0
 10
5.989954001184236
 20
-5.276089998189402
 30
0.0
 10
6.01204849794183
 20
-5.319935378335306
 30
0.0
 10
6.006287790427045
 20
-5.337367195193437
 30
0.0
 10
6.016120921715455
 20
-5.335589431376736
 30
0.0
 10
6.03432669367367
 20
-5.342833955237488
 30
0.0
 10
6.022649841841004
 20
-5.353868896770904
 30
0.0
 10
5.988578450771379
 20
-5.373944133298575
 30
0.0
 10
5.981146943306637
 20
-5.336867439323529
 30
0.0
 10
5.985534541798894
 20
-5.310170902696793
 30
0.0
 10
5.98552875358953
 20
-5.270013518264691
 30
0.0
 10
5.985526536937514
 20
-5.226587644329874
 30
0.0
 10
5.985527468255567
 20
-5.186428480555832
 30
0.0
 10
5.985468492327021
 20
-5.130149649941459
 30
0.0
 10
5.97756794684455
 20
-5.130005042545942
 30
0.0
 10
6.033801164365891
 20
-5.138463278932994
 30
0.0
 10
6.044824627653396
 20
-5.135036351824358
 30
0.0
 10
6.04246392299064
 20
-5.159727422661135
 30
0.0
 10
6.033799492345249
 20
-5.158921983506943
 30
0.0
  0
SPLINE
  5
B6
330
7F
100
AcDbEntity
  8
Layer 1
100
AcDbSpline
210
0.0
220
0.0
230
1.0
 70
     9
 71
     3
 72
    11
 73
     7
 74
     0
 42
0.0000000001
 43
0.0000000001
 40
0.0
 40
0.0
 40
0.0
 40
0.0
 40
1.0
 40
1.0
 40
1.0
 40
2.0
 40
2.0
 40
2.0
 40
2.0
 10
5.951293524463304
 20
-5.234700520833333
 30
0.0
 10
5.947778513957978
 20
-5.234772102780109
 30
0.0
 10
5.941804147926404
 20
-5.236720034016975
 30
0.0
 10
5.941527299138416
 20
-5.240356065547871
 30
0.0
 10
5.944796761555456
 20
-5.243605778629507
 30
0.0
 10
5.95184854989015
 20
-5.239531664901088
 30
0.0
 10
5.951293524463304
 20
-5.234700520833333
 30
0.0
  0
SPLINE
  5
B7
330
7F
100
AcDbEntity
  8
Layer 1
100
AcDbSpline
210
0.0
220
0.0
230
1.0
 70
     9
 71
     3
 72
    17
 73
    13
 74
     0
 42
0.0000000001
 43
0.0000000001
 40
0.0
 40
0.0
 40
0.0
 40
0.0
 40
1.0
 40
1.0
 40
1.0
 40
2.0
 40
2.0
 40
2.0
 40
3.0
 40
3.0
 40
3.0
 40
4.0
 40
4.0
 40
4.0
 40
4.0
 10
5.903021497553582
 20
-5.255174424913193
 30
0.0
 10
5.900095789746526
 20
-5.229308231524555
 30
0.0
 10
5.93967134322909
 20
-5.226344912178281
 30
0.0
 10
5.95129212396081
 20
-5.206894856625543
 30
0.0
 10
5.953407250183393
 20
-5.190121493463745
 30
0.0
 10
5.940821433215407
 20
-5.1147025847779
 30
0.0
 10
5.972075409946834
 20
-5.14517063947926
 30
0.0
 10
5.967252506016444
 20
-5.179826338410824
 30
0.0
 10
5.982376663079321
 20
-5.23370793304035
 30
0.0
 10
5.965056560106252
 20
-5.26189711748437
 30
0.0
 10
5.947519622631816
 20
-5.258948872437763
 30
0.0
 10
5.915838027084721
 20
-5.269215638446653
 30
0.0
 10
5.903021497553582
 20
-5.255174424913193
 30
0.0
  0
SPLINE
  5
B8
330
7F
100
AcDbEntity
  8
Layer 1
100
AcDbSpline
210
0.0
220
0.0
230
1.0
 70
     9
 71
     3
 72
    11
 73
     7
 74
     0
 42
0.0000000001
 43
0.0000000001
 40
0.0
 40
0.0
 40
0.0
 40
0.0
 40
1.0
 40
1.0
 40
1.0
 40
2.0
 40
2.0
 40
2.0
 40
2.0
 10
5.930826402067471
 20
-5.33736843532986
 30
0.0
 10
5.962529323063259
 20
-5.327152670574112
 30
0.0
 10
5.95534625379264
 20
-5.282413220106225
 30
0.0
 10
5.91706960063872
 20
-5.289704742019933
 30
0.0
 10
5.892481423305676
 20
-5.31060815272052
 30
0.0
 10
5.88753437412538
 20
-5.345546362170794
 30
0.0
 10
5.930826402067471
 20
-5.33736843532986
 30
0.0
  0
SPLINE
  5
B9
330
7F
100
AcDbEntity
  8
Layer 1
100
AcDbSpline
210
0.0
220
0.0
230
1.0
 70
     9
 71
     3
 72
    11
 73
     7
 74
     0
 42
0.0000000001
 43
0.0000000001
 40
0.0
 40
0.0
 40
0.0
 40
0.0
 40
1.0
 40
1.0
 40
1.0
 40
2.0
 40
2.0
 40
2.0
 40
2.0
 10
5.875826944602193
 20
-5.227674696180555
 30
0.0
 10
5.894515939214266
 20
-5.224339989114342
 30
0.0
 10
5.892761569441189
 20
-5.2553799677062
 30
0.0
 10
5.875826165177613
 20
-5.25517449146514
 30
0.0
 10
5.84860076148109
 20
-5.257629076381514
 30
0.0
 10
5.848815873569517
 20
-5.221690829137615
 30
0.0
 10
5.875826944602193
 20
-5.227674696180555
 30
0.0
  0
SPLINE
  5
BA
330
7F
100
AcDbEntity
  8
Layer 1
100
AcDbSpline
210
0.0
220
0.0
230
1.0
 70
     9
 71
     3
 72
    11
 73
     7
 74
     0
 42
0.0000000001
 43
0.0000000001
 40
0.0
 40
0.0
 40
0.0
 40
0.0
 40
1.0
 40
1.0
 40
1.0
 40
2.0
 40
2.0
 40
2.0
 40
2.0
 10
5.875826944602193
 20
-5.179701063368055
 30
0.0
 10
5.928669131010918
 20
-5.167420961550659
 30
0.0
 10
5.890575377038885
 20
-5.157477275009025
 30
0.0
 10
5.862844425566915
 20
-5.153746782974015
 30
0.0
 10
5.844538674596454
 20
-5.151778464305089
 30
0.0
 10
5.859867205851312
 20
-5.184957266634139
 30
0.0
 10
5.875826944602193
 20
-5.179701063368055
 30
0.0
  0
SPLINE
  5
BB
330
7F
100
AcDbEntity
  8
Layer 1
100
AcDbSpline
210
0.0
220
0.0
230
1.0
 70
     9
 71
     3
 72
    23
 73
    19
 74
     0
 42
0.0000000001
 43
0.0000000001
 40
0.0
 40
0.0
 40
0.0
 40
0.0
 40
1.0
 40
1.0
 40
1.0
 40
2.0
 40
2.0
 40
2.0
 40
3.0
 40
3.0
 40
3.0
 40
4.0
 40
4.0
 40
4.0
 40
5.0
 40
5.0
 40
5.0
 40
6.0
 40
6.0
 40
6.0
 40
6.0
 10
5.923800577414693
 20
-5.268927680121527
 30
0.0
 10
5.960954356209614
 20
-5.268575766036532
 30
0.0
 10
5.98559391117793
 20
-5.305605144651242
 30
0.0
 10
5.967797861966547
 20
-5.340125553006765
 30
0.0
 10
5.929252063724889
 20
-5.377029747383832
 30
0.0
 10
5.845010527241103
 20
-5.3483823962016
 30
0.0
 10
5.889268242345249
 20
-5.296427408854166
 30
0.0
 10
5.870996662897292
 20
-5.286972187165158
 30
0.0
 10
5.831228538210072
 20
-5.310301473587817
 30
0.0
 10
5.820974932321101
 20
-5.286955754041374
 30
0.0
 10
5.819561945542418
 20
-5.274325451974593
 30
0.0
 10
5.82066232157351
 20
-5.25836287217746
 30
0.0
 10
5.827559322650889
 20
-5.2481505313279
 30
0.0
 10
5.821011419366186
 20
-5.232247189910695
 30
0.0
 10
5.811157166719895
 20
-5.179922751500359
 30
0.0
 10
5.843903693597692
 20
-5.197573497976261
 30
0.0
 10
5.865198319956308
 20
-5.304489251103783
 30
0.0
 10
5.790528530262841
 20
-5.274872605648649
 30
0.0
 10
5.923800577414693
 20
-5.268927680121527
 30
0.0
  0
SPLINE
  5
BC
330
7F
100
AcDbEntity
  8
Layer 1
100
AcDbSpline
210
0.0
220
0.0
230
1.0
 70
     9
 71
     3
 72
    17
 73
    13
 74
     0
 42
0.0000000001
 43
0.0000000001
 40
0.0
 40
0.0
 40
0.0
 40
0.0
 40
1.0
 40
1.0
 40
1.0
 40
2.0
 40
2.0
 40
2.0
 40
3.0
 40
3.0
 40
3.0
 40
4.0
 40
4.0
 40
4.0
 40
4.0
 10
5.930826402067471
 20
-5.152201334635416
 30
0.0
 10
5.909623119558722
 20
-5.176059709700211
 30
0.0
 10
5.882429345978303
 20
-5.233176387075622
 30
0.0
 10
5.85505006028019
 20
-5.186424195093068
 30
0.0
 10
5.847561848291004
 20
-5.180318036966607
 30
0.0
 10
5.845834781360078
 20
-5.17466731819243
 30
0.0
 10
5.841606786867183
 20
-5.165649224349231
 30
0.0
 10
5.836775210503977
 20
-5.157143325744287
 30
0.0
 10
5.809593075653386
 20
-5.147903044434466
 30
0.0
 10
5.827555303115281
 20
-5.139371849837389
 30
0.0
 10
5.84545272540764
 20
-5.142007523313597
 30
0.0
 10
5.939400324264422
 20
-5.125818184969362
 30
0.0
 10
5.930826402067471
 20
-5.152201334635416
 30
0.0
  0
HATCH
  5
BD
330
7F
100
AcDbEntity
  8
Layer 1
 62
   250
420
  2301728
440
 33554687
100
AcDbHatch
 10
0.0
 20
0.0
 30
0.0
210
0.0
220
0.0
230
1.0
  2
SOLID
 70
     1
 71
     1
 91
        8
 92
        1
 93
        1
 72
     4
 94
        3
 73
     0
 74
     0
 95
       29
 96
       25
 40
0.0
 40
0.0
 40
0.0
 40
0.0
 40
1.0
 40
1.0
 40
1.0
 40
2.0
 40
2.0
 40
2.0
 40
3.0
 40
3.0
 40
3.0
 40
4.0
 40
4.0
 40
4.0
 40
5.0
 40
5.0
 40
5.0
 40
6.0
 40
6.0
 40
6.0
 40
7.0
 40
7.0
 40
7.0
 40
8.0
 40
8.0
 40
8.0
 40
8.0
 10
6.033799492345249
 20
-5.158921983506943
 10
5.983647778059952
 20
-5.13453004381069
 10
6.013555587741493
 20
-5.207224585484216
 10
6.00628680313649
 20
-5.234701724488306
 10
6.029793519089126
 20
-5.246553434557868
 10
6.07299654045255
 20
-5.295607061786603
 10
6.020045297861391
 20
-5.280233844243525
 10
5.989954001184236
 20
-5.276089998189402
 10
6.01204849794183
 20
-5.319935378335306
 10
6.006287790427045
 20
-5.337367195193437
 10
6.016120921715455
 20
-5.335589431376736
 10
6.03432669367367
 20
-5.342833955237488
 10
6.022649841841004
 20
-5.353868896770904
 10
5.988578450771379
 20
-5.373944133298575
 10
5.981146943306637
 20
-5.336867439323529
 10
5.985534541798894
 20
-5.310170902696793
 10
5.98552875358953
 20
-5.270013518264691
 10
5.985526536937514
 20
-5.226587644329874
 10
5.985527468255567
 20
-5.186428480555832
 10
5.985468492327021
 20
-5.130149649941459
 10
5.97756794684455
 20
-5.130005042545942
 10
6.033801164365891
 20
-5.138463278932994
 10
6.044824627653396
 20
-5.135036351824358
 10
6.04246392299064
 20
-5.159727422661135
 10
6.033799492345249
 20
-5.158921983506943
 97
        0
 97
        1
330
B5
 92
        1
 93
        1
 72
     4
 94
        3
 73
     0
 74
     0
 95
       11
 96
        7
 40
0.0
 40
0.0
 40
0.0
 40
0.0
 40
1.0
 40
1.0
 40
1.0
 40
2.0
 40
2.0
 40
2.0
 40
2.0
 10
5.951293524463304
 20
-5.234700520833333
 10
5.947778513957978
 20
-5.234772102780109
 10
5.941804147926404
 20
-5.236720034016975
 10
5.941527299138416
 20
-5.240356065547871
 10
5.944796761555456
 20
-5.243605778629507
 10
5.95184854989015
 20
-5.239531664901088
 10
5.951293524463304
 20
-5.234700520833333
 97
        0
 97
        1
330
B6
 92
        1
 93
        1
 72
     4
 94
        3
 73
     0
 74
     0
 95
       17
 96
       13
 40
0.0
 40
0.0
 40
0.0
 40
0.0
 40
1.0
 40
1.0
 40
1.0
 40
2.0
 40
2.0
 40
2.0
 40
3.0
 40
3.0
 40
3.0
 40
4.0
 40
4.0
 40
4.0
 40
4.0
 10
5.903021497553582
 20
-5.255174424913193
 10
5.900095789746526
 20
-5.229308231524555
 10
5.93967134322909
 20
-5.226344912178281
 10
5.95129212396081
 20
-5.206894856625543
 10
5.953407250183393
 20
-5.190121493463745
 10
5.940821433215407
 20
-5.1147025847779
 10
5.972075409946834
 20
-5.14517063947926
 10
5.967252506016444
 20
-5.179826338410824
 10
5.982376663079321
 20
-5.23370793304035
 10
5.965056560106252
 20
-5.26189711748437
 10
5.947519622631816
 20
-5.258948872437763
 10
5.915838027084721
 20
-5.269215638446653
 10
5.903021497553582
 20
-5.255174424913193
 97
        0
 97
        1
330
B7
 92
        1
 93
        1
 72
     4
 94
        3
 73
     0
 74
     0
 95
       11
 96
        7
 40
0.0
 40
0.0
 40
0.0
 40
0.0
 40
1.0
 40
1.0
 40
1.0
 40
2.0
 40
2.0
 40
2.0
 40
2.0
 10
5.930826402067471
 20
-5.33736843532986
 10
5.962529323063259
 20
-5.327152670574112
 10
5.95534625379264
 20
-5.282413220106225
 10
5.91706960063872
 20
-5.289704742019933
 10
5.892481423305676
 20
-5.31060815272052
 10
5.88753437412538
 20
-5.345546362170794
 10
5.930826402067471
 20
-5.33736843532986
 97
        0
 97
        1
330
B8
 92
        1
 93
        1
 72
     4
 94
        3
 73
     0
 74
     0
 95
       11
 96
        7
 40
0.0
 40
0.0
 40
0.0
 40
0.0
 40
1.0
 40
1.0
 40
1.0
 40
2.0
 40
2.0
 40
2.0
 40
2.0
 10
5.875826944602193
 20
-5.227674696180555
 10
5.894515939214266
 20
-5.224339989114342
 10
5.892761569441189
 20
-5.2553799677062
 10
5.875826165177613
 20
-5.25517449146514
 10
5.84860076148109
 20
-5.257629076381514
 10
5.848815873569517
 20
-5.221690829137615
 10
5.875826944602193
 20
-5.227674696180555
 97
        0
 97
        1
330
B9
 92
        1
 93
        1
 72
     4
 94
        3
 73
     0
 74
     0
 95
       11
 96
        7
 40
0.0
 40
0.0
 40
0.0
 40
0.0
 40
1.0
 40
1.0
 40
1.0
 40
2.0
 40
2.0
 40
2.0
 40
2.0
 10
5.875826944602193
 20
-5.179701063368055
 10
5.928669131010918
 20
-5.167420961550659
 10
5.890575377038885
 20
-5.157477275009025
 10
5.862844425566915
 20
-5.153746782974015
 10
5.844538674596454
 20
-5.151778464305089
 10
5.859867205851312
 20
-5.184957266634139
 10
5.875826944602193
 20
-5.179701063368055
 97
        0
 97
        1
330
BA
 92
        1
 93
        1
 72
     4
 94
        3
 73
     0
 74
     0
 95
       23
 96
       19
 40
0.0
 40
0.0
 40
0.0
 40
0.0
 40
1.0
 40
1.0
 40
1.0
 40
2.0
 40
2.0
 40
2.0
 40
3.0
 40
3.0
 40
3.0
 40
4.0
 40
4.0
 40
4.0
 40
5.0
 40
5.0
 40
5.0
 40
6.0
 40
6.0
 40
6.0
 40
6.0
 10
5.923800577414693
 20
-5.268927680121527
 10
5.960954356209614
 20
-5.268575766036532
 10
5.98559391117793
 20
-5.305605144651242
 10
5.967797861966547
 20
-5.340125553006765
 10
5.929252063724889
 20
-5.377029747383832
 10
5.845010527241103
 20
-5.3483823962016
 10
5.889268242345249
 20
-5.296427408854166
 10
5.870996662897292
 20
-5.286972187165158
 10
5.831228538210072
 20
-5.310301473587817
 10
5.820974932321101
 20
-5.286955754041374
 10
5.819561945542418
 20
-5.274325451974593
 10
5.82066232157351
 20
-5.25836287217746
 10
5.827559322650889
 20
-5.2481505313279
 10
5.821011419366186
 20
-5.232247189910695
 10
5.811157166719895
 20
-5.179922751500359
 10
5.843903693597692
 20
-5.197573497976261
 10
5.865198319956308
 20
-5.304489251103783
 10
5.790528530262841
 20
-5.274872605648649
 10
5.923800577414693
 20
-5.268927680121527
 97
        0
 97
        1
330
BB
 92
        1
 93
        1
 72
     4
 94
        3
 73
     0
 74
     0
 95
       17
 96
       13
 40
0.0
 40
0.0
 40
0.0
 40
0.0
 40
1.0
 40
1.0
 40
1.0
 40
2.0
 40
2.0
 40
2.0
 40
3.0
 40
3.0
 40
3.0
 40
4.0
 40
4.0
 40
4.0
 40
4.0
 10
5.930826402067471
 20
-5.152201334635416
 10
5.909623119558722
 20
-5.176059709700211
 10
5.882429345978303
 20
-5.233176387075622
 10
5.85505006028019
 20
-5.186424195093068
 10
5.847561848291004
 20
-5.180318036966607
 10
5.845834781360078
 20
-5.17466731819243
 10
5.841606786867183
 20
-5.165649224349231
 10
5.836775210503977
 20
-5.157143325744287
 10
5.809593075653386
 20
-5.147903044434466
 10
5.827555303115281
 20
-5.139371849837389
 10
5.84545272540764
 20
-5.142007523313597
 10
5.939400324264422
 20
-5.125818184969362
 10
5.930826402067471
 20
-5.152201334635416
 97
        0
 97
        1
330
BC
 75
     2
 76
     1
 98
        1
 10
0.0
 20
0.0
450
        0
451
        0
460
0.0
461
0.0
452
        0
462
0.0
453
        0
470

  0
SPLINE
  5
BE
330
7F
100
AcDbEntity
  8
Layer 1
100
AcDbSpline
210
0.0
220
0.0
230
1.0
 70
     9
 71
     3
 72
    17
 73
    13
 74
     0
 42
0.0000000001
 43
0.0000000001
 40
0.0
 40
0.0
 40
0.0
 40
0.0
 40
1.0
 40
1.0
 40
1.0
 40
2.0
 40
2.0
 40
2.0
 40
3.0
 40
3.0
 40
3.0
 40
4.0
 40
4.0
 40
4.0
 40
4.0
 10
5.947333020991082
 20
-5.509657118055555
 30
0.0
 10
5.946599552479028
 20
-5.518545849169059
 30
0.0
 10
5.938894190408896
 20
-5.526434595753597
 30
0.0
 10
5.940607797640167
 20
-5.535929741823186
 30
0.0
 10
6.075959475277866
 20
-5.534659446461065
 30
0.0
 10
5.910551237590046
 20
-5.631250939052026
 30
0.0
 10
5.914334331645553
 20
-5.535924492938041
 30
0.0
 10
5.920161447371229
 20
-5.536669872918133
 30
0.0
 10
5.92191911185086
 20
-5.535469891732216
 30
0.0
 10
5.921046192017759
 20
-5.529512828333559
 30
0.0
 10
5.917924733338925
 20
-5.435242638670589
 30
0.0
 10
6.072337836721644
 20
-5.541301934755438
 30
0.0
 10
5.947333020991082
 20
-5.509657118055555
 30
0.0
  0
SPLINE
  5
BF
330
7F
100
AcDbEntity
  8
Layer 1
100
AcDbSpline
210
0.0
220
0.0
230
1.0
 70
     9
 71
     3
 72
    32
 73
    28
 74
     0
 42
0.0000000001
 43
0.0000000001
 40
0.0
 40
0.0
 40
0.0
 40
0.0
 40
1.0
 40
1.0
 40
1.0
 40
2.0
 40
2.0
 40
2.0
 40
3.0
 40
3.0
 40
3.0
 40
4.0
 40
4.0
 40
4.0
 40
5.0
 40
5.0
 40
5.0
 40
6.0
 40
6.0
 40
6.0
 40
7.0
 40
7.0
 40
7.0
 40
8.0
 40
8.0
 40
8.0
 40
9.0
 40
9.0
 40
9.0
 40
9.0
 10
6.027424709359138
 20
-5.456488715277777
 30
0.0
 10
6.059128378794891
 20
-5.467570154211797
 30
0.0
 10
6.03809540414199
 20
-5.505083967364852
 30
0.0
 10
6.040823951850748
 20
-5.529661359022434
 30
0.0
 10
6.038320017977588
 20
-5.548094525595211
 30
0.0
 10
6.047259577498127
 20
-5.574131345541672
 30
0.0
 10
6.034114809621769
 20
-5.589437279584065
 30
0.0
 10
6.017268883461509
 20
-5.597501723426502
 30
0.0
 10
5.98970371009121
 20
-5.611675611106142
 30
0.0
 10
5.974216369993655
 20
-5.596129762529017
 30
0.0
 10
6.064224337040362
 20
-5.551121361655885
 30
0.0
 10
5.993560830314562
 20
-5.564704061021908
 30
0.0
 10
6.021873519531582
 20
-5.491315366528131
 30
0.0
 10
6.03062382935218
 20
-5.457330236345291
 30
0.0
 10
5.966824485227258
 20
-5.483712084958534
 30
0.0
 10
5.947337429612212
 20
-5.476336880143839
 30
0.0
 10
5.908953035430309
 20
-5.483517597718028
 30
0.0
 10
5.91335606466896
 20
-5.458148429037375
 30
0.0
 10
5.914337447574603
 20
-5.429588104501489
 30
0.0
 10
5.914634318695258
 20
-5.412496289241301
 30
0.0
 10
5.940832211439404
 20
-5.412231315771451
 30
0.0
 10
5.940917551791421
 20
-5.429702781514454
 30
0.0
 10
5.936520937211323
 20
-5.441563141271735
 30
0.0
 10
5.930688191252884
 20
-5.460416851172011
 30
0.0
 10
5.950958475203403
 20
-5.458932076107215
 30
0.0
 10
5.973725247770744
 20
-5.453313879131301
 30
0.0
 10
6.004029010863202
 20
-5.457893915393936
 30
0.0
 10
6.027424709359138
 20
-5.456488715277777
 30
0.0
  0
SPLINE
  5
C0
330
7F
100
AcDbEntity
  8
Layer 1
100
AcDbSpline
210
0.0
220
0.0
230
1.0
 70
     9
 71
     3
 72
    35
 73
    31
 74
     0
 42
0.0000000001
 43
0.0000000001
 40
0.0
 40
0.0
 40
0.0
 40
0.0
 40
1.0
 40
1.0
 40
1.0
 40
2.0
 40
2.0
 40
2.0
 40
3.0
 40
3.0
 40
3.0
 40
4.0
 40
4.0
 40
4.0
 40
5.0
 40
5.0
 40
5.0
 40
6.0
 40
6.0
 40
6.0
 40
7.0
 40
7.0
 40
7.0
 40
8.0
 40
8.0
 40
8.0
 40
9.0
 40
9.0
 40
9.0
 40
10.0
 40
10.0
 40
10.0
 40
10.0
 10
6.027384019254971
 20
-5.609564887152777
 30
0.0
 10
6.048228432209397
 20
-5.6043776453533
 30
0.0
 10
6.044877708233039
 20
-5.643167453220408
 30
0.0
 10
6.027385313488189
 20
-5.642877303545345
 30
0.0
 10
5.98908814868749
 20
-5.642875844112469
 30
0.0
 10
5.945913336711226
 20
-5.642877005624945
 30
0.0
 10
5.907605886511671
 20
-5.642876517619545
 30
0.0
 10
5.857199474919398
 20
-5.635997149559115
 30
0.0
 10
5.817601389835923
 20
-5.669071567915377
 30
0.0
 10
5.827559675696698
 20
-5.596126224610442
 30
0.0
 10
5.847712022619917
 20
-5.572480575865433
 30
0.0
 10
5.844479395918597
 20
-5.612041003840886
 30
0.0
 10
5.84740056249671
 20
-5.623018188506547
 30
0.0
 10
5.868749091772719
 20
-5.634413258393402
 30
0.0
 10
5.882106785501567
 20
-5.626207310302586
 30
0.0
 10
5.885138145520891
 20
-5.607039533644839
 30
0.0
 10
5.902114643664313
 20
-5.592336255963598
 30
0.0
 10
5.897593454905341
 20
-5.617020139006677
 30
0.0
 10
5.907604215495388
 20
-5.6230209247135
 30
0.0
 10
5.921110731266884
 20
-5.619824244480796
 30
0.0
 10
5.953983288805829
 20
-5.632891550370181
 30
0.0
 10
5.947330620751194
 20
-5.609676182307086
 30
0.0
 10
5.95567792289186
 20
-5.59268612708206
 30
0.0
 10
5.972926616148722
 20
-5.606512235739298
 30
0.0
 10
5.967183116703507
 20
-5.623019425798272
 30
0.0
 10
5.981223354252758
 20
-5.629171663975133
 30
0.0
 10
5.998794502417644
 20
-5.620105867795422
 30
0.0
 10
6.01424137325595
 20
-5.623023814879514
 30
0.0
 10
6.019007871241632
 20
-5.618844129659034
 30
0.0
 10
6.010434445917249
 20
-5.606503577448948
 30
0.0
 10
6.027384019254971
 20
-5.609564887152777
 30
0.0
  0
SPLINE
  5
C1
330
7F
100
AcDbEntity
  8
Layer 1
100
AcDbSpline
210
0.0
220
0.0
230
1.0
 70
     9
 71
     3
 72
    44
 73
    40
 74
     0
 42
0.0000000001
 43
0.0000000001
 40
0.0
 40
0.0
 40
0.0
 40
0.0
 40
1.0
 40
1.0
 40
1.0
 40
2.0
 40
2.0
 40
2.0
 40
3.0
 40
3.0
 40
3.0
 40
4.0
 40
4.0
 40
4.0
 40
5.0
 40
5.0
 40
5.0
 40
6.0
 40
6.0
 40
6.0
 40
7.0
 40
7.0
 40
7.0
 40
8.0
 40
8.0
 40
8.0
 40
9.0
 40
9.0
 40
9.0
 40
10.0
 40
10.0
 40
10.0
 40
11.0
 40
11.0
 40
11.0
 40
12.0
 40
12.0
 40
12.0
 40
13.0
 40
13.0
 40
13.0
 40
13.0
 10
5.881021714567471
 20
-5.556098090277777
 30
0.0
 10
5.868345407215049
 20
-5.542129724499798
 30
0.0
 10
5.850375880487237
 20
-5.556036760196396
 30
0.0
 10
5.834269577000895
 20
-5.549366356965947
 30
0.0
 10
5.791612480651514
 20
-5.536258373408801
 30
0.0
 10
5.866632231547454
 20
-5.532038376066944
 30
0.0
 10
5.879647387251629
 20
-5.538691912494591
 30
0.0
 10
5.90467632209796
 20
-5.534705986970366
 30
0.0
 10
5.878487722648515
 20
-5.505083526400022
 30
0.0
 10
5.882091761598985
 20
-5.492080128489785
 30
0.0
 10
5.894027277730907
 20
-5.480193452743908
 30
0.0
 10
5.882180354560128
 20
-5.469816166875678
 30
0.0
 10
5.881017836992541
 20
-5.456488954834942
 30
0.0
 10
5.882452961831429
 20
-5.448657269136851
 30
0.0
 10
5.897782563876767
 20
-5.437518784344117
 30
0.0
 10
5.882701743831072
 20
-5.433565815301435
 30
0.0
 10
5.870759376107065
 20
-5.43489767302463
 30
0.0
 10
5.853326329870342
 20
-5.437441959775721
 30
0.0
 10
5.840683960736896
 20
-5.436317630949448
 30
0.0
 10
5.840348965904872
 20
-5.442982641126554
 30
0.0
 10
5.842525702836685
 20
-5.453764355718387
 30
0.0
 10
5.836628941853001
 20
-5.458780834529016
 30
0.0
 10
5.819313998486247
 20
-5.476476464049874
 30
0.0
 10
5.813568410572896
 20
-5.42405335622824
 30
0.0
 10
5.827551816407018
 20
-5.422878391137626
 30
0.0
 10
5.839057860817598
 20
-5.423004948914504
 30
0.0
 10
5.8629406938235
 20
-5.422787688235201
 30
0.0
 10
5.874294311526151
 20
-5.422878965583688
 30
0.0
 10
5.896884487592033
 20
-5.420899197227046
 30
0.0
 10
5.913472102737184
 20
-5.422130905942114
 30
0.0
 10
5.907600016015749
 20
-5.449467243041541
 30
0.0
 10
5.907598807024087
 20
-5.467334271729226
 30
0.0
 10
5.907611040018688
 20
-5.491788753709859
 30
0.0
 10
5.907605900393794
 20
-5.509657158221582
 30
0.0
 10
5.904765228512612
 20
-5.535224028862103
 30
0.0
 10
5.913658380714145
 20
-5.568687027297047
 30
0.0
 10
5.903488466202512
 20
-5.592001227941005
 30
0.0
 10
5.877779522786972
 20
-5.610763739557619
 30
0.0
 10
5.88965718429151
 20
-5.558546770032863
 30
0.0
 10
5.881021714567471
 20
-5.556098090277777
 30
0.0
  0
HATCH
  5
C2
330
7F
100
AcDbEntity
  8
Layer 1
 62
   250
420
  2301728
440
 33554687
100
AcDbHatch
 10
0.0
 20
0.0
 30
0.0
210
0.0
220
0.0
230
1.0
  2
SOLID
 70
     1
 71
     1
 91
        4
 92
        1
 93
        1
 72
     4
 94
        3
 73
     0
 74
     0
 95
       17
 96
       13
 40
0.0
 40
0.0
 40
0.0
 40
0.0
 40
1.0
 40
1.0
 40
1.0
 40
2.0
 40
2.0
 40
2.0
 40
3.0
 40
3.0
 40
3.0
 40
4.0
 40
4.0
 40
4.0
 40
4.0
 10
5.947333020991082
 20
-5.509657118055555
 10
5.946599552479028
 20
-5.518545849169059
 10
5.938894190408896
 20
-5.526434595753597
 10
5.940607797640167
 20
-5.535929741823186
 10
6.075959475277866
 20
-5.534659446461065
 10
5.910551237590046
 20
-5.631250939052026
 10
5.914334331645553
 20
-5.535924492938041
 10
5.920161447371229
 20
-5.536669872918133
 10
5.92191911185086
 20
-5.535469891732216
 10
5.921046192017759
 20
-5.529512828333559
 10
5.917924733338925
 20
-5.435242638670589
 10
6.072337836721644
 20
-5.541301934755438
 10
5.947333020991082
 20
-5.509657118055555
 97
        0
 97
        1
330
BE
 92
        1
 93
        1
 72
     4
 94
        3
 73
     0
 74
     0
 95
       32
 96
       28
 40
0.0
 40
0.0
 40
0.0
 40
0.0
 40
1.0
 40
1.0
 40
1.0
 40
2.0
 40
2.0
 40
2.0
 40
3.0
 40
3.0
 40
3.0
 40
4.0
 40
4.0
 40
4.0
 40
5.0
 40
5.0
 40
5.0
 40
6.0
 40
6.0
 40
6.0
 40
7.0
 40
7.0
 40
7.0
 40
8.0
 40
8.0
 40
8.0
 40
9.0
 40
9.0
 40
9.0
 40
9.0
 10
6.027424709359138
 20
-5.456488715277777
 10
6.059128378794891
 20
-5.467570154211797
 10
6.03809540414199
 20
-5.505083967364852
 10
6.040823951850748
 20
-5.529661359022434
 10
6.038320017977588
 20
-5.548094525595211
 10
6.047259577498127
 20
-5.574131345541672
 10
6.034114809621769
 20
-5.589437279584065
 10
6.017268883461509
 20
-5.597501723426502
 10
5.98970371009121
 20
-5.611675611106142
 10
5.974216369993655
 20
-5.596129762529017
 10
6.064224337040362
 20
-5.551121361655885
 10
5.993560830314562
 20
-5.564704061021908
 10
6.021873519531582
 20
-5.491315366528131
 10
6.03062382935218
 20
-5.457330236345291
 10
5.966824485227258
 20
-5.483712084958534
 10
5.947337429612212
 20
-5.476336880143839
 10
5.908953035430309
 20
-5.483517597718028
 10
5.91335606466896
 20
-5.458148429037375
 10
5.914337447574603
 20
-5.429588104501489
 10
5.914634318695258
 20
-5.412496289241301
 10
5.940832211439404
 20
-5.412231315771451
 10
5.940917551791421
 20
-5.429702781514454
 10
5.936520937211323
 20
-5.441563141271735
 10
5.930688191252884
 20
-5.460416851172011
 10
5.950958475203403
 20
-5.458932076107215
 10
5.973725247770744
 20
-5.453313879131301
 10
6.004029010863202
 20
-5.457893915393936
 10
6.027424709359138
 20
-5.456488715277777
 97
        0
 97
        1
330
BF
 92
        1
 93
        1
 72
     4
 94
        3
 73
     0
 74
     0
 95
       35
 96
       31
 40
0.0
 40
0.0
 40
0.0
 40
0.0
 40
1.0
 40
1.0
 40
1.0
 40
2.0
 40
2.0
 40
2.0
 40
3.0
 40
3.0
 40
3.0
 40
4.0
 40
4.0
 40
4.0
 40
5.0
 40
5.0
 40
5.0
 40
6.0
 40
6.0
 40
6.0
 40
7.0
 40
7.0
 40
7.0
 40
8.0
 40
8.0
 40
8.0
 40
9.0
 40
9.0
 40
9.0
 40
10.0
 40
10.0
 40
10.0
 40
10.0
 10
6.027384019254971
 20
-5.609564887152777
 10
6.048228432209397
 20
-5.6043776453533
 10
6.044877708233039
 20
-5.643167453220408
 10
6.027385313488189
 20
-5.642877303545345
 10
5.98908814868749
 20
-5.642875844112469
 10
5.945913336711226
 20
-5.642877005624945
 10
5.907605886511671
 20
-5.642876517619545
 10
5.857199474919398
 20
-5.635997149559115
 10
5.817601389835923
 20
-5.669071567915377
 10
5.827559675696698
 20
-5.596126224610442
 10
5.847712022619917
 20
-5.572480575865433
 10
5.844479395918597
 20
-5.612041003840886
 10
5.84740056249671
 20
-5.623018188506547
 10
5.868749091772719
 20
-5.634413258393402
 10
5.882106785501567
 20
-5.626207310302586
 10
5.885138145520891
 20
-5.607039533644839
 10
5.902114643664313
 20
-5.592336255963598
 10
5.897593454905341
 20
-5.617020139006677
 10
5.907604215495388
 20
-5.6230209247135
 10
5.921110731266884
 20
-5.619824244480796
 10
5.953983288805829
 20
-5.632891550370181
 10
5.947330620751194
 20
-5.609676182307086
 10
5.95567792289186
 20
-5.59268612708206
 10
5.972926616148722
 20
-5.606512235739298
 10
5.967183116703507
 20
-5.623019425798272
 10
5.981223354252758
 20
-5.629171663975133
 10
5.998794502417644
 20
-5.620105867795422
 10
6.01424137325595
 20
-5.623023814879514
 10
6.019007871241632
 20
-5.618844129659034
 10
6.010434445917249
 20
-5.606503577448948
 10
6.027384019254971
 20
-5.609564887152777
 97
        0
 97
        1
330
C0
 92
        1
 93
        1
 72
     4
 94
        3
 73
     0
 74
     0
 95
       44
 96
       40
 40
0.0
 40
0.0
 40
0.0
 40
0.0
 40
1.0
 40
1.0
 40
1.0
 40
2.0
 40
2.0
 40
2.0
 40
3.0
 40
3.0
 40
3.0
 40
4.0
 40
4.0
 40
4.0
 40
5.0
 40
5.0
 40
5.0
 40
6.0
 40
6.0
 40
6.0
 40
7.0
 40
7.0
 40
7.0
 40
8.0
 40
8.0
 40
8.0
 40
9.0
 40
9.0
 40
9.0
 40
10.0
 40
10.0
 40
10.0
 40
11.0
 40
11.0
 40
11.0
 40
12.0
 40
12.0
 40
12.0
 40
13.0
 40
13.0
 40
13.0
 40
13.0
 10
5.881021714567471
 20
-5.556098090277777
 10
5.868345407215049
 20
-5.542129724499798
 10
5.850375880487237
 20
-5.556036760196396
 10
5.834269577000895
 20
-5.549366356965947
 10
5.791612480651514
 20
-5.536258373408801
 10
5.866632231547454
 20
-5.532038376066944
 10
5.879647387251629
 20
-5.538691912494591
 10
5.90467632209796
 20
-5.534705986970366
 10
5.878487722648515
 20
-5.505083526400022
 10
5.882091761598985
 20
-5.492080128489785
 10
5.894027277730907
 20
-5.480193452743908
 10
5.882180354560128
 20
-5.469816166875678
 10
5.881017836992541
 20
-5.456488954834942
 10
5.882452961831429
 20
-5.448657269136851
 10
5.897782563876767
 20
-5.437518784344117
 10
5.882701743831072
 20
-5.433565815301435
 10
5.870759376107065
 20
-5.43489767302463
 10
5.853326329870342
 20
-5.437441959775721
 10
5.840683960736896
 20
-5.436317630949448
 10
5.840348965904872
 20
-5.442982641126554
 10
5.842525702836685
 20
-5.453764355718387
 10
5.836628941853001
 20
-5.458780834529016
 10
5.819313998486247
 20
-5.476476464049874
 10
5.813568410572896
 20
-5.42405335622824
 10
5.827551816407018
 20
-5.422878391137626
 10
5.839057860817598
 20
-5.423004948914504
 10
5.8629406938235
 20
-5.422787688235201
 10
5.874294311526151
 20
-5.422878965583688
 10
5.896884487592033
 20
-5.420899197227046
 10
5.913472102737184
 20
-5.422130905942114
 10
5.907600016015749
 20
-5.449467243041541
 10
5.907598807024087
 20
-5.467334271729226
 10
5.907611040018688
 20
-5.491788753709859
 10
5.907605900393794
 20
-5.509657158221582
 10
5.904765228512612
 20
-5.535224028862103
 10
5.913658380714145
 20
-5.568687027297047
 10
5.903488466202512
 20
-5.592001227941005
 10
5.877779522786972
 20
-5.610763739557619
 10
5.88965718429151
 20
-5.558546770032863
 10
5.881021714567471
 20
-5.556098090277777
 97
        0
 97
        1
330
C1
 75
     2
 76
     1
 98
        1
 10
0.0
 20
0.0
450
        0
451
        0
460
0.0
461
0.0
452
        0
462
0.0
453
        0
470

  0
SPLINE
  5
C3
330
7F
100
AcDbEntity
  8
Layer 1
100
AcDbSpline
210
0.0
220
0.0
230
1.0
 70
     9
 71
     3
 72
    26
 73
    22
 74
     0
 42
0.0000000001
 43
0.0000000001
 40
0.0
 40
0.0
 40
0.0
 40
0.0
 40
1.0
 40
1.0
 40
1.0
 40
2.0
 40
2.0
 40
2.0
 40
3.0
 40
3.0
 40
3.0
 40
4.0
 40
4.0
 40
4.0
 40
5.0
 40
5.0
 40
5.0
 40
6.0
 40
6.0
 40
6.0
 40
7.0
 40
7.0
 40
7.0
 40
7.0
 10
6.034111449810526
 20
-5.700873480902777
 30
0.0
 10
6.045725480037693
 20
-5.709703720788032
 30
0.0
 10
6.046901192674996
 20
-5.738513394067669
 30
0.0
 10
6.047558657201483
 20
-5.754350522049031
 30
0.0
 10
6.045139180101815
 20
-5.767294621480332
 30
0.0
 10
6.037944976729451
 20
-5.780297585759247
 30
0.0
 10
6.040830242026585
 20
-5.794380031114769
 30
0.0
 10
6.050986123003465
 20
-5.82053748676622
 30
0.0
 10
6.047009913177235
 20
-5.852581408736063
 30
0.0
 10
6.047551382045563
 20
-5.880846579766991
 30
0.0
 10
6.044903131642791
 20
-5.894933979028311
 30
0.0
 10
6.056480704275069
 20
-5.92716612713515
 30
0.0
 10
6.034112960541405
 20
-5.927598228272371
 30
0.0
 10
6.006893182929212
 20
-5.932054430308274
 30
0.0
 10
6.026596987295684
 20
-5.793043873628422
 30
0.0
 10
6.020960865094618
 20
-5.767796602693906
 30
0.0
 10
6.020402362071485
 20
-5.755652718544145
 30
0.0
 10
6.022148771829354
 20
-5.733038864927443
 30
0.0
 10
6.020210262597654
 20
-5.721503353593334
 30
0.0
 10
5.979377028323066
 20
-5.717790009697611
 30
0.0
 10
6.016087181749298
 20
-5.70579016069602
 30
0.0
 10
6.034111449810526
 20
-5.700873480902777
 30
0.0
  0
SPLINE
  5
C4
330
7F
100
AcDbEntity
  8
Layer 1
100
AcDbSpline
210
0.0
220
0.0
230
1.0
 70
     9
 71
     3
 72
    11
 73
     7
 74
     0
 42
0.0000000001
 43
0.0000000001
 40
0.0
 40
0.0
 40
0.0
 40
0.0
 40
1.0
 40
1.0
 40
1.0
 40
2.0
 40
2.0
 40
2.0
 40
2.0
 10
5.994072387310526
 20
-5.880845811631943
 30
0.0
 10
5.992206895188145
 20
-5.89277506545712
 30
0.0
 10
6.00204517272348
 20
-5.938276844642384
 30
0.0
 10
5.978189838619906
 20
-5.924236875100202
 30
0.0
 10
5.968522891581869
 20
-5.914784747386495
 30
0.0
 10
5.971282894526843
 20
-5.855573115292902
 30
0.0
 10
5.994072387310526
 20
-5.880845811631943
 30
0.0
  0
SPLINE
  5
C5
330
7F
100
AcDbEntity
  8
Layer 1
100
AcDbSpline
210
0.0
220
0.0
230
1.0
 70
     9
 71
     3
 72
    14
 73
    10
 74
     0
 42
0.0000000001
 43
0.0000000001
 40
0.0
 40
0.0
 40
0.0
 40
0.0
 40
1.0
 40
1.0
 40
1.0
 40
2.0
 40
2.0
 40
2.0
 40
3.0
 40
3.0
 40
3.0
 40
3.0
 10
5.994072387310526
 20
-5.714314778645833
 30
0.0
 10
5.994070992930826
 20
-5.75048757754156
 30
0.0
 10
5.994073392371117
 20
-5.791226869737682
 30
0.0
 10
5.994072384257984
 20
-5.827379025059195
 30
0.0
 10
5.968175203506285
 20
-5.856184460481497
 30
0.0
 10
5.974327875904413
 20
-5.795585643420659
 30
0.0
 10
5.974219254277664
 20
-5.780940334005562
 30
0.0
 10
5.977713949407491
 20
-5.764414722627407
 30
0.0
 10
5.961596262186503
 20
-5.689139365906208
 30
0.0
 10
5.994072387310526
 20
-5.714314778645833
 30
0.0
  0
SPLINE
  5
C6
330
7F
100
AcDbEntity
  8
Layer 1
100
AcDbSpline
210
0.0
220
0.0
230
1.0
 70
     9
 71
     3
 72
    11
 73
     7
 74
     0
 42
0.0000000001
 43
0.0000000001
 40
0.0
 40
0.0
 40
0.0
 40
0.0
 40
1.0
 40
1.0
 40
1.0
 40
2.0
 40
2.0
 40
2.0
 40
2.0
 10
5.93433931439386
 20
-5.727769639756943
 30
0.0
 10
5.951260007348133
 20
-5.727999894562824
 30
0.0
 10
5.951528771718281
 20
-5.754256482168734
 30
0.0
 10
5.93433788650365
 20
-5.754353752986136
 30
0.0
 10
5.917152008131475
 20
-5.754251541351095
 30
0.0
 10
5.917418726442241
 20
-5.727998617166879
 30
0.0
 10
5.93433931439386
 20
-5.727769639756943
 30
0.0
  0
SPLINE
  5
C7
330
7F
100
AcDbEntity
  8
Layer 1
100
AcDbSpline
210
0.0
220
0.0
230
1.0
 70
     9
 71
     3
 72
    11
 73
     7
 74
     0
 42
0.0000000001
 43
0.0000000001
 40
0.0
 40
0.0
 40
0.0
 40
0.0
 40
1.0
 40
1.0
 40
1.0
 40
2.0
 40
2.0
 40
2.0
 40
2.0
 10
5.887749145123026
 20
-5.874131944444443
 30
0.0
 10
5.898420770054195
 20
-5.878026830390632
 30
0.0
 10
5.898406220050193
 20
-5.92367826911709
 30
0.0
 10
5.887759004393501
 20
-5.927599075744031
 30
0.0
 10
5.86760529981201
 20
-5.927021795330119
 30
0.0
 10
5.867602033777302
 20
-5.874715027662128
 30
0.0
 10
5.887749145123026
 20
-5.874131944444443
 30
0.0
  0
SPLINE
  5
C8
330
7F
100
AcDbEntity
  8
Layer 1
100
AcDbSpline
210
0.0
220
0.0
230
1.0
 70
     9
 71
     3
 72
    11
 73
     7
 74
     0
 42
0.0000000001
 43
0.0000000001
 40
0.0
 40
0.0
 40
0.0
 40
0.0
 40
1.0
 40
1.0
 40
1.0
 40
2.0
 40
2.0
 40
2.0
 40
2.0
 10
5.881021714567471
 20
-5.727769639756943
 30
0.0
 10
5.897761479138504
 20
-5.728041915955574
 30
0.0
 10
5.89803066474504
 20
-5.75421308691807
 30
0.0
 10
5.881020324697222
 20
-5.754353757517542
 30
0.0
 10
5.863684728540243
 20
-5.754190133914966
 30
0.0
 10
5.863954827488163
 20
-5.728062523202778
 30
0.0
 10
5.881021714567471
 20
-5.727769639756943
 30
0.0
  0
SPLINE
  5
C9
330
7F
100
AcDbEntity
  8
Layer 1
100
AcDbSpline
210
0.0
220
0.0
230
1.0
 70
     9
 71
     3
 72
    47
 73
    43
 74
     0
 42
0.0000000001
 43
0.0000000001
 40
0.0
 40
0.0
 40
0.0
 40
0.0
 40
1.0
 40
1.0
 40
1.0
 40
2.0
 40
2.0
 40
2.0
 40
3.0
 40
3.0
 40
3.0
 40
4.0
 40
4.0
 40
4.0
 40
5.0
 40
5.0
 40
5.0
 40
6.0
 40
6.0
 40
6.0
 40
7.0
 40
7.0
 40
7.0
 40
8.0
 40
8.0
 40
8.0
 40
9.0
 40
9.0
 40
9.0
 40
10.0
 40
10.0
 40
10.0
 40
11.0
 40
11.0
 40
11.0
 40
12.0
 40
12.0
 40
12.0
 40
13.0
 40
13.0
 40
13.0
 40
14.0
 40
14.0
 40
14.0
 40
14.0
 10
5.914536797032749
 20
-5.787651909722222
 30
0.0
 10
5.834590884600831
 20
-5.78282653715165
 30
0.0
 10
5.849250431510855
 20
-5.754762741718473
 30
0.0
 10
5.844666031527467
 20
-5.842508882127023
 30
0.0
 10
5.853644067208001
 20
-5.861506221022282
 30
0.0
 10
5.879244405547473
 20
-5.840245861451472
 30
0.0
 10
5.894298806059774
 20
-5.840822564636002
 30
0.0
 10
5.907942909152779
 20
-5.849635683038084
 30
0.0
 10
5.927895683861379
 20
-5.8468505995522
 30
0.0
 10
5.943644951661351
 20
-5.848304196925078
 30
0.0
 10
5.950783649222961
 20
-5.85814542646901
 30
0.0
 10
5.953822196389688
 20
-5.899634653533667
 30
0.0
 10
5.934495327078466
 20
-5.901014591272137
 30
0.0
 10
5.917377746142139
 20
-5.893866264504443
 30
0.0
 10
5.942481551061316
 20
-5.858516851081705
 30
0.0
 10
5.911967372987519
 20
-5.859162922288381
 30
0.0
 10
5.891810724101611
 20
-5.871410752247962
 30
0.0
 10
5.836094636966486
 20
-5.851145122514834
 30
0.0
 10
5.846484926041335
 20
-5.885421252018608
 30
0.0
 10
5.850011797036712
 20
-5.897487284884264
 30
0.0
 10
5.848399680329344
 20
-5.941110098798516
 30
0.0
 10
5.828310872173763
 20
-5.923478213176647
 30
0.0
 10
5.826445425627651
 20
-5.902433815544958
 30
0.0
 10
5.828074731609174
 20
-5.875514605508315
 30
0.0
 10
5.827553980563278
 20
-5.854261614632478
 30
0.0
 10
5.828811711353737
 20
-5.834062963825847
 30
0.0
 10
5.827632073168463
 20
-5.812874039432244
 30
0.0
 10
5.820822532763359
 20
-5.794380551467004
 30
0.0
 10
5.827087122713337
 20
-5.783538074492398
 30
0.0
 10
5.828819023841131
 20
-5.767482219011021
 30
0.0
 10
5.827551427303458
 20
-5.754352492447726
 30
0.0
 10
5.830220614343058
 20
-5.74224136785051
 30
0.0
 10
5.817944262504296
 20
-5.695527212980904
 30
0.0
 10
5.843138063793907
 20
-5.710963084850264
 30
0.0
 10
5.859714451175628
 20
-5.719765677386829
 30
0.0
 10
5.828821652821337
 20
-5.777617148132549
 30
0.0
 10
5.857677623118458
 20
-5.766876746085168
 30
0.0
 10
5.874325109342685
 20
-5.752463759993992
 30
0.0
 10
5.898382520135428
 20
-5.776023097566419
 30
0.0
 10
5.918673716062029
 20
-5.766717869257869
 30
0.0
 10
5.956721876791107
 20
-5.744601852734831
 30
0.0
 10
5.954263771842028
 20
-5.800808613314554
 30
0.0
 10
5.914536797032749
 20
-5.787651909722222
 30
0.0
  0
HATCH
  5
CA
330
7F
100
AcDbEntity
  8
Layer 1
 62
   250
420
  2301728
440
 33554687
100
AcDbHatch
 10
0.0
 20
0.0
 30
0.0
210
0.0
220
0.0
230
1.0
  2
SOLID
 70
     1
 71
     1
 91
        7
 92
        1
 93
        1
 72
     4
 94
        3
 73
     0
 74
     0
 95
       26
 96
       22
 40
0.0
 40
0.0
 40
0.0
 40
0.0
 40
1.0
 40
1.0
 40
1.0
 40
2.0
 40
2.0
 40
2.0
 40
3.0
 40
3.0
 40
3.0
 40
4.0
 40
4.0
 40
4.0
 40
5.0
 40
5.0
 40
5.0
 40
6.0
 40
6.0
 40
6.0
 40
7.0
 40
7.0
 40
7.0
 40
7.0
 10
6.034111449810526
 20
-5.700873480902777
 10
6.045725480037693
 20
-5.709703720788032
 10
6.046901192674996
 20
-5.738513394067669
 10
6.047558657201483
 20
-5.754350522049031
 10
6.045139180101815
 20
-5.767294621480332
 10
6.037944976729451
 20
-5.780297585759247
 10
6.040830242026585
 20
-5.794380031114769
 10
6.050986123003465
 20
-5.82053748676622
 10
6.047009913177235
 20
-5.852581408736063
 10
6.047551382045563
 20
-5.880846579766991
 10
6.044903131642791
 20
-5.894933979028311
 10
6.056480704275069
 20
-5.92716612713515
 10
6.034112960541405
 20
-5.927598228272371
 10
6.006893182929212
 20
-5.932054430308274
 10
6.026596987295684
 20
-5.793043873628422
 10
6.020960865094618
 20
-5.767796602693906
 10
6.020402362071485
 20
-5.755652718544145
 10
6.022148771829354
 20
-5.733038864927443
 10
6.020210262597654
 20
-5.721503353593334
 10
5.979377028323066
 20
-5.717790009697611
 10
6.016087181749298
 20
-5.70579016069602
 10
6.034111449810526
 20
-5.700873480902777
 97
        0
 97
        1
330
C3
 92
        1
 93
        1
 72
     4
 94
        3
 73
     0
 74
     0
 95
       11
 96
        7
 40
0.0
 40
0.0
 40
0.0
 40
0.0
 40
1.0
 40
1.0
 40
1.0
 40
2.0
 40
2.0
 40
2.0
 40
2.0
 10
5.994072387310526
 20
-5.880845811631943
 10
5.992206895188145
 20
-5.89277506545712
 10
6.00204517272348
 20
-5.938276844642384
 10
5.978189838619906
 20
-5.924236875100202
 10
5.968522891581869
 20
-5.914784747386495
 10
5.971282894526843
 20
-5.855573115292902
 10
5.994072387310526
 20
-5.880845811631943
 97
        0
 97
        1
330
C4
 92
        1
 93
        1
 72
     4
 94
        3
 73
     0
 74
     0
 95
       14
 96
       10
 40
0.0
 40
0.0
 40
0.0
 40
0.0
 40
1.0
 40
1.0
 40
1.0
 40
2.0
 40
2.0
 40
2.0
 40
3.0
 40
3.0
 40
3.0
 40
3.0
 10
5.994072387310526
 20
-5.714314778645833
 10
5.994070992930826
 20
-5.75048757754156
 10
5.994073392371117
 20
-5.791226869737682
 10
5.994072384257984
 20
-5.827379025059195
 10
5.968175203506285
 20
-5.856184460481497
 10
5.974327875904413
 20
-5.795585643420659
 10
5.974219254277664
 20
-5.780940334005562
 10
5.977713949407491
 20
-5.764414722627407
 10
5.961596262186503
 20
-5.689139365906208
 10
5.994072387310526
 20
-5.714314778645833
 97
        0
 97
        1
330
C5
 92
        1
 93
        1
 72
     4
 94
        3
 73
     0
 74
     0
 95
       11
 96
        7
 40
0.0
 40
0.0
 40
0.0
 40
0.0
 40
1.0
 40
1.0
 40
1.0
 40
2.0
 40
2.0
 40
2.0
 40
2.0
 10
5.93433931439386
 20
-5.727769639756943
 10
5.951260007348133
 20
-5.727999894562824
 10
5.951528771718281
 20
-5.754256482168734
 10
5.93433788650365
 20
-5.754353752986136
 10
5.917152008131475
 20
-5.754251541351095
 10
5.917418726442241
 20
-5.727998617166879
 10
5.93433931439386
 20
-5.727769639756943
 97
        0
 97
        1
330
C6
 92
        1
 93
        1
 72
     4
 94
        3
 73
     0
 74
     0
 95
       11
 96
        7
 40
0.0
 40
0.0
 40
0.0
 40
0.0
 40
1.0
 40
1.0
 40
1.0
 40
2.0
 40
2.0
 40
2.0
 40
2.0
 10
5.887749145123026
 20
-5.874131944444443
 10
5.898420770054195
 20
-5.878026830390632
 10
5.898406220050193
 20
-5.92367826911709
 10
5.887759004393501
 20
-5.927599075744031
 10
5.86760529981201
 20
-5.927021795330119
 10
5.867602033777302
 20
-5.874715027662128
 10
5.887749145123026
 20
-5.874131944444443
 97
        0
 97
        1
330
C7
 92
        1
 93
        1
 72
     4
 94
        3
 73
     0
 74
     0
 95
       11
 96
        7
 40
0.0
 40
0.0
 40
0.0
 40
0.0
 40
1.0
 40
1.0
 40
1.0
 40
2.0
 40
2.0
 40
2.0
 40
2.0
 10
5.881021714567471
 20
-5.727769639756943
 10
5.897761479138504
 20
-5.728041915955574
 10
5.89803066474504
 20
-5.75421308691807
 10
5.881020324697222
 20
-5.754353757517542
 10
5.863684728540243
 20
-5.754190133914966
 10
5.863954827488163
 20
-5.728062523202778
 10
5.881021714567471
 20
-5.727769639756943
 97
        0
 97
        1
330
C8
 92
        1
 93
        1
 72
     4
 94
        3
 73
     0
 74
     0
 95
       47
 96
       43
 40
0.0
 40
0.0
 40
0.0
 40
0.0
 40
1.0
 40
1.0
 40
1.0
 40
2.0
 40
2.0
 40
2.0
 40
3.0
 40
3.0
 40
3.0
 40
4.0
 40
4.0
 40
4.0
 40
5.0
 40
5.0
 40
5.0
 40
6.0
 40
6.0
 40
6.0
 40
7.0
 40
7.0
 40
7.0
 40
8.0
 40
8.0
 40
8.0
 40
9.0
 40
9.0
 40
9.0
 40
10.0
 40
10.0
 40
10.0
 40
11.0
 40
11.0
 40
11.0
 40
12.0
 40
12.0
 40
12.0
 40
13.0
 40
13.0
 40
13.0
 40
14.0
 40
14.0
 40
14.0
 40
14.0
 10
5.914536797032749
 20
-5.787651909722222
 10
5.834590884600831
 20
-5.78282653715165
 10
5.849250431510855
 20
-5.754762741718473
 10
5.844666031527467
 20
-5.842508882127023
 10
5.853644067208001
 20
-5.861506221022282
 10
5.879244405547473
 20
-5.840245861451472
 10
5.894298806059774
 20
-5.840822564636002
 10
5.907942909152779
 20
-5.849635683038084
 10
5.927895683861379
 20
-5.8468505995522
 10
5.943644951661351
 20
-5.848304196925078
 10
5.950783649222961
 20
-5.85814542646901
 10
5.953822196389688
 20
-5.899634653533667
 10
5.934495327078466
 20
-5.901014591272137
 10
5.917377746142139
 20
-5.893866264504443
 10
5.942481551061316
 20
-5.858516851081705
 10
5.911967372987519
 20
-5.859162922288381
 10
5.891810724101611
 20
-5.871410752247962
 10
5.836094636966486
 20
-5.851145122514834
 10
5.846484926041335
 20
-5.885421252018608
 10
5.850011797036712
 20
-5.897487284884264
 10
5.848399680329344
 20
-5.941110098798516
 10
5.828310872173763
 20
-5.923478213176647
 10
5.826445425627651
 20
-5.902433815544958
 10
5.828074731609174
 20
-5.875514605508315
 10
5.827553980563278
 20
-5.854261614632478
 10
5.828811711353737
 20
-5.834062963825847
 10
5.827632073168463
 20
-5.812874039432244
 10
5.820822532763359
 20
-5.794380551467004
 10
5.827087122713337
 20
-5.783538074492398
 10
5.828819023841131
 20
-5.767482219011021
 10
5.827551427303458
 20
-5.754352492447726
 10
5.830220614343058
 20
-5.74224136785051
 10
5.817944262504296
 20
-5.695527212980904
 10
5.843138063793907
 20
-5.710963084850264
 10
5.859714451175628
 20
-5.719765677386829
 10
5.828821652821337
 20
-5.777617148132549
 10
5.857677623118458
 20
-5.766876746085168
 10
5.874325109342685
 20
-5.752463759993992
 10
5.898382520135428
 20
-5.776023097566419
 10
5.918673716062029
 20
-5.766717869257869
 10
5.956721876791107
 20
-5.744601852734831
 10
5.954263771842028
 20
-5.800808613314554
 10
5.914536797032749
 20
-5.787651909722222
 97
        0
 97
        1
330
C9
 75
     2
 76
     1
 98
        1
 10
0.0
 20
0.0
450
        0
451
        0
460
0.0
461
0.0
452
        0
462
0.0
453
        0
470

  0
SPLINE
  5
CB
330
7F
100
AcDbEntity
  8
Layer 1
100
AcDbSpline
210
0.0
220
0.0
230
1.0
 70
     9
 71
     3
 72
    26
 73
    22
 74
     0
 42
0.0000000001
 43
0.0000000001
 40
0.0
 40
0.0
 40
0.0
 40
0.0
 40
1.0
 40
1.0
 40
1.0
 40
2.0
 40
2.0
 40
2.0
 40
3.0
 40
3.0
 40
3.0
 40
4.0
 40
4.0
 40
4.0
 40
5.0
 40
5.0
 40
5.0
 40
6.0
 40
6.0
 40
6.0
 40
7.0
 40
7.0
 40
7.0
 40
7.0
 10
5.993773993213304
 20
-6.192464192708333
 30
0.0
 10
6.033447927140362
 20
-6.207344635753088
 30
0.0
 10
6.022880806256933
 20
-6.163690161274467
 30
0.0
 10
6.020972084941427
 20
-6.138979908863372
 30
0.0
 10
6.012408613983375
 20
-6.134149129057075
 30
0.0
 10
5.982424436991221
 20
-6.145880427370356
 30
0.0
 10
5.998209137606029
 20
-6.123190665826869
 30
0.0
 10
6.013934247251275
 20
-6.115826307376336
 30
0.0
 10
6.029762473828364
 20
-6.126572407067997
 30
0.0
 10
6.020962156808814
 20
-6.099195721614326
 30
0.0
 10
6.021489841200996
 20
-6.075412209255899
 30
0.0
 10
6.019036216568742
 20
-6.047136912724125
 30
0.0
 10
6.023722284554852
 20
-6.023966699441012
 30
0.0
 10
6.01751745100071
 20
-6.008471375015283
 30
0.0
 10
5.999537546538704
 20
-6.02134318736484
 30
0.0
 10
5.987359345588401
 20
-6.018906199691425
 30
0.0
 10
5.990526387625195
 20
-6.033809487184877
 30
0.0
 10
5.996587589150824
 20
-6.049526778074474
 30
0.0
 10
5.993769451533858
 20
-6.065660721925294
 30
0.0
 10
5.997096695864203
 20
-6.105729468541286
 30
0.0
 10
5.974222158739545
 20
-6.154593206184269
 30
0.0
 10
5.993773993213304
 20
-6.192464192708333
 30
0.0
  0
SPLINE
  5
CC
330
7F
100
AcDbEntity
  8
Layer 1
100
AcDbSpline
210
0.0
220
0.0
230
1.0
 70
     9
 71
     3
 72
    26
 73
    22
 74
     0
 42
0.0000000001
 43
0.0000000001
 40
0.0
 40
0.0
 40
0.0
 40
0.0
 40
1.0
 40
1.0
 40
1.0
 40
2.0
 40
2.0
 40
2.0
 40
3.0
 40
3.0
 40
3.0
 40
4.0
 40
4.0
 40
4.0
 40
5.0
 40
5.0
 40
5.0
 40
6.0
 40
6.0
 40
6.0
 40
7.0
 40
7.0
 40
7.0
 40
7.0
 10
6.03407075970636
 20
-5.999037000868055
 30
0.0
 10
6.04885526541006
 20
-6.005075205979109
 30
0.0
 10
6.037371152741798
 20
-6.038447878892762
 30
0.0
 10
6.040830843908805
 20
-6.052203203263312
 30
0.0
 10
6.046820554790252
 20
-6.094841249559268
 30
0.0
 10
6.039578063056902
 20
-6.134707549159959
 30
0.0
 10
6.040822365279154
 20
-6.179009677633681
 30
0.0
 10
6.044549900386477
 20
-6.195527653966412
 30
0.0
 10
6.055038070659596
 20
-6.216538475844294
 30
0.0
 10
6.02767699705272
 20
-6.212319921650254
 30
0.0
 10
6.006626443115313
 20
-6.213808879051738
 30
0.0
 10
5.976486520099165
 20
-6.212398736087783
 30
0.0
 10
5.968219825029487
 20
-6.18909924840889
 30
0.0
 10
5.966403643374127
 20
-6.164162402594178
 30
0.0
 10
5.965669833960368
 20
-6.135651609292381
 30
0.0
 10
5.973919651389425
 20
-6.112400535704813
 30
0.0
 10
5.970301046046162
 20
-6.092192131940135
 30
0.0
 10
5.959055346204043
 20
-6.063436784446568
 30
0.0
 10
5.973915679549589
 20
-6.04549044846668
 30
0.0
 10
5.96504891957847
 20
-5.997888742323539
 30
0.0
 10
5.995757879937627
 20
-5.995802698080447
 30
0.0
 10
6.03407075970636
 20
-5.999037000868055
 30
0.0
  0
SPLINE
  5
CD
330
7F
100
AcDbEntity
  8
Layer 1
100
AcDbSpline
210
0.0
220
0.0
230
1.0
 70
     9
 71
     3
 72
    14
 73
    10
 74
     0
 42
0.0000000001
 43
0.0000000001
 40
0.0
 40
0.0
 40
0.0
 40
0.0
 40
1.0
 40
1.0
 40
1.0
 40
2.0
 40
2.0
 40
2.0
 40
3.0
 40
3.0
 40
3.0
 40
3.0
 10
5.934081610400804
 20
-6.098958333333333
 30
0.0
 10
5.918641370144491
 20
-6.071736575416884
 30
0.0
 10
5.931423955624419
 20
-6.029953976153339
 30
0.0
 10
5.927456023382496
 20
-5.999038080731856
 30
0.0
 10
5.935622732036866
 20
-5.966840755005301
 30
0.0
 10
5.953154273531683
 20
-6.002460152250275
 30
0.0
 10
5.947326341323686
 20
-6.018907705521794
 30
0.0
 10
5.941840907906402
 20
-6.041176920656046
 30
0.0
 10
5.961111994322991
 20
-6.090148124417257
 30
0.0
 10
5.934081610400804
 20
-6.098958333333333
 30
0.0
  0
SPLINE
  5
CE
330
7F
100
AcDbEntity
  8
Layer 1
100
AcDbSpline
210
0.0
220
0.0
230
1.0
 70
     9
 71
     3
 72
    11
 73
     7
 74
     0
 42
0.0000000001
 43
0.0000000001
 40
0.0
 40
0.0
 40
0.0
 40
0.0
 40
1.0
 40
1.0
 40
1.0
 40
2.0
 40
2.0
 40
2.0
 40
2.0
 10
5.934190117345249
 20
-6.179009331597222
 30
0.0
 10
5.961367561254215
 20
-6.176149742225965
 30
0.0
 10
5.959230039547264
 20
-6.214632417224341
 30
0.0
 10
5.934188780650679
 20
-6.212320892648929
 30
0.0
 10
5.917644775251548
 20
-6.211875097543926
 30
0.0
 10
5.91521202480587
 20
-6.179215484593492
 30
0.0
 10
5.934190117345249
 20
-6.179009331597222
 30
0.0
  0
SPLINE
  5
CF
330
7F
100
AcDbEntity
  8
Layer 1
100
AcDbSpline
210
0.0
220
0.0
230
1.0
 70
     9
 71
     3
 72
    41
 73
    37
 74
     0
 42
0.0000000001
 43
0.0000000001
 40
0.0
 40
0.0
 40
0.0
 40
0.0
 40
1.0
 40
1.0
 40
1.0
 40
2.0
 40
2.0
 40
2.0
 40
3.0
 40
3.0
 40
3.0
 40
4.0
 40
4.0
 40
4.0
 40
5.0
 40
5.0
 40
5.0
 40
6.0
 40
6.0
 40
6.0
 40
7.0
 40
7.0
 40
7.0
 40
8.0
 40
8.0
 40
8.0
 40
9.0
 40
9.0
 40
9.0
 40
10.0
 40
10.0
 40
10.0
 40
11.0
 40
11.0
 40
11.0
 40
12.0
 40
12.0
 40
12.0
 40
12.0
 10
5.934190117345249
 20
-6.138983832465277
 30
0.0
 10
5.936994293183311
 20
-6.156959538978703
 30
0.0
 10
5.853973690073845
 20
-6.200035846210185
 30
0.0
 10
5.834276816822566
 20
-6.205604174511967
 30
0.0
 10
5.82001033444486
 20
-6.208724853970225
 30
0.0
 10
5.831590285613679
 20
-6.179075414771331
 30
0.0
 10
5.826480533953372
 20
-6.171075634940708
 30
0.0
 10
5.816201687455026
 20
-6.156773470599394
 30
0.0
 10
5.824893491722958
 20
-6.14711437734723
 30
0.0
 10
5.827560591089776
 20
-6.132269954513402
 30
0.0
 10
5.823680224258875
 20
-6.118838001545277
 30
0.0
 10
5.818394143537842
 20
-6.100382786182737
 30
0.0
 10
5.820832469380623
 20
-6.085515977935478
 30
0.0
 10
5.819934005983163
 20
-6.055655517097167
 30
0.0
 10
5.835385037970505
 20
-6.027726445686867
 30
0.0
 10
5.82082010645619
 20
-5.999038239825924
 30
0.0
 10
5.833743993484404
 20
-5.974644590643239
 30
0.0
 10
5.853529732205465
 20
-6.015177036886243
 30
0.0
 10
5.844048668482425
 20
-6.02898397462041
 30
0.0
 10
5.835000716264226
 20
-6.064973723052743
 30
0.0
 10
5.889136486055122
 20
-5.998367242208687
 30
0.0
 10
5.893236079740845
 20
-6.028073560049278
 30
0.0
 10
5.894100476556508
 20
-6.063425323551351
 30
0.0
 10
5.825651748822489
 20
-6.045736541499713
 30
0.0
 10
5.84741918674159
 20
-6.092233165332723
 30
0.0
 10
5.862657361701368
 20
-6.090032354087902
 30
0.0
 10
5.919618725269199
 20
-6.056344373550422
 30
0.0
 10
5.894169242418986
 20
-6.098964392146247
 30
0.0
 10
5.884834632795167
 20
-6.120783393912561
 30
0.0
 10
5.838794514513412
 20
-6.102901805700083
 30
0.0
 10
5.841749585556271
 20
-6.12004166723836
 30
0.0
 10
5.854877324609181
 20
-6.13791405721857
 30
0.0
 10
5.835298084168243
 20
-6.158242556695969
 30
0.0
 10
5.840688797626827
 20
-6.179009877981343
 30
0.0
 10
5.863613951793973
 20
-6.177363401798806
 30
0.0
 10
5.931459111352422
 20
-6.105597562484692
 30
0.0
 10
5.934190117345249
 20
-6.138983832465277
 30
0.0
  0
HATCH
  5
D0
330
7F
100
AcDbEntity
  8
Layer 1
 62
   250
420
  2301728
440
 33554687
100
AcDbHatch
 10
0.0
 20
0.0
 30
0.0
210
0.0
220
0.0
230
1.0
  2
SOLID
 70
     1
 71
     1
 91
        5
 92
        1
 93
        1
 72
     4
 94
        3
 73
     0
 74
     0
 95
       26
 96
       22
 40
0.0
 40
0.0
 40
0.0
 40
0.0
 40
1.0
 40
1.0
 40
1.0
 40
2.0
 40
2.0
 40
2.0
 40
3.0
 40
3.0
 40
3.0
 40
4.0
 40
4.0
 40
4.0
 40
5.0
 40
5.0
 40
5.0
 40
6.0
 40
6.0
 40
6.0
 40
7.0
 40
7.0
 40
7.0
 40
7.0
 10
5.993773993213304
 20
-6.192464192708333
 10
6.033447927140362
 20
-6.207344635753088
 10
6.022880806256933
 20
-6.163690161274467
 10
6.020972084941427
 20
-6.138979908863372
 10
6.012408613983375
 20
-6.134149129057075
 10
5.982424436991221
 20
-6.145880427370356
 10
5.998209137606029
 20
-6.123190665826869
 10
6.013934247251275
 20
-6.115826307376336
 10
6.029762473828364
 20
-6.126572407067997
 10
6.020962156808814
 20
-6.099195721614326
 10
6.021489841200996
 20
-6.075412209255899
 10
6.019036216568742
 20
-6.047136912724125
 10
6.023722284554852
 20
-6.023966699441012
 10
6.01751745100071
 20
-6.008471375015283
 10
5.999537546538704
 20
-6.02134318736484
 10
5.987359345588401
 20
-6.018906199691425
 10
5.990526387625195
 20
-6.033809487184877
 10
5.996587589150824
 20
-6.049526778074474
 10
5.993769451533858
 20
-6.065660721925294
 10
5.997096695864203
 20
-6.105729468541286
 10
5.974222158739545
 20
-6.154593206184269
 10
5.993773993213304
 20
-6.192464192708333
 97
        0
 97
        1
330
CB
 92
        1
 93
        1
 72
     4
 94
        3
 73
     0
 74
     0
 95
       26
 96
       22
 40
0.0
 40
0.0
 40
0.0
 40
0.0
 40
1.0
 40
1.0
 40
1.0
 40
2.0
 40
2.0
 40
2.0
 40
3.0
 40
3.0
 40
3.0
 40
4.0
 40
4.0
 40
4.0
 40
5.0
 40
5.0
 40
5.0
 40
6.0
 40
6.0
 40
6.0
 40
7.0
 40
7.0
 40
7.0
 40
7.0
 10
6.03407075970636
 20
-5.999037000868055
 10
6.04885526541006
 20
-6.005075205979109
 10
6.037371152741798
 20
-6.038447878892762
 10
6.040830843908805
 20
-6.052203203263312
 10
6.046820554790252
 20
-6.094841249559268
 10
6.039578063056902
 20
-6.134707549159959
 10
6.040822365279154
 20
-6.179009677633681
 10
6.044549900386477
 20
-6.195527653966412
 10
6.055038070659596
 20
-6.216538475844294
 10
6.02767699705272
 20
-6.212319921650254
 10
6.006626443115313
 20
-6.213808879051738
 10
5.976486520099165
 20
-6.212398736087783
 10
5.968219825029487
 20
-6.18909924840889
 10
5.966403643374127
 20
-6.164162402594178
 10
5.965669833960368
 20
-6.135651609292381
 10
5.973919651389425
 20
-6.112400535704813
 10
5.970301046046162
 20
-6.092192131940135
 10
5.959055346204043
 20
-6.063436784446568
 10
5.973915679549589
 20
-6.04549044846668
 10
5.96504891957847
 20
-5.997888742323539
 10
5.995757879937627
 20
-5.995802698080447
 10
6.03407075970636
 20
-5.999037000868055
 97
        0
 97
        1
330
CC
 92
        1
 93
        1
 72
     4
 94
        3
 73
     0
 74
     0
 95
       14
 96
       10
 40
0.0
 40
0.0
 40
0.0
 40
0.0
 40
1.0
 40
1.0
 40
1.0
 40
2.0
 40
2.0
 40
2.0
 40
3.0
 40
3.0
 40
3.0
 40
3.0
 10
5.934081610400804
 20
-6.098958333333333
 10
5.918641370144491
 20
-6.071736575416884
 10
5.931423955624419
 20
-6.029953976153339
 10
5.927456023382496
 20
-5.999038080731856
 10
5.935622732036866
 20
-5.966840755005301
 10
5.953154273531683
 20
-6.002460152250275
 10
5.947326341323686
 20
-6.018907705521794
 10
5.941840907906402
 20
-6.041176920656046
 10
5.961111994322991
 20
-6.090148124417257
 10
5.934081610400804
 20
-6.098958333333333
 97
        0
 97
        1
330
CD
 92
        1
 93
        1
 72
     4
 94
        3
 73
     0
 74
     0
 95
       11
 96
        7
 40
0.0
 40
0.0
 40
0.0
 40
0.0
 40
1.0
 40
1.0
 40
1.0
 40
2.0
 40
2.0
 40
2.0
 40
2.0
 10
5.934190117345249
 20
-6.179009331597222
 10
5.961367561254215
 20
-6.176149742225965
 10
5.959230039547264
 20
-6.214632417224341
 10
5.934188780650679
 20
-6.212320892648929
 10
5.917644775251548
 20
-6.211875097543926
 10
5.91521202480587
 20
-6.179215484593492
 10
5.934190117345249
 20
-6.179009331597222
 97
        0
 97
        1
330
CE
 92
        1
 93
        1
 72
     4
 94
        3
 73
     0
 74
     0
 95
       41
 96
       37
 40
0.0
 40
0.0
 40
0.0
 40
0.0
 40
1.0
 40
1.0
 40
1.0
 40
2.0
 40
2.0
 40
2.0
 40
3.0
 40
3.0
 40
3.0
 40
4.0
 40
4.0
 40
4.0
 40
5.0
 40
5.0
 40
5.0
 40
6.0
 40
6.0
 40
6.0
 40
7.0
 40
7.0
 40
7.0
 40
8.0
 40
8.0
 40
8.0
 40
9.0
 40
9.0
 40
9.0
 40
10.0
 40
10.0
 40
10.0
 40
11.0
 40
11.0
 40
11.0
 40
12.0
 40
12.0
 40
12.0
 40
12.0
 10
5.934190117345249
 20
-6.138983832465277
 10
5.936994293183311
 20
-6.156959538978703
 10
5.853973690073845
 20
-6.200035846210185
 10
5.834276816822566
 20
-6.205604174511967
 10
5.82001033444486
 20
-6.208724853970225
 10
5.831590285613679
 20
-6.179075414771331
 10
5.826480533953372
 20
-6.171075634940708
 10
5.816201687455026
 20
-6.156773470599394
 10
5.824893491722958
 20
-6.14711437734723
 10
5.827560591089776
 20
-6.132269954513402
 10
5.823680224258875
 20
-6.118838001545277
 10
5.818394143537842
 20
-6.100382786182737
 10
5.820832469380623
 20
-6.085515977935478
 10
5.819934005983163
 20
-6.055655517097167
 10
5.835385037970505
 20
-6.027726445686867
 10
5.82082010645619
 20
-5.999038239825924
 10
5.833743993484404
 20
-5.974644590643239
 10
5.853529732205465
 20
-6.015177036886243
 10
5.844048668482425
 20
-6.02898397462041
 10
5.835000716264226
 20
-6.064973723052743
 10
5.889136486055122
 20
-5.998367242208687
 10
5.893236079740845
 20
-6.028073560049278
 10
5.894100476556508
 20
-6.063425323551351
 10
5.825651748822489
 20
-6.045736541499713
 10
5.84741918674159
 20
-6.092233165332723
 10
5.862657361701368
 20
-6.090032354087902
 10
5.919618725269199
 20
-6.056344373550422
 10
5.894169242418986
 20
-6.098964392146247
 10
5.884834632795167
 20
-6.120783393912561
 10
5.838794514513412
 20
-6.102901805700083
 10
5.841749585556271
 20
-6.12004166723836
 10
5.854877324609181
 20
-6.13791405721857
 10
5.835298084168243
 20
-6.158242556695969
 10
5.840688797626827
 20
-6.179009877981343
 10
5.863613951793973
 20
-6.177363401798806
 10
5.931459111352422
 20
-6.105597562484692
 10
5.934190117345249
 20
-6.138983832465277
 97
        0
 97
        1
330
CF
 75
     2
 76
     1
 98
        1
 10
0.0
 20
0.0
450
        0
451
        0
460
0.0
461
0.0
452
        0
462
0.0
453
        0
470

  0
SPLINE
  5
D1
330
7F
100
AcDbEntity
  8
Layer 1
100
AcDbSpline
210
0.0
220
0.0
230
1.0
 70
     9
 71
     3
 72
    14
 73
    10
 74
     0
 42
0.0000000001
 43
0.0000000001
 40
0.0
 40
0.0
 40
0.0
 40
0.0
 40
1.0
 40
1.0
 40
1.0
 40
2.0
 40
2.0
 40
2.0
 40
3.0
 40
3.0
 40
3.0
 40
3.0
 10
6.278589271202715
 20
-3.073343912760416
 30
0.0
 10
6.255326949491315
 20
-3.103269253124683
 30
0.0
 10
6.255281025036183
 20
-3.047308822609276
 30
0.0
 10
6.257206072194472
 20
-3.030870918846946
 30
0.0
 10
6.251934497782435
 20
-3.010211662016672
 30
0.0
 10
6.261972626661341
 20
-2.944144198845252
 30
0.0
 10
6.285625930753767
 20
-2.988394139471109
 30
0.0
 10
6.267421674601589
 20
-3.016568393882822
 30
0.0
 10
6.292518259132116
 20
-3.044886028884017
 30
0.0
 10
6.278589271202715
 20
-3.073343912760416
 30
0.0
  0
SPLINE
  5
D2
330
7F
100
AcDbEntity
  8
Layer 1
100
AcDbSpline
210
0.0
220
0.0
230
1.0
 70
     9
 71
     3
 72
    11
 73
     7
 74
     0
 42
0.0000000001
 43
0.0000000001
 40
0.0
 40
0.0
 40
0.0
 40
0.0
 40
1.0
 40
1.0
 40
1.0
 40
2.0
 40
2.0
 40
2.0
 40
2.0
 10
6.271563446549937
 20
-2.938897026909721
 30
0.0
 10
6.272889596546368
 20
-2.950189408260193
 30
0.0
 10
6.254739345419592
 20
-2.944624650689673
 30
0.0
 10
6.247421239269997
 20
-2.944860018886477
 30
0.0
 10
6.227679084959289
 20
-2.929775996894439
 30
0.0
 10
6.276510527931577
 20
-2.911517758839484
 30
0.0
 10
6.271563446549937
 20
-2.938897026909721
 30
0.0
  0
SPLINE
  5
D3
330
7F
100
AcDbEntity
  8
Layer 1
100
AcDbSpline
210
0.0
220
0.0
230
1.0
 70
     9
 71
     3
 72
    23
 73
    19
 74
     0
 42
0.0000000001
 43
0.0000000001
 40
0.0
 40
0.0
 40
0.0
 40
0.0
 40
1.0
 40
1.0
 40
1.0
 40
2.0
 40
2.0
 40
2.0
 40
3.0
 40
3.0
 40
3.0
 40
4.0
 40
4.0
 40
4.0
 40
5.0
 40
5.0
 40
5.0
 40
6.0
 40
6.0
 40
6.0
 40
6.0
 10
6.321069739952715
 20
-2.974039713541666
 30
0.0
 10
6.293896496425152
 20
-2.97291356713102
 30
0.0
 10
6.309193737302948
 20
-2.905332251447551
 30
0.0
 10
6.309751136871227
 20
-2.886191384547853
 30
0.0
 10
6.300648799487007
 20
-2.870242660427177
 30
0.0
 10
6.26813677360024
 20
-2.888384513511558
 30
0.0
 10
6.252928369946452
 20
-2.880684743931649
 30
0.0
 10
6.232827488315049
 20
-2.863068760331682
 30
0.0
 10
6.202072860246769
 20
-2.887132885912869
 30
0.0
 10
6.183875808370556
 20
-2.877489836207296
 30
0.0
 10
6.157069526411608
 20
-2.840644742307012
 30
0.0
 10
6.309241863644248
 20
-2.856707550879327
 30
0.0
 10
6.324417088240352
 20
-2.861589379308308
 30
0.0
 10
6.333653643598406
 20
-2.876695495877925
 30
0.0
 10
6.325454499715609
 20
-2.906423137619071
 30
0.0
 10
6.328100424132546
 20
-2.924532530299984
 30
0.0
 10
6.325782818654892
 20
-2.93848838195202
 30
0.0
 10
6.334443064150162
 20
-2.964891689393652
 30
0.0
 10
6.321069739952715
 20
-2.974039713541666
 30
0.0
  0
SPLINE
  5
D4
330
7F
100
AcDbEntity
  8
Layer 1
100
AcDbSpline
210
0.0
220
0.0
230
1.0
 70
     9
 71
     3
 72
    32
 73
    28
 74
     0
 42
0.0000000001
 43
0.0000000001
 40
0.0
 40
0.0
 40
0.0
 40
0.0
 40
1.0
 40
1.0
 40
1.0
 40
2.0
 40
2.0
 40
2.0
 40
3.0
 40
3.0
 40
3.0
 40
4.0
 40
4.0
 40
4.0
 40
5.0
 40
5.0
 40
5.0
 40
6.0
 40
6.0
 40
6.0
 40
7.0
 40
7.0
 40
7.0
 40
8.0
 40
8.0
 40
8.0
 40
9.0
 40
9.0
 40
9.0
 40
9.0
 10
6.122759735612437
 20
-2.981370713975694
 30
0.0
 10
6.151360613631291
 20
-2.985876319267377
 30
0.0
 10
6.129319268821745
 20
-3.03167114245318
 30
0.0
 10
6.138497275343271
 20
-3.051186740681436
 30
0.0
 10
6.151243342549807
 20
-3.071145419490638
 30
0.0
 10
6.176538634498329
 20
-3.050680713997558
 30
0.0
 10
6.186613874737152
 20
-3.037895588261562
 30
0.0
 10
6.186601642114687
 20
-3.025813774902821
 30
0.0
 10
6.186626472941321
 20
-3.00032739062087
 30
0.0
 10
6.186616040834425
 20
-2.988396660950646
 30
0.0
 10
6.184775692206155
 20
-2.95779099521005
 30
0.0
 10
6.226417972752945
 20
-2.982164469597162
 30
0.0
 10
6.242075168363523
 20
-2.982285324696741
 30
0.0
 10
6.244138968931969
 20
-3.007965087632871
 30
0.0
 10
6.242184942940942
 20
-3.040233282324354
 30
0.0
 10
6.242837526524226
 20
-3.066311268841799
 30
0.0
 10
6.227457415280923
 20
-3.114758376654498
 30
0.0
 10
6.215008685501364
 20
-3.031084402580126
 30
0.0
 10
6.222839483745827
 20
-3.015443875763973
 30
0.0
 10
6.228175989431165
 20
-2.992212221270101
 30
0.0
 10
6.200122037752331
 20
-2.986826127355142
 30
0.0
 10
6.207714045979653
 20
-3.016508026759058
 30
0.0
 10
6.223152466320217
 20
-3.093679904982511
 30
0.0
 10
6.09021023472903
 20
-3.104428734611335
 30
0.0
 10
6.114505472306695
 20
-3.024903674719856
 30
0.0
 10
6.120033502383799
 20
-3.016176626854921
 30
0.0
 10
6.107975822926542
 20
-2.983154900238054
 30
0.0
 10
6.122759735612437
 20
-2.981370713975694
 30
0.0
  0
SPLINE
  5
D5
330
7F
100
AcDbEntity
  8
Layer 1
100
AcDbSpline
210
0.0
220
0.0
230
1.0
 70
     9
 71
     3
 72
    26
 73
    22
 74
     0
 42
0.0000000001
 43
0.0000000001
 40
0.0
 40
0.0
 40
0.0
 40
0.0
 40
1.0
 40
1.0
 40
1.0
 40
2.0
 40
2.0
 40
2.0
 40
3.0
 40
3.0
 40
3.0
 40
4.0
 40
4.0
 40
4.0
 40
5.0
 40
5.0
 40
5.0
 40
6.0
 40
6.0
 40
6.0
 40
7.0
 40
7.0
 40
7.0
 40
7.0
 10
6.11573391095966
 20
-2.952955457899305
 30
0.0
 10
6.092892971215253
 20
-2.950826452378161
 30
0.0
 10
6.103733283159802
 20
-2.918062349185548
 30
0.0
 10
6.101368631209121
 20
-2.903151139185713
 30
0.0
 10
6.103768208680548
 20
-2.891571352566137
 30
0.0
 10
6.095929189472346
 20
-2.864970328053408
 30
0.0
 10
6.105638692858418
 20
-2.857312594013314
 30
0.0
 10
6.120835837568948
 20
-2.845798837434762
 30
0.0
 10
6.194210444750448
 20
-2.855845300226317
 30
0.0
 10
6.150879384525826
 20
-2.87503926287699
 30
0.0
 10
6.10829887276322
 20
-2.860411673701049
 30
0.0
 10
6.128233789041486
 20
-2.895966471144409
 30
0.0
 10
6.12016009824227
 20
-2.921025082148945
 30
0.0
 10
6.117129541713211
 20
-2.948592999081533
 30
0.0
 10
6.178676715728821
 20
-2.926705117912913
 30
0.0
 10
6.193341128774388
 20
-2.924536921712261
 30
0.0
 10
6.214279786660957
 20
-2.917101816594329
 30
0.0
 10
6.235172528584471
 20
-2.939085564410093
 30
0.0
 10
6.214733404795398
 20
-2.952963405164155
 30
0.0
 10
6.183826768720639
 20
-2.952944525843804
 30
0.0
 10
6.14660840861696
 20
-2.952963337628236
 30
0.0
 10
6.11573391095966
 20
-2.952955457899305
 30
0.0
  0
HATCH
  5
D6
330
7F
100
AcDbEntity
  8
Layer 1
 62
   250
420
  2301728
440
 33554687
100
AcDbHatch
 10
0.0
 20
0.0
 30
0.0
210
0.0
220
0.0
230
1.0
  2
SOLID
 70
     1
 71
     1
 91
        5
 92
        1
 93
        1
 72
     4
 94
        3
 73
     0
 74
     0
 95
       14
 96
       10
 40
0.0
 40
0.0
 40
0.0
 40
0.0
 40
1.0
 40
1.0
 40
1.0
 40
2.0
 40
2.0
 40
2.0
 40
3.0
 40
3.0
 40
3.0
 40
3.0
 10
6.278589271202715
 20
-3.073343912760416
 10
6.255326949491315
 20
-3.103269253124683
 10
6.255281025036183
 20
-3.047308822609276
 10
6.257206072194472
 20
-3.030870918846946
 10
6.251934497782435
 20
-3.010211662016672
 10
6.261972626661341
 20
-2.944144198845252
 10
6.285625930753767
 20
-2.988394139471109
 10
6.267421674601589
 20
-3.016568393882822
 10
6.292518259132116
 20
-3.044886028884017
 10
6.278589271202715
 20
-3.073343912760416
 97
        0
 97
        1
330
D1
 92
        1
 93
        1
 72
     4
 94
        3
 73
     0
 74
     0
 95
       11
 96
        7
 40
0.0
 40
0.0
 40
0.0
 40
0.0
 40
1.0
 40
1.0
 40
1.0
 40
2.0
 40
2.0
 40
2.0
 40
2.0
 10
6.271563446549937
 20
-2.938897026909721
 10
6.272889596546368
 20
-2.950189408260193
 10
6.254739345419592
 20
-2.944624650689673
 10
6.247421239269997
 20
-2.944860018886477
 10
6.227679084959289
 20
-2.929775996894439
 10
6.276510527931577
 20
-2.911517758839484
 10
6.271563446549937
 20
-2.938897026909721
 97
        0
 97
        1
330
D2
 92
        1
 93
        1
 72
     4
 94
        3
 73
     0
 74
     0
 95
       23
 96
       19
 40
0.0
 40
0.0
 40
0.0
 40
0.0
 40
1.0
 40
1.0
 40
1.0
 40
2.0
 40
2.0
 40
2.0
 40
3.0
 40
3.0
 40
3.0
 40
4.0
 40
4.0
 40
4.0
 40
5.0
 40
5.0
 40
5.0
 40
6.0
 40
6.0
 40
6.0
 40
6.0
 10
6.321069739952715
 20
-2.974039713541666
 10
6.293896496425152
 20
-2.97291356713102
 10
6.309193737302948
 20
-2.905332251447551
 10
6.309751136871227
 20
-2.886191384547853
 10
6.300648799487007
 20
-2.870242660427177
 10
6.26813677360024
 20
-2.888384513511558
 10
6.252928369946452
 20
-2.880684743931649
 10
6.232827488315049
 20
-2.863068760331682
 10
6.202072860246769
 20
-2.887132885912869
 10
6.183875808370556
 20
-2.877489836207296
 10
6.157069526411608
 20
-2.840644742307012
 10
6.309241863644248
 20
-2.856707550879327
 10
6.324417088240352
 20
-2.861589379308308
 10
6.333653643598406
 20
-2.876695495877925
 10
6.325454499715609
 20
-2.906423137619071
 10
6.328100424132546
 20
-2.924532530299984
 10
6.325782818654892
 20
-2.93848838195202
 10
6.334443064150162
 20
-2.964891689393652
 10
6.321069739952715
 20
-2.974039713541666
 97
        0
 97
        1
330
D3
 92
        1
 93
        1
 72
     4
 94
        3
 73
     0
 74
     0
 95
       32
 96
       28
 40
0.0
 40
0.0
 40
0.0
 40
0.0
 40
1.0
 40
1.0
 40
1.0
 40
2.0
 40
2.0
 40
2.0
 40
3.0
 40
3.0
 40
3.0
 40
4.0
 40
4.0
 40
4.0
 40
5.0
 40
5.0
 40
5.0
 40
6.0
 40
6.0
 40
6.0
 40
7.0
 40
7.0
 40
7.0
 40
8.0
 40
8.0
 40
8.0
 40
9.0
 40
9.0
 40
9.0
 40
9.0
 10
6.122759735612437
 20
-2.981370713975694
 10
6.151360613631291
 20
-2.985876319267377
 10
6.129319268821745
 20
-3.03167114245318
 10
6.138497275343271
 20
-3.051186740681436
 10
6.151243342549807
 20
-3.071145419490638
 10
6.176538634498329
 20
-3.050680713997558
 10
6.186613874737152
 20
-3.037895588261562
 10
6.186601642114687
 20
-3.025813774902821
 10
6.186626472941321
 20
-3.00032739062087
 10
6.186616040834425
 20
-2.988396660950646
 10
6.184775692206155
 20
-2.95779099521005
 10
6.226417972752945
 20
-2.982164469597162
 10
6.242075168363523
 20
-2.982285324696741
 10
6.244138968931969
 20
-3.007965087632871
 10
6.242184942940942
 20
-3.040233282324354
 10
6.242837526524226
 20
-3.066311268841799
 10
6.227457415280923
 20
-3.114758376654498
 10
6.215008685501364
 20
-3.031084402580126
 10
6.222839483745827
 20
-3.015443875763973
 10
6.228175989431165
 20
-2.992212221270101
 10
6.200122037752331
 20
-2.986826127355142
 10
6.207714045979653
 20
-3.016508026759058
 10
6.223152466320217
 20
-3.093679904982511
 10
6.09021023472903
 20
-3.104428734611335
 10
6.114505472306695
 20
-3.024903674719856
 10
6.120033502383799
 20
-3.016176626854921
 10
6.107975822926542
 20
-2.983154900238054
 10
6.122759735612437
 20
-2.981370713975694
 97
        0
 97
        1
330
D4
 92
        1
 93
        1
 72
     4
 94
        3
 73
     0
 74
     0
 95
       26
 96
       22
 40
0.0
 40
0.0
 40
0.0
 40
0.0
 40
1.0
 40
1.0
 40
1.0
 40
2.0
 40
2.0
 40
2.0
 40
3.0
 40
3.0
 40
3.0
 40
4.0
 40
4.0
 40
4.0
 40
5.0
 40
5.0
 40
5.0
 40
6.0
 40
6.0
 40
6.0
 40
7.0
 40
7.0
 40
7.0
 40
7.0
 10
6.11573391095966
 20
-2.952955457899305
 10
6.092892971215253
 20
-2.950826452378161
 10
6.103733283159802
 20
-2.918062349185548
 10
6.101368631209121
 20
-2.903151139185713
 10
6.103768208680548
 20
-2.891571352566137
 10
6.095929189472346
 20
-2.864970328053408
 10
6.105638692858418
 20
-2.857312594013314
 10
6.120835837568948
 20
-2.845798837434762
 10
6.194210444750448
 20
-2.855845300226317
 10
6.150879384525826
 20
-2.87503926287699
 10
6.10829887276322
 20
-2.860411673701049
 10
6.128233789041486
 20
-2.895966471144409
 10
6.12016009824227
 20
-2.921025082148945
 10
6.117129541713211
 20
-2.948592999081533
 10
6.178676715728821
 20
-2.926705117912913
 10
6.193341128774388
 20
-2.924536921712261
 10
6.214279786660957
 20
-2.917101816594329
 10
6.235172528584471
 20
-2.939085564410093
 10
6.214733404795398
 20
-2.952963405164155
 10
6.183826768720639
 20
-2.952944525843804
 10
6.14660840861696
 20
-2.952963337628236
 10
6.11573391095966
 20
-2.952955457899305
 97
        0
 97
        1
330
D5
 75
     2
 76
     1
 98
        1
 10
0.0
 20
0.0
450
        0
451
        0
460
0.0
461
0.0
452
        0
462
0.0
453
        0
470

  0
SPLINE
  5
D7
330
7F
100
AcDbEntity
  8
Layer 1
100
AcDbSpline
210
0.0
220
0.0
230
1.0
 70
     9
 71
     3
 72
    14
 73
    10
 74
     0
 42
0.0000000001
 43
0.0000000001
 40
0.0
 40
0.0
 40
0.0
 40
0.0
 40
1.0
 40
1.0
 40
1.0
 40
2.0
 40
2.0
 40
2.0
 40
3.0
 40
3.0
 40
3.0
 40
3.0
 10
6.257864444813826
 20
-3.310092502170138
 30
0.0
 10
6.234887285351962
 20
-3.352704545797501
 30
0.0
 10
6.224833713528722
 20
-3.289051343754029
 30
0.0
 10
6.230069560458534
 20
-3.268841507584447
 30
0.0
 10
6.23399423276909
 20
-3.249793525454883
 30
0.0
 10
6.215786697810218
 20
-3.178456541675725
 30
0.0
 10
6.25359042546145
 20
-3.197640683952549
 30
0.0
 10
6.255727722571438
 20
-3.230275105300228
 30
0.0
 10
6.258246695668579
 20
-3.271676061002203
 30
0.0
 10
6.257864444813826
 20
-3.310092502170138
 30
0.0
  0
SPLINE
  5
D8
330
7F
100
AcDbEntity
  8
Layer 1
100
AcDbSpline
210
0.0
220
0.0
230
1.0
 70
     9
 71
     3
 72
    32
 73
    28
 74
     0
 42
0.0000000001
 43
0.0000000001
 40
0.0
 40
0.0
 40
0.0
 40
0.0
 40
1.0
 40
1.0
 40
1.0
 40
2.0
 40
2.0
 40
2.0
 40
3.0
 40
3.0
 40
3.0
 40
4.0
 40
4.0
 40
4.0
 40
5.0
 40
5.0
 40
5.0
 40
6.0
 40
6.0
 40
6.0
 40
7.0
 40
7.0
 40
7.0
 40
8.0
 40
8.0
 40
8.0
 40
9.0
 40
9.0
 40
9.0
 40
9.0
 10
6.312863902279104
 20
-3.13836669921875
 30
0.0
 10
6.329183759702951
 20
-3.151184304903242
 30
0.0
 10
6.315147330751415
 20
-3.193364377803365
 30
0.0
 10
6.319599195644589
 20
-3.213837610870111
 30
0.0
 10
6.321168286994179
 20
-3.241593596647463
 30
0.0
 10
6.32526457959294
 20
-3.264320625330595
 30
0.0
 10
6.320651032927798
 20
-3.290838855071203
 30
0.0
 10
6.34462283555965
 20
-3.371985924303329
 30
0.0
 10
6.311207109382949
 20
-3.359921959320836
 30
0.0
 10
6.245791725493543
 20
-3.357453306867581
 30
0.0
 10
6.208179165027457
 20
-3.316405474957491
 30
0.0
 10
6.332969070032403
 20
-3.362415084059307
 30
0.0
 10
6.298806748124787
 20
-3.317122178393434
 30
0.0
 10
6.298809833513031
 20
-3.289288085038656
 30
0.0
 10
6.298813996903668
 20
-3.255703507477467
 30
0.0
 10
6.298812247676955
 20
-3.227898458689701
 30
0.0
 10
6.291911505767883
 20
-3.156236218156082
 30
0.0
 10
6.329470770172494
 20
-3.159117451836575
 30
0.0
 10
6.247475477839088
 20
-3.156712117200084
 30
0.0
 10
6.225129721314033
 20
-3.150918608509502
 30
0.0
 10
6.246595062660818
 20
-3.193477292873795
 30
0.0
 10
6.217523900647998
 20
-3.176715285394897
 30
0.0
 10
6.21636642253409
 20
-3.168417312167346
 30
0.0
 10
6.213180018765442
 20
-3.14287329516805
 30
0.0
 10
6.223331353235455
 20
-3.138368450967631
 30
0.0
 10
6.251337339948197
 20
-3.138404967779617
 30
0.0
 10
6.284917522596919
 20
-3.138339115771638
 30
0.0
 10
6.312863902279104
 20
-3.13836669921875
 30
0.0
  0
SPLINE
  5
D9
330
7F
100
AcDbEntity
  8
Layer 1
100
AcDbSpline
210
0.0
220
0.0
230
1.0
 70
     9
 71
     3
 72
    11
 73
     7
 74
     0
 42
0.0000000001
 43
0.0000000001
 40
0.0
 40
0.0
 40
0.0
 40
0.0
 40
1.0
 40
1.0
 40
1.0
 40
2.0
 40
2.0
 40
2.0
 40
2.0
 10
6.134112274674937
 20
-3.15914577907986
 30
0.0
 10
6.134481454892566
 20
-3.141234357971332
 30
0.0
 10
6.161250453179869
 20
-3.141231574122116
 30
0.0
 10
6.161618744779212
 20
-3.159147553420767
 30
0.0
 10
6.161293009206979
 20
-3.176404361866009
 30
0.0
 10
6.134431646390465
 20
-3.176403897594506
 30
0.0
 10
6.134112274674937
 20
-3.15914577907986
 30
0.0
  0
SPLINE
  5
DA
330
7F
100
AcDbEntity
  8
Layer 1
100
AcDbSpline
210
0.0
220
0.0
230
1.0
 70
     9
 71
     3
 72
    47
 73
    43
 74
     0
 42
0.0000000001
 43
0.0000000001
 40
0.0
 40
0.0
 40
0.0
 40
0.0
 40
1.0
 40
1.0
 40
1.0
 40
2.0
 40
2.0
 40
2.0
 40
3.0
 40
3.0
 40
3.0
 40
4.0
 40
4.0
 40
4.0
 40
5.0
 40
5.0
 40
5.0
 40
6.0
 40
6.0
 40
6.0
 40
7.0
 40
7.0
 40
7.0
 40
8.0
 40
8.0
 40
8.0
 40
9.0
 40
9.0
 40
9.0
 40
10.0
 40
10.0
 40
10.0
 40
11.0
 40
11.0
 40
11.0
 40
12.0
 40
12.0
 40
12.0
 40
13.0
 40
13.0
 40
13.0
 40
14.0
 40
14.0
 40
14.0
 40
14.0
 10
6.106619327626327
 20
-3.220872667100694
 30
0.0
 10
6.127628878581313
 20
-3.221643616827602
 30
0.0
 10
6.113978253952179
 20
-3.23836625183205
 30
0.0
 10
6.120367176574896
 20
-3.248069153601274
 30
0.0
 10
6.142261708913211
 20
-3.250576533815508
 30
0.0
 10
6.160606829067622
 20
-3.256334087524376
 30
0.0
 10
6.184839042838929
 20
-3.256457553105671
 30
0.0
 10
6.211174611752236
 20
-3.283541424960073
 30
0.0
 10
6.145175279954425
 20
-3.290079295745512
 30
0.0
 10
6.168332652279104
 20
-3.269144694010416
 30
0.0
 10
6.152571239509319
 20
-3.270896177271576
 30
0.0
 10
6.137196967637615
 20
-3.282771366702907
 30
0.0
 10
6.12449655133888
 20
-3.267160139912309
 30
0.0
 10
6.111451030607693
 20
-3.270937504350627
 30
0.0
 10
6.108760260121647
 20
-3.289100037979652
 30
0.0
 10
6.120373948639477
 20
-3.296337655193799
 30
0.0
 10
6.129273183924194
 20
-3.302289222846297
 30
0.0
 10
6.149531315945599
 20
-3.293164028830283
 30
0.0
 10
6.161618330303022
 20
-3.296344785141905
 30
0.0
 10
6.172578013758892
 20
-3.306857281107745
 30
0.0
 10
6.168706718855597
 20
-3.319279012727292
 30
0.0
 10
6.153518411393406
 20
-3.31818695997587
 30
0.0
 10
6.143048691211965
 20
-3.326760088067632
 30
0.0
 10
6.13427891078638
 20
-3.322422191251664
 30
0.0
 10
6.124496162272432
 20
-3.318028114492638
 30
0.0
 10
6.100059228280517
 20
-3.339241799349868
 30
0.0
 10
6.123428705710365
 20
-3.352513661222751
 30
0.0
 10
6.147868750650129
 20
-3.344307869744612
 30
0.0
 10
6.163673645208013
 20
-3.341079792873314
 30
0.0
 10
6.181645633403225
 20
-3.351082625350474
 30
0.0
 10
6.195839079379411
 20
-3.344317143462477
 30
0.0
 10
6.199505681879296
 20
-3.319245536480947
 30
0.0
 10
6.234020436806859
 20
-3.33257290487615
 30
0.0
 10
6.216611998827223
 20
-3.358370925264504
 30
0.0
 10
6.21325160770665
 20
-3.368891647781525
 30
0.0
 10
6.091021922722776
 20
-3.370258529972968
 30
0.0
 10
6.09286523783986
 20
-3.35838090274203
 30
0.0
 10
6.088798823957605
 20
-3.341551081622039
 30
0.0
 10
6.100214020827757
 20
-3.323631797960249
 30
0.0
 10
6.098528738784377
 20
-3.309021487625816
 30
0.0
 10
6.091361014393012
 20
-3.295828122796579
 30
0.0
 10
6.083319246064749
 20
-3.218064300686655
 30
0.0
 10
6.106619327626327
 20
-3.220872667100694
 30
0.0
  0
SPLINE
  5
DB
330
7F
100
AcDbEntity
  8
Layer 1
100
AcDbSpline
210
0.0
220
0.0
230
1.0
 70
     9
 71
     3
 72
    17
 73
    13
 74
     0
 42
0.0000000001
 43
0.0000000001
 40
0.0
 40
0.0
 40
0.0
 40
0.0
 40
1.0
 40
1.0
 40
1.0
 40
2.0
 40
2.0
 40
2.0
 40
3.0
 40
3.0
 40
3.0
 40
4.0
 40
4.0
 40
4.0
 40
4.0
 10
6.14771633283466
 20
-3.20711941189236
 30
0.0
 10
6.114388872900765
 20
-3.217490417774532
 30
0.0
 10
6.06634777180347
 20
-3.130672830319465
 30
0.0
 10
6.11272204286648
 20
-3.142631138268231
 30
0.0
 10
6.11306741352612
 20
-3.160992046215672
 30
0.0
 10
6.12833907961087
 20
-3.183984262910333
 30
0.0
 10
6.147863774179439
 20
-3.186647725467878
 30
0.0
 10
6.166853454266376
 20
-3.183517302367918
 30
0.0
 10
6.183205578705054
 20
-3.160987383849715
 30
0.0
 10
6.183145670400133
 20
-3.142648299797807
 30
0.0
 10
6.230544568032731
 20
-3.135275373125434
 30
0.0
 10
6.181967237599362
 20
-3.21254409903986
 30
0.0
 10
6.14771633283466
 20
-3.20711941189236
 30
0.0
  0
HATCH
  5
DC
330
7F
100
AcDbEntity
  8
Layer 1
 62
   250
420
  2301728
440
 33554687
100
AcDbHatch
 10
0.0
 20
0.0
 30
0.0
210
0.0
220
0.0
230
1.0
  2
SOLID
 70
     1
 71
     1
 91
        5
 92
        1
 93
        1
 72
     4
 94
        3
 73
     0
 74
     0
 95
       14
 96
       10
 40
0.0
 40
0.0
 40
0.0
 40
0.0
 40
1.0
 40
1.0
 40
1.0
 40
2.0
 40
2.0
 40
2.0
 40
3.0
 40
3.0
 40
3.0
 40
3.0
 10
6.257864444813826
 20
-3.310092502170138
 10
6.234887285351962
 20
-3.352704545797501
 10
6.224833713528722
 20
-3.289051343754029
 10
6.230069560458534
 20
-3.268841507584447
 10
6.23399423276909
 20
-3.249793525454883
 10
6.215786697810218
 20
-3.178456541675725
 10
6.25359042546145
 20
-3.197640683952549
 10
6.255727722571438
 20
-3.230275105300228
 10
6.258246695668579
 20
-3.271676061002203
 10
6.257864444813826
 20
-3.310092502170138
 97
        0
 97
        1
330
D7
 92
        1
 93
        1
 72
     4
 94
        3
 73
     0
 74
     0
 95
       32
 96
       28
 40
0.0
 40
0.0
 40
0.0
 40
0.0
 40
1.0
 40
1.0
 40
1.0
 40
2.0
 40
2.0
 40
2.0
 40
3.0
 40
3.0
 40
3.0
 40
4.0
 40
4.0
 40
4.0
 40
5.0
 40
5.0
 40
5.0
 40
6.0
 40
6.0
 40
6.0
 40
7.0
 40
7.0
 40
7.0
 40
8.0
 40
8.0
 40
8.0
 40
9.0
 40
9.0
 40
9.0
 40
9.0
 10
6.312863902279104
 20
-3.13836669921875
 10
6.329183759702951
 20
-3.151184304903242
 10
6.315147330751415
 20
-3.193364377803365
 10
6.319599195644589
 20
-3.213837610870111
 10
6.321168286994179
 20
-3.241593596647463
 10
6.32526457959294
 20
-3.264320625330595
 10
6.320651032927798
 20
-3.290838855071203
 10
6.34462283555965
 20
-3.371985924303329
 10
6.311207109382949
 20
-3.359921959320836
 10
6.245791725493543
 20
-3.357453306867581
 10
6.208179165027457
 20
-3.316405474957491
 10
6.332969070032403
 20
-3.362415084059307
 10
6.298806748124787
 20
-3.317122178393434
 10
6.298809833513031
 20
-3.289288085038656
 10
6.298813996903668
 20
-3.255703507477467
 10
6.298812247676955
 20
-3.227898458689701
 10
6.291911505767883
 20
-3.156236218156082
 10
6.329470770172494
 20
-3.159117451836575
 10
6.247475477839088
 20
-3.156712117200084
 10
6.225129721314033
 20
-3.150918608509502
 10
6.246595062660818
 20
-3.193477292873795
 10
6.217523900647998
 20
-3.176715285394897
 10
6.21636642253409
 20
-3.168417312167346
 10
6.213180018765442
 20
-3.14287329516805
 10
6.223331353235455
 20
-3.138368450967631
 10
6.251337339948197
 20
-3.138404967779617
 10
6.284917522596919
 20
-3.138339115771638
 10
6.312863902279104
 20
-3.13836669921875
 97
        0
 97
        1
330
D8
 92
        1
 93
        1
 72
     4
 94
        3
 73
     0
 74
     0
 95
       11
 96
        7
 40
0.0
 40
0.0
 40
0.0
 40
0.0
 40
1.0
 40
1.0
 40
1.0
 40
2.0
 40
2.0
 40
2.0
 40
2.0
 10
6.134112274674937
 20
-3.15914577907986
 10
6.134481454892566
 20
-3.141234357971332
 10
6.161250453179869
 20
-3.141231574122116
 10
6.161618744779212
 20
-3.159147553420767
 10
6.161293009206979
 20
-3.176404361866009
 10
6.134431646390465
 20
-3.176403897594506
 10
6.134112274674937
 20
-3.15914577907986
 97
        0
 97
        1
330
D9
 92
        1
 93
        1
 72
     4
 94
        3
 73
     0
 74
     0
 95
       47
 96
       43
 40
0.0
 40
0.0
 40
0.0
 40
0.0
 40
1.0
 40
1.0
 40
1.0
 40
2.0
 40
2.0
 40
2.0
 40
3.0
 40
3.0
 40
3.0
 40
4.0
 40
4.0
 40
4.0
 40
5.0
 40
5.0
 40
5.0
 40
6.0
 40
6.0
 40
6.0
 40
7.0
 40
7.0
 40
7.0
 40
8.0
 40
8.0
 40
8.0
 40
9.0
 40
9.0
 40
9.0
 40
10.0
 40
10.0
 40
10.0
 40
11.0
 40
11.0
 40
11.0
 40
12.0
 40
12.0
 40
12.0
 40
13.0
 40
13.0
 40
13.0
 40
14.0
 40
14.0
 40
14.0
 40
14.0
 10
6.106619327626327
 20
-3.220872667100694
 10
6.127628878581313
 20
-3.221643616827602
 10
6.113978253952179
 20
-3.23836625183205
 10
6.120367176574896
 20
-3.248069153601274
 10
6.142261708913211
 20
-3.250576533815508
 10
6.160606829067622
 20
-3.256334087524376
 10
6.184839042838929
 20
-3.256457553105671
 10
6.211174611752236
 20
-3.283541424960073
 10
6.145175279954425
 20
-3.290079295745512
 10
6.168332652279104
 20
-3.269144694010416
 10
6.152571239509319
 20
-3.270896177271576
 10
6.137196967637615
 20
-3.282771366702907
 10
6.12449655133888
 20
-3.267160139912309
 10
6.111451030607693
 20
-3.270937504350627
 10
6.108760260121647
 20
-3.289100037979652
 10
6.120373948639477
 20
-3.296337655193799
 10
6.129273183924194
 20
-3.302289222846297
 10
6.149531315945599
 20
-3.293164028830283
 10
6.161618330303022
 20
-3.296344785141905
 10
6.172578013758892
 20
-3.306857281107745
 10
6.168706718855597
 20
-3.319279012727292
 10
6.153518411393406
 20
-3.31818695997587
 10
6.143048691211965
 20
-3.326760088067632
 10
6.13427891078638
 20
-3.322422191251664
 10
6.124496162272432
 20
-3.318028114492638
 10
6.100059228280517
 20
-3.339241799349868
 10
6.123428705710365
 20
-3.352513661222751
 10
6.147868750650129
 20
-3.344307869744612
 10
6.163673645208013
 20
-3.341079792873314
 10
6.181645633403225
 20
-3.351082625350474
 10
6.195839079379411
 20
-3.344317143462477
 10
6.199505681879296
 20
-3.319245536480947
 10
6.234020436806859
 20
-3.33257290487615
 10
6.216611998827223
 20
-3.358370925264504
 10
6.21325160770665
 20
-3.368891647781525
 10
6.091021922722776
 20
-3.370258529972968
 10
6.09286523783986
 20
-3.35838090274203
 10
6.088798823957605
 20
-3.341551081622039
 10
6.100214020827757
 20
-3.323631797960249
 10
6.098528738784377
 20
-3.309021487625816
 10
6.091361014393012
 20
-3.295828122796579
 10
6.083319246064749
 20
-3.218064300686655
 10
6.106619327626327
 20
-3.220872667100694
 97
        0
 97
        1
330
DA
 92
        1
 93
        1
 72
     4
 94
        3
 73
     0
 74
     0
 95
       17
 96
       13
 40
0.0
 40
0.0
 40
0.0
 40
0.0
 40
1.0
 40
1.0
 40
1.0
 40
2.0
 40
2.0
 40
2.0
 40
3.0
 40
3.0
 40
3.0
 40
4.0
 40
4.0
 40
4.0
 40
4.0
 10
6.14771633283466
 20
-3.20711941189236
 10
6.114388872900765
 20
-3.217490417774532
 10
6.06634777180347
 20
-3.130672830319465
 10
6.11272204286648
 20
-3.142631138268231
 10
6.11306741352612
 20
-3.160992046215672
 10
6.12833907961087
 20
-3.183984262910333
 10
6.147863774179439
 20
-3.186647725467878
 10
6.166853454266376
 20
-3.183517302367918
 10
6.183205578705054
 20
-3.160987383849715
 10
6.183145670400133
 20
-3.142648299797807
 10
6.230544568032731
 20
-3.135275373125434
 10
6.181967237599362
 20
-3.21254409903986
 10
6.14771633283466
 20
-3.20711941189236
 97
        0
 97
        1
330
DB
 75
     2
 76
     1
 98
        1
 10
0.0
 20
0.0
450
        0
451
        0
460
0.0
461
0.0
452
        0
462
0.0
453
        0
470

  0
SPLINE
  5
DD
330
7F
100
AcDbEntity
  8
Layer 1
100
AcDbSpline
210
0.0
220
0.0
230
1.0
 70
     9
 71
     3
 72
    14
 73
    10
 74
     0
 42
0.0000000001
 43
0.0000000001
 40
0.0
 40
0.0
 40
0.0
 40
0.0
 40
1.0
 40
1.0
 40
1.0
 40
2.0
 40
2.0
 40
2.0
 40
3.0
 40
3.0
 40
3.0
 40
3.0
 10
6.257864444813826
 20
-3.59481472439236
 30
0.0
 10
6.234887285351962
 20
-3.637426768019723
 30
0.0
 10
6.224833713528722
 20
-3.573773565976251
 30
0.0
 10
6.230069560458534
 20
-3.55356372980667
 30
0.0
 10
6.23399423276909
 20
-3.534515747677106
 30
0.0
 10
6.215786697810218
 20
-3.463178763897947
 30
0.0
 10
6.25359042546145
 20
-3.482362906174772
 30
0.0
 10
6.255727722571438
 20
-3.514997327522451
 30
0.0
 10
6.258246695668579
 20
-3.556398283224426
 30
0.0
 10
6.257864444813826
 20
-3.59481472439236
 30
0.0
  0
SPLINE
  5
DE
330
7F
100
AcDbEntity
  8
Layer 1
100
AcDbSpline
210
0.0
220
0.0
230
1.0
 70
     9
 71
     3
 72
    32
 73
    28
 74
     0
 42
0.0000000001
 43
0.0000000001
 40
0.0
 40
0.0
 40
0.0
 40
0.0
 40
1.0
 40
1.0
 40
1.0
 40
2.0
 40
2.0
 40
2.0
 40
3.0
 40
3.0
 40
3.0
 40
4.0
 40
4.0
 40
4.0
 40
5.0
 40
5.0
 40
5.0
 40
6.0
 40
6.0
 40
6.0
 40
7.0
 40
7.0
 40
7.0
 40
8.0
 40
8.0
 40
8.0
 40
9.0
 40
9.0
 40
9.0
 40
9.0
 10
6.312863902279104
 20
-3.423088921440971
 30
0.0
 10
6.329183759702951
 20
-3.435906527125464
 30
0.0
 10
6.315147330751415
 20
-3.478086600025587
 30
0.0
 10
6.319599195644589
 20
-3.498559833092333
 30
0.0
 10
6.321168286994179
 20
-3.526315818869685
 30
0.0
 10
6.32526457959294
 20
-3.549042847552818
 30
0.0
 10
6.320651032927798
 20
-3.575561077293425
 30
0.0
 10
6.34462283555965
 20
-3.656708146525564
 30
0.0
 10
6.311207109382949
 20
-3.644644181543058
 30
0.0
 10
6.245791725493543
 20
-3.642175529089803
 30
0.0
 10
6.208179165027457
 20
-3.601127697179713
 30
0.0
 10
6.332969070032403
 20
-3.647137306281542
 30
0.0
 10
6.298806748124787
 20
-3.601844400615656
 30
0.0
 10
6.298809833513031
 20
-3.574010307260878
 30
0.0
 10
6.298813996903668
 20
-3.540425729699689
 30
0.0
 10
6.298812247676955
 20
-3.512620680911923
 30
0.0
 10
6.291911505767883
 20
-3.440958440378305
 30
0.0
 10
6.329470770172494
 20
-3.443839674058797
 30
0.0
 10
6.247475477839088
 20
-3.441434339422307
 30
0.0
 10
6.225129721314033
 20
-3.435640830731724
 30
0.0
 10
6.246595062660818
 20
-3.478199515096017
 30
0.0
 10
6.217523900647998
 20
-3.461437507617119
 30
0.0
 10
6.21636642253409
 20
-3.453139534389568
 30
0.0
 10
6.213180018765442
 20
-3.427595517390273
 30
0.0
 10
6.223331353235455
 20
-3.423090673189853
 30
0.0
 10
6.251337339948197
 20
-3.42312719000184
 30
0.0
 10
6.284917522596919
 20
-3.42306133799386
 30
0.0
 10
6.312863902279104
 20
-3.423088921440971
 30
0.0
  0
SPLINE
  5
DF
330
7F
100
AcDbEntity
  8
Layer 1
100
AcDbSpline
210
0.0
220
0.0
230
1.0
 70
     9
 71
     3
 72
    11
 73
     7
 74
     0
 42
0.0000000001
 43
0.0000000001
 40
0.0
 40
0.0
 40
0.0
 40
0.0
 40
1.0
 40
1.0
 40
1.0
 40
2.0
 40
2.0
 40
2.0
 40
2.0
 10
6.134112274674937
 20
-3.443868001302083
 30
0.0
 10
6.134481454892566
 20
-3.425956580193554
 30
0.0
 10
6.161250453179869
 20
-3.425953796344338
 30
0.0
 10
6.161618744779212
 20
-3.443869775642989
 30
0.0
 10
6.161293009206979
 20
-3.461126584088232
 30
0.0
 10
6.134431646390465
 20
-3.461126119816728
 30
0.0
 10
6.134112274674937
 20
-3.443868001302083
 30
0.0
  0
SPLINE
  5
E0
330
7F
100
AcDbEntity
  8
Layer 1
100
AcDbSpline
210
0.0
220
0.0
230
1.0
 70
     9
 71
     3
 72
    47
 73
    43
 74
     0
 42
0.0000000001
 43
0.0000000001
 40
0.0
 40
0.0
 40
0.0
 40
0.0
 40
1.0
 40
1.0
 40
1.0
 40
2.0
 40
2.0
 40
2.0
 40
3.0
 40
3.0
 40
3.0
 40
4.0
 40
4.0
 40
4.0
 40
5.0
 40
5.0
 40
5.0
 40
6.0
 40
6.0
 40
6.0
 40
7.0
 40
7.0
 40
7.0
 40
8.0
 40
8.0
 40
8.0
 40
9.0
 40
9.0
 40
9.0
 40
10.0
 40
10.0
 40
10.0
 40
11.0
 40
11.0
 40
11.0
 40
12.0
 40
12.0
 40
12.0
 40
13.0
 40
13.0
 40
13.0
 40
14.0
 40
14.0
 40
14.0
 40
14.0
 10
6.106619327626327
 20
-3.505594889322916
 30
0.0
 10
6.127628878581313
 20
-3.506365839049824
 30
0.0
 10
6.113978253952179
 20
-3.523088474054272
 30
0.0
 10
6.120367176574896
 20
-3.532791375823497
 30
0.0
 10
6.142261708913211
 20
-3.535298756037731
 30
0.0
 10
6.160606829067622
 20
-3.541056309746598
 30
0.0
 10
6.184839042838929
 20
-3.541179775327893
 30
0.0
 10
6.211174611752236
 20
-3.568263647182296
 30
0.0
 10
6.145175279954425
 20
-3.574801517967734
 30
0.0
 10
6.168332652279104
 20
-3.553866916232638
 30
0.0
 10
6.152571239509319
 20
-3.555618399493798
 30
0.0
 10
6.137196967637615
 20
-3.567493588925129
 30
0.0
 10
6.12449655133888
 20
-3.551882362134531
 30
0.0
 10
6.111451030607693
 20
-3.555659726572848
 30
0.0
 10
6.108760260121647
 20
-3.573822260201874
 30
0.0
 10
6.120373948639477
 20
-3.581059877416022
 30
0.0
 10
6.129273183924194
 20
-3.587011445068507
 30
0.0
 10
6.149531315945599
 20
-3.577886251052505
 30
0.0
 10
6.161618330303022
 20
-3.581067007364127
 30
0.0
 10
6.172578013758892
 20
-3.591579503329967
 30
0.0
 10
6.168706718855597
 20
-3.604001234949514
 30
0.0
 10
6.153518411393406
 20
-3.602909182198092
 30
0.0
 10
6.143048691211965
 20
-3.611482310289854
 30
0.0
 10
6.13427891078638
 20
-3.607144413473886
 30
0.0
 10
6.124496162272432
 20
-3.60275033671486
 30
0.0
 10
6.100059228280517
 20
-3.62396402157209
 30
0.0
 10
6.123428705710365
 20
-3.637235883444974
 30
0.0
 10
6.147868750650129
 20
-3.629030091966834
 30
0.0
 10
6.163673645208013
 20
-3.625802015095536
 30
0.0
 10
6.181645633403225
 20
-3.635804847572696
 30
0.0
 10
6.195839079379411
 20
-3.629039365684699
 30
0.0
 10
6.199505681879296
 20
-3.603967758703169
 30
0.0
 10
6.234020436806859
 20
-3.617295127098373
 30
0.0
 10
6.216611998827223
 20
-3.643093147486726
 30
0.0
 10
6.21325160770665
 20
-3.653613870003747
 30
0.0
 10
6.091021922722776
 20
-3.65498075219519
 30
0.0
 10
6.09286523783986
 20
-3.643103124964252
 30
0.0
 10
6.088798823957605
 20
-3.626273303844262
 30
0.0
 10
6.100214020827757
 20
-3.608354020182471
 30
0.0
 10
6.098528738784377
 20
-3.593743709848038
 30
0.0
 10
6.091361014393012
 20
-3.580550345018802
 30
0.0
 10
6.083319246064749
 20
-3.502786522908877
 30
0.0
 10
6.106619327626327
 20
-3.505594889322916
 30
0.0
  0
SPLINE
  5
E1
330
7F
100
AcDbEntity
  8
Layer 1
100
AcDbSpline
210
0.0
220
0.0
230
1.0
 70
     9
 71
     3
 72
    17
 73
    13
 74
     0
 42
0.0000000001
 43
0.0000000001
 40
0.0
 40
0.0
 40
0.0
 40
0.0
 40
1.0
 40
1.0
 40
1.0
 40
2.0
 40
2.0
 40
2.0
 40
3.0
 40
3.0
 40
3.0
 40
4.0
 40
4.0
 40
4.0
 40
4.0
 10
6.14771633283466
 20
-3.491841634114583
 30
0.0
 10
6.114388872900765
 20
-3.502212639996754
 30
0.0
 10
6.06634777180347
 20
-3.415395052541687
 30
0.0
 10
6.11272204286648
 20
-3.427353360490453
 30
0.0
 10
6.11306741352612
 20
-3.445714268437894
 30
0.0
 10
6.12833907961087
 20
-3.468706485132555
 30
0.0
 10
6.147863774179439
 20
-3.4713699476901
 30
0.0
 10
6.166853454266376
 20
-3.468239524590141
 30
0.0
 10
6.183205578705054
 20
-3.445709606071936
 30
0.0
 10
6.183145670400133
 20
-3.42737052202003
 30
0.0
 10
6.230544568032731
 20
-3.419997595347656
 30
0.0
 10
6.181967237599362
 20
-3.497266321262082
 30
0.0
 10
6.14771633283466
 20
-3.491841634114583
 30
0.0
  0
HATCH
  5
E2
330
7F
100
AcDbEntity
  8
Layer 1
 62
   250
420
  2301728
440
 33554687
100
AcDbHatch
 10
0.0
 20
0.0
 30
0.0
210
0.0
220
0.0
230
1.0
  2
SOLID
 70
     1
 71
     1
 91
        5
 92
        1
 93
        1
 72
     4
 94
        3
 73
     0
 74
     0
 95
       14
 96
       10
 40
0.0
 40
0.0
 40
0.0
 40
0.0
 40
1.0
 40
1.0
 40
1.0
 40
2.0
 40
2.0
 40
2.0
 40
3.0
 40
3.0
 40
3.0
 40
3.0
 10
6.257864444813826
 20
-3.59481472439236
 10
6.234887285351962
 20
-3.637426768019723
 10
6.224833713528722
 20
-3.573773565976251
 10
6.230069560458534
 20
-3.55356372980667
 10
6.23399423276909
 20
-3.534515747677106
 10
6.215786697810218
 20
-3.463178763897947
 10
6.25359042546145
 20
-3.482362906174772
 10
6.255727722571438
 20
-3.514997327522451
 10
6.258246695668579
 20
-3.556398283224426
 10
6.257864444813826
 20
-3.59481472439236
 97
        0
 97
        1
330
DD
 92
        1
 93
        1
 72
     4
 94
        3
 73
     0
 74
     0
 95
       32
 96
       28
 40
0.0
 40
0.0
 40
0.0
 40
0.0
 40
1.0
 40
1.0
 40
1.0
 40
2.0
 40
2.0
 40
2.0
 40
3.0
 40
3.0
 40
3.0
 40
4.0
 40
4.0
 40
4.0
 40
5.0
 40
5.0
 40
5.0
 40
6.0
 40
6.0
 40
6.0
 40
7.0
 40
7.0
 40
7.0
 40
8.0
 40
8.0
 40
8.0
 40
9.0
 40
9.0
 40
9.0
 40
9.0
 10
6.312863902279104
 20
-3.423088921440971
 10
6.329183759702951
 20
-3.435906527125464
 10
6.315147330751415
 20
-3.478086600025587
 10
6.319599195644589
 20
-3.498559833092333
 10
6.321168286994179
 20
-3.526315818869685
 10
6.32526457959294
 20
-3.549042847552818
 10
6.320651032927798
 20
-3.575561077293425
 10
6.34462283555965
 20
-3.656708146525564
 10
6.311207109382949
 20
-3.644644181543058
 10
6.245791725493543
 20
-3.642175529089803
 10
6.208179165027457
 20
-3.601127697179713
 10
6.332969070032403
 20
-3.647137306281542
 10
6.298806748124787
 20
-3.601844400615656
 10
6.298809833513031
 20
-3.574010307260878
 10
6.298813996903668
 20
-3.540425729699689
 10
6.298812247676955
 20
-3.512620680911923
 10
6.291911505767883
 20
-3.440958440378305
 10
6.329470770172494
 20
-3.443839674058797
 10
6.247475477839088
 20
-3.441434339422307
 10
6.225129721314033
 20
-3.435640830731724
 10
6.246595062660818
 20
-3.478199515096017
 10
6.217523900647998
 20
-3.461437507617119
 10
6.21636642253409
 20
-3.453139534389568
 10
6.213180018765442
 20
-3.427595517390273
 10
6.223331353235455
 20
-3.423090673189853
 10
6.251337339948197
 20
-3.42312719000184
 10
6.284917522596919
 20
-3.42306133799386
 10
6.312863902279104
 20
-3.423088921440971
 97
        0
 97
        1
330
DE
 92
        1
 93
        1
 72
     4
 94
        3
 73
     0
 74
     0
 95
       11
 96
        7
 40
0.0
 40
0.0
 40
0.0
 40
0.0
 40
1.0
 40
1.0
 40
1.0
 40
2.0
 40
2.0
 40
2.0
 40
2.0
 10
6.134112274674937
 20
-3.443868001302083
 10
6.134481454892566
 20
-3.425956580193554
 10
6.161250453179869
 20
-3.425953796344338
 10
6.161618744779212
 20
-3.443869775642989
 10
6.161293009206979
 20
-3.461126584088232
 10
6.134431646390465
 20
-3.461126119816728
 10
6.134112274674937
 20
-3.443868001302083
 97
        0
 97
        1
330
DF
 92
        1
 93
        1
 72
     4
 94
        3
 73
     0
 74
     0
 95
       47
 96
       43
 40
0.0
 40
0.0
 40
0.0
 40
0.0
 40
1.0
 40
1.0
 40
1.0
 40
2.0
 40
2.0
 40
2.0
 40
3.0
 40
3.0
 40
3.0
 40
4.0
 40
4.0
 40
4.0
 40
5.0
 40
5.0
 40
5.0
 40
6.0
 40
6.0
 40
6.0
 40
7.0
 40
7.0
 40
7.0
 40
8.0
 40
8.0
 40
8.0
 40
9.0
 40
9.0
 40
9.0
 40
10.0
 40
10.0
 40
10.0
 40
11.0
 40
11.0
 40
11.0
 40
12.0
 40
12.0
 40
12.0
 40
13.0
 40
13.0
 40
13.0
 40
14.0
 40
14.0
 40
14.0
 40
14.0
 10
6.106619327626327
 20
-3.505594889322916
 10
6.127628878581313
 20
-3.506365839049824
 10
6.113978253952179
 20
-3.523088474054272
 10
6.120367176574896
 20
-3.532791375823497
 10
6.142261708913211
 20
-3.535298756037731
 10
6.160606829067622
 20
-3.541056309746598
 10
6.184839042838929
 20
-3.541179775327893
 10
6.211174611752236
 20
-3.568263647182296
 10
6.145175279954425
 20
-3.574801517967734
 10
6.168332652279104
 20
-3.553866916232638
 10
6.152571239509319
 20
-3.555618399493798
 10
6.137196967637615
 20
-3.567493588925129
 10
6.12449655133888
 20
-3.551882362134531
 10
6.111451030607693
 20
-3.555659726572848
 10
6.108760260121647
 20
-3.573822260201874
 10
6.120373948639477
 20
-3.581059877416022
 10
6.129273183924194
 20
-3.587011445068507
 10
6.149531315945599
 20
-3.577886251052505
 10
6.161618330303022
 20
-3.581067007364127
 10
6.172578013758892
 20
-3.591579503329967
 10
6.168706718855597
 20
-3.604001234949514
 10
6.153518411393406
 20
-3.602909182198092
 10
6.143048691211965
 20
-3.611482310289854
 10
6.13427891078638
 20
-3.607144413473886
 10
6.124496162272432
 20
-3.60275033671486
 10
6.100059228280517
 20
-3.62396402157209
 10
6.123428705710365
 20
-3.637235883444974
 10
6.147868750650129
 20
-3.629030091966834
 10
6.163673645208013
 20
-3.625802015095536
 10
6.181645633403225
 20
-3.635804847572696
 10
6.195839079379411
 20
-3.629039365684699
 10
6.199505681879296
 20
-3.603967758703169
 10
6.234020436806859
 20
-3.617295127098373
 10
6.216611998827223
 20
-3.643093147486726
 10
6.21325160770665
 20
-3.653613870003747
 10
6.091021922722776
 20
-3.65498075219519
 10
6.09286523783986
 20
-3.643103124964252
 10
6.088798823957605
 20
-3.626273303844262
 10
6.100214020827757
 20
-3.608354020182471
 10
6.098528738784377
 20
-3.593743709848038
 10
6.091361014393012
 20
-3.580550345018802
 10
6.083319246064749
 20
-3.502786522908877
 10
6.106619327626327
 20
-3.505594889322916
 97
        0
 97
        1
330
E0
 92
        1
 93
        1
 72
     4
 94
        3
 73
     0
 74
     0
 95
       17
 96
       13
 40
0.0
 40
0.0
 40
0.0
 40
0.0
 40
1.0
 40
1.0
 40
1.0
 40
2.0
 40
2.0
 40
2.0
 40
3.0
 40
3.0
 40
3.0
 40
4.0
 40
4.0
 40
4.0
 40
4.0
 10
6.14771633283466
 20
-3.491841634114583
 10
6.114388872900765
 20
-3.502212639996754
 10
6.06634777180347
 20
-3.415395052541687
 10
6.11272204286648
 20
-3.427353360490453
 10
6.11306741352612
 20
-3.445714268437894
 10
6.12833907961087
 20
-3.468706485132555
 10
6.147863774179439
 20
-3.4713699476901
 10
6.166853454266376
 20
-3.468239524590141
 10
6.183205578705054
 20
-3.445709606071936
 10
6.183145670400133
 20
-3.42737052202003
 10
6.230544568032731
 20
-3.419997595347656
 10
6.181967237599362
 20
-3.497266321262082
 10
6.14771633283466
 20
-3.491841634114583
 97
        0
 97
        1
330
E1
 75
     2
 76
     1
 98
        1
 10
0.0
 20
0.0
450
        0
451
        0
460
0.0
461
0.0
452
        0
462
0.0
453
        0
470

  0
SPLINE
  5
E3
330
7F
100
AcDbEntity
  8
Layer 1
100
AcDbSpline
210
0.0
220
0.0
230
1.0
 70
     9
 71
     3
 72
    14
 73
    10
 74
     0
 42
0.0000000001
 43
0.0000000001
 40
0.0
 40
0.0
 40
0.0
 40
0.0
 40
1.0
 40
1.0
 40
1.0
 40
2.0
 40
2.0
 40
2.0
 40
3.0
 40
3.0
 40
3.0
 40
3.0
 10
6.270085039431882
 20
-3.927510579427083
 30
0.0
 10
6.246822717720482
 20
-3.95743591979135
 30
0.0
 10
6.24677679326535
 20
-3.901475489275942
 30
0.0
 10
6.248701840423639
 20
-3.885037585513613
 30
0.0
 10
6.243430266011601
 20
-3.864378328683338
 30
0.0
 10
6.253468394890508
 20
-3.798310865511918
 30
0.0
 10
6.277121698982934
 20
-3.842560806137776
 30
0.0
 10
6.258917442830756
 20
-3.870735060549488
 30
0.0
 10
6.284014027361283
 20
-3.899052695550683
 30
0.0
 10
6.270085039431882
 20
-3.927510579427083
 30
0.0
  0
SPLINE
  5
E4
330
7F
100
AcDbEntity
  8
Layer 1
100
AcDbSpline
210
0.0
220
0.0
230
1.0
 70
     9
 71
     3
 72
    11
 73
     7
 74
     0
 42
0.0000000001
 43
0.0000000001
 40
0.0
 40
0.0
 40
0.0
 40
0.0
 40
1.0
 40
1.0
 40
1.0
 40
2.0
 40
2.0
 40
2.0
 40
2.0
 10
6.263059214779104
 20
-3.793063693576388
 30
0.0
 10
6.264385364775534
 20
-3.804356074926861
 30
0.0
 10
6.246235113648758
 20
-3.79879131735634
 30
0.0
 10
6.238917007499164
 20
-3.799026685553144
 30
0.0
 10
6.219174853188456
 20
-3.783942663561106
 30
0.0
 10
6.268006296160743
 20
-3.765684425506151
 30
0.0
 10
6.263059214779104
 20
-3.793063693576388
 30
0.0
  0
SPLINE
  5
E5
330
7F
100
AcDbEntity
  8
Layer 1
100
AcDbSpline
210
0.0
220
0.0
230
1.0
 70
     9
 71
     3
 72
    23
 73
    19
 74
     0
 42
0.0000000001
 43
0.0000000001
 40
0.0
 40
0.0
 40
0.0
 40
0.0
 40
1.0
 40
1.0
 40
1.0
 40
2.0
 40
2.0
 40
2.0
 40
3.0
 40
3.0
 40
3.0
 40
4.0
 40
4.0
 40
4.0
 40
5.0
 40
5.0
 40
5.0
 40
6.0
 40
6.0
 40
6.0
 40
6.0
 10
6.312565508181882
 20
-3.828206380208333
 30
0.0
 10
6.285392264654319
 20
-3.827080233797687
 30
0.0
 10
6.300689505532115
 20
-3.759498918114218
 30
0.0
 10
6.301246905100393
 20
-3.74035805121452
 30
0.0
 10
6.292144567716174
 20
-3.724409327093844
 30
0.0
 10
6.259632541829406
 20
-3.742551180178224
 30
0.0
 10
6.244424138175619
 20
-3.734851410598316
 30
0.0
 10
6.224323256544216
 20
-3.717235426998349
 30
0.0
 10
6.193568628475936
 20
-3.741299552579536
 30
0.0
 10
6.175371576599723
 20
-3.731656502873963
 30
0.0
 10
6.148565294640775
 20
-3.694811408973678
 30
0.0
 10
6.300737631873415
 20
-3.710874217545993
 30
0.0
 10
6.315912856469518
 20
-3.715756045974974
 30
0.0
 10
6.325149411827573
 20
-3.730862162544591
 30
0.0
 10
6.316950267944775
 20
-3.760589804285738
 30
0.0
 10
6.319596192361712
 20
-3.778699196966651
 30
0.0
 10
6.317278586884058
 20
-3.792655048618687
 30
0.0
 10
6.325938832379328
 20
-3.819058356060319
 30
0.0
 10
6.312565508181882
 20
-3.828206380208333
 30
0.0
  0
SPLINE
  5
E6
330
7F
100
AcDbEntity
  8
Layer 1
100
AcDbSpline
210
0.0
220
0.0
230
1.0
 70
     9
 71
     3
 72
    32
 73
    28
 74
     0
 42
0.0000000001
 43
0.0000000001
 40
0.0
 40
0.0
 40
0.0
 40
0.0
 40
1.0
 40
1.0
 40
1.0
 40
2.0
 40
2.0
 40
2.0
 40
3.0
 40
3.0
 40
3.0
 40
4.0
 40
4.0
 40
4.0
 40
5.0
 40
5.0
 40
5.0
 40
6.0
 40
6.0
 40
6.0
 40
7.0
 40
7.0
 40
7.0
 40
8.0
 40
8.0
 40
8.0
 40
9.0
 40
9.0
 40
9.0
 40
9.0
 10
6.114255503841604
 20
-3.83553738064236
 30
0.0
 10
6.142856381860458
 20
-3.840042985934044
 30
0.0
 10
6.120815037050912
 20
-3.885837809119847
 30
0.0
 10
6.129993043572438
 20
-3.905353407348103
 30
0.0
 10
6.142739110778974
 20
-3.925312086157305
 30
0.0
 10
6.168034402727496
 20
-3.904847380664225
 30
0.0
 10
6.178109642966319
 20
-3.892062254928229
 30
0.0
 10
6.178097410343853
 20
-3.879980441569487
 30
0.0
 10
6.178122241170487
 20
-3.854494057287537
 30
0.0
 10
6.178111809063592
 20
-3.842563327617313
 30
0.0
 10
6.176271460435322
 20
-3.811957661876716
 30
0.0
 10
6.217913740982112
 20
-3.836331136263829
 30
0.0
 10
6.23357093659269
 20
-3.836451991363408
 30
0.0
 10
6.235634737161135
 20
-3.862131754299538
 30
0.0
 10
6.233680711170109
 20
-3.89439994899102
 30
0.0
 10
6.234333294753392
 20
-3.920477935508465
 30
0.0
 10
6.218953183510089
 20
-3.968925043321165
 30
0.0
 10
6.206504453730531
 20
-3.885251069246793
 30
0.0
 10
6.214335251974994
 20
-3.869610542430639
 30
0.0
 10
6.219671757660332
 20
-3.846378887936768
 30
0.0
 10
6.191617805981498
 20
-3.840992794021808
 30
0.0
 10
6.19920981420882
 20
-3.870674693425725
 30
0.0
 10
6.214648234549384
 20
-3.947846571649177
 30
0.0
 10
6.081706002958197
 20
-3.958595401278001
 30
0.0
 10
6.106001240535861
 20
-3.879070341386523
 30
0.0
 10
6.111529270612966
 20
-3.870343293521588
 30
0.0
 10
6.099471591155709
 20
-3.837321566904721
 30
0.0
 10
6.114255503841604
 20
-3.83553738064236
 30
0.0
  0
SPLINE
  5
E7
330
7F
100
AcDbEntity
  8
Layer 1
100
AcDbSpline
210
0.0
220
0.0
230
1.0
 70
     9
 71
     3
 72
    26
 73
    22
 74
     0
 42
0.0000000001
 43
0.0000000001
 40
0.0
 40
0.0
 40
0.0
 40
0.0
 40
1.0
 40
1.0
 40
1.0
 40
2.0
 40
2.0
 40
2.0
 40
3.0
 40
3.0
 40
3.0
 40
4.0
 40
4.0
 40
4.0
 40
5.0
 40
5.0
 40
5.0
 40
6.0
 40
6.0
 40
6.0
 40
7.0
 40
7.0
 40
7.0
 40
7.0
 10
6.107229679188827
 20
-3.807122124565971
 30
0.0
 10
6.08438873944442
 20
-3.804993119044827
 30
0.0
 10
6.095229051388969
 20
-3.772229015852214
 30
0.0
 10
6.092864399438288
 20
-3.75731780585238
 30
0.0
 10
6.095263976909714
 20
-3.745738019232804
 30
0.0
 10
6.087424957701513
 20
-3.719136994720075
 30
0.0
 10
6.097134461087585
 20
-3.71147926067998
 30
0.0
 10
6.112331605798114
 20
-3.699965504101429
 30
0.0
 10
6.185706212979614
 20
-3.710011966892984
 30
0.0
 10
6.142375152754993
 20
-3.729205929543657
 30
0.0
 10
6.099794640992386
 20
-3.714578340367716
 30
0.0
 10
6.119729557270653
 20
-3.750133137811076
 30
0.0
 10
6.111655866471437
 20
-3.775191748815611
 30
0.0
 10
6.108625309942377
 20
-3.802759665748201
 30
0.0
 10
6.170172483957988
 20
-3.78087178457958
 30
0.0
 10
6.184836897003555
 20
-3.778703588378927
 30
0.0
 10
6.205775554890124
 20
-3.771268483260996
 30
0.0
 10
6.226668296813638
 20
-3.79325223107676
 30
0.0
 10
6.206229173024565
 20
-3.807130071830821
 30
0.0
 10
6.175322536949806
 20
-3.80711119251047
 30
0.0
 10
6.138104176846127
 20
-3.807130004294903
 30
0.0
 10
6.107229679188827
 20
-3.807122124565971
 30
0.0
  0
HATCH
  5
E8
330
7F
100
AcDbEntity
  8
Layer 1
 62
   250
420
  2301728
440
 33554687
100
AcDbHatch
 10
0.0
 20
0.0
 30
0.0
210
0.0
220
0.0
230
1.0
  2
SOLID
 70
     1
 71
     1
 91
        5
 92
        1
 93
        1
 72
     4
 94
        3
 73
     0
 74
     0
 95
       14
 96
       10
 40
0.0
 40
0.0
 40
0.0
 40
0.0
 40
1.0
 40
1.0
 40
1.0
 40
2.0
 40
2.0
 40
2.0
 40
3.0
 40
3.0
 40
3.0
 40
3.0
 10
6.270085039431882
 20
-3.927510579427083
 10
6.246822717720482
 20
-3.95743591979135
 10
6.24677679326535
 20
-3.901475489275942
 10
6.248701840423639
 20
-3.885037585513613
 10
6.243430266011601
 20
-3.864378328683338
 10
6.253468394890508
 20
-3.798310865511918
 10
6.277121698982934
 20
-3.842560806137776
 10
6.258917442830756
 20
-3.870735060549488
 10
6.284014027361283
 20
-3.899052695550683
 10
6.270085039431882
 20
-3.927510579427083
 97
        0
 97
        1
330
E3
 92
        1
 93
        1
 72
     4
 94
        3
 73
     0
 74
     0
 95
       11
 96
        7
 40
0.0
 40
0.0
 40
0.0
 40
0.0
 40
1.0
 40
1.0
 40
1.0
 40
2.0
 40
2.0
 40
2.0
 40
2.0
 10
6.263059214779104
 20
-3.793063693576388
 10
6.264385364775534
 20
-3.804356074926861
 10
6.246235113648758
 20
-3.79879131735634
 10
6.238917007499164
 20
-3.799026685553144
 10
6.219174853188456
 20
-3.783942663561106
 10
6.268006296160743
 20
-3.765684425506151
 10
6.263059214779104
 20
-3.793063693576388
 97
        0
 97
        1
330
E4
 92
        1
 93
        1
 72
     4
 94
        3
 73
     0
 74
     0
 95
       23
 96
       19
 40
0.0
 40
0.0
 40
0.0
 40
0.0
 40
1.0
 40
1.0
 40
1.0
 40
2.0
 40
2.0
 40
2.0
 40
3.0
 40
3.0
 40
3.0
 40
4.0
 40
4.0
 40
4.0
 40
5.0
 40
5.0
 40
5.0
 40
6.0
 40
6.0
 40
6.0
 40
6.0
 10
6.312565508181882
 20
-3.828206380208333
 10
6.285392264654319
 20
-3.827080233797687
 10
6.300689505532115
 20
-3.759498918114218
 10
6.301246905100393
 20
-3.74035805121452
 10
6.292144567716174
 20
-3.724409327093844
 10
6.259632541829406
 20
-3.742551180178224
 10
6.244424138175619
 20
-3.734851410598316
 10
6.224323256544216
 20
-3.717235426998349
 10
6.193568628475936
 20
-3.741299552579536
 10
6.175371576599723
 20
-3.731656502873963
 10
6.148565294640775
 20
-3.694811408973678
 10
6.300737631873415
 20
-3.710874217545993
 10
6.315912856469518
 20
-3.715756045974974
 10
6.325149411827573
 20
-3.730862162544591
 10
6.316950267944775
 20
-3.760589804285738
 10
6.319596192361712
 20
-3.778699196966651
 10
6.317278586884058
 20
-3.792655048618687
 10
6.325938832379328
 20
-3.819058356060319
 10
6.312565508181882
 20
-3.828206380208333
 97
        0
 97
        1
330
E5
 92
        1
 93
        1
 72
     4
 94
        3
 73
     0
 74
     0
 95
       32
 96
       28
 40
0.0
 40
0.0
 40
0.0
 40
0.0
 40
1.0
 40
1.0
 40
1.0
 40
2.0
 40
2.0
 40
2.0
 40
3.0
 40
3.0
 40
3.0
 40
4.0
 40
4.0
 40
4.0
 40
5.0
 40
5.0
 40
5.0
 40
6.0
 40
6.0
 40
6.0
 40
7.0
 40
7.0
 40
7.0
 40
8.0
 40
8.0
 40
8.0
 40
9.0
 40
9.0
 40
9.0
 40
9.0
 10
6.114255503841604
 20
-3.83553738064236
 10
6.142856381860458
 20
-3.840042985934044
 10
6.120815037050912
 20
-3.885837809119847
 10
6.129993043572438
 20
-3.905353407348103
 10
6.142739110778974
 20
-3.925312086157305
 10
6.168034402727496
 20
-3.904847380664225
 10
6.178109642966319
 20
-3.892062254928229
 10
6.178097410343853
 20
-3.879980441569487
 10
6.178122241170487
 20
-3.854494057287537
 10
6.178111809063592
 20
-3.842563327617313
 10
6.176271460435322
 20
-3.811957661876716
 10
6.217913740982112
 20
-3.836331136263829
 10
6.23357093659269
 20
-3.836451991363408
 10
6.235634737161135
 20
-3.862131754299538
 10
6.233680711170109
 20
-3.89439994899102
 10
6.234333294753392
 20
-3.920477935508465
 10
6.218953183510089
 20
-3.968925043321165
 10
6.206504453730531
 20
-3.885251069246793
 10
6.214335251974994
 20
-3.869610542430639
 10
6.219671757660332
 20
-3.846378887936768
 10
6.191617805981498
 20
-3.840992794021808
 10
6.19920981420882
 20
-3.870674693425725
 10
6.214648234549384
 20
-3.947846571649177
 10
6.081706002958197
 20
-3.958595401278001
 10
6.106001240535861
 20
-3.879070341386523
 10
6.111529270612966
 20
-3.870343293521588
 10
6.099471591155709
 20
-3.837321566904721
 10
6.114255503841604
 20
-3.83553738064236
 97
        0
 97
        1
330
E6
 92
        1
 93
        1
 72
     4
 94
        3
 73
     0
 74
     0
 95
       26
 96
       22
 40
0.0
 40
0.0
 40
0.0
 40
0.0
 40
1.0
 40
1.0
 40
1.0
 40
2.0
 40
2.0
 40
2.0
 40
3.0
 40
3.0
 40
3.0
 40
4.0
 40
4.0
 40
4.0
 40
5.0
 40
5.0
 40
5.0
 40
6.0
 40
6.0
 40
6.0
 40
7.0
 40
7.0
 40
7.0
 40
7.0
 10
6.107229679188827
 20
-3.807122124565971
 10
6.08438873944442
 20
-3.804993119044827
 10
6.095229051388969
 20
-3.772229015852214
 10
6.092864399438288
 20
-3.75731780585238
 10
6.095263976909714
 20
-3.745738019232804
 10
6.087424957701513
 20
-3.719136994720075
 10
6.097134461087585
 20
-3.71147926067998
 10
6.112331605798114
 20
-3.699965504101429
 10
6.185706212979614
 20
-3.710011966892984
 10
6.142375152754993
 20
-3.729205929543657
 10
6.099794640992386
 20
-3.714578340367716
 10
6.119729557270653
 20
-3.750133137811076
 10
6.111655866471437
 20
-3.775191748815611
 10
6.108625309942377
 20
-3.802759665748201
 10
6.170172483957988
 20
-3.78087178457958
 10
6.184836897003555
 20
-3.778703588378927
 10
6.205775554890124
 20
-3.771268483260996
 10
6.226668296813638
 20
-3.79325223107676
 10
6.206229173024565
 20
-3.807130071830821
 10
6.175322536949806
 20
-3.80711119251047
 10
6.138104176846127
 20
-3.807130004294903
 10
6.107229679188827
 20
-3.807122124565971
 97
        0
 97
        1
330
E7
 75
     2
 76
     1
 98
        1
 10
0.0
 20
0.0
450
        0
451
        0
460
0.0
461
0.0
452
        0
462
0.0
453
        0
470

  0
SPLINE
  5
E9
330
7F
100
AcDbEntity
  8
Layer 1
100
AcDbSpline
210
0.0
220
0.0
230
1.0
 70
     9
 71
     3
 72
    17
 73
    13
 74
     0
 42
0.0000000001
 43
0.0000000001
 40
0.0
 40
0.0
 40
0.0
 40
0.0
 40
1.0
 40
1.0
 40
1.0
 40
2.0
 40
2.0
 40
2.0
 40
3.0
 40
3.0
 40
3.0
 40
4.0
 40
4.0
 40
4.0
 40
4.0
 10
6.237085364952715
 20
-4.081759982638888
 30
0.0
 10
6.227051917786057
 20
-4.088511303477629
 30
0.0
 10
6.241612108032263
 20
-4.104376590788433
 30
0.0
 10
6.23707995779811
 20
-4.115980833500215
 30
0.0
 10
6.241373484682703
 20
-4.130022938418745
 30
0.0
 10
6.225732677554989
 20
-4.158374327358349
 30
0.0
 10
6.243957853418073
 20
-4.162734442187065
 30
0.0
 10
6.262475303679997
 20
-4.158401968386101
 30
0.0
 10
6.246463095944843
 20
-4.130243970604421
 30
0.0
 10
6.250843148197922
 20
-4.115981209175073
 30
0.0
 10
6.250070404887511
 20
-4.103348766729052
 30
0.0
 10
6.259941613308253
 20
-4.053452240146826
 30
0.0
 10
6.237085364952715
 20
-4.081759982638888
 30
0.0
  0
SPLINE
  5
EA
330
7F
100
AcDbEntity
  8
Layer 1
100
AcDbSpline
210
0.0
220
0.0
230
1.0
 70
     9
 71
     3
 72
    20
 73
    16
 74
     0
 42
0.0000000001
 43
0.0000000001
 40
0.0
 40
0.0
 40
0.0
 40
0.0
 40
1.0
 40
1.0
 40
1.0
 40
2.0
 40
2.0
 40
2.0
 40
3.0
 40
3.0
 40
3.0
 40
4.0
 40
4.0
 40
4.0
 40
5.0
 40
5.0
 40
5.0
 40
5.0
 10
6.24381279550827
 20
-4.17831081814236
 30
0.0
 10
6.220574524827017
 20
-4.180476201585912
 30
0.0
 10
6.203603480638144
 20
-4.178740268815229
 30
0.0
 10
6.209598404808653
 20
-4.150806638207869
 30
0.0
 10
6.208551102794191
 20
-4.137313724901824
 30
0.0
 10
6.209707794668146
 20
-4.120449521820634
 30
0.0
 10
6.216310223934745
 20
-4.109261036030438
 30
0.0
 10
6.223160244515333
 20
-4.090822575636289
 30
0.0
 10
6.195808972698841
 20
-4.058932682172009
 30
0.0
 10
6.223640401787027
 20
-4.054259373876233
 30
0.0
 10
6.272300738708054
 20
-4.054410997738576
 30
0.0
 10
6.274511560229054
 20
-4.063370465311765
 30
0.0
 10
6.271300622014576
 20
-4.109260830019567
 30
0.0
 10
6.266345124199688
 20
-4.136492468875568
 30
0.0
 10
6.288668554720667
 20
-4.189642360270909
 30
0.0
 10
6.24381279550827
 20
-4.17831081814236
 30
0.0
  0
SPLINE
  5
EB
330
7F
100
AcDbEntity
  8
Layer 1
100
AcDbSpline
210
0.0
220
0.0
230
1.0
 70
     9
 71
     3
 72
    11
 73
     7
 74
     0
 42
0.0000000001
 43
0.0000000001
 40
0.0
 40
0.0
 40
0.0
 40
0.0
 40
1.0
 40
1.0
 40
1.0
 40
2.0
 40
2.0
 40
2.0
 40
2.0
 10
6.175372040299937
 20
-4.040812174479166
 30
0.0
 10
6.175717142503698
 20
-4.023648464659307
 30
0.0
 10
6.209404250710122
 20
-4.020900563378656
 30
0.0
 10
6.209592369989422
 20
-4.040813018386958
 30
0.0
 10
6.212548943285431
 20
-4.068875513052274
 30
0.0
 10
6.173017362227053
 20
-4.06648341789859
 30
0.0
 10
6.175372040299937
 20
-4.040812174479166
 30
0.0
  0
SPLINE
  5
EC
330
7F
100
AcDbEntity
  8
Layer 1
100
AcDbSpline
210
0.0
220
0.0
230
1.0
 70
     9
 71
     3
 72
    44
 73
    40
 74
     0
 42
0.0000000001
 43
0.0000000001
 40
0.0
 40
0.0
 40
0.0
 40
0.0
 40
1.0
 40
1.0
 40
1.0
 40
2.0
 40
2.0
 40
2.0
 40
3.0
 40
3.0
 40
3.0
 40
4.0
 40
4.0
 40
4.0
 40
5.0
 40
5.0
 40
5.0
 40
6.0
 40
6.0
 40
6.0
 40
7.0
 40
7.0
 40
7.0
 40
8.0
 40
8.0
 40
8.0
 40
9.0
 40
9.0
 40
9.0
 40
10.0
 40
10.0
 40
10.0
 40
11.0
 40
11.0
 40
11.0
 40
12.0
 40
12.0
 40
12.0
 40
13.0
 40
13.0
 40
13.0
 40
13.0
 10
6.312863902279104
 20
-3.992533365885416
 30
0.0
 10
6.336067207224762
 20
-4.010080669356739
 30
0.0
 10
6.316315765373625
 20
-4.04290317745631
 30
0.0
 10
6.319591009669895
 20
-4.068310692806928
 30
0.0
 10
6.319586831349952
 20
-4.094149830490033
 30
0.0
 10
6.319594577486516
 20
-4.124971394017026
 30
0.0
 10
6.319591322980057
 20
-4.150811119533512
 30
0.0
 10
6.329761530815024
 20
-4.16557344940376
 30
0.0
 10
6.32360708313998
 20
-4.175943442067301
 30
0.0
 10
6.319583825444699
 20
-4.191759155510023
 30
0.0
 10
6.318387220822387
 20
-4.196107496969412
 30
0.0
 10
6.322566522082145
 20
-4.2164755981592
 30
0.0
 10
6.316228165988402
 20
-4.218342219554793
 30
0.0
 10
6.280250966994698
 20
-4.220907884516488
 30
0.0
 10
6.239139723211539
 20
-4.218418195041762
 30
0.0
 10
6.202865033191502
 20
-4.219260344790464
 30
0.0
 10
6.170373851950595
 20
-4.227579885411336
 30
0.0
 10
6.168563774018417
 20
-4.196379449748734
 30
0.0
 10
6.168643563186024
 20
-4.170976249205042
 30
0.0
 10
6.177160296343218
 20
-4.140287196876619
 30
0.0
 10
6.205835700651808
 20
-4.168859317929521
 30
0.0
 10
6.195073726344944
 20
-4.189928842926418
 30
0.0
 10
6.181456597814985
 20
-4.210899850562364
 30
0.0
 10
6.264410356604103
 20
-4.193287601230874
 30
0.0
 10
6.278329837314559
 20
-4.198486428382971
 30
0.0
 10
6.317070524713117
 20
-4.214542475323772
 30
0.0
 10
6.292922125585189
 20
-4.157661257011871
 30
0.0
 10
6.298816838777206
 20
-4.136759884166963
 30
0.0
 10
6.29655342380733
 20
-4.103331781897042
 30
0.0
 10
6.302328919788224
 20
-4.06528654797282
 30
0.0
 10
6.298812252973548
 20
-4.033786349826388
 30
0.0
 10
6.272362250592297
 20
-4.083153373517133
 30
0.0
 10
6.187630749266745
 20
-4.030743181323284
 30
0.0
 10
6.223639822082632
 20
-3.992527241914065
 30
0.0
 10
6.246524206510052
 20
-3.991759655523866
 30
0.0
 10
6.234116138771469
 20
-4.032615649667869
 30
0.0
 10
6.257865916033172
 20
-4.033785230704211
 30
0.0
 10
6.284494757376427
 20
-4.032841897908206
 30
0.0
 10
6.287578452193984
 20
-3.995795361267722
 30
0.0
 10
6.312863902279104
 20
-3.992533365885416
 30
0.0
  0
SPLINE
  5
ED
330
7F
100
AcDbEntity
  8
Layer 1
100
AcDbSpline
210
0.0
220
0.0
230
1.0
 70
     9
 71
     3
 72
    20
 73
    16
 74
     0
 42
0.0000000001
 43
0.0000000001
 40
0.0
 40
0.0
 40
0.0
 40
0.0
 40
1.0
 40
1.0
 40
1.0
 40
2.0
 40
2.0
 40
2.0
 40
3.0
 40
3.0
 40
3.0
 40
4.0
 40
4.0
 40
4.0
 40
5.0
 40
5.0
 40
5.0
 40
5.0
 10
6.099593502973548
 20
-4.136759440104166
 30
0.0
 10
6.073329925568562
 20
-4.114555387776792
 30
0.0
 10
6.12693050370755
 20
-4.114022738324466
 30
0.0
 10
6.141135548146444
 20
-4.115986172709451
 30
0.0
 10
6.157388909727968
 20
-4.110065697399073
 30
0.0
 10
6.227416704513542
 20
-4.12386454503764
 30
0.0
 10
6.182087547421032
 20
-4.136770651037283
 30
0.0
 10
6.156923393560544
 20
-4.136615592939202
 30
0.0
 10
6.127758962693102
 20
-4.127584894142184
 30
0.0
 10
6.141143678575771
 20
-4.164263877893505
 30
0.0
 10
6.137000811249536
 20
-4.179061861997928
 30
0.0
 10
6.152982896943992
 20
-4.22306090312592
 30
0.0
 10
6.12709049132766
 20
-4.21925905727581
 30
0.0
 10
6.082523714558899
 20
-4.212270581982364
 30
0.0
 10
6.157988575070021
 20
-4.12121339317884
 30
0.0
 10
6.099593502973548
 20
-4.136759440104166
 30
0.0
  0
SPLINE
  5
EE
330
7F
100
AcDbEntity
  8
Layer 1
100
AcDbSpline
210
0.0
220
0.0
230
1.0
 70
     9
 71
     3
 72
    23
 73
    19
 74
     0
 42
0.0000000001
 43
0.0000000001
 40
0.0
 40
0.0
 40
0.0
 40
0.0
 40
1.0
 40
1.0
 40
1.0
 40
2.0
 40
2.0
 40
2.0
 40
3.0
 40
3.0
 40
3.0
 40
4.0
 40
4.0
 40
4.0
 40
5.0
 40
5.0
 40
5.0
 40
6.0
 40
6.0
 40
6.0
 40
6.0
 10
6.099593502973548
 20
-4.095811631944444
 30
0.0
 10
6.084201473180301
 20
-4.069338367807012
 30
0.0
 10
6.096697715793172
 20
-4.029305818869753
 30
0.0
 10
6.092859774657502
 20
-3.999261790360984
 30
0.0
 10
6.10139430302479
 20
-3.987649229234875
 30
0.0
 10
6.177908497303152
 20
-3.988771450928538
 30
0.0
 10
6.188813038562708
 20
-3.999253020186175
 30
0.0
 10
6.181402879159905
 20
-4.030228853765265
 30
0.0
 10
6.132411086149178
 20
-4.003369125953756
 30
0.0
 10
6.113646395271997
 20
-4.013312407728777
 30
0.0
 10
6.090290310291972
 20
-4.052831601657708
 30
0.0
 10
6.155342389515933
 20
-4.022068723863829
 30
0.0
 10
6.168641617886856
 20
-4.040809963518944
 30
0.0
 10
6.164774691323095
 20
-4.072760759176263
 30
0.0
 10
6.114489886455
 20
-4.035543067688106
 30
0.0
 10
6.110592286986249
 20
-4.062503649470398
 30
0.0
 10
6.112318116876849
 20
-4.074488257576149
 30
0.0
 10
6.118438962342578
 20
-4.094272021335604
 30
0.0
 10
6.099593502973548
 20
-4.095811631944444
 30
0.0
  0
HATCH
  5
EF
330
7F
100
AcDbEntity
  8
Layer 1
 62
   250
420
  2301728
440
 33554687
100
AcDbHatch
 10
0.0
 20
0.0
 30
0.0
210
0.0
220
0.0
230
1.0
  2
SOLID
 70
     1
 71
     1
 91
        6
 92
        1
 93
        1
 72
     4
 94
        3
 73
     0
 74
     0
 95
       17
 96
       13
 40
0.0
 40
0.0
 40
0.0
 40
0.0
 40
1.0
 40
1.0
 40
1.0
 40
2.0
 40
2.0
 40
2.0
 40
3.0
 40
3.0
 40
3.0
 40
4.0
 40
4.0
 40
4.0
 40
4.0
 10
6.237085364952715
 20
-4.081759982638888
 10
6.227051917786057
 20
-4.088511303477629
 10
6.241612108032263
 20
-4.104376590788433
 10
6.23707995779811
 20
-4.115980833500215
 10
6.241373484682703
 20
-4.130022938418745
 10
6.225732677554989
 20
-4.158374327358349
 10
6.243957853418073
 20
-4.162734442187065
 10
6.262475303679997
 20
-4.158401968386101
 10
6.246463095944843
 20
-4.130243970604421
 10
6.250843148197922
 20
-4.115981209175073
 10
6.250070404887511
 20
-4.103348766729052
 10
6.259941613308253
 20
-4.053452240146826
 10
6.237085364952715
 20
-4.081759982638888
 97
        0
 97
        1
330
E9
 92
        1
 93
        1
 72
     4
 94
        3
 73
     0
 74
     0
 95
       20
 96
       16
 40
0.0
 40
0.0
 40
0.0
 40
0.0
 40
1.0
 40
1.0
 40
1.0
 40
2.0
 40
2.0
 40
2.0
 40
3.0
 40
3.0
 40
3.0
 40
4.0
 40
4.0
 40
4.0
 40
5.0
 40
5.0
 40
5.0
 40
5.0
 10
6.24381279550827
 20
-4.17831081814236
 10
6.220574524827017
 20
-4.180476201585912
 10
6.203603480638144
 20
-4.178740268815229
 10
6.209598404808653
 20
-4.150806638207869
 10
6.208551102794191
 20
-4.137313724901824
 10
6.209707794668146
 20
-4.120449521820634
 10
6.216310223934745
 20
-4.109261036030438
 10
6.223160244515333
 20
-4.090822575636289
 10
6.195808972698841
 20
-4.058932682172009
 10
6.223640401787027
 20
-4.054259373876233
 10
6.272300738708054
 20
-4.054410997738576
 10
6.274511560229054
 20
-4.063370465311765
 10
6.271300622014576
 20
-4.109260830019567
 10
6.266345124199688
 20
-4.136492468875568
 10
6.288668554720667
 20
-4.189642360270909
 10
6.24381279550827
 20
-4.17831081814236
 97
        0
 97
        1
330
EA
 92
        1
 93
        1
 72
     4
 94
        3
 73
     0
 74
     0
 95
       11
 96
        7
 40
0.0
 40
0.0
 40
0.0
 40
0.0
 40
1.0
 40
1.0
 40
1.0
 40
2.0
 40
2.0
 40
2.0
 40
2.0
 10
6.175372040299937
 20
-4.040812174479166
 10
6.175717142503698
 20
-4.023648464659307
 10
6.209404250710122
 20
-4.020900563378656
 10
6.209592369989422
 20
-4.040813018386958
 10
6.212548943285431
 20
-4.068875513052274
 10
6.173017362227053
 20
-4.06648341789859
 10
6.175372040299937
 20
-4.040812174479166
 97
        0
 97
        1
330
EB
 92
        1
 93
        1
 72
     4
 94
        3
 73
     0
 74
     0
 95
       44
 96
       40
 40
0.0
 40
0.0
 40
0.0
 40
0.0
 40
1.0
 40
1.0
 40
1.0
 40
2.0
 40
2.0
 40
2.0
 40
3.0
 40
3.0
 40
3.0
 40
4.0
 40
4.0
 40
4.0
 40
5.0
 40
5.0
 40
5.0
 40
6.0
 40
6.0
 40
6.0
 40
7.0
 40
7.0
 40
7.0
 40
8.0
 40
8.0
 40
8.0
 40
9.0
 40
9.0
 40
9.0
 40
10.0
 40
10.0
 40
10.0
 40
11.0
 40
11.0
 40
11.0
 40
12.0
 40
12.0
 40
12.0
 40
13.0
 40
13.0
 40
13.0
 40
13.0
 10
6.312863902279104
 20
-3.992533365885416
 10
6.336067207224762
 20
-4.010080669356739
 10
6.316315765373625
 20
-4.04290317745631
 10
6.319591009669895
 20
-4.068310692806928
 10
6.319586831349952
 20
-4.094149830490033
 10
6.319594577486516
 20
-4.124971394017026
 10
6.319591322980057
 20
-4.150811119533512
 10
6.329761530815024
 20
-4.16557344940376
 10
6.32360708313998
 20
-4.175943442067301
 10
6.319583825444699
 20
-4.191759155510023
 10
6.318387220822387
 20
-4.196107496969412
 10
6.322566522082145
 20
-4.2164755981592
 10
6.316228165988402
 20
-4.218342219554793
 10
6.280250966994698
 20
-4.220907884516488
 10
6.239139723211539
 20
-4.218418195041762
 10
6.202865033191502
 20
-4.219260344790464
 10
6.170373851950595
 20
-4.227579885411336
 10
6.168563774018417
 20
-4.196379449748734
 10
6.168643563186024
 20
-4.170976249205042
 10
6.177160296343218
 20
-4.140287196876619
 10
6.205835700651808
 20
-4.168859317929521
 10
6.195073726344944
 20
-4.189928842926418
 10
6.181456597814985
 20
-4.210899850562364
 10
6.264410356604103
 20
-4.193287601230874
 10
6.278329837314559
 20
-4.198486428382971
 10
6.317070524713117
 20
-4.214542475323772
 10
6.292922125585189
 20
-4.157661257011871
 10
6.298816838777206
 20
-4.136759884166963
 10
6.29655342380733
 20
-4.103331781897042
 10
6.302328919788224
 20
-4.06528654797282
 10
6.298812252973548
 20
-4.033786349826388
 10
6.272362250592297
 20
-4.083153373517133
 10
6.187630749266745
 20
-4.030743181323284
 10
6.223639822082632
 20
-3.992527241914065
 10
6.246524206510052
 20
-3.991759655523866
 10
6.234116138771469
 20
-4.032615649667869
 10
6.257865916033172
 20
-4.033785230704211
 10
6.284494757376427
 20
-4.032841897908206
 10
6.287578452193984
 20
-3.995795361267722
 10
6.312863902279104
 20
-3.992533365885416
 97
        0
 97
        1
330
EC
 92
        1
 93
        1
 72
     4
 94
        3
 73
     0
 74
     0
 95
       20
 96
       16
 40
0.0
 40
0.0
 40
0.0
 40
0.0
 40
1.0
 40
1.0
 40
1.0
 40
2.0
 40
2.0
 40
2.0
 40
3.0
 40
3.0
 40
3.0
 40
4.0
 40
4.0
 40
4.0
 40
5.0
 40
5.0
 40
5.0
 40
5.0
 10
6.099593502973548
 20
-4.136759440104166
 10
6.073329925568562
 20
-4.114555387776792
 10
6.12693050370755
 20
-4.114022738324466
 10
6.141135548146444
 20
-4.115986172709451
 10
6.157388909727968
 20
-4.110065697399073
 10
6.227416704513542
 20
-4.12386454503764
 10
6.182087547421032
 20
-4.136770651037283
 10
6.156923393560544
 20
-4.136615592939202
 10
6.127758962693102
 20
-4.127584894142184
 10
6.141143678575771
 20
-4.164263877893505
 10
6.137000811249536
 20
-4.179061861997928
 10
6.152982896943992
 20
-4.22306090312592
 10
6.12709049132766
 20
-4.21925905727581
 10
6.082523714558899
 20
-4.212270581982364
 10
6.157988575070021
 20
-4.12121339317884
 10
6.099593502973548
 20
-4.136759440104166
 97
        0
 97
        1
330
ED
 92
        1
 93
        1
 72
     4
 94
        3
 73
     0
 74
     0
 95
       23
 96
       19
 40
0.0
 40
0.0
 40
0.0
 40
0.0
 40
1.0
 40
1.0
 40
1.0
 40
2.0
 40
2.0
 40
2.0
 40
3.0
 40
3.0
 40
3.0
 40
4.0
 40
4.0
 40
4.0
 40
5.0
 40
5.0
 40
5.0
 40
6.0
 40
6.0
 40
6.0
 40
6.0
 10
6.099593502973548
 20
-4.095811631944444
 10
6.084201473180301
 20
-4.069338367807012
 10
6.096697715793172
 20
-4.029305818869753
 10
6.092859774657502
 20
-3.999261790360984
 10
6.10139430302479
 20
-3.987649229234875
 10
6.177908497303152
 20
-3.988771450928538
 10
6.188813038562708
 20
-3.999253020186175
 10
6.181402879159905
 20
-4.030228853765265
 10
6.132411086149178
 20
-4.003369125953756
 10
6.113646395271997
 20
-4.013312407728777
 10
6.090290310291972
 20
-4.052831601657708
 10
6.155342389515933
 20
-4.022068723863829
 10
6.168641617886856
 20
-4.040809963518944
 10
6.164774691323095
 20
-4.072760759176263
 10
6.114489886455
 20
-4.035543067688106
 10
6.110592286986249
 20
-4.062503649470398
 10
6.112318116876849
 20
-4.074488257576149
 10
6.118438962342578
 20
-4.094272021335604
 10
6.099593502973548
 20
-4.095811631944444
 97
        0
 97
        1
330
EE
 75
     2
 76
     1
 98
        1
 10
0.0
 20
0.0
450
        0
451
        0
460
0.0
461
0.0
452
        0
462
0.0
453
        0
470

  0
SPLINE
  5
F0
330
7F
100
AcDbEntity
  8
Layer 1
100
AcDbSpline
210
0.0
220
0.0
230
1.0
 70
     9
 71
     3
 72
    11
 73
     7
 74
     0
 42
0.0000000001
 43
0.0000000001
 40
0.0
 40
0.0
 40
0.0
 40
0.0
 40
1.0
 40
1.0
 40
1.0
 40
2.0
 40
2.0
 40
2.0
 40
2.0
 10
6.312863902279104
 20
-4.277255588107638
 30
0.0
 10
6.332535797887506
 20
-4.277468618921122
 30
0.0
 10
6.33380002145509
 20
-4.326866167327807
 30
0.0
 10
6.312867165866792
 20
-4.325228374251625
 30
0.0
 10
6.291874896358598
 20
-4.327016974773666
 30
0.0
 10
6.293236517467877
 20
-4.277431263573463
 30
0.0
 10
6.312863902279104
 20
-4.277255588107638
 30
0.0
  0
SPLINE
  5
F1
330
7F
100
AcDbEntity
  8
Layer 1
100
AcDbSpline
210
0.0
220
0.0
230
1.0
 70
     9
 71
     3
 72
    38
 73
    34
 74
     0
 42
0.0000000001
 43
0.0000000001
 40
0.0
 40
0.0
 40
0.0
 40
0.0
 40
1.0
 40
1.0
 40
1.0
 40
2.0
 40
2.0
 40
2.0
 40
3.0
 40
3.0
 40
3.0
 40
4.0
 40
4.0
 40
4.0
 40
5.0
 40
5.0
 40
5.0
 40
6.0
 40
6.0
 40
6.0
 40
7.0
 40
7.0
 40
7.0
 40
8.0
 40
8.0
 40
8.0
 40
9.0
 40
9.0
 40
9.0
 40
10.0
 40
10.0
 40
10.0
 40
11.0
 40
11.0
 40
11.0
 40
11.0
 10
6.29911064707077
 20
-4.401007758246527
 30
0.0
 10
6.336244150325177
 20
-4.409192847137685
 30
0.0
 10
6.32525211336186
 20
-4.455236859465571
 30
0.0
 10
6.326616024765952
 20
-4.483202324630584
 30
0.0
 10
6.329446306874388
 20
-4.506769151706925
 30
0.0
 10
6.28205751275795
 20
-4.511255709025539
 30
0.0
 10
6.27161673220376
 20
-4.496960438404142
 30
0.0
 10
6.314098690295748
 20
-4.475295167947731
 30
0.0
 10
6.305812112183931
 20
-4.48979920532372
 30
0.0
 10
6.30583443642619
 20
-4.435224080223608
 30
0.0
 10
6.219923894724034
 20
-4.39530190411142
 30
0.0
 10
6.265868147758434
 20
-4.430841535371174
 30
0.0
 10
6.25221840693699
 20
-4.461353860400296
 30
0.0
 10
6.250242619583761
 20
-4.466095443992748
 30
0.0
 10
6.25148266595771
 20
-4.484733635059127
 30
0.0
 10
6.251150149188383
 20
-4.490228186410515
 30
0.0
 10
6.237744454560621
 20
-4.509781247112477
 30
0.0
 10
6.216428450876037
 20
-4.490052217482394
 30
0.0
 10
6.223652367093462
 20
-4.469455021782979
 30
0.0
 10
6.229595571918202
 20
-4.452245500137096
 30
0.0
 10
6.229550148914287
 20
-4.445713235398316
 30
0.0
 10
6.223634399478744
 20
-4.428507581292011
 30
0.0
 10
6.22993626934178
 20
-4.417325149039962
 30
0.0
 10
6.231618178226526
 20
-4.400704117044938
 30
0.0
 10
6.230368031288334
 20
-4.38726001486134
 30
0.0
 10
6.233598050839695
 20
-4.369411094186022
 30
0.0
 10
6.21755632253088
 20
-4.237182496473173
 30
0.0
 10
6.251152071992438
 20
-4.291001942462457
 30
0.0
 10
6.251149419719442
 20
-4.314490296093733
 30
0.0
 10
6.251151412247887
 20
-4.342964988629887
 30
0.0
 10
6.251150575091387
 20
-4.366482220534622
 30
0.0
 10
6.243396944129623
 20
-4.409628495050242
 30
0.0
 10
6.261463143650593
 20
-4.413796954911529
 30
0.0
 10
6.29911064707077
 20
-4.401007758246527
 30
0.0
  0
SPLINE
  5
F2
330
7F
100
AcDbEntity
  8
Layer 1
100
AcDbSpline
210
0.0
220
0.0
230
1.0
 70
     9
 71
     3
 72
    11
 73
     7
 74
     0
 42
0.0000000001
 43
0.0000000001
 40
0.0
 40
0.0
 40
0.0
 40
0.0
 40
1.0
 40
1.0
 40
1.0
 40
2.0
 40
2.0
 40
2.0
 40
2.0
 10
6.168332652279104
 20
-4.39398193359375
 30
0.0
 10
6.169812886481722
 20
-4.371316896810981
 30
0.0
 10
6.206246575841204
 20
-4.379867147431619
 30
0.0
 10
6.194156260338078
 20
-4.400094212774635
 30
0.0
 10
6.187468835722534
 20
-4.400632948736971
 30
0.0
 10
6.168974459601738
 20
-4.40484200618861
 30
0.0
 10
6.168332652279104
 20
-4.39398193359375
 30
0.0
  0
SPLINE
  5
F3
330
7F
100
AcDbEntity
  8
Layer 1
100
AcDbSpline
210
0.0
220
0.0
230
1.0
 70
     9
 71
     3
 72
    44
 73
    40
 74
     0
 42
0.0000000001
 43
0.0000000001
 40
0.0
 40
0.0
 40
0.0
 40
0.0
 40
1.0
 40
1.0
 40
1.0
 40
2.0
 40
2.0
 40
2.0
 40
3.0
 40
3.0
 40
3.0
 40
4.0
 40
4.0
 40
4.0
 40
5.0
 40
5.0
 40
5.0
 40
6.0
 40
6.0
 40
6.0
 40
7.0
 40
7.0
 40
7.0
 40
8.0
 40
8.0
 40
8.0
 40
9.0
 40
9.0
 40
9.0
 40
10.0
 40
10.0
 40
10.0
 40
11.0
 40
11.0
 40
11.0
 40
12.0
 40
12.0
 40
12.0
 40
13.0
 40
13.0
 40
13.0
 40
13.0
 10
6.209592417904104
 20
-4.338982476128472
 30
0.0
 10
6.216535756802563
 20
-4.359532756933099
 30
0.0
 10
6.164870373900712
 20
-4.357253846066947
 30
0.0
 10
6.161616123756957
 20
-4.345710072362471
 30
0.0
 10
6.171910608816233
 20
-4.334569734386048
 30
0.0
 10
6.209839539860139
 20
-4.332667346997671
 30
0.0
 10
6.189106966197514
 20
-4.304747745078328
 30
0.0
 10
6.18165826422632
 20
-4.291207025950193
 30
0.0
 10
6.161548203239059
 20
-4.310896874779245
 30
0.0
 10
6.147865911035043
 20
-4.304747359160652
 30
0.0
 10
6.111886604822934
 20
-4.296981067434191
 30
0.0
 10
6.122109231415909
 20
-4.348350009159641
 30
0.0
 10
6.120370884311038
 20
-4.373203049282134
 30
0.0
 10
6.126353884057455
 20
-4.400604366277156
 30
0.0
 10
6.09921226410299
 20
-4.459066100336561
 30
0.0
 10
6.14786380149634
 20
-4.442257420909704
 30
0.0
 10
6.152766949527554
 20
-4.441898959881856
 30
0.0
 10
6.177725080930232
 20
-4.442521451157264
 30
0.0
 10
6.182086076052883
 20
-4.442259950744212
 30
0.0
 10
6.177842073089625
 20
-4.457729507132979
 30
0.0
 10
6.194030722543175
 20
-4.499980253672725
 30
0.0
 10
6.168337102506357
 20
-4.496956118006841
 30
0.0
 10
6.156679385428333
 20
-4.519159866313657
 30
0.0
 10
6.167441871938788
 20
-4.464074413376212
 30
0.0
 10
6.161624719392748
 20
-4.455706671519869
 30
0.0
 10
6.143733125623738
 20
-4.443375890793213
 30
0.0
 10
6.118053328257903
 20
-4.47194906513803
 30
0.0
 10
6.103866421713594
 20
-4.456777589046206
 30
0.0
 10
6.093491962442511
 20
-4.443201595786174
 30
0.0
 10
6.103007945731203
 20
-4.406852637902513
 30
0.0
 10
6.099885965872317
 20
-4.387262638618482
 30
0.0
 10
6.083312856533717
 20
-4.363079347422424
 30
0.0
 10
6.100883852761398
 20
-4.337334850932304
 30
0.0
 10
6.099896607940459
 20
-4.311482261420993
 30
0.0
 10
6.095596206700545
 20
-4.276117881289033
 30
0.0
 10
6.138009855621526
 20
-4.286400770142803
 30
0.0
 10
6.158866585099556
 20
-4.282914757952349
 30
0.0
 10
6.194523019723495
 20
-4.261260315208359
 30
0.0
 10
6.232053616045681
 20
-4.305570648762568
 30
0.0
 10
6.209592417904104
 20
-4.338982476128472
 30
0.0
  0
HATCH
  5
F4
330
7F
100
AcDbEntity
  8
Layer 1
 62
   250
420
  2301728
440
 33554687
100
AcDbHatch
 10
0.0
 20
0.0
 30
0.0
210
0.0
220
0.0
230
1.0
  2
SOLID
 70
     1
 71
     1
 91
        4
 92
        1
 93
        1
 72
     4
 94
        3
 73
     0
 74
     0
 95
       11
 96
        7
 40
0.0
 40
0.0
 40
0.0
 40
0.0
 40
1.0
 40
1.0
 40
1.0
 40
2.0
 40
2.0
 40
2.0
 40
2.0
 10
6.312863902279104
 20
-4.277255588107638
 10
6.332535797887506
 20
-4.277468618921122
 10
6.33380002145509
 20
-4.326866167327807
 10
6.312867165866792
 20
-4.325228374251625
 10
6.291874896358598
 20
-4.327016974773666
 10
6.293236517467877
 20
-4.277431263573463
 10
6.312863902279104
 20
-4.277255588107638
 97
        0
 97
        1
330
F0
 92
        1
 93
        1
 72
     4
 94
        3
 73
     0
 74
     0
 95
       38
 96
       34
 40
0.0
 40
0.0
 40
0.0
 40
0.0
 40
1.0
 40
1.0
 40
1.0
 40
2.0
 40
2.0
 40
2.0
 40
3.0
 40
3.0
 40
3.0
 40
4.0
 40
4.0
 40
4.0
 40
5.0
 40
5.0
 40
5.0
 40
6.0
 40
6.0
 40
6.0
 40
7.0
 40
7.0
 40
7.0
 40
8.0
 40
8.0
 40
8.0
 40
9.0
 40
9.0
 40
9.0
 40
10.0
 40
10.0
 40
10.0
 40
11.0
 40
11.0
 40
11.0
 40
11.0
 10
6.29911064707077
 20
-4.401007758246527
 10
6.336244150325177
 20
-4.409192847137685
 10
6.32525211336186
 20
-4.455236859465571
 10
6.326616024765952
 20
-4.483202324630584
 10
6.329446306874388
 20
-4.506769151706925
 10
6.28205751275795
 20
-4.511255709025539
 10
6.27161673220376
 20
-4.496960438404142
 10
6.314098690295748
 20
-4.475295167947731
 10
6.305812112183931
 20
-4.48979920532372
 10
6.30583443642619
 20
-4.435224080223608
 10
6.219923894724034
 20
-4.39530190411142
 10
6.265868147758434
 20
-4.430841535371174
 10
6.25221840693699
 20
-4.461353860400296
 10
6.250242619583761
 20
-4.466095443992748
 10
6.25148266595771
 20
-4.484733635059127
 10
6.251150149188383
 20
-4.490228186410515
 10
6.237744454560621
 20
-4.509781247112477
 10
6.216428450876037
 20
-4.490052217482394
 10
6.223652367093462
 20
-4.469455021782979
 10
6.229595571918202
 20
-4.452245500137096
 10
6.229550148914287
 20
-4.445713235398316
 10
6.223634399478744
 20
-4.428507581292011
 10
6.22993626934178
 20
-4.417325149039962
 10
6.231618178226526
 20
-4.400704117044938
 10
6.230368031288334
 20
-4.38726001486134
 10
6.233598050839695
 20
-4.369411094186022
 10
6.21755632253088
 20
-4.237182496473173
 10
6.251152071992438
 20
-4.291001942462457
 10
6.251149419719442
 20
-4.314490296093733
 10
6.251151412247887
 20
-4.342964988629887
 10
6.251150575091387
 20
-4.366482220534622
 10
6.243396944129623
 20
-4.409628495050242
 10
6.261463143650593
 20
-4.413796954911529
 10
6.29911064707077
 20
-4.401007758246527
 97
        0
 97
        1
330
F1
 92
        1
 93
        1
 72
     4
 94
        3
 73
     0
 74
     0
 95
       11
 96
        7
 40
0.0
 40
0.0
 40
0.0
 40
0.0
 40
1.0
 40
1.0
 40
1.0
 40
2.0
 40
2.0
 40
2.0
 40
2.0
 10
6.168332652279104
 20
-4.39398193359375
 10
6.169812886481722
 20
-4.371316896810981
 10
6.206246575841204
 20
-4.379867147431619
 10
6.194156260338078
 20
-4.400094212774635
 10
6.187468835722534
 20
-4.400632948736971
 10
6.168974459601738
 20
-4.40484200618861
 10
6.168332652279104
 20
-4.39398193359375
 97
        0
 97
        1
330
F2
 92
        1
 93
        1
 72
     4
 94
        3
 73
     0
 74
     0
 95
       44
 96
       40
 40
0.0
 40
0.0
 40
0.0
 40
0.0
 40
1.0
 40
1.0
 40
1.0
 40
2.0
 40
2.0
 40
2.0
 40
3.0
 40
3.0
 40
3.0
 40
4.0
 40
4.0
 40
4.0
 40
5.0
 40
5.0
 40
5.0
 40
6.0
 40
6.0
 40
6.0
 40
7.0
 40
7.0
 40
7.0
 40
8.0
 40
8.0
 40
8.0
 40
9.0
 40
9.0
 40
9.0
 40
10.0
 40
10.0
 40
10.0
 40
11.0
 40
11.0
 40
11.0
 40
12.0
 40
12.0
 40
12.0
 40
13.0
 40
13.0
 40
13.0
 40
13.0
 10
6.209592417904104
 20
-4.338982476128472
 10
6.216535756802563
 20
-4.359532756933099
 10
6.164870373900712
 20
-4.357253846066947
 10
6.161616123756957
 20
-4.345710072362471
 10
6.171910608816233
 20
-4.334569734386048
 10
6.209839539860139
 20
-4.332667346997671
 10
6.189106966197514
 20
-4.304747745078328
 10
6.18165826422632
 20
-4.291207025950193
 10
6.161548203239059
 20
-4.310896874779245
 10
6.147865911035043
 20
-4.304747359160652
 10
6.111886604822934
 20
-4.296981067434191
 10
6.122109231415909
 20
-4.348350009159641
 10
6.120370884311038
 20
-4.373203049282134
 10
6.126353884057455
 20
-4.400604366277156
 10
6.09921226410299
 20
-4.459066100336561
 10
6.14786380149634
 20
-4.442257420909704
 10
6.152766949527554
 20
-4.441898959881856
 10
6.177725080930232
 20
-4.442521451157264
 10
6.182086076052883
 20
-4.442259950744212
 10
6.177842073089625
 20
-4.457729507132979
 10
6.194030722543175
 20
-4.499980253672725
 10
6.168337102506357
 20
-4.496956118006841
 10
6.156679385428333
 20
-4.519159866313657
 10
6.167441871938788
 20
-4.464074413376212
 10
6.161624719392748
 20
-4.455706671519869
 10
6.143733125623738
 20
-4.443375890793213
 10
6.118053328257903
 20
-4.47194906513803
 10
6.103866421713594
 20
-4.456777589046206
 10
6.093491962442511
 20
-4.443201595786174
 10
6.103007945731203
 20
-4.406852637902513
 10
6.099885965872317
 20
-4.387262638618482
 10
6.083312856533717
 20
-4.363079347422424
 10
6.100883852761398
 20
-4.337334850932304
 10
6.099896607940459
 20
-4.311482261420993
 10
6.095596206700545
 20
-4.276117881289033
 10
6.138009855621526
 20
-4.286400770142803
 10
6.158866585099556
 20
-4.282914757952349
 10
6.194523019723495
 20
-4.261260315208359
 10
6.232053616045681
 20
-4.305570648762568
 10
6.209592417904104
 20
-4.338982476128472
 97
        0
 97
        1
330
F3
 75
     2
 76
     1
 98
        1
 10
0.0
 20
0.0
450
        0
451
        0
460
0.0
461
0.0
452
        0
462
0.0
453
        0
470

  0
SPLINE
  5
F5
330
7F
100
AcDbEntity
  8
Layer 1
100
AcDbSpline
210
0.0
220
0.0
230
1.0
 70
     9
 71
     3
 72
    11
 73
     7
 74
     0
 42
0.0000000001
 43
0.0000000001
 40
0.0
 40
0.0
 40
0.0
 40
0.0
 40
1.0
 40
1.0
 40
1.0
 40
2.0
 40
2.0
 40
2.0
 40
2.0
 10
6.239526771202715
 20
-4.715521918402777
 30
0.0
 10
6.239211074444003
 20
-4.734503231507346
 30
0.0
 10
6.206803287841012
 20
-4.731637887499105
 30
0.0
 10
6.206228643347407
 20
-4.715521512626196
 30
0.0
 10
6.206807915801315
 20
-4.699410200931715
 30
0.0
 10
6.2392102848564
 20
-4.696542906409149
 30
0.0
 10
6.239526771202715
 20
-4.715521918402777
 30
0.0
  0
SPLINE
  5
F6
330
7F
100
AcDbEntity
  8
Layer 1
100
AcDbSpline
210
0.0
220
0.0
230
1.0
 70
     9
 71
     3
 72
    62
 73
    58
 74
     0
 42
0.0000000001
 43
0.0000000001
 40
0.0
 40
0.0
 40
0.0
 40
0.0
 40
1.0
 40
1.0
 40
1.0
 40
2.0
 40
2.0
 40
2.0
 40
3.0
 40
3.0
 40
3.0
 40
4.0
 40
4.0
 40
4.0
 40
5.0
 40
5.0
 40
5.0
 40
6.0
 40
6.0
 40
6.0
 40
7.0
 40
7.0
 40
7.0
 40
8.0
 40
8.0
 40
8.0
 40
9.0
 40
9.0
 40
9.0
 40
10.0
 40
10.0
 40
10.0
 40
11.0
 40
11.0
 40
11.0
 40
12.0
 40
12.0
 40
12.0
 40
13.0
 40
13.0
 40
13.0
 40
14.0
 40
14.0
 40
14.0
 40
15.0
 40
15.0
 40
15.0
 40
16.0
 40
16.0
 40
16.0
 40
17.0
 40
17.0
 40
17.0
 40
18.0
 40
18.0
 40
18.0
 40
19.0
 40
19.0
 40
19.0
 40
19.0
 10
6.300019392730493
 20
-4.569010416666666
 30
0.0
 10
6.325377091724627
 20
-4.571935732660449
 30
0.0
 10
6.306929120270675
 20
-4.613441489225338
 30
0.0
 10
6.313939031262154
 20
-4.629963198809591
 30
0.0
 10
6.336437901667977
 20
-4.664712722323315
 30
0.0
 10
6.285873410541575
 20
-4.654133037406735
 30
0.0
 10
6.266110020963449
 20
-4.655482618064537
 30
0.0
 10
6.246528114178444
 20
-4.651908256914794
 30
0.0
 10
6.225031068524432
 20
-4.662772117256836
 30
0.0
 10
6.206229006941232
 20
-4.661902632116366
 30
0.0
 10
6.21497833376932
 20
-4.678242567175439
 30
0.0
 10
6.255779614440117
 20
-4.664749370554987
 30
0.0
 10
6.272836039188582
 20
-4.668931971571433
 30
0.0
 10
6.312070909164023
 20
-4.663799354645801
 30
0.0
 10
6.30552377008194
 20
-4.676737641658607
 30
0.0
 10
6.307094158717492
 20
-4.70824318903668
 30
0.0
 10
6.31923402634647
 20
-4.724806067613232
 30
0.0
 10
6.310282723817458
 20
-4.755023340156147
 30
0.0
 10
6.312867473935865
 20
-4.7752887143929
 30
0.0
 10
6.313451996100966
 20
-4.790170171046674
 30
0.0
 10
6.27690760203235
 20
-4.794439248050998
 30
0.0
 10
6.266881525920173
 20
-4.784428206987879
 30
0.0
 10
6.262123486046675
 20
-4.769045320953106
 30
0.0
 10
6.273342860216668
 20
-4.767031709881848
 30
0.0
 10
6.285060382064708
 20
-4.771596582497131
 30
0.0
 10
6.292658919438306
 20
-4.754115741400255
 30
0.0
 10
6.282992376500664
 20
-4.728619064453583
 30
0.0
 10
6.286285332337683
 20
-4.708747531415105
 30
0.0
 10
6.299666917910421
 20
-4.670831577119025
 30
0.0
 10
6.239486931615551
 20
-4.698697435903087
 30
0.0
 10
6.219672396537185
 20
-4.682671028766056
 30
0.0
 10
6.187111363805393
 20
-4.703114677512581
 30
0.0
 10
6.153147088391859
 20
-4.648631641329353
 30
0.0
 10
6.199500094493765
 20
-4.64874477778302
 30
0.0
 10
6.219346717264872
 20
-4.638473538663851
 30
0.0
 10
6.24940568498376
 20
-4.635524188987283
 30
0.0
 10
6.27283705918262
 20
-4.635615916550679
 30
0.0
 10
6.300231247747584
 20
-4.640676795664035
 30
0.0
 10
6.293751185731429
 20
-4.626425466982949
 30
0.0
 10
6.293909574530744
 20
-4.606590394905563
 30
0.0
 10
6.301400854319934
 20
-4.558770938911164
 30
0.0
 10
6.256707543958226
 20
-4.608816225413672
 30
0.0
 10
6.242288213858879
 20
-4.616528479406471
 30
0.0
 10
6.221495388382183
 20
-4.638373763411878
 30
0.0
 10
6.223134870308007
 20
-4.577167766085178
 30
0.0
 10
6.20776296437369
 20
-4.602315050119273
 30
0.0
 10
6.192320787825918
 20
-4.645002695158003
 30
0.0
 10
6.17113027453638
 20
-4.578872454250699
 30
0.0
 10
6.207972535841387
 20
-4.572833263754028
 30
0.0
 10
6.224402490141224
 20
-4.557760094753626
 30
0.0
 10
6.233296434872474
 20
-4.590602992627433
 30
0.0
 10
6.243661078224325
 20
-4.586581470731175
 30
0.0
 10
6.247716007118974
 20
-4.565026558784148
 30
0.0
 10
6.278406194423293
 20
-4.576563314411449
 30
0.0
 10
6.27982353769577
 20
-4.56197781032986
 30
0.0
 10
6.287448678063001
 20
-4.566033200767074
 30
0.0
 10
6.291934406717826
 20
-4.569304886574033
 30
0.0
 10
6.300019392730493
 20
-4.569010416666666
 30
0.0
  0
SPLINE
  5
F7
330
7F
100
AcDbEntity
  8
Layer 1
100
AcDbSpline
210
0.0
220
0.0
230
1.0
 70
     9
 71
     3
 72
    17
 73
    13
 74
     0
 42
0.0000000001
 43
0.0000000001
 40
0.0
 40
0.0
 40
0.0
 40
0.0
 40
1.0
 40
1.0
 40
1.0
 40
2.0
 40
2.0
 40
2.0
 40
3.0
 40
3.0
 40
3.0
 40
4.0
 40
4.0
 40
4.0
 40
4.0
 10
6.266110972591604
 20
-4.755547417534722
 30
0.0
 10
6.264251210303982
 20
-4.780200061651852
 30
0.0
 10
6.22251663015451
 20
-4.764830565466328
 30
0.0
 10
6.206229157041812
 20
-4.768843929051664
 30
0.0
 10
6.19011143810927
 20
-4.766772632799415
 30
0.0
 10
6.131582198839244
 20
-4.778969926523434
 30
0.0
 10
6.150304524253543
 20
-4.746337189053532
 30
0.0
 10
6.166046131309611
 20
-4.735276735416694
 30
0.0
 10
6.190066566165316
 20
-4.745476214691822
 30
0.0
 10
6.206227554377114
 20
-4.748984487356602
 30
0.0
 10
6.222870611779423
 20
-4.746926362347076
 30
0.0
 10
6.262431968604636
 20
-4.7287084267077
 30
0.0
 10
6.266110972591604
 20
-4.755547417534722
 30
0.0
  0
SPLINE
  5
F8
330
7F
100
AcDbEntity
  8
Layer 1
100
AcDbSpline
210
0.0
220
0.0
230
1.0
 70
     9
 71
     3
 72
    38
 73
    34
 74
     0
 42
0.0000000001
 43
0.0000000001
 40
0.0
 40
0.0
 40
0.0
 40
0.0
 40
1.0
 40
1.0
 40
1.0
 40
2.0
 40
2.0
 40
2.0
 40
3.0
 40
3.0
 40
3.0
 40
4.0
 40
4.0
 40
4.0
 40
5.0
 40
5.0
 40
5.0
 40
6.0
 40
6.0
 40
6.0
 40
7.0
 40
7.0
 40
7.0
 40
8.0
 40
8.0
 40
8.0
 40
9.0
 40
9.0
 40
9.0
 40
10.0
 40
10.0
 40
10.0
 40
11.0
 40
11.0
 40
11.0
 40
11.0
 10
6.159475772938827
 20
-4.728814019097222
 30
0.0
 10
6.094007719398606
 20
-4.700255680838469
 30
0.0
 10
6.130858267517396
 20
-4.748475881723808
 30
0.0
 10
6.115481828696576
 20
-4.784429751266366
 30
0.0
 10
6.091547935963085
 20
-4.799236256732291
 30
0.0
 10
6.092416555756295
 20
-4.770453933531838
 30
0.0
 10
6.099900546776577
 20
-4.755400927415242
 30
0.0
 10
6.089216386690193
 20
-4.74049779473306
 30
0.0
 10
6.095754562115366
 20
-4.731382259151624
 30
0.0
 10
6.099899940715986
 20
-4.715372241605829
 30
0.0
 10
6.099893837684399
 20
-4.697607018634976
 30
0.0
 10
6.09989049828957
 20
-4.673250411794444
 30
0.0
 10
6.099891901319097
 20
-4.655483638815818
 30
0.0
 10
6.089157795010123
 20
-4.640868763448502
 30
0.0
 10
6.095729897355365
 20
-4.631240515349632
 30
0.0
 10
6.099899801512365
 20
-4.615451162107547
 30
0.0
 10
6.102938393180945
 20
-4.60387009511247
 30
0.0
 10
6.092594271882944
 20
-4.573672548612496
 30
0.0
 10
6.106302517185187
 20
-4.569008650044123
 30
0.0
 10
6.12597512233007
 20
-4.58930976351083
 30
0.0
 10
6.112168841864735
 20
-4.626990689793387
 30
0.0
 10
6.159570716515215
 20
-4.621866861979166
 30
0.0
 10
6.119525208984466
 20
-4.578421661682543
 30
0.0
 10
6.205570021522412
 20
-4.607499930062645
 30
0.0
 10
6.174690296982084
 20
-4.638371452160829
 30
0.0
 10
6.155641361815646
 20
-4.642384620920703
 30
0.0
 10
6.106020553320553
 20
-4.621806508764216
 30
0.0
 10
6.119449896780375
 20
-4.655477452707587
 30
0.0
 10
6.123376618356991
 20
-4.675056687182063
 30
0.0
 10
6.10455221909918
 20
-4.715626279770567
 30
0.0
 10
6.139618503432402
 20
-4.702226189112088
 30
0.0
 10
6.179660643568038
 20
-4.691937890851755
 30
0.0
 10
6.224256592442189
 20
-4.726861425481248
 30
0.0
 10
6.159475772938827
 20
-4.728814019097222
 30
0.0
  0
HATCH
  5
F9
330
7F
100
AcDbEntity
  8
Layer 1
 62
   250
420
  2301728
440
 33554687
100
AcDbHatch
 10
0.0
 20
0.0
 30
0.0
210
0.0
220
0.0
230
1.0
  2
SOLID
 70
     1
 71
     1
 91
        4
 92
        1
 93
        1
 72
     4
 94
        3
 73
     0
 74
     0
 95
       11
 96
        7
 40
0.0
 40
0.0
 40
0.0
 40
0.0
 40
1.0
 40
1.0
 40
1.0
 40
2.0
 40
2.0
 40
2.0
 40
2.0
 10
6.239526771202715
 20
-4.715521918402777
 10
6.239211074444003
 20
-4.734503231507346
 10
6.206803287841012
 20
-4.731637887499105
 10
6.206228643347407
 20
-4.715521512626196
 10
6.206807915801315
 20
-4.699410200931715
 10
6.2392102848564
 20
-4.696542906409149
 10
6.239526771202715
 20
-4.715521918402777
 97
        0
 97
        1
330
F5
 92
        1
 93
        1
 72
     4
 94
        3
 73
     0
 74
     0
 95
       62
 96
       58
 40
0.0
 40
0.0
 40
0.0
 40
0.0
 40
1.0
 40
1.0
 40
1.0
 40
2.0
 40
2.0
 40
2.0
 40
3.0
 40
3.0
 40
3.0
 40
4.0
 40
4.0
 40
4.0
 40
5.0
 40
5.0
 40
5.0
 40
6.0
 40
6.0
 40
6.0
 40
7.0
 40
7.0
 40
7.0
 40
8.0
 40
8.0
 40
8.0
 40
9.0
 40
9.0
 40
9.0
 40
10.0
 40
10.0
 40
10.0
 40
11.0
 40
11.0
 40
11.0
 40
12.0
 40
12.0
 40
12.0
 40
13.0
 40
13.0
 40
13.0
 40
14.0
 40
14.0
 40
14.0
 40
15.0
 40
15.0
 40
15.0
 40
16.0
 40
16.0
 40
16.0
 40
17.0
 40
17.0
 40
17.0
 40
18.0
 40
18.0
 40
18.0
 40
19.0
 40
19.0
 40
19.0
 40
19.0
 10
6.300019392730493
 20
-4.569010416666666
 10
6.325377091724627
 20
-4.571935732660449
 10
6.306929120270675
 20
-4.613441489225338
 10
6.313939031262154
 20
-4.629963198809591
 10
6.336437901667977
 20
-4.664712722323315
 10
6.285873410541575
 20
-4.654133037406735
 10
6.266110020963449
 20
-4.655482618064537
 10
6.246528114178444
 20
-4.651908256914794
 10
6.225031068524432
 20
-4.662772117256836
 10
6.206229006941232
 20
-4.661902632116366
 10
6.21497833376932
 20
-4.678242567175439
 10
6.255779614440117
 20
-4.664749370554987
 10
6.272836039188582
 20
-4.668931971571433
 10
6.312070909164023
 20
-4.663799354645801
 10
6.30552377008194
 20
-4.676737641658607
 10
6.307094158717492
 20
-4.70824318903668
 10
6.31923402634647
 20
-4.724806067613232
 10
6.310282723817458
 20
-4.755023340156147
 10
6.312867473935865
 20
-4.7752887143929
 10
6.313451996100966
 20
-4.790170171046674
 10
6.27690760203235
 20
-4.794439248050998
 10
6.266881525920173
 20
-4.784428206987879
 10
6.262123486046675
 20
-4.769045320953106
 10
6.273342860216668
 20
-4.767031709881848
 10
6.285060382064708
 20
-4.771596582497131
 10
6.292658919438306
 20
-4.754115741400255
 10
6.282992376500664
 20
-4.728619064453583
 10
6.286285332337683
 20
-4.708747531415105
 10
6.299666917910421
 20
-4.670831577119025
 10
6.239486931615551
 20
-4.698697435903087
 10
6.219672396537185
 20
-4.682671028766056
 10
6.187111363805393
 20
-4.703114677512581
 10
6.153147088391859
 20
-4.648631641329353
 10
6.199500094493765
 20
-4.64874477778302
 10
6.219346717264872
 20
-4.638473538663851
 10
6.24940568498376
 20
-4.635524188987283
 10
6.27283705918262
 20
-4.635615916550679
 10
6.300231247747584
 20
-4.640676795664035
 10
6.293751185731429
 20
-4.626425466982949
 10
6.293909574530744
 20
-4.606590394905563
 10
6.301400854319934
 20
-4.558770938911164
 10
6.256707543958226
 20
-4.608816225413672
 10
6.242288213858879
 20
-4.616528479406471
 10
6.221495388382183
 20
-4.638373763411878
 10
6.223134870308007
 20
-4.577167766085178
 10
6.20776296437369
 20
-4.602315050119273
 10
6.192320787825918
 20
-4.645002695158003
 10
6.17113027453638
 20
-4.578872454250699
 10
6.207972535841387
 20
-4.572833263754028
 10
6.224402490141224
 20
-4.557760094753626
 10
6.233296434872474
 20
-4.590602992627433
 10
6.243661078224325
 20
-4.586581470731175
 10
6.247716007118974
 20
-4.565026558784148
 10
6.278406194423293
 20
-4.576563314411449
 10
6.27982353769577
 20
-4.56197781032986
 10
6.287448678063001
 20
-4.566033200767074
 10
6.291934406717826
 20
-4.569304886574033
 10
6.300019392730493
 20
-4.569010416666666
 97
        0
 97
        1
330
F6
 92
        1
 93
        1
 72
     4
 94
        3
 73
     0
 74
     0
 95
       17
 96
       13
 40
0.0
 40
0.0
 40
0.0
 40
0.0
 40
1.0
 40
1.0
 40
1.0
 40
2.0
 40
2.0
 40
2.0
 40
3.0
 40
3.0
 40
3.0
 40
4.0
 40
4.0
 40
4.0
 40
4.0
 10
6.266110972591604
 20
-4.755547417534722
 10
6.264251210303982
 20
-4.780200061651852
 10
6.22251663015451
 20
-4.764830565466328
 10
6.206229157041812
 20
-4.768843929051664
 10
6.19011143810927
 20
-4.766772632799415
 10
6.131582198839244
 20
-4.778969926523434
 10
6.150304524253543
 20
-4.746337189053532
 10
6.166046131309611
 20
-4.735276735416694
 10
6.190066566165316
 20
-4.745476214691822
 10
6.206227554377114
 20
-4.748984487356602
 10
6.222870611779423
 20
-4.746926362347076
 10
6.262431968604636
 20
-4.7287084267077
 10
6.266110972591604
 20
-4.755547417534722
 97
        0
 97
        1
330
F7
 92
        1
 93
        1
 72
     4
 94
        3
 73
     0
 74
     0
 95
       38
 96
       34
 40
0.0
 40
0.0
 40
0.0
 40
0.0
 40
1.0
 40
1.0
 40
1.0
 40
2.0
 40
2.0
 40
2.0
 40
3.0
 40
3.0
 40
3.0
 40
4.0
 40
4.0
 40
4.0
 40
5.0
 40
5.0
 40
5.0
 40
6.0
 40
6.0
 40
6.0
 40
7.0
 40
7.0
 40
7.0
 40
8.0
 40
8.0
 40
8.0
 40
9.0
 40
9.0
 40
9.0
 40
10.0
 40
10.0
 40
10.0
 40
11.0
 40
11.0
 40
11.0
 40
11.0
 10
6.159475772938827
 20
-4.728814019097222
 10
6.094007719398606
 20
-4.700255680838469
 10
6.130858267517396
 20
-4.748475881723808
 10
6.115481828696576
 20
-4.784429751266366
 10
6.091547935963085
 20
-4.799236256732291
 10
6.092416555756295
 20
-4.770453933531838
 10
6.099900546776577
 20
-4.755400927415242
 10
6.089216386690193
 20
-4.74049779473306
 10
6.095754562115366
 20
-4.731382259151624
 10
6.099899940715986
 20
-4.715372241605829
 10
6.099893837684399
 20
-4.697607018634976
 10
6.09989049828957
 20
-4.673250411794444
 10
6.099891901319097
 20
-4.655483638815818
 10
6.089157795010123
 20
-4.640868763448502
 10
6.095729897355365
 20
-4.631240515349632
 10
6.099899801512365
 20
-4.615451162107547
 10
6.102938393180945
 20
-4.60387009511247
 10
6.092594271882944
 20
-4.573672548612496
 10
6.106302517185187
 20
-4.569008650044123
 10
6.12597512233007
 20
-4.58930976351083
 10
6.112168841864735
 20
-4.626990689793387
 10
6.159570716515215
 20
-4.621866861979166
 10
6.119525208984466
 20
-4.578421661682543
 10
6.205570021522412
 20
-4.607499930062645
 10
6.174690296982084
 20
-4.638371452160829
 10
6.155641361815646
 20
-4.642384620920703
 10
6.106020553320553
 20
-4.621806508764216
 10
6.119449896780375
 20
-4.655477452707587
 10
6.123376618356991
 20
-4.675056687182063
 10
6.10455221909918
 20
-4.715626279770567
 10
6.139618503432402
 20
-4.702226189112088
 10
6.179660643568038
 20
-4.691937890851755
 10
6.224256592442189
 20
-4.726861425481248
 10
6.159475772938827
 20
-4.728814019097222
 97
        0
 97
        1
330
F8
 75
     2
 76
     1
 98
        1
 10
0.0
 20
0.0
450
        0
451
        0
460
0.0
461
0.0
452
        0
462
0.0
453
        0
470

  0
SPLINE
  5
FA
330
7F
100
AcDbEntity
  8
Layer 1
100
AcDbSpline
210
0.0
220
0.0
230
1.0
 70
     9
 71
     3
 72
    26
 73
    22
 74
     0
 42
0.0000000001
 43
0.0000000001
 40
0.0
 40
0.0
 40
0.0
 40
0.0
 40
1.0
 40
1.0
 40
1.0
 40
2.0
 40
2.0
 40
2.0
 40
3.0
 40
3.0
 40
3.0
 40
4.0
 40
4.0
 40
4.0
 40
5.0
 40
5.0
 40
5.0
 40
6.0
 40
6.0
 40
6.0
 40
7.0
 40
7.0
 40
7.0
 40
7.0
 10
6.306150035091604
 20
-4.846700032552083
 30
0.0
 10
6.31776219155957
 20
-4.855524100942097
 30
0.0
 10
6.318940623338701
 20
-4.884339778150143
 30
0.0
 10
6.319597241141082
 20
-4.900170291206955
 30
0.0
 10
6.31718535891956
 20
-4.913115859712357
 30
0.0
 10
6.309981023069869
 20
-4.926122381795986
 30
0.0
 10
6.312868827652133
 20
-4.940206581649539
 30
0.0
 10
6.323024865707363
 20
-4.966362304854404
 30
0.0
 10
6.319048426039595
 20
-4.998408544905386
 30
0.0
 10
6.319589967384646
 20
-5.026673131279367
 30
0.0
 10
6.316941857329513
 20
-5.040758004503749
 30
0.0
 10
6.328518928118758
 20
-5.073001431330744
 30
0.0
 10
6.306151546397408
 20
-5.073424786361796
 30
0.0
 10
6.278933806724808
 20
-5.077901848868084
 30
0.0
 10
6.298634343631975
 20
-4.93886013002437
 30
0.0
 10
6.292999452945271
 20
-4.913623154864681
 30
0.0
 10
6.292440710304212
 20
-4.901481111837963
 30
0.0
 10
6.294187684250699
 20
-4.878861129526297
 30
0.0
 10
6.292248848711854
 20
-4.867329904697081
 30
0.0
 10
6.251416533705903
 20
-4.863608176167038
 30
0.0
 10
6.288125867899047
 20
-4.851620267458125
 30
0.0
 10
6.306150035091604
 20
-4.846700032552083
 30
0.0
  0
SPLINE
  5
FB
330
7F
100
AcDbEntity
  8
Layer 1
100
AcDbSpline
210
0.0
220
0.0
230
1.0
 70
     9
 71
     3
 72
    11
 73
     7
 74
     0
 42
0.0000000001
 43
0.0000000001
 40
0.0
 40
0.0
 40
0.0
 40
0.0
 40
1.0
 40
1.0
 40
1.0
 40
2.0
 40
2.0
 40
2.0
 40
2.0
 10
6.266110972591604
 20
-5.02667236328125
 30
0.0
 10
6.263959952687829
 20
-5.039929088765688
 30
0.0
 10
6.272100497735082
 20
-5.064761267764285
 30
0.0
 10
6.25939920455135
 20
-5.073424983176146
 30
0.0
 10
6.235182664242175
 20
-5.075800920853768
 30
0.0
 10
6.242644605414321
 20
-4.999053103801517
 30
0.0
 10
6.266110972591604
 20
-5.02667236328125
 30
0.0
  0
SPLINE
  5
FC
330
7F
100
AcDbEntity
  8
Layer 1
100
AcDbSpline
210
0.0
220
0.0
230
1.0
 70
     9
 71
     3
 72
    14
 73
    10
 74
     0
 42
0.0000000001
 43
0.0000000001
 40
0.0
 40
0.0
 40
0.0
 40
0.0
 40
1.0
 40
1.0
 40
1.0
 40
2.0
 40
2.0
 40
2.0
 40
3.0
 40
3.0
 40
3.0
 40
3.0
 10
6.266110972591604
 20
-4.860148111979166
 30
0.0
 10
6.266109580832713
 20
-4.896318407528648
 30
0.0
 10
6.266111975763148
 20
-4.937055844209567
 30
0.0
 10
6.266110969544797
 20
-4.973205576687657
 30
0.0
 10
6.240217788746652
 20
-5.002022393916288
 30
0.0
 10
6.246364226649474
 20
-4.941403974288442
 30
0.0
 10
6.246257843760834
 20
-4.926760108464135
 30
0.0
 10
6.249748835097003
 20
-4.910239316091885
 30
0.0
 10
6.233641603255868
 20
-4.834950498927455
 30
0.0
 10
6.266110972591604
 20
-4.860148111979166
 30
0.0
  0
SPLINE
  5
FD
330
7F
100
AcDbEntity
  8
Layer 1
100
AcDbSpline
210
0.0
220
0.0
230
1.0
 70
     9
 71
     3
 72
    11
 73
     7
 74
     0
 42
0.0000000001
 43
0.0000000001
 40
0.0
 40
0.0
 40
0.0
 40
0.0
 40
1.0
 40
1.0
 40
1.0
 40
2.0
 40
2.0
 40
2.0
 40
2.0
 10
6.206377899674937
 20
-4.873589409722222
 30
0.0
 10
6.223295654275438
 20
-4.873824858389487
 30
0.0
 10
6.223573353631258
 20
-4.900077125465776
 30
0.0
 10
6.206376473784327
 20
-4.900173524183034
 30
0.0
 10
6.18918459589554
 20
-4.900072196988376
 30
0.0
 10
6.189460248914252
 20
-4.873823583680594
 30
0.0
 10
6.206377899674937
 20
-4.873589409722222
 30
0.0
  0
SPLINE
  5
FE
330
7F
100
AcDbEntity
  8
Layer 1
100
AcDbSpline
210
0.0
220
0.0
230
1.0
 70
     9
 71
     3
 72
    11
 73
     7
 74
     0
 42
0.0000000001
 43
0.0000000001
 40
0.0
 40
0.0
 40
0.0
 40
0.0
 40
1.0
 40
1.0
 40
1.0
 40
2.0
 40
2.0
 40
2.0
 40
2.0
 10
6.159787730404104
 20
-5.019951714409722
 30
0.0
 10
6.170459529185184
 20
-5.023857610602968
 30
0.0
 10
6.170445042062889
 20
-5.069495810369352
 30
0.0
 10
6.15979759129939
 20
-5.073425627288807
 30
0.0
 10
6.139642858597299
 20
-5.072842167331726
 30
0.0
 10
6.139640862686619
 20
-5.020545233683328
 30
0.0
 10
6.159787730404104
 20
-5.019951714409722
 30
0.0
  0
SPLINE
  5
FF
330
7F
100
AcDbEntity
  8
Layer 1
100
AcDbSpline
210
0.0
220
0.0
230
1.0
 70
     9
 71
     3
 72
    11
 73
     7
 74
     0
 42
0.0000000001
 43
0.0000000001
 40
0.0
 40
0.0
 40
0.0
 40
0.0
 40
1.0
 40
1.0
 40
1.0
 40
2.0
 40
2.0
 40
2.0
 40
2.0
 10
6.153060299848548
 20
-4.873589409722222
 30
0.0
 10
6.1697971074362
 20
-4.873866886548057
 30
0.0
 10
6.170075257364234
 20
-4.900033676826965
 30
0.0
 10
6.153058912000662
 20
-4.9001735287358
 30
0.0
 10
6.13571723381483
 20
-4.900010882421775
 30
0.0
 10
6.135996400319704
 20
-4.873887437393364
 30
0.0
 10
6.153060299848548
 20
-4.873589409722222
 30
0.0
  0
SPLINE
  5
100
330
7F
100
AcDbEntity
  8
Layer 1
100
AcDbSpline
210
0.0
220
0.0
230
1.0
 70
     9
 71
     3
 72
    47
 73
    43
 74
     0
 42
0.0000000001
 43
0.0000000001
 40
0.0
 40
0.0
 40
0.0
 40
0.0
 40
1.0
 40
1.0
 40
1.0
 40
2.0
 40
2.0
 40
2.0
 40
3.0
 40
3.0
 40
3.0
 40
4.0
 40
4.0
 40
4.0
 40
5.0
 40
5.0
 40
5.0
 40
6.0
 40
6.0
 40
6.0
 40
7.0
 40
7.0
 40
7.0
 40
8.0
 40
8.0
 40
8.0
 40
9.0
 40
9.0
 40
9.0
 40
10.0
 40
10.0
 40
10.0
 40
11.0
 40
11.0
 40
11.0
 40
12.0
 40
12.0
 40
12.0
 40
13.0
 40
13.0
 40
13.0
 40
14.0
 40
14.0
 40
14.0
 40
14.0
 10
6.186575382313827
 20
-4.933478461371527
 30
0.0
 10
6.106628746412398
 20
-4.928654525278046
 30
0.0
 10
6.121287873242307
 20
-4.900585300428057
 30
0.0
 10
6.116704616754936
 20
-4.98833543428168
 30
0.0
 10
6.125689808586659
 20
-5.007328339859946
 30
0.0
 10
6.151278606564219
 20
-4.986073133440527
 30
0.0
 10
6.166337396030712
 20
-4.986649122094566
 30
0.0
 10
6.179982298830458
 20
-4.995467031569192
 30
0.0
 10
6.199937661050853
 20
-4.992655917024876
 30
0.0
 10
6.215683536425633
 20
-4.994130747936853
 30
0.0
 10
6.222822647752662
 20
-5.003967903894704
 30
0.0
 10
6.2258608433387
 20
-5.045459373271316
 30
0.0
 10
6.206533912442005
 20
-5.04684113734043
 30
0.0
 10
6.189417509659025
 20
-5.039682936673316
 30
0.0
 10
6.21451889478908
 20
-5.004355443090035
 30
0.0
 10
6.184005954502708
 20
-5.004982694971961
 30
0.0
 10
6.163852297485036
 20
-5.017248556252702
 30
0.0
 10
6.108132783765742
 20
-4.996971870225681
 30
0.0
 10
6.118523510923851
 20
-5.031247814012254
 30
0.0
 10
6.122048343848821
 20
-5.043318230049053
 30
0.0
 10
6.120442274651495
 20
-5.086929895350079
 30
0.0
 10
6.100349458178116
 20
-5.069304766871608
 30
0.0
 10
6.098483958048644
 20
-5.048264890375295
 30
0.0
 10
6.100113350383026
 20
-5.021344210336502
 30
0.0
 10
6.099592565767478
 20
-5.000094947996166
 30
0.0
 10
6.100849794517064
 20
-4.979894957339689
 30
0.0
 10
6.099671793684314
 20
-4.958700429859302
 30
0.0
 10
6.092861118209788
 20
-4.940207103336963
 30
0.0
 10
6.099120301631475
 20
-4.929372537142676
 30
0.0
 10
6.100860326428724
 20
-4.913298490099969
 30
0.0
 10
6.099590008564669
 20
-4.900172262908451
 30
0.0
 10
6.102261709623083
 20
-4.888055867763543
 30
0.0
 10
6.089978484396143
 20
-4.841367824931353
 30
0.0
 10
6.115176644198956
 20
-4.856782859351647
 30
0.0
 10
6.13175098324157
 20
-4.86560855764325
 30
0.0
 10
6.100860538169071
 20
-4.923428351835241
 30
0.0
 10
6.129716199500004
 20
-4.912710084411653
 30
0.0
 10
6.146349521800402
 20
-4.898274134829344
 30
0.0
 10
6.170424684947747
 20
-4.921856285612685
 30
0.0
 10
6.190712297517493
 20
-4.912544411036011
 30
0.0
 10
6.228756123307448
 20
-4.890425863690564
 30
0.0
 10
6.226304909095738
 20
-4.946636999260198
 30
0.0
 10
6.186575382313827
 20
-4.933478461371527
 30
0.0
  0
HATCH
  5
101
330
7F
100
AcDbEntity
  8
Layer 1
 62
   250
420
  2301728
440
 33554687
100
AcDbHatch
 10
0.0
 20
0.0
 30
0.0
210
0.0
220
0.0
230
1.0
  2
SOLID
 70
     1
 71
     1
 91
        7
 92
        1
 93
        1
 72
     4
 94
        3
 73
     0
 74
     0
 95
       26
 96
       22
 40
0.0
 40
0.0
 40
0.0
 40
0.0
 40
1.0
 40
1.0
 40
1.0
 40
2.0
 40
2.0
 40
2.0
 40
3.0
 40
3.0
 40
3.0
 40
4.0
 40
4.0
 40
4.0
 40
5.0
 40
5.0
 40
5.0
 40
6.0
 40
6.0
 40
6.0
 40
7.0
 40
7.0
 40
7.0
 40
7.0
 10
6.306150035091604
 20
-4.846700032552083
 10
6.31776219155957
 20
-4.855524100942097
 10
6.318940623338701
 20
-4.884339778150143
 10
6.319597241141082
 20
-4.900170291206955
 10
6.31718535891956
 20
-4.913115859712357
 10
6.309981023069869
 20
-4.926122381795986
 10
6.312868827652133
 20
-4.940206581649539
 10
6.323024865707363
 20
-4.966362304854404
 10
6.319048426039595
 20
-4.998408544905386
 10
6.319589967384646
 20
-5.026673131279367
 10
6.316941857329513
 20
-5.040758004503749
 10
6.328518928118758
 20
-5.073001431330744
 10
6.306151546397408
 20
-5.073424786361796
 10
6.278933806724808
 20
-5.077901848868084
 10
6.298634343631975
 20
-4.93886013002437
 10
6.292999452945271
 20
-4.913623154864681
 10
6.292440710304212
 20
-4.901481111837963
 10
6.294187684250699
 20
-4.878861129526297
 10
6.292248848711854
 20
-4.867329904697081
 10
6.251416533705903
 20
-4.863608176167038
 10
6.288125867899047
 20
-4.851620267458125
 10
6.306150035091604
 20
-4.846700032552083
 97
        0
 97
        1
330
FA
 92
        1
 93
        1
 72
     4
 94
        3
 73
     0
 74
     0
 95
       11
 96
        7
 40
0.0
 40
0.0
 40
0.0
 40
0.0
 40
1.0
 40
1.0
 40
1.0
 40
2.0
 40
2.0
 40
2.0
 40
2.0
 10
6.266110972591604
 20
-5.02667236328125
 10
6.263959952687829
 20
-5.039929088765688
 10
6.272100497735082
 20
-5.064761267764285
 10
6.25939920455135
 20
-5.073424983176146
 10
6.235182664242175
 20
-5.075800920853768
 10
6.242644605414321
 20
-4.999053103801517
 10
6.266110972591604
 20
-5.02667236328125
 97
        0
 97
        1
330
FB
 92
        1
 93
        1
 72
     4
 94
        3
 73
     0
 74
     0
 95
       14
 96
       10
 40
0.0
 40
0.0
 40
0.0
 40
0.0
 40
1.0
 40
1.0
 40
1.0
 40
2.0
 40
2.0
 40
2.0
 40
3.0
 40
3.0
 40
3.0
 40
3.0
 10
6.266110972591604
 20
-4.860148111979166
 10
6.266109580832713
 20
-4.896318407528648
 10
6.266111975763148
 20
-4.937055844209567
 10
6.266110969544797
 20
-4.973205576687657
 10
6.240217788746652
 20
-5.002022393916288
 10
6.246364226649474
 20
-4.941403974288442
 10
6.246257843760834
 20
-4.926760108464135
 10
6.249748835097003
 20
-4.910239316091885
 10
6.233641603255868
 20
-4.834950498927455
 10
6.266110972591604
 20
-4.860148111979166
 97
        0
 97
        1
330
FC
 92
        1
 93
        1
 72
     4
 94
        3
 73
     0
 74
     0
 95
       11
 96
        7
 40
0.0
 40
0.0
 40
0.0
 40
0.0
 40
1.0
 40
1.0
 40
1.0
 40
2.0
 40
2.0
 40
2.0
 40
2.0
 10
6.206377899674937
 20
-4.873589409722222
 10
6.223295654275438
 20
-4.873824858389487
 10
6.223573353631258
 20
-4.900077125465776
 10
6.206376473784327
 20
-4.900173524183034
 10
6.18918459589554
 20
-4.900072196988376
 10
6.189460248914252
 20
-4.873823583680594
 10
6.206377899674937
 20
-4.873589409722222
 97
        0
 97
        1
330
FD
 92
        1
 93
        1
 72
     4
 94
        3
 73
     0
 74
     0
 95
       11
 96
        7
 40
0.0
 40
0.0
 40
0.0
 40
0.0
 40
1.0
 40
1.0
 40
1.0
 40
2.0
 40
2.0
 40
2.0
 40
2.0
 10
6.159787730404104
 20
-5.019951714409722
 10
6.170459529185184
 20
-5.023857610602968
 10
6.170445042062889
 20
-5.069495810369352
 10
6.15979759129939
 20
-5.073425627288807
 10
6.139642858597299
 20
-5.072842167331726
 10
6.139640862686619
 20
-5.020545233683328
 10
6.159787730404104
 20
-5.019951714409722
 97
        0
 97
        1
330
FE
 92
        1
 93
        1
 72
     4
 94
        3
 73
     0
 74
     0
 95
       11
 96
        7
 40
0.0
 40
0.0
 40
0.0
 40
0.0
 40
1.0
 40
1.0
 40
1.0
 40
2.0
 40
2.0
 40
2.0
 40
2.0
 10
6.153060299848548
 20
-4.873589409722222
 10
6.1697971074362
 20
-4.873866886548057
 10
6.170075257364234
 20
-4.900033676826965
 10
6.153058912000662
 20
-4.9001735287358
 10
6.13571723381483
 20
-4.900010882421775
 10
6.135996400319704
 20
-4.873887437393364
 10
6.153060299848548
 20
-4.873589409722222
 97
        0
 97
        1
330
FF
 92
        1
 93
        1
 72
     4
 94
        3
 73
     0
 74
     0
 95
       47
 96
       43
 40
0.0
 40
0.0
 40
0.0
 40
0.0
 40
1.0
 40
1.0
 40
1.0
 40
2.0
 40
2.0
 40
2.0
 40
3.0
 40
3.0
 40
3.0
 40
4.0
 40
4.0
 40
4.0
 40
5.0
 40
5.0
 40
5.0
 40
6.0
 40
6.0
 40
6.0
 40
7.0
 40
7.0
 40
7.0
 40
8.0
 40
8.0
 40
8.0
 40
9.0
 40
9.0
 40
9.0
 40
10.0
 40
10.0
 40
10.0
 40
11.0
 40
11.0
 40
11.0
 40
12.0
 40
12.0
 40
12.0
 40
13.0
 40
13.0
 40
13.0
 40
14.0
 40
14.0
 40
14.0
 40
14.0
 10
6.186575382313827
 20
-4.933478461371527
 10
6.106628746412398
 20
-4.928654525278046
 10
6.121287873242307
 20
-4.900585300428057
 10
6.116704616754936
 20
-4.98833543428168
 10
6.125689808586659
 20
-5.007328339859946
 10
6.151278606564219
 20
-4.986073133440527
 10
6.166337396030712
 20
-4.986649122094566
 10
6.179982298830458
 20
-4.995467031569192
 10
6.199937661050853
 20
-4.992655917024876
 10
6.215683536425633
 20
-4.994130747936853
 10
6.222822647752662
 20
-5.003967903894704
 10
6.2258608433387
 20
-5.045459373271316
 10
6.206533912442005
 20
-5.04684113734043
 10
6.189417509659025
 20
-5.039682936673316
 10
6.21451889478908
 20
-5.004355443090035
 10
6.184005954502708
 20
-5.004982694971961
 10
6.163852297485036
 20
-5.017248556252702
 10
6.108132783765742
 20
-4.996971870225681
 10
6.118523510923851
 20
-5.031247814012254
 10
6.122048343848821
 20
-5.043318230049053
 10
6.120442274651495
 20
-5.086929895350079
 10
6.100349458178116
 20
-5.069304766871608
 10
6.098483958048644
 20
-5.048264890375295
 10
6.100113350383026
 20
-5.021344210336502
 10
6.099592565767478
 20
-5.000094947996166
 10
6.100849794517064
 20
-4.979894957339689
 10
6.099671793684314
 20
-4.958700429859302
 10
6.092861118209788
 20
-4.940207103336963
 10
6.099120301631475
 20
-4.929372537142676
 10
6.100860326428724
 20
-4.913298490099969
 10
6.099590008564669
 20
-4.900172262908451
 10
6.102261709623083
 20
-4.888055867763543
 10
6.089978484396143
 20
-4.841367824931353
 10
6.115176644198956
 20
-4.856782859351647
 10
6.13175098324157
 20
-4.86560855764325
 10
6.100860538169071
 20
-4.923428351835241
 10
6.129716199500004
 20
-4.912710084411653
 10
6.146349521800402
 20
-4.898274134829344
 10
6.170424684947747
 20
-4.921856285612685
 10
6.190712297517493
 20
-4.912544411036011
 10
6.228756123307448
 20
-4.890425863690564
 10
6.226304909095738
 20
-4.946636999260198
 10
6.186575382313827
 20
-4.933478461371527
 97
        0
 97
        1
330
100
 75
     2
 76
     1
 98
        1
 10
0.0
 20
0.0
450
        0
451
        0
460
0.0
461
0.0
452
        0
462
0.0
453
        0
470

  0
SPLINE
  5
102
330
7F
100
AcDbEntity
  8
Layer 1
100
AcDbSpline
210
0.0
220
0.0
230
1.0
 70
     9
 71
     3
 72
    14
 73
    10
 74
     0
 42
0.0000000001
 43
0.0000000001
 40
0.0
 40
0.0
 40
0.0
 40
0.0
 40
1.0
 40
1.0
 40
1.0
 40
2.0
 40
2.0
 40
2.0
 40
3.0
 40
3.0
 40
3.0
 40
3.0
 10
6.270085039431882
 20
-5.351121690538193
 30
0.0
 10
6.246822717720482
 20
-5.381047030902461
 30
0.0
 10
6.24677679326535
 20
-5.325086600387053
 30
0.0
 10
6.248701840423639
 20
-5.308648696624723
 30
0.0
 10
6.243430266011601
 20
-5.28798943979445
 30
0.0
 10
6.253468394890508
 20
-5.22192197662303
 30
0.0
 10
6.277121698982934
 20
-5.266171917248887
 30
0.0
 10
6.258917442830756
 20
-5.2943461716606
 30
0.0
 10
6.284014027361283
 20
-5.322663806661794
 30
0.0
 10
6.270085039431882
 20
-5.351121690538193
 30
0.0
  0
SPLINE
  5
103
330
7F
100
AcDbEntity
  8
Layer 1
100
AcDbSpline
210
0.0
220
0.0
230
1.0
 70
     9
 71
     3
 72
    11
 73
     7
 74
     0
 42
0.0000000001
 43
0.0000000001
 40
0.0
 40
0.0
 40
0.0
 40
0.0
 40
1.0
 40
1.0
 40
1.0
 40
2.0
 40
2.0
 40
2.0
 40
2.0
 10
6.263059214779104
 20
-5.2166748046875
 30
0.0
 10
6.264385364775534
 20
-5.227967186037972
 30
0.0
 10
6.246235113648758
 20
-5.222402428467451
 30
0.0
 10
6.238917007499164
 20
-5.222637796664255
 30
0.0
 10
6.219174853188456
 20
-5.207553774672216
 30
0.0
 10
6.268006296160743
 20
-5.189295536617262
 30
0.0
 10
6.263059214779104
 20
-5.2166748046875
 30
0.0
  0
SPLINE
  5
104
330
7F
100
AcDbEntity
  8
Layer 1
100
AcDbSpline
210
0.0
220
0.0
230
1.0
 70
     9
 71
     3
 72
    23
 73
    19
 74
     0
 42
0.0000000001
 43
0.0000000001
 40
0.0
 40
0.0
 40
0.0
 40
0.0
 40
1.0
 40
1.0
 40
1.0
 40
2.0
 40
2.0
 40
2.0
 40
3.0
 40
3.0
 40
3.0
 40
4.0
 40
4.0
 40
4.0
 40
5.0
 40
5.0
 40
5.0
 40
6.0
 40
6.0
 40
6.0
 40
6.0
 10
6.312565508181882
 20
-5.251817491319443
 30
0.0
 10
6.285392264654319
 20
-5.250691344908798
 30
0.0
 10
6.300689505532115
 20
-5.183110029225328
 30
0.0
 10
6.301246905100393
 20
-5.16396916232563
 30
0.0
 10
6.292144567716174
 20
-5.148020438204954
 30
0.0
 10
6.259632541829406
 20
-5.166162291289335
 30
0.0
 10
6.244424138175619
 20
-5.158462521709426
 30
0.0
 10
6.224323256544216
 20
-5.140846538109459
 30
0.0
 10
6.193568628475936
 20
-5.164910663690648
 30
0.0
 10
6.175371576599723
 20
-5.155267613985074
 30
0.0
 10
6.148565294640775
 20
-5.11842252008479
 30
0.0
 10
6.300737631873415
 20
-5.134485328657104
 30
0.0
 10
6.315912856469518
 20
-5.139367157086085
 30
0.0
 10
6.325149411827573
 20
-5.154473273655702
 30
0.0
 10
6.316950267944775
 20
-5.184200915396849
 30
0.0
 10
6.319596192361712
 20
-5.202310308077762
 30
0.0
 10
6.317278586884058
 20
-5.216266159729798
 30
0.0
 10
6.325938832379328
 20
-5.24266946717143
 30
0.0
 10
6.312565508181882
 20
-5.251817491319443
 30
0.0
  0
SPLINE
  5
105
330
7F
100
AcDbEntity
  8
Layer 1
100
AcDbSpline
210
0.0
220
0.0
230
1.0
 70
     9
 71
     3
 72
    32
 73
    28
 74
     0
 42
0.0000000001
 43
0.0000000001
 40
0.0
 40
0.0
 40
0.0
 40
0.0
 40
1.0
 40
1.0
 40
1.0
 40
2.0
 40
2.0
 40
2.0
 40
3.0
 40
3.0
 40
3.0
 40
4.0
 40
4.0
 40
4.0
 40
5.0
 40
5.0
 40
5.0
 40
6.0
 40
6.0
 40
6.0
 40
7.0
 40
7.0
 40
7.0
 40
8.0
 40
8.0
 40
8.0
 40
9.0
 40
9.0
 40
9.0
 40
9.0
 10
6.114255503841604
 20
-5.259148491753472
 30
0.0
 10
6.142856381860458
 20
-5.263654097045155
 30
0.0
 10
6.120815037050912
 20
-5.309448920230957
 30
0.0
 10
6.129993043572438
 20
-5.328964518459214
 30
0.0
 10
6.142739110778974
 20
-5.348923197268415
 30
0.0
 10
6.168034402727496
 20
-5.328458491775336
 30
0.0
 10
6.178109642966319
 20
-5.31567336603934
 30
0.0
 10
6.178097410343853
 20
-5.303591552680599
 30
0.0
 10
6.178122241170487
 20
-5.278105168398647
 30
0.0
 10
6.178111809063592
 20
-5.266174438728423
 30
0.0
 10
6.176271460435322
 20
-5.235568772987827
 30
0.0
 10
6.217913740982112
 20
-5.259942247374939
 30
0.0
 10
6.23357093659269
 20
-5.260063102474519
 30
0.0
 10
6.235634737161135
 20
-5.285742865410648
 30
0.0
 10
6.233680711170109
 20
-5.318011060102131
 30
0.0
 10
6.234333294753392
 20
-5.344089046619576
 30
0.0
 10
6.218953183510089
 20
-5.392536154432276
 30
0.0
 10
6.206504453730531
 20
-5.308862180357904
 30
0.0
 10
6.214335251974994
 20
-5.29322165354175
 30
0.0
 10
6.219671757660332
 20
-5.269989999047879
 30
0.0
 10
6.191617805981498
 20
-5.264603905132919
 30
0.0
 10
6.19920981420882
 20
-5.294285804536835
 30
0.0
 10
6.214648234549384
 20
-5.371457682760288
 30
0.0
 10
6.081706002958197
 20
-5.382206512389112
 30
0.0
 10
6.106001240535861
 20
-5.302681452497633
 30
0.0
 10
6.111529270612966
 20
-5.2939544046327
 30
0.0
 10
6.099471591155709
 20
-5.260932678015832
 30
0.0
 10
6.114255503841604
 20
-5.259148491753472
 30
0.0
  0
SPLINE
  5
106
330
7F
100
AcDbEntity
  8
Layer 1
100
AcDbSpline
210
0.0
220
0.0
230
1.0
 70
     9
 71
     3
 72
    26
 73
    22
 74
     0
 42
0.0000000001
 43
0.0000000001
 40
0.0
 40
0.0
 40
0.0
 40
0.0
 40
1.0
 40
1.0
 40
1.0
 40
2.0
 40
2.0
 40
2.0
 40
3.0
 40
3.0
 40
3.0
 40
4.0
 40
4.0
 40
4.0
 40
5.0
 40
5.0
 40
5.0
 40
6.0
 40
6.0
 40
6.0
 40
7.0
 40
7.0
 40
7.0
 40
7.0
 10
6.107229679188827
 20
-5.230733235677083
 30
0.0
 10
6.08438873944442
 20
-5.228604230155938
 30
0.0
 10
6.095229051388969
 20
-5.195840126963326
 30
0.0
 10
6.092864399438288
 20
-5.180928916963491
 30
0.0
 10
6.095263976909714
 20
-5.169349130343915
 30
0.0
 10
6.087424957701513
 20
-5.142748105831186
 30
0.0
 10
6.097134461087585
 20
-5.135090371791092
 30
0.0
 10
6.112331605798114
 20
-5.12357661521254
 30
0.0
 10
6.185706212979614
 20
-5.133623078004094
 30
0.0
 10
6.142375152754993
 20
-5.152817040654768
 30
0.0
 10
6.099794640992386
 20
-5.138189451478827
 30
0.0
 10
6.119729557270653
 20
-5.173744248922186
 30
0.0
 10
6.111655866471437
 20
-5.198802859926723
 30
0.0
 10
6.108625309942377
 20
-5.226370776859312
 30
0.0
 10
6.170172483957988
 20
-5.204482895690691
 30
0.0
 10
6.184836897003555
 20
-5.202314699490039
 30
0.0
 10
6.205775554890124
 20
-5.194879594372107
 30
0.0
 10
6.226668296813638
 20
-5.216863342187871
 30
0.0
 10
6.206229173024565
 20
-5.230741182941932
 30
0.0
 10
6.175322536949806
 20
-5.230722303621582
 30
0.0
 10
6.138104176846127
 20
-5.230741115406013
 30
0.0
 10
6.107229679188827
 20
-5.230733235677083
 30
0.0
  0
HATCH
  5
107
330
7F
100
AcDbEntity
  8
Layer 1
 62
   250
420
  2301728
440
 33554687
100
AcDbHatch
 10
0.0
 20
0.0
 30
0.0
210
0.0
220
0.0
230
1.0
  2
SOLID
 70
     1
 71
     1
 91
        5
 92
        1
 93
        1
 72
     4
 94
        3
 73
     0
 74
     0
 95
       14
 96
       10
 40
0.0
 40
0.0
 40
0.0
 40
0.0
 40
1.0
 40
1.0
 40
1.0
 40
2.0
 40
2.0
 40
2.0
 40
3.0
 40
3.0
 40
3.0
 40
3.0
 10
6.270085039431882
 20
-5.351121690538193
 10
6.246822717720482
 20
-5.381047030902461
 10
6.24677679326535
 20
-5.325086600387053
 10
6.248701840423639
 20
-5.308648696624723
 10
6.243430266011601
 20
-5.28798943979445
 10
6.253468394890508
 20
-5.22192197662303
 10
6.277121698982934
 20
-5.266171917248887
 10
6.258917442830756
 20
-5.2943461716606
 10
6.284014027361283
 20
-5.322663806661794
 10
6.270085039431882
 20
-5.351121690538193
 97
        0
 97
        1
330
102
 92
        1
 93
        1
 72
     4
 94
        3
 73
     0
 74
     0
 95
       11
 96
        7
 40
0.0
 40
0.0
 40
0.0
 40
0.0
 40
1.0
 40
1.0
 40
1.0
 40
2.0
 40
2.0
 40
2.0
 40
2.0
 10
6.263059214779104
 20
-5.2166748046875
 10
6.264385364775534
 20
-5.227967186037972
 10
6.246235113648758
 20
-5.222402428467451
 10
6.238917007499164
 20
-5.222637796664255
 10
6.219174853188456
 20
-5.207553774672216
 10
6.268006296160743
 20
-5.189295536617262
 10
6.263059214779104
 20
-5.2166748046875
 97
        0
 97
        1
330
103
 92
        1
 93
        1
 72
     4
 94
        3
 73
     0
 74
     0
 95
       23
 96
       19
 40
0.0
 40
0.0
 40
0.0
 40
0.0
 40
1.0
 40
1.0
 40
1.0
 40
2.0
 40
2.0
 40
2.0
 40
3.0
 40
3.0
 40
3.0
 40
4.0
 40
4.0
 40
4.0
 40
5.0
 40
5.0
 40
5.0
 40
6.0
 40
6.0
 40
6.0
 40
6.0
 10
6.312565508181882
 20
-5.251817491319443
 10
6.285392264654319
 20
-5.250691344908798
 10
6.300689505532115
 20
-5.183110029225328
 10
6.301246905100393
 20
-5.16396916232563
 10
6.292144567716174
 20
-5.148020438204954
 10
6.259632541829406
 20
-5.166162291289335
 10
6.244424138175619
 20
-5.158462521709426
 10
6.224323256544216
 20
-5.140846538109459
 10
6.193568628475936
 20
-5.164910663690648
 10
6.175371576599723
 20
-5.155267613985074
 10
6.148565294640775
 20
-5.11842252008479
 10
6.300737631873415
 20
-5.134485328657104
 10
6.315912856469518
 20
-5.139367157086085
 10
6.325149411827573
 20
-5.154473273655702
 10
6.316950267944775
 20
-5.184200915396849
 10
6.319596192361712
 20
-5.202310308077762
 10
6.317278586884058
 20
-5.216266159729798
 10
6.325938832379328
 20
-5.24266946717143
 10
6.312565508181882
 20
-5.251817491319443
 97
        0
 97
        1
330
104
 92
        1
 93
        1
 72
     4
 94
        3
 73
     0
 74
     0
 95
       32
 96
       28
 40
0.0
 40
0.0
 40
0.0
 40
0.0
 40
1.0
 40
1.0
 40
1.0
 40
2.0
 40
2.0
 40
2.0
 40
3.0
 40
3.0
 40
3.0
 40
4.0
 40
4.0
 40
4.0
 40
5.0
 40
5.0
 40
5.0
 40
6.0
 40
6.0
 40
6.0
 40
7.0
 40
7.0
 40
7.0
 40
8.0
 40
8.0
 40
8.0
 40
9.0
 40
9.0
 40
9.0
 40
9.0
 10
6.114255503841604
 20
-5.259148491753472
 10
6.142856381860458
 20
-5.263654097045155
 10
6.120815037050912
 20
-5.309448920230957
 10
6.129993043572438
 20
-5.328964518459214
 10
6.142739110778974
 20
-5.348923197268415
 10
6.168034402727496
 20
-5.328458491775336
 10
6.178109642966319
 20
-5.31567336603934
 10
6.178097410343853
 20
-5.303591552680599
 10
6.178122241170487
 20
-5.278105168398647
 10
6.178111809063592
 20
-5.266174438728423
 10
6.176271460435322
 20
-5.235568772987827
 10
6.217913740982112
 20
-5.259942247374939
 10
6.23357093659269
 20
-5.260063102474519
 10
6.235634737161135
 20
-5.285742865410648
 10
6.233680711170109
 20
-5.318011060102131
 10
6.234333294753392
 20
-5.344089046619576
 10
6.218953183510089
 20
-5.392536154432276
 10
6.206504453730531
 20
-5.308862180357904
 10
6.214335251974994
 20
-5.29322165354175
 10
6.219671757660332
 20
-5.269989999047879
 10
6.191617805981498
 20
-5.264603905132919
 10
6.19920981420882
 20
-5.294285804536835
 10
6.214648234549384
 20
-5.371457682760288
 10
6.081706002958197
 20
-5.382206512389112
 10
6.106001240535861
 20
-5.302681452497633
 10
6.111529270612966
 20
-5.2939544046327
 10
6.099471591155709
 20
-5.260932678015832
 10
6.114255503841604
 20
-5.259148491753472
 97
        0
 97
        1
330
105
 92
        1
 93
        1
 72
     4
 94
        3
 73
     0
 74
     0
 95
       26
 96
       22
 40
0.0
 40
0.0
 40
0.0
 40
0.0
 40
1.0
 40
1.0
 40
1.0
 40
2.0
 40
2.0
 40
2.0
 40
3.0
 40
3.0
 40
3.0
 40
4.0
 40
4.0
 40
4.0
 40
5.0
 40
5.0
 40
5.0
 40
6.0
 40
6.0
 40
6.0
 40
7.0
 40
7.0
 40
7.0
 40
7.0
 10
6.107229679188827
 20
-5.230733235677083
 10
6.08438873944442
 20
-5.228604230155938
 10
6.095229051388969
 20
-5.195840126963326
 10
6.092864399438288
 20
-5.180928916963491
 10
6.095263976909714
 20
-5.169349130343915
 10
6.087424957701513
 20
-5.142748105831186
 10
6.097134461087585
 20
-5.135090371791092
 10
6.112331605798114
 20
-5.12357661521254
 10
6.185706212979614
 20
-5.133623078004094
 10
6.142375152754993
 20
-5.152817040654768
 10
6.099794640992386
 20
-5.138189451478827
 10
6.119729557270653
 20
-5.173744248922186
 10
6.111655866471437
 20
-5.198802859926723
 10
6.108625309942377
 20
-5.226370776859312
 10
6.170172483957988
 20
-5.204482895690691
 10
6.184836897003555
 20
-5.202314699490039
 10
6.205775554890124
 20
-5.194879594372107
 10
6.226668296813638
 20
-5.216863342187871
 10
6.206229173024565
 20
-5.230741182941932
 10
6.175322536949806
 20
-5.230722303621582
 10
6.138104176846127
 20
-5.230741115406013
 10
6.107229679188827
 20
-5.230733235677083
 97
        0
 97
        1
330
106
 75
     2
 76
     1
 98
        1
 10
0.0
 20
0.0
450
        0
451
        0
460
0.0
461
0.0
452
        0
462
0.0
453
        0
470

  0
SPLINE
  5
108
330
7F
100
AcDbEntity
  8
Layer 1
100
AcDbSpline
210
0.0
220
0.0
230
1.0
 70
     9
 71
     3
 72
    38
 73
    34
 74
     0
 42
0.0000000001
 43
0.0000000001
 40
0.0
 40
0.0
 40
0.0
 40
0.0
 40
1.0
 40
1.0
 40
1.0
 40
2.0
 40
2.0
 40
2.0
 40
3.0
 40
3.0
 40
3.0
 40
4.0
 40
4.0
 40
4.0
 40
5.0
 40
5.0
 40
5.0
 40
6.0
 40
6.0
 40
6.0
 40
7.0
 40
7.0
 40
7.0
 40
8.0
 40
8.0
 40
8.0
 40
9.0
 40
9.0
 40
9.0
 40
10.0
 40
10.0
 40
10.0
 40
11.0
 40
11.0
 40
11.0
 40
11.0
 10
6.306150035091604
 20
-5.416151258680555
 30
0.0
 10
6.318333310730015
 20
-5.428370066555089
 30
0.0
 10
6.31168366736089
 20
-5.456873191983504
 30
0.0
 10
6.313176308901624
 20
-5.475736504709137
 30
0.0
 10
6.327747990236148
 20
-5.492398874934703
 30
0.0
 10
6.307693817408057
 20
-5.507176857647373
 30
0.0
 10
6.316517732201646
 20
-5.523412184098232
 30
0.0
 10
6.32653426961052
 20
-5.539932573809437
 30
0.0
 10
6.308276657573413
 20
-5.558262968397078
 30
0.0
 10
6.313179595286075
 20
-5.576266937682981
 30
0.0
 10
6.309668514323472
 20
-5.588999513202502
 30
0.0
 10
6.321465568787036
 20
-5.624793563774876
 30
0.0
 10
6.306155844997369
 20
-5.629437473208351
 30
0.0
 10
6.274568202593298
 20
-5.636016380051184
 30
0.0
 10
6.253269682678667
 20
-5.612526445363957
 30
0.0
 10
6.293304508295578
 20
-5.609561952069245
 30
0.0
 10
6.285090634984245
 20
-5.584139918035234
 30
0.0
 10
6.296046983068511
 20
-5.552995925641071
 30
0.0
 10
6.293306326005651
 20
-5.522486748641262
 30
0.0
 10
6.291277315243657
 20
-5.490142591550516
 30
0.0
 10
6.305818904231728
 20
-5.391446315060243
 30
0.0
 10
6.262594026688778
 20
-5.466729205505341
 30
0.0
 10
6.206015946511469
 20
-5.497601973934946
 30
0.0
 10
6.252792577765275
 20
-5.511824493407226
 30
0.0
 10
6.28659618008348
 20
-5.536246998413566
 30
0.0
 10
6.278621378094586
 20
-5.592543653895871
 30
0.0
 10
6.213914810410364
 20
-5.499318897225495
 30
0.0
 10
6.206521035978564
 20
-5.482766320445231
 30
0.0
 10
6.220742632017062
 20
-5.462521905027011
 30
0.0
 10
6.257035987036488
 20
-5.455671257571035
 30
0.0
 10
6.257106761766458
 20
-5.427762845245423
 30
0.0
 10
6.267286135054493
 20
-5.415701671928407
 30
0.0
 10
6.290544501629104
 20
-5.423573384304163
 30
0.0
 10
6.306150035091604
 20
-5.416151258680555
 30
0.0
  0
SPLINE
  5
109
330
7F
100
AcDbEntity
  8
Layer 1
100
AcDbSpline
210
0.0
220
0.0
230
1.0
 70
     9
 71
     3
 72
    14
 73
    10
 74
     0
 42
0.0000000001
 43
0.0000000001
 40
0.0
 40
0.0
 40
0.0
 40
0.0
 40
1.0
 40
1.0
 40
1.0
 40
2.0
 40
2.0
 40
2.0
 40
3.0
 40
3.0
 40
3.0
 40
3.0
 10
6.166203203494382
 20
-5.455878363715277
 30
0.0
 10
6.19411057474258
 20
-5.466950264220827
 30
0.0
 10
6.173200561391316
 20
-5.524275043446171
 30
0.0
 10
6.179341678166009
 20
-5.549679296311953
 30
0.0
 10
6.167098469599801
 20
-5.580552398589664
 30
0.0
 10
6.144348715425494
 20
-5.551047014630259
 30
0.0
 10
6.159488306507884
 20
-5.529516129130923
 30
0.0
 10
6.166066440658394
 20
-5.506928688180601
 30
0.0
 10
6.134615155287519
 20
-5.465680400578813
 30
0.0
 10
6.166203203494382
 20
-5.455878363715277
 30
0.0
  0
SPLINE
  5
10A
330
7F
100
AcDbEntity
  8
Layer 1
100
AcDbSpline
210
0.0
220
0.0
230
1.0
 70
     9
 71
     3
 72
    11
 73
     7
 74
     0
 42
0.0000000001
 43
0.0000000001
 40
0.0
 40
0.0
 40
0.0
 40
0.0
 40
1.0
 40
1.0
 40
1.0
 40
2.0
 40
2.0
 40
2.0
 40
2.0
 10
6.166203203494382
 20
-5.422566731770833
 30
0.0
 10
6.184708722628329
 20
-5.422989162815674
 30
0.0
 10
6.182523708319018
 20
-5.45562737113812
 30
0.0
 10
6.166202880897243
 20
-5.455878270810305
 30
0.0
 10
6.141703701288658
 20
-5.454656792796425
 30
0.0
 10
6.140067343029613
 20
-5.422881267505064
 30
0.0
 10
6.166203203494382
 20
-5.422566731770833
 30
0.0
  0
SPLINE
  5
10B
330
7F
100
AcDbEntity
  8
Layer 1
100
AcDbSpline
210
0.0
220
0.0
230
1.0
 70
     9
 71
     3
 72
    14
 73
    10
 74
     0
 42
0.0000000001
 43
0.0000000001
 40
0.0
 40
0.0
 40
0.0
 40
0.0
 40
1.0
 40
1.0
 40
1.0
 40
2.0
 40
2.0
 40
2.0
 40
3.0
 40
3.0
 40
3.0
 40
3.0
 10
6.09928154550827
 20
-5.469319661458333
 30
0.0
 10
6.132759008223602
 20
-5.412497700145674
 30
0.0
 10
6.13093465068472
 20
-5.544388602461922
 30
0.0
 10
6.121744095569131
 20
-5.55884998463883
 30
0.0
 10
6.095390874076302
 20
-5.576519832513136
 30
0.0
 10
6.109205535372843
 20
-5.522095188859818
 30
0.0
 10
6.106006565316192
 20
-5.509347839832368
 30
0.0
 10
6.103449495497266
 20
-5.496426651881733
 30
0.0
 10
6.096475138279755
 20
-5.483423982273746
 30
0.0
 10
6.09928154550827
 20
-5.469319661458333
 30
0.0
  0
SPLINE
  5
10C
330
7F
100
AcDbEntity
  8
Layer 1
100
AcDbSpline
210
0.0
220
0.0
230
1.0
 70
     9
 71
     3
 72
    11
 73
     7
 74
     0
 42
0.0000000001
 43
0.0000000001
 40
0.0
 40
0.0
 40
0.0
 40
0.0
 40
1.0
 40
1.0
 40
1.0
 40
2.0
 40
2.0
 40
2.0
 40
2.0
 10
6.132593177452715
 20
-5.436021592881943
 30
0.0
 10
6.13489088423138
 20
-5.46106344832247
 30
0.0
 10
6.096606804759479
 20
-5.463119295115928
 30
0.0
 10
6.099281880436339
 20
-5.436020093606177
 30
0.0
 10
6.099933873553608
 20
-5.417181143181336
 30
0.0
 10
6.132039369434803
 20
-5.419466960229972
 30
0.0
 10
6.132593177452715
 20
-5.436021592881943
 30
0.0
  0
SPLINE
  5
10D
330
7F
100
AcDbEntity
  8
Layer 1
100
AcDbSpline
210
0.0
220
0.0
230
1.0
 70
     9
 71
     3
 72
    32
 73
    28
 74
     0
 42
0.0000000001
 43
0.0000000001
 40
0.0
 40
0.0
 40
0.0
 40
0.0
 40
1.0
 40
1.0
 40
1.0
 40
2.0
 40
2.0
 40
2.0
 40
3.0
 40
3.0
 40
3.0
 40
4.0
 40
4.0
 40
4.0
 40
5.0
 40
5.0
 40
5.0
 40
6.0
 40
6.0
 40
6.0
 40
7.0
 40
7.0
 40
7.0
 40
8.0
 40
8.0
 40
8.0
 40
9.0
 40
9.0
 40
9.0
 40
9.0
 10
6.239526771202715
 20
-5.576266818576388
 30
0.0
 10
6.265561397656786
 20
-5.573300612537801
 30
0.0
 10
6.248289509371892
 20
-5.620985314227001
 30
0.0
 10
6.252987377521598
 20
-5.636459800581733
 30
0.0
 10
6.232571454828681
 20
-5.650694265978194
 30
0.0
 10
6.196907493450124
 20
-5.639502310433625
 30
0.0
 10
6.172917996339188
 20
-5.642881876820031
 30
0.0
 10
6.148909957832933
 20
-5.639489205529545
 30
0.0
 10
6.113260556944169
 20
-5.650713337470506
 30
0.0
 10
6.092865011213916
 20
-5.636466845209016
 30
0.0
 10
6.095707450486795
 20
-5.621585519051728
 30
0.0
 10
6.081947257554449
 20
-5.56902289592545
 30
0.0
 10
6.111650847406886
 20
-5.58589573989876
 30
0.0
 10
6.110407864605298
 20
-5.638567612840915
 30
0.0
 10
6.112458496056533
 20
-5.624390050920232
 30
0.0
 10
6.159480776789753
 20
-5.623021523829644
 30
0.0
 10
6.163253511898321
 20
-5.609989929386579
 30
0.0
 10
6.151547940796111
 20
-5.571149523118543
 30
0.0
 10
6.181794071137093
 20
-5.586344609300643
 30
0.0
 10
6.196382598938927
 20
-5.630023800775512
 30
0.0
 10
6.163404134027561
 20
-5.622711579063156
 30
0.0
 10
6.225021817264278
 20
-5.625752839917064
 30
0.0
 10
6.244390592295176
 20
-5.623110730099015
 30
0.0
 10
6.226436121230815
 20
-5.613959152126097
 30
0.0
 10
6.226394743837848
 20
-5.603149847067596
 30
0.0
 10
6.232133843904016
 20
-5.595484052967321
 30
0.0
 10
6.229860528145232
 20
-5.579044918332606
 30
0.0
 10
6.239526771202715
 20
-5.576266818576388
 30
0.0
  0
HATCH
  5
10E
330
7F
100
AcDbEntity
  8
Layer 1
 62
   250
420
  2301728
440
 33554687
100
AcDbHatch
 10
0.0
 20
0.0
 30
0.0
210
0.0
220
0.0
230
1.0
  2
SOLID
 70
     1
 71
     1
 91
        6
 92
        1
 93
        1
 72
     4
 94
        3
 73
     0
 74
     0
 95
       38
 96
       34
 40
0.0
 40
0.0
 40
0.0
 40
0.0
 40
1.0
 40
1.0
 40
1.0
 40
2.0
 40
2.0
 40
2.0
 40
3.0
 40
3.0
 40
3.0
 40
4.0
 40
4.0
 40
4.0
 40
5.0
 40
5.0
 40
5.0
 40
6.0
 40
6.0
 40
6.0
 40
7.0
 40
7.0
 40
7.0
 40
8.0
 40
8.0
 40
8.0
 40
9.0
 40
9.0
 40
9.0
 40
10.0
 40
10.0
 40
10.0
 40
11.0
 40
11.0
 40
11.0
 40
11.0
 10
6.306150035091604
 20
-5.416151258680555
 10
6.318333310730015
 20
-5.428370066555089
 10
6.31168366736089
 20
-5.456873191983504
 10
6.313176308901624
 20
-5.475736504709137
 10
6.327747990236148
 20
-5.492398874934703
 10
6.307693817408057
 20
-5.507176857647373
 10
6.316517732201646
 20
-5.523412184098232
 10
6.32653426961052
 20
-5.539932573809437
 10
6.308276657573413
 20
-5.558262968397078
 10
6.313179595286075
 20
-5.576266937682981
 10
6.309668514323472
 20
-5.588999513202502
 10
6.321465568787036
 20
-5.624793563774876
 10
6.306155844997369
 20
-5.629437473208351
 10
6.274568202593298
 20
-5.636016380051184
 10
6.253269682678667
 20
-5.612526445363957
 10
6.293304508295578
 20
-5.609561952069245
 10
6.285090634984245
 20
-5.584139918035234
 10
6.296046983068511
 20
-5.552995925641071
 10
6.293306326005651
 20
-5.522486748641262
 10
6.291277315243657
 20
-5.490142591550516
 10
6.305818904231728
 20
-5.391446315060243
 10
6.262594026688778
 20
-5.466729205505341
 10
6.206015946511469
 20
-5.497601973934946
 10
6.252792577765275
 20
-5.511824493407226
 10
6.28659618008348
 20
-5.536246998413566
 10
6.278621378094586
 20
-5.592543653895871
 10
6.213914810410364
 20
-5.499318897225495
 10
6.206521035978564
 20
-5.482766320445231
 10
6.220742632017062
 20
-5.462521905027011
 10
6.257035987036488
 20
-5.455671257571035
 10
6.257106761766458
 20
-5.427762845245423
 10
6.267286135054493
 20
-5.415701671928407
 10
6.290544501629104
 20
-5.423573384304163
 10
6.306150035091604
 20
-5.416151258680555
 97
        0
 97
        1
330
108
 92
        1
 93
        1
 72
     4
 94
        3
 73
     0
 74
     0
 95
       14
 96
       10
 40
0.0
 40
0.0
 40
0.0
 40
0.0
 40
1.0
 40
1.0
 40
1.0
 40
2.0
 40
2.0
 40
2.0
 40
3.0
 40
3.0
 40
3.0
 40
3.0
 10
6.166203203494382
 20
-5.455878363715277
 10
6.19411057474258
 20
-5.466950264220827
 10
6.173200561391316
 20
-5.524275043446171
 10
6.179341678166009
 20
-5.549679296311953
 10
6.167098469599801
 20
-5.580552398589664
 10
6.144348715425494
 20
-5.551047014630259
 10
6.159488306507884
 20
-5.529516129130923
 10
6.166066440658394
 20
-5.506928688180601
 10
6.134615155287519
 20
-5.465680400578813
 10
6.166203203494382
 20
-5.455878363715277
 97
        0
 97
        1
330
109
 92
        1
 93
        1
 72
     4
 94
        3
 73
     0
 74
     0
 95
       11
 96
        7
 40
0.0
 40
0.0
 40
0.0
 40
0.0
 40
1.0
 40
1.0
 40
1.0
 40
2.0
 40
2.0
 40
2.0
 40
2.0
 10
6.166203203494382
 20
-5.422566731770833
 10
6.184708722628329
 20
-5.422989162815674
 10
6.182523708319018
 20
-5.45562737113812
 10
6.166202880897243
 20
-5.455878270810305
 10
6.141703701288658
 20
-5.454656792796425
 10
6.140067343029613
 20
-5.422881267505064
 10
6.166203203494382
 20
-5.422566731770833
 97
        0
 97
        1
330
10A
 92
        1
 93
        1
 72
     4
 94
        3
 73
     0
 74
     0
 95
       14
 96
       10
 40
0.0
 40
0.0
 40
0.0
 40
0.0
 40
1.0
 40
1.0
 40
1.0
 40
2.0
 40
2.0
 40
2.0
 40
3.0
 40
3.0
 40
3.0
 40
3.0
 10
6.09928154550827
 20
-5.469319661458333
 10
6.132759008223602
 20
-5.412497700145674
 10
6.13093465068472
 20
-5.544388602461922
 10
6.121744095569131
 20
-5.55884998463883
 10
6.095390874076302
 20
-5.576519832513136
 10
6.109205535372843
 20
-5.522095188859818
 10
6.106006565316192
 20
-5.509347839832368
 10
6.103449495497266
 20
-5.496426651881733
 10
6.096475138279755
 20
-5.483423982273746
 10
6.09928154550827
 20
-5.469319661458333
 97
        0
 97
        1
330
10B
 92
        1
 93
        1
 72
     4
 94
        3
 73
     0
 74
     0
 95
       11
 96
        7
 40
0.0
 40
0.0
 40
0.0
 40
0.0
 40
1.0
 40
1.0
 40
1.0
 40
2.0
 40
2.0
 40
2.0
 40
2.0
 10
6.132593177452715
 20
-5.436021592881943
 10
6.13489088423138
 20
-5.46106344832247
 10
6.096606804759479
 20
-5.463119295115928
 10
6.099281880436339
 20
-5.436020093606177
 10
6.099933873553608
 20
-5.417181143181336
 10
6.132039369434803
 20
-5.419466960229972
 10
6.132593177452715
 20
-5.436021592881943
 97
        0
 97
        1
330
10C
 92
        1
 93
        1
 72
     4
 94
        3
 73
     0
 74
     0
 95
       32
 96
       28
 40
0.0
 40
0.0
 40
0.0
 40
0.0
 40
1.0
 40
1.0
 40
1.0
 40
2.0
 40
2.0
 40
2.0
 40
3.0
 40
3.0
 40
3.0
 40
4.0
 40
4.0
 40
4.0
 40
5.0
 40
5.0
 40
5.0
 40
6.0
 40
6.0
 40
6.0
 40
7.0
 40
7.0
 40
7.0
 40
8.0
 40
8.0
 40
8.0
 40
9.0
 40
9.0
 40
9.0
 40
9.0
 10
6.239526771202715
 20
-5.576266818576388
 10
6.265561397656786
 20
-5.573300612537801
 10
6.248289509371892
 20
-5.620985314227001
 10
6.252987377521598
 20
-5.636459800581733
 10
6.232571454828681
 20
-5.650694265978194
 10
6.196907493450124
 20
-5.639502310433625
 10
6.172917996339188
 20
-5.642881876820031
 10
6.148909957832933
 20
-5.639489205529545
 10
6.113260556944169
 20
-5.650713337470506
 10
6.092865011213916
 20
-5.636466845209016
 10
6.095707450486795
 20
-5.621585519051728
 10
6.081947257554449
 20
-5.56902289592545
 10
6.111650847406886
 20
-5.58589573989876
 10
6.110407864605298
 20
-5.638567612840915
 10
6.112458496056533
 20
-5.624390050920232
 10
6.159480776789753
 20
-5.623021523829644
 10
6.163253511898321
 20
-5.609989929386579
 10
6.151547940796111
 20
-5.571149523118543
 10
6.181794071137093
 20
-5.586344609300643
 10
6.196382598938927
 20
-5.630023800775512
 10
6.163404134027561
 20
-5.622711579063156
 10
6.225021817264278
 20
-5.625752839917064
 10
6.244390592295176
 20
-5.623110730099015
 10
6.226436121230815
 20
-5.613959152126097
 10
6.226394743837848
 20
-5.603149847067596
 10
6.232133843904016
 20
-5.595484052967321
 10
6.229860528145232
 20
-5.579044918332606
 10
6.239526771202715
 20
-5.576266818576388
 97
        0
 97
        1
330
10D
 75
     2
 76
     1
 98
        1
 10
0.0
 20
0.0
450
        0
451
        0
460
0.0
461
0.0
452
        0
462
0.0
453
        0
470

  0
SPLINE
  5
10F
330
7F
100
AcDbEntity
  8
Layer 1
100
AcDbSpline
210
0.0
220
0.0
230
1.0
 70
     9
 71
     3
 72
    14
 73
    10
 74
     0
 42
0.0000000001
 43
0.0000000001
 40
0.0
 40
0.0
 40
0.0
 40
0.0
 40
1.0
 40
1.0
 40
1.0
 40
2.0
 40
2.0
 40
2.0
 40
3.0
 40
3.0
 40
3.0
 40
3.0
 10
6.286279700890215
 20
-5.76748318142361
 30
0.0
 10
6.326368556735612
 20
-5.738446272256902
 30
0.0
 10
6.259272482437128
 20
-5.711711260223157
 30
0.0
 10
6.240299761261667
 20
-5.738160227211437
 30
0.0
 10
6.23529477846715
 20
-5.75816488842055
 30
0.0
 10
6.244674533919022
 20
-5.772354308718755
 30
0.0
 10
6.266114238998473
 20
-5.767790493974037
 30
0.0
 10
6.266110972591604
 20
-5.767795138888888
 30
0.0
 10
6.286279700890215
 20
-5.76748318142361
 30
0.0
 10
6.286279700890215
 20
-5.76748318142361
 30
0.0
  0
SPLINE
  5
110
330
7F
100
AcDbEntity
  8
Layer 1
100
AcDbSpline
210
0.0
220
0.0
230
1.0
 70
     9
 71
     3
 72
    26
 73
    22
 74
     0
 42
0.0000000001
 43
0.0000000001
 40
0.0
 40
0.0
 40
0.0
 40
0.0
 40
1.0
 40
1.0
 40
1.0
 40
2.0
 40
2.0
 40
2.0
 40
3.0
 40
3.0
 40
3.0
 40
4.0
 40
4.0
 40
4.0
 40
5.0
 40
5.0
 40
5.0
 40
6.0
 40
6.0
 40
6.0
 40
7.0
 40
7.0
 40
7.0
 40
7.0
 10
6.29957180158466
 20
-5.807508680555555
 30
0.0
 10
6.32576722375562
 20
-5.815441893888519
 30
0.0
 10
6.307902339121483
 20
-5.860308321730068
 30
0.0
 10
6.312870450909586
 20
-5.881155449132671
 30
0.0
 10
6.315708688896367
 20
-5.901500360093905
 30
0.0
 10
6.313391451893342
 20
-5.947931194077201
 30
0.0
 10
6.286272010996096
 20
-5.92118366652845
 30
0.0
 10
6.29731478416761
 20
-5.888411104975501
 30
0.0
 10
6.268419915645885
 20
-5.90249882104394
 30
0.0
 10
6.248856021671447
 20
-5.900097128079222
 30
0.0
 10
6.227440752645835
 20
-5.861623944823248
 30
0.0
 10
6.310195648678522
 20
-5.902562976612115
 30
0.0
 10
6.288111099109502
 20
-5.862968221237324
 30
0.0
 10
6.285701010215612
 20
-5.841299395615426
 30
0.0
 10
6.300491266146106
 20
-5.816079518840675
 30
0.0
 10
6.266103982002934
 20
-5.834098097134553
 30
0.0
 10
6.245694742143768
 20
-5.841409488130819
 30
0.0
 10
6.215250671088622
 20
-5.818622922413951
 30
0.0
 10
6.245956703527578
 20
-5.807501563510994
 30
0.0
 10
6.259318144224733
 20
-5.807543013903896
 30
0.0
 10
6.286230301515438
 20
-5.807483933777373
 30
0.0
 10
6.29957180158466
 20
-5.807508680555555
 30
0.0
  0
SPLINE
  5
111
330
7F
100
AcDbEntity
  8
Layer 1
100
AcDbSpline
210
0.0
220
0.0
230
1.0
 70
     9
 71
     3
 72
    11
 73
     7
 74
     0
 42
0.0000000001
 43
0.0000000001
 40
0.0
 40
0.0
 40
0.0
 40
0.0
 40
1.0
 40
1.0
 40
1.0
 40
2.0
 40
2.0
 40
2.0
 40
2.0
 10
6.266110972591604
 20
-5.700873480902777
 30
0.0
 10
6.334006511488395
 20
-5.706767967169475
 30
0.0
 10
6.335730105348728
 20
-5.790702395766629
 30
0.0
 10
6.265993123828138
 20
-5.79437602787478
 30
0.0
 10
6.196807501844002
 20
-5.790417589614055
 30
0.0
 10
6.198766136445707
 20
-5.706906279680374
 30
0.0
 10
6.266110972591604
 20
-5.700873480902777
 30
0.0
  0
SPLINE
  5
112
330
7F
100
AcDbEntity
  8
Layer 1
100
AcDbSpline
210
0.0
220
0.0
230
1.0
 70
     9
 71
     3
 72
    11
 73
     7
 74
     0
 42
0.0000000001
 43
0.0000000001
 40
0.0
 40
0.0
 40
0.0
 40
0.0
 40
1.0
 40
1.0
 40
1.0
 40
2.0
 40
2.0
 40
2.0
 40
2.0
 10
6.153060299848548
 20
-5.787353515625
 30
0.0
 10
6.178509861482577
 20
-5.785279344259202
 30
0.0
 10
6.178432956035749
 20
-5.81663152323492
 30
0.0
 10
6.153058048098399
 20
-5.814547842975167
 30
0.0
 10
6.135894148572106
 20
-5.814215750946711
 30
0.0
 10
6.135797147465963
 20
-5.78770348336785
 30
0.0
 10
6.153060299848548
 20
-5.787353515625
 30
0.0
  0
SPLINE
  5
113
330
7F
100
AcDbEntity
  8
Layer 1
100
AcDbSpline
210
0.0
220
0.0
230
1.0
 70
     9
 71
     3
 72
    50
 73
    46
 74
     0
 42
0.0000000001
 43
0.0000000001
 40
0.0
 40
0.0
 40
0.0
 40
0.0
 40
1.0
 40
1.0
 40
1.0
 40
2.0
 40
2.0
 40
2.0
 40
3.0
 40
3.0
 40
3.0
 40
4.0
 40
4.0
 40
4.0
 40
5.0
 40
5.0
 40
5.0
 40
6.0
 40
6.0
 40
6.0
 40
7.0
 40
7.0
 40
7.0
 40
8.0
 40
8.0
 40
8.0
 40
9.0
 40
9.0
 40
9.0
 40
10.0
 40
10.0
 40
10.0
 40
11.0
 40
11.0
 40
11.0
 40
12.0
 40
12.0
 40
12.0
 40
13.0
 40
13.0
 40
13.0
 40
14.0
 40
14.0
 40
14.0
 40
15.0
 40
15.0
 40
15.0
 40
15.0
 10
6.21292900644577
 20
-5.867404513888888
 30
0.0
 10
6.244042239704462
 20
-5.905476148473578
 30
0.0
 10
6.178779197526233
 20
-5.88900636285262
 30
0.0
 10
6.159477416641821
 20
-5.893979602275875
 30
0.0
 10
6.143025924237917
 20
-5.895449740148604
 30
0.0
 10
6.136603737074614
 20
-5.921695715896273
 30
0.0
 10
6.119450506925608
 20
-5.921183752362796
 30
0.0
 10
6.092179653719313
 20
-5.925416984312985
 30
0.0
 10
6.090970627860921
 20
-5.908187760689315
 30
0.0
 10
6.099289562803329
 20
-5.887585113802211
 30
0.0
 10
6.089713469148035
 20
-5.871010633949581
 30
0.0
 10
6.093409638663943
 20
-5.846690882577503
 30
0.0
 10
6.092866928629215
 20
-5.827785208716426
 30
0.0
 10
6.096875155329901
 20
-5.803395152690629
 30
0.0
 10
6.084657887030541
 20
-5.708948679473476
 30
0.0
 10
6.106297463796155
 20
-5.707597768237165
 30
0.0
 10
6.134004735609651
 20
-5.714080358236489
 30
0.0
 10
6.200552953817425
 20
-5.692203014485786
 30
0.0
 10
6.212960139917186
 20
-5.720828192357278
 30
0.0
 10
6.204739109539104
 20
-5.743553219062706
 30
0.0
 10
6.081365778242848
 20
-5.704070685868424
 30
0.0
 10
6.123719230144716
 20
-5.750680717053405
 30
0.0
 10
6.143238728185299
 20
-5.7490741089093
 30
0.0
 10
6.183905415904442
 20
-5.736538944913617
 30
0.0
 10
6.189572359458174
 20
-5.762066911097741
 30
0.0
 10
6.204084914964369
 20
-5.779679070890501
 30
0.0
 10
6.162083286955597
 20
-5.789627152128862
 30
0.0
 10
6.16639318231023
 20
-5.767483672137333
 30
0.0
 10
6.152764843913346
 20
-5.772175771589975
 30
0.0
 10
6.121797746213612
 20
-5.756867954338935
 30
0.0
 10
6.116397431255285
 20
-5.772672011978455
 30
0.0
 10
6.111072674997658
 20
-5.839249339645625
 30
0.0
 10
6.11139494689342
 20
-5.834704068035281
 30
0.0
 10
6.179342509831055
 20
-5.834089495392036
 30
0.0
 10
6.199330267452776
 20
-5.840407803953338
 30
0.0
 10
6.196868291325371
 20
-5.778560817293206
 30
0.0
 10
6.219676025224012
 20
-5.820964720064466
 30
0.0
 10
6.231735085316964
 20
-5.882527764820527
 30
0.0
 10
6.131467873242879
 20
-5.834308027385405
 30
0.0
 10
6.116694088474256
 20
-5.861742437455126
 30
0.0
 10
6.117834849671023
 20
-5.899897926392516
 30
0.0
 10
6.11379905536344
 20
-5.90917223181984
 30
0.0
 10
6.146120171648413
 20
-5.874129744267873
 30
0.0
 10
6.160882809249187
 20
-5.862677225446228
 30
0.0
 10
6.192011086104431
 20
-5.869583712829883
 30
0.0
 10
6.21292900644577
 20
-5.867404513888888
 30
0.0
  0
HATCH
  5
114
330
7F
100
AcDbEntity
  8
Layer 1
 62
   250
420
  2301728
440
 33554687
100
AcDbHatch
 10
0.0
 20
0.0
 30
0.0
210
0.0
220
0.0
230
1.0
  2
SOLID
 70
     1
 71
     1
 91
        5
 92
        1
 93
        1
 72
     4
 94
        3
 73
     0
 74
     0
 95
       14
 96
       10
 40
0.0
 40
0.0
 40
0.0
 40
0.0
 40
1.0
 40
1.0
 40
1.0
 40
2.0
 40
2.0
 40
2.0
 40
3.0
 40
3.0
 40
3.0
 40
3.0
 10
6.286279700890215
 20
-5.76748318142361
 10
6.326368556735612
 20
-5.738446272256902
 10
6.259272482437128
 20
-5.711711260223157
 10
6.240299761261667
 20
-5.738160227211437
 10
6.23529477846715
 20
-5.75816488842055
 10
6.244674533919022
 20
-5.772354308718755
 10
6.266114238998473
 20
-5.767790493974037
 10
6.266110972591604
 20
-5.767795138888888
 10
6.286279700890215
 20
-5.76748318142361
 10
6.286279700890215
 20
-5.76748318142361
 97
        0
 97
        1
330
10F
 92
        1
 93
        1
 72
     4
 94
        3
 73
     0
 74
     0
 95
       26
 96
       22
 40
0.0
 40
0.0
 40
0.0
 40
0.0
 40
1.0
 40
1.0
 40
1.0
 40
2.0
 40
2.0
 40
2.0
 40
3.0
 40
3.0
 40
3.0
 40
4.0
 40
4.0
 40
4.0
 40
5.0
 40
5.0
 40
5.0
 40
6.0
 40
6.0
 40
6.0
 40
7.0
 40
7.0
 40
7.0
 40
7.0
 10
6.29957180158466
 20
-5.807508680555555
 10
6.32576722375562
 20
-5.815441893888519
 10
6.307902339121483
 20
-5.860308321730068
 10
6.312870450909586
 20
-5.881155449132671
 10
6.315708688896367
 20
-5.901500360093905
 10
6.313391451893342
 20
-5.947931194077201
 10
6.286272010996096
 20
-5.92118366652845
 10
6.29731478416761
 20
-5.888411104975501
 10
6.268419915645885
 20
-5.90249882104394
 10
6.248856021671447
 20
-5.900097128079222
 10
6.227440752645835
 20
-5.861623944823248
 10
6.310195648678522
 20
-5.902562976612115
 10
6.288111099109502
 20
-5.862968221237324
 10
6.285701010215612
 20
-5.841299395615426
 10
6.300491266146106
 20
-5.816079518840675
 10
6.266103982002934
 20
-5.834098097134553
 10
6.245694742143768
 20
-5.841409488130819
 10
6.215250671088622
 20
-5.818622922413951
 10
6.245956703527578
 20
-5.807501563510994
 10
6.259318144224733
 20
-5.807543013903896
 10
6.286230301515438
 20
-5.807483933777373
 10
6.29957180158466
 20
-5.807508680555555
 97
        0
 97
        1
330
110
 92
        1
 93
        1
 72
     4
 94
        3
 73
     0
 74
     0
 95
       11
 96
        7
 40
0.0
 40
0.0
 40
0.0
 40
0.0
 40
1.0
 40
1.0
 40
1.0
 40
2.0
 40
2.0
 40
2.0
 40
2.0
 10
6.266110972591604
 20
-5.700873480902777
 10
6.334006511488395
 20
-5.706767967169475
 10
6.335730105348728
 20
-5.790702395766629
 10
6.265993123828138
 20
-5.79437602787478
 10
6.196807501844002
 20
-5.790417589614055
 10
6.198766136445707
 20
-5.706906279680374
 10
6.266110972591604
 20
-5.700873480902777
 97
        0
 97
        1
330
111
 92
        1
 93
        1
 72
     4
 94
        3
 73
     0
 74
     0
 95
       11
 96
        7
 40
0.0
 40
0.0
 40
0.0
 40
0.0
 40
1.0
 40
1.0
 40
1.0
 40
2.0
 40
2.0
 40
2.0
 40
2.0
 10
6.153060299848548
 20
-5.787353515625
 10
6.178509861482577
 20
-5.785279344259202
 10
6.178432956035749
 20
-5.81663152323492
 10
6.153058048098399
 20
-5.814547842975167
 10
6.135894148572106
 20
-5.814215750946711
 10
6.135797147465963
 20
-5.78770348336785
 10
6.153060299848548
 20
-5.787353515625
 97
        0
 97
        1
330
112
 92
        1
 93
        1
 72
     4
 94
        3
 73
     0
 74
     0
 95
       50
 96
       46
 40
0.0
 40
0.0
 40
0.0
 40
0.0
 40
1.0
 40
1.0
 40
1.0
 40
2.0
 40
2.0
 40
2.0
 40
3.0
 40
3.0
 40
3.0
 40
4.0
 40
4.0
 40
4.0
 40
5.0
 40
5.0
 40
5.0
 40
6.0
 40
6.0
 40
6.0
 40
7.0
 40
7.0
 40
7.0
 40
8.0
 40
8.0
 40
8.0
 40
9.0
 40
9.0
 40
9.0
 40
10.0
 40
10.0
 40
10.0
 40
11.0
 40
11.0
 40
11.0
 40
12.0
 40
12.0
 40
12.0
 40
13.0
 40
13.0
 40
13.0
 40
14.0
 40
14.0
 40
14.0
 40
15.0
 40
15.0
 40
15.0
 40
15.0
 10
6.21292900644577
 20
-5.867404513888888
 10
6.244042239704462
 20
-5.905476148473578
 10
6.178779197526233
 20
-5.88900636285262
 10
6.159477416641821
 20
-5.893979602275875
 10
6.143025924237917
 20
-5.895449740148604
 10
6.136603737074614
 20
-5.921695715896273
 10
6.119450506925608
 20
-5.921183752362796
 10
6.092179653719313
 20
-5.925416984312985
 10
6.090970627860921
 20
-5.908187760689315
 10
6.099289562803329
 20
-5.887585113802211
 10
6.089713469148035
 20
-5.871010633949581
 10
6.093409638663943
 20
-5.846690882577503
 10
6.092866928629215
 20
-5.827785208716426
 10
6.096875155329901
 20
-5.803395152690629
 10
6.084657887030541
 20
-5.708948679473476
 10
6.106297463796155
 20
-5.707597768237165
 10
6.134004735609651
 20
-5.714080358236489
 10
6.200552953817425
 20
-5.692203014485786
 10
6.212960139917186
 20
-5.720828192357278
 10
6.204739109539104
 20
-5.743553219062706
 10
6.081365778242848
 20
-5.704070685868424
 10
6.123719230144716
 20
-5.750680717053405
 10
6.143238728185299
 20
-5.7490741089093
 10
6.183905415904442
 20
-5.736538944913617
 10
6.189572359458174
 20
-5.762066911097741
 10
6.204084914964369
 20
-5.779679070890501
 10
6.162083286955597
 20
-5.789627152128862
 10
6.16639318231023
 20
-5.767483672137333
 10
6.152764843913346
 20
-5.772175771589975
 10
6.121797746213612
 20
-5.756867954338935
 10
6.116397431255285
 20
-5.772672011978455
 10
6.111072674997658
 20
-5.839249339645625
 10
6.11139494689342
 20
-5.834704068035281
 10
6.179342509831055
 20
-5.834089495392036
 10
6.199330267452776
 20
-5.840407803953338
 10
6.196868291325371
 20
-5.778560817293206
 10
6.219676025224012
 20
-5.820964720064466
 10
6.231735085316964
 20
-5.882527764820527
 10
6.131467873242879
 20
-5.834308027385405
 10
6.116694088474256
 20
-5.861742437455126
 10
6.117834849671023
 20
-5.899897926392516
 10
6.11379905536344
 20
-5.90917223181984
 10
6.146120171648413
 20
-5.874129744267873
 10
6.160882809249187
 20
-5.862677225446228
 10
6.192011086104431
 20
-5.869583712829883
 10
6.21292900644577
 20
-5.867404513888888
 97
        0
 97
        1
330
113
 75
     2
 76
     1
 98
        1
 10
0.0
 20
0.0
450
        0
451
        0
460
0.0
461
0.0
452
        0
462
0.0
453
        0
470

  0
SPLINE
  5
115
330
7F
100
AcDbEntity
  8
Layer 1
100
AcDbSpline
210
0.0
220
0.0
230
1.0
 70
     9
 71
     3
 72
    11
 73
     7
 74
     0
 42
0.0000000001
 43
0.0000000001
 40
0.0
 40
0.0
 40
0.0
 40
0.0
 40
1.0
 40
1.0
 40
1.0
 40
2.0
 40
2.0
 40
2.0
 40
2.0
 10
6.257864444813826
 20
-6.184814453125
 30
0.0
 10
6.275450225648253
 20
-6.185179241492757
 30
0.0
 10
6.275463734234563
 20
-6.211972933709021
 30
0.0
 10
6.257862832311704
 20
-6.212320932325332
 30
0.0
 10
6.240266334402096
 20
-6.211969321100796
 30
0.0
 10
6.240277484844
 20
-6.1851756041197
 30
0.0
 10
6.257864444813826
 20
-6.184814453125
 30
0.0
  0
SPLINE
  5
116
330
7F
100
AcDbEntity
  8
Layer 1
100
AcDbSpline
210
0.0
220
0.0
230
1.0
 70
     9
 71
     3
 72
    17
 73
    13
 74
     0
 42
0.0000000001
 43
0.0000000001
 40
0.0
 40
0.0
 40
0.0
 40
0.0
 40
1.0
 40
1.0
 40
1.0
 40
2.0
 40
2.0
 40
2.0
 40
3.0
 40
3.0
 40
3.0
 40
4.0
 40
4.0
 40
4.0
 40
4.0
 10
6.257864444813826
 20
-6.171373155381943
 30
0.0
 10
6.234851328922281
 20
-6.171052399969135
 30
0.0
 10
6.246895316335111
 20
-6.13748361354462
 30
0.0
 10
6.244109007458872
 20
-6.123100939417327
 30
0.0
 10
6.247209742793756
 20
-6.107279854270877
 30
0.0
 10
6.234375284829461
 20
-6.071259879652036
 30
0.0
 10
6.25786181057141
 20
-6.068100726695724
 30
0.0
 10
6.281353908920891
 20
-6.071247061510145
 30
0.0
 10
6.268518834036613
 20
-6.107289122485654
 30
0.0
 10
6.271620633246887
 20
-6.123100317500226
 30
0.0
 10
6.268860583215882
 20
-6.137554449611292
 30
0.0
 10
6.280835722761316
 20
-6.17088411111346
 30
0.0
 10
6.257864444813826
 20
-6.171373155381943
 30
0.0
  0
SPLINE
  5
117
330
7F
100
AcDbEntity
  8
Layer 1
100
AcDbSpline
210
0.0
220
0.0
230
1.0
 70
     9
 71
     3
 72
    26
 73
    22
 74
     0
 42
0.0000000001
 43
0.0000000001
 40
0.0
 40
0.0
 40
0.0
 40
0.0
 40
1.0
 40
1.0
 40
1.0
 40
2.0
 40
2.0
 40
2.0
 40
3.0
 40
3.0
 40
3.0
 40
4.0
 40
4.0
 40
4.0
 40
5.0
 40
5.0
 40
5.0
 40
6.0
 40
6.0
 40
6.0
 40
7.0
 40
7.0
 40
7.0
 40
7.0
 10
6.305838077626326
 20
-6.0335693359375
 30
0.0
 10
6.334937458994292
 20
-6.044575789741555
 30
0.0
 10
6.313252522955608
 20
-6.103751732370988
 30
0.0
 10
6.319600704576814
 20
-6.129811628695784
 30
0.0
 10
6.319566044061578
 20
-6.150071535908838
 30
0.0
 10
6.319609560336604
 20
-6.17837566803506
 30
0.0
 10
6.319591277477684
 20
-6.198567603764963
 30
0.0
 10
6.318562444027368
 20
-6.222321367663122
 30
0.0
 10
6.280665863651872
 20
-6.209843975222434
 30
0.0
 10
6.295448340071516
 20
-6.190780105737328
 30
0.0
 10
6.292129929193883
 20
-6.150308834886193
 30
0.0
 10
6.309578624384331
 20
-6.09606906916901
 30
0.0
 10
6.292096108991042
 20
-6.054346776398359
 30
0.0
 10
6.284151067218721
 20
-6.046370808387488
 30
0.0
 10
6.254092641039227
 20
-6.065015553204148
 30
0.0
 10
6.250837831583591
 20
-6.047322101200456
 30
0.0
 10
6.243638207506617
 20
-6.03299523892133
 30
0.0
 10
6.242462915293723
 20
-5.975673725778531
 30
0.0
 10
6.263820096951146
 20
-5.989871762343605
 30
0.0
 10
6.263802924472732
 20
-6.029236179647366
 30
0.0
 10
6.26276784176452
 20
-6.040329005931046
 30
0.0
 10
6.305838077626326
 20
-6.0335693359375
 30
0.0
  0
SPLINE
  5
118
330
7F
100
AcDbEntity
  8
Layer 1
100
AcDbSpline
210
0.0
220
0.0
230
1.0
 70
     9
 71
     3
 72
    11
 73
     7
 74
     0
 42
0.0000000001
 43
0.0000000001
 40
0.0
 40
0.0
 40
0.0
 40
0.0
 40
1.0
 40
1.0
 40
1.0
 40
2.0
 40
2.0
 40
2.0
 40
2.0
 10
6.161618785091604
 20
-6.177788628472222
 30
0.0
 10
6.146991644825927
 20
-6.17925930434828
 30
0.0
 10
6.132977786325227
 20
-6.165784031649031
 30
0.0
 10
6.146034663694459
 20
-6.154879102566862
 30
0.0
 10
6.168370127166099
 20
-6.137529992322368
 30
0.0
 10
6.201767984317458
 20
-6.173763805149948
 30
0.0
 10
6.161618785091604
 20
-6.177788628472222
 30
0.0
  0
SPLINE
  5
119
330
7F
100
AcDbEntity
  8
Layer 1
100
AcDbSpline
210
0.0
220
0.0
230
1.0
 70
     9
 71
     3
 72
    11
 73
     7
 74
     0
 42
0.0000000001
 43
0.0000000001
 40
0.0
 40
0.0
 40
0.0
 40
0.0
 40
1.0
 40
1.0
 40
1.0
 40
2.0
 40
2.0
 40
2.0
 40
2.0
 10
6.140839705230493
 20
-6.129814995659722
 30
0.0
 10
6.062962080767268
 20
-6.172995082301818
 30
0.0
 10
6.180293752782012
 20
-6.224773584564622
 30
0.0
 10
6.20852129818978
 20
-6.168614732832716
 30
0.0
 10
6.209564864698576
 20
-6.134401091495925
 30
0.0
 10
6.169270358522504
 20
-6.125378074200498
 30
0.0
 10
6.140839705230493
 20
-6.129814995659722
 30
0.0
  0
SPLINE
  5
11A
330
7F
100
AcDbEntity
  8
Layer 1
100
AcDbSpline
210
0.0
220
0.0
230
1.0
 70
     9
 71
     3
 72
    11
 73
     7
 74
     0
 42
0.0000000001
 43
0.0000000001
 40
0.0
 40
0.0
 40
0.0
 40
0.0
 40
1.0
 40
1.0
 40
1.0
 40
2.0
 40
2.0
 40
2.0
 40
2.0
 10
6.133813880577715
 20
-6.212320963541666
 30
0.0
 10
5.994077476434792
 20
-6.138985675589638
 30
0.0
 10
6.237161758425675
 20
-6.040477650238194
 30
0.0
 10
6.229453445168776
 20
-6.174593577944202
 30
0.0
 10
6.214484261459119
 20
-6.212413120179158
 30
0.0
 10
6.16943481115537
 20
-6.21461042296879
 30
0.0
 10
6.133813880577715
 20
-6.212320963541666
 30
0.0
  0
SPLINE
  5
11B
330
7F
100
AcDbEntity
  8
Layer 1
100
AcDbSpline
210
0.0
220
0.0
230
1.0
 70
     9
 71
     3
 72
    23
 73
    19
 74
     0
 42
0.0000000001
 43
0.0000000001
 40
0.0
 40
0.0
 40
0.0
 40
0.0
 40
1.0
 40
1.0
 40
1.0
 40
2.0
 40
2.0
 40
2.0
 40
3.0
 40
3.0
 40
3.0
 40
4.0
 40
4.0
 40
4.0
 40
5.0
 40
5.0
 40
5.0
 40
6.0
 40
6.0
 40
6.0
 40
6.0
 10
6.175372040299937
 20
-6.061075846354166
 30
0.0
 10
6.205975091916317
 20
-6.066754902374744
 30
0.0
 10
6.204336856432164
 20
-6.042505872504281
 30
0.0
 10
6.202860703077627
 20
-6.02012397426069
 30
0.0
 10
6.185955695843833
 20
-6.001875872476855
 30
0.0
 10
6.060375962296348
 20
-6.029426506205734
 30
0.0
 10
6.106607426843512
 20
-5.992614691677064
 30
0.0
 10
6.170873867700138
 20
-5.996306876045764
 30
0.0
 10
6.242510265197274
 20
-5.967729957635683
 30
0.0
 10
6.222414965621585
 20
-6.063819284286839
 30
0.0
 10
6.206298088842433
 20
-6.082260923463738
 30
0.0
 10
6.178533131334561
 20
-6.083518430191714
 30
0.0
 10
6.154592246517065
 20
-6.08185155570239
 30
0.0
 10
6.1388270265562
 20
-6.078792714275348
 30
0.0
 10
6.103015122024189
 20
-6.091522670710471
 30
0.0
 10
6.099890977477419
 20
-6.068104240988128
 30
0.0
 10
6.113028879514508
 20
-6.051424420450782
 30
0.0
 10
6.154338425891308
 20
-6.065491532388199
 30
0.0
 10
6.175372040299937
 20
-6.061075846354166
 30
0.0
  0
HATCH
  5
11C
330
7F
100
AcDbEntity
  8
Layer 1
 62
   250
420
  2301728
440
 33554687
100
AcDbHatch
 10
0.0
 20
0.0
 30
0.0
210
0.0
220
0.0
230
1.0
  2
SOLID
 70
     1
 71
     1
 91
        7
 92
        1
 93
        1
 72
     4
 94
        3
 73
     0
 74
     0
 95
       11
 96
        7
 40
0.0
 40
0.0
 40
0.0
 40
0.0
 40
1.0
 40
1.0
 40
1.0
 40
2.0
 40
2.0
 40
2.0
 40
2.0
 10
6.257864444813826
 20
-6.184814453125
 10
6.275450225648253
 20
-6.185179241492757
 10
6.275463734234563
 20
-6.211972933709021
 10
6.257862832311704
 20
-6.212320932325332
 10
6.240266334402096
 20
-6.211969321100796
 10
6.240277484844
 20
-6.1851756041197
 10
6.257864444813826
 20
-6.184814453125
 97
        0
 97
        1
330
115
 92
        1
 93
        1
 72
     4
 94
        3
 73
     0
 74
     0
 95
       17
 96
       13
 40
0.0
 40
0.0
 40
0.0
 40
0.0
 40
1.0
 40
1.0
 40
1.0
 40
2.0
 40
2.0
 40
2.0
 40
3.0
 40
3.0
 40
3.0
 40
4.0
 40
4.0
 40
4.0
 40
4.0
 10
6.257864444813826
 20
-6.171373155381943
 10
6.234851328922281
 20
-6.171052399969135
 10
6.246895316335111
 20
-6.13748361354462
 10
6.244109007458872
 20
-6.123100939417327
 10
6.247209742793756
 20
-6.107279854270877
 10
6.234375284829461
 20
-6.071259879652036
 10
6.25786181057141
 20
-6.068100726695724
 10
6.281353908920891
 20
-6.071247061510145
 10
6.268518834036613
 20
-6.107289122485654
 10
6.271620633246887
 20
-6.123100317500226
 10
6.268860583215882
 20
-6.137554449611292
 10
6.280835722761316
 20
-6.17088411111346
 10
6.257864444813826
 20
-6.171373155381943
 97
        0
 97
        1
330
116
 92
        1
 93
        1
 72
     4
 94
        3
 73
     0
 74
     0
 95
       26
 96
       22
 40
0.0
 40
0.0
 40
0.0
 40
0.0
 40
1.0
 40
1.0
 40
1.0
 40
2.0
 40
2.0
 40
2.0
 40
3.0
 40
3.0
 40
3.0
 40
4.0
 40
4.0
 40
4.0
 40
5.0
 40
5.0
 40
5.0
 40
6.0
 40
6.0
 40
6.0
 40
7.0
 40
7.0
 40
7.0
 40
7.0
 10
6.305838077626326
 20
-6.0335693359375
 10
6.334937458994292
 20
-6.044575789741555
 10
6.313252522955608
 20
-6.103751732370988
 10
6.319600704576814
 20
-6.129811628695784
 10
6.319566044061578
 20
-6.150071535908838
 10
6.319609560336604
 20
-6.17837566803506
 10
6.319591277477684
 20
-6.198567603764963
 10
6.318562444027368
 20
-6.222321367663122
 10
6.280665863651872
 20
-6.209843975222434
 10
6.295448340071516
 20
-6.190780105737328
 10
6.292129929193883
 20
-6.150308834886193
 10
6.309578624384331
 20
-6.09606906916901
 10
6.292096108991042
 20
-6.054346776398359
 10
6.284151067218721
 20
-6.046370808387488
 10
6.254092641039227
 20
-6.065015553204148
 10
6.250837831583591
 20
-6.047322101200456
 10
6.243638207506617
 20
-6.03299523892133
 10
6.242462915293723
 20
-5.975673725778531
 10
6.263820096951146
 20
-5.989871762343605
 10
6.263802924472732
 20
-6.029236179647366
 10
6.26276784176452
 20
-6.040329005931046
 10
6.305838077626326
 20
-6.0335693359375
 97
        0
 97
        1
330
117
 92
        1
 93
        1
 72
     4
 94
        3
 73
     0
 74
     0
 95
       11
 96
        7
 40
0.0
 40
0.0
 40
0.0
 40
0.0
 40
1.0
 40
1.0
 40
1.0
 40
2.0
 40
2.0
 40
2.0
 40
2.0
 10
6.161618785091604
 20
-6.177788628472222
 10
6.146991644825927
 20
-6.17925930434828
 10
6.132977786325227
 20
-6.165784031649031
 10
6.146034663694459
 20
-6.154879102566862
 10
6.168370127166099
 20
-6.137529992322368
 10
6.201767984317458
 20
-6.173763805149948
 10
6.161618785091604
 20
-6.177788628472222
 97
        0
 97
        1
330
118
 92
        1
 93
        1
 72
     4
 94
        3
 73
     0
 74
     0
 95
       11
 96
        7
 40
0.0
 40
0.0
 40
0.0
 40
0.0
 40
1.0
 40
1.0
 40
1.0
 40
2.0
 40
2.0
 40
2.0
 40
2.0
 10
6.140839705230493
 20
-6.129814995659722
 10
6.062962080767268
 20
-6.172995082301818
 10
6.180293752782012
 20
-6.224773584564622
 10
6.20852129818978
 20
-6.168614732832716
 10
6.209564864698576
 20
-6.134401091495925
 10
6.169270358522504
 20
-6.125378074200498
 10
6.140839705230493
 20
-6.129814995659722
 97
        0
 97
        1
330
119
 92
        1
 93
        1
 72
     4
 94
        3
 73
     0
 74
     0
 95
       11
 96
        7
 40
0.0
 40
0.0
 40
0.0
 40
0.0
 40
1.0
 40
1.0
 40
1.0
 40
2.0
 40
2.0
 40
2.0
 40
2.0
 10
6.133813880577715
 20
-6.212320963541666
 10
5.994077476434792
 20
-6.138985675589638
 10
6.237161758425675
 20
-6.040477650238194
 10
6.229453445168776
 20
-6.174593577944202
 10
6.214484261459119
 20
-6.212413120179158
 10
6.16943481115537
 20
-6.21461042296879
 10
6.133813880577715
 20
-6.212320963541666
 97
        0
 97
        1
330
11A
 92
        1
 93
        1
 72
     4
 94
        3
 73
     0
 74
     0
 95
       23
 96
       19
 40
0.0
 40
0.0
 40
0.0
 40
0.0
 40
1.0
 40
1.0
 40
1.0
 40
2.0
 40
2.0
 40
2.0
 40
3.0
 40
3.0
 40
3.0
 40
4.0
 40
4.0
 40
4.0
 40
5.0
 40
5.0
 40
5.0
 40
6.0
 40
6.0
 40
6.0
 40
6.0
 10
6.175372040299937
 20
-6.061075846354166
 10
6.205975091916317
 20
-6.066754902374744
 10
6.204336856432164
 20
-6.042505872504281
 10
6.202860703077627
 20
-6.02012397426069
 10
6.185955695843833
 20
-6.001875872476855
 10
6.060375962296348
 20
-6.029426506205734
 10
6.106607426843512
 20
-5.992614691677064
 10
6.170873867700138
 20
-5.996306876045764
 10
6.242510265197274
 20
-5.967729957635683
 10
6.222414965621585
 20
-6.063819284286839
 10
6.206298088842433
 20
-6.082260923463738
 10
6.178533131334561
 20
-6.083518430191714
 10
6.154592246517065
 20
-6.08185155570239
 10
6.1388270265562
 20
-6.078792714275348
 10
6.103015122024189
 20
-6.091522670710471
 10
6.099890977477419
 20
-6.068104240988128
 10
6.113028879514508
 20
-6.051424420450782
 10
6.154338425891308
 20
-6.065491532388199
 10
6.175372040299937
 20
-6.061075846354166
 97
        0
 97
        1
330
11B
 75
     2
 76
     1
 98
        1
 10
0.0
 20
0.0
450
        0
451
        0
460
0.0
461
0.0
452
        0
462
0.0
453
        0
470

  0
ENDBLK
  5
82
330
7F
100
AcDbEntity
  8
0
100
AcDbBlockEnd
  0
ENDSEC
  0
SECTION
  2
ENTITIES
  0
INSERT
  5
7A
330
70
100
AcDbEntity
  8
Layer 1
100
AcDbBlockReference
  2
Block_0
 10
0.0
 20
0.0
 30
0.0
  0
INSERT
  5
80
330
70
100
AcDbEntity
  8
Layer 1
100
AcDbBlockReference
  2
Block_1
 10
0.0
 20
0.0
 30
0.0
  0
ENDSEC
  0
SECTION
  2
OBJECTS
  0
DICTIONARY
  5
C
330
0
100
AcDbDictionary
281
     1
  3
ACAD_COLOR
350
63
  3
ACAD_DETAILVIEWSTYLE
350
6A
  3
ACAD_GROUP
350
D
  3
ACAD_LAYOUT
350
62
  3
ACAD_MATERIAL
350
10
  3
ACAD_MLEADERSTYLE
350
66
  3
ACAD_MLINESTYLE
350
5F
  3
ACAD_PLOTSETTINGS
350
61
  3
ACAD_PLOTSTYLENAME
350
E
  3
ACAD_SCALELIST
350
42
  3
ACAD_SECTIONVIEWSTYLE
350
68
  3
ACAD_TABLESTYLE
350
64
  3
ACAD_VISUALSTYLE
350
29
  3
ACDB_RECOMPOSE_DATA
350
125
  3
AcDbVariableDictionary
350
11D
  0
DICTIONARY
  5
63
102
{ACAD_REACTORS
330
C
102
}
330
C
100
AcDbDictionary
281
     1
  0
DICTIONARY
  5
6A
102
{ACAD_REACTORS
330
C
102
}
330
C
100
AcDbDictionary
281
     1
  3
Imperial24
350
6B
  0
DICTIONARY
  5
D
102
{ACAD_REACTORS
330
C
102
}
330
C
100
AcDbDictionary
281
     1
  0
DICTIONARY
  5
62
102
{ACAD_REACTORS
330
C
102
}
330
C
100
AcDbDictionary
281
     1
  3
Layout1
350
6F
  3
Layout2
350
77
  3
Model
350
73
  0
DICTIONARY
  5
10
102
{ACAD_REACTORS
330
C
102
}
330
C
100
AcDbDictionary
281
     1
  3
ByBlock
350
19
  3
ByLayer
350
11
  3
Global
350
21
  0
DICTIONARY
  5
66
102
{ACAD_REACTORS
330
C
102
}
330
C
100
AcDbDictionary
281
     1
  3
Standard
350
67
  0
DICTIONARY
  5
5F
102
{ACAD_REACTORS
330
C
102
}
330
C
100
AcDbDictionary
281
     1
  3
Standard
350
60
  0
DICTIONARY
  5
61
102
{ACAD_REACTORS
330
C
102
}
330
C
100
AcDbDictionary
281
     1
  0
ACDBDICTIONARYWDFLT
  5
E
102
{ACAD_REACTORS
330
C
102
}
330
C
100
AcDbDictionary
281
     1
  3
Normal
350
F
100
AcDbDictionaryWithDefault
340
F
  0
DICTIONARY
  5
42
102
{ACAD_REACTORS
330
C
102
}
330
C
100
AcDbDictionary
281
     1
  3
A0
350
43
  3
A1
350
44
  3
A2
350
45
  3
A3
350
46
  3
A4
350
47
  3
A5
350
48
  3
A6
350
49
  3
A7
350
4A
  3
A8
350
4B
  3
A9
350
4C
  3
B0
350
4D
  3
B1
350
4E
  3
B2
350
4F
  3
B3
350
50
  3
B4
350
51
  3
B5
350
52
  3
B6
350
53
  0
DICTIONARY
  5
68
102
{ACAD_REACTORS
330
C
102
}
330
C
100
AcDbDictionary
281
     1
  3
Imperial24
350
69
  0
DICTIONARY
  5
64
102
{ACAD_REACTORS
330
C
102
}
330
C
100
AcDbDictionary
281
     1
  3
Standard
350
65
  0
DICTIONARY
  5
29
102
{ACAD_REACTORS
330
C
102
}
330
C
100
AcDbDictionary
281
     1
  3
2dWireframe
350
2F
  3
Basic
350
2E
  3
Brighten
350
35
  3
ColorChange
350
39
  3
Conceptual
350
32
  3
Dim
350
34
  3
EdgeColorOff
350
41
  3
Facepattern
350
38
  3
Flat
350
2A
  3
FlatWithEdges
350
2B
  3
Gouraud
350
2C
  3
GouraudWithEdges
350
2D
  3
Hidden
350
31
  3
JitterOff
350
3F
  3
Linepattern
350
37
  3
OverhangOff
350
40
  3
Realistic
350
33
  3
Shaded
350
3E
  3
Shaded with edges
350
3D
  3
Shades of Gray
350
3A
  3
Sketchy
350
3B
  3
Thicken
350
36
  3
Wireframe
350
30
  3
X-Ray
350
3C
  0
XRECORD
  5
125
102
{ACAD_REACTORS
330
C
102
}
330
C
100
AcDbXrecord
280
     1
 90
        1
330
65
  0
DICTIONARY
  5
11D
102
{ACAD_REACTORS
330
C
102
}
330
C
100
AcDbDictionary
281
     1
  3
CANNOSCALE
350
122
  3
CMLEADERSTYLE
350
11F
  3
CTABLESTYLE
350
11E
  3
CVIEWDETAILSTYLE
350
120
  3
CVIEWSECTIONSTYLE
350
121
  0
ACDBDETAILVIEWSTYLE
  5
6B
102
{ACAD_REACTORS
330
6A
102
}
330
6A
100
AcDbModelDocViewStyle
 70
     0
  3
Imperial24
290
     1
300
Imperial24
 90
        0
100
AcDbDetailViewStyle
 70
     0
 71
     0
 90
        3
 71
     1
340
55
 62
   256
 40
0.24
340
0
 62
   256
 40
0.24
300

 40
0.36
280
     3
 71
     2
340
5D
 90
       25
 62
   256
 71
     3
340
55
 62
   256
 40
0.24
 90
        1
 40
0.75
 90
        1
300
%<\AcVar ViewType \f "%tc1">% %<\AcVar ViewDetailId>%\PSCALE %<\AcVar ViewScale \f "%sn">%
 71
     4
340
5D
 90
       25
 62
   256
340
5D
 90
       25
 62
   256
280
     0
  0
LAYOUT
  5
6F
102
{ACAD_REACTORS
330
62
102
}
330
62
100
AcDbPlotSettings
  1

  2

  4

  6

 40
0.0
 41
0.0
 42
0.0
 43
0.0
 44
0.0
 45
0.0
 46
0.0
 47
0.0
 48
0.0
 49
0.0
140
0.0
141
0.0
142
1.0
143
1.0
 70
   688
 72
     0
 73
     0
 74
     5
  7

 75
    16
147
1.0
 76
     0
 77
     2
 78
   300
148
0.0
149
0.0
100
AcDbLayout
  1
Layout1
 70
     1
 71
     1
 10
0.0
 20
0.0
 11
12.0
 21
9.0
 12
0.0
 22
0.0
 32
0.0
 14
0.0
 24
0.0
 34
0.0
 15
0.0
 25
0.0
 35
0.0
146
0.0
 13
0.0
 23
0.0
 33
0.0
 16
1.0
 26
0.0
 36
0.0
 17
0.0
 27
1.0
 37
0.0
 76
     0
330
6C
  0
LAYOUT
  5
77
102
{ACAD_REACTORS
330
62
102
}
330
62
100
AcDbPlotSettings
  1

  2

  4

  6

 40
0.0
 41
0.0
 42
0.0
 43
0.0
 44
0.0
 45
0.0
 46
0.0
 47
0.0
 48
0.0
 49
0.0
140
0.0
141
0.0
142
1.0
143
1.0
 70
   688
 72
     0
 73
     0
 74
     5
  7

 75
    16
147
1.0
 76
     0
 77
     2
 78
   300
148
0.0
149
0.0
100
AcDbLayout
  1
Layout2
 70
     1
 71
     2
 10
0.0
 20
0.0
 11
12.0
 21
9.0
 12
0.0
 22
0.0
 32
0.0
 14
0.0
 24
0.0
 34
0.0
 15
0.0
 25
0.0
 35
0.0
146
0.0
 13
0.0
 23
0.0
 33
0.0
 16
1.0
 26
0.0
 36
0.0
 17
0.0
 27
1.0
 37
0.0
 76
     0
330
74
  0
LAYOUT
  5
73
102
{ACAD_REACTORS
330
62
102
}
330
62
100
AcDbPlotSettings
  1

  2

  4

  6

 40
0.0
 41
0.0
 42
0.0
 43
0.0
 44
0.0
 45
0.0
 46
0.0
 47
0.0
 48
0.0
 49
0.0
140
0.0
141
0.0
142
1.0
143
1.0
 70
  1712
 72
     0
 73
     0
 74
     0
  7

 75
     0
147
1.0
 76
     0
 77
     2
 78
   300
148
0.0
149
0.0
100
AcDbLayout
  1
Model
 70
     1
 71
     0
 10
0.0
 20
0.0
 11
12.0
 21
9.0
 12
0.0
 22
0.0
 32
0.0
 14
0.0
 24
0.0
 34
0.0
 15
0.0
 25
0.0
 35
0.0
146
0.0
 13
0.0
 23
0.0
 33
0.0
 16
1.0
 26
0.0
 36
0.0
 17
0.0
 27
1.0
 37
0.0
 76
     0
330
70
  0
MATERIAL
  5
19
102
{ACAD_XDICTIONARY
360
1A
102
}
102
{ACAD_REACTORS
330
10
102
}
330
10
100
AcDbMaterial
  1
ByBlock
 72
     0
 43
0.0208333333333333
 43
0.0
 43
0.0
 43
0.0
 43
0.0
 43
0.0208333333333333
 43
0.0
 43
0.0
 43
0.0
 43
0.0
 43
1.0
 43
0.0
 43
0.0
 43
0.0
 43
0.0
 43
1.0
 77
     0
 47
0.0208333333333333
 47
0.0
 47
0.0
 47
0.0
 47
0.0
 47
0.0208333333333333
 47
0.0
 47
0.0
 47
0.0
 47
0.0
 47
1.0
 47
0.0
 47
0.0
 47
0.0
 47
0.0
 47
1.0
171
     0
 49
0.0208333333333333
 49
0.0
 49
0.0
 49
0.0
 49
0.0
 49
0.0208333333333333
 49
0.0
 49
0.0
 49
0.0
 49
0.0
 49
1.0
 49
0.0
 49
0.0
 49
0.0
 49
0.0
 49
1.0
175
     0
142
0.0208333333333333
142
0.0
142
0.0
142
0.0
142
0.0
142
0.0208333333333333
142
0.0
142
0.0
142
0.0
142
0.0
142
1.0
142
0.0
142
0.0
142
0.0
142
0.0
142
1.0
179
     0
144
0.0208333333333333
144
0.0
144
0.0
144
0.0
144
0.0
144
0.0208333333333333
144
0.0
144
0.0
144
0.0
144
0.0
144
1.0
144
0.0
144
0.0
144
0.0
144
0.0
144
1.0
147
0.0208333333333333
147
0.0
147
0.0
147
0.0
147
0.0
147
0.0208333333333333
147
0.0
147
0.0
147
0.0
147
0.0
147
1.0
147
0.0
147
0.0
147
0.0
147
0.0
147
1.0
  0
MATERIAL
  5
11
102
{ACAD_XDICTIONARY
360
12
102
}
102
{ACAD_REACTORS
330
10
102
}
330
10
100
AcDbMaterial
  1
ByLayer
 72
     0
 43
0.0208333333333333
 43
0.0
 43
0.0
 43
0.0
 43
0.0
 43
0.0208333333333333
 43
0.0
 43
0.0
 43
0.0
 43
0.0
 43
1.0
 43
0.0
 43
0.0
 43
0.0
 43
0.0
 43
1.0
 77
     0
 47
0.0208333333333333
 47
0.0
 47
0.0
 47
0.0
 47
0.0
 47
0.0208333333333333
 47
0.0
 47
0.0
 47
0.0
 47
0.0
 47
1.0
 47
0.0
 47
0.0
 47
0.0
 47
0.0
 47
1.0
171
     0
 49
0.0208333333333333
 49
0.0
 49
0.0
 49
0.0
 49
0.0
 49
0.0208333333333333
 49
0.0
 49
0.0
 49
0.0
 49
0.0
 49
1.0
 49
0.0
 49
0.0
 49
0.0
 49
0.0
 49
1.0
175
     0
142
0.0208333333333333
142
0.0
142
0.0
142
0.0
142
0.0
142
0.0208333333333333
142
0.0
142
0.0
142
0.0
142
0.0
142
1.0
142
0.0
142
0.0
142
0.0
142
0.0
142
1.0
179
     0
144
0.0208333333333333
144
0.0
144
0.0
144
0.0
144
0.0
144
0.0208333333333333
144
0.0
144
0.0
144
0.0
144
0.0
144
1.0
144
0.0
144
0.0
144
0.0
144
0.0
144
1.0
147
0.0208333333333333
147
0.0
147
0.0
147
0.0
147
0.0
147
0.0208333333333333
147
0.0
147
0.0
147
0.0
147
0.0
147
1.0
147
0.0
147
0.0
147
0.0
147
0.0
147
1.0
  0
MATERIAL
  5
21
102
{ACAD_XDICTIONARY
360
22
102
}
102
{ACAD_REACTORS
330
10
102
}
330
10
100
AcDbMaterial
  1
Global
 72
     0
 43
0.0208333333333333
 43
0.0
 43
0.0
 43
0.0
 43
0.0
 43
0.0208333333333333
 43
0.0
 43
0.0
 43
0.0
 43
0.0
 43
1.0
 43
0.0
 43
0.0
 43
0.0
 43
0.0
 43
1.0
 77
     0
 47
0.0208333333333333
 47
0.0
 47
0.0
 47
0.0
 47
0.0
 47
0.0208333333333333
 47
0.0
 47
0.0
 47
0.0
 47
0.0
 47
1.0
 47
0.0
 47
0.0
 47
0.0
 47
0.0
 47
1.0
171
     0
 49
0.0208333333333333
 49
0.0
 49
0.0
 49
0.0
 49
0.0
 49
0.0208333333333333
 49
0.0
 49
0.0
 49
0.0
 49
0.0
 49
1.0
 49
0.0
 49
0.0
 49
0.0
 49
0.0
 49
1.0
175
     0
142
0.0208333333333333
142
0.0
142
0.0
142
0.0
142
0.0
142
0.0208333333333333
142
0.0
142
0.0
142
0.0
142
0.0
142
1.0
142
0.0
142
0.0
142
0.0
142
0.0
142
1.0
179
     0
144
0.0208333333333333
144
0.0
144
0.0
144
0.0
144
0.0
144
0.0208333333333333
144
0.0
144
0.0
144
0.0
144
0.0
144
1.0
144
0.0
144
0.0
144
0.0
144
0.0
144
1.0
147
0.0208333333333333
147
0.0
147
0.0
147
0.0
147
0.0
147
0.0208333333333333
147
0.0
147
0.0
147
0.0
147
0.0
147
1.0
147
0.0
147
0.0
147
0.0
147
0.0
147
1.0
  0
MLEADERSTYLE
  5
67
102
{ACAD_REACTORS
330
66
102
}
330
66
100
AcDbMLeaderStyle
179
     2
170
     2
171
     1
172
     0
 90
        2
 40
0.0
 41
0.0
173
     1
 91
-1056964608
340
5B
 92
       -2
290
     1
 42
0.09
291
     1
 43
0.36
  3
Standard
 44
0.18
300

342
55
174
     1
178
     6
175
     1
176
     0
 93
-1056964608
 45
0.18
292
     0
297
     0
 46
0.18
 94
-1056964608
 47
1.0
 49
1.0
140
1.0
293
     1
141
0.0
294
     1
177
     0
142
1.0
295
     1
296
     0
143
0.125
271
     0
272
     9
273
     9
298
     1
  0
MLINESTYLE
  5
60
102
{ACAD_REACTORS
330
5F
102
}
330
5F
100
AcDbMlineStyle
  2
STANDARD
 70
     0
  3

 62
   256
 51
90.0
 52
90.0
 71
     2
 49
0.5
 62
   256
  6
BYLAYER
 49
-0.5
 62
   256
  6
BYLAYER
  0
ACDBPLACEHOLDER
  5
F
102
{ACAD_REACTORS
330
E
102
}
330
E
  0
SCALE
  5
43
102
{ACAD_REACTORS
330
42
102
}
330
42
100
AcDbScale
 70
     0
300
1:1
140
1.0
141
1.0
290
     1
  0
SCALE
  5
44
102
{ACAD_REACTORS
330
42
102
}
330
42
100
AcDbScale
 70
     0
300
1/128" = 1'-0"
140
0.0078125
141
12.0
290
     0
  0
SCALE
  5
45
102
{ACAD_REACTORS
330
42
102
}
330
42
100
AcDbScale
 70
     0
300
1/64" = 1'-0"
140
0.015625
141
12.0
290
     0
  0
SCALE
  5
46
102
{ACAD_REACTORS
330
42
102
}
330
42
100
AcDbScale
 70
     0
300
1/32" = 1'-0"
140
0.03125
141
12.0
290
     0
  0
SCALE
  5
47
102
{ACAD_REACTORS
330
42
102
}
330
42
100
AcDbScale
 70
     0
300
1/16" = 1'-0"
140
0.0625
141
12.0
290
     0
  0
SCALE
  5
48
102
{ACAD_REACTORS
330
42
102
}
330
42
100
AcDbScale
 70
     0
300
3/32" = 1'-0"
140
0.09375
141
12.0
290
     0
  0
SCALE
  5
49
102
{ACAD_REACTORS
330
42
102
}
330
42
100
AcDbScale
 70
     0
300
1/8" = 1'-0"
140
0.125
141
12.0
290
     0
  0
SCALE
  5
4A
102
{ACAD_REACTORS
330
42
102
}
330
42
100
AcDbScale
 70
     0
300
3/16" = 1'-0"
140
0.1875
141
12.0
290
     0
  0
SCALE
  5
4B
102
{ACAD_REACTORS
330
42
102
}
330
42
100
AcDbScale
 70
     0
300
1/4" = 1'-0"
140
0.25
141
12.0
290
     0
  0
SCALE
  5
4C
102
{ACAD_REACTORS
330
42
102
}
330
42
100
AcDbScale
 70
     0
300
3/8" = 1'-0"
140
0.375
141
12.0
290
     0
  0
SCALE
  5
4D
102
{ACAD_REACTORS
330
42
102
}
330
42
100
AcDbScale
 70
     0
300
1/2" = 1'-0"
140
0.5
141
12.0
290
     0
  0
SCALE
  5
4E
102
{ACAD_REACTORS
330
42
102
}
330
42
100
AcDbScale
 70
     0
300
3/4" = 1'-0"
140
0.75
141
12.0
290
     0
  0
SCALE
  5
4F
102
{ACAD_REACTORS
330
42
102
}
330
42
100
AcDbScale
 70
     0
300
1" = 1'-0"
140
1.0
141
12.0
290
     0
  0
SCALE
  5
50
102
{ACAD_REACTORS
330
42
102
}
330
42
100
AcDbScale
 70
     0
300
1-1/2" = 1'-0"
140
1.5
141
12.0
290
     0
  0
SCALE
  5
51
102
{ACAD_REACTORS
330
42
102
}
330
42
100
AcDbScale
 70
     0
300
3" = 1'-0"
140
3.0
141
12.0
290
     0
  0
SCALE
  5
52
102
{ACAD_REACTORS
330
42
102
}
330
42
100
AcDbScale
 70
     0
300
6" = 1'-0"
140
6.0
141
12.0
290
     0
  0
SCALE
  5
53
102
{ACAD_REACTORS
330
42
102
}
330
42
100
AcDbScale
 70
     0
300
1'-0" = 1'-0"
140
12.0
141
12.0
290
     0
  0
ACDBSECTIONVIEWSTYLE
  5
69
102
{ACAD_REACTORS
330
68
102
}
330
68
100
AcDbModelDocViewStyle
 70
     0
  3
Imperial24
290
     1
300
Imperial24
 90
        0
100
AcDbSectionViewStyle
 70
     0
 71
     0
 90
       78
 71
     1
340
55
 62
   256
 40
0.24
340
0
340
0
 62
   256
 40
0.24
300
I, O, Q, S, X, Z
 40
0.48
 90
        3
 40
0.18
 90
        1
 71
     2
340
5D
 90
       25
 62
   256
340
5D
 90
       50
 62
   256
 40
0.24
 40
0.0
 40
0.24
 71
     3
340
55
 62
   256
 40
0.24
 90
        1
 40
0.75
 90
        1
300
%<\AcVar ViewType \f "%tc1">% %<\AcVar ViewSectionStartId>%-%<\AcVar ViewSectionEndId>%\PSCALE %<\AcVar ViewScale \f "%sn">%
 71
     4
 62
   256
 62
   257
300
ANSI31
 40
1.0
 90
        0
290
     0
290
     0
 90
        6
 40
0.0
 40
1.570796326794896
 40
0.2617993877991494
 40
1.308996938995747
 40
-0.2617993877991494
 40
1.832595714594046
  0
TABLESTYLE
  5
65
102
{ACAD_XDICTIONARY
360
123
102
}
102
{ACAD_REACTORS
330
64
102
}
330
64
100
AcDbTableStyle
280
     0
  3
Standard
 70
     0
 71
     0
 40
0.06
 41
0.06
280
     0
281
     0
  7
Standard
140
0.18
170
     2
 62
     0
 63
     7
283
     0
 90
      512
 91
        0
  1

274
    -2
284
     1
 64
     0
275
    -2
285
     1
 65
     0
276
    -2
286
     1
 66
     0
277
    -2
287
     1
 67
     0
278
    -2
288
     1
 68
     0
279
    -2
289
     1
 69
     0
  7
Standard
140
0.25
170
     5
 62
     0
 63
     7
283
     0
 90
      512
 91
        0
  1

274
    -2
284
     1
 64
     0
275
    -2
285
     1
 65
     0
276
    -2
286
     1
 66
     0
277
    -2
287
     1
 67
     0
278
    -2
288
     1
 68
     0
279
    -2
289
     1
 69
     0
  7
Standard
140
0.18
170
     5
 62
     0
 63
     7
283
     0
 90
      512
 91
        0
  1

274
    -2
284
     1
 64
     0
275
    -2
285
     1
 65
     0
276
    -2
286
     1
 66
     0
277
    -2
287
     1
 67
     0
278
    -2
288
     1
 68
     0
279
    -2
289
     1
 69
     0
  0
VISUALSTYLE
  5
2F
102
{ACAD_REACTORS
330
29
102
}
330
29
100
AcDbVisualStyle
  2
2dWireframe
 70
     4
177
     3
291
     0
 70
    58
 90
        0
176
     1
 90
        2
176
     1
 90
        0
176
     1
 90
        0
176
     1
 40
0.6
176
     1
 40
30.0
176
     1
 62
     7
420
 16777215
176
     1
 90
        1
176
     1
 90
        4
176
     1
 62
     7
176
     1
 62
   257
176
     1
 90
        1
176
     1
 90
        1
176
     1
 40
1.0
176
     1
 90
        0
176
     1
 62
   257
176
     1
 40
1.0
176
     1
 90
        1
176
     1
 90
        6
176
     1
 90
        2
176
     1
 62
     7
176
     1
 90
        5
176
     1
 90
        0
176
     1
 90
        0
176
     1
290
     0
176
     1
 90
        1
176
     1
 40
0.0
176
     1
 90
        0
176
     1
290
     1
176
     1
290
     1
176
     1
290
     0
176
     1
290
     0
176
     1
290
     0
176
     1
290
     0
176
     1
290
     0
176
     1
290
     0
176
     1
290
     0
176
     1
 90
       50
176
     1
 40
0.0
176
     1
 40
1.0
176
     1
 90
        0
176
     1
 62
    18
420
        0
176
     1
 90
       50
176
     1
 90
        3
176
     1
 62
     5
420
      255
176
     1
290
     0
176
     1
 90
       50
176
     1
 90
       50
176
     1
 90
       50
176
     1
290
     0
176
     1
 90
       50
176
     1
 62
   256
176
     0
 40
1.0
176
     0
 90
        2
176
     1
  1
strokes_ogs.tif
176
     1
290
     0
176
     1
 40
1.0
176
     1
 40
1.0
176
     1
  0
VISUALSTYLE
  5
2E
102
{ACAD_REACTORS
330
29
102
}
330
29
100
AcDbVisualStyle
  2
Basic
 70
     7
177
     3
291
     1
 70
    58
 90
        1
176
     1
 90
        0
176
     1
 90
        1
176
     1
 90
        0
176
     1
 40
0.6
176
     1
 40
30.0
176
     1
 62
     7
420
 16777215
176
     1
 90
        0
176
     1
 90
        4
176
     1
 62
     7
176
     1
 62
   257
176
     1
 90
        1
176
     1
 90
        1
176
     1
 40
1.0
176
     1
 90
        8
176
     1
 62
     7
176
     1
 40
1.0
176
     1
 90
        1
176
     1
 90
        6
176
     1
 90
        2
176
     1
 62
     7
176
     1
 90
        5
176
     1
 90
        0
176
     1
 90
        0
176
     1
290
     0
176
     1
 90
        1
176
     1
 40
0.0
176
     1
 90
        0
176
     1
290
     0
176
     1
290
     1
176
     1
290
     1
176
     1
290
     0
176
     1
290
     0
176
     1
290
     0
176
     1
290
     0
176
     1
290
     0
176
     1
290
     0
176
     1
 90
       50
176
     1
 40
0.0
176
     1
 40
1.0
176
     1
 90
        0
176
     1
 62
    18
420
        0
176
     1
 90
       50
176
     1
 90
        3
176
     1
 62
     5
420
      255
176
     1
290
     0
176
     1
 90
       50
176
     1
 90
       50
176
     1
 90
       50
176
     1
290
     0
176
     1
 90
       50
176
     1
 62
   256
176
     0
 40
1.0
176
     0
 90
        2
176
     1
  1
strokes_ogs.tif
176
     1
290
     0
176
     1
 40
1.0
176
     1
 40
1.0
176
     1
  0
VISUALSTYLE
  5
35
102
{ACAD_REACTORS
330
29
102
}
330
29
100
AcDbVisualStyle
  2
Brighten
 70
    12
177
     3
291
     1
 70
    58
 90
        2
176
     1
 90
        2
176
     1
 90
        0
176
     1
 90
        0
176
     1
 40
0.6
176
     1
 40
30.0
176
     1
 62
     7
420
 16777215
176
     1
 90
        1
176
     1
 90
        4
176
     1
 62
     7
176
     1
 62
   257
176
     1
 90
        1
176
     1
 90
        1
176
     1
 40
1.0
176
     1
 90
        8
176
     1
 62
     7
176
     1
 40
1.0
176
     1
 90
        1
176
     1
 90
        6
176
     1
 90
        2
176
     1
 62
     7
176
     1
 90
        5
176
     1
 90
        0
176
     1
 90
        0
176
     1
290
     0
176
     1
 90
        1
176
     1
 40
50.0
176
     1
 90
        0
176
     1
290
     0
176
     1
290
     1
176
     1
290
     1
176
     1
290
     0
176
     1
290
     0
176
     1
290
     0
176
     1
290
     0
176
     1
290
     0
176
     1
290
     0
176
     1
 90
       50
176
     1
 40
0.0
176
     1
 40
1.0
176
     1
 90
        0
176
     1
 62
    18
420
        0
176
     1
 90
       50
176
     1
 90
        3
176
     1
 62
     5
420
      255
176
     1
290
     0
176
     1
 90
       50
176
     1
 90
       50
176
     1
 90
       50
176
     1
290
     0
176
     1
 90
       50
176
     1
 62
   256
176
     0
 40
1.0
176
     0
 90
        2
176
     1
  1
strokes_ogs.tif
176
     1
290
     0
176
     1
 40
1.0
176
     1
 40
1.0
176
     1
  0
VISUALSTYLE
  5
39
102
{ACAD_REACTORS
330
29
102
}
330
29
100
AcDbVisualStyle
  2
ColorChange
 70
    16
177
     3
291
     1
 70
    58
 90
        2
176
     1
 90
        2
176
     1
 90
        3
176
     1
 90
        0
176
     1
 40
0.6
176
     1
 40
30.0
176
     1
 62
     8
420
  8421504
176
     1
 90
        1
176
     1
 90
        4
176
     1
 62
     7
176
     1
 62
   257
176
     1
 90
        1
176
     1
 90
        1
176
     1
 40
1.0
176
     1
 90
        8
176
     1
 62
     8
420
  8421504
176
     1
 40
1.0
176
     1
 90
        1
176
     1
 90
        6
176
     1
 90
        2
176
     1
 62
     7
176
     1
 90
        5
176
     1
 90
        0
176
     1
 90
        0
176
     1
290
     0
176
     1
 90
        1
176
     1
 40
0.0
176
     1
 90
        0
176
     1
290
     0
176
     1
290
     1
176
     1
290
     1
176
     1
290
     0
176
     1
290
     0
176
     1
290
     0
176
     1
290
     0
176
     1
290
     0
176
     1
290
     0
176
     1
 90
       50
176
     1
 40
0.0
176
     1
 40
1.0
176
     1
 90
        0
176
     1
 62
    18
420
        0
176
     1
 90
       50
176
     1
 90
        3
176
     1
 62
     5
420
      255
176
     1
290
     0
176
     1
 90
       50
176
     1
 90
       50
176
     1
 90
       50
176
     1
290
     0
176
     1
 90
       50
176
     1
 62
   256
176
     0
 40
1.0
176
     0
 90
        2
176
     1
  1
strokes_ogs.tif
176
     1
290
     0
176
     1
 40
1.0
176
     1
 40
1.0
176
     1
  0
VISUALSTYLE
  5
32
102
{ACAD_REACTORS
330
29
102
}
330
29
100
AcDbVisualStyle
  2
Conceptual
 70
     9
177
     3
291
     0
 70
    58
 90
        3
176
     1
 90
        2
176
     1
 90
        0
176
     1
 90
        0
176
     1
 40
0.6
176
     1
 40
30.0
176
     1
 62
     7
420
 16777215
176
     1
 90
        2
176
     1
 90
        2
176
     1
 62
     7
176
     1
 62
   257
176
     1
 90
        1
176
     1
 90
        1
176
     1
 40
179.0
176
     1
 90
        8
176
     1
 62
     7
176
     1
 40
1.0
176
     1
 90
        1
176
     1
 90
        6
176
     1
 90
        2
176
     1
 62
     7
176
     1
 90
        3
176
     1
 90
        0
176
     1
 90
        0
176
     1
290
     0
176
     1
 90
        1
176
     1
 40
0.0
176
     1
 90
        0
176
     1
290
     0
176
     1
290
     1
176
     1
290
     1
176
     1
290
     0
176
     1
290
     0
176
     1
290
     0
176
     1
290
     0
176
     1
290
     0
176
     1
290
     0
176
     1
 90
       50
176
     1
 40
0.0
176
     1
 40
1.0
176
     1
 90
        0
176
     1
 62
    18
420
        0
176
     1
 90
       50
176
     1
 90
        3
176
     1
 62
     5
420
      255
176
     1
290
     0
176
     1
 90
       50
176
     1
 90
       50
176
     1
 90
       50
176
     1
290
     0
176
     1
 90
       50
176
     1
 62
   256
176
     0
 40
1.0
176
     0
 90
        2
176
     1
  1
strokes_ogs.tif
176
     1
290
     0
176
     1
 40
1.0
176
     1
 40
1.0
176
     1
  0
VISUALSTYLE
  5
34
102
{ACAD_REACTORS
330
29
102
}
330
29
100
AcDbVisualStyle
  2
Dim
 70
    11
177
     3
291
     1
 70
    58
 90
        2
176
     1
 90
        2
176
     1
 90
        0
176
     1
 90
        0
176
     1
 40
0.6
176
     1
 40
30.0
176
     1
 62
     7
420
 16777215
176
     1
 90
        1
176
     1
 90
        4
176
     1
 62
     7
176
     1
 62
   257
176
     1
 90
        1
176
     1
 90
        1
176
     1
 40
1.0
176
     1
 90
        8
176
     1
 62
     7
176
     1
 40
1.0
176
     1
 90
        1
176
     1
 90
        6
176
     1
 90
        2
176
     1
 62
     7
176
     1
 90
        5
176
     1
 90
        0
176
     1
 90
        0
176
     1
290
     0
176
     1
 90
        1
176
     1
 40
-50.0
176
     1
 90
        0
176
     1
290
     0
176
     1
290
     1
176
     1
290
     1
176
     1
290
     0
176
     1
290
     0
176
     1
290
     0
176
     1
290
     0
176
     1
290
     0
176
     1
290
     0
176
     1
 90
       50
176
     1
 40
0.0
176
     1
 40
1.0
176
     1
 90
        0
176
     1
 62
    18
420
        0
176
     1
 90
       50
176
     1
 90
        3
176
     1
 62
     5
420
      255
176
     1
290
     0
176
     1
 90
       50
176
     1
 90
       50
176
     1
 90
       50
176
     1
290
     0
176
     1
 90
       50
176
     1
 62
   256
176
     0
 40
1.0
176
     0
 90
        2
176
     1
  1
strokes_ogs.tif
176
     1
290
     0
176
     1
 40
1.0
176
     1
 40
1.0
176
     1
  0
VISUALSTYLE
  5
41
102
{ACAD_REACTORS
330
29
102
}
330
29
100
AcDbVisualStyle
  2
EdgeColorOff
 70
    22
177
     3
291
     1
 70
    58
 90
        2
176
     0
 90
        2
176
     0
 90
        0
176
     0
 90
        0
176
     0
 40
0.6
176
     0
 40
30.0
176
     0
 62
     7
420
 16777215
176
     0
 90
        1
176
     0
 90
        4
176
     0
 62
     7
176
     0
 62
   257
176
     0
 90
        1
176
     0
 90
        1
176
     0
 40
1.0
176
     0
 90
        8
176
     2
 62
     7
176
     0
 40
1.0
176
     0
 90
        1
176
     0
 90
        6
176
     0
 90
        2
176
     0
 62
     7
176
     0
 90
        5
176
     0
 90
        0
176
     0
 90
        0
176
     0
290
     0
176
     0
 90
        1
176
     0
 40
0.0
176
     0
 90
        0
176
     0
290
     0
176
     0
290
     1
176
     0
290
     1
176
     0
290
     0
176
     0
290
     0
176
     0
290
     0
176
     0
290
     0
176
     0
290
     0
176
     0
290
     0
176
     0
 90
       50
176
     0
 40
0.0
176
     0
 40
1.0
176
     0
 90
        0
176
     0
 62
    18
420
        0
176
     0
 90
       50
176
     0
 90
        3
176
     0
 62
     5
420
      255
176
     0
290
     0
176
     0
 90
       50
176
     0
 90
       50
176
     0
 90
       50
176
     0
290
     0
176
     0
 90
       50
176
     0
 62
   256
176
     0
 40
1.0
176
     0
 90
        2
176
     0
  1
strokes_ogs.tif
176
     0
290
     0
176
     0
 40
1.0
176
     0
 40
1.0
176
     0
  0
VISUALSTYLE
  5
38
102
{ACAD_REACTORS
330
29
102
}
330
29
100
AcDbVisualStyle
  2
Facepattern
 70
    15
177
     3
291
     1
 70
    58
 90
        2
176
     1
 90
        2
176
     1
 90
        0
176
     1
 90
        0
176
     1
 40
0.6
176
     1
 40
30.0
176
     1
 62
     7
420
 16777215
176
     1
 90
        1
176
     1
 90
        4
176
     1
 62
     7
176
     1
 62
   257
176
     1
 90
        1
176
     1
 90
        1
176
     1
 40
1.0
176
     1
 90
        8
176
     1
 62
     7
176
     1
 40
1.0
176
     1
 90
        1
176
     1
 90
        6
176
     1
 90
        2
176
     1
 62
     7
176
     1
 90
        5
176
     1
 90
        0
176
     1
 90
        0
176
     1
290
     0
176
     1
 90
        1
176
     1
 40
0.0
176
     1
 90
        0
176
     1
290
     0
176
     1
290
     1
176
     1
290
     1
176
     1
290
     0
176
     1
290
     0
176
     1
290
     0
176
     1
290
     0
176
     1
290
     0
176
     1
290
     0
176
     1
 90
       50
176
     1
 40
0.0
176
     1
 40
1.0
176
     1
 90
        0
176
     1
 62
    18
420
        0
176
     1
 90
       50
176
     1
 90
        3
176
     1
 62
     5
420
      255
176
     1
290
     0
176
     1
 90
       50
176
     1
 90
       50
176
     1
 90
       50
176
     1
290
     0
176
     1
 90
       50
176
     1
 62
   256
176
     0
 40
1.0
176
     0
 90
        2
176
     1
  1
strokes_ogs.tif
176
     1
290
     0
176
     1
 40
1.0
176
     1
 40
1.0
176
     1
  0
VISUALSTYLE
  5
2A
102
{ACAD_REACTORS
330
29
102
}
330
29
100
AcDbVisualStyle
  2
Flat
 70
     0
177
     3
291
     1
 70
    58
 90
        2
176
     1
 90
        1
176
     1
 90
        1
176
     1
 90
        2
176
     1
 40
0.6
176
     1
 40
30.0
176
     1
 62
     7
420
 16777215
176
     1
 90
        0
176
     1
 90
        0
176
     1
 62
     7
176
     1
 62
   257
176
     1
 90
        1
176
     1
 90
        1
176
     1
 40
1.0
176
     1
 90
        8
176
     1
 62
     7
176
     1
 40
1.0
176
     1
 90
        1
176
     1
 90
        6
176
     1
 90
        2
176
     1
 62
     7
176
     1
 90
        5
176
     1
 90
        0
176
     1
 90
        0
176
     1
290
     0
176
     1
 90
       13
176
     1
 40
0.0
176
     1
 90
        0
176
     1
290
     0
176
     1
290
     1
176
     1
290
     1
176
     1
290
     0
176
     1
290
     0
176
     1
290
     0
176
     1
290
     0
176
     1
290
     0
176
     1
290
     0
176
     1
 90
       50
176
     1
 40
0.0
176
     1
 40
1.0
176
     1
 90
        0
176
     1
 62
    18
420
        0
176
     1
 90
       50
176
     1
 90
        3
176
     1
 62
     5
420
      255
176
     1
290
     0
176
     1
 90
       50
176
     1
 90
       50
176
     1
 90
       50
176
     1
290
     0
176
     1
 90
       50
176
     1
 62
   256
176
     0
 40
1.0
176
     0
 90
        2
176
     1
  1
strokes_ogs.tif
176
     1
290
     0
176
     1
 40
1.0
176
     1
 40
1.0
176
     1
  0
VISUALSTYLE
  5
2B
102
{ACAD_REACTORS
330
29
102
}
330
29
100
AcDbVisualStyle
  2
FlatWithEdges
 70
     1
177
     3
291
     1
 70
    58
 90
        2
176
     1
 90
        1
176
     1
 90
        1
176
     1
 90
        2
176
     1
 40
0.6
176
     1
 40
30.0
176
     1
 62
     7
420
 16777215
176
     1
 90
        1
176
     1
 90
        0
176
     1
 62
     7
176
     1
 62
   257
176
     1
 90
        1
176
     1
 90
        1
176
     1
 40
1.0
176
     1
 90
        0
176
     1
 62
   257
176
     1
 40
1.0
176
     1
 90
        1
176
     1
 90
        6
176
     1
 90
        2
176
     1
 62
     7
176
     1
 90
        5
176
     1
 90
        0
176
     1
 90
        0
176
     1
290
     0
176
     1
 90
       13
176
     1
 40
0.0
176
     1
 90
        0
176
     1
290
     0
176
     1
290
     1
176
     1
290
     1
176
     1
290
     0
176
     1
290
     0
176
     1
290
     0
176
     1
290
     0
176
     1
290
     0
176
     1
290
     0
176
     1
 90
       50
176
     1
 40
0.0
176
     1
 40
1.0
176
     1
 90
        0
176
     1
 62
    18
420
        0
176
     1
 90
       50
176
     1
 90
        3
176
     1
 62
     5
420
      255
176
     1
290
     0
176
     1
 90
       50
176
     1
 90
       50
176
     1
 90
       50
176
     1
290
     0
176
     1
 90
       50
176
     1
 62
   256
176
     0
 40
1.0
176
     0
 90
        2
176
     1
  1
strokes_ogs.tif
176
     1
290
     0
176
     1
 40
1.0
176
     1
 40
1.0
176
     1
  0
VISUALSTYLE
  5
2C
102
{ACAD_REACTORS
330
29
102
}
330
29
100
AcDbVisualStyle
  2
Gouraud
 70
     2
177
     3
291
     1
 70
    58
 90
        2
176
     1
 90
        2
176
     1
 90
        1
176
     1
 90
        2
176
     1
 40
0.6
176
     1
 40
30.0
176
     1
 62
     7
420
 16777215
176
     1
 90
        0
176
     1
 90
        0
176
     1
 62
     7
176
     1
 62
   257
176
     1
 90
        1
176
     1
 90
        1
176
     1
 40
1.0
176
     1
 90
        0
176
     1
 62
     7
176
     1
 40
1.0
176
     1
 90
        1
176
     1
 90
        6
176
     1
 90
        2
176
     1
 62
     7
176
     1
 90
        5
176
     1
 90
        0
176
     1
 90
        0
176
     1
290
     0
176
     1
 90
       13
176
     1
 40
0.0
176
     1
 90
        0
176
     1
290
     0
176
     1
290
     1
176
     1
290
     1
176
     1
290
     0
176
     1
290
     0
176
     1
290
     0
176
     1
290
     0
176
     1
290
     0
176
     1
290
     0
176
     1
 90
       50
176
     1
 40
0.0
176
     1
 40
1.0
176
     1
 90
        0
176
     1
 62
    18
420
        0
176
     1
 90
       50
176
     1
 90
        3
176
     1
 62
     5
420
      255
176
     1
290
     0
176
     1
 90
       50
176
     1
 90
       50
176
     1
 90
       50
176
     1
290
     0
176
     1
 90
       50
176
     1
 62
   256
176
     0
 40
1.0
176
     0
 90
        2
176
     1
  1
strokes_ogs.tif
176
     1
290
     0
176
     1
 40
1.0
176
     1
 40
1.0
176
     1
  0
VISUALSTYLE
  5
2D
102
{ACAD_REACTORS
330
29
102
}
330
29
100
AcDbVisualStyle
  2
GouraudWithEdges
 70
     3
177
     3
291
     1
 70
    58
 90
        2
176
     1
 90
        2
176
     1
 90
        1
176
     1
 90
        2
176
     1
 40
0.6
176
     1
 40
30.0
176
     1
 62
     7
420
 16777215
176
     1
 90
        1
176
     1
 90
        0
176
     1
 62
     7
176
     1
 62
   257
176
     1
 90
        1
176
     1
 90
        1
176
     1
 40
1.0
176
     1
 90
        0
176
     1
 62
   257
176
     1
 40
1.0
176
     1
 90
        1
176
     1
 90
        6
176
     1
 90
        2
176
     1
 62
     7
176
     1
 90
        5
176
     1
 90
        0
176
     1
 90
        0
176
     1
290
     0
176
     1
 90
       13
176
     1
 40
0.0
176
     1
 90
        0
176
     1
290
     0
176
     1
290
     1
176
     1
290
     1
176
     1
290
     0
176
     1
290
     0
176
     1
290
     0
176
     1
290
     0
176
     1
290
     0
176
     1
290
     0
176
     1
 90
       50
176
     1
 40
0.0
176
     1
 40
1.0
176
     1
 90
        0
176
     1
 62
    18
420
        0
176
     1
 90
       50
176
     1
 90
        3
176
     1
 62
     5
420
      255
176
     1
290
     0
176
     1
 90
       50
176
     1
 90
       50
176
     1
 90
       50
176
     1
290
     0
176
     1
 90
       50
176
     1
 62
   256
176
     0
 40
1.0
176
     0
 90
        2
176
     1
  1
strokes_ogs.tif
176
     1
290
     0
176
     1
 40
1.0
176
     1
 40
1.0
176
     1
  0
VISUALSTYLE
  5
31
102
{ACAD_REACTORS
330
29
102
}
330
29
100
AcDbVisualStyle
  2
Hidden
 70
     6
177
     3
291
     0
 70
    58
 90
        1
176
     1
 90
        2
176
     1
 90
        2
176
     1
 90
        0
176
     1
 40
0.6
176
     1
 40
30.0
176
     1
 62
     7
420
 16777215
176
     1
 90
        2
176
     1
 90
        2
176
     1
 62
     7
176
     1
 62
   257
176
     1
 90
        2
176
     1
 90
        1
176
     1
 40
40.0
176
     1
 90
        0
176
     1
 62
   257
176
     1
 40
1.0
176
     1
 90
        1
176
     1
 90
        6
176
     1
 90
        2
176
     1
 62
     7
176
     1
 90
        3
176
     1
 90
        0
176
     1
 90
        0
176
     1
290
     0
176
     1
 90
        1
176
     1
 40
0.0
176
     1
 90
        0
176
     1
290
     0
176
     1
290
     1
176
     1
290
     1
176
     1
290
     0
176
     1
290
     0
176
     1
290
     0
176
     1
290
     0
176
     1
290
     0
176
     1
290
     0
176
     1
 90
       50
176
     1
 40
0.0
176
     1
 40
1.0
176
     1
 90
        0
176
     1
 62
    18
420
        0
176
     1
 90
       50
176
     1
 90
        3
176
     1
 62
     5
420
      255
176
     1
290
     0
176
     1
 90
       50
176
     1
 90
       50
176
     1
 90
       50
176
     1
290
     0
176
     1
 90
       50
176
     1
 62
   256
176
     0
 40
1.0
176
     0
 90
        2
176
     1
  1
strokes_ogs.tif
176
     1
290
     0
176
     1
 40
1.0
176
     1
 40
1.0
176
     1
  0
VISUALSTYLE
  5
3F
102
{ACAD_REACTORS
330
29
102
}
330
29
100
AcDbVisualStyle
  2
JitterOff
 70
    20
177
     3
291
     1
 70
    58
 90
        2
176
     0
 90
        2
176
     0
 90
        0
176
     0
 90
        0
176
     0
 40
0.6
176
     0
 40
30.0
176
     0
 62
     7
420
 16777215
176
     0
 90
        1
176
     0
 90
        4
176
     0
 62
     7
176
     0
 62
   257
176
     0
 90
        1
176
     0
 90
        1
176
     0
 40
1.0
176
     0
 90
       10
176
     2
 62
     7
176
     0
 40
1.0
176
     0
 90
        1
176
     0
 90
        6
176
     0
 90
        2
176
     0
 62
     7
176
     0
 90
        5
176
     0
 90
        0
176
     0
 90
        0
176
     0
290
     0
176
     0
 90
        1
176
     0
 40
0.0
176
     0
 90
        0
176
     0
290
     0
176
     0
290
     1
176
     0
290
     1
176
     0
290
     0
176
     0
290
     0
176
     0
290
     0
176
     0
290
     0
176
     0
290
     0
176
     0
290
     0
176
     0
 90
       50
176
     0
 40
0.0
176
     0
 40
1.0
176
     0
 90
        0
176
     0
 62
    18
420
        0
176
     0
 90
       50
176
     0
 90
        3
176
     0
 62
     5
420
      255
176
     0
290
     0
176
     0
 90
       50
176
     0
 90
       50
176
     0
 90
       50
176
     0
290
     0
176
     0
 90
       50
176
     0
 62
   256
176
     0
 40
1.0
176
     0
 90
        2
176
     0
  1
strokes_ogs.tif
176
     0
290
     0
176
     0
 40
1.0
176
     0
 40
1.0
176
     0
  0
VISUALSTYLE
  5
37
102
{ACAD_REACTORS
330
29
102
}
330
29
100
AcDbVisualStyle
  2
Linepattern
 70
    14
177
     3
291
     1
 70
    58
 90
        2
176
     1
 90
        2
176
     1
 90
        0
176
     1
 90
        0
176
     1
 40
0.6
176
     1
 40
30.0
176
     1
 62
     7
420
 16777215
176
     1
 90
        1
176
     1
 90
        4
176
     1
 62
     7
176
     1
 62
   257
176
     1
 90
        7
176
     1
 90
        7
176
     1
 40
1.0
176
     1
 90
        8
176
     1
 62
     7
176
     1
 40
1.0
176
     1
 90
        1
176
     1
 90
        6
176
     1
 90
        2
176
     1
 62
     7
176
     1
 90
        5
176
     1
 90
        0
176
     1
 90
        0
176
     1
290
     0
176
     1
 90
        1
176
     1
 40
0.0
176
     1
 90
        0
176
     1
290
     0
176
     1
290
     1
176
     1
290
     1
176
     1
290
     0
176
     1
290
     0
176
     1
290
     0
176
     1
290
     0
176
     1
290
     0
176
     1
290
     0
176
     1
 90
       50
176
     1
 40
0.0
176
     1
 40
1.0
176
     1
 90
        0
176
     1
 62
    18
420
        0
176
     1
 90
       50
176
     1
 90
        3
176
     1
 62
     5
420
      255
176
     1
290
     0
176
     1
 90
       50
176
     1
 90
       50
176
     1
 90
       50
176
     1
290
     0
176
     1
 90
       50
176
     1
 62
   256
176
     0
 40
1.0
176
     0
 90
        2
176
     1
  1
strokes_ogs.tif
176
     1
290
     0
176
     1
 40
1.0
176
     1
 40
1.0
176
     1
  0
VISUALSTYLE
  5
40
102
{ACAD_REACTORS
330
29
102
}
330
29
100
AcDbVisualStyle
  2
OverhangOff
 70
    21
177
     3
291
     1
 70
    58
 90
        2
176
     0
 90
        2
176
     0
 90
        0
176
     0
 90
        0
176
     0
 40
0.6
176
     0
 40
30.0
176
     0
 62
     7
420
 16777215
176
     0
 90
        1
176
     0
 90
        4
176
     0
 62
     7
176
     0
 62
   257
176
     0
 90
        1
176
     0
 90
        1
176
     0
 40
1.0
176
     0
 90
        9
176
     2
 62
     7
176
     0
 40
1.0
176
     0
 90
        1
176
     0
 90
        6
176
     0
 90
        2
176
     0
 62
     7
176
     0
 90
        5
176
     0
 90
        0
176
     0
 90
        0
176
     0
290
     0
176
     0
 90
        1
176
     0
 40
0.0
176
     0
 90
        0
176
     0
290
     0
176
     0
290
     1
176
     0
290
     1
176
     0
290
     0
176
     0
290
     0
176
     0
290
     0
176
     0
290
     0
176
     0
290
     0
176
     0
290
     0
176
     0
 90
       50
176
     0
 40
0.0
176
     0
 40
1.0
176
     0
 90
        0
176
     0
 62
    18
420
        0
176
     0
 90
       50
176
     0
 90
        3
176
     0
 62
     5
420
      255
176
     0
290
     0
176
     0
 90
       50
176
     0
 90
       50
176
     0
 90
       50
176
     0
290
     0
176
     0
 90
       50
176
     0
 62
   256
176
     0
 40
1.0
176
     0
 90
        2
176
     0
  1
strokes_ogs.tif
176
     0
290
     0
176
     0
 40
1.0
176
     0
 40
1.0
176
     0
  0
VISUALSTYLE
  5
33
102
{ACAD_REACTORS
330
29
102
}
330
29
100
AcDbVisualStyle
  2
Realistic
 70
     8
177
     3
291
     0
 70
    58
 90
        2
176
     1
 90
        3
176
     1
 90
        0
176
     1
 90
        2
176
     1
 40
0.6
176
     1
 40
30.0
176
     1
 62
     7
420
 16777215
176
     1
 90
        0
176
     1
 90
        0
176
     1
 62
     7
176
     1
 62
   257
176
     1
 90
        1
176
     1
 90
        1
176
     1
 40
1.0
176
     1
 90
        8
176
     1
 62
   257
176
     1
 40
1.0
176
     1
 90
        1
176
     1
 90
        6
176
     1
 90
        2
176
     1
 62
     7
176
     1
 90
        3
176
     1
 90
        0
176
     1
 90
        0
176
     1
290
     0
176
     1
 90
       13
176
     1
 40
0.0
176
     1
 90
        0
176
     1
290
     0
176
     1
290
     1
176
     1
290
     1
176
     1
290
     0
176
     1
290
     0
176
     1
290
     0
176
     1
290
     0
176
     1
290
     0
176
     1
290
     0
176
     1
 90
       50
176
     1
 40
0.0
176
     1
 40
1.0
176
     1
 90
        0
176
     1
 62
    18
420
        0
176
     1
 90
       50
176
     1
 90
        3
176
     1
 62
     5
420
      255
176
     1
290
     0
176
     1
 90
       50
176
     1
 90
       50
176
     1
 90
       50
176
     1
290
     0
176
     1
 90
       50
176
     1
 62
   256
176
     0
 40
1.0
176
     0
 90
        2
176
     1
  1
strokes_ogs.tif
176
     1
290
     0
176
     1
 40
1.0
176
     1
 40
1.0
176
     1
  0
VISUALSTYLE
  5
3E
102
{ACAD_REACTORS
330
29
102
}
330
29
100
AcDbVisualStyle
  2
Shaded
 70
    27
177
     3
291
     0
 70
    58
 90
        2
176
     1
 90
        2
176
     1
 90
        1
176
     1
 90
        2
176
     1
 40
0.6
176
     1
 40
30.0
176
     1
 62
     7
420
 16777215
176
     1
 90
        0
176
     1
 90
        4
176
     1
 62
     7
176
     1
 62
   257
176
     1
 90
        1
176
     1
 90
        1
176
     1
 40
1.0
176
     1
 90
        8
176
     1
 62
   257
176
     1
 40
1.0
176
     1
 90
        1
176
     1
 90
        6
176
     1
 90
        2
176
     1
 62
     8
420
  7895160
176
     1
 90
        3
176
     1
 90
        0
176
     1
 90
        0
176
     1
290
     0
176
     1
 90
        5
176
     1
 40
0.0
176
     1
 90
        0
176
     1
290
     0
176
     1
290
     1
176
     1
290
     1
176
     1
290
     0
176
     1
290
     0
176
     1
290
     0
176
     1
290
     0
176
     1
290
     0
176
     1
290
     0
176
     1
 90
       50
176
     1
 40
0.0
176
     1
 40
1.0
176
     1
 90
        0
176
     1
 62
    18
420
        0
176
     1
 90
       50
176
     1
 90
        3
176
     1
 62
     5
420
      255
176
     1
290
     0
176
     1
 90
       50
176
     1
 90
       50
176
     1
 90
       50
176
     1
290
     0
176
     1
 90
       50
176
     1
 62
   256
176
     0
 40
1.0
176
     0
 90
        2
176
     1
  1
strokes_ogs.tif
176
     1
290
     0
176
     1
 40
1.0
176
     1
 40
1.0
176
     1
  0
VISUALSTYLE
  5
3D
102
{ACAD_REACTORS
330
29
102
}
330
29
100
AcDbVisualStyle
  2
Shaded with edges
 70
    26
177
     3
291
     0
 70
    58
 90
        2
176
     1
 90
        2
176
     1
 90
        1
176
     1
 90
        2
176
     1
 40
0.6
176
     1
 40
30.0
176
     1
 62
     7
420
 16777215
176
     1
 90
        1
176
     1
 90
        2
176
     1
 62
     7
176
     1
 62
   257
176
     1
 90
        2
176
     1
 90
        1
176
     1
 40
1.0
176
     1
 90
        8
176
     1
 62
   257
176
     1
 40
1.0
176
     1
 90
        1
176
     1
 90
        6
176
     1
 90
        2
176
     1
 62
     7
176
     1
 90
        3
176
     1
 90
        0
176
     1
 90
        0
176
     1
290
     0
176
     1
 90
        5
176
     1
 40
0.0
176
     1
 90
        0
176
     1
290
     0
176
     1
290
     1
176
     1
290
     1
176
     1
290
     0
176
     1
290
     0
176
     1
290
     0
176
     1
290
     0
176
     1
290
     0
176
     1
290
     0
176
     1
 90
       50
176
     1
 40
0.0
176
     1
 40
1.0
176
     1
 90
        0
176
     1
 62
    18
420
        0
176
     1
 90
       50
176
     1
 90
        3
176
     1
 62
     5
420
      255
176
     1
290
     0
176
     1
 90
       50
176
     1
 90
       50
176
     1
 90
       50
176
     1
290
     0
176
     1
 90
       50
176
     1
 62
   256
176
     0
 40
1.0
176
     0
 90
        2
176
     1
  1
strokes_ogs.tif
176
     1
290
     0
176
     1
 40
1.0
176
     1
 40
1.0
176
     1
  0
VISUALSTYLE
  5
3A
102
{ACAD_REACTORS
330
29
102
}
330
29
100
AcDbVisualStyle
  2
Shades of Gray
 70
    23
177
     3
291
     0
 70
    58
 90
        2
176
     1
 90
        2
176
     1
 90
        3
176
     1
 90
        0
176
     1
 40
0.6
176
     1
 40
30.0
176
     1
 62
     7
420
 16777215
176
     1
 90
        2
176
     1
 90
        2
176
     1
 62
     7
176
     1
 62
     7
176
     1
 90
        1
176
     1
 90
        1
176
     1
 40
40.0
176
     1
 90
        8
176
     1
 62
     7
176
     1
 40
1.0
176
     1
 90
        1
176
     1
 90
        6
176
     1
 90
        2
176
     1
 62
     7
176
     1
 90
        3
176
     1
 90
        0
176
     1
 90
        0
176
     1
290
     0
176
     1
 90
        1
176
     1
 40
0.0
176
     1
 90
        0
176
     1
290
     0
176
     1
290
     1
176
     1
290
     1
176
     1
290
     0
176
     1
290
     0
176
     1
290
     0
176
     1
290
     0
176
     1
290
     0
176
     1
290
     0
176
     1
 90
       50
176
     1
 40
0.0
176
     1
 40
1.0
176
     1
 90
        0
176
     1
 62
    18
420
        0
176
     1
 90
       50
176
     1
 90
        3
176
     1
 62
     5
420
      255
176
     1
290
     0
176
     1
 90
       50
176
     1
 90
       50
176
     1
 90
       50
176
     1
290
     0
176
     1
 90
       50
176
     1
 62
   256
176
     0
 40
1.0
176
     0
 90
        2
176
     1
  1
strokes_ogs.tif
176
     1
290
     0
176
     1
 40
1.0
176
     1
 40
1.0
176
     1
  0
VISUALSTYLE
  5
3B
102
{ACAD_REACTORS
330
29
102
}
330
29
100
AcDbVisualStyle
  2
Sketchy
 70
    24
177
     3
291
     0
 70
    58
 90
        1
176
     1
 90
        2
176
     1
 90
        2
176
     1
 90
        0
176
     1
 40
0.6
176
     1
 40
30.0
176
     1
 62
     7
420
 16777215
176
     1
 90
        2
176
     1
 90
        2
176
     1
 62
     7
176
     1
 62
     7
176
     1
 90
        1
176
     1
 90
        1
176
     1
 40
40.0
176
     1
 90
       11
176
     1
 62
     7
176
     1
 40
1.0
176
     1
 90
        1
176
     1
 90
        6
176
     1
 90
        2
176
     1
 62
     7
176
     1
 90
        6
176
     1
 90
        0
176
     1
 90
        0
176
     1
290
     0
176
     1
 90
        1
176
     1
 40
0.0
176
     1
 90
        0
176
     1
290
     0
176
     1
290
     1
176
     1
290
     1
176
     1
290
     0
176
     1
290
     0
176
     1
290
     0
176
     1
290
     0
176
     1
290
     0
176
     1
290
     0
176
     1
 90
       50
176
     1
 40
0.0
176
     1
 40
1.0
176
     1
 90
        0
176
     1
 62
    18
420
        0
176
     1
 90
       50
176
     1
 90
        3
176
     1
 62
     5
420
      255
176
     1
290
     0
176
     1
 90
       50
176
     1
 90
       50
176
     1
 90
       50
176
     1
290
     0
176
     1
 90
       50
176
     1
 62
   256
176
     0
 40
1.0
176
     0
 90
        2
176
     1
  1
strokes_ogs.tif
176
     1
290
     0
176
     1
 40
1.0
176
     1
 40
1.0
176
     1
  0
VISUALSTYLE
  5
36
102
{ACAD_REACTORS
330
29
102
}
330
29
100
AcDbVisualStyle
  2
Thicken
 70
    13
177
     3
291
     1
 70
    58
 90
        2
176
     1
 90
        2
176
     1
 90
        0
176
     1
 90
        0
176
     1
 40
0.6
176
     1
 40
30.0
176
     1
 62
     7
420
 16777215
176
     1
 90
        1
176
     1
 90
        4
176
     1
 62
     7
176
     1
 62
   257
176
     1
 90
        1
176
     1
 90
        1
176
     1
 40
1.0
176
     1
 90
       12
176
     1
 62
     7
176
     1
 40
1.0
176
     1
 90
        1
176
     1
 90
        6
176
     1
 90
        2
176
     1
 62
     7
176
     1
 90
        5
176
     1
 90
        0
176
     1
 90
        0
176
     1
290
     0
176
     1
 90
        1
176
     1
 40
0.0
176
     1
 90
        0
176
     1
290
     0
176
     1
290
     1
176
     1
290
     1
176
     1
290
     0
176
     1
290
     0
176
     1
290
     0
176
     1
290
     0
176
     1
290
     0
176
     1
290
     0
176
     1
 90
       50
176
     1
 40
0.0
176
     1
 40
1.0
176
     1
 90
        0
176
     1
 62
    18
420
        0
176
     1
 90
       50
176
     1
 90
        3
176
     1
 62
     5
420
      255
176
     1
290
     0
176
     1
 90
       50
176
     1
 90
       50
176
     1
 90
       50
176
     1
290
     0
176
     1
 90
       50
176
     1
 62
   256
176
     0
 40
1.0
176
     0
 90
        2
176
     1
  1
strokes_ogs.tif
176
     1
290
     0
176
     1
 40
1.0
176
     1
 40
1.0
176
     1
  0
VISUALSTYLE
  5
30
102
{ACAD_REACTORS
330
29
102
}
330
29
100
AcDbVisualStyle
  2
Wireframe
 70
     5
177
     3
291
     0
 70
    58
 90
        0
176
     1
 90
        2
176
     1
 90
        0
176
     1
 90
        0
176
     1
 40
0.6
176
     1
 40
30.0
176
     1
 62
     7
420
 16777215
176
     1
 90
        1
176
     1
 90
        4
176
     1
 62
     7
176
     1
 62
   257
176
     1
 90
        1
176
     1
 90
        1
176
     1
 40
1.0
176
     1
 90
        0
176
     1
 62
   257
176
     1
 40
1.0
176
     1
 90
        1
176
     1
 90
        6
176
     1
 90
        2
176
     1
 62
     7
176
     1
 90
        3
176
     1
 90
        0
176
     1
 90
        0
176
     1
290
     0
176
     1
 90
        1
176
     1
 40
0.0
176
     1
 90
        0
176
     1
290
     0
176
     1
290
     1
176
     1
290
     1
176
     1
290
     0
176
     1
290
     0
176
     1
290
     0
176
     1
290
     0
176
     1
290
     0
176
     1
290
     0
176
     1
 90
       50
176
     1
 40
0.0
176
     1
 40
1.0
176
     1
 90
        0
176
     1
 62
    18
420
        0
176
     1
 90
       50
176
     1
 90
        3
176
     1
 62
     5
420
      255
176
     1
290
     0
176
     1
 90
       50
176
     1
 90
       50
176
     1
 90
       50
176
     1
290
     0
176
     1
 90
       50
176
     1
 62
   256
176
     0
 40
1.0
176
     0
 90
        2
176
     1
  1
strokes_ogs.tif
176
     1
290
     0
176
     1
 40
1.0
176
     1
 40
1.0
176
     1
  0
VISUALSTYLE
  5
3C
102
{ACAD_REACTORS
330
29
102
}
330
29
100
AcDbVisualStyle
  2
X-Ray
 70
    25
177
     3
291
     0
 70
    58
 90
        2
176
     1
 90
        2
176
     1
 90
        1
176
     1
 90
        1
176
     1
 40
0.5
176
     1
 40
30.0
176
     1
 62
     7
420
 16777215
176
     1
 90
        1
176
     1
 90
        0
176
     1
 62
     7
176
     1
 62
   257
176
     1
 90
        1
176
     1
 90
        1
176
     1
 40
1.0
176
     1
 90
        8
176
     1
 62
     7
176
     1
 40
1.0
176
     1
 90
        1
176
     1
 90
        6
176
     1
 90
        2
176
     1
 62
     7
176
     1
 90
        3
176
     1
 90
        0
176
     1
 90
        0
176
     1
290
     0
176
     1
 90
       13
176
     1
 40
0.0
176
     1
 90
        0
176
     1
290
     0
176
     1
290
     1
176
     1
290
     1
176
     1
290
     0
176
     1
290
     0
176
     1
290
     0
176
     1
290
     0
176
     1
290
     0
176
     1
290
     0
176
     1
 90
       50
176
     1
 40
0.0
176
     1
 40
1.0
176
     1
 90
        0
176
     1
 62
    18
420
        0
176
     1
 90
       50
176
     1
 90
        3
176
     1
 62
     5
420
      255
176
     1
290
     0
176
     1
 90
       50
176
     1
 90
       50
176
     1
 90
       50
176
     1
290
     0
176
     1
 90
       50
176
     1
 62
   256
176
     0
 40
1.0
176
     0
 90
        2
176
     1
  1
strokes_ogs.tif
176
     1
290
     0
176
     1
 40
1.0
176
     1
 40
1.0
176
     1
  0
DICTIONARYVAR
  5
122
102
{ACAD_REACTORS
330
11D
102
}
330
11D
100
DictionaryVariables
280
     0
  1
1:1
  0
DICTIONARYVAR
  5
11F
102
{ACAD_REACTORS
330
11D
102
}
330
11D
100
DictionaryVariables
280
     0
  1
STANDARD
  0
DICTIONARYVAR
  5
11E
102
{ACAD_REACTORS
330
11D
102
}
330
11D
100
DictionaryVariables
280
     0
  1
STANDARD
  0
DICTIONARYVAR
  5
120
102
{ACAD_REACTORS
330
11D
102
}
330
11D
100
DictionaryVariables
280
     0
  1
Imperial24
  0
DICTIONARYVAR
  5
121
102
{ACAD_REACTORS
330
11D
102
}
330
11D
100
DictionaryVariables
280
     0
  1
Imperial24
  0
DICTIONARY
  5
1A
330
19
100
AcDbDictionary
280
     1
281
     1
  3
BUMPTILE
360
1C
  3
DIFFUSETILE
360
1B
  3
OPACITYTILE
360
1F
  3
REFLECTIONTILE
360
1E
  3
REFRACTIONTILE
360
20
  3
SPECULARTILE
360
1D
  0
DICTIONARY
  5
12
330
11
100
AcDbDictionary
280
     1
281
     1
  3
BUMPTILE
360
14
  3
DIFFUSETILE
360
13
  3
OPACITYTILE
360
17
  3
REFLECTIONTILE
360
16
  3
REFRACTIONTILE
360
18
  3
SPECULARTILE
360
15
  0
DICTIONARY
  5
22
330
21
100
AcDbDictionary
280
     1
281
     1
  3
BUMPTILE
360
24
  3
DIFFUSETILE
360
23
  3
OPACITYTILE
360
27
  3
REFLECTIONTILE
360
26
  3
REFRACTIONTILE
360
28
  3
SPECULARTILE
360
25
  0
DICTIONARY
  5
123
330
65
100
AcDbDictionary
280
     1
281
     1
  3
ACAD_ROUNDTRIP_2008_TABLESTYLE_CELLSTYLEMAP
360
124
  0
XRECORD
  5
1C
102
{ACAD_REACTORS
330
1A
102
}
330
1A
100
AcDbXrecord
280
     1
270
     1
271
     1
  0
XRECORD
  5
1B
102
{ACAD_REACTORS
330
1A
102
}
330
1A
100
AcDbXrecord
280
     1
270
     1
271
     1
  0
XRECORD
  5
1F
102
{ACAD_REACTORS
330
1A
102
}
330
1A
100
AcDbXrecord
280
     1
270
     1
271
     1
  0
XRECORD
  5
1E
102
{ACAD_REACTORS
330
1A
102
}
330
1A
100
AcDbXrecord
280
     1
270
     1
271
     1
  0
XRECORD
  5
20
102
{ACAD_REACTORS
330
1A
102
}
330
1A
100
AcDbXrecord
280
     1
270
     1
271
     1
  0
XRECORD
  5
1D
102
{ACAD_REACTORS
330
1A
102
}
330
1A
100
AcDbXrecord
280
     1
270
     1
271
     1
  0
XRECORD
  5
14
102
{ACAD_REACTORS
330
12
102
}
330
12
100
AcDbXrecord
280
     1
270
     1
271
     1
  0
XRECORD
  5
13
102
{ACAD_REACTORS
330
12
102
}
330
12
100
AcDbXrecord
280
     1
270
     1
271
     1
  0
XRECORD
  5
17
102
{ACAD_REACTORS
330
12
102
}
330
12
100
AcDbXrecord
280
     1
270
     1
271
     1
  0
XRECORD
  5
16
102
{ACAD_REACTORS
330
12
102
}
330
12
100
AcDbXrecord
280
     1
270
     1
271
     1
  0
XRECORD
  5
18
102
{ACAD_REACTORS
330
12
102
}
330
12
100
AcDbXrecord
280
     1
270
     1
271
     1
  0
XRECORD
  5
15
102
{ACAD_REACTORS
330
12
102
}
330
12
100
AcDbXrecord
280
     1
270
     1
271
     1
  0
XRECORD
  5
24
102
{ACAD_REACTORS
330
22
102
}
330
22
100
AcDbXrecord
280
     1
270
     1
271
     1
  0
XRECORD
  5
23
102
{ACAD_REACTORS
330
22
102
}
330
22
100
AcDbXrecord
280
     1
270
     1
271
     1
  0
XRECORD
  5
27
102
{ACAD_REACTORS
330
22
102
}
330
22
100
AcDbXrecord
280
     1
270
     1
271
     1
  0
XRECORD
  5
26
102
{ACAD_REACTORS
330
22
102
}
330
22
100
AcDbXrecord
280
     1
270
     1
271
     1
  0
XRECORD
  5
28
102
{ACAD_REACTORS
330
22
102
}
330
22
100
AcDbXrecord
280
     1
270
     1
271
     1
  0
XRECORD
  5
25
102
{ACAD_REACTORS
330
22
102
}
330
22
100
AcDbXrecord
280
     1
270
     1
271
     1
  0
CELLSTYLEMAP
  5
124
102
{ACAD_REACTORS
330
123
102
}
330
123
100
AcDbCellStyleMap
 90
        3
300
CELLSTYLE
  1
TABLEFORMAT_BEGIN
 90
        5
170
     1
 91
        0
 92
    32768
 62
   257
 93
        1
300
CONTENTFORMAT
  1
CONTENTFORMAT_BEGIN
 90
        0
 91
        0
 92
      512
 93
        0
300

 40
0.0
140
1.0
 94
        5
 62
     0
340
55
144
0.25
309
CONTENTFORMAT_END
171
     0
 94
        0
309
TABLEFORMAT_END
  1
CELLSTYLE_BEGIN
 90
        1
 91
        1
300
_TITLE
309
CELLSTYLE_END
300
CELLSTYLE
  1
TABLEFORMAT_BEGIN
 90
        5
170
     1
 91
        0
 92
        0
 62
   257
 93
        1
300
CONTENTFORMAT
  1
CONTENTFORMAT_BEGIN
 90
        0
 91
        0
 92
      512
 93
        0
300

 40
0.0
140
1.0
 94
        5
 62
     0
340
55
144
0.18
309
CONTENTFORMAT_END
171
     0
 94
        0
309
TABLEFORMAT_END
  1
CELLSTYLE_BEGIN
 90
        2
 91
        1
300
_HEADER
309
CELLSTYLE_END
300
CELLSTYLE
  1
TABLEFORMAT_BEGIN
 90
        5
170
     1
 91
        0
 92
        0
 62
   257
 93
        1
300
CONTENTFORMAT
  1
CONTENTFORMAT_BEGIN
 90
        0
 91
        0
 92
      512
 93
        0
300

 40
0.0
140
1.0
 94
        2
 62
     0
340
55
144
0.18
309
CONTENTFORMAT_END
171
     0
 94
        0
309
TABLEFORMAT_END
  1
CELLSTYLE_BEGIN
 90
        3
 91
        2
300
_DATA
309
CELLSTYLE_END
  0
ENDSEC
  0
EOF
